  0
SECTION
  2
HEADER
  9
$ACADVER
  1
AC1009
  9
$LUNITS
 70
2
  9
$LUPREC
 70
4
  9
$LTSCALE
 40
1.0
  9
$EXTMIN
 10
33.7873
 20
-259.334
 30
0
  9
$EXTMAX
 10
230.7955
 20
22.6587
 30
0
  0
ENDSEC
  0
SECTION
  2
TABLES
  0
TABLE
  2
LTYPE
 70
256
  0
LTYPE
  2
AIGENLINE001
 70
64
  3
generate AI->DXF Converter
 72
65
 73
4
 40
14
 49
11
 49
-1
 49
1
 49
-1
  0
LTYPE
  2
AIGENLINE002
 70
64
  3
generate AI->DXF Converter
 72
65
 73
2
 40
13
 49
10
 49
-3
  0
LTYPE
  2
AIGENLINE003
 70
64
  3
generate AI->DXF Converter
 72
65
 73
2
 40
14
 49
12
 49
-2
  0
ENDTAB
  0
TABLE
  2
LAYER
 70
6
  0
LAYER
  2
LAYER_1
 70
64
 62
7
  6
CONTINUOUS
  0
LAYER
  2
LAYER_2
 70
64
 62
7
  6
CONTINUOUS
  0
LAYER
  2
LAYER_3
 70
64
 62
7
  6
CONTINUOUS
  0
LAYER
  2
LAYER_4
 70
64
 62
7
  6
CONTINUOUS
  0
LAYER
  2
LAYER_5
 70
64
 62
7
  6
CONTINUOUS
  0
LAYER
  2
LAYER_6
 70
64
 62
7
  6
CONTINUOUS
  0
ENDTAB
  0
TABLE
  2
STYLE
 70
6
  0
STYLE
  2
STANDARD
 70
0
 40
0
 50
0
 71
0
 41
0
 42
0
  3
TXT
  4
BIGFONT
  0
ENDTAB
  0
ENDSEC
  0
SECTION
  2
BLOCKS
  0
BLOCK
  8
LAYER_1
  2
AIGNBL01040005
 70
64
 10
0
 20
0
 30
0
  3
AIGNBL01040005
  0
POLYLINE
  8
LAYER_1
 40
0.05
 41
0.05
 66
1
 10
0
 20
0
 30
0
 70
1
  0
VERTEX
  8
LAYER_1
 10
138.3767
 20
-249.1011
  0
VERTEX
  8
LAYER_1
 10
137.891
 20
-250.2793
  0
VERTEX
  8
LAYER_1
 10
137.2664
 20
-250.2793
  0
VERTEX
  8
LAYER_1
 10
138.857
 20
-246.5355
  0
VERTEX
  8
LAYER_1
 10
139.586
 20
-246.5355
  0
VERTEX
  8
LAYER_1
 10
141.1828
 20
-250.2793
  0
VERTEX
  8
LAYER_1
 10
140.5365
 20
-250.2793
  0
VERTEX
  8
LAYER_1
 10
140.0369
 20
-249.1011
  0
SEQEND
  0
POLYLINE
  8
LAYER_1
 40
0.05
 41
0.05
 66
1
 10
0
 20
0
 30
0
 70
1
  0
VERTEX
  8
LAYER_1
 10
139.9115
 20
-248.7245
  0
VERTEX
  8
LAYER_1
 10
139.4533
 20
-247.6459
 42
-0.02267506524
  0
VERTEX
  8
LAYER_1
 10
139.2101
 20
-246.963
  0
VERTEX
  8
LAYER_1
 10
139.1967
 20
-246.963
 42
-0.02084266043
  0
VERTEX
  8
LAYER_1
 10
138.9603
 20
-247.6414
  0
VERTEX
  8
LAYER_1
 10
138.5021
 20
-248.7245
  0
SEQEND
  0
ENDBLK
  0
BLOCK
  8
LAYER_1
  2
AIGNBL01040006
 70
64
 10
0
 20
0
 30
0
  3
AIGNBL01040006
  0
POLYLINE
  8
LAYER_1
 40
0.05
 41
0.05
 66
1
 10
0
 20
0
 30
0
 70
1
  0
VERTEX
  8
LAYER_1
 10
145.5226
 20
-250.8295
 42
-0.01550180985
  0
VERTEX
  8
LAYER_1
 10
143.7311
 20
-250.3954
 42
0.09208348225
  0
VERTEX
  8
LAYER_1
 10
143.4465
 20
-250.3406
 42
-0.09252107557
  0
VERTEX
  8
LAYER_1
 10
142.4981
 20
-250.139
 42
-0.09792797557
  0
VERTEX
  8
LAYER_1
 10
141.8642
 20
-249.7067
 42
-0.1631033753
  0
VERTEX
  8
LAYER_1
 10
141.401
 20
-248.7192
 42
-0.03157985926
  0
VERTEX
  8
LAYER_1
 10
141.3839
 20
-248.4469
 42
-0.1088259969
  0
VERTEX
  8
LAYER_1
 10
141.5673
 20
-247.5875
 42
-0.1618048679
  0
VERTEX
  8
LAYER_1
 10
142.3628
 20
-246.7577
 42
-0.09175073832
  0
VERTEX
  8
LAYER_1
 10
143.1629
 20
-246.5018
 42
-0.03454354202
  0
VERTEX
  8
LAYER_1
 10
143.5644
 20
-246.4745
 42
-0.09527006366
  0
VERTEX
  8
LAYER_1
 10
144.5227
 20
-246.6511
 42
-0.1001818692
  0
VERTEX
  8
LAYER_1
 10
145.1563
 20
-247.0713
 42
-0.1611434138
  0
VERTEX
  8
LAYER_1
 10
145.6402
 20
-248.0664
 42
-0.03591204318
  0
VERTEX
  8
LAYER_1
 10
145.6617
 20
-248.3686
 42
-0.1066586367
  0
VERTEX
  8
LAYER_1
 10
145.4864
 20
-249.2186
 42
-0.2185717489
  0
VERTEX
  8
LAYER_1
 10
144.3825
 20
-250.147
 42
-0.006705231958
  0
VERTEX
  8
LAYER_1
 10
144.3281
 20
-250.1628
  0
VERTEX
  8
LAYER_1
 10
144.3281
 20
-250.1852
 42
0.01501268135
  0
VERTEX
  8
LAYER_1
 10
145.6965
 20
-250.424
  0
SEQEND
  0
POLYLINE
  8
LAYER_1
 40
0.05
 41
0.05
 66
1
 10
0
 20
0
 30
0
 70
1
  0
VERTEX
  8
LAYER_1
 10
145.0233
 20
-248.39
 42
0.1175404168
  0
VERTEX
  8
LAYER_1
 10
144.842
 20
-247.6261
 42
0.1170585149
  0
VERTEX
  8
LAYER_1
 10
144.419
 20
-247.1311
 42
0.1200111465
  0
VERTEX
  8
LAYER_1
 10
143.8094
 20
-246.8884
 42
0.0377207096
  0
VERTEX
  8
LAYER_1
 10
143.5433
 20
-246.8687
 42
0.1152954241
  0
VERTEX
  8
LAYER_1
 10
142.8054
 20
-247.0324
 42
0.1853004926
  0
VERTEX
  8
LAYER_1
 10
142.1509
 20
-247.7624
 42
0.09848637078
  0
VERTEX
  8
LAYER_1
 10
142.0296
 20
-248.4344
 42
0.120860713
  0
VERTEX
  8
LAYER_1
 10
142.2045
 20
-249.1849
 42
0.2836170694
  0
VERTEX
  8
LAYER_1
 10
143.5161
 20
-249.9468
 42
0.1188766714
  0
VERTEX
  8
LAYER_1
 10
144.2605
 20
-249.7757
 42
0.1796046283
  0
VERTEX
  8
LAYER_1
 10
144.8972
 20
-249.063
 42
0.09851098502
  0
SEQEND
  0
ENDBLK
  0
BLOCK
  8
LAYER_1
  2
AIGNBL01040007
 70
64
 10
0
 20
0
 30
0
  3
AIGNBL01040007
  0
POLYLINE
  8
LAYER_1
 40
0.05
 41
0.05
 66
1
 10
0
 20
0
 30
0
 70
1
  0
VERTEX
  8
LAYER_1
 10
146.9815
 20
-246.5355
  0
VERTEX
  8
LAYER_1
 10
146.9815
 20
-248.7517
 42
0.1257910062
  0
VERTEX
  8
LAYER_1
 10
147.1475
 20
-249.4752
 42
0.2217269733
  0
VERTEX
  8
LAYER_1
 10
147.7914
 20
-249.9203
 42
0.04937688774
  0
VERTEX
  8
LAYER_1
 10
148.0716
 20
-249.9468
 42
0.1302851362
  0
VERTEX
  8
LAYER_1
 10
148.7372
 20
-249.787
 42
0.1509632316
  0
VERTEX
  8
LAYER_1
 10
149.0862
 20
-249.3957
 42
0.1174446198
  0
VERTEX
  8
LAYER_1
 10
149.2105
 20
-248.7517
  0
VERTEX
  8
LAYER_1
 10
149.2105
 20
-246.5355
  0
VERTEX
  8
LAYER_1
 10
149.8217
 20
-246.5355
  0
VERTEX
  8
LAYER_1
 10
149.8217
 20
-248.7187
 42
-0.1106784388
  0
VERTEX
  8
LAYER_1
 10
149.6531
 20
-249.5323
 42
-0.1857051526
  0
VERTEX
  8
LAYER_1
 10
148.9481
 20
-250.1807
 42
-0.09650175554
  0
VERTEX
  8
LAYER_1
 10
148.1451
 20
-250.3392
 42
-0.007939811217
  0
VERTEX
  8
LAYER_1
 10
148.0509
 20
-250.3406
 42
-0.102315967
  0
VERTEX
  8
LAYER_1
 10
147.1661
 20
-250.1733
 42
-0.1218859814
  0
VERTEX
  8
LAYER_1
 10
146.6722
 20
-249.7872
 42
-0.1186228201
  0
VERTEX
  8
LAYER_1
 10
146.4122
 20
-249.188
 42
-0.0498693672
  0
VERTEX
  8
LAYER_1
 10
146.3707
 20
-248.7404
  0
VERTEX
  8
LAYER_1
 10
146.3707
 20
-246.5355
  0
SEQEND
  0
ENDBLK
  0
BLOCK
  8
LAYER_1
  2
AIGNBL01040008
 70
64
 10
0
 20
0
 30
0
  3
AIGNBL01040008
  0
POLYLINE
  8
LAYER_1
 40
0.05
 41
0.05
 66
1
 10
0
 20
0
 30
0
 70
1
  0
VERTEX
  8
LAYER_1
 10
151.5573
 20
-249.1011
  0
VERTEX
  8
LAYER_1
 10
151.0709
 20
-250.2793
  0
VERTEX
  8
LAYER_1
 10
150.447
 20
-250.2793
  0
VERTEX
  8
LAYER_1
 10
152.0365
 20
-246.5355
  0
VERTEX
  8
LAYER_1
 10
152.7655
 20
-246.5355
  0
VERTEX
  8
LAYER_1
 10
154.3623
 20
-250.2793
  0
VERTEX
  8
LAYER_1
 10
153.7167
 20
-250.2793
  0
VERTEX
  8
LAYER_1
 10
153.2175
 20
-249.1011
  0
SEQEND
  0
POLYLINE
  8
LAYER_1
 40
0.05
 41
0.05
 66
1
 10
0
 20
0
 30
0
 70
1
  0
VERTEX
  8
LAYER_1
 10
153.0921
 20
-248.7245
  0
VERTEX
  8
LAYER_1
 10
152.6332
 20
-247.6459
 42
-0.02235179902
  0
VERTEX
  8
LAYER_1
 10
152.3897
 20
-246.963
  0
VERTEX
  8
LAYER_1
 10
152.3759
 20
-246.963
 42
-0.02046417189
  0
VERTEX
  8
LAYER_1
 10
152.1402
 20
-247.6414
  0
VERTEX
  8
LAYER_1
 10
151.682
 20
-248.7245
  0
SEQEND
  0
ENDBLK
  0
BLOCK
  8
LAYER_1
  2
AIGNBL01040009
 70
64
 10
0
 20
0
 30
0
  3
AIGNBL01040009
  0
POLYLINE
  8
LAYER_1
 40
0.05
 41
0.05
 66
1
 10
0
 20
0
 30
0
 70
1
  0
VERTEX
  8
LAYER_1
 10
155.3969
 20
-246.58
 42
-0.03349666815
  0
VERTEX
  8
LAYER_1
 10
156.5576
 20
-246.5072
 42
-0.09004353297
  0
VERTEX
  8
LAYER_1
 10
157.6057
 20
-246.6749
 42
-0.05888505928
  0
VERTEX
  8
LAYER_1
 10
157.8691
 20
-246.8184
 42
-0.2472492651
  0
VERTEX
  8
LAYER_1
 10
158.279
 20
-247.6018
 42
-0.1502534052
  0
VERTEX
  8
LAYER_1
 10
158.1063
 20
-248.1984
 42
-0.07033867127
  0
VERTEX
  8
LAYER_1
 10
157.9177
 20
-248.4014
 42
-0.1211283655
  0
VERTEX
  8
LAYER_1
 10
157.2351
 20
-248.728
 42
-0.06222086556
  0
VERTEX
  8
LAYER_1
 10
156.4872
 20
-248.8127
 42
-0.05750856268
  0
VERTEX
  8
LAYER_1
 10
156.0015
 20
-248.7793
  0
VERTEX
  8
LAYER_1
 10
156.0015
 20
-250.2793
  0
VERTEX
  8
LAYER_1
 10
155.3969
 20
-250.2793
  0
SEQEND
  0
POLYLINE
  8
LAYER_1
 40
0.05
 41
0.05
 66
1
 10
0
 20
0
 30
0
 70
1
  0
VERTEX
  8
LAYER_1
 10
156.0015
 20
-248.3852
 42
0.04897120882
  0
VERTEX
  8
LAYER_1
 10
156.501
 20
-248.4245
 42
0.1137012619
  0
VERTEX
  8
LAYER_1
 10
157.2816
 20
-248.2659
 42
0.1652714782
  0
VERTEX
  8
LAYER_1
 10
157.6173
 20
-247.9196
 42
0.1043893073
  0
VERTEX
  8
LAYER_1
 10
157.6751
 20
-247.6242
 42
0.2865639904
  0
VERTEX
  8
LAYER_1
 10
157.3169
 20
-247.0395
 42
0.06445412413
  0
VERTEX
  8
LAYER_1
 10
157.0376
 20
-246.9388
 42
0.05784391407
  0
VERTEX
  8
LAYER_1
 10
156.5713
 20
-246.891
 42
0.05268039105
  0
VERTEX
  8
LAYER_1
 10
156.0015
 20
-246.93
  0
SEQEND
  0
ENDBLK
  0
BLOCK
  8
LAYER_1
  2
AIGNBL0104000A
 70
64
 10
0
 20
0
 30
0
  3
AIGNBL0104000A
  0
POLYLINE
  8
LAYER_1
 40
0.05
 41
0.05
 66
1
 10
0
 20
0
 30
0
 70
1
  0
VERTEX
  8
LAYER_1
 10
159.8218
 20
-246.8352
 42
-0.3039545568
  0
VERTEX
  8
LAYER_1
 10
159.6562
 20
-247.0887
 42
-0.1152466046
  0
VERTEX
  8
LAYER_1
 10
159.4325
 20
-247.1356
 42
-0.2445179838
  0
VERTEX
  8
LAYER_1
 10
159.1045
 20
-246.9759
 42
-0.1392448976
  0
VERTEX
  8
LAYER_1
 10
159.0645
 20
-246.8352
 42
-0.2871964131
  0
VERTEX
  8
LAYER_1
 10
159.2352
 20
-246.5772
 42
-0.118108641
  0
VERTEX
  8
LAYER_1
 10
159.4459
 20
-246.53
 42
-0.2414655549
  0
VERTEX
  8
LAYER_1
 10
159.7788
 20
-246.6849
 42
-0.1427828857
  0
SEQEND
  0
POLYLINE
  8
LAYER_1
 40
0.05
 41
0.05
 66
1
 10
0
 20
0
 30
0
 70
1
  0
VERTEX
  8
LAYER_1
 10
159.1407
 20
-250.2793
  0
VERTEX
  8
LAYER_1
 10
159.1407
 20
-247.5907
  0
VERTEX
  8
LAYER_1
 10
159.7515
 20
-247.5907
  0
VERTEX
  8
LAYER_1
 10
159.7515
 20
-250.2793
  0
SEQEND
  0
ENDBLK
  0
BLOCK
  8
LAYER_1
  2
AIGNBL0104000B
 70
64
 10
0
 20
0
 30
0
  3
AIGNBL0104000B
  0
POLYLINE
  8
LAYER_1
 40
0.05
 41
0.05
 66
1
 10
0
 20
0
 30
0
 70
1
  0
VERTEX
  8
LAYER_1
 10
161.6118
 20
-249.1011
  0
VERTEX
  8
LAYER_1
 10
161.1271
 20
-250.2793
  0
VERTEX
  8
LAYER_1
 10
160.5015
 20
-250.2793
  0
VERTEX
  8
LAYER_1
 10
162.0918
 20
-246.5355
  0
VERTEX
  8
LAYER_1
 10
162.8211
 20
-246.5355
  0
VERTEX
  8
LAYER_1
 10
164.4186
 20
-250.2793
  0
VERTEX
  8
LAYER_1
 10
163.7719
 20
-250.2793
  0
VERTEX
  8
LAYER_1
 10
163.2727
 20
-249.1011
  0
SEQEND
  0
POLYLINE
  8
LAYER_1
 40
0.05
 41
0.05
 66
1
 10
0
 20
0
 30
0
 70
1
  0
VERTEX
  8
LAYER_1
 10
163.1473
 20
-248.7245
  0
VERTEX
  8
LAYER_1
 10
162.6891
 20
-247.6459
 42
-0.02473673698
  0
VERTEX
  8
LAYER_1
 10
162.4466
 20
-246.963
  0
VERTEX
  8
LAYER_1
 10
162.4321
 20
-246.963
 42
-0.01905982629
  0
VERTEX
  8
LAYER_1
 10
162.1961
 20
-247.6414
  0
VERTEX
  8
LAYER_1
 10
161.7379
 20
-248.7245
  0
SEQEND
  0
ENDBLK
  0
BLOCK
  8
LAYER_1
  2
AIGNBL01030004
 70
64
 10
0
 20
0
 30
0
  3
AIGNBL01030004
  0
INSERT
  8
LAYER_1
  2
AIGNBL01040005
 10
0
 20
0
 30
0
  0
INSERT
  8
LAYER_1
  2
AIGNBL01040006
 10
0
 20
0
 30
0
  0
INSERT
  8
LAYER_1
  2
AIGNBL01040007
 10
0
 20
0
 30
0
  0
INSERT
  8
LAYER_1
  2
AIGNBL01040008
 10
0
 20
0
 30
0
  0
INSERT
  8
LAYER_1
  2
AIGNBL01040009
 10
0
 20
0
 30
0
  0
INSERT
  8
LAYER_1
  2
AIGNBL0104000A
 10
0
 20
0
 30
0
  0
INSERT
  8
LAYER_1
  2
AIGNBL0104000B
 10
0
 20
0
 30
0
  0
ENDBLK
  0
BLOCK
  8
LAYER_1
  2
AIGNBL0103000D
 70
64
 10
0
 20
0
 30
0
  3
AIGNBL0103000D
  0
POLYLINE
  8
LAYER_1
 40
0.05
 41
0.05
 66
1
 10
0
 20
0
 30
0
 70
1
  0
VERTEX
  8
LAYER_1
 10
137.3756
 20
-252.1676
  0
VERTEX
  8
LAYER_1
 10
137.9258
 20
-252.1676
  0
VERTEX
  8
LAYER_1
 10
137.9258
 20
-252.2609
  0
VERTEX
  8
LAYER_1
 10
137.2715
 20
-252.2609
  0
VERTEX
  8
LAYER_1
 10
137.2715
 20
-251.2339
  0
VERTEX
  8
LAYER_1
 10
137.9082
 20
-251.2339
  0
VERTEX
  8
LAYER_1
 10
137.9082
 20
-251.3266
  0
VERTEX
  8
LAYER_1
 10
137.3756
 20
-251.3266
  0
VERTEX
  8
LAYER_1
 10
137.3756
 20
-251.6787
  0
VERTEX
  8
LAYER_1
 10
137.8734
 20
-251.6787
  0
VERTEX
  8
LAYER_1
 10
137.8734
 20
-251.7717
  0
VERTEX
  8
LAYER_1
 10
137.3756
 20
-251.7717
  0
SEQEND
  0
ENDBLK
  0
BLOCK
  8
LAYER_1
  2
AIGNBL0103000E
 70
64
 10
0
 20
0
 30
0
  3
AIGNBL0103000E
  0
POLYLINE
  8
LAYER_1
 40
0.05
 41
0.05
 66
1
 10
0
 20
0
 30
0
 70
1
  0
VERTEX
  8
LAYER_1
 10
139.0589
 20
-252.1079
  0
VERTEX
  8
LAYER_1
 10
139.0613
 20
-252.1079
  0
VERTEX
  8
LAYER_1
 10
139.0613
 20
-251.2339
  0
VERTEX
  8
LAYER_1
 10
139.1663
 20
-251.2339
  0
VERTEX
  8
LAYER_1
 10
139.1663
 20
-252.2609
  0
VERTEX
  8
LAYER_1
 10
139.0365
 20
-252.2609
  0
VERTEX
  8
LAYER_1
 10
138.4384
 20
-251.3772
  0
VERTEX
  8
LAYER_1
 10
138.435
 20
-251.3772
  0
VERTEX
  8
LAYER_1
 10
138.435
 20
-252.2609
  0
VERTEX
  8
LAYER_1
 10
138.3306
 20
-252.2609
  0
VERTEX
  8
LAYER_1
 10
138.3306
 20
-251.2339
  0
VERTEX
  8
LAYER_1
 10
138.4611
 20
-251.2339
  0
SEQEND
  0
ENDBLK
  0
BLOCK
  8
LAYER_1
  2
AIGNBL0103000F
 70
64
 10
0
 20
0
 30
0
  3
AIGNBL0103000F
  0
POLYLINE
  8
LAYER_1
 40
0.05
 41
0.05
 66
1
 10
0
 20
0
 30
0
 70
1
  0
VERTEX
  8
LAYER_1
 10
139.637
 20
-252.0501
 42
0.1590284934
  0
VERTEX
  8
LAYER_1
 10
139.691
 20
-252.1527
 42
0.1903970375
  0
VERTEX
  8
LAYER_1
 10
139.8034
 20
-252.1937
  0
VERTEX
  8
LAYER_1
 10
139.8922
 20
-252.1744
  0
VERTEX
  8
LAYER_1
 10
139.948
 20
-252.1214
  0
VERTEX
  8
LAYER_1
 10
139.9763
 20
-252.0453
  0
VERTEX
  8
LAYER_1
 10
139.9853
 20
-251.956
  0
VERTEX
  8
LAYER_1
 10
139.9853
 20
-251.2339
  0
VERTEX
  8
LAYER_1
 10
140.0893
 20
-251.2339
  0
VERTEX
  8
LAYER_1
 10
140.0893
 20
-251.965
  0
VERTEX
  8
LAYER_1
 10
140.0783
 20
-252.0718
 42
-0.08830433873
  0
VERTEX
  8
LAYER_1
 10
140.0369
 20
-252.1765
 42
-0.1153589887
  0
VERTEX
  8
LAYER_1
 10
139.9529
 20
-252.2554
 42
-0.1266166698
  0
VERTEX
  8
LAYER_1
 10
139.8147
 20
-252.2868
 42
-0.1823786802
  0
VERTEX
  8
LAYER_1
 10
139.6311
 20
-252.2268
 42
-0.1773090787
  0
VERTEX
  8
LAYER_1
 10
139.5391
 20
-252.0769
  0
SEQEND
  0
ENDBLK
  0
BLOCK
  8
LAYER_1
  2
AIGNBL01030010
 70
64
 10
0
 20
0
 30
0
  3
AIGNBL01030010
  0
POLYLINE
  8
LAYER_1
 40
0.05
 41
0.05
 66
1
 10
0
 20
0
 30
0
 70
1
  0
VERTEX
  8
LAYER_1
 10
141.5693
 20
-251.7469
 42
-0.1023745756
  0
VERTEX
  8
LAYER_1
 10
141.5279
 20
-251.9629
 42
-0.1012381663
  0
VERTEX
  8
LAYER_1
 10
141.4163
 20
-252.1338
 42
-0.09607034471
  0
VERTEX
  8
LAYER_1
 10
141.2458
 20
-252.2461
 42
-0.09758991962
  0
VERTEX
  8
LAYER_1
 10
141.0332
 20
-252.2868
 42
-0.09910038025
  0
VERTEX
  8
LAYER_1
 10
140.8207
 20
-252.2461
 42
-0.09835332354
  0
VERTEX
  8
LAYER_1
 10
140.6512
 20
-252.1338
 42
-0.09652080474
  0
VERTEX
  8
LAYER_1
 10
140.5389
 20
-251.9629
 42
-0.09814472372
  0
VERTEX
  8
LAYER_1
 10
140.4986
 20
-251.7469
 42
-0.1026891031
  0
VERTEX
  8
LAYER_1
 10
140.5389
 20
-251.5306
 42
-0.09919197624
  0
VERTEX
  8
LAYER_1
 10
140.6512
 20
-251.3604
 42
-0.09851015914
  0
VERTEX
  8
LAYER_1
 10
140.8207
 20
-251.2481
 42
-0.0978389277
  0
VERTEX
  8
LAYER_1
 10
141.0332
 20
-251.2071
 42
-0.1012755921
  0
VERTEX
  8
LAYER_1
 10
141.2458
 20
-251.2481
 42
-0.101055447
  0
VERTEX
  8
LAYER_1
 10
141.4163
 20
-251.3604
 42
-0.100284748
  0
VERTEX
  8
LAYER_1
 10
141.5279
 20
-251.5306
 42
-0.09841189494
  0
SEQEND
  0
POLYLINE
  8
LAYER_1
 40
0.05
 41
0.05
 66
1
 10
0
 20
0
 30
0
 70
1
  0
VERTEX
  8
LAYER_1
 10
141.4584
 20
-251.7476
 42
0.08348185165
  0
VERTEX
  8
LAYER_1
 10
141.4301
 20
-251.5767
 42
0.09888736064
  0
VERTEX
  8
LAYER_1
 10
141.3454
 20
-251.4344
 42
0.1046117232
  0
VERTEX
  8
LAYER_1
 10
141.211
 20
-251.337
 42
0.1084373712
  0
VERTEX
  8
LAYER_1
 10
141.0332
 20
-251.3001
 42
0.1126508353
  0
VERTEX
  8
LAYER_1
 10
140.8558
 20
-251.337
 42
0.1080671084
  0
VERTEX
  8
LAYER_1
 10
140.7225
 20
-251.4344
 42
0.09765540905
  0
VERTEX
  8
LAYER_1
 10
140.6374
 20
-251.5767
 42
0.08446298011
  0
VERTEX
  8
LAYER_1
 10
140.6081
 20
-251.7476
 42
0.08257781466
  0
VERTEX
  8
LAYER_1
 10
140.6374
 20
-251.9188
 42
0.1022479965
  0
VERTEX
  8
LAYER_1
 10
140.7225
 20
-252.0607
 42
0.1007994813
  0
VERTEX
  8
LAYER_1
 10
140.8558
 20
-252.1575
 42
0.1058339915
  0
VERTEX
  8
LAYER_1
 10
141.0332
 20
-252.1937
 42
0.1146720599
  0
VERTEX
  8
LAYER_1
 10
141.211
 20
-252.1575
 42
0.1074750371
  0
VERTEX
  8
LAYER_1
 10
141.3454
 20
-252.0607
 42
0.0957445035
  0
VERTEX
  8
LAYER_1
 10
141.4301
 20
-251.9188
 42
0.08253202369
  0
SEQEND
  0
ENDBLK
  0
BLOCK
  8
LAYER_1
  2
AIGNBL01030011
 70
64
 10
0
 20
0
 30
0
  3
AIGNBL01030011
  0
POLYLINE
  8
LAYER_1
 40
0.05
 41
0.05
 66
1
 10
0
 20
0
 30
0
 70
1
  0
VERTEX
  8
LAYER_1
 10
142.3393
 20
-252.2609
  0
VERTEX
  8
LAYER_1
 10
142.2349
 20
-252.2609
  0
VERTEX
  8
LAYER_1
 10
142.2349
 20
-251.8182
  0
VERTEX
  8
LAYER_1
 10
141.8504
 20
-251.2339
  0
VERTEX
  8
LAYER_1
 10
141.9813
 20
-251.2339
  0
VERTEX
  8
LAYER_1
 10
142.2904
 20
-251.7311
  0
VERTEX
  8
LAYER_1
 10
142.6022
 20
-251.2339
  0
VERTEX
  8
LAYER_1
 10
142.7234
 20
-251.2339
  0
VERTEX
  8
LAYER_1
 10
142.3393
 20
-251.8182
  0
SEQEND
  0
ENDBLK
  0
BLOCK
  8
LAYER_1
  2
AIGNBL01030012
 70
64
 10
0
 20
0
 30
0
  3
AIGNBL01030012
  0
POLYLINE
  8
LAYER_1
 40
0.05
 41
0.05
 66
1
 10
0
 20
0
 30
0
 70
1
  0
VERTEX
  8
LAYER_1
 10
143.6236
 20
-251.2339
  0
VERTEX
  8
LAYER_1
 10
143.9288
 20
-251.2339
  0
VERTEX
  8
LAYER_1
 10
144.047
 20
-251.2457
  0
VERTEX
  8
LAYER_1
 10
144.1528
 20
-251.288
 42
-0.1142786728
  0
VERTEX
  8
LAYER_1
 10
144.2307
 20
-251.3686
 42
-0.1221660448
  0
VERTEX
  8
LAYER_1
 10
144.2603
 20
-251.4961
 42
-0.1789908253
  0
VERTEX
  8
LAYER_1
 10
144.2103
 20
-251.6373
 42
-0.1682964985
  0
VERTEX
  8
LAYER_1
 10
144.078
 20
-251.7166
  0
VERTEX
  8
LAYER_1
 10
144.078
 20
-251.7194
 42
-0.1720252291
  0
VERTEX
  8
LAYER_1
 10
144.2434
 20
-251.7969
 42
-0.2011476059
  0
VERTEX
  8
LAYER_1
 10
144.3099
 20
-251.9764
 42
-0.1263581039
  0
VERTEX
  8
LAYER_1
 10
144.2823
 20
-252.0928
 42
-0.1151202894
  0
VERTEX
  8
LAYER_1
 10
144.2062
 20
-252.1831
 42
-0.08559391469
  0
VERTEX
  8
LAYER_1
 10
144.0866
 20
-252.2402
 42
-0.06581098886
  0
VERTEX
  8
LAYER_1
 10
143.9275
 20
-252.2609
  0
VERTEX
  8
LAYER_1
 10
143.6236
 20
-252.2609
  0
SEQEND
  0
POLYLINE
  8
LAYER_1
 40
0.05
 41
0.05
 66
1
 10
0
 20
0
 30
0
 70
1
  0
VERTEX
  8
LAYER_1
 10
143.7277
 20
-251.6832
  0
VERTEX
  8
LAYER_1
 10
143.9382
 20
-251.6832
  0
VERTEX
  8
LAYER_1
 10
144.0146
 20
-251.6742
  0
VERTEX
  8
LAYER_1
 10
144.0842
 20
-251.6453
  0
VERTEX
  8
LAYER_1
 10
144.1362
 20
-251.5888
 42
0.1124449043
  0
VERTEX
  8
LAYER_1
 10
144.1552
 20
-251.5034
  0
VERTEX
  8
LAYER_1
 10
144.1362
 20
-251.4203
  0
VERTEX
  8
LAYER_1
 10
144.0835
 20
-251.3638
  0
VERTEX
  8
LAYER_1
 10
144.005
 20
-251.3328
  0
VERTEX
  8
LAYER_1
 10
143.9089
 20
-251.3235
  0
VERTEX
  8
LAYER_1
 10
143.7277
 20
-251.3235
  0
SEQEND
  0
POLYLINE
  8
LAYER_1
 40
0.05
 41
0.05
 66
1
 10
0
 20
0
 30
0
 70
1
  0
VERTEX
  8
LAYER_1
 10
143.7277
 20
-252.171
  0
VERTEX
  8
LAYER_1
 10
143.9223
 20
-252.171
  0
VERTEX
  8
LAYER_1
 10
144.0301
 20
-252.1596
  0
VERTEX
  8
LAYER_1
 10
144.1204
 20
-252.1252
  0
VERTEX
  8
LAYER_1
 10
144.181
 20
-252.0625
 42
0.1349508047
  0
VERTEX
  8
LAYER_1
 10
144.2048
 20
-251.9705
 42
0.2483168689
  0
VERTEX
  8
LAYER_1
 10
144.1362
 20
-251.8189
 42
0.1537491355
  0
VERTEX
  8
LAYER_1
 10
143.9413
 20
-251.7686
  0
VERTEX
  8
LAYER_1
 10
143.7277
 20
-251.7686
  0
SEQEND
  0
ENDBLK
  0
BLOCK
  8
LAYER_1
  2
AIGNBL01030013
 70
64
 10
0
 20
0
 30
0
  3
AIGNBL01030013
  0
POLYLINE
  8
LAYER_1
 40
0.05
 41
0.05
 66
1
 10
0
 20
0
 30
0
 70
1
  0
VERTEX
  8
LAYER_1
 10
144.7388
 20
-252.2609
  0
VERTEX
  8
LAYER_1
 10
144.6241
 20
-252.2609
  0
VERTEX
  8
LAYER_1
 10
145.0685
 20
-251.2339
  0
VERTEX
  8
LAYER_1
 10
145.1705
 20
-251.2339
  0
VERTEX
  8
LAYER_1
 10
145.6111
 20
-252.2609
  0
VERTEX
  8
LAYER_1
 10
145.4943
 20
-252.2609
  0
VERTEX
  8
LAYER_1
 10
145.3813
 20
-251.9912
  0
VERTEX
  8
LAYER_1
 10
144.8504
 20
-251.9912
  0
SEQEND
  0
POLYLINE
  8
LAYER_1
 40
0.05
 41
0.05
 66
1
 10
0
 20
0
 30
0
 70
1
  0
VERTEX
  8
LAYER_1
 10
144.8894
 20
-251.8947
  0
VERTEX
  8
LAYER_1
 10
145.3424
 20
-251.8947
  0
VERTEX
  8
LAYER_1
 10
145.1164
 20
-251.3493
  0
SEQEND
  0
ENDBLK
  0
BLOCK
  8
LAYER_1
  2
AIGNBL01030014
 70
64
 10
0
 20
0
 30
0
  3
AIGNBL01030014
  0
POLYLINE
  8
LAYER_1
 40
0.05
 41
0.05
 66
1
 10
0
 20
0
 30
0
 70
1
  0
VERTEX
  8
LAYER_1
 10
146.2915
 20
-252.2609
  0
VERTEX
  8
LAYER_1
 10
146.1871
 20
-252.2609
  0
VERTEX
  8
LAYER_1
 10
146.1871
 20
-251.3266
  0
VERTEX
  8
LAYER_1
 10
145.8426
 20
-251.3266
  0
VERTEX
  8
LAYER_1
 10
145.8426
 20
-251.2339
  0
VERTEX
  8
LAYER_1
 10
146.635
 20
-251.2339
  0
VERTEX
  8
LAYER_1
 10
146.635
 20
-251.3266
  0
VERTEX
  8
LAYER_1
 10
146.2915
 20
-251.3266
  0
SEQEND
  0
ENDBLK
  0
BLOCK
  8
LAYER_1
  2
AIGNBL01030015
 70
64
 10
0
 20
0
 30
0
  3
AIGNBL01030015
  0
POLYLINE
  8
LAYER_1
 40
0.05
 41
0.05
 66
1
 10
0
 20
0
 30
0
 70
1
  0
VERTEX
  8
LAYER_1
 10
146.9888
 20
-251.2339
  0
VERTEX
  8
LAYER_1
 10
147.0932
 20
-251.2339
  0
VERTEX
  8
LAYER_1
 10
147.0932
 20
-251.6787
  0
VERTEX
  8
LAYER_1
 10
147.654
 20
-251.6787
  0
VERTEX
  8
LAYER_1
 10
147.654
 20
-251.2339
  0
VERTEX
  8
LAYER_1
 10
147.7581
 20
-251.2339
  0
VERTEX
  8
LAYER_1
 10
147.7581
 20
-252.2609
  0
VERTEX
  8
LAYER_1
 10
147.654
 20
-252.2609
  0
VERTEX
  8
LAYER_1
 10
147.654
 20
-251.7745
  0
VERTEX
  8
LAYER_1
 10
147.0932
 20
-251.7745
  0
VERTEX
  8
LAYER_1
 10
147.0932
 20
-252.2609
  0
VERTEX
  8
LAYER_1
 10
146.9888
 20
-252.2609
  0
SEQEND
  0
ENDBLK
  0
BLOCK
  8
LAYER_1
  2
AIGNBL01030016
 70
64
 10
0
 20
0
 30
0
  3
AIGNBL01030016
  0
POLYLINE
  8
LAYER_1
 40
0.05
 41
0.05
 66
1
 10
0
 20
0
 30
0
 70
1
  0
VERTEX
  8
LAYER_1
 10
148.3351
 20
-252.2609
  0
VERTEX
  8
LAYER_1
 10
148.2311
 20
-252.2609
  0
VERTEX
  8
LAYER_1
 10
148.2311
 20
-251.2339
  0
VERTEX
  8
LAYER_1
 10
148.5322
 20
-251.2339
  0
VERTEX
  8
LAYER_1
 10
148.6724
 20
-251.2481
 42
-0.1023663758
  0
VERTEX
  8
LAYER_1
 10
148.7844
 20
-251.2953
 42
-0.1332028562
  0
VERTEX
  8
LAYER_1
 10
148.8571
 20
-251.38
 42
-0.109414644
  0
VERTEX
  8
LAYER_1
 10
148.8829
 20
-251.5078
  0
VERTEX
  8
LAYER_1
 10
148.8636
 20
-251.6108
  0
VERTEX
  8
LAYER_1
 10
148.8088
 20
-251.6911
  0
VERTEX
  8
LAYER_1
 10
148.7258
 20
-251.7459
  0
VERTEX
  8
LAYER_1
 10
148.6214
 20
-251.7717
  0
VERTEX
  8
LAYER_1
 10
148.9211
 20
-252.2609
  0
VERTEX
  8
LAYER_1
 10
148.7937
 20
-252.2609
  0
VERTEX
  8
LAYER_1
 10
148.5098
 20
-251.7807
  0
VERTEX
  8
LAYER_1
 10
148.3351
 20
-251.7807
  0
SEQEND
  0
POLYLINE
  8
LAYER_1
 40
0.05
 41
0.05
 66
1
 10
0
 20
0
 30
0
 70
1
  0
VERTEX
  8
LAYER_1
 10
148.3351
 20
-251.6904
  0
VERTEX
  8
LAYER_1
 10
148.517
 20
-251.6904
 42
0.1513063474
  0
VERTEX
  8
LAYER_1
 10
148.711
 20
-251.6453
 42
0.2568804362
  0
VERTEX
  8
LAYER_1
 10
148.7799
 20
-251.5078
  0
VERTEX
  8
LAYER_1
 10
148.7602
 20
-251.4224
 42
0.1232056022
  0
VERTEX
  8
LAYER_1
 10
148.7079
 20
-251.3652
  0
VERTEX
  8
LAYER_1
 10
148.6269
 20
-251.3338
  0
VERTEX
  8
LAYER_1
 10
148.5212
 20
-251.3235
  0
VERTEX
  8
LAYER_1
 10
148.3351
 20
-251.3235
  0
SEQEND
  0
ENDBLK
  0
BLOCK
  8
LAYER_1
  2
AIGNBL01030017
 70
64
 10
0
 20
0
 30
0
  3
AIGNBL01030017
  0
POLYLINE
  8
LAYER_1
 40
0.05
 41
0.05
 66
1
 10
0
 20
0
 30
0
 70
1
  0
VERTEX
  8
LAYER_1
 10
150.3154
 20
-251.7469
 42
-0.09975403421
  0
VERTEX
  8
LAYER_1
 10
150.2747
 20
-251.9629
 42
-0.09935173186
  0
VERTEX
  8
LAYER_1
 10
150.1624
 20
-252.1338
 42
-0.09811740303
  0
VERTEX
  8
LAYER_1
 10
149.9926
 20
-252.2461
 42
-0.09708882113
  0
VERTEX
  8
LAYER_1
 10
149.78
 20
-252.2868
 42
-0.09940093633
  0
VERTEX
  8
LAYER_1
 10
149.5674
 20
-252.2461
 42
-0.1007896559
  0
VERTEX
  8
LAYER_1
 10
149.3979
 20
-252.1338
 42
-0.09768152712
  0
VERTEX
  8
LAYER_1
 10
149.2856
 20
-251.9629
 42
-0.09531839447
  0
VERTEX
  8
LAYER_1
 10
149.2453
 20
-251.7469
 42
-0.09746952437
  0
VERTEX
  8
LAYER_1
 10
149.2856
 20
-251.5306
 42
-0.09925134223
  0
VERTEX
  8
LAYER_1
 10
149.3979
 20
-251.3604
 42
-0.1005970746
  0
VERTEX
  8
LAYER_1
 10
149.5674
 20
-251.2481
 42
-0.09815409965
  0
VERTEX
  8
LAYER_1
 10
149.78
 20
-251.2071
 42
-0.1003559568
  0
VERTEX
  8
LAYER_1
 10
149.9926
 20
-251.2481
 42
-0.1030391221
  0
VERTEX
  8
LAYER_1
 10
150.1624
 20
-251.3604
 42
-0.09760938344
  0
VERTEX
  8
LAYER_1
 10
150.2747
 20
-251.5306
 42
-0.09618621792
  0
SEQEND
  0
POLYLINE
  8
LAYER_1
 40
0.05
 41
0.05
 66
1
 10
0
 20
0
 30
0
 70
1
  0
VERTEX
  8
LAYER_1
 10
150.2051
 20
-251.7476
 42
0.08928566433
  0
VERTEX
  8
LAYER_1
 10
150.1762
 20
-251.5767
 42
0.0967309921
  0
VERTEX
  8
LAYER_1
 10
150.0921
 20
-251.4344
 42
0.1033640041
  0
VERTEX
  8
LAYER_1
 10
149.9581
 20
-251.337
 42
0.1075765453
  0
VERTEX
  8
LAYER_1
 10
149.78
 20
-251.3001
 42
0.1148421003
  0
VERTEX
  8
LAYER_1
 10
149.6026
 20
-251.337
 42
0.106797523
  0
VERTEX
  8
LAYER_1
 10
149.4682
 20
-251.4344
 42
0.09375888087
  0
VERTEX
  8
LAYER_1
 10
149.3842
 20
-251.5767
 42
0.08542444587
  0
VERTEX
  8
LAYER_1
 10
149.3549
 20
-251.7476
 42
0.08738527021
  0
VERTEX
  8
LAYER_1
 10
149.3842
 20
-251.9188
 42
0.09670329037
  0
VERTEX
  8
LAYER_1
 10
149.4682
 20
-252.0607
 42
0.09891153362
  0
VERTEX
  8
LAYER_1
 10
149.6026
 20
-252.1575
 42
0.1067011915
  0
VERTEX
  8
LAYER_1
 10
149.78
 20
-252.1937
 42
0.1133540876
  0
VERTEX
  8
LAYER_1
 10
149.9581
 20
-252.1575
 42
0.1038012544
  0
VERTEX
  8
LAYER_1
 10
150.0921
 20
-252.0607
 42
0.09726416843
  0
VERTEX
  8
LAYER_1
 10
150.1762
 20
-251.9188
 42
0.0854375021
  0
SEQEND
  0
ENDBLK
  0
BLOCK
  8
LAYER_1
  2
AIGNBL01030018
 70
64
 10
0
 20
0
 30
0
  3
AIGNBL01030018
  0
POLYLINE
  8
LAYER_1
 40
0.05
 41
0.05
 66
1
 10
0
 20
0
 30
0
 70
1
  0
VERTEX
  8
LAYER_1
 10
151.7489
 20
-251.7469
 42
-0.09970583877
  0
VERTEX
  8
LAYER_1
 10
151.7086
 20
-251.9629
 42
-0.0976989983
  0
VERTEX
  8
LAYER_1
 10
151.5963
 20
-252.1338
 42
-0.09521451671
  0
VERTEX
  8
LAYER_1
 10
151.4264
 20
-252.2461
 42
-0.09711421911
  0
VERTEX
  8
LAYER_1
 10
151.2139
 20
-252.2868
 42
-0.1003065361
  0
VERTEX
  8
LAYER_1
 10
151.0013
 20
-252.2461
 42
-0.1012502646
  0
VERTEX
  8
LAYER_1
 10
150.8318
 20
-252.1338
 42
-0.09902147312
  0
VERTEX
  8
LAYER_1
 10
150.7188
 20
-251.9629
 42
-0.09657946775
  0
VERTEX
  8
LAYER_1
 10
150.6781
 20
-251.7469
 42
-0.09892706014
  0
VERTEX
  8
LAYER_1
 10
150.7188
 20
-251.5306
 42
-0.1025433378
  0
VERTEX
  8
LAYER_1
 10
150.8318
 20
-251.3604
 42
-0.1009513296
  0
VERTEX
  8
LAYER_1
 10
151.0013
 20
-251.2481
 42
-0.09841178888
  0
VERTEX
  8
LAYER_1
 10
151.2139
 20
-251.2071
 42
-0.1004512574
  0
VERTEX
  8
LAYER_1
 10
151.4264
 20
-251.2481
 42
-0.09871557407
  0
VERTEX
  8
LAYER_1
 10
151.5963
 20
-251.3604
 42
-0.09679690961
  0
VERTEX
  8
LAYER_1
 10
151.7086
 20
-251.5306
 42
-0.09571421233
  0
SEQEND
  0
POLYLINE
  8
LAYER_1
 40
0.05
 41
0.05
 66
1
 10
0
 20
0
 30
0
 70
1
  0
VERTEX
  8
LAYER_1
 10
151.639
 20
-251.7476
 42
0.08698818876
  0
VERTEX
  8
LAYER_1
 10
151.61
 20
-251.5767
 42
0.0956708921
  0
VERTEX
  8
LAYER_1
 10
151.526
 20
-251.4344
 42
0.1033803157
  0
VERTEX
  8
LAYER_1
 10
151.3916
 20
-251.337
 42
0.1075718589
  0
VERTEX
  8
LAYER_1
 10
151.2139
 20
-251.3001
 42
0.1154259577
  0
VERTEX
  8
LAYER_1
 10
151.0361
 20
-251.337
 42
0.1064173637
  0
VERTEX
  8
LAYER_1
 10
150.9017
 20
-251.4344
 42
0.1028942614
  0
VERTEX
  8
LAYER_1
 10
150.818
 20
-251.5767
 42
0.08542444587
  0
VERTEX
  8
LAYER_1
 10
150.7887
 20
-251.7476
 42
0.08738527021
  0
VERTEX
  8
LAYER_1
 10
150.818
 20
-251.9188
 42
0.1032562832
  0
VERTEX
  8
LAYER_1
 10
150.9017
 20
-252.0607
 42
0.1008165521
  0
VERTEX
  8
LAYER_1
 10
151.0361
 20
-252.1575
 42
0.1069398409
  0
VERTEX
  8
LAYER_1
 10
151.2139
 20
-252.1937
 42
0.1127969838
  0
VERTEX
  8
LAYER_1
 10
151.3916
 20
-252.1575
 42
0.1024372123
  0
VERTEX
  8
LAYER_1
 10
151.526
 20
-252.0607
 42
0.09088614582
  0
VERTEX
  8
LAYER_1
 10
151.61
 20
-251.9188
 42
0.08498619229
  0
SEQEND
  0
ENDBLK
  0
BLOCK
  8
LAYER_1
  2
AIGNBL01030019
 70
64
 10
0
 20
0
 30
0
  3
AIGNBL01030019
  0
POLYLINE
  8
LAYER_1
 40
0.05
 41
0.05
 66
1
 10
0
 20
0
 30
0
 70
1
  0
VERTEX
  8
LAYER_1
 10
152.6742
 20
-252.0839
  0
VERTEX
  8
LAYER_1
 10
152.6756
 20
-252.0839
  0
VERTEX
  8
LAYER_1
 10
153.0194
 20
-251.2339
  0
VERTEX
  8
LAYER_1
 10
153.1793
 20
-251.2339
  0
VERTEX
  8
LAYER_1
 10
153.1793
 20
-252.2609
  0
VERTEX
  8
LAYER_1
 10
153.0749
 20
-252.2609
  0
VERTEX
  8
LAYER_1
 10
153.0749
 20
-251.3686
  0
VERTEX
  8
LAYER_1
 10
153.0718
 20
-251.3686
  0
VERTEX
  8
LAYER_1
 10
152.7007
 20
-252.2609
  0
VERTEX
  8
LAYER_1
 10
152.646
 20
-252.2609
  0
VERTEX
  8
LAYER_1
 10
152.2743
 20
-251.3686
  0
VERTEX
  8
LAYER_1
 10
152.2708
 20
-251.3686
  0
VERTEX
  8
LAYER_1
 10
152.2708
 20
-252.2609
  0
VERTEX
  8
LAYER_1
 10
152.1668
 20
-252.2609
  0
VERTEX
  8
LAYER_1
 10
152.1668
 20
-251.2339
  0
VERTEX
  8
LAYER_1
 10
152.327
 20
-251.2339
  0
SEQEND
  0
ENDBLK
  0
BLOCK
  8
LAYER_1
  2
AIGNBL0103001A
 70
64
 10
0
 20
0
 30
0
  3
AIGNBL0103001A
  0
POLYLINE
  8
LAYER_1
 40
0.05
 41
0.05
 66
1
 10
0
 20
0
 30
0
 70
1
  0
VERTEX
  8
LAYER_1
 10
154.3196
 20
-252.1676
  0
VERTEX
  8
LAYER_1
 10
154.8694
 20
-252.1676
  0
VERTEX
  8
LAYER_1
 10
154.8694
 20
-252.2609
  0
VERTEX
  8
LAYER_1
 10
154.2145
 20
-252.2609
  0
VERTEX
  8
LAYER_1
 10
154.2145
 20
-251.2339
  0
VERTEX
  8
LAYER_1
 10
154.8522
 20
-251.2339
  0
VERTEX
  8
LAYER_1
 10
154.8522
 20
-251.3263
  0
VERTEX
  8
LAYER_1
 10
154.3196
 20
-251.3263
  0
VERTEX
  8
LAYER_1
 10
154.3196
 20
-251.6787
  0
VERTEX
  8
LAYER_1
 10
154.8167
 20
-251.6787
  0
VERTEX
  8
LAYER_1
 10
154.8167
 20
-251.7717
  0
VERTEX
  8
LAYER_1
 10
154.3196
 20
-251.7717
  0
SEQEND
  0
ENDBLK
  0
BLOCK
  8
LAYER_1
  2
AIGNBL0103001B
 70
64
 10
0
 20
0
 30
0
  3
AIGNBL0103001B
  0
POLYLINE
  8
LAYER_1
 40
0.05
 41
0.05
 66
1
 10
0
 20
0
 30
0
 70
1
  0
VERTEX
  8
LAYER_1
 10
155.6101
 20
-251.6484
  0
VERTEX
  8
LAYER_1
 10
155.8906
 20
-251.2339
  0
VERTEX
  8
LAYER_1
 10
156.0153
 20
-251.2339
  0
VERTEX
  8
LAYER_1
 10
155.6749
 20
-251.7221
  0
VERTEX
  8
LAYER_1
 10
156.0518
 20
-252.2609
  0
VERTEX
  8
LAYER_1
 10
155.9216
 20
-252.2609
  0
VERTEX
  8
LAYER_1
 10
155.6081
 20
-251.7979
  0
VERTEX
  8
LAYER_1
 10
155.296
 20
-252.2609
  0
VERTEX
  8
LAYER_1
 10
155.165
 20
-252.2609
  0
VERTEX
  8
LAYER_1
 10
155.5426
 20
-251.7211
  0
VERTEX
  8
LAYER_1
 10
155.1988
 20
-251.2339
  0
VERTEX
  8
LAYER_1
 10
155.329
 20
-251.2339
  0
SEQEND
  0
ENDBLK
  0
BLOCK
  8
LAYER_1
  2
AIGNBL0103001C
 70
64
 10
0
 20
0
 30
0
  3
AIGNBL0103001C
  0
POLYLINE
  8
LAYER_1
 40
0.05
 41
0.05
 66
1
 10
0
 20
0
 30
0
 70
1
  0
VERTEX
  8
LAYER_1
 10
156.4159
 20
-251.2339
  0
VERTEX
  8
LAYER_1
 10
156.706
 20
-251.2339
  0
VERTEX
  8
LAYER_1
 10
156.8487
 20
-251.2498
 42
-0.110657953
  0
VERTEX
  8
LAYER_1
 10
156.9575
 20
-251.3015
 42
-0.1163763428
  0
VERTEX
  8
LAYER_1
 10
157.0288
 20
-251.3866
 42
-0.1004779162
  0
VERTEX
  8
LAYER_1
 10
157.053
 20
-251.5078
 42
-0.1135751127
  0
VERTEX
  8
LAYER_1
 10
157.0281
 20
-251.6291
 42
-0.1113908719
  0
VERTEX
  8
LAYER_1
 10
156.9568
 20
-251.7145
 42
-0.08575538996
  0
VERTEX
  8
LAYER_1
 10
156.8459
 20
-251.7659
 42
-0.06072195454
  0
VERTEX
  8
LAYER_1
 10
156.7032
 20
-251.7831
  0
VERTEX
  8
LAYER_1
 10
156.5203
 20
-251.7831
  0
VERTEX
  8
LAYER_1
 10
156.5203
 20
-252.2609
  0
VERTEX
  8
LAYER_1
 10
156.4159
 20
-252.2609
  0
SEQEND
  0
POLYLINE
  8
LAYER_1
 40
0.05
 41
0.05
 66
1
 10
0
 20
0
 30
0
 70
1
  0
VERTEX
  8
LAYER_1
 10
156.5203
 20
-251.6949
  0
VERTEX
  8
LAYER_1
 10
156.6974
 20
-251.6949
 42
0.1668395642
  0
VERTEX
  8
LAYER_1
 10
156.8848
 20
-251.6474
 42
0.2433158568
  0
VERTEX
  8
LAYER_1
 10
156.9489
 20
-251.5078
 42
0.2579107644
  0
VERTEX
  8
LAYER_1
 10
156.8824
 20
-251.3676
 42
0.1431777658
  0
VERTEX
  8
LAYER_1
 10
156.6974
 20
-251.3235
  0
VERTEX
  8
LAYER_1
 10
156.5203
 20
-251.3235
  0
SEQEND
  0
ENDBLK
  0
BLOCK
  8
LAYER_1
  2
AIGNBL0103001D
 70
64
 10
0
 20
0
 30
0
  3
AIGNBL0103001D
  0
POLYLINE
  8
LAYER_1
 40
0.05
 41
0.05
 66
1
 10
0
 20
0
 30
0
 70
1
  0
VERTEX
  8
LAYER_1
 10
157.5621
 20
-252.1676
  0
VERTEX
  8
LAYER_1
 10
158.1116
 20
-252.1676
  0
VERTEX
  8
LAYER_1
 10
158.1116
 20
-252.2609
  0
VERTEX
  8
LAYER_1
 10
157.4577
 20
-252.2609
  0
VERTEX
  8
LAYER_1
 10
157.4577
 20
-251.2339
  0
VERTEX
  8
LAYER_1
 10
158.0947
 20
-251.2339
  0
VERTEX
  8
LAYER_1
 10
158.0947
 20
-251.3263
  0
VERTEX
  8
LAYER_1
 10
157.5621
 20
-251.3263
  0
VERTEX
  8
LAYER_1
 10
157.5621
 20
-251.6787
  0
VERTEX
  8
LAYER_1
 10
158.0599
 20
-251.6787
  0
VERTEX
  8
LAYER_1
 10
158.0599
 20
-251.7717
  0
VERTEX
  8
LAYER_1
 10
157.5621
 20
-251.7717
  0
SEQEND
  0
ENDBLK
  0
BLOCK
  8
LAYER_1
  2
AIGNBL0103001E
 70
64
 10
0
 20
0
 30
0
  3
AIGNBL0103001E
  0
POLYLINE
  8
LAYER_1
 40
0.05
 41
0.05
 66
1
 10
0
 20
0
 30
0
 70
1
  0
VERTEX
  8
LAYER_1
 10
158.6208
 20
-252.2609
  0
VERTEX
  8
LAYER_1
 10
158.5168
 20
-252.2609
  0
VERTEX
  8
LAYER_1
 10
158.5168
 20
-251.2339
  0
VERTEX
  8
LAYER_1
 10
158.8185
 20
-251.2339
  0
VERTEX
  8
LAYER_1
 10
158.9584
 20
-251.2481
 42
-0.1005953548
  0
VERTEX
  8
LAYER_1
 10
159.07
 20
-251.2953
 42
-0.1225647981
  0
VERTEX
  8
LAYER_1
 10
159.1438
 20
-251.38
 42
-0.1056037953
  0
VERTEX
  8
LAYER_1
 10
159.1696
 20
-251.5078
 42
-0.113550017
  0
VERTEX
  8
LAYER_1
 10
159.1493
 20
-251.6105
  0
VERTEX
  8
LAYER_1
 10
159.0945
 20
-251.6915
  0
VERTEX
  8
LAYER_1
 10
159.0111
 20
-251.7459
  0
VERTEX
  8
LAYER_1
 10
158.9067
 20
-251.7717
  0
VERTEX
  8
LAYER_1
 10
159.2075
 20
-252.2609
  0
VERTEX
  8
LAYER_1
 10
159.08
 20
-252.2609
  0
VERTEX
  8
LAYER_1
 10
158.7955
 20
-251.7803
  0
VERTEX
  8
LAYER_1
 10
158.6208
 20
-251.7803
  0
SEQEND
  0
POLYLINE
  8
LAYER_1
 40
0.05
 41
0.05
 66
1
 10
0
 20
0
 30
0
 70
1
  0
VERTEX
  8
LAYER_1
 10
158.6208
 20
-251.69
  0
VERTEX
  8
LAYER_1
 10
158.8027
 20
-251.69
 42
0.1507170359
  0
VERTEX
  8
LAYER_1
 10
158.9974
 20
-251.6453
 42
0.2579683273
  0
VERTEX
  8
LAYER_1
 10
159.0652
 20
-251.5078
  0
VERTEX
  8
LAYER_1
 10
159.047
 20
-251.4224
  0
VERTEX
  8
LAYER_1
 10
158.9943
 20
-251.3652
  0
VERTEX
  8
LAYER_1
 10
158.9123
 20
-251.3338
  0
VERTEX
  8
LAYER_1
 10
158.8065
 20
-251.3235
  0
VERTEX
  8
LAYER_1
 10
158.6208
 20
-251.3235
  0
SEQEND
  0
ENDBLK
  0
BLOCK
  8
LAYER_1
  2
AIGNBL0103001F
 70
64
 10
0
 20
0
 30
0
  3
AIGNBL0103001F
  0
POLYLINE
  8
LAYER_1
 40
0.05
 41
0.05
 66
1
 10
0
 20
0
 30
0
 70
1
  0
VERTEX
  8
LAYER_1
 10
159.6898
 20
-252.2609
  0
VERTEX
  8
LAYER_1
 10
159.5865
 20
-252.2609
  0
VERTEX
  8
LAYER_1
 10
159.5865
 20
-251.2339
  0
VERTEX
  8
LAYER_1
 10
159.6898
 20
-251.2339
  0
SEQEND
  0
ENDBLK
  0
BLOCK
  8
LAYER_1
  2
AIGNBL01030020
 70
64
 10
0
 20
0
 30
0
  3
AIGNBL01030020
  0
POLYLINE
  8
LAYER_1
 40
0.05
 41
0.05
 66
1
 10
0
 20
0
 30
0
 70
1
  0
VERTEX
  8
LAYER_1
 10
160.2676
 20
-252.1676
  0
VERTEX
  8
LAYER_1
 10
160.8174
 20
-252.1676
  0
VERTEX
  8
LAYER_1
 10
160.8174
 20
-252.2609
  0
VERTEX
  8
LAYER_1
 10
160.1639
 20
-252.2609
  0
VERTEX
  8
LAYER_1
 10
160.1639
 20
-251.2339
  0
VERTEX
  8
LAYER_1
 10
160.8005
 20
-251.2339
  0
VERTEX
  8
LAYER_1
 10
160.8005
 20
-251.3263
  0
VERTEX
  8
LAYER_1
 10
160.2676
 20
-251.3263
  0
VERTEX
  8
LAYER_1
 10
160.2676
 20
-251.6787
  0
VERTEX
  8
LAYER_1
 10
160.7654
 20
-251.6787
  0
VERTEX
  8
LAYER_1
 10
160.7654
 20
-251.7717
  0
VERTEX
  8
LAYER_1
 10
160.2676
 20
-251.7717
  0
SEQEND
  0
ENDBLK
  0
BLOCK
  8
LAYER_1
  2
AIGNBL01030021
 70
64
 10
0
 20
0
 30
0
  3
AIGNBL01030021
  0
POLYLINE
  8
LAYER_1
 40
0.05
 41
0.05
 66
1
 10
0
 20
0
 30
0
 70
1
  0
VERTEX
  8
LAYER_1
 10
161.9505
 20
-252.1079
  0
VERTEX
  8
LAYER_1
 10
161.9536
 20
-252.1079
  0
VERTEX
  8
LAYER_1
 10
161.9536
 20
-251.2339
  0
VERTEX
  8
LAYER_1
 10
162.058
 20
-251.2339
  0
VERTEX
  8
LAYER_1
 10
162.058
 20
-252.2609
  0
VERTEX
  8
LAYER_1
 10
161.9277
 20
-252.2609
  0
VERTEX
  8
LAYER_1
 10
161.3297
 20
-251.3772
  0
VERTEX
  8
LAYER_1
 10
161.3266
 20
-251.3772
  0
VERTEX
  8
LAYER_1
 10
161.3266
 20
-252.2609
  0
VERTEX
  8
LAYER_1
 10
161.2222
 20
-252.2609
  0
VERTEX
  8
LAYER_1
 10
161.2222
 20
-251.2339
  0
VERTEX
  8
LAYER_1
 10
161.3535
 20
-251.2339
  0
SEQEND
  0
ENDBLK
  0
BLOCK
  8
LAYER_1
  2
AIGNBL01030022
 70
64
 10
0
 20
0
 30
0
  3
AIGNBL01030022
  0
POLYLINE
  8
LAYER_1
 40
0.05
 41
0.05
 66
1
 10
0
 20
0
 30
0
 70
1
  0
VERTEX
  8
LAYER_1
 10
163.396
 20
-252.0942
  0
VERTEX
  8
LAYER_1
 10
163.3323
 20
-252.1679
  0
VERTEX
  8
LAYER_1
 10
163.2469
 20
-252.2295
  0
VERTEX
  8
LAYER_1
 10
163.1394
 20
-252.2716
  0
VERTEX
  8
LAYER_1
 10
163.0112
 20
-252.2868
 42
-0.09929103144
  0
VERTEX
  8
LAYER_1
 10
162.7966
 20
-252.2461
 42
-0.1031170142
  0
VERTEX
  8
LAYER_1
 10
162.6271
 20
-252.1335
 42
-0.1024256256
  0
VERTEX
  8
LAYER_1
 10
162.5162
 20
-251.9633
 42
-0.09780652729
  0
VERTEX
  8
LAYER_1
 10
162.4759
 20
-251.7469
 42
-0.1005543907
  0
VERTEX
  8
LAYER_1
 10
162.5169
 20
-251.5306
 42
-0.09980539098
  0
VERTEX
  8
LAYER_1
 10
162.6285
 20
-251.3604
 42
-0.09707816065
  0
VERTEX
  8
LAYER_1
 10
162.798
 20
-251.2481
 42
-0.09782536185
  0
VERTEX
  8
LAYER_1
 10
163.0112
 20
-251.2071
  0
VERTEX
  8
LAYER_1
 10
163.1222
 20
-251.2191
  0
VERTEX
  8
LAYER_1
 10
163.2252
 20
-251.2522
  0
VERTEX
  8
LAYER_1
 10
163.3117
 20
-251.3035
  0
VERTEX
  8
LAYER_1
 10
163.3767
 20
-251.3711
  0
VERTEX
  8
LAYER_1
 10
163.2906
 20
-251.4355
  0
VERTEX
  8
LAYER_1
 10
163.2469
 20
-251.3858
  0
VERTEX
  8
LAYER_1
 10
163.1835
 20
-251.3421
  0
VERTEX
  8
LAYER_1
 10
163.1043
 20
-251.3114
  0
VERTEX
  8
LAYER_1
 10
163.0126
 20
-251.3001
 42
0.111032742
  0
VERTEX
  8
LAYER_1
 10
162.8338
 20
-251.3362
 42
0.1048566985
  0
VERTEX
  8
LAYER_1
 10
162.6998
 20
-251.4338
 42
0.09649516609
  0
VERTEX
  8
LAYER_1
 10
162.6147
 20
-251.5764
 42
0.08187604402
  0
VERTEX
  8
LAYER_1
 10
162.5868
 20
-251.7469
 42
0.09351376633
  0
VERTEX
  8
LAYER_1
 10
162.6164
 20
-251.9178
 42
0.09951767869
  0
VERTEX
  8
LAYER_1
 10
162.7012
 20
-252.0601
 42
0.1063497227
  0
VERTEX
  8
LAYER_1
 10
162.8356
 20
-252.1575
 42
0.1081437471
  0
VERTEX
  8
LAYER_1
 10
163.0126
 20
-252.1937
 42
0.1144963135
  0
VERTEX
  8
LAYER_1
 10
163.1804
 20
-252.1575
 42
0.1351211567
  0
VERTEX
  8
LAYER_1
 10
163.3148
 20
-252.0414
  0
SEQEND
  0
ENDBLK
  0
BLOCK
  8
LAYER_1
  2
AIGNBL01030023
 70
64
 10
0
 20
0
 30
0
  3
AIGNBL01030023
  0
POLYLINE
  8
LAYER_1
 40
0.05
 41
0.05
 66
1
 10
0
 20
0
 30
0
 70
1
  0
VERTEX
  8
LAYER_1
 10
163.8801
 20
-252.1676
  0
VERTEX
  8
LAYER_1
 10
164.4299
 20
-252.1676
  0
VERTEX
  8
LAYER_1
 10
164.4299
 20
-252.2609
  0
VERTEX
  8
LAYER_1
 10
163.7764
 20
-252.2609
  0
VERTEX
  8
LAYER_1
 10
163.7764
 20
-251.2339
  0
VERTEX
  8
LAYER_1
 10
164.4127
 20
-251.2339
  0
VERTEX
  8
LAYER_1
 10
164.4127
 20
-251.3263
  0
VERTEX
  8
LAYER_1
 10
163.8801
 20
-251.3263
  0
VERTEX
  8
LAYER_1
 10
163.8801
 20
-251.6787
  0
VERTEX
  8
LAYER_1
 10
164.3782
 20
-251.6787
  0
VERTEX
  8
LAYER_1
 10
164.3782
 20
-251.7717
  0
VERTEX
  8
LAYER_1
 10
163.8801
 20
-251.7717
  0
SEQEND
  0
ENDBLK
  0
BLOCK
  8
LAYER_1
  2
AIGNBL01020003
 70
64
 10
0
 20
0
 30
0
  3
AIGNBL01020003
  0
INSERT
  8
LAYER_1
  2
AIGNBL01030004
 10
0
 20
0
 30
0
  0
ENDBLK
  0
BLOCK
  8
LAYER_1
  2
AIGNBL0102000C
 70
64
 10
0
 20
0
 30
0
  3
AIGNBL0102000C
  0
INSERT
  8
LAYER_1
  2
AIGNBL0103000D
 10
0
 20
0
 30
0
  0
INSERT
  8
LAYER_1
  2
AIGNBL0103000E
 10
0
 20
0
 30
0
  0
INSERT
  8
LAYER_1
  2
AIGNBL0103000F
 10
0
 20
0
 30
0
  0
INSERT
  8
LAYER_1
  2
AIGNBL01030010
 10
0
 20
0
 30
0
  0
INSERT
  8
LAYER_1
  2
AIGNBL01030011
 10
0
 20
0
 30
0
  0
INSERT
  8
LAYER_1
  2
AIGNBL01030012
 10
0
 20
0
 30
0
  0
INSERT
  8
LAYER_1
  2
AIGNBL01030013
 10
0
 20
0
 30
0
  0
INSERT
  8
LAYER_1
  2
AIGNBL01030014
 10
0
 20
0
 30
0
  0
INSERT
  8
LAYER_1
  2
AIGNBL01030015
 10
0
 20
0
 30
0
  0
INSERT
  8
LAYER_1
  2
AIGNBL01030016
 10
0
 20
0
 30
0
  0
INSERT
  8
LAYER_1
  2
AIGNBL01030017
 10
0
 20
0
 30
0
  0
INSERT
  8
LAYER_1
  2
AIGNBL01030018
 10
0
 20
0
 30
0
  0
INSERT
  8
LAYER_1
  2
AIGNBL01030019
 10
0
 20
0
 30
0
  0
INSERT
  8
LAYER_1
  2
AIGNBL0103001A
 10
0
 20
0
 30
0
  0
INSERT
  8
LAYER_1
  2
AIGNBL0103001B
 10
0
 20
0
 30
0
  0
INSERT
  8
LAYER_1
  2
AIGNBL0103001C
 10
0
 20
0
 30
0
  0
INSERT
  8
LAYER_1
  2
AIGNBL0103001D
 10
0
 20
0
 30
0
  0
INSERT
  8
LAYER_1
  2
AIGNBL0103001E
 10
0
 20
0
 30
0
  0
INSERT
  8
LAYER_1
  2
AIGNBL0103001F
 10
0
 20
0
 30
0
  0
INSERT
  8
LAYER_1
  2
AIGNBL01030020
 10
0
 20
0
 30
0
  0
INSERT
  8
LAYER_1
  2
AIGNBL01030021
 10
0
 20
0
 30
0
  0
INSERT
  8
LAYER_1
  2
AIGNBL01030022
 10
0
 20
0
 30
0
  0
INSERT
  8
LAYER_1
  2
AIGNBL01030023
 10
0
 20
0
 30
0
  0
ENDBLK
  0
BLOCK
  8
LAYER_1
  2
AIGNBL0102002C
 70
64
 10
0
 20
0
 30
0
  3
AIGNBL0102002C
  0
POLYLINE
  8
LAYER_1
 40
0.1058
 41
0.1058
 66
1
 10
0
 20
0
 30
0
  0
VERTEX
  8
LAYER_1
 10
96.5132
 20
-162.5551
  0
VERTEX
  8
LAYER_1
 10
96.4207
 20
-162.5578
  0
SEQEND
  0
POLYLINE
  8
LAYER_1
 40
0.1058
 41
0.1058
 66
1
 10
0
 20
0
 30
0
  0
VERTEX
  8
LAYER_1
 10
97.1162
 20
-162.5195
  0
VERTEX
  8
LAYER_1
 10
96.5376
 20
-162.5363
  0
SEQEND
  0
POLYLINE
  8
LAYER_1
 40
0.1058
 41
0.1058
 66
1
 10
0
 20
0
 30
0
  0
VERTEX
  8
LAYER_1
 10
97.0311
 20
-159.4606
  0
VERTEX
  8
LAYER_1
 10
97.0731
 20
-160.9
  0
SEQEND
  0
POLYLINE
  8
LAYER_1
 40
0.1058
 41
0.1058
 66
1
 10
0
 20
0
 30
0
  0
VERTEX
  8
LAYER_1
 10
97.1125
 20
-162.2494
  0
VERTEX
  8
LAYER_1
 10
96.5297
 20
-162.2665
  0
SEQEND
  0
POLYLINE
  8
LAYER_1
 40
0.1058
 41
0.1058
 66
1
 10
0
 20
0
 30
0
  0
VERTEX
  8
LAYER_1
 10
97.081
 20
-161.1699
  0
VERTEX
  8
LAYER_1
 10
96.4982
 20
-161.1869
  0
SEQEND
  0
POLYLINE
  8
LAYER_1
 40
0.1058
 41
0.1058
 66
1
 10
0
 20
0
 30
0
  0
VERTEX
  8
LAYER_1
 10
96.3665
 20
-161.1908
  0
VERTEX
  8
LAYER_1
 10
96.1222
 20
-161.1979
  0
SEQEND
  0
POLYLINE
  8
LAYER_1
 40
0.1058
 41
0.1058
 66
1
 10
0
 20
0
 30
0
  0
VERTEX
  8
LAYER_1
 10
96.1015
 20
-160.9284
  0
VERTEX
  8
LAYER_1
 10
96.1144
 20
-160.928
  0
VERTEX
  8
LAYER_1
 10
96.3355
 20
-160.9216
  0
SEQEND
  0
POLYLINE
  8
LAYER_1
 40
0.1058
 41
0.1058
 66
1
 10
0
 20
0
 30
0
  0
VERTEX
  8
LAYER_1
 10
96.4062
 20
-162.5402
  0
VERTEX
  8
LAYER_1
 10
96.2955
 20
-162.5434
  0
VERTEX
  8
LAYER_1
 10
96.161
 20
-162.5473
  0
SEQEND
  0
POLYLINE
  8
LAYER_1
 40
0.1058
 41
0.1058
 66
1
 10
0
 20
0
 30
0
  0
VERTEX
  8
LAYER_1
 10
96.398
 20
-162.2703
  0
VERTEX
  8
LAYER_1
 10
96.1531
 20
-162.2775
  0
SEQEND
  0
POLYLINE
  8
LAYER_1
 40
0.1058
 41
0.1058
 66
1
 10
0
 20
0
 30
0
  0
VERTEX
  8
LAYER_1
 10
96.5043
 20
-162.2492
  0
VERTEX
  8
LAYER_1
 10
96.4117
 20
-162.2519
  0
SEQEND
  0
POLYLINE
  8
LAYER_1
 40
0.1058
 41
0.1058
 66
1
 10
0
 20
0
 30
0
  0
VERTEX
  8
LAYER_1
 10
96.4738
 20
-161.2056
  0
VERTEX
  8
LAYER_1
 10
96.3813
 20
-161.2083
  0
SEQEND
  0
POLYLINE
  8
LAYER_1
 40
0.1058
 41
0.1058
 66
1
 10
0
 20
0
 30
0
  0
VERTEX
  8
LAYER_1
 10
97.2435
 20
-161.1832
  0
VERTEX
  8
LAYER_1
 10
97.1715
 20
-161.1853
  0
VERTEX
  8
LAYER_1
 10
97.0995
 20
-161.1874
  0
SEQEND
  0
POLYLINE
  8
LAYER_1
 40
0.1058
 41
0.1058
 66
1
 10
0
 20
0
 30
0
  0
VERTEX
  8
LAYER_1
 10
97.9617
 20
-161.1622
  0
VERTEX
  8
LAYER_1
 10
97.8692
 20
-161.1649
  0
SEQEND
  0
POLYLINE
  8
LAYER_1
 40
0.1058
 41
0.1058
 66
1
 10
0
 20
0
 30
0
  0
VERTEX
  8
LAYER_1
 10
97.2609
 20
-161.1647
  0
VERTEX
  8
LAYER_1
 10
97.2531
 20
-160.8948
  0
SEQEND
  0
POLYLINE
  8
LAYER_1
 40
0.1058
 41
0.1058
 66
1
 10
0
 20
0
 30
0
  0
VERTEX
  8
LAYER_1
 10
97.2739
 20
-162.2267
  0
VERTEX
  8
LAYER_1
 10
97.202
 20
-162.2288
  0
VERTEX
  8
LAYER_1
 10
97.13
 20
-162.2309
  0
SEQEND
  0
POLYLINE
  8
LAYER_1
 40
0.1058
 41
0.1058
 66
1
 10
0
 20
0
 30
0
  0
VERTEX
  8
LAYER_1
 10
97.2829
 20
-162.5326
  0
VERTEX
  8
LAYER_1
 10
97.2109
 20
-162.5347
  0
VERTEX
  8
LAYER_1
 10
97.1389
 20
-162.5368
  0
SEQEND
  0
POLYLINE
  8
LAYER_1
 40
0.1058
 41
0.1058
 66
1
 10
0
 20
0
 30
0
  0
VERTEX
  8
LAYER_1
 10
97.9922
 20
-162.2058
  0
VERTEX
  8
LAYER_1
 10
97.8996
 20
-162.2085
  0
SEQEND
  0
POLYLINE
  8
LAYER_1
 40
0.1058
 41
0.1058
 66
1
 10
0
 20
0
 30
0
  0
VERTEX
  8
LAYER_1
 10
98.2518
 20
-162.2162
  0
VERTEX
  8
LAYER_1
 10
98.007
 20
-162.2233
  0
SEQEND
  0
POLYLINE
  8
LAYER_1
 40
0.1058
 41
0.1058
 66
1
 10
0
 20
0
 30
0
  0
VERTEX
  8
LAYER_1
 10
98.2197
 20
-161.1367
  0
VERTEX
  8
LAYER_1
 10
97.9755
 20
-161.1438
  0
SEQEND
  0
POLYLINE
  8
LAYER_1
 40
0.1058
 41
0.1058
 66
1
 10
0
 20
0
 30
0
  0
VERTEX
  8
LAYER_1
 10
97.9907
 20
-160.8732
  0
VERTEX
  8
LAYER_1
 10
98.2124
 20
-160.8668
  0
VERTEX
  8
LAYER_1
 10
98.2247
 20
-160.8664
  0
SEQEND
  0
POLYLINE
  8
LAYER_1
 40
0.1058
 41
0.1058
 66
1
 10
0
 20
0
 30
0
  0
VERTEX
  8
LAYER_1
 10
97.8438
 20
-161.1476
  0
VERTEX
  8
LAYER_1
 10
97.2609
 20
-161.1647
  0
VERTEX
  8
LAYER_1
 10
97.2924
 20
-162.2442
  0
SEQEND
  0
POLYLINE
  8
LAYER_1
 40
0.1058
 41
0.1058
 66
1
 10
0
 20
0
 30
0
  0
VERTEX
  8
LAYER_1
 10
97.8832
 20
-162.4971
  0
VERTEX
  8
LAYER_1
 10
97.3045
 20
-162.514
  0
SEQEND
  0
POLYLINE
  8
LAYER_1
 40
0.1058
 41
0.1058
 66
1
 10
0
 20
0
 30
0
  0
VERTEX
  8
LAYER_1
 10
98.0011
 20
-162.5116
  0
VERTEX
  8
LAYER_1
 10
97.9086
 20
-162.5143
  0
SEQEND
  0
POLYLINE
  8
LAYER_1
 40
0.1058
 41
0.1058
 66
1
 10
0
 20
0
 30
0
  0
VERTEX
  8
LAYER_1
 10
98.2597
 20
-162.4861
  0
VERTEX
  8
LAYER_1
 10
98.1252
 20
-162.49
  0
VERTEX
  8
LAYER_1
 10
98.0145
 20
-162.4932
  0
SEQEND
  0
POLYLINE
  8
LAYER_1
 40
0.1058
 41
0.1058
 66
1
 10
0
 20
0
 30
0
  0
VERTEX
  8
LAYER_1
 10
97.0916
 20
-160.9175
  0
VERTEX
  8
LAYER_1
 10
97.1636
 20
-160.9154
  0
VERTEX
  8
LAYER_1
 10
97.2356
 20
-160.9133
  0
SEQEND
  0
POLYLINE
  8
LAYER_1
 40
0.1058
 41
0.1058
 66
1
 10
0
 20
0
 30
0
  0
VERTEX
  8
LAYER_1
 10
96.485
 20
-160.9289
  0
VERTEX
  8
LAYER_1
 10
96.4738
 20
-160.9355
  0
VERTEX
  8
LAYER_1
 10
96.3734
 20
-160.9385
  0
VERTEX
  8
LAYER_1
 10
96.3597
 20
-160.9343
  0
SEQEND
  0
POLYLINE
  8
LAYER_1
 40
0.1058
 41
0.1058
 66
1
 10
0
 20
0
 30
0
  0
VERTEX
  8
LAYER_1
 10
97.9673
 20
-160.8874
  0
VERTEX
  8
LAYER_1
 10
97.9539
 20
-160.8923
  0
VERTEX
  8
LAYER_1
 10
97.8534
 20
-160.8953
  0
VERTEX
  8
LAYER_1
 10
97.8419
 20
-160.8893
  0
SEQEND
  0
POLYLINE
  8
LAYER_1
 40
0.1058
 41
0.1058
 66
1
 10
0
 20
0
 30
0
  0
VERTEX
  8
LAYER_1
 10
96.5237
 20
-162.5587
  0
VERTEX
  8
LAYER_1
 10
96.5368
 20
-162.5119
  0
VERTEX
  8
LAYER_1
 10
96.5368
 20
-162.5102
  0
VERTEX
  8
LAYER_1
 10
96.5305
 20
-162.2944
  0
VERTEX
  8
LAYER_1
 10
96.5139
 20
-162.2449
 42
-0.1558268665
  0
VERTEX
  8
LAYER_1
 10
96.3413
 20
-161.7045
 42
-0.1409007
  0
VERTEX
  8
LAYER_1
 10
96.4837
 20
-161.2094
  0
VERTEX
  8
LAYER_1
 10
96.4974
 20
-161.1616
  0
VERTEX
  8
LAYER_1
 10
96.4974
 20
-161.1589
  0
VERTEX
  8
LAYER_1
 10
96.4903
 20
-160.9165
  0
SEQEND
  0
POLYLINE
  8
LAYER_1
 40
0.1058
 41
0.1058
 66
1
 10
0
 20
0
 30
0
  0
VERTEX
  8
LAYER_1
 10
96.0717
 20
-159.4886
 42
0.4056934652
  0
VERTEX
  8
LAYER_1
 10
95.9145
 20
-159.6506
  0
VERTEX
  8
LAYER_1
 10
95.9145
 20
-159.6553
  0
VERTEX
  8
LAYER_1
 10
95.9471
 20
-160.7708
 42
0.3116412393
  0
VERTEX
  8
LAYER_1
 10
96.056
 20
-160.9192
 42
-0.2993347492
  0
VERTEX
  8
LAYER_1
 10
96.1165
 20
-161.0016
  0
VERTEX
  8
LAYER_1
 10
96.1211
 20
-161.1587
  0
VERTEX
  8
LAYER_1
 10
96.1211
 20
-161.1613
 42
-0.1921467787
  0
VERTEX
  8
LAYER_1
 10
96.0959
 20
-161.2238
 42
0.1942272734
  0
VERTEX
  8
LAYER_1
 10
95.894
 20
-161.724
 42
0.20914898
  0
VERTEX
  8
LAYER_1
 10
96.1254
 20
-162.2531
 42
-0.1991925513
  0
VERTEX
  8
LAYER_1
 10
96.1543
 20
-162.3166
  0
VERTEX
  8
LAYER_1
 10
96.1602
 20
-162.5203
  0
VERTEX
  8
LAYER_1
 10
96.1603
 20
-162.522
  0
VERTEX
  8
LAYER_1
 10
96.1546
 20
-162.5543
  0
VERTEX
  8
LAYER_1
 10
96.1383
 20
-162.566
  0
SEQEND
  0
POLYLINE
  8
LAYER_1
 40
0.1058
 41
0.1058
 66
1
 10
0
 20
0
 30
0
  0
VERTEX
  8
LAYER_1
 10
96.4594
 20
-159.4773
 42
0.4058140082
  0
VERTEX
  8
LAYER_1
 10
96.3371
 20
-159.6033
  0
VERTEX
  8
LAYER_1
 10
96.3371
 20
-159.607
  0
VERTEX
  8
LAYER_1
 10
96.3718
 20
-160.7944
 42
0.3887392997
  0
VERTEX
  8
LAYER_1
 10
96.4903
 20
-160.9165
  0
VERTEX
  8
LAYER_1
 10
96.4977
 20
-160.9168
  0
VERTEX
  8
LAYER_1
 10
96.5014
 20
-160.9167
  0
VERTEX
  8
LAYER_1
 10
97.0731
 20
-160.9
  0
VERTEX
  8
LAYER_1
 10
97.081
 20
-161.1699
  0
VERTEX
  8
LAYER_1
 10
97.1125
 20
-162.2494
  0
VERTEX
  8
LAYER_1
 10
97.1196
 20
-162.4923
  0
VERTEX
  8
LAYER_1
 10
97.1197
 20
-162.4949
  0
VERTEX
  8
LAYER_1
 10
97.1162
 20
-162.5195
  0
VERTEX
  8
LAYER_1
 10
97.1066
 20
-162.5416
  0
SEQEND
  0
POLYLINE
  8
LAYER_1
 40
0.1058
 41
0.1058
 66
1
 10
0
 20
0
 30
0
  0
VERTEX
  8
LAYER_1
 10
96.3321
 20
-159.481
 42
0.4056095618
  0
VERTEX
  8
LAYER_1
 10
96.2098
 20
-159.607
  0
VERTEX
  8
LAYER_1
 10
96.2099
 20
-159.6107
  0
VERTEX
  8
LAYER_1
 10
96.2445
 20
-160.7982
 42
0.2689961306
  0
VERTEX
  8
LAYER_1
 10
96.3148
 20
-160.9075
  0
VERTEX
  8
LAYER_1
 10
96.3355
 20
-160.9216
 42
-0.2016401097
  0
VERTEX
  8
LAYER_1
 10
96.365
 20
-160.9856
  0
VERTEX
  8
LAYER_1
 10
96.3701
 20
-161.1627
  0
VERTEX
  8
LAYER_1
 10
96.3702
 20
-161.1644
  0
VERTEX
  8
LAYER_1
 10
96.3665
 20
-161.1908
  0
VERTEX
  8
LAYER_1
 10
96.3564
 20
-161.2131
 42
0.140889226
  0
VERTEX
  8
LAYER_1
 10
96.2141
 20
-161.7082
 42
0.1558315604
  0
VERTEX
  8
LAYER_1
 10
96.3867
 20
-162.2486
  0
VERTEX
  8
LAYER_1
 10
96.398
 20
-162.2703
  0
VERTEX
  8
LAYER_1
 10
96.4033
 20
-162.2982
  0
VERTEX
  8
LAYER_1
 10
96.4096
 20
-162.513
  0
VERTEX
  8
LAYER_1
 10
96.4096
 20
-162.5156
  0
VERTEX
  8
LAYER_1
 10
96.4062
 20
-162.5402
  0
VERTEX
  8
LAYER_1
 10
96.3965
 20
-162.5624
  0
SEQEND
  0
POLYLINE
  8
LAYER_1
 40
0.1058
 41
0.1058
 66
1
 10
0
 20
0
 30
0
  0
VERTEX
  8
LAYER_1
 10
97.3154
 20
-162.5355
  0
VERTEX
  8
LAYER_1
 10
97.3045
 20
-162.514
  0
VERTEX
  8
LAYER_1
 10
97.2995
 20
-162.487
  0
VERTEX
  8
LAYER_1
 10
97.2924
 20
-162.2442
  0
VERTEX
  8
LAYER_1
 10
97.8753
 20
-162.2272
  0
SEQEND
  0
POLYLINE
  8
LAYER_1
 40
0.1058
 41
0.1058
 66
1
 10
0
 20
0
 30
0
  0
VERTEX
  8
LAYER_1
 10
97.8359
 20
-160.8773
  0
VERTEX
  8
LAYER_1
 10
97.8429
 20
-161.1197
  0
VERTEX
  8
LAYER_1
 10
97.8596
 20
-161.1692
 42
-0.1558196138
  0
VERTEX
  8
LAYER_1
 10
98.0322
 20
-161.7096
 42
-0.1408946146
  0
VERTEX
  8
LAYER_1
 10
97.8898
 20
-162.2047
  0
VERTEX
  8
LAYER_1
 10
97.8761
 20
-162.2525
  0
VERTEX
  8
LAYER_1
 10
97.8761
 20
-162.2543
  0
VERTEX
  8
LAYER_1
 10
97.8824
 20
-162.47
  0
VERTEX
  8
LAYER_1
 10
97.8983
 20
-162.5185
  0
SEQEND
  0
POLYLINE
  8
LAYER_1
 40
0.1058
 41
0.1058
 66
1
 10
0
 20
0
 30
0
  0
VERTEX
  8
LAYER_1
 10
98.1704
 20
-159.4274
  0
VERTEX
  8
LAYER_1
 10
98.1752
 20
-159.4273
 42
-0.405634124
  0
VERTEX
  8
LAYER_1
 10
98.3371
 20
-159.5846
  0
VERTEX
  8
LAYER_1
 10
98.3696
 20
-160.7001
  0
VERTEX
  8
LAYER_1
 10
98.3697
 20
-160.7048
 42
-0.3036370484
  0
VERTEX
  8
LAYER_1
 10
98.2696
 20
-160.8546
 42
0.292582683
  0
VERTEX
  8
LAYER_1
 10
98.2139
 20
-160.9377
  0
VERTEX
  8
LAYER_1
 10
98.214
 20
-160.9404
  0
VERTEX
  8
LAYER_1
 10
98.2186
 20
-161.0975
 42
0.1995612424
  0
VERTEX
  8
LAYER_1
 10
98.2475
 20
-161.161
 42
-0.2094176428
  0
VERTEX
  8
LAYER_1
 10
98.4795
 20
-161.6906
 42
-0.1939714679
  0
VERTEX
  8
LAYER_1
 10
98.2781
 20
-162.1903
 42
0.192035006
  0
VERTEX
  8
LAYER_1
 10
98.2529
 20
-162.2527
  0
VERTEX
  8
LAYER_1
 10
98.253
 20
-162.2553
  0
VERTEX
  8
LAYER_1
 10
98.2589
 20
-162.459
  0
VERTEX
  8
LAYER_1
 10
98.2665
 20
-162.4926
  0
VERTEX
  8
LAYER_1
 10
98.283
 20
-162.5034
  0
VERTEX
  8
LAYER_1
 10
98.2835
 20
-162.5034
  0
SEQEND
  0
POLYLINE
  8
LAYER_1
 40
0.1058
 41
0.1058
 66
1
 10
0
 20
0
 30
0
  0
VERTEX
  8
LAYER_1
 10
97.91
 20
-159.435
  0
VERTEX
  8
LAYER_1
 10
98.1403
 20
-159.4283
  0
VERTEX
  8
LAYER_1
 10
98.1827
 20
-159.427
  0
VERTEX
  8
LAYER_1
 10
98.1874
 20
-159.427
 42
-0.4057112562
  0
VERTEX
  8
LAYER_1
 10
98.3494
 20
-159.5842
  0
VERTEX
  8
LAYER_1
 10
98.3819
 20
-160.6997
  0
VERTEX
  8
LAYER_1
 10
98.382
 20
-160.7045
 42
-0.3028903233
  0
VERTEX
  8
LAYER_1
 10
98.2822
 20
-160.854
 42
0.2911299835
  0
VERTEX
  8
LAYER_1
 10
98.2268
 20
-160.9371
  0
VERTEX
  8
LAYER_1
 10
98.2269
 20
-160.9398
  0
VERTEX
  8
LAYER_1
 10
98.2303
 20
-161.0571
 42
0.2183967982
  0
VERTEX
  8
LAYER_1
 10
98.2643
 20
-161.1249
 42
-0.2211210117
  0
VERTEX
  8
LAYER_1
 10
98.5362
 20
-161.6677
  0
VERTEX
  8
LAYER_1
 10
98.5365
 20
-161.6887
 42
-0.2134470208
  0
VERTEX
  8
LAYER_1
 10
98.2964
 20
-162.2253
 42
0.2102277826
  0
VERTEX
  8
LAYER_1
 10
98.2664
 20
-162.2924
  0
VERTEX
  8
LAYER_1
 10
98.2664
 20
-162.295
  0
VERTEX
  8
LAYER_1
 10
98.2694
 20
-162.3972
  0
VERTEX
  8
LAYER_1
 10
98.2879
 20
-162.4493
 42
-0.1741387693
  0
VERTEX
  8
LAYER_1
 10
98.5753
 20
-163.1071
  0
VERTEX
  8
LAYER_1
 10
97.2287
 20
-163.1464
  0
VERTEX
  8
LAYER_1
 10
95.8822
 20
-163.1857
 42
-0.1741247282
  0
VERTEX
  8
LAYER_1
 10
96.1307
 20
-162.5123
  0
VERTEX
  8
LAYER_1
 10
96.1462
 20
-162.4618
  0
VERTEX
  8
LAYER_1
 10
96.1461
 20
-162.4592
  0
VERTEX
  8
LAYER_1
 10
96.1432
 20
-162.357
 42
0.2172560482
  0
VERTEX
  8
LAYER_1
 10
96.1092
 20
-162.2892
 42
-0.2211338208
  0
VERTEX
  8
LAYER_1
 10
95.8373
 20
-161.7464
  0
VERTEX
  8
LAYER_1
 10
95.837
 20
-161.7254
 42
-0.2134580998
  0
VERTEX
  8
LAYER_1
 10
96.0771
 20
-161.1888
 42
0.209851564
  0
VERTEX
  8
LAYER_1
 10
96.1071
 20
-161.1217
  0
VERTEX
  8
LAYER_1
 10
96.107
 20
-161.1191
  0
VERTEX
  8
LAYER_1
 10
96.1036
 20
-161.0017
 42
0.2985835492
  0
VERTEX
  8
LAYER_1
 10
96.0433
 20
-160.9194
 42
-0.3108184875
  0
VERTEX
  8
LAYER_1
 10
95.9348
 20
-160.7712
  0
VERTEX
  8
LAYER_1
 10
95.9022
 20
-159.6557
  0
VERTEX
  8
LAYER_1
 10
95.9022
 20
-159.6509
 42
-0.4055569117
  0
VERTEX
  8
LAYER_1
 10
96.0594
 20
-159.489
  0
VERTEX
  8
LAYER_1
 10
96.1018
 20
-159.4878
  0
VERTEX
  8
LAYER_1
 10
96.3321
 20
-159.481
  0
VERTEX
  8
LAYER_1
 10
97.91
 20
-159.435
  0
VERTEX
  8
LAYER_1
 10
97.9137
 20
-159.4349
 42
-0.4057490243
  0
VERTEX
  8
LAYER_1
 10
98.0396
 20
-159.5573
  0
VERTEX
  8
LAYER_1
 10
98.0743
 20
-160.7447
  0
VERTEX
  8
LAYER_1
 10
98.0743
 20
-160.7484
 42
-0.2623394452
  0
VERTEX
  8
LAYER_1
 10
98.0105
 20
-160.858
  0
VERTEX
  8
LAYER_1
 10
97.9907
 20
-160.8732
 42
0.1934917287
  0
VERTEX
  8
LAYER_1
 10
97.965
 20
-160.9363
  0
VERTEX
  8
LAYER_1
 10
97.965
 20
-160.9389
  0
VERTEX
  8
LAYER_1
 10
97.9702
 20
-161.1159
  0
VERTEX
  8
LAYER_1
 10
97.9755
 20
-161.1438
  0
VERTEX
  8
LAYER_1
 10
97.9868
 20
-161.1655
 42
-0.1558243073
  0
VERTEX
  8
LAYER_1
 10
98.1594
 20
-161.7059
 42
-0.140897667
  0
VERTEX
  8
LAYER_1
 10
98.017
 20
-162.201
  0
VERTEX
  8
LAYER_1
 10
98.007
 20
-162.2233
  0
VERTEX
  8
LAYER_1
 10
98.0033
 20
-162.2488
  0
VERTEX
  8
LAYER_1
 10
98.0033
 20
-162.2506
  0
VERTEX
  8
LAYER_1
 10
98.0096
 20
-162.4663
  0
VERTEX
  8
LAYER_1
 10
98.0145
 20
-162.4932
  0
VERTEX
  8
LAYER_1
 10
98.0255
 20
-162.5148
  0
SEQEND
  0
POLYLINE
  8
LAYER_1
 40
0.1058
 41
0.1058
 66
1
 10
0
 20
0
 30
0
  0
VERTEX
  8
LAYER_1
 10
97.211
 20
-159.4554
  0
VERTEX
  8
LAYER_1
 10
97.2531
 20
-160.8948
  0
VERTEX
  8
LAYER_1
 10
97.8248
 20
-160.8781
  0
VERTEX
  8
LAYER_1
 10
97.8359
 20
-160.8773
 42
0.3802630614
  0
VERTEX
  8
LAYER_1
 10
97.9471
 20
-160.7521
  0
VERTEX
  8
LAYER_1
 10
97.9471
 20
-160.7485
  0
VERTEX
  8
LAYER_1
 10
97.9124
 20
-159.561
 42
0.4056606743
  0
VERTEX
  8
LAYER_1
 10
97.7865
 20
-159.4386
  0
VERTEX
  8
LAYER_1
 10
97.7828
 20
-159.4387
  0
VERTEX
  8
LAYER_1
 10
97.6215
 20
-159.4434
  0
SEQEND
  0
ENDBLK
  0
BLOCK
  8
LAYER_1
  2
AIGNBL0102002D
 70
64
 10
0
 20
0
 30
0
  3
AIGNBL0102002D
  0
POLYLINE
  8
LAYER_1
 40
0.1058
 41
0.1058
 66
1
 10
0
 20
0
 30
0
  0
VERTEX
  8
LAYER_1
 10
105.8413
 20
-208.6908
  0
VERTEX
  8
LAYER_1
 10
105.9313
 20
-208.6008
  0
VERTEX
  8
LAYER_1
 10
108.4513
 20
-208.6008
  0
VERTEX
  8
LAYER_1
 10
108.5413
 20
-208.6908
  0
SEQEND
  0
POLYLINE
  8
LAYER_1
 40
0.1058
 41
0.1058
 66
1
 10
0
 20
0
 30
0
  0
VERTEX
  8
LAYER_1
 10
107.9113
 20
-211.0308
  0
VERTEX
  8
LAYER_1
 10
105.5713
 20
-211.0308
  0
VERTEX
  8
LAYER_1
 10
105.5713
 20
-211.3908
  0
SEQEND
  0
POLYLINE
  8
LAYER_1
 40
0.1058
 41
0.1058
 66
1
 10
0
 20
0
 30
0
  0
VERTEX
  8
LAYER_1
 10
105.8413
 20
-210.4908
  0
VERTEX
  8
LAYER_1
 10
105.8413
 20
-208.6908
  0
VERTEX
  8
LAYER_1
 10
108.5413
 20
-208.6908
  0
VERTEX
  8
LAYER_1
 10
108.5413
 20
-210.1848
  0
SEQEND
  0
ENDBLK
  0
BLOCK
  8
LAYER_1
  2
AIGNBL0102002E
 70
64
 10
0
 20
0
 30
0
  3
AIGNBL0102002E
  0
POLYLINE
  8
LAYER_1
 40
0.1058
 41
0.1058
 66
1
 10
0
 20
0
 30
0
  0
VERTEX
  8
LAYER_1
 10
106.4009
 20
-205.5228
  0
VERTEX
  8
LAYER_1
 10
106.4935
 20
-205.5228
  0
SEQEND
  0
POLYLINE
  8
LAYER_1
 40
0.1058
 41
0.1058
 66
1
 10
0
 20
0
 30
0
  0
VERTEX
  8
LAYER_1
 10
106.5184
 20
-205.5408
  0
VERTEX
  8
LAYER_1
 10
107.0973
 20
-205.5408
  0
SEQEND
  0
POLYLINE
  8
LAYER_1
 40
0.1058
 41
0.1058
 66
1
 10
0
 20
0
 30
0
  0
VERTEX
  8
LAYER_1
 10
107.1014
 20
-207.1608
  0
VERTEX
  8
LAYER_1
 10
107.1014
 20
-208.6008
  0
SEQEND
  0
POLYLINE
  8
LAYER_1
 40
0.1058
 41
0.1058
 66
1
 10
0
 20
0
 30
0
  0
VERTEX
  8
LAYER_1
 10
106.5184
 20
-205.8108
  0
VERTEX
  8
LAYER_1
 10
107.1014
 20
-205.8108
  0
SEQEND
  0
POLYLINE
  8
LAYER_1
 40
0.1058
 41
0.1058
 66
1
 10
0
 20
0
 30
0
  0
VERTEX
  8
LAYER_1
 10
106.5184
 20
-206.8908
  0
VERTEX
  8
LAYER_1
 10
107.1014
 20
-206.8908
  0
SEQEND
  0
POLYLINE
  8
LAYER_1
 40
0.1058
 41
0.1058
 66
1
 10
0
 20
0
 30
0
  0
VERTEX
  8
LAYER_1
 10
106.1423
 20
-206.8908
  0
VERTEX
  8
LAYER_1
 10
106.3866
 20
-206.8908
  0
SEQEND
  0
POLYLINE
  8
LAYER_1
 40
0.1058
 41
0.1058
 66
1
 10
0
 20
0
 30
0
  0
VERTEX
  8
LAYER_1
 10
106.1294
 20
-207.1608
  0
VERTEX
  8
LAYER_1
 10
106.1423
 20
-207.1608
  0
VERTEX
  8
LAYER_1
 10
106.3635
 20
-207.1608
  0
SEQEND
  0
POLYLINE
  8
LAYER_1
 40
0.1058
 41
0.1058
 66
1
 10
0
 20
0
 30
0
  0
VERTEX
  8
LAYER_1
 10
106.3869
 20
-205.5408
  0
VERTEX
  8
LAYER_1
 10
106.2762
 20
-205.5408
  0
VERTEX
  8
LAYER_1
 10
106.1417
 20
-205.5408
  0
SEQEND
  0
POLYLINE
  8
LAYER_1
 40
0.1058
 41
0.1058
 66
1
 10
0
 20
0
 30
0
  0
VERTEX
  8
LAYER_1
 10
106.1417
 20
-205.8108
  0
VERTEX
  8
LAYER_1
 10
106.3866
 20
-205.8108
  0
SEQEND
  0
POLYLINE
  8
LAYER_1
 40
0.1058
 41
0.1058
 66
1
 10
0
 20
0
 30
0
  0
VERTEX
  8
LAYER_1
 10
106.4009
 20
-205.8288
  0
VERTEX
  8
LAYER_1
 10
106.4935
 20
-205.8288
  0
SEQEND
  0
POLYLINE
  8
LAYER_1
 40
0.1058
 41
0.1058
 66
1
 10
0
 20
0
 30
0
  0
VERTEX
  8
LAYER_1
 10
106.4009
 20
-206.8728
  0
VERTEX
  8
LAYER_1
 10
106.4935
 20
-206.8728
  0
SEQEND
  0
POLYLINE
  8
LAYER_1
 40
0.1058
 41
0.1058
 66
1
 10
0
 20
0
 30
0
  0
VERTEX
  8
LAYER_1
 10
107.2634
 20
-206.8728
  0
VERTEX
  8
LAYER_1
 10
107.1914
 20
-206.8728
  0
VERTEX
  8
LAYER_1
 10
107.1194
 20
-206.8728
  0
SEQEND
  0
POLYLINE
  8
LAYER_1
 40
0.1058
 41
0.1058
 66
1
 10
0
 20
0
 30
0
  0
VERTEX
  8
LAYER_1
 10
107.2634
 20
-207.1428
  0
VERTEX
  8
LAYER_1
 10
107.1914
 20
-207.1428
  0
VERTEX
  8
LAYER_1
 10
107.1194
 20
-207.1428
  0
SEQEND
  0
POLYLINE
  8
LAYER_1
 40
0.1058
 41
0.1058
 66
1
 10
0
 20
0
 30
0
  0
VERTEX
  8
LAYER_1
 10
107.8894
 20
-206.8728
  0
VERTEX
  8
LAYER_1
 10
107.982
 20
-206.8728
  0
SEQEND
  0
POLYLINE
  8
LAYER_1
 40
0.1058
 41
0.1058
 66
1
 10
0
 20
0
 30
0
  0
VERTEX
  8
LAYER_1
 10
107.2814
 20
-207.1608
  0
VERTEX
  8
LAYER_1
 10
107.2814
 20
-206.8908
  0
SEQEND
  0
POLYLINE
  8
LAYER_1
 40
0.1058
 41
0.1058
 66
1
 10
0
 20
0
 30
0
  0
VERTEX
  8
LAYER_1
 10
107.2634
 20
-205.8288
  0
VERTEX
  8
LAYER_1
 10
107.1914
 20
-205.8288
  0
VERTEX
  8
LAYER_1
 10
107.1194
 20
-205.8288
  0
SEQEND
  0
POLYLINE
  8
LAYER_1
 40
0.1058
 41
0.1058
 66
1
 10
0
 20
0
 30
0
  0
VERTEX
  8
LAYER_1
 10
107.2634
 20
-205.5228
  0
VERTEX
  8
LAYER_1
 10
107.1914
 20
-205.5228
  0
VERTEX
  8
LAYER_1
 10
107.1194
 20
-205.5228
  0
SEQEND
  0
POLYLINE
  8
LAYER_1
 40
0.1058
 41
0.1058
 66
1
 10
0
 20
0
 30
0
  0
VERTEX
  8
LAYER_1
 10
107.8894
 20
-205.8288
  0
VERTEX
  8
LAYER_1
 10
107.982
 20
-205.8288
  0
SEQEND
  0
POLYLINE
  8
LAYER_1
 40
0.1058
 41
0.1058
 66
1
 10
0
 20
0
 30
0
  0
VERTEX
  8
LAYER_1
 10
107.9963
 20
-205.8108
  0
VERTEX
  8
LAYER_1
 10
108.2412
 20
-205.8108
  0
SEQEND
  0
POLYLINE
  8
LAYER_1
 40
0.1058
 41
0.1058
 66
1
 10
0
 20
0
 30
0
  0
VERTEX
  8
LAYER_1
 10
107.9963
 20
-206.8908
  0
VERTEX
  8
LAYER_1
 10
108.2406
 20
-206.8908
  0
SEQEND
  0
POLYLINE
  8
LAYER_1
 40
0.1058
 41
0.1058
 66
1
 10
0
 20
0
 30
0
  0
VERTEX
  8
LAYER_1
 10
108.0194
 20
-207.1608
  0
VERTEX
  8
LAYER_1
 10
108.2412
 20
-207.1608
  0
VERTEX
  8
LAYER_1
 10
108.2535
 20
-207.1608
  0
SEQEND
  0
POLYLINE
  8
LAYER_1
 40
0.1058
 41
0.1058
 66
1
 10
0
 20
0
 30
0
  0
VERTEX
  8
LAYER_1
 10
107.8645
 20
-206.8908
  0
VERTEX
  8
LAYER_1
 10
107.2814
 20
-206.8908
  0
VERTEX
  8
LAYER_1
 10
107.2814
 20
-205.8108
  0
SEQEND
  0
POLYLINE
  8
LAYER_1
 40
0.1058
 41
0.1058
 66
1
 10
0
 20
0
 30
0
  0
VERTEX
  8
LAYER_1
 10
107.2856
 20
-205.5408
  0
VERTEX
  8
LAYER_1
 10
107.8645
 20
-205.5408
  0
SEQEND
  0
POLYLINE
  8
LAYER_1
 40
0.1058
 41
0.1058
 66
1
 10
0
 20
0
 30
0
  0
VERTEX
  8
LAYER_1
 10
107.8894
 20
-205.5228
  0
VERTEX
  8
LAYER_1
 10
107.982
 20
-205.5228
  0
SEQEND
  0
POLYLINE
  8
LAYER_1
 40
0.1058
 41
0.1058
 66
1
 10
0
 20
0
 30
0
  0
VERTEX
  8
LAYER_1
 10
108.2412
 20
-205.5408
  0
VERTEX
  8
LAYER_1
 10
108.1067
 20
-205.5408
  0
VERTEX
  8
LAYER_1
 10
107.996
 20
-205.5408
  0
SEQEND
  0
POLYLINE
  8
LAYER_1
 40
0.1058
 41
0.1058
 66
1
 10
0
 20
0
 30
0
  0
VERTEX
  8
LAYER_1
 10
106.5127
 20
-207.1491
  0
VERTEX
  8
LAYER_1
 10
106.5013
 20
-207.1428
  0
VERTEX
  8
LAYER_1
 10
106.4009
 20
-207.1428
  0
VERTEX
  8
LAYER_1
 10
106.3873
 20
-207.1473
  0
SEQEND
  0
POLYLINE
  8
LAYER_1
 40
0.1058
 41
0.1058
 66
1
 10
0
 20
0
 30
0
  0
VERTEX
  8
LAYER_1
 10
107.9956
 20
-207.1473
  0
VERTEX
  8
LAYER_1
 10
107.982
 20
-207.1428
  0
VERTEX
  8
LAYER_1
 10
107.8816
 20
-207.1428
  0
VERTEX
  8
LAYER_1
 10
107.8702
 20
-207.1491
  0
SEQEND
  0
POLYLINE
  8
LAYER_1
 40
0.1058
 41
0.1058
 66
1
 10
0
 20
0
 30
0
  0
VERTEX
  8
LAYER_1
 10
106.5039
 20
-205.5189
  0
VERTEX
  8
LAYER_1
 10
106.5184
 20
-205.5678
  0
VERTEX
  8
LAYER_1
 10
106.5184
 20
-205.7828
  0
VERTEX
  8
LAYER_1
 10
106.5032
 20
-205.8328
 42
0.1483587962
  0
VERTEX
  8
LAYER_1
 10
106.346
 20
-206.3508
 42
0.1483576789
  0
VERTEX
  8
LAYER_1
 10
106.5032
 20
-206.8688
  0
VERTEX
  8
LAYER_1
 10
106.5184
 20
-206.9188
  0
VERTEX
  8
LAYER_1
 10
106.5184
 20
-207.1613
  0
SEQEND
  0
POLYLINE
  8
LAYER_1
 40
0.1058
 41
0.1058
 66
1
 10
0
 20
0
 30
0
  0
VERTEX
  8
LAYER_1
 10
106.1417
 20
-208.6008
 42
-0.4142749345
  0
VERTEX
  8
LAYER_1
 10
105.9797
 20
-208.4388
  0
VERTEX
  8
LAYER_1
 10
105.9797
 20
-207.3228
 42
-0.311629655
  0
VERTEX
  8
LAYER_1
 10
106.0842
 20
-207.1713
 42
0.2993316799
  0
VERTEX
  8
LAYER_1
 10
106.1423
 20
-207.0872
  0
VERTEX
  8
LAYER_1
 10
106.1423
 20
-206.93
 42
0.1980938402
  0
VERTEX
  8
LAYER_1
 10
106.1152
 20
-206.8656
 42
-0.2018129723
  0
VERTEX
  8
LAYER_1
 10
105.8985
 20
-206.3505
 42
-0.2015290603
  0
VERTEX
  8
LAYER_1
 10
106.1146
 20
-205.8359
 42
0.1994717294
  0
VERTEX
  8
LAYER_1
 10
106.1417
 20
-205.7717
  0
VERTEX
  8
LAYER_1
 10
106.1417
 20
-205.5678
  0
VERTEX
  8
LAYER_1
 10
106.1351
 20
-205.534
  0
VERTEX
  8
LAYER_1
 10
106.1184
 20
-205.5228
  0
SEQEND
  0
POLYLINE
  8
LAYER_1
 40
0.1058
 41
0.1058
 66
1
 10
0
 20
0
 30
0
  0
VERTEX
  8
LAYER_1
 10
107.087
 20
-205.5189
  0
VERTEX
  8
LAYER_1
 10
107.0973
 20
-205.5408
  0
VERTEX
  8
LAYER_1
 10
107.1014
 20
-205.5678
  0
VERTEX
  8
LAYER_1
 10
107.1014
 20
-205.8108
  0
VERTEX
  8
LAYER_1
 10
107.1014
 20
-206.8908
  0
VERTEX
  8
LAYER_1
 10
107.1014
 20
-207.1608
  0
VERTEX
  8
LAYER_1
 10
106.5295
 20
-207.1608
  0
VERTEX
  8
LAYER_1
 10
106.5184
 20
-207.1613
 42
0.388704299
  0
VERTEX
  8
LAYER_1
 10
106.4035
 20
-207.2868
  0
VERTEX
  8
LAYER_1
 10
106.4035
 20
-208.4748
 42
0.4142608417
  0
VERTEX
  8
LAYER_1
 10
106.5295
 20
-208.6008
  0
SEQEND
  0
POLYLINE
  8
LAYER_1
 40
0.1058
 41
0.1058
 66
1
 10
0
 20
0
 30
0
  0
VERTEX
  8
LAYER_1
 10
106.4022
 20
-208.6008
 42
-0.4142125475
  0
VERTEX
  8
LAYER_1
 10
106.2762
 20
-208.4748
  0
VERTEX
  8
LAYER_1
 10
106.2762
 20
-207.2868
 42
-0.2687095158
  0
VERTEX
  8
LAYER_1
 10
106.3432
 20
-207.1754
  0
VERTEX
  8
LAYER_1
 10
106.3635
 20
-207.1608
 42
0.2009836412
  0
VERTEX
  8
LAYER_1
 10
106.3911
 20
-207.0959
  0
VERTEX
  8
LAYER_1
 10
106.3911
 20
-206.9188
  0
VERTEX
  8
LAYER_1
 10
106.3866
 20
-206.8908
  0
VERTEX
  8
LAYER_1
 10
106.3759
 20
-206.8688
 42
-0.1483545144
  0
VERTEX
  8
LAYER_1
 10
106.2188
 20
-206.3508
 42
-0.1483556323
  0
VERTEX
  8
LAYER_1
 10
106.3759
 20
-205.8328
  0
VERTEX
  8
LAYER_1
 10
106.3866
 20
-205.8108
  0
VERTEX
  8
LAYER_1
 10
106.3911
 20
-205.7828
  0
VERTEX
  8
LAYER_1
 10
106.3911
 20
-205.5678
  0
VERTEX
  8
LAYER_1
 10
106.3869
 20
-205.5408
  0
VERTEX
  8
LAYER_1
 10
106.3766
 20
-205.5189
  0
SEQEND
  0
POLYLINE
  8
LAYER_1
 40
0.1058
 41
0.1058
 66
1
 10
0
 20
0
 30
0
  0
VERTEX
  8
LAYER_1
 10
107.2959
 20
-205.5189
  0
VERTEX
  8
LAYER_1
 10
107.2856
 20
-205.5408
  0
VERTEX
  8
LAYER_1
 10
107.2814
 20
-205.5678
  0
VERTEX
  8
LAYER_1
 10
107.2814
 20
-205.8108
  0
VERTEX
  8
LAYER_1
 10
107.8645
 20
-205.8108
  0
SEQEND
  0
POLYLINE
  8
LAYER_1
 40
0.1058
 41
0.1058
 66
1
 10
0
 20
0
 30
0
  0
VERTEX
  8
LAYER_1
 10
107.8645
 20
-207.1613
  0
VERTEX
  8
LAYER_1
 10
107.8645
 20
-206.9188
  0
VERTEX
  8
LAYER_1
 10
107.8797
 20
-206.8688
 42
0.1483575796
  0
VERTEX
  8
LAYER_1
 10
108.0369
 20
-206.3508
 42
0.1483586973
  0
VERTEX
  8
LAYER_1
 10
107.8797
 20
-205.8328
  0
VERTEX
  8
LAYER_1
 10
107.8645
 20
-205.7828
  0
VERTEX
  8
LAYER_1
 10
107.8645
 20
-205.5678
  0
VERTEX
  8
LAYER_1
 10
107.879
 20
-205.5189
  0
SEQEND
  0
POLYLINE
  8
LAYER_1
 40
0.1058
 41
0.1058
 66
1
 10
0
 20
0
 30
0
  0
VERTEX
  8
LAYER_1
 10
108.2412
 20
-208.6008
 42
0.4142737599
  0
VERTEX
  8
LAYER_1
 10
108.4032
 20
-208.4388
  0
VERTEX
  8
LAYER_1
 10
108.4032
 20
-207.3228
 42
0.3116286262
  0
VERTEX
  8
LAYER_1
 10
108.2987
 20
-207.1713
 42
-0.2993316799
  0
VERTEX
  8
LAYER_1
 10
108.2406
 20
-207.0872
  0
VERTEX
  8
LAYER_1
 10
108.2406
 20
-206.93
 42
-0.1980938402
  0
VERTEX
  8
LAYER_1
 10
108.2677
 20
-206.8656
 42
0.2018128038
  0
VERTEX
  8
LAYER_1
 10
108.4844
 20
-206.3505
 42
0.2015288928
  0
VERTEX
  8
LAYER_1
 10
108.2683
 20
-205.8359
 42
-0.1994717294
  0
VERTEX
  8
LAYER_1
 10
108.2412
 20
-205.7717
  0
VERTEX
  8
LAYER_1
 10
108.2412
 20
-205.5678
  0
VERTEX
  8
LAYER_1
 10
108.2478
 20
-205.534
  0
VERTEX
  8
LAYER_1
 10
108.2645
 20
-205.5228
  0
SEQEND
  0
POLYLINE
  8
LAYER_1
 40
0.1058
 41
0.1058
 66
1
 10
0
 20
0
 30
0
  0
VERTEX
  8
LAYER_1
 10
108.0063
 20
-205.5189
  0
VERTEX
  8
LAYER_1
 10
107.996
 20
-205.5408
  0
VERTEX
  8
LAYER_1
 10
107.9918
 20
-205.5678
  0
VERTEX
  8
LAYER_1
 10
107.9918
 20
-205.7828
  0
VERTEX
  8
LAYER_1
 10
107.9963
 20
-205.8108
  0
VERTEX
  8
LAYER_1
 10
108.007
 20
-205.8328
 42
-0.1483555332
  0
VERTEX
  8
LAYER_1
 10
108.1641
 20
-206.3508
 42
-0.148354415
  0
VERTEX
  8
LAYER_1
 10
108.007
 20
-206.8688
  0
VERTEX
  8
LAYER_1
 10
107.9963
 20
-206.8908
  0
VERTEX
  8
LAYER_1
 10
107.9918
 20
-206.9188
  0
VERTEX
  8
LAYER_1
 10
107.9918
 20
-207.0959
 42
0.200461969
  0
VERTEX
  8
LAYER_1
 10
108.0194
 20
-207.1608
  0
VERTEX
  8
LAYER_1
 10
108.0397
 20
-207.1754
 42
-0.2687082217
  0
VERTEX
  8
LAYER_1
 10
108.1067
 20
-207.2868
  0
VERTEX
  8
LAYER_1
 10
108.1067
 20
-208.4748
 42
-0.4142110374
  0
VERTEX
  8
LAYER_1
 10
107.9807
 20
-208.6008
  0
VERTEX
  8
LAYER_1
 10
106.4022
 20
-208.6008
  0
VERTEX
  8
LAYER_1
 10
106.1718
 20
-208.6008
  0
VERTEX
  8
LAYER_1
 10
106.1294
 20
-208.6008
 42
-0.4142551547
  0
VERTEX
  8
LAYER_1
 10
105.9674
 20
-208.4388
  0
VERTEX
  8
LAYER_1
 10
105.9674
 20
-207.3228
 42
-0.3108590915
  0
VERTEX
  8
LAYER_1
 10
106.0715
 20
-207.1715
 42
0.2987353519
  0
VERTEX
  8
LAYER_1
 10
106.1294
 20
-207.0874
  0
VERTEX
  8
LAYER_1
 10
106.1294
 20
-206.97
 42
0.2162678772
  0
VERTEX
  8
LAYER_1
 10
106.0974
 20
-206.9012
 42
-0.2211040403
  0
VERTEX
  8
LAYER_1
 10
105.8414
 20
-206.3508
 42
-0.2211071718
  0
VERTEX
  8
LAYER_1
 10
106.0974
 20
-205.8004
 42
0.2169138341
  0
VERTEX
  8
LAYER_1
 10
106.1294
 20
-205.7315
  0
VERTEX
  8
LAYER_1
 10
106.1294
 20
-205.6293
  0
VERTEX
  8
LAYER_1
 10
106.1124
 20
-205.5767
 42
-0.1741372866
  0
VERTEX
  8
LAYER_1
 10
105.8444
 20
-204.9108
  0
VERTEX
  8
LAYER_1
 10
107.1914
 20
-204.9108
  0
VERTEX
  8
LAYER_1
 10
108.5385
 20
-204.9108
 42
-0.1741371877
  0
VERTEX
  8
LAYER_1
 10
108.2705
 20
-205.5767
  0
VERTEX
  8
LAYER_1
 10
108.2535
 20
-205.6293
  0
VERTEX
  8
LAYER_1
 10
108.2535
 20
-205.7315
 42
0.2165199695
  0
VERTEX
  8
LAYER_1
 10
108.2855
 20
-205.8004
 42
-0.2211069913
  0
VERTEX
  8
LAYER_1
 10
108.5414
 20
-206.3508
 42
-0.2211038584
  0
VERTEX
  8
LAYER_1
 10
108.2855
 20
-206.9012
 42
0.2169683143
  0
VERTEX
  8
LAYER_1
 10
108.2535
 20
-206.97
  0
VERTEX
  8
LAYER_1
 10
108.2535
 20
-207.0874
 42
0.2986809745
  0
VERTEX
  8
LAYER_1
 10
108.3114
 20
-207.1715
 42
-0.3108580638
  0
VERTEX
  8
LAYER_1
 10
108.4155
 20
-207.3228
  0
VERTEX
  8
LAYER_1
 10
108.4155
 20
-208.4388
 42
-0.4142539799
  0
VERTEX
  8
LAYER_1
 10
108.2535
 20
-208.6008
  0
VERTEX
  8
LAYER_1
 10
108.2111
 20
-208.6008
  0
VERTEX
  8
LAYER_1
 10
107.9807
 20
-208.6008
  0
SEQEND
  0
POLYLINE
  8
LAYER_1
 40
0.1058
 41
0.1058
 66
1
 10
0
 20
0
 30
0
  0
VERTEX
  8
LAYER_1
 10
107.2814
 20
-208.6008
  0
VERTEX
  8
LAYER_1
 10
107.2814
 20
-207.1608
  0
VERTEX
  8
LAYER_1
 10
107.8534
 20
-207.1608
  0
VERTEX
  8
LAYER_1
 10
107.8645
 20
-207.1613
 42
-0.3887028198
  0
VERTEX
  8
LAYER_1
 10
107.9794
 20
-207.2868
  0
VERTEX
  8
LAYER_1
 10
107.9794
 20
-208.4748
 42
-0.4142593315
  0
VERTEX
  8
LAYER_1
 10
107.8534
 20
-208.6008
  0
VERTEX
  8
LAYER_1
 10
107.6921
 20
-208.6008
  0
SEQEND
  0
ENDBLK
  0
BLOCK
  8
LAYER_1
  2
AIGNBL0102002F
 70
64
 10
0
 20
0
 30
0
  3
AIGNBL0102002F
  0
POLYLINE
  8
LAYER_1
 40
0.1058
 41
0.1058
 66
1
 10
0
 20
0
 30
0
  0
VERTEX
  8
LAYER_1
 10
95.9142
 20
-158.5028
  0
VERTEX
  8
LAYER_1
 10
96.0015
 20
-158.4102
  0
VERTEX
  8
LAYER_1
 10
97.0811
 20
-158.3787
  0
VERTEX
  8
LAYER_1
 10
96.0015
 20
-158.4102
  0
SEQEND
  0
POLYLINE
  8
LAYER_1
 40
0.1058
 41
0.1058
 66
1
 10
0
 20
0
 30
0
  0
VERTEX
  8
LAYER_1
 10
95.9405
 20
-159.4024
  0
VERTEX
  8
LAYER_1
 10
95.9142
 20
-158.5028
  0
VERTEX
  8
LAYER_1
 10
95.9239
 20
-158.5025
  0
SEQEND
  0
POLYLINE
  8
LAYER_1
 40
0.1058
 41
0.1058
 66
1
 10
0
 20
0
 30
0
  0
VERTEX
  8
LAYER_1
 10
98.2698
 20
-159.3344
  0
VERTEX
  8
LAYER_1
 10
98.2435
 20
-158.4348
  0
SEQEND
  0
POLYLINE
  8
LAYER_1
 40
0.1058
 41
0.1058
 66
1
 10
0
 20
0
 30
0
  0
VERTEX
  8
LAYER_1
 10
95.9502
 20
-159.4022
 42
0.1850024693
  0
VERTEX
  8
LAYER_1
 10
96.1682
 20
-159.4857
 42
0.200166441
  0
VERTEX
  8
LAYER_1
 10
96.4
 20
-159.389
  0
SEQEND
  0
POLYLINE
  8
LAYER_1
 40
0.1058
 41
0.1058
 66
1
 10
0
 20
0
 30
0
  0
VERTEX
  8
LAYER_1
 10
96.3737
 20
-158.4894
 42
0.1850153215
  0
VERTEX
  8
LAYER_1
 10
96.1557
 20
-158.4059
 42
0.2001413343
  0
VERTEX
  8
LAYER_1
 10
95.9239
 20
-158.5025
  0
VERTEX
  8
LAYER_1
 10
95.9502
 20
-159.4022
  0
VERTEX
  8
LAYER_1
 10
95.9405
 20
-159.4024
  0
VERTEX
  8
LAYER_1
 10
96.0331
 20
-159.4898
  0
VERTEX
  8
LAYER_1
 10
96.123
 20
-159.4871
  0
VERTEX
  8
LAYER_1
 10
97.1126
 20
-159.4583
  0
VERTEX
  8
LAYER_1
 10
98.1022
 20
-159.4294
  0
VERTEX
  8
LAYER_1
 10
98.1921
 20
-159.4267
  0
VERTEX
  8
LAYER_1
 10
98.2795
 20
-159.3342
  0
SEQEND
  0
POLYLINE
  8
LAYER_1
 40
0.1058
 41
0.1058
 66
1
 10
0
 20
0
 30
0
  0
VERTEX
  8
LAYER_1
 10
97.7937
 20
-158.448
 42
-0.2001843862
  0
VERTEX
  8
LAYER_1
 10
98.0255
 20
-158.3513
 42
-0.1850103999
  0
VERTEX
  8
LAYER_1
 10
98.2435
 20
-158.4348
  0
VERTEX
  8
LAYER_1
 10
98.2532
 20
-158.4345
  0
SEQEND
  0
POLYLINE
  8
LAYER_1
 40
0.1058
 41
0.1058
 66
1
 10
0
 20
0
 30
0
  0
VERTEX
  8
LAYER_1
 10
97.5335
 20
-158.4555
 42
0.09244678382
  0
VERTEX
  8
LAYER_1
 10
97.1152
 20
-158.3782
  0
VERTEX
  8
LAYER_1
 10
97.0811
 20
-158.3787
 42
0.09902248677
  0
VERTEX
  8
LAYER_1
 10
96.6339
 20
-158.4818
  0
SEQEND
  0
POLYLINE
  8
LAYER_1
 40
0.1058
 41
0.1058
 66
1
 10
0
 20
0
 30
0
  0
VERTEX
  8
LAYER_1
 10
97.82
 20
-159.3476
 42
0.1850073925
  0
VERTEX
  8
LAYER_1
 10
98.038
 20
-159.4311
 42
0.2001800156
  0
VERTEX
  8
LAYER_1
 10
98.2698
 20
-159.3344
  0
VERTEX
  8
LAYER_1
 10
98.2795
 20
-159.3342
  0
VERTEX
  8
LAYER_1
 10
98.2532
 20
-158.4345
  0
VERTEX
  8
LAYER_1
 10
98.1606
 20
-158.3472
  0
VERTEX
  8
LAYER_1
 10
97.0811
 20
-158.3787
  0
VERTEX
  8
LAYER_1
 10
98.1606
 20
-158.3472
  0
SEQEND
  0
POLYLINE
  8
LAYER_1
 40
0.1058
 41
0.1058
 66
1
 10
0
 20
0
 30
0
  0
VERTEX
  8
LAYER_1
 10
96.6602
 20
-159.3814
  0
VERTEX
  8
LAYER_1
 10
96.4
 20
-159.389
  0
VERTEX
  8
LAYER_1
 10
96.3737
 20
-158.4894
  0
VERTEX
  8
LAYER_1
 10
96.6339
 20
-158.4818
  0
VERTEX
  8
LAYER_1
 10
96.6602
 20
-159.3814
 42
0.09261401283
  0
VERTEX
  8
LAYER_1
 10
97.0785
 20
-159.4588
  0
VERTEX
  8
LAYER_1
 10
97.1126
 20
-159.4583
 42
0.09902019479
  0
VERTEX
  8
LAYER_1
 10
97.5598
 20
-159.3552
  0
VERTEX
  8
LAYER_1
 10
97.82
 20
-159.3476
  0
VERTEX
  8
LAYER_1
 10
97.7937
 20
-158.448
  0
VERTEX
  8
LAYER_1
 10
97.5335
 20
-158.4555
  0
VERTEX
  8
LAYER_1
 10
97.5598
 20
-159.3552
  0
SEQEND
  0
ENDBLK
  0
BLOCK
  8
LAYER_1
  2
AIGNBL01020030
 70
64
 10
0
 20
0
 30
0
  3
AIGNBL01020030
  0
POLYLINE
  8
LAYER_1
 40
0.1058
 41
0.1058
 66
1
 10
0
 20
0
 30
0
  0
VERTEX
  8
LAYER_1
 10
96.0487
 20
-163.1809
  0
VERTEX
  8
LAYER_1
 10
96.3595
 20
-175.0496
  0
VERTEX
  8
LAYER_1
 10
96.3593
 20
-175.1294
 42
0.1816824458
  0
VERTEX
  8
LAYER_1
 10
101.4919
 20
-188.7882
 42
-0.1894469195
  0
VERTEX
  8
LAYER_1
 10
105.9854
 20
-200.2223
  0
VERTEX
  8
LAYER_1
 10
105.9854
 20
-204.9108
  0
SEQEND
  0
POLYLINE
  8
LAYER_1
 40
0.1058
 41
0.1058
 66
1
 10
0
 20
0
 30
0
  0
VERTEX
  8
LAYER_1
 10
98.4596
 20
-163.1105
  0
VERTEX
  8
LAYER_1
 10
98.7706
 20
-174.9865
  0
VERTEX
  8
LAYER_1
 10
98.7701
 20
-175.1294
 42
0.1806622078
  0
VERTEX
  8
LAYER_1
 10
103.2585
 20
-187.146
 42
-0.1894471875
  0
VERTEX
  8
LAYER_1
 10
108.3974
 20
-200.2223
  0
VERTEX
  8
LAYER_1
 10
108.3974
 20
-204.9108
  0
SEQEND
  0
ENDBLK
  0
BLOCK
  8
LAYER_1
  2
AIGNBL01020032
 70
64
 10
0
 20
0
 30
0
  3
AIGNBL01020032
  0
POLYLINE
  8
LAYER_1
 40
0.1058
 41
0.1058
 66
1
 10
0
 20
0
 30
0
  0
VERTEX
  8
LAYER_1
 10
164.0446
 20
-162.5388
  0
VERTEX
  8
LAYER_1
 10
163.952
 20
-162.5388
  0
SEQEND
  0
POLYLINE
  8
LAYER_1
 40
0.1058
 41
0.1058
 66
1
 10
0
 20
0
 30
0
  0
VERTEX
  8
LAYER_1
 10
164.6484
 20
-162.5208
  0
VERTEX
  8
LAYER_1
 10
164.0695
 20
-162.5208
  0
SEQEND
  0
POLYLINE
  8
LAYER_1
 40
0.1058
 41
0.1058
 66
1
 10
0
 20
0
 30
0
  0
VERTEX
  8
LAYER_1
 10
164.6526
 20
-159.4608
  0
VERTEX
  8
LAYER_1
 10
164.6526
 20
-160.9008
  0
SEQEND
  0
POLYLINE
  8
LAYER_1
 40
0.1058
 41
0.1058
 66
1
 10
0
 20
0
 30
0
  0
VERTEX
  8
LAYER_1
 10
164.6526
 20
-162.2508
  0
VERTEX
  8
LAYER_1
 10
164.0695
 20
-162.2508
  0
SEQEND
  0
POLYLINE
  8
LAYER_1
 40
0.1058
 41
0.1058
 66
1
 10
0
 20
0
 30
0
  0
VERTEX
  8
LAYER_1
 10
164.6526
 20
-161.1708
  0
VERTEX
  8
LAYER_1
 10
164.0695
 20
-161.1708
  0
SEQEND
  0
POLYLINE
  8
LAYER_1
 40
0.1058
 41
0.1058
 66
1
 10
0
 20
0
 30
0
  0
VERTEX
  8
LAYER_1
 10
163.9377
 20
-161.1708
  0
VERTEX
  8
LAYER_1
 10
163.6934
 20
-161.1708
  0
SEQEND
  0
POLYLINE
  8
LAYER_1
 40
0.1058
 41
0.1058
 66
1
 10
0
 20
0
 30
0
  0
VERTEX
  8
LAYER_1
 10
163.6805
 20
-160.9008
  0
VERTEX
  8
LAYER_1
 10
163.6934
 20
-160.9008
  0
VERTEX
  8
LAYER_1
 10
163.9146
 20
-160.9008
  0
SEQEND
  0
POLYLINE
  8
LAYER_1
 40
0.1058
 41
0.1058
 66
1
 10
0
 20
0
 30
0
  0
VERTEX
  8
LAYER_1
 10
163.938
 20
-162.5208
  0
VERTEX
  8
LAYER_1
 10
163.8273
 20
-162.5208
  0
VERTEX
  8
LAYER_1
 10
163.6928
 20
-162.5208
  0
SEQEND
  0
POLYLINE
  8
LAYER_1
 40
0.1058
 41
0.1058
 66
1
 10
0
 20
0
 30
0
  0
VERTEX
  8
LAYER_1
 10
163.9377
 20
-162.2508
  0
VERTEX
  8
LAYER_1
 10
163.6928
 20
-162.2508
  0
SEQEND
  0
POLYLINE
  8
LAYER_1
 40
0.1058
 41
0.1058
 66
1
 10
0
 20
0
 30
0
  0
VERTEX
  8
LAYER_1
 10
164.0446
 20
-162.2328
  0
VERTEX
  8
LAYER_1
 10
163.952
 20
-162.2328
  0
SEQEND
  0
POLYLINE
  8
LAYER_1
 40
0.1058
 41
0.1058
 66
1
 10
0
 20
0
 30
0
  0
VERTEX
  8
LAYER_1
 10
164.0446
 20
-161.1888
  0
VERTEX
  8
LAYER_1
 10
163.952
 20
-161.1888
  0
SEQEND
  0
POLYLINE
  8
LAYER_1
 40
0.1058
 41
0.1058
 66
1
 10
0
 20
0
 30
0
  0
VERTEX
  8
LAYER_1
 10
164.8146
 20
-161.1888
  0
VERTEX
  8
LAYER_1
 10
164.7426
 20
-161.1888
  0
VERTEX
  8
LAYER_1
 10
164.6706
 20
-161.1888
  0
SEQEND
  0
POLYLINE
  8
LAYER_1
 40
0.1058
 41
0.1058
 66
1
 10
0
 20
0
 30
0
  0
VERTEX
  8
LAYER_1
 10
164.8146
 20
-160.9188
  0
VERTEX
  8
LAYER_1
 10
164.7426
 20
-160.9188
  0
VERTEX
  8
LAYER_1
 10
164.6706
 20
-160.9188
  0
SEQEND
  0
POLYLINE
  8
LAYER_1
 40
0.1058
 41
0.1058
 66
1
 10
0
 20
0
 30
0
  0
VERTEX
  8
LAYER_1
 10
165.5331
 20
-161.1888
  0
VERTEX
  8
LAYER_1
 10
165.4406
 20
-161.1888
  0
SEQEND
  0
POLYLINE
  8
LAYER_1
 40
0.1058
 41
0.1058
 66
1
 10
0
 20
0
 30
0
  0
VERTEX
  8
LAYER_1
 10
164.8326
 20
-161.1708
  0
VERTEX
  8
LAYER_1
 10
164.8326
 20
-160.9008
  0
SEQEND
  0
POLYLINE
  8
LAYER_1
 40
0.1058
 41
0.1058
 66
1
 10
0
 20
0
 30
0
  0
VERTEX
  8
LAYER_1
 10
164.8146
 20
-162.2328
  0
VERTEX
  8
LAYER_1
 10
164.7426
 20
-162.2328
  0
VERTEX
  8
LAYER_1
 10
164.6706
 20
-162.2328
  0
SEQEND
  0
POLYLINE
  8
LAYER_1
 40
0.1058
 41
0.1058
 66
1
 10
0
 20
0
 30
0
  0
VERTEX
  8
LAYER_1
 10
164.8146
 20
-162.5388
  0
VERTEX
  8
LAYER_1
 10
164.7426
 20
-162.5388
  0
VERTEX
  8
LAYER_1
 10
164.6706
 20
-162.5388
  0
SEQEND
  0
POLYLINE
  8
LAYER_1
 40
0.1058
 41
0.1058
 66
1
 10
0
 20
0
 30
0
  0
VERTEX
  8
LAYER_1
 10
165.5331
 20
-162.2328
  0
VERTEX
  8
LAYER_1
 10
165.4406
 20
-162.2328
  0
SEQEND
  0
POLYLINE
  8
LAYER_1
 40
0.1058
 41
0.1058
 66
1
 10
0
 20
0
 30
0
  0
VERTEX
  8
LAYER_1
 10
165.7924
 20
-162.2508
  0
VERTEX
  8
LAYER_1
 10
165.5474
 20
-162.2508
  0
SEQEND
  0
POLYLINE
  8
LAYER_1
 40
0.1058
 41
0.1058
 66
1
 10
0
 20
0
 30
0
  0
VERTEX
  8
LAYER_1
 10
165.7917
 20
-161.1708
  0
VERTEX
  8
LAYER_1
 10
165.5474
 20
-161.1708
  0
SEQEND
  0
POLYLINE
  8
LAYER_1
 40
0.1058
 41
0.1058
 66
1
 10
0
 20
0
 30
0
  0
VERTEX
  8
LAYER_1
 10
165.5706
 20
-160.9008
  0
VERTEX
  8
LAYER_1
 10
165.7924
 20
-160.9008
  0
VERTEX
  8
LAYER_1
 10
165.8047
 20
-160.9008
  0
SEQEND
  0
POLYLINE
  8
LAYER_1
 40
0.1058
 41
0.1058
 66
1
 10
0
 20
0
 30
0
  0
VERTEX
  8
LAYER_1
 10
165.4156
 20
-161.1708
  0
VERTEX
  8
LAYER_1
 10
164.8326
 20
-161.1708
  0
VERTEX
  8
LAYER_1
 10
164.8326
 20
-162.2508
  0
SEQEND
  0
POLYLINE
  8
LAYER_1
 40
0.1058
 41
0.1058
 66
1
 10
0
 20
0
 30
0
  0
VERTEX
  8
LAYER_1
 10
165.4156
 20
-162.5208
  0
VERTEX
  8
LAYER_1
 10
164.8367
 20
-162.5208
  0
SEQEND
  0
POLYLINE
  8
LAYER_1
 40
0.1058
 41
0.1058
 66
1
 10
0
 20
0
 30
0
  0
VERTEX
  8
LAYER_1
 10
165.5331
 20
-162.5388
  0
VERTEX
  8
LAYER_1
 10
165.4406
 20
-162.5388
  0
SEQEND
  0
POLYLINE
  8
LAYER_1
 40
0.1058
 41
0.1058
 66
1
 10
0
 20
0
 30
0
  0
VERTEX
  8
LAYER_1
 10
165.7924
 20
-162.5208
  0
VERTEX
  8
LAYER_1
 10
165.6578
 20
-162.5208
  0
VERTEX
  8
LAYER_1
 10
165.5471
 20
-162.5208
  0
SEQEND
  0
POLYLINE
  8
LAYER_1
 40
0.1058
 41
0.1058
 66
1
 10
0
 20
0
 30
0
  0
VERTEX
  8
LAYER_1
 10
93.0716
 20
-162.5143
  0
VERTEX
  8
LAYER_1
 10
92.9791
 20
-162.5116
  0
SEQEND
  0
POLYLINE
  8
LAYER_1
 40
0.1058
 41
0.1058
 66
1
 10
0
 20
0
 30
0
  0
VERTEX
  8
LAYER_1
 10
93.6757
 20
-162.514
  0
VERTEX
  8
LAYER_1
 10
93.0971
 20
-162.4971
  0
SEQEND
  0
POLYLINE
  8
LAYER_1
 40
0.1058
 41
0.1058
 66
1
 10
0
 20
0
 30
0
  0
VERTEX
  8
LAYER_1
 10
93.7692
 20
-159.4554
  0
VERTEX
  8
LAYER_1
 10
93.7272
 20
-160.8948
  0
SEQEND
  0
POLYLINE
  8
LAYER_1
 40
0.1058
 41
0.1058
 66
1
 10
0
 20
0
 30
0
  0
VERTEX
  8
LAYER_1
 10
93.6878
 20
-162.2442
  0
VERTEX
  8
LAYER_1
 10
93.1049
 20
-162.2272
  0
SEQEND
  0
POLYLINE
  8
LAYER_1
 40
0.1058
 41
0.1058
 66
1
 10
0
 20
0
 30
0
  0
VERTEX
  8
LAYER_1
 10
93.7193
 20
-161.1647
  0
VERTEX
  8
LAYER_1
 10
93.1364
 20
-161.1476
  0
SEQEND
  0
POLYLINE
  8
LAYER_1
 40
0.1058
 41
0.1058
 66
1
 10
0
 20
0
 30
0
  0
VERTEX
  8
LAYER_1
 10
93.0048
 20
-161.1438
  0
VERTEX
  8
LAYER_1
 10
92.7605
 20
-161.1367
  0
SEQEND
  0
POLYLINE
  8
LAYER_1
 40
0.1058
 41
0.1058
 66
1
 10
0
 20
0
 30
0
  0
VERTEX
  8
LAYER_1
 10
92.7555
 20
-160.8664
  0
VERTEX
  8
LAYER_1
 10
92.7684
 20
-160.8668
  0
VERTEX
  8
LAYER_1
 10
92.9895
 20
-160.8732
  0
SEQEND
  0
POLYLINE
  8
LAYER_1
 40
0.1058
 41
0.1058
 66
1
 10
0
 20
0
 30
0
  0
VERTEX
  8
LAYER_1
 10
92.9657
 20
-162.4932
  0
VERTEX
  8
LAYER_1
 10
92.855
 20
-162.49
  0
VERTEX
  8
LAYER_1
 10
92.7205
 20
-162.4861
  0
SEQEND
  0
POLYLINE
  8
LAYER_1
 40
0.1058
 41
0.1058
 66
1
 10
0
 20
0
 30
0
  0
VERTEX
  8
LAYER_1
 10
92.9732
 20
-162.2233
  0
VERTEX
  8
LAYER_1
 10
92.7284
 20
-162.2162
  0
SEQEND
  0
POLYLINE
  8
LAYER_1
 40
0.1058
 41
0.1058
 66
1
 10
0
 20
0
 30
0
  0
VERTEX
  8
LAYER_1
 10
93.0806
 20
-162.2085
  0
VERTEX
  8
LAYER_1
 10
92.988
 20
-162.2058
  0
SEQEND
  0
POLYLINE
  8
LAYER_1
 40
0.1058
 41
0.1058
 66
1
 10
0
 20
0
 30
0
  0
VERTEX
  8
LAYER_1
 10
93.111
 20
-161.1649
  0
VERTEX
  8
LAYER_1
 10
93.0185
 20
-161.1622
  0
SEQEND
  0
POLYLINE
  8
LAYER_1
 40
0.1058
 41
0.1058
 66
1
 10
0
 20
0
 30
0
  0
VERTEX
  8
LAYER_1
 10
93.7446
 20
-160.9133
  0
VERTEX
  8
LAYER_1
 10
93.8166
 20
-160.9154
  0
VERTEX
  8
LAYER_1
 10
93.8886
 20
-160.9175
  0
SEQEND
  0
POLYLINE
  8
LAYER_1
 40
0.1058
 41
0.1058
 66
1
 10
0
 20
0
 30
0
  0
VERTEX
  8
LAYER_1
 10
93.8807
 20
-161.1874
  0
VERTEX
  8
LAYER_1
 10
93.8087
 20
-161.1853
  0
VERTEX
  8
LAYER_1
 10
93.7367
 20
-161.1832
  0
SEQEND
  0
POLYLINE
  8
LAYER_1
 40
0.1058
 41
0.1058
 66
1
 10
0
 20
0
 30
0
  0
VERTEX
  8
LAYER_1
 10
94.5989
 20
-161.2083
  0
VERTEX
  8
LAYER_1
 10
94.5064
 20
-161.2056
  0
SEQEND
  0
POLYLINE
  8
LAYER_1
 40
0.1058
 41
0.1058
 66
1
 10
0
 20
0
 30
0
  0
VERTEX
  8
LAYER_1
 10
93.8992
 20
-161.1699
  0
VERTEX
  8
LAYER_1
 10
93.9071
 20
-160.9
  0
SEQEND
  0
POLYLINE
  8
LAYER_1
 40
0.1058
 41
0.1058
 66
1
 10
0
 20
0
 30
0
  0
VERTEX
  8
LAYER_1
 10
93.8502
 20
-162.2309
  0
VERTEX
  8
LAYER_1
 10
93.7783
 20
-162.2288
  0
VERTEX
  8
LAYER_1
 10
93.7063
 20
-162.2267
  0
SEQEND
  0
POLYLINE
  8
LAYER_1
 40
0.1058
 41
0.1058
 66
1
 10
0
 20
0
 30
0
  0
VERTEX
  8
LAYER_1
 10
93.8413
 20
-162.5368
  0
VERTEX
  8
LAYER_1
 10
93.7693
 20
-162.5347
  0
VERTEX
  8
LAYER_1
 10
93.6974
 20
-162.5326
  0
SEQEND
  0
POLYLINE
  8
LAYER_1
 40
0.1058
 41
0.1058
 66
1
 10
0
 20
0
 30
0
  0
VERTEX
  8
LAYER_1
 10
94.5685
 20
-162.2519
  0
VERTEX
  8
LAYER_1
 10
94.4759
 20
-162.2492
  0
SEQEND
  0
POLYLINE
  8
LAYER_1
 40
0.1058
 41
0.1058
 66
1
 10
0
 20
0
 30
0
  0
VERTEX
  8
LAYER_1
 10
94.8271
 20
-162.2775
  0
VERTEX
  8
LAYER_1
 10
94.5822
 20
-162.2703
  0
SEQEND
  0
POLYLINE
  8
LAYER_1
 40
0.1058
 41
0.1058
 66
1
 10
0
 20
0
 30
0
  0
VERTEX
  8
LAYER_1
 10
94.858
 20
-161.1979
  0
VERTEX
  8
LAYER_1
 10
94.6137
 20
-161.1908
  0
SEQEND
  0
POLYLINE
  8
LAYER_1
 40
0.1058
 41
0.1058
 66
1
 10
0
 20
0
 30
0
  0
VERTEX
  8
LAYER_1
 10
94.6448
 20
-160.9216
  0
VERTEX
  8
LAYER_1
 10
94.8665
 20
-160.928
  0
VERTEX
  8
LAYER_1
 10
94.8788
 20
-160.9284
  0
SEQEND
  0
POLYLINE
  8
LAYER_1
 40
0.1058
 41
0.1058
 66
1
 10
0
 20
0
 30
0
  0
VERTEX
  8
LAYER_1
 10
94.482
 20
-161.1869
  0
VERTEX
  8
LAYER_1
 10
93.8992
 20
-161.1699
  0
VERTEX
  8
LAYER_1
 10
93.8677
 20
-162.2494
  0
SEQEND
  0
POLYLINE
  8
LAYER_1
 40
0.1058
 41
0.1058
 66
1
 10
0
 20
0
 30
0
  0
VERTEX
  8
LAYER_1
 10
94.4426
 20
-162.5363
  0
VERTEX
  8
LAYER_1
 10
93.864
 20
-162.5195
  0
SEQEND
  0
POLYLINE
  8
LAYER_1
 40
0.1058
 41
0.1058
 66
1
 10
0
 20
0
 30
0
  0
VERTEX
  8
LAYER_1
 10
94.5596
 20
-162.5578
  0
VERTEX
  8
LAYER_1
 10
94.467
 20
-162.5551
  0
SEQEND
  0
POLYLINE
  8
LAYER_1
 40
0.1058
 41
0.1058
 66
1
 10
0
 20
0
 30
0
  0
VERTEX
  8
LAYER_1
 10
94.8192
 20
-162.5473
  0
VERTEX
  8
LAYER_1
 10
94.6847
 20
-162.5434
  0
VERTEX
  8
LAYER_1
 10
94.574
 20
-162.5402
  0
SEQEND
  0
POLYLINE
  8
LAYER_1
 40
0.1058
 41
0.1058
 66
1
 10
0
 20
0
 30
0
  0
VERTEX
  8
LAYER_1
 10
164.0638
 20
-160.9125
  0
VERTEX
  8
LAYER_1
 10
164.0525
 20
-160.9188
  0
VERTEX
  8
LAYER_1
 10
163.952
 20
-160.9188
  0
VERTEX
  8
LAYER_1
 10
163.9384
 20
-160.9143
  0
SEQEND
  0
POLYLINE
  8
LAYER_1
 40
0.1058
 41
0.1058
 66
1
 10
0
 20
0
 30
0
  0
VERTEX
  8
LAYER_1
 10
165.5467
 20
-160.9143
  0
VERTEX
  8
LAYER_1
 10
165.5331
 20
-160.9188
  0
VERTEX
  8
LAYER_1
 10
165.4327
 20
-160.9188
  0
VERTEX
  8
LAYER_1
 10
165.4213
 20
-160.9125
  0
SEQEND
  0
POLYLINE
  8
LAYER_1
 40
0.1058
 41
0.1058
 66
1
 10
0
 20
0
 30
0
  0
VERTEX
  8
LAYER_1
 10
93.1383
 20
-160.8893
  0
VERTEX
  8
LAYER_1
 10
93.1268
 20
-160.8953
  0
VERTEX
  8
LAYER_1
 10
93.0264
 20
-160.8923
  0
VERTEX
  8
LAYER_1
 10
93.0129
 20
-160.8874
  0
SEQEND
  0
POLYLINE
  8
LAYER_1
 40
0.1058
 41
0.1058
 66
1
 10
0
 20
0
 30
0
  0
VERTEX
  8
LAYER_1
 10
94.6205
 20
-160.9343
  0
VERTEX
  8
LAYER_1
 10
94.6068
 20
-160.9385
  0
VERTEX
  8
LAYER_1
 10
94.5064
 20
-160.9355
  0
VERTEX
  8
LAYER_1
 10
94.4952
 20
-160.9289
  0
SEQEND
  0
POLYLINE
  8
LAYER_1
 40
0.1058
 41
0.1058
 66
1
 10
0
 20
0
 30
0
  0
VERTEX
  8
LAYER_1
 10
164.055
 20
-162.5427
  0
VERTEX
  8
LAYER_1
 10
164.0695
 20
-162.4937
  0
VERTEX
  8
LAYER_1
 10
164.0695
 20
-162.2788
  0
VERTEX
  8
LAYER_1
 10
164.0543
 20
-162.2288
 42
-0.1483547533
  0
VERTEX
  8
LAYER_1
 10
163.8972
 20
-161.7108
 42
-0.1483558712
  0
VERTEX
  8
LAYER_1
 10
164.0543
 20
-161.1928
  0
VERTEX
  8
LAYER_1
 10
164.0695
 20
-161.1428
  0
VERTEX
  8
LAYER_1
 10
164.0695
 20
-160.9003
  0
SEQEND
  0
POLYLINE
  8
LAYER_1
 40
0.1058
 41
0.1058
 66
1
 10
0
 20
0
 30
0
  0
VERTEX
  8
LAYER_1
 10
163.6928
 20
-159.4608
 42
0.4142839621
  0
VERTEX
  8
LAYER_1
 10
163.5308
 20
-159.6228
  0
VERTEX
  8
LAYER_1
 10
163.5308
 20
-160.7388
 42
0.3115728055
  0
VERTEX
  8
LAYER_1
 10
163.6353
 20
-160.8903
 42
-0.3002252787
  0
VERTEX
  8
LAYER_1
 10
163.6934
 20
-160.9744
  0
VERTEX
  8
LAYER_1
 10
163.6934
 20
-161.1316
 42
-0.1991111727
  0
VERTEX
  8
LAYER_1
 10
163.6663
 20
-161.1959
 42
0.2018358886
  0
VERTEX
  8
LAYER_1
 10
163.4496
 20
-161.7111
 42
0.201522
  0
VERTEX
  8
LAYER_1
 10
163.6658
 20
-162.2256
 42
-0.1985806575
  0
VERTEX
  8
LAYER_1
 10
163.6928
 20
-162.2899
  0
VERTEX
  8
LAYER_1
 10
163.6928
 20
-162.4937
  0
VERTEX
  8
LAYER_1
 10
163.6862
 20
-162.5276
  0
VERTEX
  8
LAYER_1
 10
163.6695
 20
-162.5388
  0
SEQEND
  0
POLYLINE
  8
LAYER_1
 40
0.1058
 41
0.1058
 66
1
 10
0
 20
0
 30
0
  0
VERTEX
  8
LAYER_1
 10
164.6381
 20
-162.5427
  0
VERTEX
  8
LAYER_1
 10
164.6484
 20
-162.5208
  0
VERTEX
  8
LAYER_1
 10
164.6526
 20
-162.4937
  0
VERTEX
  8
LAYER_1
 10
164.6526
 20
-162.2508
  0
VERTEX
  8
LAYER_1
 10
164.6526
 20
-161.1708
  0
VERTEX
  8
LAYER_1
 10
164.6526
 20
-160.9008
  0
VERTEX
  8
LAYER_1
 10
164.0806
 20
-160.9008
  0
VERTEX
  8
LAYER_1
 10
164.0695
 20
-160.9003
 42
-0.3886101872
  0
VERTEX
  8
LAYER_1
 10
163.9546
 20
-160.7748
  0
VERTEX
  8
LAYER_1
 10
163.9546
 20
-159.5868
 42
-0.4142724435
  0
VERTEX
  8
LAYER_1
 10
164.0806
 20
-159.4608
  0
VERTEX
  8
LAYER_1
 10
164.242
 20
-159.4608
  0
SEQEND
  0
POLYLINE
  8
LAYER_1
 40
0.1058
 41
0.1058
 66
1
 10
0
 20
0
 30
0
  0
VERTEX
  8
LAYER_1
 10
163.9533
 20
-159.4608
 42
0.4142241303
  0
VERTEX
  8
LAYER_1
 10
163.8273
 20
-159.5868
  0
VERTEX
  8
LAYER_1
 10
163.8273
 20
-160.7748
 42
0.2691691619
  0
VERTEX
  8
LAYER_1
 10
163.8943
 20
-160.8861
  0
VERTEX
  8
LAYER_1
 10
163.9146
 20
-160.9008
 42
-0.2009836412
  0
VERTEX
  8
LAYER_1
 10
163.9422
 20
-160.9657
  0
VERTEX
  8
LAYER_1
 10
163.9422
 20
-161.1428
  0
VERTEX
  8
LAYER_1
 10
163.9377
 20
-161.1708
  0
VERTEX
  8
LAYER_1
 10
163.927
 20
-161.1928
 42
0.1483527069
  0
VERTEX
  8
LAYER_1
 10
163.7699
 20
-161.7108
 42
0.148351589
  0
VERTEX
  8
LAYER_1
 10
163.927
 20
-162.2288
  0
VERTEX
  8
LAYER_1
 10
163.9377
 20
-162.2508
  0
VERTEX
  8
LAYER_1
 10
163.9422
 20
-162.2788
  0
VERTEX
  8
LAYER_1
 10
163.9422
 20
-162.4937
  0
VERTEX
  8
LAYER_1
 10
163.938
 20
-162.5208
  0
VERTEX
  8
LAYER_1
 10
163.9277
 20
-162.5427
  0
SEQEND
  0
POLYLINE
  8
LAYER_1
 40
0.1058
 41
0.1058
 66
1
 10
0
 20
0
 30
0
  0
VERTEX
  8
LAYER_1
 10
164.847
 20
-162.5427
  0
VERTEX
  8
LAYER_1
 10
164.8367
 20
-162.5208
  0
VERTEX
  8
LAYER_1
 10
164.8326
 20
-162.4937
  0
VERTEX
  8
LAYER_1
 10
164.8326
 20
-162.2508
  0
VERTEX
  8
LAYER_1
 10
165.4156
 20
-162.2508
  0
SEQEND
  0
POLYLINE
  8
LAYER_1
 40
0.1058
 41
0.1058
 66
1
 10
0
 20
0
 30
0
  0
VERTEX
  8
LAYER_1
 10
165.4156
 20
-160.9003
  0
VERTEX
  8
LAYER_1
 10
165.4156
 20
-161.1428
  0
VERTEX
  8
LAYER_1
 10
165.4308
 20
-161.1928
 42
-0.1483616229
  0
VERTEX
  8
LAYER_1
 10
165.588
 20
-161.7108
 42
-0.1483605053
  0
VERTEX
  8
LAYER_1
 10
165.4308
 20
-162.2288
  0
VERTEX
  8
LAYER_1
 10
165.4156
 20
-162.2788
  0
VERTEX
  8
LAYER_1
 10
165.4156
 20
-162.4937
  0
VERTEX
  8
LAYER_1
 10
165.4301
 20
-162.5427
  0
SEQEND
  0
POLYLINE
  8
LAYER_1
 40
0.1058
 41
0.1058
 66
1
 10
0
 20
0
 30
0
  0
VERTEX
  8
LAYER_1
 10
165.5318
 20
-159.4608
 42
-0.4143119518
  0
VERTEX
  8
LAYER_1
 10
165.6578
 20
-159.5868
  0
VERTEX
  8
LAYER_1
 10
165.6578
 20
-160.7748
 42
-0.2691691619
  0
VERTEX
  8
LAYER_1
 10
165.5908
 20
-160.8861
  0
VERTEX
  8
LAYER_1
 10
165.5706
 20
-160.9008
 42
0.2017080086
  0
VERTEX
  8
LAYER_1
 10
165.5429
 20
-160.9657
  0
VERTEX
  8
LAYER_1
 10
165.5429
 20
-161.1428
  0
VERTEX
  8
LAYER_1
 10
165.5474
 20
-161.1708
  0
VERTEX
  8
LAYER_1
 10
165.5581
 20
-161.1928
 42
-0.1483584588
  0
VERTEX
  8
LAYER_1
 10
165.7152
 20
-161.7108
 42
-0.1483573406
  0
VERTEX
  8
LAYER_1
 10
165.5581
 20
-162.2288
  0
VERTEX
  8
LAYER_1
 10
165.5474
 20
-162.2508
  0
VERTEX
  8
LAYER_1
 10
165.5429
 20
-162.2788
  0
VERTEX
  8
LAYER_1
 10
165.5429
 20
-162.4937
  0
VERTEX
  8
LAYER_1
 10
165.5471
 20
-162.5208
  0
VERTEX
  8
LAYER_1
 10
165.5574
 20
-162.5427
  0
SEQEND
  0
POLYLINE
  8
LAYER_1
 40
0.1058
 41
0.1058
 66
1
 10
0
 20
0
 30
0
  0
VERTEX
  8
LAYER_1
 10
165.4046
 20
-159.4608
 42
-0.4141277634
  0
VERTEX
  8
LAYER_1
 10
165.5306
 20
-159.5868
  0
VERTEX
  8
LAYER_1
 10
165.5306
 20
-160.7748
 42
-0.3886961315
  0
VERTEX
  8
LAYER_1
 10
165.4156
 20
-160.9003
  0
VERTEX
  8
LAYER_1
 10
165.4046
 20
-160.9008
  0
VERTEX
  8
LAYER_1
 10
164.8326
 20
-160.9008
  0
VERTEX
  8
LAYER_1
 10
164.8326
 20
-159.4608
  0
SEQEND
  0
POLYLINE
  8
LAYER_1
 40
0.1058
 41
0.1058
 66
1
 10
0
 20
0
 30
0
 70
1
  0
VERTEX
  8
LAYER_1
 10
165.8366
 20
-162.2612
 42
0.2211092096
  0
VERTEX
  8
LAYER_1
 10
166.0926
 20
-161.7108
 42
0.2211123415
  0
VERTEX
  8
LAYER_1
 10
165.8366
 20
-161.1604
 42
-0.21663253
  0
VERTEX
  8
LAYER_1
 10
165.8047
 20
-161.0915
  0
VERTEX
  8
LAYER_1
 10
165.8047
 20
-160.9742
 42
-0.2989018266
  0
VERTEX
  8
LAYER_1
 10
165.8625
 20
-160.8901
 42
0.3108621174
  0
VERTEX
  8
LAYER_1
 10
165.9667
 20
-160.7388
  0
VERTEX
  8
LAYER_1
 10
165.9667
 20
-159.6228
 42
0.4141516511
  0
VERTEX
  8
LAYER_1
 10
165.8047
 20
-159.4608
  0
VERTEX
  8
LAYER_1
 10
165.7623
 20
-159.4608
  0
VERTEX
  8
LAYER_1
 10
165.5318
 20
-159.4608
  0
VERTEX
  8
LAYER_1
 10
163.9533
 20
-159.4608
  0
VERTEX
  8
LAYER_1
 10
163.7229
 20
-159.4608
  0
VERTEX
  8
LAYER_1
 10
163.6805
 20
-159.4608
 42
0.4142641758
  0
VERTEX
  8
LAYER_1
 10
163.5185
 20
-159.6228
  0
VERTEX
  8
LAYER_1
 10
163.5185
 20
-160.7388
 42
0.3108024051
  0
VERTEX
  8
LAYER_1
 10
163.6226
 20
-160.8901
 42
-0.2992333434
  0
VERTEX
  8
LAYER_1
 10
163.6805
 20
-160.9742
  0
VERTEX
  8
LAYER_1
 10
163.6805
 20
-161.0915
 42
-0.2165199695
  0
VERTEX
  8
LAYER_1
 10
163.6485
 20
-161.1604
 42
0.2211018217
  0
VERTEX
  8
LAYER_1
 10
163.3926
 20
-161.7108
 42
0.2210986892
  0
VERTEX
  8
LAYER_1
 10
163.6485
 20
-162.2612
 42
-0.2169683143
  0
VERTEX
  8
LAYER_1
 10
163.6805
 20
-162.33
  0
VERTEX
  8
LAYER_1
 10
163.6805
 20
-162.4323
  0
VERTEX
  8
LAYER_1
 10
163.6635
 20
-162.4848
 42
0.1741539628
  0
VERTEX
  8
LAYER_1
 10
163.3955
 20
-163.1508
  0
VERTEX
  8
LAYER_1
 10
164.7426
 20
-163.1508
  0
VERTEX
  8
LAYER_1
 10
166.0897
 20
-163.1508
 42
0.174160627
  0
VERTEX
  8
LAYER_1
 10
165.8216
 20
-162.4848
  0
VERTEX
  8
LAYER_1
 10
165.8047
 20
-162.4323
  0
VERTEX
  8
LAYER_1
 10
165.8047
 20
-162.33
 42
-0.216707249
  0
SEQEND
  0
POLYLINE
  8
LAYER_1
 40
0.1058
 41
0.1058
 66
1
 10
0
 20
0
 30
0
  0
VERTEX
  8
LAYER_1
 10
165.7924
 20
-159.4608
 42
-0.4141714356
  0
VERTEX
  8
LAYER_1
 10
165.9544
 20
-159.6228
  0
VERTEX
  8
LAYER_1
 10
165.9544
 20
-160.7388
 42
-0.3116325925
  0
VERTEX
  8
LAYER_1
 10
165.8498
 20
-160.8903
 42
0.2997136267
  0
VERTEX
  8
LAYER_1
 10
165.7917
 20
-160.9744
  0
VERTEX
  8
LAYER_1
 10
165.7917
 20
-161.1316
 42
0.1991111727
  0
VERTEX
  8
LAYER_1
 10
165.8188
 20
-161.1959
 42
-0.2018456396
  0
VERTEX
  8
LAYER_1
 10
166.0356
 20
-161.7111
 42
-0.2015059531
  0
VERTEX
  8
LAYER_1
 10
165.8194
 20
-162.2256
 42
0.1988853409
  0
VERTEX
  8
LAYER_1
 10
165.7924
 20
-162.2899
  0
VERTEX
  8
LAYER_1
 10
165.7924
 20
-162.4937
  0
VERTEX
  8
LAYER_1
 10
165.799
 20
-162.5276
  0
VERTEX
  8
LAYER_1
 10
165.8156
 20
-162.5388
  0
SEQEND
  0
POLYLINE
  8
LAYER_1
 40
0.1058
 41
0.1058
 66
1
 10
0
 20
0
 30
0
  0
VERTEX
  8
LAYER_1
 10
93.0819
 20
-162.5185
  0
VERTEX
  8
LAYER_1
 10
93.0978
 20
-162.47
  0
VERTEX
  8
LAYER_1
 10
93.1041
 20
-162.2552
  0
VERTEX
  8
LAYER_1
 10
93.1042
 20
-162.2525
  0
VERTEX
  8
LAYER_1
 10
93.0904
 20
-162.2047
 42
-0.1408928438
  0
VERTEX
  8
LAYER_1
 10
92.948
 20
-161.7096
 42
-0.1558176726
  0
VERTEX
  8
LAYER_1
 10
93.1206
 20
-161.1692
  0
VERTEX
  8
LAYER_1
 10
93.1373
 20
-161.1197
  0
VERTEX
  8
LAYER_1
 10
93.1443
 20
-160.8773
  0
SEQEND
  0
POLYLINE
  8
LAYER_1
 40
0.1058
 41
0.1058
 66
1
 10
0
 20
0
 30
0
  0
VERTEX
  8
LAYER_1
 10
92.8098
 20
-159.4274
  0
VERTEX
  8
LAYER_1
 10
92.8051
 20
-159.4273
 42
0.405792562
  0
VERTEX
  8
LAYER_1
 10
92.6431
 20
-159.5846
  0
VERTEX
  8
LAYER_1
 10
92.6106
 20
-160.7001
  0
VERTEX
  8
LAYER_1
 10
92.6105
 20
-160.7048
 42
0.3036180577
  0
VERTEX
  8
LAYER_1
 10
92.7106
 20
-160.8546
 42
-0.292582683
  0
VERTEX
  8
LAYER_1
 10
92.7663
 20
-160.9377
  0
VERTEX
  8
LAYER_1
 10
92.7662
 20
-160.9404
  0
VERTEX
  8
LAYER_1
 10
92.7617
 20
-161.0975
 42
-0.1990313781
  0
VERTEX
  8
LAYER_1
 10
92.7327
 20
-161.161
 42
0.2094143966
  0
VERTEX
  8
LAYER_1
 10
92.5007
 20
-161.6906
 42
0.1939684238
  0
VERTEX
  8
LAYER_1
 10
92.7021
 20
-162.1903
 42
-0.1920350058
  0
VERTEX
  8
LAYER_1
 10
92.7273
 20
-162.2527
  0
VERTEX
  8
LAYER_1
 10
92.7272
 20
-162.2553
  0
VERTEX
  8
LAYER_1
 10
92.7213
 20
-162.459
  0
VERTEX
  8
LAYER_1
 10
92.7137
 20
-162.4926
  0
VERTEX
  8
LAYER_1
 10
92.6972
 20
-162.5034
  0
VERTEX
  8
LAYER_1
 10
92.6967
 20
-162.5034
  0
SEQEND
  0
POLYLINE
  8
LAYER_1
 40
0.1058
 41
0.1058
 66
1
 10
0
 20
0
 30
0
  0
VERTEX
  8
LAYER_1
 10
93.6648
 20
-162.5355
  0
VERTEX
  8
LAYER_1
 10
93.6757
 20
-162.514
  0
VERTEX
  8
LAYER_1
 10
93.6807
 20
-162.487
  0
VERTEX
  8
LAYER_1
 10
93.6878
 20
-162.2442
  0
VERTEX
  8
LAYER_1
 10
93.7193
 20
-161.1647
  0
VERTEX
  8
LAYER_1
 10
93.7272
 20
-160.8948
  0
VERTEX
  8
LAYER_1
 10
93.1554
 20
-160.8781
  0
VERTEX
  8
LAYER_1
 10
93.1443
 20
-160.8773
 42
-0.380235563
  0
VERTEX
  8
LAYER_1
 10
93.0331
 20
-160.7521
  0
VERTEX
  8
LAYER_1
 10
93.0331
 20
-160.7485
  0
VERTEX
  8
LAYER_1
 10
93.0678
 20
-159.561
 42
-0.4058643282
  0
VERTEX
  8
LAYER_1
 10
93.1938
 20
-159.4386
  0
VERTEX
  8
LAYER_1
 10
93.1974
 20
-159.4387
  0
VERTEX
  8
LAYER_1
 10
93.3588
 20
-159.4434
  0
SEQEND
  0
POLYLINE
  8
LAYER_1
 40
0.1058
 41
0.1058
 66
1
 10
0
 20
0
 30
0
  0
VERTEX
  8
LAYER_1
 10
93.0702
 20
-159.435
  0
VERTEX
  8
LAYER_1
 10
93.0665
 20
-159.4349
 42
0.4057216681
  0
VERTEX
  8
LAYER_1
 10
92.9406
 20
-159.5573
  0
VERTEX
  8
LAYER_1
 10
92.9059
 20
-160.7447
  0
VERTEX
  8
LAYER_1
 10
92.9059
 20
-160.7484
 42
0.2623394452
  0
VERTEX
  8
LAYER_1
 10
92.9697
 20
-160.858
  0
VERTEX
  8
LAYER_1
 10
92.9895
 20
-160.8732
 42
-0.1934917285
  0
VERTEX
  8
LAYER_1
 10
93.0152
 20
-160.9363
  0
VERTEX
  8
LAYER_1
 10
93.0152
 20
-160.9389
  0
VERTEX
  8
LAYER_1
 10
93.01
 20
-161.1159
  0
VERTEX
  8
LAYER_1
 10
93.0048
 20
-161.1438
  0
VERTEX
  8
LAYER_1
 10
92.9934
 20
-161.1655
 42
0.1558223659
  0
VERTEX
  8
LAYER_1
 10
92.8208
 20
-161.7059
 42
0.1408958961
  0
VERTEX
  8
LAYER_1
 10
92.9632
 20
-162.201
  0
VERTEX
  8
LAYER_1
 10
92.9732
 20
-162.2233
  0
VERTEX
  8
LAYER_1
 10
92.9769
 20
-162.2488
  0
VERTEX
  8
LAYER_1
 10
92.9769
 20
-162.2506
  0
VERTEX
  8
LAYER_1
 10
92.9706
 20
-162.4663
  0
VERTEX
  8
LAYER_1
 10
92.9657
 20
-162.4932
  0
VERTEX
  8
LAYER_1
 10
92.9547
 20
-162.5148
  0
SEQEND
  0
POLYLINE
  8
LAYER_1
 40
0.1058
 41
0.1058
 66
1
 10
0
 20
0
 30
0
  0
VERTEX
  8
LAYER_1
 10
93.8736
 20
-162.5416
  0
VERTEX
  8
LAYER_1
 10
93.864
 20
-162.5195
  0
VERTEX
  8
LAYER_1
 10
93.8606
 20
-162.4949
  0
VERTEX
  8
LAYER_1
 10
93.8606
 20
-162.4923
  0
VERTEX
  8
LAYER_1
 10
93.8677
 20
-162.2494
  0
VERTEX
  8
LAYER_1
 10
94.4505
 20
-162.2665
  0
SEQEND
  0
POLYLINE
  8
LAYER_1
 40
0.1058
 41
0.1058
 66
1
 10
0
 20
0
 30
0
  0
VERTEX
  8
LAYER_1
 10
94.4899
 20
-160.9165
  0
VERTEX
  8
LAYER_1
 10
94.4828
 20
-161.1589
  0
VERTEX
  8
LAYER_1
 10
94.4828
 20
-161.1607
  0
VERTEX
  8
LAYER_1
 10
94.4966
 20
-161.2094
 42
-0.1408879454
  0
VERTEX
  8
LAYER_1
 10
94.6389
 20
-161.7045
 42
-0.1558288075
  0
VERTEX
  8
LAYER_1
 10
94.4663
 20
-162.2449
  0
VERTEX
  8
LAYER_1
 10
94.4497
 20
-162.2944
  0
VERTEX
  8
LAYER_1
 10
94.4434
 20
-162.5093
  0
VERTEX
  8
LAYER_1
 10
94.4434
 20
-162.5119
  0
VERTEX
  8
LAYER_1
 10
94.4565
 20
-162.5587
  0
SEQEND
  0
POLYLINE
  8
LAYER_1
 40
0.1058
 41
0.1058
 66
1
 10
0
 20
0
 30
0
  0
VERTEX
  8
LAYER_1
 10
94.6481
 20
-159.481
 42
-0.4056377152
  0
VERTEX
  8
LAYER_1
 10
94.7704
 20
-159.607
  0
VERTEX
  8
LAYER_1
 10
94.7703
 20
-159.6107
  0
VERTEX
  8
LAYER_1
 10
94.7357
 20
-160.7982
 42
-0.2689961306
  0
VERTEX
  8
LAYER_1
 10
94.6654
 20
-160.9075
  0
VERTEX
  8
LAYER_1
 10
94.6448
 20
-160.9216
 42
0.2006751128
  0
VERTEX
  8
LAYER_1
 10
94.6152
 20
-160.9856
  0
VERTEX
  8
LAYER_1
 10
94.6101
 20
-161.1627
  0
VERTEX
  8
LAYER_1
 10
94.61
 20
-161.1644
  0
VERTEX
  8
LAYER_1
 10
94.6137
 20
-161.1908
  0
VERTEX
  8
LAYER_1
 10
94.6238
 20
-161.2131
 42
-0.1408909972
  0
VERTEX
  8
LAYER_1
 10
94.7661
 20
-161.7082
 42
-0.1558175797
  0
VERTEX
  8
LAYER_1
 10
94.5936
 20
-162.2486
  0
VERTEX
  8
LAYER_1
 10
94.5822
 20
-162.2703
  0
VERTEX
  8
LAYER_1
 10
94.5769
 20
-162.2982
  0
VERTEX
  8
LAYER_1
 10
94.5707
 20
-162.513
  0
VERTEX
  8
LAYER_1
 10
94.5706
 20
-162.5156
  0
VERTEX
  8
LAYER_1
 10
94.574
 20
-162.5402
  0
VERTEX
  8
LAYER_1
 10
94.5837
 20
-162.5624
  0
SEQEND
  0
POLYLINE
  8
LAYER_1
 40
0.1058
 41
0.1058
 66
1
 10
0
 20
0
 30
0
  0
VERTEX
  8
LAYER_1
 10
94.5208
 20
-159.4773
 42
-0.4058421246
  0
VERTEX
  8
LAYER_1
 10
94.6432
 20
-159.6033
  0
VERTEX
  8
LAYER_1
 10
94.6431
 20
-159.607
  0
VERTEX
  8
LAYER_1
 10
94.6084
 20
-160.7944
 42
-0.3887663067
  0
VERTEX
  8
LAYER_1
 10
94.4899
 20
-160.9165
  0
VERTEX
  8
LAYER_1
 10
94.4825
 20
-160.9168
  0
VERTEX
  8
LAYER_1
 10
94.4788
 20
-160.9167
  0
VERTEX
  8
LAYER_1
 10
93.9071
 20
-160.9
  0
VERTEX
  8
LAYER_1
 10
93.9491
 20
-159.4606
  0
SEQEND
  0
POLYLINE
  8
LAYER_1
 40
0.1058
 41
0.1058
 66
1
 10
0
 20
0
 30
0
 70
1
  0
VERTEX
  8
LAYER_1
 10
94.871
 20
-162.2892
 42
0.2211371694
  0
VERTEX
  8
LAYER_1
 10
95.1429
 20
-161.7464
  0
VERTEX
  8
LAYER_1
 10
95.1432
 20
-161.7254
 42
0.2134343326
  0
VERTEX
  8
LAYER_1
 10
94.9032
 20
-161.1888
 42
-0.2105546803
  0
VERTEX
  8
LAYER_1
 10
94.8731
 20
-161.1217
  0
VERTEX
  8
LAYER_1
 10
94.8732
 20
-161.1191
  0
VERTEX
  8
LAYER_1
 10
94.8766
 20
-161.0017
 42
-0.2985835492
  0
VERTEX
  8
LAYER_1
 10
94.9369
 20
-160.9194
 42
0.3108373623
  0
VERTEX
  8
LAYER_1
 10
95.0454
 20
-160.7712
  0
VERTEX
  8
LAYER_1
 10
95.078
 20
-159.6557
  0
VERTEX
  8
LAYER_1
 10
95.078
 20
-159.6509
 42
0.4055788086
  0
VERTEX
  8
LAYER_1
 10
94.9208
 20
-159.489
  0
VERTEX
  8
LAYER_1
 10
94.8784
 20
-159.4878
  0
VERTEX
  8
LAYER_1
 10
94.6481
 20
-159.481
  0
VERTEX
  8
LAYER_1
 10
93.0702
 20
-159.435
  0
VERTEX
  8
LAYER_1
 10
92.8399
 20
-159.4283
  0
VERTEX
  8
LAYER_1
 10
92.7975
 20
-159.427
  0
VERTEX
  8
LAYER_1
 10
92.7928
 20
-159.427
 42
0.4056899797
  0
VERTEX
  8
LAYER_1
 10
92.6308
 20
-159.5842
  0
VERTEX
  8
LAYER_1
 10
92.5983
 20
-160.6997
  0
VERTEX
  8
LAYER_1
 10
92.5982
 20
-160.7045
 42
0.3028713545
  0
VERTEX
  8
LAYER_1
 10
92.698
 20
-160.854
 42
-0.2911299835
  0
VERTEX
  8
LAYER_1
 10
92.7534
 20
-160.9371
  0
VERTEX
  8
LAYER_1
 10
92.7533
 20
-160.9398
  0
VERTEX
  8
LAYER_1
 10
92.7499
 20
-161.0571
 42
-0.2183967982
  0
VERTEX
  8
LAYER_1
 10
92.7159
 20
-161.1249
 42
0.2211166026
  0
VERTEX
  8
LAYER_1
 10
92.4441
 20
-161.6677
  0
VERTEX
  8
LAYER_1
 10
92.4438
 20
-161.6887
 42
0.2134437194
  0
VERTEX
  8
LAYER_1
 10
92.6838
 20
-162.2253
 42
-0.2102277824
  0
VERTEX
  8
LAYER_1
 10
92.7138
 20
-162.2924
  0
VERTEX
  8
LAYER_1
 10
92.7138
 20
-162.295
  0
VERTEX
  8
LAYER_1
 10
92.7108
 20
-162.3972
  0
VERTEX
  8
LAYER_1
 10
92.6923
 20
-162.4493
 42
0.1741353118
  0
VERTEX
  8
LAYER_1
 10
92.405
 20
-163.1071
  0
VERTEX
  8
LAYER_1
 10
93.7515
 20
-163.1464
  0
VERTEX
  8
LAYER_1
 10
95.098
 20
-163.1857
 42
0.1741266042
  0
VERTEX
  8
LAYER_1
 10
94.8495
 20
-162.5123
  0
VERTEX
  8
LAYER_1
 10
94.834
 20
-162.4618
  0
VERTEX
  8
LAYER_1
 10
94.8341
 20
-162.4592
  0
VERTEX
  8
LAYER_1
 10
94.837
 20
-162.357
 42
-0.2172560482
  0
SEQEND
  0
POLYLINE
  8
LAYER_1
 40
0.1058
 41
0.1058
 66
1
 10
0
 20
0
 30
0
  0
VERTEX
  8
LAYER_1
 10
94.9085
 20
-159.4886
 42
-0.4057153382
  0
VERTEX
  8
LAYER_1
 10
95.0658
 20
-159.6506
  0
VERTEX
  8
LAYER_1
 10
95.0657
 20
-159.6553
  0
VERTEX
  8
LAYER_1
 10
95.0331
 20
-160.7708
 42
-0.3116601448
  0
VERTEX
  8
LAYER_1
 10
94.9242
 20
-160.9192
 42
0.2993347492
  0
VERTEX
  8
LAYER_1
 10
94.8637
 20
-161.0016
  0
VERTEX
  8
LAYER_1
 10
94.8591
 20
-161.1587
  0
VERTEX
  8
LAYER_1
 10
94.8591
 20
-161.1613
 42
0.1921467789
  0
VERTEX
  8
LAYER_1
 10
94.8843
 20
-161.2238
 42
-0.1942303214
  0
VERTEX
  8
LAYER_1
 10
95.0862
 20
-161.724
 42
-0.2091522225
  0
VERTEX
  8
LAYER_1
 10
94.8548
 20
-162.2531
 42
0.1991925513
  0
VERTEX
  8
LAYER_1
 10
94.8259
 20
-162.3166
  0
VERTEX
  8
LAYER_1
 10
94.82
 20
-162.5203
  0
VERTEX
  8
LAYER_1
 10
94.8199
 20
-162.522
  0
VERTEX
  8
LAYER_1
 10
94.8256
 20
-162.5543
  0
VERTEX
  8
LAYER_1
 10
94.8419
 20
-162.566
  0
SEQEND
  0
ENDBLK
  0
BLOCK
  8
LAYER_1
  2
AIGNBL01020033
 70
64
 10
0
 20
0
 30
0
  3
AIGNBL01020033
  0
POLYLINE
  8
LAYER_1
 40
0.1058
 41
0.1058
 66
1
 10
0
 20
0
 30
0
  0
VERTEX
  8
LAYER_1
 10
163.4401
 20
-208.6908
  0
VERTEX
  8
LAYER_1
 10
163.5301
 20
-208.6008
  0
VERTEX
  8
LAYER_1
 10
166.0501
 20
-208.6008
  0
VERTEX
  8
LAYER_1
 10
166.1401
 20
-208.6908
  0
SEQEND
  0
POLYLINE
  8
LAYER_1
 40
0.1058
 41
0.1058
 66
1
 10
0
 20
0
 30
0
  0
VERTEX
  8
LAYER_1
 10
163.4401
 20
-210.4908
  0
VERTEX
  8
LAYER_1
 10
163.4401
 20
-208.6908
  0
VERTEX
  8
LAYER_1
 10
166.1401
 20
-208.6908
  0
VERTEX
  8
LAYER_1
 10
166.1401
 20
-210.4908
  0
SEQEND
  0
POLYLINE
  8
LAYER_1
 40
0.1058
 41
0.1058
 66
1
 10
0
 20
0
 30
0
  0
VERTEX
  8
LAYER_1
 10
164.0639
 20
-211.0308
  0
VERTEX
  8
LAYER_1
 10
163.1701
 20
-211.0308
  0
VERTEX
  8
LAYER_1
 10
163.1701
 20
-211.3908
  0
SEQEND
  0
POLYLINE
  8
LAYER_1
 40
0.1058
 41
0.1058
 66
1
 10
0
 20
0
 30
0
  0
VERTEX
  8
LAYER_1
 10
165.5039
 20
-211.0308
  0
VERTEX
  8
LAYER_1
 10
166.4101
 20
-211.0308
  0
VERTEX
  8
LAYER_1
 10
166.4101
 20
-211.3908
  0
SEQEND
  0
POLYLINE
  8
LAYER_1
 40
0.1058
 41
0.1058
 66
1
 10
0
 20
0
 30
0
  0
VERTEX
  8
LAYER_1
 10
82.4388
 20
-208.6908
  0
VERTEX
  8
LAYER_1
 10
82.4388
 20
-210.4908
  0
SEQEND
  0
POLYLINE
  8
LAYER_1
 40
0.1058
 41
0.1058
 66
1
 10
0
 20
0
 30
0
  0
VERTEX
  8
LAYER_1
 10
82.1688
 20
-211.3908
  0
VERTEX
  8
LAYER_1
 10
82.1688
 20
-211.0308
  0
VERTEX
  8
LAYER_1
 10
84.4974
 20
-211.0308
  0
SEQEND
  0
POLYLINE
  8
LAYER_1
 40
0.1058
 41
0.1058
 66
1
 10
0
 20
0
 30
0
  0
VERTEX
  8
LAYER_1
 10
85.1388
 20
-210.1848
  0
VERTEX
  8
LAYER_1
 10
85.1388
 20
-208.6908
  0
VERTEX
  8
LAYER_1
 10
85.0488
 20
-208.6008
  0
VERTEX
  8
LAYER_1
 10
82.5288
 20
-208.6008
  0
VERTEX
  8
LAYER_1
 10
82.4388
 20
-208.6908
  0
VERTEX
  8
LAYER_1
 10
85.1388
 20
-208.6908
  0
SEQEND
  0
ENDBLK
  0
BLOCK
  8
LAYER_1
  2
AIGNBL01020034
 70
64
 10
0
 20
0
 30
0
  3
AIGNBL01020034
  0
POLYLINE
  8
LAYER_1
 40
0.1058
 41
0.1058
 66
1
 10
0
 20
0
 30
0
  0
VERTEX
  8
LAYER_1
 10
165.4406
 20
-205.5228
  0
VERTEX
  8
LAYER_1
 10
165.5331
 20
-205.5228
  0
SEQEND
  0
POLYLINE
  8
LAYER_1
 40
0.1058
 41
0.1058
 66
1
 10
0
 20
0
 30
0
  0
VERTEX
  8
LAYER_1
 10
164.8367
 20
-205.5408
  0
VERTEX
  8
LAYER_1
 10
165.4156
 20
-205.5408
  0
SEQEND
  0
POLYLINE
  8
LAYER_1
 40
0.1058
 41
0.1058
 66
1
 10
0
 20
0
 30
0
  0
VERTEX
  8
LAYER_1
 10
164.8326
 20
-208.6008
  0
VERTEX
  8
LAYER_1
 10
164.8326
 20
-207.1608
  0
SEQEND
  0
POLYLINE
  8
LAYER_1
 40
0.1058
 41
0.1058
 66
1
 10
0
 20
0
 30
0
  0
VERTEX
  8
LAYER_1
 10
164.8326
 20
-205.8108
  0
VERTEX
  8
LAYER_1
 10
165.4156
 20
-205.8108
  0
SEQEND
  0
POLYLINE
  8
LAYER_1
 40
0.1058
 41
0.1058
 66
1
 10
0
 20
0
 30
0
  0
VERTEX
  8
LAYER_1
 10
164.8326
 20
-206.8908
  0
VERTEX
  8
LAYER_1
 10
165.4156
 20
-206.8908
  0
SEQEND
  0
POLYLINE
  8
LAYER_1
 40
0.1058
 41
0.1058
 66
1
 10
0
 20
0
 30
0
  0
VERTEX
  8
LAYER_1
 10
165.5474
 20
-206.8908
  0
VERTEX
  8
LAYER_1
 10
165.7917
 20
-206.8908
  0
SEQEND
  0
POLYLINE
  8
LAYER_1
 40
0.1058
 41
0.1058
 66
1
 10
0
 20
0
 30
0
  0
VERTEX
  8
LAYER_1
 10
165.8047
 20
-207.1608
  0
VERTEX
  8
LAYER_1
 10
165.7917
 20
-207.1608
  0
VERTEX
  8
LAYER_1
 10
165.5706
 20
-207.1608
  0
SEQEND
  0
POLYLINE
  8
LAYER_1
 40
0.1058
 41
0.1058
 66
1
 10
0
 20
0
 30
0
  0
VERTEX
  8
LAYER_1
 10
165.5471
 20
-205.5408
  0
VERTEX
  8
LAYER_1
 10
165.6578
 20
-205.5408
  0
VERTEX
  8
LAYER_1
 10
165.7924
 20
-205.5408
  0
SEQEND
  0
POLYLINE
  8
LAYER_1
 40
0.1058
 41
0.1058
 66
1
 10
0
 20
0
 30
0
  0
VERTEX
  8
LAYER_1
 10
165.5474
 20
-205.8108
  0
VERTEX
  8
LAYER_1
 10
165.7924
 20
-205.8108
  0
SEQEND
  0
POLYLINE
  8
LAYER_1
 40
0.1058
 41
0.1058
 66
1
 10
0
 20
0
 30
0
  0
VERTEX
  8
LAYER_1
 10
165.4406
 20
-205.8288
  0
VERTEX
  8
LAYER_1
 10
165.5331
 20
-205.8288
  0
SEQEND
  0
POLYLINE
  8
LAYER_1
 40
0.1058
 41
0.1058
 66
1
 10
0
 20
0
 30
0
  0
VERTEX
  8
LAYER_1
 10
165.4406
 20
-206.8728
  0
VERTEX
  8
LAYER_1
 10
165.5331
 20
-206.8728
  0
SEQEND
  0
POLYLINE
  8
LAYER_1
 40
0.1058
 41
0.1058
 66
1
 10
0
 20
0
 30
0
  0
VERTEX
  8
LAYER_1
 10
164.6706
 20
-206.8728
  0
VERTEX
  8
LAYER_1
 10
164.7426
 20
-206.8728
  0
VERTEX
  8
LAYER_1
 10
164.8146
 20
-206.8728
  0
SEQEND
  0
POLYLINE
  8
LAYER_1
 40
0.1058
 41
0.1058
 66
1
 10
0
 20
0
 30
0
  0
VERTEX
  8
LAYER_1
 10
164.6706
 20
-207.1428
  0
VERTEX
  8
LAYER_1
 10
164.7426
 20
-207.1428
  0
VERTEX
  8
LAYER_1
 10
164.8146
 20
-207.1428
  0
SEQEND
  0
POLYLINE
  8
LAYER_1
 40
0.1058
 41
0.1058
 66
1
 10
0
 20
0
 30
0
  0
VERTEX
  8
LAYER_1
 10
163.952
 20
-206.8728
  0
VERTEX
  8
LAYER_1
 10
164.0446
 20
-206.8728
  0
SEQEND
  0
POLYLINE
  8
LAYER_1
 40
0.1058
 41
0.1058
 66
1
 10
0
 20
0
 30
0
  0
VERTEX
  8
LAYER_1
 10
164.6526
 20
-206.8908
  0
VERTEX
  8
LAYER_1
 10
164.6526
 20
-207.1608
  0
SEQEND
  0
POLYLINE
  8
LAYER_1
 40
0.1058
 41
0.1058
 66
1
 10
0
 20
0
 30
0
  0
VERTEX
  8
LAYER_1
 10
164.6706
 20
-205.8288
  0
VERTEX
  8
LAYER_1
 10
164.7426
 20
-205.8288
  0
VERTEX
  8
LAYER_1
 10
164.8146
 20
-205.8288
  0
SEQEND
  0
POLYLINE
  8
LAYER_1
 40
0.1058
 41
0.1058
 66
1
 10
0
 20
0
 30
0
  0
VERTEX
  8
LAYER_1
 10
164.6706
 20
-205.5228
  0
VERTEX
  8
LAYER_1
 10
164.7426
 20
-205.5228
  0
VERTEX
  8
LAYER_1
 10
164.8146
 20
-205.5228
  0
SEQEND
  0
POLYLINE
  8
LAYER_1
 40
0.1058
 41
0.1058
 66
1
 10
0
 20
0
 30
0
  0
VERTEX
  8
LAYER_1
 10
163.952
 20
-205.8288
  0
VERTEX
  8
LAYER_1
 10
164.0446
 20
-205.8288
  0
SEQEND
  0
POLYLINE
  8
LAYER_1
 40
0.1058
 41
0.1058
 66
1
 10
0
 20
0
 30
0
  0
VERTEX
  8
LAYER_1
 10
163.6928
 20
-205.8108
  0
VERTEX
  8
LAYER_1
 10
163.9377
 20
-205.8108
  0
SEQEND
  0
POLYLINE
  8
LAYER_1
 40
0.1058
 41
0.1058
 66
1
 10
0
 20
0
 30
0
  0
VERTEX
  8
LAYER_1
 10
163.6934
 20
-206.8908
  0
VERTEX
  8
LAYER_1
 10
163.9377
 20
-206.8908
  0
SEQEND
  0
POLYLINE
  8
LAYER_1
 40
0.1058
 41
0.1058
 66
1
 10
0
 20
0
 30
0
  0
VERTEX
  8
LAYER_1
 10
163.9146
 20
-207.1608
  0
VERTEX
  8
LAYER_1
 10
163.6928
 20
-207.1608
  0
VERTEX
  8
LAYER_1
 10
163.6805
 20
-207.1608
  0
SEQEND
  0
POLYLINE
  8
LAYER_1
 40
0.1058
 41
0.1058
 66
1
 10
0
 20
0
 30
0
  0
VERTEX
  8
LAYER_1
 10
164.0695
 20
-206.8908
  0
VERTEX
  8
LAYER_1
 10
164.6526
 20
-206.8908
  0
VERTEX
  8
LAYER_1
 10
164.6526
 20
-205.8108
  0
SEQEND
  0
POLYLINE
  8
LAYER_1
 40
0.1058
 41
0.1058
 66
1
 10
0
 20
0
 30
0
  0
VERTEX
  8
LAYER_1
 10
164.0695
 20
-205.5408
  0
VERTEX
  8
LAYER_1
 10
164.6484
 20
-205.5408
  0
SEQEND
  0
POLYLINE
  8
LAYER_1
 40
0.1058
 41
0.1058
 66
1
 10
0
 20
0
 30
0
  0
VERTEX
  8
LAYER_1
 10
163.952
 20
-205.5228
  0
VERTEX
  8
LAYER_1
 10
164.0446
 20
-205.5228
  0
SEQEND
  0
POLYLINE
  8
LAYER_1
 40
0.1058
 41
0.1058
 66
1
 10
0
 20
0
 30
0
  0
VERTEX
  8
LAYER_1
 10
163.6928
 20
-205.5408
  0
VERTEX
  8
LAYER_1
 10
163.8273
 20
-205.5408
  0
VERTEX
  8
LAYER_1
 10
163.938
 20
-205.5408
  0
SEQEND
  0
POLYLINE
  8
LAYER_1
 40
0.1058
 41
0.1058
 66
1
 10
0
 20
0
 30
0
  0
VERTEX
  8
LAYER_1
 10
82.998
 20
-205.5228
  0
VERTEX
  8
LAYER_1
 10
83.0906
 20
-205.5228
  0
SEQEND
  0
POLYLINE
  8
LAYER_1
 40
0.1058
 41
0.1058
 66
1
 10
0
 20
0
 30
0
  0
VERTEX
  8
LAYER_1
 10
83.1155
 20
-205.5408
  0
VERTEX
  8
LAYER_1
 10
83.6944
 20
-205.5408
  0
SEQEND
  0
POLYLINE
  8
LAYER_1
 40
0.1058
 41
0.1058
 66
1
 10
0
 20
0
 30
0
  0
VERTEX
  8
LAYER_1
 10
83.6986
 20
-207.1608
  0
VERTEX
  8
LAYER_1
 10
83.6986
 20
-208.6008
  0
SEQEND
  0
POLYLINE
  8
LAYER_1
 40
0.1058
 41
0.1058
 66
1
 10
0
 20
0
 30
0
  0
VERTEX
  8
LAYER_1
 10
83.1155
 20
-205.8108
  0
VERTEX
  8
LAYER_1
 10
83.6986
 20
-205.8108
  0
SEQEND
  0
POLYLINE
  8
LAYER_1
 40
0.1058
 41
0.1058
 66
1
 10
0
 20
0
 30
0
  0
VERTEX
  8
LAYER_1
 10
83.1155
 20
-206.8908
  0
VERTEX
  8
LAYER_1
 10
83.6986
 20
-206.8908
  0
SEQEND
  0
POLYLINE
  8
LAYER_1
 40
0.1058
 41
0.1058
 66
1
 10
0
 20
0
 30
0
  0
VERTEX
  8
LAYER_1
 10
82.7394
 20
-206.8908
  0
VERTEX
  8
LAYER_1
 10
82.9838
 20
-206.8908
  0
SEQEND
  0
POLYLINE
  8
LAYER_1
 40
0.1058
 41
0.1058
 66
1
 10
0
 20
0
 30
0
  0
VERTEX
  8
LAYER_1
 10
82.7265
 20
-207.1608
  0
VERTEX
  8
LAYER_1
 10
82.7394
 20
-207.1608
  0
VERTEX
  8
LAYER_1
 10
82.9606
 20
-207.1608
  0
SEQEND
  0
POLYLINE
  8
LAYER_1
 40
0.1058
 41
0.1058
 66
1
 10
0
 20
0
 30
0
  0
VERTEX
  8
LAYER_1
 10
82.9841
 20
-205.5408
  0
VERTEX
  8
LAYER_1
 10
82.8733
 20
-205.5408
  0
VERTEX
  8
LAYER_1
 10
82.7388
 20
-205.5408
  0
SEQEND
  0
POLYLINE
  8
LAYER_1
 40
0.1058
 41
0.1058
 66
1
 10
0
 20
0
 30
0
  0
VERTEX
  8
LAYER_1
 10
82.7388
 20
-205.8108
  0
VERTEX
  8
LAYER_1
 10
82.9838
 20
-205.8108
  0
SEQEND
  0
POLYLINE
  8
LAYER_1
 40
0.1058
 41
0.1058
 66
1
 10
0
 20
0
 30
0
  0
VERTEX
  8
LAYER_1
 10
82.998
 20
-205.8288
  0
VERTEX
  8
LAYER_1
 10
83.0906
 20
-205.8288
  0
SEQEND
  0
POLYLINE
  8
LAYER_1
 40
0.1058
 41
0.1058
 66
1
 10
0
 20
0
 30
0
  0
VERTEX
  8
LAYER_1
 10
82.998
 20
-206.8728
  0
VERTEX
  8
LAYER_1
 10
83.0906
 20
-206.8728
  0
SEQEND
  0
POLYLINE
  8
LAYER_1
 40
0.1058
 41
0.1058
 66
1
 10
0
 20
0
 30
0
  0
VERTEX
  8
LAYER_1
 10
83.8606
 20
-206.8728
  0
VERTEX
  8
LAYER_1
 10
83.7886
 20
-206.8728
  0
VERTEX
  8
LAYER_1
 10
83.7166
 20
-206.8728
  0
SEQEND
  0
POLYLINE
  8
LAYER_1
 40
0.1058
 41
0.1058
 66
1
 10
0
 20
0
 30
0
  0
VERTEX
  8
LAYER_1
 10
83.8606
 20
-207.1428
  0
VERTEX
  8
LAYER_1
 10
83.7886
 20
-207.1428
  0
VERTEX
  8
LAYER_1
 10
83.7166
 20
-207.1428
  0
SEQEND
  0
POLYLINE
  8
LAYER_1
 40
0.1058
 41
0.1058
 66
1
 10
0
 20
0
 30
0
  0
VERTEX
  8
LAYER_1
 10
84.4866
 20
-206.8728
  0
VERTEX
  8
LAYER_1
 10
84.5791
 20
-206.8728
  0
SEQEND
  0
POLYLINE
  8
LAYER_1
 40
0.1058
 41
0.1058
 66
1
 10
0
 20
0
 30
0
  0
VERTEX
  8
LAYER_1
 10
83.8786
 20
-207.1608
  0
VERTEX
  8
LAYER_1
 10
83.8786
 20
-206.8908
  0
SEQEND
  0
POLYLINE
  8
LAYER_1
 40
0.1058
 41
0.1058
 66
1
 10
0
 20
0
 30
0
  0
VERTEX
  8
LAYER_1
 10
83.8606
 20
-205.8288
  0
VERTEX
  8
LAYER_1
 10
83.7886
 20
-205.8288
  0
VERTEX
  8
LAYER_1
 10
83.7166
 20
-205.8288
  0
SEQEND
  0
POLYLINE
  8
LAYER_1
 40
0.1058
 41
0.1058
 66
1
 10
0
 20
0
 30
0
  0
VERTEX
  8
LAYER_1
 10
83.8606
 20
-205.5228
  0
VERTEX
  8
LAYER_1
 10
83.7886
 20
-205.5228
  0
VERTEX
  8
LAYER_1
 10
83.7166
 20
-205.5228
  0
SEQEND
  0
POLYLINE
  8
LAYER_1
 40
0.1058
 41
0.1058
 66
1
 10
0
 20
0
 30
0
  0
VERTEX
  8
LAYER_1
 10
84.4866
 20
-205.8288
  0
VERTEX
  8
LAYER_1
 10
84.5791
 20
-205.8288
  0
SEQEND
  0
POLYLINE
  8
LAYER_1
 40
0.1058
 41
0.1058
 66
1
 10
0
 20
0
 30
0
  0
VERTEX
  8
LAYER_1
 10
84.5934
 20
-205.8108
  0
VERTEX
  8
LAYER_1
 10
84.8384
 20
-205.8108
  0
SEQEND
  0
POLYLINE
  8
LAYER_1
 40
0.1058
 41
0.1058
 66
1
 10
0
 20
0
 30
0
  0
VERTEX
  8
LAYER_1
 10
84.5934
 20
-206.8908
  0
VERTEX
  8
LAYER_1
 10
84.8377
 20
-206.8908
  0
SEQEND
  0
POLYLINE
  8
LAYER_1
 40
0.1058
 41
0.1058
 66
1
 10
0
 20
0
 30
0
  0
VERTEX
  8
LAYER_1
 10
84.6166
 20
-207.1608
  0
VERTEX
  8
LAYER_1
 10
84.8384
 20
-207.1608
  0
VERTEX
  8
LAYER_1
 10
84.8507
 20
-207.1608
  0
SEQEND
  0
POLYLINE
  8
LAYER_1
 40
0.1058
 41
0.1058
 66
1
 10
0
 20
0
 30
0
  0
VERTEX
  8
LAYER_1
 10
84.4617
 20
-206.8908
  0
VERTEX
  8
LAYER_1
 10
83.8786
 20
-206.8908
  0
VERTEX
  8
LAYER_1
 10
83.8786
 20
-205.8108
  0
SEQEND
  0
POLYLINE
  8
LAYER_1
 40
0.1058
 41
0.1058
 66
1
 10
0
 20
0
 30
0
  0
VERTEX
  8
LAYER_1
 10
83.8827
 20
-205.5408
  0
VERTEX
  8
LAYER_1
 10
84.4617
 20
-205.5408
  0
SEQEND
  0
POLYLINE
  8
LAYER_1
 40
0.1058
 41
0.1058
 66
1
 10
0
 20
0
 30
0
  0
VERTEX
  8
LAYER_1
 10
84.4866
 20
-205.5228
  0
VERTEX
  8
LAYER_1
 10
84.5791
 20
-205.5228
  0
SEQEND
  0
POLYLINE
  8
LAYER_1
 40
0.1058
 41
0.1058
 66
1
 10
0
 20
0
 30
0
  0
VERTEX
  8
LAYER_1
 10
84.8384
 20
-205.5408
  0
VERTEX
  8
LAYER_1
 10
84.7038
 20
-205.5408
  0
VERTEX
  8
LAYER_1
 10
84.5931
 20
-205.5408
  0
SEQEND
  0
POLYLINE
  8
LAYER_1
 40
0.1058
 41
0.1058
 66
1
 10
0
 20
0
 30
0
  0
VERTEX
  8
LAYER_1
 10
165.4213
 20
-207.1491
  0
VERTEX
  8
LAYER_1
 10
165.4327
 20
-207.1428
  0
VERTEX
  8
LAYER_1
 10
165.5331
 20
-207.1428
  0
VERTEX
  8
LAYER_1
 10
165.5467
 20
-207.1473
  0
SEQEND
  0
POLYLINE
  8
LAYER_1
 40
0.1058
 41
0.1058
 66
1
 10
0
 20
0
 30
0
  0
VERTEX
  8
LAYER_1
 10
163.9384
 20
-207.1473
  0
VERTEX
  8
LAYER_1
 10
163.952
 20
-207.1428
  0
VERTEX
  8
LAYER_1
 10
164.0525
 20
-207.1428
  0
VERTEX
  8
LAYER_1
 10
164.0638
 20
-207.1491
  0
SEQEND
  0
POLYLINE
  8
LAYER_1
 40
0.1058
 41
0.1058
 66
1
 10
0
 20
0
 30
0
  0
VERTEX
  8
LAYER_1
 10
83.1098
 20
-207.1491
  0
VERTEX
  8
LAYER_1
 10
83.0985
 20
-207.1428
  0
VERTEX
  8
LAYER_1
 10
82.998
 20
-207.1428
  0
VERTEX
  8
LAYER_1
 10
82.9844
 20
-207.1473
  0
SEQEND
  0
POLYLINE
  8
LAYER_1
 40
0.1058
 41
0.1058
 66
1
 10
0
 20
0
 30
0
  0
VERTEX
  8
LAYER_1
 10
84.5927
 20
-207.1473
  0
VERTEX
  8
LAYER_1
 10
84.5791
 20
-207.1428
  0
VERTEX
  8
LAYER_1
 10
84.4787
 20
-207.1428
  0
VERTEX
  8
LAYER_1
 10
84.4673
 20
-207.1491
  0
SEQEND
  0
POLYLINE
  8
LAYER_1
 40
0.1058
 41
0.1058
 66
1
 10
0
 20
0
 30
0
  0
VERTEX
  8
LAYER_1
 10
165.4301
 20
-205.5189
  0
VERTEX
  8
LAYER_1
 10
165.4156
 20
-205.5678
  0
VERTEX
  8
LAYER_1
 10
165.4156
 20
-205.7828
  0
VERTEX
  8
LAYER_1
 10
165.4308
 20
-205.8328
 42
-0.1483616229
  0
VERTEX
  8
LAYER_1
 10
165.588
 20
-206.3508
 42
-0.1483605053
  0
VERTEX
  8
LAYER_1
 10
165.4308
 20
-206.8688
  0
VERTEX
  8
LAYER_1
 10
165.4156
 20
-206.9188
  0
VERTEX
  8
LAYER_1
 10
165.4156
 20
-207.1613
  0
SEQEND
  0
POLYLINE
  8
LAYER_1
 40
0.1058
 41
0.1058
 66
1
 10
0
 20
0
 30
0
  0
VERTEX
  8
LAYER_1
 10
165.7924
 20
-208.6008
 42
0.414127717
  0
VERTEX
  8
LAYER_1
 10
165.9544
 20
-208.4388
  0
VERTEX
  8
LAYER_1
 10
165.9544
 20
-207.3228
 42
0.311659026
  0
VERTEX
  8
LAYER_1
 10
165.8498
 20
-207.1713
 42
-0.2993316799
  0
VERTEX
  8
LAYER_1
 10
165.7917
 20
-207.0872
  0
VERTEX
  8
LAYER_1
 10
165.7917
 20
-206.93
 42
-0.1980938402
  0
VERTEX
  8
LAYER_1
 10
165.8188
 20
-206.8656
 42
0.2018177633
  0
VERTEX
  8
LAYER_1
 10
166.0356
 20
-206.3505
 42
0.2015338471
  0
VERTEX
  8
LAYER_1
 10
165.8194
 20
-205.8359
 42
-0.1990439164
  0
VERTEX
  8
LAYER_1
 10
165.7924
 20
-205.7717
  0
VERTEX
  8
LAYER_1
 10
165.7924
 20
-205.5678
  0
VERTEX
  8
LAYER_1
 10
165.799
 20
-205.534
  0
VERTEX
  8
LAYER_1
 10
165.8156
 20
-205.5228
  0
SEQEND
  0
POLYLINE
  8
LAYER_1
 40
0.1058
 41
0.1058
 66
1
 10
0
 20
0
 30
0
  0
VERTEX
  8
LAYER_1
 10
165.4046
 20
-208.6008
 42
0.4140715747
  0
VERTEX
  8
LAYER_1
 10
165.5306
 20
-208.4748
  0
VERTEX
  8
LAYER_1
 10
165.5306
 20
-207.2868
 42
0.3887465182
  0
VERTEX
  8
LAYER_1
 10
165.4156
 20
-207.1613
  0
VERTEX
  8
LAYER_1
 10
165.4046
 20
-207.1608
  0
VERTEX
  8
LAYER_1
 10
164.8326
 20
-207.1608
  0
VERTEX
  8
LAYER_1
 10
164.8326
 20
-206.8908
  0
VERTEX
  8
LAYER_1
 10
164.8326
 20
-205.8108
  0
VERTEX
  8
LAYER_1
 10
164.8326
 20
-205.5678
  0
VERTEX
  8
LAYER_1
 10
164.8367
 20
-205.5408
  0
VERTEX
  8
LAYER_1
 10
164.847
 20
-205.5189
  0
SEQEND
  0
POLYLINE
  8
LAYER_1
 40
0.1058
 41
0.1058
 66
1
 10
0
 20
0
 30
0
  0
VERTEX
  8
LAYER_1
 10
165.5318
 20
-208.6008
 42
0.4142556851
  0
VERTEX
  8
LAYER_1
 10
165.6578
 20
-208.4748
  0
VERTEX
  8
LAYER_1
 10
165.6578
 20
-207.2868
 42
0.2687095158
  0
VERTEX
  8
LAYER_1
 10
165.5908
 20
-207.1754
  0
VERTEX
  8
LAYER_1
 10
165.5706
 20
-207.1608
 42
-0.2017080086
  0
VERTEX
  8
LAYER_1
 10
165.5429
 20
-207.0959
  0
VERTEX
  8
LAYER_1
 10
165.5429
 20
-206.9188
  0
VERTEX
  8
LAYER_1
 10
165.5474
 20
-206.8908
  0
VERTEX
  8
LAYER_1
 10
165.5581
 20
-206.8688
 42
0.1483573404
  0
VERTEX
  8
LAYER_1
 10
165.7152
 20
-206.3508
 42
0.1483584587
  0
VERTEX
  8
LAYER_1
 10
165.5581
 20
-205.8328
  0
VERTEX
  8
LAYER_1
 10
165.5474
 20
-205.8108
  0
VERTEX
  8
LAYER_1
 10
165.5429
 20
-205.7828
  0
VERTEX
  8
LAYER_1
 10
165.5429
 20
-205.5678
  0
VERTEX
  8
LAYER_1
 10
165.5471
 20
-205.5408
  0
VERTEX
  8
LAYER_1
 10
165.5574
 20
-205.5189
  0
SEQEND
  0
POLYLINE
  8
LAYER_1
 40
0.1058
 41
0.1058
 66
1
 10
0
 20
0
 30
0
  0
VERTEX
  8
LAYER_1
 10
164.6381
 20
-205.5189
  0
VERTEX
  8
LAYER_1
 10
164.6484
 20
-205.5408
  0
VERTEX
  8
LAYER_1
 10
164.6526
 20
-205.5678
  0
VERTEX
  8
LAYER_1
 10
164.6526
 20
-205.8108
  0
VERTEX
  8
LAYER_1
 10
164.0695
 20
-205.8108
  0
SEQEND
  0
POLYLINE
  8
LAYER_1
 40
0.1058
 41
0.1058
 66
1
 10
0
 20
0
 30
0
  0
VERTEX
  8
LAYER_1
 10
164.0695
 20
-207.1613
  0
VERTEX
  8
LAYER_1
 10
164.0695
 20
-206.9188
  0
VERTEX
  8
LAYER_1
 10
164.0543
 20
-206.8688
 42
-0.1483547533
  0
VERTEX
  8
LAYER_1
 10
163.8972
 20
-206.3508
 42
-0.1483558712
  0
VERTEX
  8
LAYER_1
 10
164.0543
 20
-205.8328
  0
VERTEX
  8
LAYER_1
 10
164.0695
 20
-205.7828
  0
VERTEX
  8
LAYER_1
 10
164.0695
 20
-205.5678
  0
VERTEX
  8
LAYER_1
 10
164.055
 20
-205.5189
  0
SEQEND
  0
POLYLINE
  8
LAYER_1
 40
0.1058
 41
0.1058
 66
1
 10
0
 20
0
 30
0
  0
VERTEX
  8
LAYER_1
 10
163.6928
 20
-208.6008
 42
-0.4142402057
  0
VERTEX
  8
LAYER_1
 10
163.5308
 20
-208.4388
  0
VERTEX
  8
LAYER_1
 10
163.5308
 20
-207.3228
 42
-0.3115992464
  0
VERTEX
  8
LAYER_1
 10
163.6353
 20
-207.1713
 42
0.2998436187
  0
VERTEX
  8
LAYER_1
 10
163.6934
 20
-207.0872
  0
VERTEX
  8
LAYER_1
 10
163.6934
 20
-206.93
 42
0.1980938402
  0
VERTEX
  8
LAYER_1
 10
163.6663
 20
-206.8656
 42
-0.2018080123
  0
VERTEX
  8
LAYER_1
 10
163.4496
 20
-206.3505
 42
-0.2015498947
  0
VERTEX
  8
LAYER_1
 10
163.6658
 20
-205.8359
 42
0.1987384032
  0
VERTEX
  8
LAYER_1
 10
163.6928
 20
-205.7717
  0
VERTEX
  8
LAYER_1
 10
163.6928
 20
-205.5678
  0
VERTEX
  8
LAYER_1
 10
163.6862
 20
-205.534
  0
VERTEX
  8
LAYER_1
 10
163.6695
 20
-205.5228
  0
SEQEND
  0
POLYLINE
  8
LAYER_1
 40
0.1058
 41
0.1058
 66
1
 10
0
 20
0
 30
0
  0
VERTEX
  8
LAYER_1
 10
163.9277
 20
-205.5189
  0
VERTEX
  8
LAYER_1
 10
163.938
 20
-205.5408
  0
VERTEX
  8
LAYER_1
 10
163.9422
 20
-205.5678
  0
VERTEX
  8
LAYER_1
 10
163.9422
 20
-205.7828
  0
VERTEX
  8
LAYER_1
 10
163.9377
 20
-205.8108
  0
VERTEX
  8
LAYER_1
 10
163.927
 20
-205.8328
 42
0.148352707
  0
VERTEX
  8
LAYER_1
 10
163.7699
 20
-206.3508
 42
0.1483515891
  0
VERTEX
  8
LAYER_1
 10
163.927
 20
-206.8688
  0
VERTEX
  8
LAYER_1
 10
163.9377
 20
-206.8908
  0
VERTEX
  8
LAYER_1
 10
163.9422
 20
-206.9188
  0
VERTEX
  8
LAYER_1
 10
163.9422
 20
-207.0959
 42
-0.200461969
  0
VERTEX
  8
LAYER_1
 10
163.9146
 20
-207.1608
  0
VERTEX
  8
LAYER_1
 10
163.8943
 20
-207.1754
 42
0.2687082217
  0
VERTEX
  8
LAYER_1
 10
163.8273
 20
-207.2868
  0
VERTEX
  8
LAYER_1
 10
163.8273
 20
-208.4748
 42
0.4141679002
  0
VERTEX
  8
LAYER_1
 10
163.9533
 20
-208.6008
  0
VERTEX
  8
LAYER_1
 10
165.5318
 20
-208.6008
  0
VERTEX
  8
LAYER_1
 10
165.7623
 20
-208.6008
  0
VERTEX
  8
LAYER_1
 10
165.8047
 20
-208.6008
 42
0.4141079388
  0
VERTEX
  8
LAYER_1
 10
165.9667
 20
-208.4388
  0
VERTEX
  8
LAYER_1
 10
165.9667
 20
-207.3228
 42
0.3108884252
  0
VERTEX
  8
LAYER_1
 10
165.8625
 20
-207.1715
 42
-0.29883083
  0
VERTEX
  8
LAYER_1
 10
165.8047
 20
-207.0874
  0
VERTEX
  8
LAYER_1
 10
165.8047
 20
-206.97
 42
-0.216707249
  0
VERTEX
  8
LAYER_1
 10
165.8366
 20
-206.9012
 42
0.2211092094
  0
VERTEX
  8
LAYER_1
 10
166.0926
 20
-206.3508
 42
0.2211123415
  0
VERTEX
  8
LAYER_1
 10
165.8366
 20
-205.8004
 42
-0.21663253
  0
VERTEX
  8
LAYER_1
 10
165.8047
 20
-205.7315
  0
VERTEX
  8
LAYER_1
 10
165.8047
 20
-205.6293
  0
VERTEX
  8
LAYER_1
 10
165.8216
 20
-205.5767
 42
0.1741410278
  0
VERTEX
  8
LAYER_1
 10
166.0897
 20
-204.9108
  0
VERTEX
  8
LAYER_1
 10
164.7426
 20
-204.9108
  0
VERTEX
  8
LAYER_1
 10
163.3955
 20
-204.9108
 42
0.1741343635
  0
VERTEX
  8
LAYER_1
 10
163.6635
 20
-205.5767
  0
VERTEX
  8
LAYER_1
 10
163.6805
 20
-205.6293
  0
VERTEX
  8
LAYER_1
 10
163.6805
 20
-205.7315
 42
-0.2165199695
  0
VERTEX
  8
LAYER_1
 10
163.6485
 20
-205.8004
 42
0.2211018217
  0
VERTEX
  8
LAYER_1
 10
163.3926
 20
-206.3508
 42
0.2210986892
  0
VERTEX
  8
LAYER_1
 10
163.6485
 20
-206.9012
 42
-0.2169683143
  0
VERTEX
  8
LAYER_1
 10
163.6805
 20
-206.97
  0
VERTEX
  8
LAYER_1
 10
163.6805
 20
-207.0874
 42
-0.2992787895
  0
VERTEX
  8
LAYER_1
 10
163.6226
 20
-207.1715
 42
0.3108287206
  0
VERTEX
  8
LAYER_1
 10
163.5185
 20
-207.3228
  0
VERTEX
  8
LAYER_1
 10
163.5185
 20
-208.4388
 42
0.414220426
  0
VERTEX
  8
LAYER_1
 10
163.6805
 20
-208.6008
  0
VERTEX
  8
LAYER_1
 10
163.7229
 20
-208.6008
  0
VERTEX
  8
LAYER_1
 10
163.9533
 20
-208.6008
  0
SEQEND
  0
POLYLINE
  8
LAYER_1
 40
0.1058
 41
0.1058
 66
1
 10
0
 20
0
 30
0
  0
VERTEX
  8
LAYER_1
 10
164.6526
 20
-208.6008
  0
VERTEX
  8
LAYER_1
 10
164.6526
 20
-207.1608
  0
VERTEX
  8
LAYER_1
 10
164.0806
 20
-207.1608
  0
VERTEX
  8
LAYER_1
 10
164.0695
 20
-207.1613
 42
0.388660582
  0
VERTEX
  8
LAYER_1
 10
163.9546
 20
-207.2868
  0
VERTEX
  8
LAYER_1
 10
163.9546
 20
-208.4748
 42
0.4142161929
  0
VERTEX
  8
LAYER_1
 10
164.0806
 20
-208.6008
  0
VERTEX
  8
LAYER_1
 10
164.242
 20
-208.6008
  0
SEQEND
  0
POLYLINE
  8
LAYER_1
 40
0.1058
 41
0.1058
 66
1
 10
0
 20
0
 30
0
  0
VERTEX
  8
LAYER_1
 10
83.101
 20
-205.5189
  0
VERTEX
  8
LAYER_1
 10
83.1155
 20
-205.5678
  0
VERTEX
  8
LAYER_1
 10
83.1155
 20
-205.7828
  0
VERTEX
  8
LAYER_1
 10
83.1003
 20
-205.8328
 42
0.1483546801
  0
VERTEX
  8
LAYER_1
 10
82.9432
 20
-206.3508
 42
0.1483535621
  0
VERTEX
  8
LAYER_1
 10
83.1003
 20
-206.8688
  0
VERTEX
  8
LAYER_1
 10
83.1155
 20
-206.9188
  0
VERTEX
  8
LAYER_1
 10
83.1155
 20
-207.1613
  0
SEQEND
  0
POLYLINE
  8
LAYER_1
 40
0.1058
 41
0.1058
 66
1
 10
0
 20
0
 30
0
  0
VERTEX
  8
LAYER_1
 10
82.7388
 20
-208.6008
 42
-0.4142260665
  0
VERTEX
  8
LAYER_1
 10
82.5768
 20
-208.4388
  0
VERTEX
  8
LAYER_1
 10
82.5768
 20
-207.3228
 42
-0.3115868663
  0
VERTEX
  8
LAYER_1
 10
82.6813
 20
-207.1713
 42
0.2998436187
  0
VERTEX
  8
LAYER_1
 10
82.7394
 20
-207.0872
  0
VERTEX
  8
LAYER_1
 10
82.7394
 20
-206.93
 42
0.1980938402
  0
VERTEX
  8
LAYER_1
 10
82.7123
 20
-206.8656
 42
-0.201805993
  0
VERTEX
  8
LAYER_1
 10
82.4956
 20
-206.3505
 42
-0.2015478775
  0
VERTEX
  8
LAYER_1
 10
82.7118
 20
-205.8359
 42
0.1990439164
  0
VERTEX
  8
LAYER_1
 10
82.7388
 20
-205.7717
  0
VERTEX
  8
LAYER_1
 10
82.7388
 20
-205.5678
  0
VERTEX
  8
LAYER_1
 10
82.7322
 20
-205.534
  0
VERTEX
  8
LAYER_1
 10
82.7155
 20
-205.5228
  0
SEQEND
  0
POLYLINE
  8
LAYER_1
 40
0.1058
 41
0.1058
 66
1
 10
0
 20
0
 30
0
  0
VERTEX
  8
LAYER_1
 10
83.6841
 20
-205.5189
  0
VERTEX
  8
LAYER_1
 10
83.6944
 20
-205.5408
  0
VERTEX
  8
LAYER_1
 10
83.6986
 20
-205.5678
  0
VERTEX
  8
LAYER_1
 10
83.6986
 20
-205.8108
  0
VERTEX
  8
LAYER_1
 10
83.6986
 20
-206.8908
  0
VERTEX
  8
LAYER_1
 10
83.6986
 20
-207.1608
  0
VERTEX
  8
LAYER_1
 10
83.1266
 20
-207.1608
  0
VERTEX
  8
LAYER_1
 10
83.1155
 20
-207.1613
 42
0.3886427835
  0
VERTEX
  8
LAYER_1
 10
83.0006
 20
-207.2868
  0
VERTEX
  8
LAYER_1
 10
83.0006
 20
-208.4748
 42
0.4141980151
  0
VERTEX
  8
LAYER_1
 10
83.1266
 20
-208.6008
  0
VERTEX
  8
LAYER_1
 10
83.288
 20
-208.6008
  0
SEQEND
  0
POLYLINE
  8
LAYER_1
 40
0.1058
 41
0.1058
 66
1
 10
0
 20
0
 30
0
  0
VERTEX
  8
LAYER_1
 10
82.9993
 20
-208.6008
 42
-0.414149723
  0
VERTEX
  8
LAYER_1
 10
82.8733
 20
-208.4748
  0
VERTEX
  8
LAYER_1
 10
82.8733
 20
-207.2868
 42
-0.2687095158
  0
VERTEX
  8
LAYER_1
 10
82.9403
 20
-207.1754
  0
VERTEX
  8
LAYER_1
 10
82.9606
 20
-207.1608
 42
0.2009836412
  0
VERTEX
  8
LAYER_1
 10
82.9882
 20
-207.0959
  0
VERTEX
  8
LAYER_1
 10
82.9882
 20
-206.9188
  0
VERTEX
  8
LAYER_1
 10
82.9838
 20
-206.8908
  0
VERTEX
  8
LAYER_1
 10
82.973
 20
-206.8688
 42
-0.1483503981
  0
VERTEX
  8
LAYER_1
 10
82.8159
 20
-206.3508
 42
-0.148351516
  0
VERTEX
  8
LAYER_1
 10
82.973
 20
-205.8328
  0
VERTEX
  8
LAYER_1
 10
82.9838
 20
-205.8108
  0
VERTEX
  8
LAYER_1
 10
82.9882
 20
-205.7828
  0
VERTEX
  8
LAYER_1
 10
82.9882
 20
-205.5678
  0
VERTEX
  8
LAYER_1
 10
82.9841
 20
-205.5408
  0
VERTEX
  8
LAYER_1
 10
82.9737
 20
-205.5189
  0
SEQEND
  0
POLYLINE
  8
LAYER_1
 40
0.1058
 41
0.1058
 66
1
 10
0
 20
0
 30
0
  0
VERTEX
  8
LAYER_1
 10
83.8931
 20
-205.5189
  0
VERTEX
  8
LAYER_1
 10
83.8827
 20
-205.5408
  0
VERTEX
  8
LAYER_1
 10
83.8786
 20
-205.5678
  0
VERTEX
  8
LAYER_1
 10
83.8786
 20
-205.8108
  0
VERTEX
  8
LAYER_1
 10
84.4617
 20
-205.8108
  0
SEQEND
  0
POLYLINE
  8
LAYER_1
 40
0.1058
 41
0.1058
 66
1
 10
0
 20
0
 30
0
  0
VERTEX
  8
LAYER_1
 10
84.4617
 20
-207.1613
  0
VERTEX
  8
LAYER_1
 10
84.4617
 20
-206.9188
  0
VERTEX
  8
LAYER_1
 10
84.4768
 20
-206.8688
 42
0.1483616962
  0
VERTEX
  8
LAYER_1
 10
84.634
 20
-206.3508
 42
0.148362814
  0
VERTEX
  8
LAYER_1
 10
84.4768
 20
-205.8328
  0
VERTEX
  8
LAYER_1
 10
84.4617
 20
-205.7828
  0
VERTEX
  8
LAYER_1
 10
84.4617
 20
-205.5678
  0
VERTEX
  8
LAYER_1
 10
84.4761
 20
-205.5189
  0
SEQEND
  0
POLYLINE
  8
LAYER_1
 40
0.1058
 41
0.1058
 66
1
 10
0
 20
0
 30
0
  0
VERTEX
  8
LAYER_1
 10
84.5778
 20
-208.6008
 42
0.4142738636
  0
VERTEX
  8
LAYER_1
 10
84.7038
 20
-208.4748
  0
VERTEX
  8
LAYER_1
 10
84.7038
 20
-207.2868
 42
0.2687095158
  0
VERTEX
  8
LAYER_1
 10
84.6368
 20
-207.1754
  0
VERTEX
  8
LAYER_1
 10
84.6166
 20
-207.1608
 42
-0.2017080086
  0
VERTEX
  8
LAYER_1
 10
84.5889
 20
-207.0959
  0
VERTEX
  8
LAYER_1
 10
84.5889
 20
-206.9188
  0
VERTEX
  8
LAYER_1
 10
84.5934
 20
-206.8908
  0
VERTEX
  8
LAYER_1
 10
84.6041
 20
-206.8688
 42
0.1483585318
  0
VERTEX
  8
LAYER_1
 10
84.7613
 20
-206.3508
 42
0.1483596495
  0
VERTEX
  8
LAYER_1
 10
84.6041
 20
-205.8328
  0
VERTEX
  8
LAYER_1
 10
84.5934
 20
-205.8108
  0
VERTEX
  8
LAYER_1
 10
84.5889
 20
-205.7828
  0
VERTEX
  8
LAYER_1
 10
84.5889
 20
-205.5678
  0
VERTEX
  8
LAYER_1
 10
84.5931
 20
-205.5408
  0
VERTEX
  8
LAYER_1
 10
84.6034
 20
-205.5189
  0
SEQEND
  0
POLYLINE
  8
LAYER_1
 40
0.1058
 41
0.1058
 66
1
 10
0
 20
0
 30
0
  0
VERTEX
  8
LAYER_1
 10
84.4506
 20
-208.6008
 42
0.4140897508
  0
VERTEX
  8
LAYER_1
 10
84.5766
 20
-208.4748
  0
VERTEX
  8
LAYER_1
 10
84.5766
 20
-207.2868
 42
0.3885367817
  0
VERTEX
  8
LAYER_1
 10
84.4617
 20
-207.1613
  0
VERTEX
  8
LAYER_1
 10
84.4506
 20
-207.1608
  0
VERTEX
  8
LAYER_1
 10
83.8786
 20
-207.1608
  0
VERTEX
  8
LAYER_1
 10
83.8786
 20
-208.6008
  0
SEQEND
  0
POLYLINE
  8
LAYER_1
 40
0.1058
 41
0.1058
 66
1
 10
0
 20
0
 30
0
 70
1
  0
VERTEX
  8
LAYER_1
 10
85.1357
 20
-204.9108
  0
VERTEX
  8
LAYER_1
 10
83.7886
 20
-204.9108
  0
VERTEX
  8
LAYER_1
 10
82.4415
 20
-204.9108
 42
0.1741331738
  0
VERTEX
  8
LAYER_1
 10
82.7095
 20
-205.5767
  0
VERTEX
  8
LAYER_1
 10
82.7265
 20
-205.6293
  0
VERTEX
  8
LAYER_1
 10
82.7265
 20
-205.7315
 42
-0.2165199695
  0
VERTEX
  8
LAYER_1
 10
82.6945
 20
-205.8004
 42
0.2210996434
  0
VERTEX
  8
LAYER_1
 10
82.4386
 20
-206.3508
 42
0.2210965111
  0
VERTEX
  8
LAYER_1
 10
82.6945
 20
-206.9012
 42
-0.2169683143
  0
VERTEX
  8
LAYER_1
 10
82.7265
 20
-206.97
  0
VERTEX
  8
LAYER_1
 10
82.7265
 20
-207.0874
 42
-0.2992787895
  0
VERTEX
  8
LAYER_1
 10
82.6686
 20
-207.1715
 42
0.3108163566
  0
VERTEX
  8
LAYER_1
 10
82.5645
 20
-207.3228
  0
VERTEX
  8
LAYER_1
 10
82.5645
 20
-208.4388
 42
0.4142062874
  0
VERTEX
  8
LAYER_1
 10
82.7265
 20
-208.6008
  0
VERTEX
  8
LAYER_1
 10
82.7689
 20
-208.6008
  0
VERTEX
  8
LAYER_1
 10
82.9993
 20
-208.6008
  0
VERTEX
  8
LAYER_1
 10
84.5778
 20
-208.6008
  0
VERTEX
  8
LAYER_1
 10
84.8083
 20
-208.6008
  0
VERTEX
  8
LAYER_1
 10
84.8507
 20
-208.6008
 42
0.4141220769
  0
VERTEX
  8
LAYER_1
 10
85.0127
 20
-208.4388
  0
VERTEX
  8
LAYER_1
 10
85.0127
 20
-207.3228
 42
0.3109007925
  0
VERTEX
  8
LAYER_1
 10
84.9085
 20
-207.1715
 42
-0.29883083
  0
VERTEX
  8
LAYER_1
 10
84.8507
 20
-207.0874
  0
VERTEX
  8
LAYER_1
 10
84.8507
 20
-206.97
 42
-0.2174096044
  0
VERTEX
  8
LAYER_1
 10
84.8827
 20
-206.9012
 42
0.2210835371
  0
VERTEX
  8
LAYER_1
 10
85.1386
 20
-206.3508
 42
0.2210866691
  0
VERTEX
  8
LAYER_1
 10
84.8827
 20
-205.8004
 42
-0.2173166488
  0
VERTEX
  8
LAYER_1
 10
84.8507
 20
-205.7315
  0
VERTEX
  8
LAYER_1
 10
84.8507
 20
-205.6293
  0
VERTEX
  8
LAYER_1
 10
84.8676
 20
-205.5767
 42
0.174142218
  0
SEQEND
  0
POLYLINE
  8
LAYER_1
 40
0.1058
 41
0.1058
 66
1
 10
0
 20
0
 30
0
  0
VERTEX
  8
LAYER_1
 10
84.8384
 20
-208.6008
 42
0.4141418551
  0
VERTEX
  8
LAYER_1
 10
85.0004
 20
-208.4388
  0
VERTEX
  8
LAYER_1
 10
85.0004
 20
-207.3228
 42
0.3116714087
  0
VERTEX
  8
LAYER_1
 10
84.8958
 20
-207.1713
 42
-0.2993316799
  0
VERTEX
  8
LAYER_1
 10
84.8377
 20
-207.0872
  0
VERTEX
  8
LAYER_1
 10
84.8377
 20
-206.93
 42
-0.1980938402
  0
VERTEX
  8
LAYER_1
 10
84.8648
 20
-206.8656
 42
0.2018197828
  0
VERTEX
  8
LAYER_1
 10
85.0816
 20
-206.3505
 42
0.201535864
  0
VERTEX
  8
LAYER_1
 10
84.8654
 20
-205.8359
 42
-0.1990439164
  0
VERTEX
  8
LAYER_1
 10
84.8384
 20
-205.7717
  0
VERTEX
  8
LAYER_1
 10
84.8384
 20
-205.5678
  0
VERTEX
  8
LAYER_1
 10
84.845
 20
-205.534
  0
VERTEX
  8
LAYER_1
 10
84.8616
 20
-205.5228
  0
SEQEND
  0
ENDBLK
  0
BLOCK
  8
LAYER_1
  2
AIGNBL01020035
 70
64
 10
0
 20
0
 30
0
  3
AIGNBL01020035
  0
POLYLINE
  8
LAYER_1
 40
0.1058
 41
0.1058
 66
1
 10
0
 20
0
 30
0
  0
VERTEX
  8
LAYER_1
 10
165.9128
 20
-158.4708
  0
VERTEX
  8
LAYER_1
 10
165.8228
 20
-158.3808
  0
VERTEX
  8
LAYER_1
 10
164.7428
 20
-158.3808
  0
VERTEX
  8
LAYER_1
 10
165.8228
 20
-158.3808
  0
SEQEND
  0
POLYLINE
  8
LAYER_1
 40
0.1058
 41
0.1058
 66
1
 10
0
 20
0
 30
0
  0
VERTEX
  8
LAYER_1
 10
165.9128
 20
-159.3708
  0
VERTEX
  8
LAYER_1
 10
165.9128
 20
-158.4708
  0
VERTEX
  8
LAYER_1
 10
165.9031
 20
-158.4708
  0
SEQEND
  0
POLYLINE
  8
LAYER_1
 40
0.1058
 41
0.1058
 66
1
 10
0
 20
0
 30
0
  0
VERTEX
  8
LAYER_1
 10
163.5824
 20
-158.4708
  0
VERTEX
  8
LAYER_1
 10
163.5824
 20
-159.3708
  0
SEQEND
  0
POLYLINE
  8
LAYER_1
 40
0.1058
 41
0.1058
 66
1
 10
0
 20
0
 30
0
  0
VERTEX
  8
LAYER_1
 10
92.727
 20
-158.4345
  0
VERTEX
  8
LAYER_1
 10
92.8196
 20
-158.3472
  0
VERTEX
  8
LAYER_1
 10
93.8991
 20
-158.3787
  0
VERTEX
  8
LAYER_1
 10
92.8196
 20
-158.3472
  0
SEQEND
  0
POLYLINE
  8
LAYER_1
 40
0.1058
 41
0.1058
 66
1
 10
0
 20
0
 30
0
  0
VERTEX
  8
LAYER_1
 10
92.7007
 20
-159.3342
  0
VERTEX
  8
LAYER_1
 10
92.727
 20
-158.4345
  0
VERTEX
  8
LAYER_1
 10
92.7367
 20
-158.4348
  0
SEQEND
  0
POLYLINE
  8
LAYER_1
 40
0.1058
 41
0.1058
 66
1
 10
0
 20
0
 30
0
  0
VERTEX
  8
LAYER_1
 10
95.0301
 20
-159.4022
  0
VERTEX
  8
LAYER_1
 10
95.0563
 20
-158.5025
  0
SEQEND
  0
POLYLINE
  8
LAYER_1
 40
0.1058
 41
0.1058
 66
1
 10
0
 20
0
 30
0
  0
VERTEX
  8
LAYER_1
 10
165.4531
 20
-159.3708
 42
0.1925840728
  0
VERTEX
  8
LAYER_1
 10
165.6781
 20
-159.4608
 42
0.1925674719
  0
VERTEX
  8
LAYER_1
 10
165.9031
 20
-159.3708
  0
SEQEND
  0
POLYLINE
  8
LAYER_1
 40
0.1058
 41
0.1058
 66
1
 10
0
 20
0
 30
0
  0
VERTEX
  8
LAYER_1
 10
165.4531
 20
-158.4708
 42
-0.1925973345
  0
VERTEX
  8
LAYER_1
 10
165.6781
 20
-158.3808
 42
-0.1925807289
  0
VERTEX
  8
LAYER_1
 10
165.9031
 20
-158.4708
  0
VERTEX
  8
LAYER_1
 10
165.9031
 20
-159.3708
  0
VERTEX
  8
LAYER_1
 10
165.9128
 20
-159.3708
  0
VERTEX
  8
LAYER_1
 10
165.8228
 20
-159.4608
  0
VERTEX
  8
LAYER_1
 10
165.7328
 20
-159.4608
  0
VERTEX
  8
LAYER_1
 10
164.7428
 20
-159.4608
  0
VERTEX
  8
LAYER_1
 10
163.7528
 20
-159.4608
  0
VERTEX
  8
LAYER_1
 10
163.6628
 20
-159.4608
  0
VERTEX
  8
LAYER_1
 10
163.5728
 20
-159.3708
  0
SEQEND
  0
POLYLINE
  8
LAYER_1
 40
0.1058
 41
0.1058
 66
1
 10
0
 20
0
 30
0
  0
VERTEX
  8
LAYER_1
 10
164.0324
 20
-158.4708
 42
0.1925993928
  0
VERTEX
  8
LAYER_1
 10
163.8074
 20
-158.3808
 42
0.1925786687
  0
VERTEX
  8
LAYER_1
 10
163.5824
 20
-158.4708
  0
VERTEX
  8
LAYER_1
 10
163.5728
 20
-158.4708
  0
SEQEND
  0
POLYLINE
  8
LAYER_1
 40
0.1058
 41
0.1058
 66
1
 10
0
 20
0
 30
0
  0
VERTEX
  8
LAYER_1
 10
164.2928
 20
-158.4708
 42
-0.09902126935
  0
VERTEX
  8
LAYER_1
 10
164.7428
 20
-158.3808
 42
-0.09901976531
  0
VERTEX
  8
LAYER_1
 10
165.1928
 20
-158.4708
  0
SEQEND
  0
POLYLINE
  8
LAYER_1
 40
0.1058
 41
0.1058
 66
1
 10
0
 20
0
 30
0
  0
VERTEX
  8
LAYER_1
 10
164.0324
 20
-159.3708
 42
-0.1925861309
  0
VERTEX
  8
LAYER_1
 10
163.8074
 20
-159.4608
 42
-0.1925654118
  0
VERTEX
  8
LAYER_1
 10
163.5824
 20
-159.3708
  0
VERTEX
  8
LAYER_1
 10
163.5728
 20
-159.3708
  0
VERTEX
  8
LAYER_1
 10
163.5728
 20
-158.4708
  0
VERTEX
  8
LAYER_1
 10
163.6628
 20
-158.3808
  0
VERTEX
  8
LAYER_1
 10
164.7428
 20
-158.3808
  0
VERTEX
  8
LAYER_1
 10
163.6628
 20
-158.3808
  0
SEQEND
  0
POLYLINE
  8
LAYER_1
 40
0.1058
 41
0.1058
 66
1
 10
0
 20
0
 30
0
  0
VERTEX
  8
LAYER_1
 10
164.2928
 20
-159.3708
  0
VERTEX
  8
LAYER_1
 10
164.2928
 20
-158.4708
  0
VERTEX
  8
LAYER_1
 10
164.0324
 20
-158.4708
  0
VERTEX
  8
LAYER_1
 10
164.0324
 20
-159.3708
  0
VERTEX
  8
LAYER_1
 10
164.2928
 20
-159.3708
 42
0.09901926137
  0
VERTEX
  8
LAYER_1
 10
164.7428
 20
-159.4608
 42
0.09901775786
  0
VERTEX
  8
LAYER_1
 10
165.1928
 20
-159.3708
  0
VERTEX
  8
LAYER_1
 10
165.1928
 20
-158.4708
  0
VERTEX
  8
LAYER_1
 10
165.4531
 20
-158.4708
  0
VERTEX
  8
LAYER_1
 10
165.4531
 20
-159.3708
  0
VERTEX
  8
LAYER_1
 10
165.1928
 20
-159.3708
  0
SEQEND
  0
POLYLINE
  8
LAYER_1
 40
0.1058
 41
0.1058
 66
1
 10
0
 20
0
 30
0
  0
VERTEX
  8
LAYER_1
 10
92.7104
 20
-159.3344
 42
0.2001771352
  0
VERTEX
  8
LAYER_1
 10
92.9422
 20
-159.4311
 42
0.1850098664
  0
VERTEX
  8
LAYER_1
 10
93.1602
 20
-159.3476
  0
SEQEND
  0
POLYLINE
  8
LAYER_1
 40
0.1058
 41
0.1058
 66
1
 10
0
 20
0
 30
0
  0
VERTEX
  8
LAYER_1
 10
93.1865
 20
-158.448
 42
0.2001872659
  0
VERTEX
  8
LAYER_1
 10
92.9547
 20
-158.3513
 42
0.1850079259
  0
VERTEX
  8
LAYER_1
 10
92.7367
 20
-158.4348
  0
VERTEX
  8
LAYER_1
 10
92.7104
 20
-159.3344
  0
VERTEX
  8
LAYER_1
 10
92.7007
 20
-159.3342
  0
VERTEX
  8
LAYER_1
 10
92.7881
 20
-159.4267
  0
VERTEX
  8
LAYER_1
 10
92.878
 20
-159.4294
  0
VERTEX
  8
LAYER_1
 10
93.8676
 20
-159.4583
  0
VERTEX
  8
LAYER_1
 10
94.8572
 20
-159.4871
  0
VERTEX
  8
LAYER_1
 10
94.9472
 20
-159.4898
  0
VERTEX
  8
LAYER_1
 10
95.0397
 20
-159.4024
  0
SEQEND
  0
POLYLINE
  8
LAYER_1
 40
0.1058
 41
0.1058
 66
1
 10
0
 20
0
 30
0
  0
VERTEX
  8
LAYER_1
 10
94.6065
 20
-158.4894
 42
-0.1850128465
  0
VERTEX
  8
LAYER_1
 10
94.8245
 20
-158.4059
 42
-0.2001442139
  0
VERTEX
  8
LAYER_1
 10
95.0563
 20
-158.5025
  0
VERTEX
  8
LAYER_1
 10
95.066
 20
-158.5028
  0
SEQEND
  0
POLYLINE
  8
LAYER_1
 40
0.1058
 41
0.1058
 66
1
 10
0
 20
0
 30
0
  0
VERTEX
  8
LAYER_1
 10
94.3463
 20
-158.4818
 42
0.09902271854
  0
VERTEX
  8
LAYER_1
 10
93.8991
 20
-158.3787
  0
VERTEX
  8
LAYER_1
 10
93.865
 20
-158.3782
 42
0.09244692594
  0
VERTEX
  8
LAYER_1
 10
93.4467
 20
-158.4555
  0
SEQEND
  0
POLYLINE
  8
LAYER_1
 40
0.1058
 41
0.1058
 66
1
 10
0
 20
0
 30
0
  0
VERTEX
  8
LAYER_1
 10
94.5802
 20
-159.389
 42
0.2001635606
  0
VERTEX
  8
LAYER_1
 10
94.812
 20
-159.4857
 42
0.1850639019
  0
VERTEX
  8
LAYER_1
 10
95.0301
 20
-159.4022
  0
VERTEX
  8
LAYER_1
 10
95.0397
 20
-159.4024
  0
VERTEX
  8
LAYER_1
 10
95.066
 20
-158.5028
  0
VERTEX
  8
LAYER_1
 10
94.9787
 20
-158.4102
  0
VERTEX
  8
LAYER_1
 10
93.8991
 20
-158.3787
  0
VERTEX
  8
LAYER_1
 10
94.9787
 20
-158.4102
  0
SEQEND
  0
POLYLINE
  8
LAYER_1
 40
0.1058
 41
0.1058
 66
1
 10
0
 20
0
 30
0
  0
VERTEX
  8
LAYER_1
 10
93.4204
 20
-159.3552
  0
VERTEX
  8
LAYER_1
 10
93.1602
 20
-159.3476
  0
VERTEX
  8
LAYER_1
 10
93.1865
 20
-158.448
  0
VERTEX
  8
LAYER_1
 10
93.4467
 20
-158.4555
  0
VERTEX
  8
LAYER_1
 10
93.4204
 20
-159.3552
 42
0.09901996297
  0
VERTEX
  8
LAYER_1
 10
93.8676
 20
-159.4583
  0
VERTEX
  8
LAYER_1
 10
93.9018
 20
-159.4588
 42
0.09258282965
  0
VERTEX
  8
LAYER_1
 10
94.3201
 20
-159.3814
  0
VERTEX
  8
LAYER_1
 10
94.5802
 20
-159.389
  0
VERTEX
  8
LAYER_1
 10
94.6065
 20
-158.4894
  0
VERTEX
  8
LAYER_1
 10
94.3463
 20
-158.4818
  0
VERTEX
  8
LAYER_1
 10
94.3201
 20
-159.3814
  0
SEQEND
  0
ENDBLK
  0
BLOCK
  8
LAYER_1
  2
AIGNBL01020036
 70
64
 10
0
 20
0
 30
0
  3
AIGNBL01020036
  0
POLYLINE
  8
LAYER_1
 40
0.1058
 41
0.1058
 66
1
 10
0
 20
0
 30
0
  0
VERTEX
  8
LAYER_1
 10
165.9488
 20
-204.9108
  0
VERTEX
  8
LAYER_1
 10
165.9488
 20
-163.1508
  0
SEQEND
  0
POLYLINE
  8
LAYER_1
 40
0.1058
 41
0.1058
 66
1
 10
0
 20
0
 30
0
  0
VERTEX
  8
LAYER_1
 10
163.5368
 20
-163.1508
  0
VERTEX
  8
LAYER_1
 10
163.5368
 20
-204.9108
  0
SEQEND
  0
POLYLINE
  8
LAYER_1
 40
0.1058
 41
0.1058
 66
1
 10
0
 20
0
 30
0
  0
VERTEX
  8
LAYER_1
 10
92.5206
 20
-163.1105
  0
VERTEX
  8
LAYER_1
 10
92.2096
 20
-174.9865
  0
VERTEX
  8
LAYER_1
 10
92.2101
 20
-175.1294
 42
-0.18066232
  0
VERTEX
  8
LAYER_1
 10
87.7217
 20
-187.146
 42
0.189447075
  0
VERTEX
  8
LAYER_1
 10
82.5828
 20
-200.2223
  0
VERTEX
  8
LAYER_1
 10
82.5828
 20
-204.9108
  0
SEQEND
  0
POLYLINE
  8
LAYER_1
 40
0.1058
 41
0.1058
 66
1
 10
0
 20
0
 30
0
  0
VERTEX
  8
LAYER_1
 10
94.9315
 20
-163.1809
  0
VERTEX
  8
LAYER_1
 10
94.6208
 20
-175.0496
  0
VERTEX
  8
LAYER_1
 10
94.6209
 20
-175.1294
 42
-0.1816817255
  0
VERTEX
  8
LAYER_1
 10
89.4884
 20
-188.7882
 42
0.1894478408
  0
VERTEX
  8
LAYER_1
 10
84.9948
 20
-200.2223
  0
VERTEX
  8
LAYER_1
 10
84.9948
 20
-204.9108
  0
SEQEND
  0
ENDBLK
  0
BLOCK
  8
LAYER_1
  2
AIGNBL01020038
 70
64
 10
0
 20
0
 30
0
  3
AIGNBL01020038
  0
POLYLINE
  8
LAYER_1
 40
0.1058
 41
0.1058
 66
1
 10
0
 20
0
 30
0
  0
VERTEX
  8
LAYER_1
 10
109.0813
 20
-215.5308
  0
VERTEX
  8
LAYER_1
 10
109.0813
 20
-213.7848
  0
SEQEND
  0
POLYLINE
  8
LAYER_1
 40
0.1058
 41
0.1058
 66
1
 10
0
 20
0
 30
0
  0
VERTEX
  8
LAYER_1
 10
105.0313
 20
-215.9808
  0
VERTEX
  8
LAYER_1
 10
105.0313
 20
-217.4208
  0
SEQEND
  0
POLYLINE
  8
LAYER_1
 40
0.1058
 41
0.1058
 66
1
 10
0
 20
0
 30
0
  0
VERTEX
  8
LAYER_1
 10
105.3013
 20
-215.5308
  0
VERTEX
  8
LAYER_1
 10
105.0313
 20
-215.8008
  0
VERTEX
  8
LAYER_1
 10
105.0313
 20
-215.9808
  0
VERTEX
  8
LAYER_1
 10
105.3318
 20
-215.9808
  0
SEQEND
  0
POLYLINE
  8
LAYER_1
 40
0.1058
 41
0.1058
 66
1
 10
0
 20
0
 30
0
  0
VERTEX
  8
LAYER_1
 10
105.3013
 20
-212.9626
  0
VERTEX
  8
LAYER_1
 10
108.0875
 20
-212.9626
  0
SEQEND
  0
POLYLINE
  8
LAYER_1
 40
0.1058
 41
0.1058
 66
1
 10
0
 20
0
 30
0
  0
VERTEX
  8
LAYER_1
 10
107.9576
 20
-212.6508
  0
VERTEX
  8
LAYER_1
 10
105.8413
 20
-212.6508
  0
VERTEX
  8
LAYER_1
 10
105.3013
 20
-212.9626
  0
VERTEX
  8
LAYER_1
 10
105.3013
 20
-215.5308
  0
VERTEX
  8
LAYER_1
 10
107.1913
 20
-215.5308
  0
VERTEX
  8
LAYER_1
 10
109.0813
 20
-215.5308
  0
VERTEX
  8
LAYER_1
 10
109.3513
 20
-215.8008
  0
VERTEX
  8
LAYER_1
 10
109.3513
 20
-215.9808
  0
SEQEND
  0
POLYLINE
  8
LAYER_1
 40
0.1058
 41
0.1058
 66
1
 10
0
 20
0
 30
0
  0
VERTEX
  8
LAYER_1
 10
107.8999
 20
-212.0208
  0
VERTEX
  8
LAYER_1
 10
105.5713
 20
-212.0208
  0
VERTEX
  8
LAYER_1
 10
105.5713
 20
-211.3908
  0
VERTEX
  8
LAYER_1
 10
107.8999
 20
-211.3908
  0
SEQEND
  0
POLYLINE
  8
LAYER_1
 40
0.1058
 41
0.1058
 66
1
 10
0
 20
0
 30
0
  0
VERTEX
  8
LAYER_1
 10
105.8413
 20
-212.1108
  0
VERTEX
  8
LAYER_1
 10
105.8413
 20
-212.0208
  0
SEQEND
  0
POLYLINE
  8
LAYER_1
 40
0.1058
 41
0.1058
 66
1
 10
0
 20
0
 30
0
  0
VERTEX
  8
LAYER_1
 10
109.0507
 20
-215.9808
 42
0.1139674965
  0
VERTEX
  8
LAYER_1
 10
108.2713
 20
-215.8008
 42
0.1139813439
  0
VERTEX
  8
LAYER_1
 10
107.4918
 20
-215.9808
  0
SEQEND
  0
POLYLINE
  8
LAYER_1
 40
0.1058
 41
0.1058
 66
1
 10
0
 20
0
 30
0
  0
VERTEX
  8
LAYER_1
 10
107.4918
 20
-217.4208
 42
0.1139798322
  0
VERTEX
  8
LAYER_1
 10
108.2713
 20
-217.6008
 42
0.1139659853
  0
VERTEX
  8
LAYER_1
 10
109.0507
 20
-217.4208
  0
SEQEND
  0
POLYLINE
  8
LAYER_1
 40
0.1058
 41
0.1058
 66
1
 10
0
 20
0
 30
0
  0
VERTEX
  8
LAYER_1
 10
105.3318
 20
-217.4208
 42
0.1139798322
  0
VERTEX
  8
LAYER_1
 10
106.1113
 20
-217.6008
 42
0.1139659853
  0
VERTEX
  8
LAYER_1
 10
106.8907
 20
-217.4208
  0
SEQEND
  0
POLYLINE
  8
LAYER_1
 40
0.1058
 41
0.1058
 66
1
 10
0
 20
0
 30
0
  0
VERTEX
  8
LAYER_1
 10
106.8907
 20
-215.9808
  0
VERTEX
  8
LAYER_1
 10
107.1913
 20
-215.9808
  0
VERTEX
  8
LAYER_1
 10
107.4918
 20
-215.9808
  0
VERTEX
  8
LAYER_1
 10
107.4918
 20
-217.4208
  0
VERTEX
  8
LAYER_1
 10
107.1913
 20
-217.4208
  0
VERTEX
  8
LAYER_1
 10
106.8907
 20
-217.4208
  0
VERTEX
  8
LAYER_1
 10
106.8907
 20
-215.9808
 42
0.1139674965
  0
VERTEX
  8
LAYER_1
 10
106.1113
 20
-215.8008
 42
0.1139813439
  0
VERTEX
  8
LAYER_1
 10
105.3318
 20
-215.9808
  0
VERTEX
  8
LAYER_1
 10
105.3318
 20
-217.4208
  0
VERTEX
  8
LAYER_1
 10
105.0313
 20
-217.4208
  0
VERTEX
  8
LAYER_1
 10
105.3013
 20
-217.6908
  0
VERTEX
  8
LAYER_1
 10
107.1913
 20
-217.6908
  0
VERTEX
  8
LAYER_1
 10
109.0813
 20
-217.6908
  0
VERTEX
  8
LAYER_1
 10
109.3513
 20
-217.4208
  0
VERTEX
  8
LAYER_1
 10
109.0507
 20
-217.4208
  0
VERTEX
  8
LAYER_1
 10
109.0507
 20
-215.9808
  0
VERTEX
  8
LAYER_1
 10
109.3513
 20
-215.9808
  0
VERTEX
  8
LAYER_1
 10
109.3513
 20
-217.4208
  0
SEQEND
  0
ENDBLK
  0
BLOCK
  8
LAYER_1
  2
AIGNBL01020039
 70
64
 10
0
 20
0
 30
0
  3
AIGNBL01020039
  0
POLYLINE
  8
LAYER_1
 40
0.1058
 41
0.1058
 66
1
 10
0
 20
0
 30
0
  0
VERTEX
  8
LAYER_1
 10
165.5101
 20
-211.3908
  0
VERTEX
  8
LAYER_1
 10
166.4101
 20
-211.3908
  0
VERTEX
  8
LAYER_1
 10
166.4101
 20
-212.0208
  0
VERTEX
  8
LAYER_1
 10
165.5101
 20
-212.0208
  0
SEQEND
  0
POLYLINE
  8
LAYER_1
 40
0.1058
 41
0.1058
 66
1
 10
0
 20
0
 30
0
  0
VERTEX
  8
LAYER_1
 10
163.4401
 20
-212.0208
  0
VERTEX
  8
LAYER_1
 10
164.0701
 20
-212.0208
  0
SEQEND
  0
POLYLINE
  8
LAYER_1
 40
0.1058
 41
0.1058
 66
1
 10
0
 20
0
 30
0
  0
VERTEX
  8
LAYER_1
 10
166.9501
 20
-215.9808
  0
VERTEX
  8
LAYER_1
 10
166.6495
 20
-215.9808
  0
SEQEND
  0
POLYLINE
  8
LAYER_1
 40
0.1058
 41
0.1058
 66
1
 10
0
 20
0
 30
0
  0
VERTEX
  8
LAYER_1
 10
162.6301
 20
-217.4208
  0
VERTEX
  8
LAYER_1
 10
162.6301
 20
-215.9808
  0
SEQEND
  0
POLYLINE
  8
LAYER_1
 40
0.1058
 41
0.1058
 66
1
 10
0
 20
0
 30
0
  0
VERTEX
  8
LAYER_1
 10
166.6801
 20
-215.5308
  0
VERTEX
  8
LAYER_1
 10
162.9001
 20
-215.5308
  0
SEQEND
  0
POLYLINE
  8
LAYER_1
 40
0.1058
 41
0.1058
 66
1
 10
0
 20
0
 30
0
  0
VERTEX
  8
LAYER_1
 10
162.9001
 20
-212.9626
  0
VERTEX
  8
LAYER_1
 10
163.4401
 20
-212.6508
  0
VERTEX
  8
LAYER_1
 10
166.1401
 20
-212.6508
  0
VERTEX
  8
LAYER_1
 10
166.6801
 20
-212.9626
  0
SEQEND
  0
POLYLINE
  8
LAYER_1
 40
0.1058
 41
0.1058
 66
1
 10
0
 20
0
 30
0
  0
VERTEX
  8
LAYER_1
 10
163.4401
 20
-212.1108
  0
VERTEX
  8
LAYER_1
 10
163.4401
 20
-212.0208
  0
VERTEX
  8
LAYER_1
 10
163.1701
 20
-212.0208
  0
VERTEX
  8
LAYER_1
 10
163.1701
 20
-211.3908
  0
VERTEX
  8
LAYER_1
 10
164.0701
 20
-211.3908
  0
SEQEND
  0
POLYLINE
  8
LAYER_1
 40
0.1058
 41
0.1058
 66
1
 10
0
 20
0
 30
0
  0
VERTEX
  8
LAYER_1
 10
82.4388
 20
-212.1108
  0
VERTEX
  8
LAYER_1
 10
82.4388
 20
-212.0208
  0
SEQEND
  0
POLYLINE
  8
LAYER_1
 40
0.1058
 41
0.1058
 66
1
 10
0
 20
0
 30
0
  0
VERTEX
  8
LAYER_1
 10
84.5551
 20
-212.6508
  0
VERTEX
  8
LAYER_1
 10
82.4388
 20
-212.6508
  0
VERTEX
  8
LAYER_1
 10
81.8988
 20
-212.9626
  0
SEQEND
  0
POLYLINE
  8
LAYER_1
 40
0.1058
 41
0.1058
 66
1
 10
0
 20
0
 30
0
  0
VERTEX
  8
LAYER_1
 10
84.685
 20
-212.9626
  0
VERTEX
  8
LAYER_1
 10
81.8988
 20
-212.9626
  0
VERTEX
  8
LAYER_1
 10
81.8988
 20
-215.5308
  0
SEQEND
  0
POLYLINE
  8
LAYER_1
 40
0.1058
 41
0.1058
 66
1
 10
0
 20
0
 30
0
  0
VERTEX
  8
LAYER_1
 10
85.9488
 20
-217.4208
  0
VERTEX
  8
LAYER_1
 10
85.9488
 20
-215.9808
  0
SEQEND
  0
POLYLINE
  8
LAYER_1
 40
0.1058
 41
0.1058
 66
1
 10
0
 20
0
 30
0
  0
VERTEX
  8
LAYER_1
 10
85.6788
 20
-215.5308
  0
VERTEX
  8
LAYER_1
 10
85.9488
 20
-215.8008
  0
VERTEX
  8
LAYER_1
 10
85.9488
 20
-215.9808
  0
VERTEX
  8
LAYER_1
 10
85.6482
 20
-215.9808
  0
SEQEND
  0
POLYLINE
  8
LAYER_1
 40
0.1058
 41
0.1058
 66
1
 10
0
 20
0
 30
0
  0
VERTEX
  8
LAYER_1
 10
85.6788
 20
-213.7848
  0
VERTEX
  8
LAYER_1
 10
85.6788
 20
-215.5308
  0
VERTEX
  8
LAYER_1
 10
83.7888
 20
-215.5308
  0
VERTEX
  8
LAYER_1
 10
81.8988
 20
-215.5308
  0
VERTEX
  8
LAYER_1
 10
81.6288
 20
-215.8008
  0
VERTEX
  8
LAYER_1
 10
81.6288
 20
-215.9808
  0
SEQEND
  0
POLYLINE
  8
LAYER_1
 40
0.1058
 41
0.1058
 66
1
 10
0
 20
0
 30
0
  0
VERTEX
  8
LAYER_1
 10
84.4974
 20
-211.3908
  0
VERTEX
  8
LAYER_1
 10
82.1688
 20
-211.3908
  0
VERTEX
  8
LAYER_1
 10
82.1688
 20
-212.0208
  0
VERTEX
  8
LAYER_1
 10
84.4974
 20
-212.0208
  0
SEQEND
  0
POLYLINE
  8
LAYER_1
 40
0.1058
 41
0.1058
 66
1
 10
0
 20
0
 30
0
  0
VERTEX
  8
LAYER_1
 10
165.0907
 20
-217.4208
 42
0.1139664184
  0
VERTEX
  8
LAYER_1
 10
165.8701
 20
-217.6008
 42
0.1139665946
  0
VERTEX
  8
LAYER_1
 10
166.6495
 20
-217.4208
  0
SEQEND
  0
POLYLINE
  8
LAYER_1
 40
0.1058
 41
0.1058
 66
1
 10
0
 20
0
 30
0
  0
VERTEX
  8
LAYER_1
 10
165.0907
 20
-215.9808
 42
-0.1139679299
  0
VERTEX
  8
LAYER_1
 10
165.8701
 20
-215.8008
 42
-0.1139681057
  0
VERTEX
  8
LAYER_1
 10
166.6495
 20
-215.9808
  0
VERTEX
  8
LAYER_1
 10
166.6495
 20
-217.4208
  0
VERTEX
  8
LAYER_1
 10
166.9501
 20
-217.4208
  0
SEQEND
  0
POLYLINE
  8
LAYER_1
 40
0.1058
 41
0.1058
 66
1
 10
0
 20
0
 30
0
  0
VERTEX
  8
LAYER_1
 10
162.9307
 20
-217.4208
 42
0.1139664184
  0
VERTEX
  8
LAYER_1
 10
163.7101
 20
-217.6008
 42
0.1139665946
  0
VERTEX
  8
LAYER_1
 10
164.4895
 20
-217.4208
  0
SEQEND
  0
POLYLINE
  8
LAYER_1
 40
0.1058
 41
0.1058
 66
1
 10
0
 20
0
 30
0
  0
VERTEX
  8
LAYER_1
 10
164.4895
 20
-215.9808
  0
VERTEX
  8
LAYER_1
 10
165.0907
 20
-215.9808
  0
VERTEX
  8
LAYER_1
 10
165.0907
 20
-217.4208
  0
VERTEX
  8
LAYER_1
 10
164.4895
 20
-217.4208
  0
VERTEX
  8
LAYER_1
 10
164.4895
 20
-215.9808
 42
0.1139681057
  0
VERTEX
  8
LAYER_1
 10
163.7101
 20
-215.8008
 42
0.1139679299
  0
VERTEX
  8
LAYER_1
 10
162.9307
 20
-215.9808
  0
VERTEX
  8
LAYER_1
 10
162.9307
 20
-217.4208
  0
VERTEX
  8
LAYER_1
 10
162.6301
 20
-217.4208
  0
VERTEX
  8
LAYER_1
 10
162.9001
 20
-217.6908
  0
VERTEX
  8
LAYER_1
 10
164.7901
 20
-217.6908
  0
VERTEX
  8
LAYER_1
 10
166.6801
 20
-217.6908
  0
VERTEX
  8
LAYER_1
 10
166.9501
 20
-217.4208
  0
VERTEX
  8
LAYER_1
 10
166.9501
 20
-216.2508
  0
VERTEX
  8
LAYER_1
 10
166.9501
 20
-215.9808
  0
VERTEX
  8
LAYER_1
 10
166.9501
 20
-215.8008
  0
VERTEX
  8
LAYER_1
 10
166.6801
 20
-215.5308
  0
VERTEX
  8
LAYER_1
 10
166.6801
 20
-212.9626
  0
VERTEX
  8
LAYER_1
 10
162.9001
 20
-212.9626
  0
VERTEX
  8
LAYER_1
 10
162.9001
 20
-215.5308
  0
VERTEX
  8
LAYER_1
 10
162.6301
 20
-215.8008
  0
VERTEX
  8
LAYER_1
 10
162.6301
 20
-215.9808
  0
VERTEX
  8
LAYER_1
 10
162.9307
 20
-215.9808
  0
SEQEND
  0
POLYLINE
  8
LAYER_1
 40
0.1058
 41
0.1058
 66
1
 10
0
 20
0
 30
0
  0
VERTEX
  8
LAYER_1
 10
83.4882
 20
-215.9808
 42
0.113967477
  0
VERTEX
  8
LAYER_1
 10
82.7088
 20
-215.8008
 42
0.1139813634
  0
VERTEX
  8
LAYER_1
 10
81.9293
 20
-215.9808
  0
SEQEND
  0
POLYLINE
  8
LAYER_1
 40
0.1058
 41
0.1058
 66
1
 10
0
 20
0
 30
0
  0
VERTEX
  8
LAYER_1
 10
81.9293
 20
-217.4208
 42
0.1139798516
  0
VERTEX
  8
LAYER_1
 10
82.7088
 20
-217.6008
 42
0.1139659659
  0
VERTEX
  8
LAYER_1
 10
83.4882
 20
-217.4208
  0
SEQEND
  0
POLYLINE
  8
LAYER_1
 40
0.1058
 41
0.1058
 66
1
 10
0
 20
0
 30
0
  0
VERTEX
  8
LAYER_1
 10
84.0893
 20
-217.4208
 42
0.1139798516
  0
VERTEX
  8
LAYER_1
 10
84.8688
 20
-217.6008
 42
0.1139659659
  0
VERTEX
  8
LAYER_1
 10
85.6482
 20
-217.4208
  0
SEQEND
  0
POLYLINE
  8
LAYER_1
 40
0.1058
 41
0.1058
 66
1
 10
0
 20
0
 30
0
  0
VERTEX
  8
LAYER_1
 10
81.6288
 20
-217.4208
  0
VERTEX
  8
LAYER_1
 10
81.6288
 20
-215.9808
  0
VERTEX
  8
LAYER_1
 10
81.9293
 20
-215.9808
  0
VERTEX
  8
LAYER_1
 10
81.9293
 20
-217.4208
  0
VERTEX
  8
LAYER_1
 10
81.6288
 20
-217.4208
  0
VERTEX
  8
LAYER_1
 10
81.8988
 20
-217.6908
  0
VERTEX
  8
LAYER_1
 10
83.7888
 20
-217.6908
  0
VERTEX
  8
LAYER_1
 10
85.6788
 20
-217.6908
  0
VERTEX
  8
LAYER_1
 10
85.9488
 20
-217.4208
  0
VERTEX
  8
LAYER_1
 10
85.6482
 20
-217.4208
  0
VERTEX
  8
LAYER_1
 10
85.6482
 20
-215.9808
 42
0.113967477
  0
VERTEX
  8
LAYER_1
 10
84.8688
 20
-215.8008
 42
0.1139813634
  0
VERTEX
  8
LAYER_1
 10
84.0893
 20
-215.9808
  0
VERTEX
  8
LAYER_1
 10
84.0893
 20
-217.4208
  0
VERTEX
  8
LAYER_1
 10
83.7888
 20
-217.4208
  0
VERTEX
  8
LAYER_1
 10
83.4882
 20
-217.4208
  0
VERTEX
  8
LAYER_1
 10
83.4882
 20
-215.9808
  0
VERTEX
  8
LAYER_1
 10
83.7888
 20
-215.9808
  0
VERTEX
  8
LAYER_1
 10
84.0893
 20
-215.9808
  0
SEQEND
  0
ENDBLK
  0
BLOCK
  8
LAYER_1
  2
AIGNBL0102003A
 70
64
 10
0
 20
0
 30
0
  3
AIGNBL0102003A
  0
POLYLINE
  8
LAYER_1
 40
0.1058
 41
0.1058
 66
1
 10
0
 20
0
 30
0
  0
VERTEX
  8
LAYER_1
 10
162.9001
 20
-212.9873
  0
VERTEX
  8
LAYER_1
 10
162.8881
 20
-213.0108
  0
SEQEND
  0
POLYLINE
  8
LAYER_1
 40
0.1058
 41
0.1058
 66
1
 10
0
 20
0
 30
0
  0
VERTEX
  8
LAYER_1
 10
166.4417
 20
-212.8249
  0
VERTEX
  8
LAYER_1
 10
166.2841
 20
-212.6074
  0
SEQEND
  0
POLYLINE
  8
LAYER_1
 40
0.1058
 41
0.1058
 66
1
 10
0
 20
0
 30
0
  0
VERTEX
  8
LAYER_1
 10
166.6622
 20
-212.9522
  0
VERTEX
  8
LAYER_1
 10
166.4163
 20
-212.4708
  0
SEQEND
  0
POLYLINE
  8
LAYER_1
 40
0.1058
 41
0.1058
 66
1
 10
0
 20
0
 30
0
  0
VERTEX
  8
LAYER_1
 10
163.3951
 20
-210.1308
  0
VERTEX
  8
LAYER_1
 10
163.3951
 20
-210.4908
  0
SEQEND
  0
POLYLINE
  8
LAYER_1
 40
0.1058
 41
0.1058
 66
1
 10
0
 20
0
 30
0
  0
VERTEX
  8
LAYER_1
 10
166.1851
 20
-210.1308
  0
VERTEX
  8
LAYER_1
 10
166.1851
 20
-210.4908
  0
SEQEND
  0
POLYLINE
  8
LAYER_1
 40
0.1058
 41
0.1058
 66
1
 10
0
 20
0
 30
0
  0
VERTEX
  8
LAYER_1
 10
163.1639
 20
-212.4708
  0
VERTEX
  8
LAYER_1
 10
162.918
 20
-212.9522
  0
SEQEND
  0
POLYLINE
  8
LAYER_1
 40
0.1058
 41
0.1058
 66
1
 10
0
 20
0
 30
0
  0
VERTEX
  8
LAYER_1
 10
163.1639
 20
-210.1308
  0
VERTEX
  8
LAYER_1
 10
163.1639
 20
-212.4708
  0
VERTEX
  8
LAYER_1
 10
163.2961
 20
-212.4708
  0
SEQEND
  0
POLYLINE
  8
LAYER_1
 40
0.1058
 41
0.1058
 66
1
 10
0
 20
0
 30
0
  0
VERTEX
  8
LAYER_1
 10
166.6921
 20
-213.0108
  0
VERTEX
  8
LAYER_1
 10
166.6801
 20
-212.9873
  0
SEQEND
  0
POLYLINE
  8
LAYER_1
 40
0.1058
 41
0.1058
 66
1
 10
0
 20
0
 30
0
  0
VERTEX
  8
LAYER_1
 10
166.1851
 20
-212.1108
  0
VERTEX
  8
LAYER_1
 10
166.1851
 20
-212.0208
  0
SEQEND
  0
POLYLINE
  8
LAYER_1
 40
0.1058
 41
0.1058
 66
1
 10
0
 20
0
 30
0
  0
VERTEX
  8
LAYER_1
 10
163.3951
 20
-212.0208
  0
VERTEX
  8
LAYER_1
 10
163.3951
 20
-212.1108
  0
SEQEND
  0
POLYLINE
  8
LAYER_1
 40
0.1058
 41
0.1058
 66
1
 10
0
 20
0
 30
0
  0
VERTEX
  8
LAYER_1
 10
166.2841
 20
-212.4708
  0
VERTEX
  8
LAYER_1
 10
166.4163
 20
-212.4708
  0
VERTEX
  8
LAYER_1
 10
166.4163
 20
-210.1308
  0
SEQEND
  0
POLYLINE
  8
LAYER_1
 40
0.1058
 41
0.1058
 66
1
 10
0
 20
0
 30
0
  0
VERTEX
  8
LAYER_1
 10
163.2961
 20
-212.6074
  0
VERTEX
  8
LAYER_1
 10
163.1385
 20
-212.8249
  0
SEQEND
  0
POLYLINE
  8
LAYER_1
 40
0.1058
 41
0.1058
 66
1
 10
0
 20
0
 30
0
  0
VERTEX
  8
LAYER_1
 10
85.5211
 20
-213.3271
  0
VERTEX
  8
LAYER_1
 10
85.5211
 20
-213.6871
  0
SEQEND
  0
POLYLINE
  8
LAYER_1
 40
0.1058
 41
0.1058
 66
1
 10
0
 20
0
 30
0
  0
VERTEX
  8
LAYER_1
 10
85.4771
 20
-210.3478
  0
VERTEX
  8
LAYER_1
 10
85.4771
 20
-212.8678
  0
SEQEND
  0
POLYLINE
  8
LAYER_1
 40
0.1058
 41
0.1058
 66
1
 10
0
 20
0
 30
0
  0
VERTEX
  8
LAYER_1
 10
85.4988
 20
-210.1848
  0
VERTEX
  8
LAYER_1
 10
85.4988
 20
-210.0948
  0
VERTEX
  8
LAYER_1
 10
85.8588
 20
-210.0948
  0
VERTEX
  8
LAYER_1
 10
85.8588
 20
-210.1934
  0
SEQEND
  0
POLYLINE
  8
LAYER_1
 40
0.1058
 41
0.1058
 66
1
 10
0
 20
0
 30
0
  0
VERTEX
  8
LAYER_1
 10
86.2756
 20
-210.256
  0
VERTEX
  8
LAYER_1
 10
86.2756
 20
-213.0648
  0
VERTEX
  8
LAYER_1
 10
85.1001
 20
-213.0648
  0
SEQEND
  0
POLYLINE
  8
LAYER_1
  6
AIGENLINE001
 40
0.1058
 41
0.1058
 66
1
 10
0
 20
0
 30
0
 70
128
  0
VERTEX
  8
LAYER_1
 10
86.6688
 20
-209.8628
  0
VERTEX
  8
LAYER_1
 10
86.6688
 20
-214.1109
  0
SEQEND
  0
POLYLINE
  8
LAYER_1
 40
0.1058
 41
0.1058
 66
1
 10
0
 20
0
 30
0
  0
VERTEX
  8
LAYER_1
 10
166.6801
 20
-213.0108
  0
VERTEX
  8
LAYER_1
 10
167.5119
 20
-213.0108
  0
VERTEX
  8
LAYER_1
 10
167.5119
 20
-210.4908
 42
0.4142590082
  0
VERTEX
  8
LAYER_1
 10
167.1519
 20
-210.1308
  0
VERTEX
  8
LAYER_1
 10
166.5592
 20
-210.1308
  0
VERTEX
  8
LAYER_1
 10
166.1851
 20
-210.1308
  0
VERTEX
  8
LAYER_1
 10
166.1401
 20
-210.1308
  0
SEQEND
  0
POLYLINE
  8
LAYER_1
 40
0.1058
 41
0.1058
 66
1
 10
0
 20
0
 30
0
  0
VERTEX
  8
LAYER_1
 10
163.4401
 20
-210.1308
  0
VERTEX
  8
LAYER_1
 10
163.3951
 20
-210.1308
  0
VERTEX
  8
LAYER_1
 10
163.021
 20
-210.1308
  0
VERTEX
  8
LAYER_1
 10
162.4283
 20
-210.1308
 42
0.4142490877
  0
VERTEX
  8
LAYER_1
 10
162.0683
 20
-210.4908
  0
VERTEX
  8
LAYER_1
 10
162.0683
 20
-213.0108
  0
VERTEX
  8
LAYER_1
 10
162.8881
 20
-213.0108
  0
VERTEX
  8
LAYER_1
 10
162.9001
 20
-213.0108
  0
SEQEND
  0
POLYLINE
  8
LAYER_1
 40
0.1058
 41
0.1058
 66
1
 10
0
 20
0
 30
0
 70
1
  0
VERTEX
  8
LAYER_1
 10
85.6338
 20
-210.1848
  0
VERTEX
  8
LAYER_1
 10
84.6774
 20
-210.1848
 42
0.4142144381
  0
VERTEX
  8
LAYER_1
 10
84.4974
 20
-210.3648
  0
VERTEX
  8
LAYER_1
 10
84.4974
 20
-212.5248
  0
VERTEX
  8
LAYER_1
 10
84.7288
 20
-213.0648
  0
VERTEX
  8
LAYER_1
 10
85.1001
 20
-213.0648
  0
VERTEX
  8
LAYER_1
 10
85.1001
 20
-213.6048
 42
0.2435016205
  0
VERTEX
  8
LAYER_1
 10
85.2551
 20
-213.7844
  0
VERTEX
  8
LAYER_1
 10
85.256
 20
-213.7848
  0
VERTEX
  8
LAYER_1
 10
87.9288
 20
-213.7848
  0
VERTEX
  8
LAYER_1
 10
87.9288
 20
-211.2938
 42
0.2289529744
  0
SEQEND
  0
ENDBLK
  0
BLOCK
  8
LAYER_1
  2
AIGNBL0102003B
 70
64
 10
0
 20
0
 30
0
  3
AIGNBL0102003B
  0
POLYLINE
  8
LAYER_1
 40
0.1058
 41
0.1058
 66
1
 10
0
 20
0
 30
0
  0
VERTEX
  8
LAYER_1
 10
165.5101
 20
-212.1108
  0
VERTEX
  8
LAYER_1
 10
166.2841
 20
-212.1108
  0
VERTEX
  8
LAYER_1
 10
166.2841
 20
-212.6508
  0
VERTEX
  8
LAYER_1
 10
165.5101
 20
-212.6508
  0
SEQEND
  0
POLYLINE
  8
LAYER_1
 40
0.1058
 41
0.1058
 66
1
 10
0
 20
0
 30
0
  0
VERTEX
  8
LAYER_1
 10
165.5101
 20
-210.4908
  0
VERTEX
  8
LAYER_1
 10
166.2841
 20
-210.4908
  0
VERTEX
  8
LAYER_1
 10
166.2841
 20
-211.0308
  0
VERTEX
  8
LAYER_1
 10
165.5101
 20
-211.0308
  0
SEQEND
  0
POLYLINE
  8
LAYER_1
 40
0.1058
 41
0.1058
 66
1
 10
0
 20
0
 30
0
  0
VERTEX
  8
LAYER_1
 10
164.0701
 20
-210.4908
  0
VERTEX
  8
LAYER_1
 10
163.2961
 20
-210.4908
  0
VERTEX
  8
LAYER_1
 10
163.2961
 20
-211.0308
  0
VERTEX
  8
LAYER_1
 10
164.0701
 20
-211.0308
  0
SEQEND
  0
POLYLINE
  8
LAYER_1
 40
0.1058
 41
0.1058
 66
1
 10
0
 20
0
 30
0
  0
VERTEX
  8
LAYER_1
 10
164.0701
 20
-212.1108
  0
VERTEX
  8
LAYER_1
 10
164.0701
 20
-212.6508
  0
VERTEX
  8
LAYER_1
 10
163.2961
 20
-212.6508
  0
VERTEX
  8
LAYER_1
 10
163.2961
 20
-212.1108
  0
VERTEX
  8
LAYER_1
 10
164.0701
 20
-212.1108
  0
VERTEX
  8
LAYER_1
 10
164.0701
 20
-210.4908
  0
VERTEX
  8
LAYER_1
 10
165.5101
 20
-210.4908
  0
VERTEX
  8
LAYER_1
 10
165.5101
 20
-212.6508
  0
VERTEX
  8
LAYER_1
 10
164.0701
 20
-212.6508
  0
SEQEND
  0
POLYLINE
  8
LAYER_1
 40
0.1058
 41
0.1058
 66
1
 10
0
 20
0
 30
0
  0
VERTEX
  8
LAYER_1
 10
84.4974
 20
-210.4908
  0
VERTEX
  8
LAYER_1
 10
81.3048
 20
-210.4908
 42
0.414294247
  0
VERTEX
  8
LAYER_1
 10
81.1248
 20
-210.6708
  0
VERTEX
  8
LAYER_1
 10
81.1248
 20
-212.4708
 42
0.4142548625
  0
VERTEX
  8
LAYER_1
 10
81.3048
 20
-212.6508
  0
VERTEX
  8
LAYER_1
 10
84.5551
 20
-212.6508
  0
SEQEND
  0
POLYLINE
  8
LAYER_1
 40
0.1058
 41
0.1058
 66
1
 10
0
 20
0
 30
0
  0
VERTEX
  8
LAYER_1
 10
84.4974
 20
-211.0308
  0
VERTEX
  8
LAYER_1
 10
81.8988
 20
-211.0308
 42
0.4143144212
  0
VERTEX
  8
LAYER_1
 10
81.7548
 20
-211.1748
  0
VERTEX
  8
LAYER_1
 10
81.7548
 20
-211.9668
 42
0.4142651851
  0
VERTEX
  8
LAYER_1
 10
81.8988
 20
-212.1108
  0
VERTEX
  8
LAYER_1
 10
84.4974
 20
-212.1108
  0
SEQEND
  0
ENDBLK
  0
BLOCK
  8
LAYER_1
  2
AIGNBL0102003C
 70
64
 10
0
 20
0
 30
0
  3
AIGNBL0102003C
  0
POLYLINE
  8
LAYER_1
  6
AIGENLINE001
 40
0.1058
 41
0.1058
 66
1
 10
0
 20
0
 30
0
 70
128
  0
VERTEX
  8
LAYER_1
 10
110.0713
 20
-209.8628
  0
VERTEX
  8
LAYER_1
 10
110.0713
 20
-214.1109
  0
SEQEND
  0
POLYLINE
  8
LAYER_1
 40
0.1058
 41
0.1058
 66
1
 10
0
 20
0
 30
0
  0
VERTEX
  8
LAYER_1
 10
109.2613
 20
-210.1934
  0
VERTEX
  8
LAYER_1
 10
109.2613
 20
-210.0948
  0
VERTEX
  8
LAYER_1
 10
108.9013
 20
-210.0948
  0
VERTEX
  8
LAYER_1
 10
108.9013
 20
-210.1848
  0
SEQEND
  0
POLYLINE
  8
LAYER_1
 40
0.1058
 41
0.1058
 66
1
 10
0
 20
0
 30
0
  0
VERTEX
  8
LAYER_1
 10
108.8796
 20
-210.3478
  0
VERTEX
  8
LAYER_1
 10
108.8796
 20
-212.8678
  0
SEQEND
  0
POLYLINE
  8
LAYER_1
 40
0.1058
 41
0.1058
 66
1
 10
0
 20
0
 30
0
  0
VERTEX
  8
LAYER_1
 10
108.9236
 20
-213.3271
  0
VERTEX
  8
LAYER_1
 10
108.9236
 20
-213.6871
  0
SEQEND
  0
POLYLINE
  8
LAYER_1
 40
0.1058
 41
0.1058
 66
1
 10
0
 20
0
 30
0
  0
VERTEX
  8
LAYER_1
 10
109.6781
 20
-210.256
  0
VERTEX
  8
LAYER_1
 10
109.6781
 20
-213.0648
  0
VERTEX
  8
LAYER_1
 10
108.5026
 20
-213.0648
  0
VERTEX
  8
LAYER_1
 10
108.1313
 20
-213.0648
  0
VERTEX
  8
LAYER_1
 10
107.8999
 20
-212.5248
  0
VERTEX
  8
LAYER_1
 10
107.8999
 20
-210.3648
 42
-0.414212246
  0
VERTEX
  8
LAYER_1
 10
108.0799
 20
-210.1848
  0
VERTEX
  8
LAYER_1
 10
109.0363
 20
-210.1848
 42
-0.2289530203
  0
VERTEX
  8
LAYER_1
 10
111.3313
 20
-211.2938
  0
VERTEX
  8
LAYER_1
 10
111.3313
 20
-213.7848
  0
VERTEX
  8
LAYER_1
 10
108.6585
 20
-213.7848
  0
VERTEX
  8
LAYER_1
 10
108.6576
 20
-213.7844
 42
-0.2435006586
  0
VERTEX
  8
LAYER_1
 10
108.5026
 20
-213.6048
  0
VERTEX
  8
LAYER_1
 10
108.5026
 20
-213.0648
  0
SEQEND
  0
ENDBLK
  0
BLOCK
  8
LAYER_1
  2
AIGNBL0102003D
 70
64
 10
0
 20
0
 30
0
  3
AIGNBL0102003D
  0
POLYLINE
  8
LAYER_1
 40
0.1058
 41
0.1058
 66
1
 10
0
 20
0
 30
0
  0
VERTEX
  8
LAYER_1
 10
107.8999
 20
-211.0308
  0
VERTEX
  8
LAYER_1
 10
105.3013
 20
-211.0308
 42
0.4143116809
  0
VERTEX
  8
LAYER_1
 10
105.1573
 20
-211.1748
  0
VERTEX
  8
LAYER_1
 10
105.1573
 20
-211.9668
 42
0.4142624458
  0
VERTEX
  8
LAYER_1
 10
105.3013
 20
-212.1108
  0
VERTEX
  8
LAYER_1
 10
107.8999
 20
-212.1108
  0
SEQEND
  0
POLYLINE
  8
LAYER_1
 40
0.1058
 41
0.1058
 66
1
 10
0
 20
0
 30
0
  0
VERTEX
  8
LAYER_1
 10
107.8999
 20
-210.4908
  0
VERTEX
  8
LAYER_1
 10
104.7073
 20
-210.4908
 42
0.4142920546
  0
VERTEX
  8
LAYER_1
 10
104.5273
 20
-210.6708
  0
VERTEX
  8
LAYER_1
 10
104.5273
 20
-212.4708
 42
0.4142526708
  0
VERTEX
  8
LAYER_1
 10
104.7073
 20
-212.6508
  0
VERTEX
  8
LAYER_1
 10
107.9576
 20
-212.6508
  0
SEQEND
  0
ENDBLK
  0
BLOCK
  8
LAYER_1
  2
AIGNBL0102003F
 70
64
 10
0
 20
0
 30
0
  3
AIGNBL0102003F
  0
POLYLINE
  8
LAYER_1
 40
0.1058
 41
0.1058
 66
1
 10
0
 20
0
 30
0
  0
VERTEX
  8
LAYER_1
 10
95.9105
 20
-158.3769
  0
VERTEX
  8
LAYER_1
 10
95.7724
 20
-153.6449
  0
SEQEND
  0
POLYLINE
  8
LAYER_1
 40
0.1058
 41
0.1058
 66
1
 10
0
 20
0
 30
0
  0
VERTEX
  8
LAYER_1
 10
96.2319
 20
-153.6315
  0
VERTEX
  8
LAYER_1
 10
96.4921
 20
-153.6239
  0
SEQEND
  0
POLYLINE
  8
LAYER_1
 40
0.1058
 41
0.1058
 66
1
 10
0
 20
0
 30
0
  0
VERTEX
  8
LAYER_1
 10
98.1114
 20
-153.5766
  0
VERTEX
  8
LAYER_1
 10
98.2495
 20
-158.3086
  0
VERTEX
  8
LAYER_1
 10
98.2146
 20
-158.3456
  0
VERTEX
  8
LAYER_1
 10
97.0811
 20
-158.3787
  0
VERTEX
  8
LAYER_1
 10
95.9476
 20
-158.4118
  0
VERTEX
  8
LAYER_1
 10
95.9105
 20
-158.3769
  0
VERTEX
  8
LAYER_1
 10
96.4503
 20
-158.3611
  0
VERTEX
  8
LAYER_1
 10
97.08
 20
-158.3427
  0
VERTEX
  8
LAYER_1
 10
97.7098
 20
-158.3244
  0
VERTEX
  8
LAYER_1
 10
98.2495
 20
-158.3086
  0
SEQEND
  0
POLYLINE
  8
LAYER_1
 40
0.1058
 41
0.1058
 66
1
 10
0
 20
0
 30
0
  0
VERTEX
  8
LAYER_1
 10
98.1017
 20
-153.5769
 42
0.1850240287
  0
VERTEX
  8
LAYER_1
 10
97.8837
 20
-153.4934
 42
0.2001480217
  0
VERTEX
  8
LAYER_1
 10
97.6519
 20
-153.59
  0
SEQEND
  0
POLYLINE
  8
LAYER_1
 40
0.1058
 41
0.1058
 66
1
 10
0
 20
0
 30
0
  0
VERTEX
  8
LAYER_1
 10
95.7821
 20
-153.6446
  0
VERTEX
  8
LAYER_1
 10
95.7724
 20
-153.6449
  0
VERTEX
  8
LAYER_1
 10
95.8597
 20
-153.5523
  0
VERTEX
  8
LAYER_1
 10
96.9393
 20
-153.5208
  0
VERTEX
  8
LAYER_1
 10
98.0188
 20
-153.4893
  0
VERTEX
  8
LAYER_1
 10
98.1114
 20
-153.5766
  0
VERTEX
  8
LAYER_1
 10
98.1017
 20
-153.5769
  0
VERTEX
  8
LAYER_1
 10
98.1621
 20
-155.646
  0
VERTEX
  8
LAYER_1
 10
97.7123
 20
-155.6591
  0
VERTEX
  8
LAYER_1
 10
97.6519
 20
-153.59
  0
VERTEX
  8
LAYER_1
 10
97.3917
 20
-153.5976
 42
0.09244678382
  0
VERTEX
  8
LAYER_1
 10
96.9734
 20
-153.5203
  0
VERTEX
  8
LAYER_1
 10
96.9393
 20
-153.5208
 42
0.09902524475
  0
VERTEX
  8
LAYER_1
 10
96.4921
 20
-153.6239
  0
VERTEX
  8
LAYER_1
 10
96.5525
 20
-155.693
  0
VERTEX
  8
LAYER_1
 10
97.0023
 20
-155.6799
  0
VERTEX
  8
LAYER_1
 10
97.4521
 20
-155.6667
  0
VERTEX
  8
LAYER_1
 10
97.3917
 20
-153.5976
  0
SEQEND
  0
POLYLINE
  8
LAYER_1
 40
0.1058
 41
0.1058
 66
1
 10
0
 20
0
 30
0
 70
1
  0
VERTEX
  8
LAYER_1
 10
95.7821
 20
-153.6446
 42
-0.2001615918
  0
VERTEX
  8
LAYER_1
 10
96.0139
 20
-153.5479
 42
-0.185028954
  0
VERTEX
  8
LAYER_1
 10
96.2319
 20
-153.6315
  0
VERTEX
  8
LAYER_1
 10
96.2923
 20
-155.7006
  0
VERTEX
  8
LAYER_1
 10
95.8425
 20
-155.7137
  0
SEQEND
  0
ENDBLK
  0
BLOCK
  8
LAYER_1
  2
AIGNBL01020040
 70
64
 10
0
 20
0
 30
0
  3
AIGNBL01020040
  0
POLYLINE
  8
LAYER_1
 40
0.1058
 41
0.1058
 66
1
 10
0
 20
0
 30
0
  0
VERTEX
  8
LAYER_1
 10
92.8688
 20
-153.5766
  0
VERTEX
  8
LAYER_1
 10
92.8785
 20
-153.5769
  0
SEQEND
  0
POLYLINE
  8
LAYER_1
 40
0.1058
 41
0.1058
 66
1
 10
0
 20
0
 30
0
  0
VERTEX
  8
LAYER_1
 10
94.4881
 20
-153.6239
  0
VERTEX
  8
LAYER_1
 10
94.7483
 20
-153.6315
  0
SEQEND
  0
POLYLINE
  8
LAYER_1
 40
0.1058
 41
0.1058
 66
1
 10
0
 20
0
 30
0
  0
VERTEX
  8
LAYER_1
 10
95.0697
 20
-158.3769
  0
VERTEX
  8
LAYER_1
 10
94.5299
 20
-158.3611
  0
VERTEX
  8
LAYER_1
 10
93.9002
 20
-158.3427
  0
VERTEX
  8
LAYER_1
 10
93.2704
 20
-158.3244
  0
VERTEX
  8
LAYER_1
 10
92.7307
 20
-158.3086
  0
SEQEND
  0
POLYLINE
  8
LAYER_1
 40
0.1058
 41
0.1058
 66
1
 10
0
 20
0
 30
0
  0
VERTEX
  8
LAYER_1
 10
163.6201
 20
-158.3448
  0
VERTEX
  8
LAYER_1
 10
163.6201
 20
-153.6108
  0
SEQEND
  0
POLYLINE
  8
LAYER_1
 40
0.1058
 41
0.1058
 66
1
 10
0
 20
0
 30
0
  0
VERTEX
  8
LAYER_1
 10
164.0798
 20
-153.6108
  0
VERTEX
  8
LAYER_1
 10
164.3401
 20
-153.6108
  0
SEQEND
  0
POLYLINE
  8
LAYER_1
 40
0.1058
 41
0.1058
 66
1
 10
0
 20
0
 30
0
  0
VERTEX
  8
LAYER_1
 10
165.9601
 20
-153.6108
  0
VERTEX
  8
LAYER_1
 10
165.9601
 20
-158.3448
  0
VERTEX
  8
LAYER_1
 10
165.9241
 20
-158.3808
  0
VERTEX
  8
LAYER_1
 10
164.7901
 20
-158.3808
  0
VERTEX
  8
LAYER_1
 10
163.6561
 20
-158.3808
  0
VERTEX
  8
LAYER_1
 10
163.6201
 20
-158.3448
  0
VERTEX
  8
LAYER_1
 10
164.1601
 20
-158.3448
  0
VERTEX
  8
LAYER_1
 10
164.7901
 20
-158.3448
  0
VERTEX
  8
LAYER_1
 10
165.4201
 20
-158.3448
  0
VERTEX
  8
LAYER_1
 10
165.9601
 20
-158.3448
  0
SEQEND
  0
POLYLINE
  8
LAYER_1
 40
0.1058
 41
0.1058
 66
1
 10
0
 20
0
 30
0
  0
VERTEX
  8
LAYER_1
 10
93.5885
 20
-153.5976
  0
VERTEX
  8
LAYER_1
 10
93.3283
 20
-153.59
 42
0.2001509019
  0
VERTEX
  8
LAYER_1
 10
93.0965
 20
-153.4934
 42
0.1850215536
  0
VERTEX
  8
LAYER_1
 10
92.8785
 20
-153.5769
  0
VERTEX
  8
LAYER_1
 10
92.8181
 20
-155.646
  0
VERTEX
  8
LAYER_1
 10
93.2679
 20
-155.6591
  0
VERTEX
  8
LAYER_1
 10
93.3283
 20
-153.59
  0
SEQEND
  0
POLYLINE
  8
LAYER_1
 40
0.1058
 41
0.1058
 66
1
 10
0
 20
0
 30
0
 70
1
  0
VERTEX
  8
LAYER_1
 10
93.5885
 20
-153.5976
 42
-0.09244678382
  0
VERTEX
  8
LAYER_1
 10
94.0068
 20
-153.5203
  0
VERTEX
  8
LAYER_1
 10
94.0409
 20
-153.5208
 42
-0.09902547653
  0
VERTEX
  8
LAYER_1
 10
94.4881
 20
-153.6239
  0
VERTEX
  8
LAYER_1
 10
94.4277
 20
-155.693
  0
VERTEX
  8
LAYER_1
 10
93.9779
 20
-155.6799
  0
VERTEX
  8
LAYER_1
 10
93.5281
 20
-155.6667
  0
SEQEND
  0
POLYLINE
  8
LAYER_1
 40
0.1058
 41
0.1058
 66
1
 10
0
 20
0
 30
0
  0
VERTEX
  8
LAYER_1
 10
95.2078
 20
-153.6449
  0
VERTEX
  8
LAYER_1
 10
95.1205
 20
-153.5523
  0
VERTEX
  8
LAYER_1
 10
94.0409
 20
-153.5208
  0
VERTEX
  8
LAYER_1
 10
92.9614
 20
-153.4893
  0
VERTEX
  8
LAYER_1
 10
92.8688
 20
-153.5766
  0
VERTEX
  8
LAYER_1
 10
92.7307
 20
-158.3086
  0
VERTEX
  8
LAYER_1
 10
92.7656
 20
-158.3456
  0
VERTEX
  8
LAYER_1
 10
93.8991
 20
-158.3787
  0
VERTEX
  8
LAYER_1
 10
95.0326
 20
-158.4118
  0
VERTEX
  8
LAYER_1
 10
95.0697
 20
-158.3769
  0
VERTEX
  8
LAYER_1
 10
95.2078
 20
-153.6449
  0
VERTEX
  8
LAYER_1
 10
95.1981
 20
-153.6446
 42
0.200164469
  0
VERTEX
  8
LAYER_1
 10
94.9663
 20
-153.5479
 42
0.1850264808
  0
VERTEX
  8
LAYER_1
 10
94.7483
 20
-153.6315
  0
VERTEX
  8
LAYER_1
 10
94.6879
 20
-155.7006
  0
VERTEX
  8
LAYER_1
 10
95.1377
 20
-155.7137
  0
VERTEX
  8
LAYER_1
 10
95.1981
 20
-153.6446
  0
SEQEND
  0
POLYLINE
  8
LAYER_1
 40
0.1058
 41
0.1058
 66
1
 10
0
 20
0
 30
0
  0
VERTEX
  8
LAYER_1
 10
165.9504
 20
-153.6108
 42
0.1925920002
  0
VERTEX
  8
LAYER_1
 10
165.7254
 20
-153.5208
 42
0.1925860662
  0
VERTEX
  8
LAYER_1
 10
165.5004
 20
-153.6108
  0
SEQEND
  0
POLYLINE
  8
LAYER_1
 40
0.1058
 41
0.1058
 66
1
 10
0
 20
0
 30
0
  0
VERTEX
  8
LAYER_1
 10
163.6298
 20
-153.6108
  0
VERTEX
  8
LAYER_1
 10
163.6201
 20
-153.6108
  0
VERTEX
  8
LAYER_1
 10
163.7101
 20
-153.5208
  0
VERTEX
  8
LAYER_1
 10
164.7901
 20
-153.5208
  0
VERTEX
  8
LAYER_1
 10
165.8701
 20
-153.5208
  0
VERTEX
  8
LAYER_1
 10
165.9601
 20
-153.6108
  0
VERTEX
  8
LAYER_1
 10
165.9504
 20
-153.6108
  0
VERTEX
  8
LAYER_1
 10
165.9504
 20
-155.6808
  0
VERTEX
  8
LAYER_1
 10
165.5004
 20
-155.6808
  0
VERTEX
  8
LAYER_1
 10
165.5004
 20
-153.6108
  0
VERTEX
  8
LAYER_1
 10
165.2401
 20
-153.6108
 42
0.0990206186
  0
VERTEX
  8
LAYER_1
 10
164.7901
 20
-153.5208
 42
0.09902041632
  0
VERTEX
  8
LAYER_1
 10
164.3401
 20
-153.6108
  0
VERTEX
  8
LAYER_1
 10
164.3401
 20
-155.6808
  0
VERTEX
  8
LAYER_1
 10
164.7901
 20
-155.6808
  0
VERTEX
  8
LAYER_1
 10
165.2401
 20
-155.6808
  0
VERTEX
  8
LAYER_1
 10
165.2401
 20
-153.6108
  0
SEQEND
  0
POLYLINE
  8
LAYER_1
 40
0.1058
 41
0.1058
 66
1
 10
0
 20
0
 30
0
 70
1
  0
VERTEX
  8
LAYER_1
 10
163.6298
 20
-153.6108
 42
-0.1925893272
  0
VERTEX
  8
LAYER_1
 10
163.8548
 20
-153.5208
 42
-0.1925887396
  0
VERTEX
  8
LAYER_1
 10
164.0798
 20
-153.6108
  0
VERTEX
  8
LAYER_1
 10
164.0798
 20
-155.6808
  0
VERTEX
  8
LAYER_1
 10
163.6298
 20
-155.6808
  0
SEQEND
  0
ENDBLK
  0
BLOCK
  8
LAYER_1
  2
AIGNBL01020041
 70
64
 10
0
 20
0
 30
0
  3
AIGNBL01020041
  0
POLYLINE
  8
LAYER_1
 40
0.1058
 41
0.1058
 66
1
 10
0
 20
0
 30
0
  0
VERTEX
  8
LAYER_1
 10
93.3212
 20
-153.5208
  0
VERTEX
  8
LAYER_1
 10
93.5098
 20
-147.9483
  0
SEQEND
  0
POLYLINE
  8
LAYER_1
 40
0.1058
 41
0.1058
 66
1
 10
0
 20
0
 30
0
  0
VERTEX
  8
LAYER_1
 10
94.7606
 20
-153.5628
  0
VERTEX
  8
LAYER_1
 10
94.9504
 20
-147.9483
  0
SEQEND
  0
ENDBLK
  0
BLOCK
  8
LAYER_1
  2
AIGNBL01020042
 70
64
 10
0
 20
0
 30
0
  3
AIGNBL01020042
  0
POLYLINE
  8
LAYER_1
 40
0.1058
 41
0.1058
 66
1
 10
0
 20
0
 30
0
  0
VERTEX
  8
LAYER_1
 10
96.2196
 20
-153.5418
  0
VERTEX
  8
LAYER_1
 10
96.0298
 20
-147.9588
  0
SEQEND
  0
POLYLINE
  8
LAYER_1
 40
0.1058
 41
0.1058
 66
1
 10
0
 20
0
 30
0
  0
VERTEX
  8
LAYER_1
 10
97.659
 20
-153.4998
  0
VERTEX
  8
LAYER_1
 10
97.4704
 20
-147.9588
  0
SEQEND
  0
POLYLINE
  8
LAYER_1
 40
0.1058
 41
0.1058
 66
1
 10
0
 20
0
 30
0
  0
VERTEX
  8
LAYER_1
 10
165.5101
 20
-153.5208
  0
VERTEX
  8
LAYER_1
 10
165.5101
 20
-148.0229
  0
SEQEND
  0
POLYLINE
  8
LAYER_1
 40
0.1058
 41
0.1058
 66
1
 10
0
 20
0
 30
0
  0
VERTEX
  8
LAYER_1
 10
164.0701
 20
-153.5208
  0
VERTEX
  8
LAYER_1
 10
164.0701
 20
-148.0229
  0
SEQEND
  0
ENDBLK
  0
BLOCK
  8
LAYER_1
  2
AIGNBL01010002
 70
64
 10
0
 20
0
 30
0
  3
AIGNBL01010002
  0
INSERT
  8
LAYER_1
  2
AIGNBL01020003
 10
0
 20
0
 30
0
  0
INSERT
  8
LAYER_1
  2
AIGNBL0102000C
 10
0
 20
0
 30
0
  0
ENDBLK
  0
BLOCK
  8
LAYER_1
  2
AIGNBL01010024
 70
64
 10
0
 20
0
 30
0
  3
AIGNBL01010024
  0
POLYLINE
  8
LAYER_1
 40
0.1058
 41
0.1058
 66
1
 10
0
 20
0
 30
0
  0
VERTEX
  8
LAYER_1
 10
175.0224
 20
-33.824
  0
VERTEX
  8
LAYER_1
 10
164.8004
 20
-23.6008
  0
SEQEND
  0
TEXT
  8
LAYER_1
 10
173.2384
 20
-39.753
 11
173.2384
 21
-39.753
 40
5.5886
 41
0.5
 72
1
  1
ÉàÉ­ÄµéÞòté»îè
  0
TEXT
  8
LAYER_1
 10
173.9359
 20
-45.8909
 11
173.9359
 21
-45.8909
 40
6.6504
 41
0.5
 72
1
  1
33-35
  0
CIRCLE
  8
LAYER_1
 10
168.5261
 20
-27.2136
 40
3.6736
  0
POLYLINE
  8
LAYER_1
 40
0.1058
 41
0.1058
 66
1
 10
0
 20
0
 30
0
  0
VERTEX
  8
LAYER_1
 10
160.9136
 20
-27.226
  0
VERTEX
  8
LAYER_1
 10
165.6612
 20
-27.2185
  0
SEQEND
  0
POLYLINE
  8
LAYER_1
 40
0.1058
 41
0.1058
 66
1
 10
0
 20
0
 30
0
  0
VERTEX
  8
LAYER_1
 10
166.6013
 20
-27.2161
  0
VERTEX
  8
LAYER_1
 10
167.5835
 20
-27.2161
  0
SEQEND
  0
POLYLINE
  8
LAYER_1
 40
0.1058
 41
0.1058
 66
1
 10
0
 20
0
 30
0
  0
VERTEX
  8
LAYER_1
 10
168.5261
 20
-27.2136
  0
VERTEX
  8
LAYER_1
 10
173.2712
 20
-27.2062
  0
SEQEND
  0
POLYLINE
  8
LAYER_1
 40
0.1058
 41
0.1058
 66
1
 10
0
 20
0
 30
0
  0
VERTEX
  8
LAYER_1
 10
168.5534
 20
-20.1268
  0
VERTEX
  8
LAYER_1
 10
168.536
 20
-24.3487
  0
SEQEND
  0
POLYLINE
  8
LAYER_1
 40
0.1058
 41
0.1058
 66
1
 10
0
 20
0
 30
0
  0
VERTEX
  8
LAYER_1
 10
168.5336
 20
-25.2887
  0
VERTEX
  8
LAYER_1
 10
168.5286
 20
-26.2722
  0
SEQEND
  0
POLYLINE
  8
LAYER_1
 40
0.1058
 41
0.1058
 66
1
 10
0
 20
0
 30
0
  0
VERTEX
  8
LAYER_1
 10
168.5261
 20
-27.2136
  0
VERTEX
  8
LAYER_1
 10
168.5087
 20
-31.9599
  0
SEQEND
  0
ENDBLK
  0
BLOCK
  8
LAYER_1
  2
AIGNBL01010025
 70
64
 10
0
 20
0
 30
0
  3
AIGNBL01010025
  0
POLYLINE
  8
LAYER_1
 40
0.1058
 41
0.1058
 66
1
 10
0
 20
0
 30
0
  0
VERTEX
  8
LAYER_1
 10
93.9601
 20
-90.1788
  0
VERTEX
  8
LAYER_1
 10
93.9601
 20
-91.1688
  0
SEQEND
  0
POLYLINE
  8
LAYER_1
 40
0.1058
 41
0.1058
 66
1
 10
0
 20
0
 30
0
  0
VERTEX
  8
LAYER_1
 10
97.0201
 20
-90.1788
  0
VERTEX
  8
LAYER_1
 10
97.0201
 20
-91.1688
  0
SEQEND
  0
POLYLINE
  8
LAYER_1
 40
0.1058
 41
0.1058
 66
1
 10
0
 20
0
 30
0
  0
VERTEX
  8
LAYER_1
 10
93.3301
 20
-34.059
  0
VERTEX
  8
LAYER_1
 10
97.6501
 20
-34.059
  0
SEQEND
  0
POLYLINE
  8
LAYER_1
 40
0.1058
 41
0.1058
 66
1
 10
0
 20
0
 30
0
  0
VERTEX
  8
LAYER_1
 10
162.9994
 20
-90.1788
 42
-0.4040314656
  0
VERTEX
  8
LAYER_1
 10
163.2692
 20
-90.4394
  0
VERTEX
  8
LAYER_1
 10
163.2947
 20
-91.1688
  0
SEQEND
  0
POLYLINE
  8
LAYER_1
 40
0.1058
 41
0.1058
 66
1
 10
0
 20
0
 30
0
  0
VERTEX
  8
LAYER_1
 10
163.9339
 20
-91.4388
  0
VERTEX
  8
LAYER_1
 10
163.9361
 20
-91.4388
  0
SEQEND
  0
POLYLINE
  8
LAYER_1
 40
0.1058
 41
0.1058
 66
1
 10
0
 20
0
 30
0
  0
VERTEX
  8
LAYER_1
 10
166.9201
 20
-88.7562
 42
0.2820891544
  0
VERTEX
  8
LAYER_1
 10
166.7643
 20
-88.9915
  0
VERTEX
  8
LAYER_1
 10
166.7243
 20
-90.1367
  0
VERTEX
  8
LAYER_1
 10
166.6883
 20
-91.1688
  0
SEQEND
  0
POLYLINE
  8
LAYER_1
 40
0.1058
 41
0.1058
 66
1
 10
0
 20
0
 30
0
  0
VERTEX
  8
LAYER_1
 10
98.0101
 20
-89.7288
  0
VERTEX
  8
LAYER_1
 10
98.0101
 20
-87.7135
  0
VERTEX
  8
LAYER_1
 10
98.0101
 20
-87.1785
 42
0.4141951381
  0
VERTEX
  8
LAYER_1
 10
97.8301
 20
-86.9985
  0
VERTEX
  8
LAYER_1
 10
93.1501
 20
-86.9985
 42
0.4141753026
  0
VERTEX
  8
LAYER_1
 10
92.9701
 20
-87.1785
  0
VERTEX
  8
LAYER_1
 10
92.9701
 20
-87.7135
  0
VERTEX
  8
LAYER_1
 10
92.9701
 20
-89.7288
  0
SEQEND
  0
POLYLINE
  8
LAYER_1
 40
0.1058
 41
0.1058
 66
1
 10
0
 20
0
 30
0
  0
VERTEX
  8
LAYER_1
 10
92.9701
 20
-28.6747
 42
-0.4142154757
  0
VERTEX
  8
LAYER_1
 10
93.1501
 20
-28.4947
  0
VERTEX
  8
LAYER_1
 10
97.8301
 20
-28.4947
 42
-0.4142353169
  0
VERTEX
  8
LAYER_1
 10
98.0101
 20
-28.6747
  0
SEQEND
  0
POLYLINE
  8
LAYER_1
 40
0.1058
 41
0.1058
 66
1
 10
0
 20
0
 30
0
 70
1
  0
VERTEX
  8
LAYER_1
 10
93.1501
 20
-90.1788
 42
-0.414183961
  0
VERTEX
  8
LAYER_1
 10
92.9701
 20
-89.9988
  0
VERTEX
  8
LAYER_1
 10
92.9701
 20
-89.7288
 42
-0.4142233244
  0
VERTEX
  8
LAYER_1
 10
93.1501
 20
-89.5488
  0
VERTEX
  8
LAYER_1
 10
97.8301
 20
-89.5488
 42
-0.4142431668
  0
VERTEX
  8
LAYER_1
 10
98.0101
 20
-89.7288
  0
VERTEX
  8
LAYER_1
 10
98.0101
 20
-89.9988
 42
-0.4142037981
  0
VERTEX
  8
LAYER_1
 10
97.8301
 20
-90.1788
  0
VERTEX
  8
LAYER_1
 10
97.0201
 20
-90.1788
  0
VERTEX
  8
LAYER_1
 10
93.9601
 20
-90.1788
  0
SEQEND
  0
POLYLINE
  8
LAYER_1
 40
0.1058
 41
0.1058
 66
1
 10
0
 20
0
 30
0
 70
1
  0
VERTEX
  8
LAYER_1
 10
164.1586
 20
-90.0439
 42
-0.1095037934
  0
VERTEX
  8
LAYER_1
 10
163.5501
 20
-90.1788
  0
VERTEX
  8
LAYER_1
 10
134.3268
 20
-90.1788
 42
-0.4041145157
  0
VERTEX
  8
LAYER_1
 10
134.1918
 20
-90.0485
  0
VERTEX
  8
LAYER_1
 10
134.1901
 20
-89.9988
  0
VERTEX
  8
LAYER_1
 10
134.2013
 20
-89.6791
 42
-0.4040996247
  0
VERTEX
  8
LAYER_1
 10
134.3362
 20
-89.5488
  0
VERTEX
  8
LAYER_1
 10
163.5301
 20
-89.5488
 42
0.1095367727
  0
VERTEX
  8
LAYER_1
 10
163.9105
 20
-89.4644
  0
VERTEX
  8
LAYER_1
 10
169.1716
 20
-87.0112
  0
VERTEX
  8
LAYER_1
 10
169.2286
 20
-86.9985
 42
-0.2916181256
  0
VERTEX
  8
LAYER_1
 10
169.351
 20
-87.0765
  0
VERTEX
  8
LAYER_1
 10
169.4841
 20
-87.362
  0
VERTEX
  8
LAYER_1
 10
169.4799
 20
-87.4812
 42
-0.2728688833
  0
VERTEX
  8
LAYER_1
 10
169.4021
 20
-87.5988
  0
SEQEND
  0
POLYLINE
  8
LAYER_1
 40
0.1058
 41
0.1058
 66
1
 10
0
 20
0
 30
0
 70
1
  0
VERTEX
  8
LAYER_1
 10
97.8301
 20
-63.5985
 42
0.4142518271
  0
VERTEX
  8
LAYER_1
 10
98.0101
 20
-63.4185
  0
VERTEX
  8
LAYER_1
 10
98.0101
 20
-28.4465
 42
0.4142578739
  0
VERTEX
  8
LAYER_1
 10
97.8301
 20
-28.2665
  0
VERTEX
  8
LAYER_1
 10
93.1501
 20
-28.2665
 42
0.4142380293
  0
VERTEX
  8
LAYER_1
 10
92.9701
 20
-28.4465
  0
VERTEX
  8
LAYER_1
 10
92.9701
 20
-63.4185
 42
0.4142319831
  0
VERTEX
  8
LAYER_1
 10
93.1501
 20
-63.5985
  0
SEQEND
  0
POLYLINE
  8
LAYER_1
  6
AIGENLINE002
 40
0.1058
 41
0.1058
 66
1
 10
0
 20
0
 30
0
 70
128
  0
VERTEX
  8
LAYER_1
 10
98.5501
 20
-39.6223
  0
VERTEX
  8
LAYER_1
 10
115.2184
 20
-56.2906
 42
0.1965510894
  0
VERTEX
  8
LAYER_1
 10
115.3457
 20
-56.3433
 42
0.1967836906
  0
VERTEX
  8
LAYER_1
 10
115.4729
 20
-56.2906
  0
VERTEX
  8
LAYER_1
 10
118.7822
 20
-52.9814
 42
0.1963570263
  0
VERTEX
  8
LAYER_1
 10
118.8349
 20
-52.8541
 42
0.1965939938
  0
VERTEX
  8
LAYER_1
 10
118.7822
 20
-52.7268
  0
VERTEX
  8
LAYER_1
 10
100.7209
 20
-34.6655
  0
SEQEND
  0
POLYLINE
  8
LAYER_1
  6
AIGENLINE002
 40
0.1058
 41
0.1058
 66
1
 10
0
 20
0
 30
0
 70
128
  0
VERTEX
  8
LAYER_1
 10
88.8663
 20
-36.0585
  0
VERTEX
  8
LAYER_1
 10
72.198
 20
-52.7268
 42
0.1965510896
  0
VERTEX
  8
LAYER_1
 10
72.1453
 20
-52.8541
 42
0.196404397
  0
VERTEX
  8
LAYER_1
 10
72.198
 20
-52.9814
  0
VERTEX
  8
LAYER_1
 10
75.5073
 20
-56.2906
 42
0.1966388406
  0
VERTEX
  8
LAYER_1
 10
75.6345
 20
-56.3433
 42
0.1968804326
  0
VERTEX
  8
LAYER_1
 10
75.7618
 20
-56.2906
  0
VERTEX
  8
LAYER_1
 10
93.8231
 20
-38.2293
  0
SEQEND
  0
ENDBLK
  0
BLOCK
  8
LAYER_1
  2
AIGNBL01010026
 70
64
 10
0
 20
0
 30
0
  3
AIGNBL01010026
  0
POLYLINE
  8
LAYER_1
 40
0.1058
 41
0.1058
 66
1
 10
0
 20
0
 30
0
  0
VERTEX
  8
LAYER_1
 10
92.9701
 20
-91.1688
  0
VERTEX
  8
LAYER_1
 10
98.0101
 20
-91.1688
  0
SEQEND
  0
POLYLINE
  8
LAYER_1
 40
0.1058
 41
0.1058
 66
1
 10
0
 20
0
 30
0
  0
VERTEX
  8
LAYER_1
 10
92.9701
 20
-94.9488
  0
VERTEX
  8
LAYER_1
 10
98.0101
 20
-94.9488
  0
VERTEX
  8
LAYER_1
 10
98.0101
 20
-100.3323
  0
VERTEX
  8
LAYER_1
 10
92.9701
 20
-100.3323
  0
VERTEX
  8
LAYER_1
 10
92.9701
 20
-94.9488
  0
VERTEX
  8
LAYER_1
 10
92.9701
 20
-91.1688
  0
VERTEX
  8
LAYER_1
 10
91.5301
 20
-91.1688
  0
VERTEX
  8
LAYER_1
 10
91.5301
 20
-112.7688
  0
VERTEX
  8
LAYER_1
 10
99.4501
 20
-112.7688
  0
VERTEX
  8
LAYER_1
 10
99.4501
 20
-91.1688
  0
VERTEX
  8
LAYER_1
 10
98.0101
 20
-91.1688
  0
VERTEX
  8
LAYER_1
 10
98.0101
 20
-94.9488
  0
SEQEND
  0
POLYLINE
  8
LAYER_1
 40
0.1058
 41
0.1058
 66
1
 10
0
 20
0
 30
0
  0
VERTEX
  8
LAYER_1
 10
139.3525
 20
-94.9488
  0
VERTEX
  8
LAYER_1
 10
139.8277
 20
-94.9488
  0
SEQEND
  0
POLYLINE
  8
LAYER_1
 40
0.1058
 41
0.1058
 66
1
 10
0
 20
0
 30
0
  0
VERTEX
  8
LAYER_1
 10
139.1676
 20
-94.9488
  0
VERTEX
  8
LAYER_1
 10
136.8901
 20
-94.9488
  0
VERTEX
  8
LAYER_1
 10
136.8901
 20
-91.1688
  0
VERTEX
  8
LAYER_1
 10
168.7501
 20
-91.1688
  0
VERTEX
  8
LAYER_1
 10
168.7501
 20
-112.7688
  0
VERTEX
  8
LAYER_1
 10
160.8301
 20
-112.7688
  0
VERTEX
  8
LAYER_1
 10
160.8301
 20
-91.1688
  0
SEQEND
  0
POLYLINE
  8
LAYER_1
 40
0.1058
 41
0.1058
 66
1
 10
0
 20
0
 30
0
  0
VERTEX
  8
LAYER_1
 10
92.9701
 20
-36.8084
 42
0.1826776993
  0
VERTEX
  8
LAYER_1
 10
92.5201
 20
-35.6178
 42
-0.1826761386
  0
VERTEX
  8
LAYER_1
 10
91.5301
 20
-32.9985
 42
-0.22388675
  0
VERTEX
  8
LAYER_1
 10
92.9701
 20
-29.9438
  0
SEQEND
  0
POLYLINE
  8
LAYER_1
 40
0.1058
 41
0.1058
 66
1
 10
0
 20
0
 30
0
  0
VERTEX
  8
LAYER_1
 10
98.0101
 20
-36.8084
 42
-0.182676542
  0
VERTEX
  8
LAYER_1
 10
98.4601
 20
-35.6178
 42
0.1826766641
  0
VERTEX
  8
LAYER_1
 10
99.4501
 20
-32.9985
 42
0.2238873736
  0
VERTEX
  8
LAYER_1
 10
98.0101
 20
-29.9438
  0
SEQEND
  0
POLYLINE
  8
LAYER_1
 40
0.1058
 41
0.1058
 66
1
 10
0
 20
0
 30
0
  0
VERTEX
  8
LAYER_1
 10
160.8301
 20
-100.3488
 42
0.4142145491
  0
VERTEX
  8
LAYER_1
 10
155.4301
 20
-94.9488
  0
VERTEX
  8
LAYER_1
 10
141.1312
 20
-94.9488
  0
SEQEND
  0
ENDBLK
  0
BLOCK
  8
LAYER_1
  2
AIGNBL01010027
 70
64
 10
0
 20
0
 30
0
  3
AIGNBL01010027
  0
POLYLINE
  8
LAYER_1
 40
0.1058
 41
0.1058
 66
1
 10
0
 20
0
 30
0
  0
VERTEX
  8
LAYER_1
 10
91.8451
 20
-139.7688
  0
VERTEX
  8
LAYER_1
 10
91.8451
 20
-140.2188
  0
VERTEX
  8
LAYER_1
 10
99.1351
 20
-140.2188
  0
VERTEX
  8
LAYER_1
 10
99.1351
 20
-139.7688
  0
SEQEND
  0
POLYLINE
  8
LAYER_1
 40
0.1058
 41
0.1058
 66
1
 10
0
 20
0
 30
0
  0
VERTEX
  8
LAYER_1
 10
168.4351
 20
-139.7688
  0
VERTEX
  8
LAYER_1
 10
168.4351
 20
-140.2188
  0
VERTEX
  8
LAYER_1
 10
161.1451
 20
-140.2188
  0
VERTEX
  8
LAYER_1
 10
161.1451
 20
-139.7688
  0
SEQEND
  0
ENDBLK
  0
BLOCK
  8
LAYER_1
  2
AIGNBL01010028
 70
64
 10
0
 20
0
 30
0
  3
AIGNBL01010028
  0
POLYLINE
  8
LAYER_1
 40
0.1058
 41
0.1058
 66
1
 10
0
 20
0
 30
0
  0
VERTEX
  8
LAYER_1
 10
168.7767
 20
-142.2888
  0
VERTEX
  8
LAYER_1
 10
161.9101
 20
-142.2888
  0
VERTEX
  8
LAYER_1
 10
160.2921
 20
-142.2888
  0
VERTEX
  8
LAYER_1
 10
160.2901
 20
-142.3788
  0
SEQEND
  0
POLYLINE
  8
LAYER_1
 40
0.1058
 41
0.1058
 66
1
 10
0
 20
0
 30
0
  0
VERTEX
  8
LAYER_1
 10
161.8651
 20
-142.5588
 42
0.1210566679
  0
VERTEX
  8
LAYER_1
 10
161.9874
 20
-142.5288
  0
VERTEX
  8
LAYER_1
 10
162.029
 20
-142.5186
  0
VERTEX
  8
LAYER_1
 10
162.0709
 20
-142.5289
 42
0.1215221548
  0
VERTEX
  8
LAYER_1
 10
162.1922
 20
-142.5588
  0
VERTEX
  8
LAYER_1
 10
162.3272
 20
-142.5588
 42
0.1012544229
  0
VERTEX
  8
LAYER_1
 10
162.4839
 20
-142.5269
 42
-0.1014277184
  0
VERTEX
  8
LAYER_1
 10
162.7697
 20
-142.4688
 42
-0.1014579402
  0
VERTEX
  8
LAYER_1
 10
163.0555
 20
-142.5269
 42
0.1011217437
  0
VERTEX
  8
LAYER_1
 10
163.2123
 20
-142.5588
  0
VERTEX
  8
LAYER_1
 10
163.4461
 20
-142.5588
 42
0.07338195138
  0
VERTEX
  8
LAYER_1
 10
163.5866
 20
-142.5379
 42
-0.07485403863
  0
VERTEX
  8
LAYER_1
 10
164.0506
 20
-142.4688
 42
-0.07484897745
  0
VERTEX
  8
LAYER_1
 10
164.5146
 20
-142.5379
 42
0.07388665479
  0
VERTEX
  8
LAYER_1
 10
164.6551
 20
-142.5588
  0
VERTEX
  8
LAYER_1
 10
164.7901
 20
-142.5588
  0
VERTEX
  8
LAYER_1
 10
164.9251
 20
-142.5588
 42
0.07338195138
  0
VERTEX
  8
LAYER_1
 10
165.0656
 20
-142.5379
 42
-0.07485403863
  0
VERTEX
  8
LAYER_1
 10
165.5296
 20
-142.4688
 42
-0.07483066917
  0
VERTEX
  8
LAYER_1
 10
165.9937
 20
-142.5379
 42
0.07396573142
  0
VERTEX
  8
LAYER_1
 10
166.1341
 20
-142.5588
  0
VERTEX
  8
LAYER_1
 10
166.368
 20
-142.5588
 42
0.1012544229
  0
VERTEX
  8
LAYER_1
 10
166.5247
 20
-142.5269
 42
-0.1014277184
  0
VERTEX
  8
LAYER_1
 10
166.8105
 20
-142.4688
 42
-0.1014579402
  0
VERTEX
  8
LAYER_1
 10
167.0963
 20
-142.5269
 42
0.1011542818
  0
VERTEX
  8
LAYER_1
 10
167.253
 20
-142.5588
  0
VERTEX
  8
LAYER_1
 10
167.388
 20
-142.5588
 42
0.1215986658
  0
VERTEX
  8
LAYER_1
 10
167.5093
 20
-142.5289
  0
VERTEX
  8
LAYER_1
 10
167.5512
 20
-142.5186
  0
VERTEX
  8
LAYER_1
 10
167.5928
 20
-142.5288
 42
0.1209808473
  0
VERTEX
  8
LAYER_1
 10
167.7151
 20
-142.5588
  0
SEQEND
  0
POLYLINE
  8
LAYER_1
 40
0.1058
 41
0.1058
 66
1
 10
0
 20
0
 30
0
 70
1
  0
VERTEX
  8
LAYER_1
 10
163.5341
 20
-142.3657
  0
VERTEX
  8
LAYER_1
 10
163.4461
 20
-142.3788
  0
VERTEX
  8
LAYER_1
 10
163.2123
 20
-142.3788
  0
VERTEX
  8
LAYER_1
 10
163.1258
 20
-142.3612
 42
0.1014093893
  0
VERTEX
  8
LAYER_1
 10
162.7697
 20
-142.2888
 42
0.1013666268
  0
VERTEX
  8
LAYER_1
 10
162.4136
 20
-142.3612
  0
VERTEX
  8
LAYER_1
 10
162.3272
 20
-142.3788
  0
VERTEX
  8
LAYER_1
 10
162.1922
 20
-142.3788
 42
-0.2517171613
  0
VERTEX
  8
LAYER_1
 10
162.1236
 20
-142.3408
 42
0.2512601165
  0
VERTEX
  8
LAYER_1
 10
162.0295
 20
-142.2888
 42
0.249144277
  0
VERTEX
  8
LAYER_1
 10
161.936
 20
-142.34
 42
-0.2488835174
  0
VERTEX
  8
LAYER_1
 10
161.8651
 20
-142.3788
  0
VERTEX
  8
LAYER_1
 10
161.2351
 20
-142.3788
  0
VERTEX
  8
LAYER_1
 10
161.1056
 20
-142.363
  0
VERTEX
  8
LAYER_1
 10
160.9761
 20
-142.3473
  0
VERTEX
  8
LAYER_1
 10
160.8345
 20
-142.3662
  0
VERTEX
  8
LAYER_1
 10
160.7401
 20
-142.3788
  0
VERTEX
  8
LAYER_1
 10
160.2901
 20
-142.3788
  0
VERTEX
  8
LAYER_1
 10
160.2901
 20
-142.5588
  0
VERTEX
  8
LAYER_1
 10
160.7401
 20
-142.5588
  0
VERTEX
  8
LAYER_1
 10
160.8817
 20
-142.5399
  0
VERTEX
  8
LAYER_1
 10
160.9761
 20
-142.5273
  0
VERTEX
  8
LAYER_1
 10
161.0625
 20
-142.5378
 42
0.06060526101
  0
VERTEX
  8
LAYER_1
 10
161.2351
 20
-142.5588
  0
VERTEX
  8
LAYER_1
 10
161.8651
 20
-142.5588
  0
VERTEX
  8
LAYER_1
 10
167.7151
 20
-142.5588
  0
VERTEX
  8
LAYER_1
 10
168.3451
 20
-142.5588
 42
0.09587398524
  0
VERTEX
  8
LAYER_1
 10
168.6123
 20
-142.5074
 42
-0.09600597839
  0
VERTEX
  8
LAYER_1
 10
168.8128
 20
-142.4688
  0
VERTEX
  8
LAYER_1
 10
169.2901
 20
-142.4688
  0
VERTEX
  8
LAYER_1
 10
169.2901
 20
-142.2888
  0
VERTEX
  8
LAYER_1
 10
168.7767
 20
-142.2888
 42
0.1037987437
  0
VERTEX
  8
LAYER_1
 10
168.5609
 20
-142.3338
 42
-0.1037940452
  0
VERTEX
  8
LAYER_1
 10
168.3451
 20
-142.3788
  0
VERTEX
  8
LAYER_1
 10
167.7151
 20
-142.3788
 42
-0.2495104806
  0
VERTEX
  8
LAYER_1
 10
167.6443
 20
-142.34
 42
0.2489989826
  0
VERTEX
  8
LAYER_1
 10
167.5507
 20
-142.2888
 42
0.2513563537
  0
VERTEX
  8
LAYER_1
 10
167.4566
 20
-142.3408
 42
-0.2520668275
  0
VERTEX
  8
LAYER_1
 10
167.388
 20
-142.3788
  0
VERTEX
  8
LAYER_1
 10
167.253
 20
-142.3788
  0
VERTEX
  8
LAYER_1
 10
167.1666
 20
-142.3612
 42
0.1013687596
  0
VERTEX
  8
LAYER_1
 10
166.8105
 20
-142.2888
 42
0.1013666268
  0
VERTEX
  8
LAYER_1
 10
166.4544
 20
-142.3612
  0
VERTEX
  8
LAYER_1
 10
166.368
 20
-142.3788
  0
VERTEX
  8
LAYER_1
 10
166.1341
 20
-142.3788
  0
VERTEX
  8
LAYER_1
 10
166.0461
 20
-142.3657
 42
0.07493185412
  0
VERTEX
  8
LAYER_1
 10
165.5296
 20
-142.2888
 42
0.07494758751
  0
VERTEX
  8
LAYER_1
 10
165.0132
 20
-142.3657
  0
VERTEX
  8
LAYER_1
 10
164.9251
 20
-142.3788
  0
VERTEX
  8
LAYER_1
 10
164.7901
 20
-142.3788
  0
VERTEX
  8
LAYER_1
 10
164.6551
 20
-142.3788
  0
VERTEX
  8
LAYER_1
 10
164.5671
 20
-142.3657
 42
0.07491082814
  0
VERTEX
  8
LAYER_1
 10
164.0506
 20
-142.2888
 42
0.07491154541
  0
SEQEND
  0
POLYLINE
  8
LAYER_1
 40
0.1058
 41
0.1058
 66
1
 10
0
 20
0
 30
0
  0
VERTEX
  8
LAYER_1
 10
99.4767
 20
-142.2888
 42
0.1037987437
  0
VERTEX
  8
LAYER_1
 10
99.2609
 20
-142.3338
 42
-0.1037940452
  0
VERTEX
  8
LAYER_1
 10
99.0451
 20
-142.3788
  0
VERTEX
  8
LAYER_1
 10
98.4151
 20
-142.3788
 42
-0.2495104806
  0
VERTEX
  8
LAYER_1
 10
98.3443
 20
-142.34
 42
0.2489989826
  0
VERTEX
  8
LAYER_1
 10
98.2507
 20
-142.2888
 42
0.2513563537
  0
VERTEX
  8
LAYER_1
 10
98.1566
 20
-142.3408
 42
-0.2520668275
  0
VERTEX
  8
LAYER_1
 10
98.088
 20
-142.3788
  0
VERTEX
  8
LAYER_1
 10
97.953
 20
-142.3788
  0
VERTEX
  8
LAYER_1
 10
97.8666
 20
-142.3612
 42
0.1013687596
  0
VERTEX
  8
LAYER_1
 10
97.5105
 20
-142.2888
 42
0.1013666268
  0
VERTEX
  8
LAYER_1
 10
97.1544
 20
-142.3612
  0
VERTEX
  8
LAYER_1
 10
97.068
 20
-142.3788
  0
VERTEX
  8
LAYER_1
 10
96.8341
 20
-142.3788
  0
VERTEX
  8
LAYER_1
 10
96.7461
 20
-142.3657
 42
0.07493185412
  0
VERTEX
  8
LAYER_1
 10
96.2296
 20
-142.2888
 42
0.07494758751
  0
VERTEX
  8
LAYER_1
 10
95.7132
 20
-142.3657
  0
VERTEX
  8
LAYER_1
 10
95.6251
 20
-142.3788
  0
VERTEX
  8
LAYER_1
 10
95.4901
 20
-142.3788
  0
VERTEX
  8
LAYER_1
 10
95.3551
 20
-142.3788
  0
VERTEX
  8
LAYER_1
 10
95.2671
 20
-142.3657
 42
0.07491082814
  0
VERTEX
  8
LAYER_1
 10
94.7506
 20
-142.2888
 42
0.07491154541
  0
VERTEX
  8
LAYER_1
 10
94.2341
 20
-142.3657
  0
VERTEX
  8
LAYER_1
 10
94.1461
 20
-142.3788
  0
VERTEX
  8
LAYER_1
 10
93.9123
 20
-142.3788
  0
VERTEX
  8
LAYER_1
 10
93.8258
 20
-142.3612
 42
0.1014093893
  0
VERTEX
  8
LAYER_1
 10
93.4697
 20
-142.2888
 42
0.1013666268
  0
VERTEX
  8
LAYER_1
 10
93.1136
 20
-142.3612
  0
VERTEX
  8
LAYER_1
 10
93.0272
 20
-142.3788
  0
VERTEX
  8
LAYER_1
 10
92.8922
 20
-142.3788
 42
-0.2517171613
  0
VERTEX
  8
LAYER_1
 10
92.8236
 20
-142.3408
 42
0.2512601165
  0
VERTEX
  8
LAYER_1
 10
92.7295
 20
-142.2888
 42
0.249144277
  0
VERTEX
  8
LAYER_1
 10
92.636
 20
-142.34
 42
-0.2488835174
  0
VERTEX
  8
LAYER_1
 10
92.5651
 20
-142.3788
  0
VERTEX
  8
LAYER_1
 10
91.9351
 20
-142.3788
  0
VERTEX
  8
LAYER_1
 10
91.8056
 20
-142.363
  0
VERTEX
  8
LAYER_1
 10
91.6761
 20
-142.3473
  0
VERTEX
  8
LAYER_1
 10
91.5345
 20
-142.3662
  0
VERTEX
  8
LAYER_1
 10
91.4401
 20
-142.3788
  0
VERTEX
  8
LAYER_1
 10
90.9901
 20
-142.3788
  0
SEQEND
  0
POLYLINE
  8
LAYER_1
 40
0.1058
 41
0.1058
 66
1
 10
0
 20
0
 30
0
  0
VERTEX
  8
LAYER_1
 10
98.4151
 20
-142.5588
  0
VERTEX
  8
LAYER_1
 10
99.0451
 20
-142.5588
 42
0.09587398524
  0
VERTEX
  8
LAYER_1
 10
99.3123
 20
-142.5074
 42
-0.09600597839
  0
VERTEX
  8
LAYER_1
 10
99.5128
 20
-142.4688
  0
VERTEX
  8
LAYER_1
 10
99.9901
 20
-142.4688
  0
VERTEX
  8
LAYER_1
 10
99.9901
 20
-142.2888
  0
VERTEX
  8
LAYER_1
 10
99.4767
 20
-142.2888
  0
VERTEX
  8
LAYER_1
 10
92.6101
 20
-142.2888
  0
VERTEX
  8
LAYER_1
 10
90.9921
 20
-142.2888
  0
VERTEX
  8
LAYER_1
 10
90.9901
 20
-142.3788
  0
VERTEX
  8
LAYER_1
 10
90.9901
 20
-142.5588
  0
VERTEX
  8
LAYER_1
 10
91.4401
 20
-142.5588
  0
VERTEX
  8
LAYER_1
 10
91.5817
 20
-142.5399
  0
VERTEX
  8
LAYER_1
 10
91.6761
 20
-142.5273
  0
VERTEX
  8
LAYER_1
 10
91.7625
 20
-142.5378
 42
0.06060526101
  0
VERTEX
  8
LAYER_1
 10
91.9351
 20
-142.5588
  0
VERTEX
  8
LAYER_1
 10
92.5651
 20
-142.5588
  0
VERTEX
  8
LAYER_1
 10
98.4151
 20
-142.5588
 42
-0.1210566679
  0
VERTEX
  8
LAYER_1
 10
98.2928
 20
-142.5288
  0
VERTEX
  8
LAYER_1
 10
98.2512
 20
-142.5186
  0
VERTEX
  8
LAYER_1
 10
98.2093
 20
-142.5289
 42
-0.1215221548
  0
VERTEX
  8
LAYER_1
 10
98.088
 20
-142.5588
  0
VERTEX
  8
LAYER_1
 10
97.953
 20
-142.5588
 42
-0.1012544229
  0
VERTEX
  8
LAYER_1
 10
97.7963
 20
-142.5269
 42
0.1014277184
  0
VERTEX
  8
LAYER_1
 10
97.5105
 20
-142.4688
 42
0.1014579402
  0
VERTEX
  8
LAYER_1
 10
97.2247
 20
-142.5269
 42
-0.1011542818
  0
VERTEX
  8
LAYER_1
 10
97.068
 20
-142.5588
  0
VERTEX
  8
LAYER_1
 10
96.8341
 20
-142.5588
 42
-0.07362474275
  0
VERTEX
  8
LAYER_1
 10
96.6937
 20
-142.5379
 42
0.07484053206
  0
VERTEX
  8
LAYER_1
 10
96.2296
 20
-142.4688
 42
0.07484897745
  0
VERTEX
  8
LAYER_1
 10
95.7656
 20
-142.5379
 42
-0.07388665479
  0
VERTEX
  8
LAYER_1
 10
95.6251
 20
-142.5588
  0
VERTEX
  8
LAYER_1
 10
95.4901
 20
-142.5588
  0
VERTEX
  8
LAYER_1
 10
95.3551
 20
-142.5588
 42
-0.07338195138
  0
VERTEX
  8
LAYER_1
 10
95.2146
 20
-142.5379
 42
0.07485403863
  0
VERTEX
  8
LAYER_1
 10
94.7506
 20
-142.4688
 42
0.07484897745
  0
VERTEX
  8
LAYER_1
 10
94.2866
 20
-142.5379
 42
-0.07388665479
  0
VERTEX
  8
LAYER_1
 10
94.1461
 20
-142.5588
  0
VERTEX
  8
LAYER_1
 10
93.9123
 20
-142.5588
 42
-0.101083704
  0
VERTEX
  8
LAYER_1
 10
93.7555
 20
-142.5269
 42
0.1014277184
  0
VERTEX
  8
LAYER_1
 10
93.4697
 20
-142.4688
 42
0.1014579402
  0
VERTEX
  8
LAYER_1
 10
93.1839
 20
-142.5269
 42
-0.1011542818
  0
VERTEX
  8
LAYER_1
 10
93.0272
 20
-142.5588
  0
VERTEX
  8
LAYER_1
 10
92.8922
 20
-142.5588
 42
-0.1215986658
  0
VERTEX
  8
LAYER_1
 10
92.7709
 20
-142.5289
  0
VERTEX
  8
LAYER_1
 10
92.729
 20
-142.5186
  0
VERTEX
  8
LAYER_1
 10
92.6874
 20
-142.5288
 42
-0.1209808473
  0
VERTEX
  8
LAYER_1
 10
92.5651
 20
-142.5588
  0
SEQEND
  0
ENDBLK
  0
BLOCK
  8
LAYER_1
  2
AIGNBL01010029
 70
64
 10
0
 20
0
 30
0
  3
AIGNBL01010029
  0
POLYLINE
  8
LAYER_1
 40
0.1058
 41
0.1058
 66
1
 10
0
 20
0
 30
0
 70
1
  0
VERTEX
  8
LAYER_1
 10
160.8301
 20
-139.7688
  0
VERTEX
  8
LAYER_1
 10
168.7501
 20
-139.7688
  0
VERTEX
  8
LAYER_1
 10
168.7501
 20
-113.6688
  0
VERTEX
  8
LAYER_1
 10
160.8301
 20
-113.6688
  0
SEQEND
  0
POLYLINE
  8
LAYER_1
 40
0.1058
 41
0.1058
 66
1
 10
0
 20
0
 30
0
 70
1
  0
VERTEX
  8
LAYER_1
 10
99.4501
 20
-113.6688
  0
VERTEX
  8
LAYER_1
 10
99.4501
 20
-139.7688
  0
VERTEX
  8
LAYER_1
 10
91.5301
 20
-139.7688
  0
VERTEX
  8
LAYER_1
 10
91.5301
 20
-113.6688
  0
SEQEND
  0
ENDBLK
  0
BLOCK
  8
LAYER_1
  2
AIGNBL0101002A
 70
64
 10
0
 20
0
 30
0
  3
AIGNBL0101002A
  0
POLYLINE
  8
LAYER_1
 40
0.1058
 41
0.1058
 66
1
 10
0
 20
0
 30
0
 70
1
  0
VERTEX
  8
LAYER_1
 10
168.7861
 20
-113.6688
 42
0.4142013565
  0
VERTEX
  8
LAYER_1
 10
168.9301
 20
-113.5248
  0
VERTEX
  8
LAYER_1
 10
168.9301
 20
-112.9128
 42
0.4142505684
  0
VERTEX
  8
LAYER_1
 10
168.7861
 20
-112.7688
  0
VERTEX
  8
LAYER_1
 10
160.7941
 20
-112.7688
 42
0.4142257644
  0
VERTEX
  8
LAYER_1
 10
160.6501
 20
-112.9128
  0
VERTEX
  8
LAYER_1
 10
160.6501
 20
-113.5248
 42
0.4141765612
  0
VERTEX
  8
LAYER_1
 10
160.7941
 20
-113.6688
  0
SEQEND
  0
POLYLINE
  8
LAYER_1
 40
0.1058
 41
0.1058
 66
1
 10
0
 20
0
 30
0
 70
1
  0
VERTEX
  8
LAYER_1
 10
91.4941
 20
-113.6688
 42
-0.4141765613
  0
VERTEX
  8
LAYER_1
 10
91.3501
 20
-113.5248
  0
VERTEX
  8
LAYER_1
 10
91.3501
 20
-112.9128
 42
-0.4142257646
  0
VERTEX
  8
LAYER_1
 10
91.4941
 20
-112.7688
  0
VERTEX
  8
LAYER_1
 10
99.4861
 20
-112.7688
 42
-0.4142505685
  0
VERTEX
  8
LAYER_1
 10
99.6301
 20
-112.9128
  0
VERTEX
  8
LAYER_1
 10
99.6301
 20
-113.5248
 42
-0.4142013565
  0
VERTEX
  8
LAYER_1
 10
99.4861
 20
-113.6688
  0
SEQEND
  0
ENDBLK
  0
BLOCK
  8
LAYER_1
  2
AIGNBL0101002B
 70
64
 10
0
 20
0
 30
0
  3
AIGNBL0101002B
  0
INSERT
  8
LAYER_1
  2
AIGNBL0102002C
 10
0
 20
0
 30
0
  0
INSERT
  8
LAYER_1
  2
AIGNBL0102002D
 10
0
 20
0
 30
0
  0
INSERT
  8
LAYER_1
  2
AIGNBL0102002E
 10
0
 20
0
 30
0
  0
INSERT
  8
LAYER_1
  2
AIGNBL0102002F
 10
0
 20
0
 30
0
  0
INSERT
  8
LAYER_1
  2
AIGNBL01020030
 10
0
 20
0
 30
0
  0
ENDBLK
  0
BLOCK
  8
LAYER_1
  2
AIGNBL01010031
 70
64
 10
0
 20
0
 30
0
  3
AIGNBL01010031
  0
INSERT
  8
LAYER_1
  2
AIGNBL01020032
 10
0
 20
0
 30
0
  0
INSERT
  8
LAYER_1
  2
AIGNBL01020033
 10
0
 20
0
 30
0
  0
INSERT
  8
LAYER_1
  2
AIGNBL01020034
 10
0
 20
0
 30
0
  0
INSERT
  8
LAYER_1
  2
AIGNBL01020035
 10
0
 20
0
 30
0
  0
INSERT
  8
LAYER_1
  2
AIGNBL01020036
 10
0
 20
0
 30
0
  0
ENDBLK
  0
BLOCK
  8
LAYER_1
  2
AIGNBL01010037
 70
64
 10
0
 20
0
 30
0
  3
AIGNBL01010037
  0
INSERT
  8
LAYER_1
  2
AIGNBL01020038
 10
0
 20
0
 30
0
  0
INSERT
  8
LAYER_1
  2
AIGNBL01020039
 10
0
 20
0
 30
0
  0
INSERT
  8
LAYER_1
  2
AIGNBL0102003A
 10
0
 20
0
 30
0
  0
INSERT
  8
LAYER_1
  2
AIGNBL0102003B
 10
0
 20
0
 30
0
  0
INSERT
  8
LAYER_1
  2
AIGNBL0102003C
 10
0
 20
0
 30
0
  0
INSERT
  8
LAYER_1
  2
AIGNBL0102003D
 10
0
 20
0
 30
0
  0
ENDBLK
  0
BLOCK
  8
LAYER_1
  2
AIGNBL0101003E
 70
64
 10
0
 20
0
 30
0
  3
AIGNBL0101003E
  0
INSERT
  8
LAYER_1
  2
AIGNBL0102003F
 10
0
 20
0
 30
0
  0
INSERT
  8
LAYER_1
  2
AIGNBL01020040
 10
0
 20
0
 30
0
  0
INSERT
  8
LAYER_1
  2
AIGNBL01020041
 10
0
 20
0
 30
0
  0
INSERT
  8
LAYER_1
  2
AIGNBL01020042
 10
0
 20
0
 30
0
  0
ENDBLK
  0
BLOCK
  8
LAYER_1
  2
AIGNBL01010043
 70
64
 10
0
 20
0
 30
0
  3
AIGNBL01010043
  0
POLYLINE
  8
LAYER_1
 40
0.1058
 41
0.1058
 66
1
 10
0
 20
0
 30
0
  0
VERTEX
  8
LAYER_1
 10
167.5351
 20
-142.0188
  0
VERTEX
  8
LAYER_1
 10
167.5351
 20
-140.2188
  0
SEQEND
  0
POLYLINE
  8
LAYER_1
 40
0.1058
 41
0.1058
 66
1
 10
0
 20
0
 30
0
  0
VERTEX
  8
LAYER_1
 10
167.6701
 20
-142.0188
  0
VERTEX
  8
LAYER_1
 10
167.6701
 20
-140.2188
  0
SEQEND
  0
POLYLINE
  8
LAYER_1
 40
0.1058
 41
0.1058
 66
1
 10
0
 20
0
 30
0
  0
VERTEX
  8
LAYER_1
 10
162.0451
 20
-142.0188
  0
VERTEX
  8
LAYER_1
 10
162.0451
 20
-140.2188
  0
SEQEND
  0
POLYLINE
  8
LAYER_1
 40
0.1058
 41
0.1058
 66
1
 10
0
 20
0
 30
0
  0
VERTEX
  8
LAYER_1
 10
161.9101
 20
-142.0188
  0
VERTEX
  8
LAYER_1
 10
161.9101
 20
-140.2188
  0
SEQEND
  0
POLYLINE
  8
LAYER_1
 40
0.1058
 41
0.1058
 66
1
 10
0
 20
0
 30
0
  0
VERTEX
  8
LAYER_1
 10
167.5351
 20
-145.2588
  0
VERTEX
  8
LAYER_1
 10
167.5351
 20
-143.6723
  0
SEQEND
  0
POLYLINE
  8
LAYER_1
 40
0.1058
 41
0.1058
 66
1
 10
0
 20
0
 30
0
  0
VERTEX
  8
LAYER_1
 10
162.0451
 20
-145.2588
  0
VERTEX
  8
LAYER_1
 10
162.0451
 20
-143.6723
  0
SEQEND
  0
POLYLINE
  8
LAYER_1
 40
0.1058
 41
0.1058
 66
1
 10
0
 20
0
 30
0
  0
VERTEX
  8
LAYER_1
 10
161.9101
 20
-143.6723
  0
VERTEX
  8
LAYER_1
 10
161.9101
 20
-145.2588
  0
VERTEX
  8
LAYER_1
 10
162.1002
 20
-145.2588
  0
VERTEX
  8
LAYER_1
 10
162.1002
 20
-147.943
  0
VERTEX
  8
LAYER_1
 10
162.1801
 20
-148.0229
  0
VERTEX
  8
LAYER_1
 10
167.4001
 20
-148.0229
  0
VERTEX
  8
LAYER_1
 10
167.4642
 20
-147.9588
  0
VERTEX
  8
LAYER_1
 10
167.4642
 20
-145.2588
  0
VERTEX
  8
LAYER_1
 10
167.6701
 20
-145.2588
  0
VERTEX
  8
LAYER_1
 10
167.6701
 20
-143.6723
  0
SEQEND
  0
POLYLINE
  8
LAYER_1
 40
0.1058
 41
0.1058
 66
1
 10
0
 20
0
 30
0
  0
VERTEX
  8
LAYER_1
 10
92.7451
 20
-147.8238
  0
VERTEX
  8
LAYER_1
 10
92.7451
 20
-143.6723
  0
SEQEND
  0
POLYLINE
  8
LAYER_1
 40
0.1058
 41
0.1058
 66
1
 10
0
 20
0
 30
0
  0
VERTEX
  8
LAYER_1
 10
98.2351
 20
-147.8238
  0
VERTEX
  8
LAYER_1
 10
98.2351
 20
-143.6723
  0
SEQEND
  0
POLYLINE
  8
LAYER_1
 40
0.1058
 41
0.1058
 66
1
 10
0
 20
0
 30
0
  0
VERTEX
  8
LAYER_1
 10
92.6101
 20
-142.0188
  0
VERTEX
  8
LAYER_1
 10
92.6101
 20
-140.2188
  0
SEQEND
  0
POLYLINE
  8
LAYER_1
 40
0.1058
 41
0.1058
 66
1
 10
0
 20
0
 30
0
  0
VERTEX
  8
LAYER_1
 10
92.7451
 20
-142.0188
  0
VERTEX
  8
LAYER_1
 10
92.7451
 20
-140.2188
  0
SEQEND
  0
POLYLINE
  8
LAYER_1
 40
0.1058
 41
0.1058
 66
1
 10
0
 20
0
 30
0
  0
VERTEX
  8
LAYER_1
 10
98.3701
 20
-142.0188
  0
VERTEX
  8
LAYER_1
 10
98.3701
 20
-140.2188
  0
SEQEND
  0
POLYLINE
  8
LAYER_1
 40
0.1058
 41
0.1058
 66
1
 10
0
 20
0
 30
0
  0
VERTEX
  8
LAYER_1
 10
98.2351
 20
-142.0188
  0
VERTEX
  8
LAYER_1
 10
98.2351
 20
-140.2188
  0
SEQEND
  0
POLYLINE
  8
LAYER_1
 40
0.1058
 41
0.1058
 66
1
 10
0
 20
0
 30
0
  0
VERTEX
  8
LAYER_1
 10
98.3701
 20
-143.6723
  0
VERTEX
  8
LAYER_1
 10
98.3701
 20
-147.6888
  0
VERTEX
  8
LAYER_1
 10
98.2351
 20
-147.8238
  0
VERTEX
  8
LAYER_1
 10
98.1001
 20
-147.9588
  0
VERTEX
  8
LAYER_1
 10
93.6052
 20
-147.9588
  0
VERTEX
  8
LAYER_1
 10
92.8801
 20
-147.9588
  0
VERTEX
  8
LAYER_1
 10
92.7451
 20
-147.8238
  0
VERTEX
  8
LAYER_1
 10
92.6101
 20
-147.6888
  0
VERTEX
  8
LAYER_1
 10
92.6101
 20
-143.6723
  0
SEQEND
  0
ENDBLK
  0
BLOCK
  8
LAYER_1
  2
AIGNBL01010044
 70
64
 10
0
 20
0
 30
0
  3
AIGNBL01010044
  0
POLYLINE
  8
LAYER_1
 40
0.1058
 41
0.1058
 66
1
 10
0
 20
0
 30
0
  0
VERTEX
  8
LAYER_1
 10
166.6607
 20
-142.5923
  0
VERTEX
  8
LAYER_1
 10
162.9195
 20
-142.5923
  0
SEQEND
  0
POLYLINE
  8
LAYER_1
 40
0.1058
 41
0.1058
 66
1
 10
0
 20
0
 30
0
  0
VERTEX
  8
LAYER_1
 10
162.9195
 20
-143.6723
  0
VERTEX
  8
LAYER_1
 10
166.6607
 20
-143.6723
  0
VERTEX
  8
LAYER_1
 10
168.5313
 20
-143.6723
  0
VERTEX
  8
LAYER_1
 10
168.5313
 20
-142.5923
  0
VERTEX
  8
LAYER_1
 10
166.6607
 20
-142.5923
  0
VERTEX
  8
LAYER_1
 10
166.6607
 20
-143.6723
  0
SEQEND
  0
POLYLINE
  8
LAYER_1
 40
0.1058
 41
0.1058
 66
1
 10
0
 20
0
 30
0
 70
1
  0
VERTEX
  8
LAYER_1
 10
161.0489
 20
-142.5923
  0
VERTEX
  8
LAYER_1
 10
162.9195
 20
-142.5923
  0
VERTEX
  8
LAYER_1
 10
162.9195
 20
-143.6723
  0
VERTEX
  8
LAYER_1
 10
161.0489
 20
-143.6723
  0
SEQEND
  0
POLYLINE
  8
LAYER_1
 40
0.1058
 41
0.1058
 66
1
 10
0
 20
0
 30
0
  0
VERTEX
  8
LAYER_1
 10
95.4901
 20
-143.6723
  0
VERTEX
  8
LAYER_1
 10
95.4901
 20
-142.5923
  0
SEQEND
  0
POLYLINE
  8
LAYER_1
 40
0.1058
 41
0.1058
 66
1
 10
0
 20
0
 30
0
 70
1
  0
VERTEX
  8
LAYER_1
 10
95.4901
 20
-142.5923
  0
VERTEX
  8
LAYER_1
 10
98.7301
 20
-142.5923
  0
VERTEX
  8
LAYER_1
 10
98.7301
 20
-143.6723
  0
VERTEX
  8
LAYER_1
 10
95.4901
 20
-143.6723
  0
VERTEX
  8
LAYER_1
 10
92.2501
 20
-143.6723
  0
VERTEX
  8
LAYER_1
 10
92.2501
 20
-142.5923
  0
SEQEND
  0
ENDBLK
  0
BLOCK
  8
LAYER_1
  2
AIGNBL01010045
 70
64
 10
0
 20
0
 30
0
  3
AIGNBL01010045
  0
POLYLINE
  8
LAYER_1
 40
0.1058
 41
0.1058
 66
1
 10
0
 20
0
 30
0
 70
1
  0
VERTEX
  8
LAYER_1
 10
161.8651
 20
-142.2888
  0
VERTEX
  8
LAYER_1
 10
168.9301
 20
-142.2888
  0
VERTEX
  8
LAYER_1
 10
168.9301
 20
-142.0188
  0
VERTEX
  8
LAYER_1
 10
167.7151
 20
-142.0188
  0
VERTEX
  8
LAYER_1
 10
160.6501
 20
-142.0188
  0
VERTEX
  8
LAYER_1
 10
160.6501
 20
-142.2888
  0
SEQEND
  0
POLYLINE
  8
LAYER_1
 40
0.1058
 41
0.1058
 66
1
 10
0
 20
0
 30
0
 70
1
  0
VERTEX
  8
LAYER_1
 10
91.3501
 20
-142.2888
  0
VERTEX
  8
LAYER_1
 10
99.6301
 20
-142.2888
  0
VERTEX
  8
LAYER_1
 10
99.6301
 20
-142.0188
  0
VERTEX
  8
LAYER_1
 10
91.3501
 20
-142.0188
  0
SEQEND
  0
ENDBLK
  0
BLOCK
  8
LAYER_1
  2
AIGNBL01010046
 70
64
 10
0
 20
0
 30
0
  3
AIGNBL01010046
  0
POLYLINE
  8
LAYER_1
 40
0.1058
 41
0.1058
 66
1
 10
0
 20
0
 30
0
  0
VERTEX
  8
LAYER_1
 10
140.8392
 20
-94.9488
  0
VERTEX
  8
LAYER_1
 10
141.0615
 20
-94.988
  0
VERTEX
  8
LAYER_1
 10
141.0662
 20
-94.9884
  0
VERTEX
  8
LAYER_1
 10
141.0816
 20
-94.9835
  0
VERTEX
  8
LAYER_1
 10
141.1312
 20
-94.9488
  0
SEQEND
  0
POLYLINE
  8
LAYER_1
 40
0.1058
 41
0.1058
 66
1
 10
0
 20
0
 30
0
  0
VERTEX
  8
LAYER_1
 10
139.1676
 20
-94.9488
  0
VERTEX
  8
LAYER_1
 10
139.3426
 20
-95.0048
  0
VERTEX
  8
LAYER_1
 10
139.3525
 20
-94.9488
  0
SEQEND
  0
POLYLINE
  8
LAYER_1
 40
0.1058
 41
0.1058
 66
1
 10
0
 20
0
 30
0
  0
VERTEX
  8
LAYER_1
 10
139.2712
 20
-94.9488
  0
VERTEX
  8
LAYER_1
 10
139.3484
 20
-94.9718
  0
SEQEND
  0
POLYLINE
  8
LAYER_1
 40
0.1058
 41
0.1058
 66
1
 10
0
 20
0
 30
0
 70
1
  0
VERTEX
  8
LAYER_1
 10
140.3499
 20
-94.9828
  0
VERTEX
  8
LAYER_1
 10
140.2359
 20
-95.018
  0
VERTEX
  8
LAYER_1
 10
140.1292
 20
-95.0115
  0
VERTEX
  8
LAYER_1
 10
140.1344
 20
-94.9821
  0
VERTEX
  8
LAYER_1
 10
140.2531
 20
-94.9491
  0
VERTEX
  8
LAYER_1
 10
140.3547
 20
-94.956
  0
SEQEND
  0
POLYLINE
  8
LAYER_1
 40
0.1058
 41
0.1058
 66
1
 10
0
 20
0
 30
0
 70
1
  0
VERTEX
  8
LAYER_1
 10
140.2065
 20
-95.0502
  0
VERTEX
  8
LAYER_1
 10
139.9908
 20
-95.06
  0
VERTEX
  8
LAYER_1
 10
139.9891
 20
-95.06
  0
VERTEX
  8
LAYER_1
 10
139.9911
 20
-95.0484
  0
VERTEX
  8
LAYER_1
 10
140.1062
 20
-95.0299
  0
VERTEX
  8
LAYER_1
 10
140.2088
 20
-95.0372
  0
SEQEND
  0
POLYLINE
  8
LAYER_1
 40
0.1058
 41
0.1058
 66
1
 10
0
 20
0
 30
0
  0
VERTEX
  8
LAYER_1
 10
139.8093
 20
-95.0531
  0
VERTEX
  8
LAYER_1
 10
139.9416
 20
-95.0595
  0
VERTEX
  8
LAYER_1
 10
139.9438
 20
-95.0471
  0
VERTEX
  8
LAYER_1
 10
139.8414
 20
-95.028
  0
VERTEX
  8
LAYER_1
 10
139.8135
 20
-95.0295
  0
SEQEND
  0
POLYLINE
  8
LAYER_1
 40
0.1058
 41
0.1058
 66
1
 10
0
 20
0
 30
0
  0
VERTEX
  8
LAYER_1
 10
140.7136
 20
-94.9488
  0
VERTEX
  8
LAYER_1
 10
140.6368
 20
-94.9835
  0
VERTEX
  8
LAYER_1
 10
140.5256
 20
-95.0024
  0
VERTEX
  8
LAYER_1
 10
140.5285
 20
-94.986
  0
VERTEX
  8
LAYER_1
 10
140.6252
 20
-94.9488
  0
SEQEND
  0
POLYLINE
  8
LAYER_1
 40
0.1058
 41
0.1058
 66
1
 10
0
 20
0
 30
0
 70
1
  0
VERTEX
  8
LAYER_1
 10
140.082
 20
-95.0099
  0
VERTEX
  8
LAYER_1
 10
139.9706
 20
-95.0297
  0
VERTEX
  8
LAYER_1
 10
139.866
 20
-95.0113
  0
VERTEX
  8
LAYER_1
 10
139.871
 20
-94.9831
  0
VERTEX
  8
LAYER_1
 10
139.9853
 20
-94.9643
  0
VERTEX
  8
LAYER_1
 10
140.0867
 20
-94.9833
  0
SEQEND
  0
POLYLINE
  8
LAYER_1
 40
0.1058
 41
0.1058
 66
1
 10
0
 20
0
 30
0
  0
VERTEX
  8
LAYER_1
 10
140.5668
 20
-94.9488
  0
VERTEX
  8
LAYER_1
 10
140.5067
 20
-94.9746
  0
VERTEX
  8
LAYER_1
 10
140.3978
 20
-94.981
  0
VERTEX
  8
LAYER_1
 10
140.4034
 20
-94.9493
  0
SEQEND
  0
POLYLINE
  8
LAYER_1
 40
0.1058
 41
0.1058
 66
1
 10
0
 20
0
 30
0
  0
VERTEX
  8
LAYER_1
 10
140.168
 20
-94.9488
  0
VERTEX
  8
LAYER_1
 10
140.1137
 20
-94.9645
  0
VERTEX
  8
LAYER_1
 10
140.0227
 20
-94.9488
  0
SEQEND
  0
POLYLINE
  8
LAYER_1
 40
0.1058
 41
0.1058
 66
1
 10
0
 20
0
 30
0
  0
VERTEX
  8
LAYER_1
 10
140.7713
 20
-94.9488
  0
VERTEX
  8
LAYER_1
 10
140.6478
 20
-94.9969
  0
VERTEX
  8
LAYER_1
 10
140.6468
 20
-95.0024
  0
VERTEX
  8
LAYER_1
 10
140.6468
 20
-95.0025
  0
SEQEND
  0
POLYLINE
  8
LAYER_1
 40
0.1058
 41
0.1058
 66
1
 10
0
 20
0
 30
0
  0
VERTEX
  8
LAYER_1
 10
139.8277
 20
-94.9488
  0
VERTEX
  8
LAYER_1
 10
139.8035
 20
-95.086
  0
VERTEX
  8
LAYER_1
 10
139.9908
 20
-95.0933
 42
0.06883036211
  0
VERTEX
  8
LAYER_1
 10
140.6468
 20
-95.0025
  0
VERTEX
  8
LAYER_1
 10
140.6581
 20
-94.9932
  0
SEQEND
  0
ENDBLK
  0
BLOCK
  8
LAYER_1
  2
AIGNBL01010047
 70
64
 10
0
 20
0
 30
0
  3
AIGNBL01010047
  0
POLYLINE
  8
LAYER_1
  6
AIGENLINE002
 40
0.1058
 41
0.1058
 66
1
 10
0
 20
0
 30
0
 70
128
  0
VERTEX
  8
LAYER_1
 10
167.7566
 20
-91.8852
  0
VERTEX
  8
LAYER_1
 10
168.5488
 20
-90.1058
 42
-0.2819712456
  0
VERTEX
  8
LAYER_1
 10
168.7813
 20
-89.946
  0
VERTEX
  8
LAYER_1
 10
171.5162
 20
-89.8027
 42
0.2730026028
  0
VERTEX
  8
LAYER_1
 10
171.6324
 20
-89.7228
  0
VERTEX
  8
LAYER_1
 10
171.681
 20
-89.6138
  0
VERTEX
  8
LAYER_1
 10
171.6645
 20
-89.2993
 42
0.2916641749
  0
VERTEX
  8
LAYER_1
 10
171.5802
 20
-89.1811
  0
VERTEX
  8
LAYER_1
 10
171.5297
 20
-89.1713
  0
VERTEX
  8
LAYER_1
 10
171.5226
 20
-89.1715
  0
VERTEX
  8
LAYER_1
 10
165.7256
 20
-89.4753
  0
VERTEX
  8
LAYER_1
 10
165.6784
 20
-89.4765
 42
-0.0970881982
  0
VERTEX
  8
LAYER_1
 10
165.3413
 20
-89.411
  0
VERTEX
  8
LAYER_1
 10
138.2732
 20
-78.4748
  0
VERTEX
  8
LAYER_1
 10
138.2226
 20
-78.4649
  0
VERTEX
  8
LAYER_1
 10
138.2155
 20
-78.4651
 42
0.2725961722
  0
VERTEX
  8
LAYER_1
 10
138.0993
 20
-78.545
  0
VERTEX
  8
LAYER_1
 10
137.9692
 20
-78.8373
  0
VERTEX
  8
LAYER_1
 10
137.9521
 20
-78.884
  0
VERTEX
  8
LAYER_1
 10
137.944
 20
-78.9302
 42
0.3057054868
  0
VERTEX
  8
LAYER_1
 10
138.0284
 20
-79.0554
  0
VERTEX
  8
LAYER_1
 10
163.599
 20
-89.3865
  0
SEQEND
  0
ENDBLK
  0
BLOCK
  8
LAYER_1
  2
AIGNBL01010048
 70
64
 10
0
 20
0
 30
0
  3
AIGNBL01010048
  0
POLYLINE
  8
LAYER_1
 40
0.1058
 41
0.1058
 66
1
 10
0
 20
0
 30
0
  0
VERTEX
  8
LAYER_1
 10
136.5708
 20
-165.4188
  0
VERTEX
  8
LAYER_1
 10
98.7301
 20
-165.4188
  0
VERTEX
  8
LAYER_1
 10
92.2501
 20
-165.4188
  0
VERTEX
  8
LAYER_1
 10
85.9501
 20
-165.4188
  0
SEQEND
  0
POLYLINE
  8
LAYER_1
 40
0.1058
 41
0.1058
 66
1
 10
0
 20
0
 30
0
  0
VERTEX
  8
LAYER_1
 10
92.2501
 20
-143.6723
  0
VERTEX
  8
LAYER_1
 10
92.2501
 20
-166.3188
  0
SEQEND
  0
POLYLINE
  8
LAYER_1
 40
0.1058
 41
0.1058
 66
1
 10
0
 20
0
 30
0
  0
VERTEX
  8
LAYER_1
 10
98.7301
 20
-143.6723
  0
VERTEX
  8
LAYER_1
 10
98.7301
 20
-166.3188
  0
SEQEND
  0
POLYLINE
  8
LAYER_1
 40
0.05
 41
0.05
 66
1
 10
0
 20
0
 30
0
 70
1
  0
VERTEX
  8
LAYER_1
 10
89.1001
 20
-165.8335
  0
VERTEX
  8
LAYER_1
 10
89.1001
 20
-165.0041
  0
VERTEX
  8
LAYER_1
 10
92.2501
 20
-165.4188
  0
SEQEND
  0
POLYLINE
  8
LAYER_1
 40
0.05
 41
0.05
 66
1
 10
0
 20
0
 30
0
 70
1
  0
VERTEX
  8
LAYER_1
 10
101.8801
 20
-165.0041
  0
VERTEX
  8
LAYER_1
 10
101.8801
 20
-165.8335
  0
VERTEX
  8
LAYER_1
 10
98.7301
 20
-165.4188
  0
SEQEND
  0
ENDBLK
  0
BLOCK
  8
LAYER_1
  2
AIGNBL01010049
 70
64
 10
0
 20
0
 30
0
  3
AIGNBL01010049
  0
POLYLINE
  8
LAYER_1
 40
0.1058
 41
0.1058
 66
1
 10
0
 20
0
 30
0
  0
VERTEX
  8
LAYER_1
 10
164.7901
 20
-104.604
  0
VERTEX
  8
LAYER_1
 10
139.5711
 20
-104.604
  0
SEQEND
  0
POLYLINE
  8
LAYER_1
 40
0.1058
 41
0.1058
 66
1
 10
0
 20
0
 30
0
  0
VERTEX
  8
LAYER_1
 10
164.7901
 20
-103.1208
  0
VERTEX
  8
LAYER_1
 10
164.7901
 20
-105.504
  0
SEQEND
  0
POLYLINE
  8
LAYER_1
 40
0.1058
 41
0.1058
 66
1
 10
0
 20
0
 30
0
  0
VERTEX
  8
LAYER_1
 10
139.5711
 20
-95.2366
  0
VERTEX
  8
LAYER_1
 10
139.5711
 20
-105.504
  0
SEQEND
  0
POLYLINE
  8
LAYER_1
 40
0.05
 41
0.05
 66
1
 10
0
 20
0
 30
0
 70
1
  0
VERTEX
  8
LAYER_1
 10
161.6401
 20
-105.0187
  0
VERTEX
  8
LAYER_1
 10
161.6401
 20
-104.1893
  0
VERTEX
  8
LAYER_1
 10
164.7901
 20
-104.604
  0
SEQEND
  0
POLYLINE
  8
LAYER_1
 40
0.05
 41
0.05
 66
1
 10
0
 20
0
 30
0
 70
1
  0
VERTEX
  8
LAYER_1
 10
142.7211
 20
-104.1893
  0
VERTEX
  8
LAYER_1
 10
142.7211
 20
-105.0187
  0
VERTEX
  8
LAYER_1
 10
139.5711
 20
-104.604
  0
SEQEND
  0
ENDBLK
  0
BLOCK
  8
LAYER_1
  2
AIGNBL0101004A
 70
64
 10
0
 20
0
 30
0
  3
AIGNBL0101004A
  0
POLYLINE
  8
LAYER_1
 40
0.1058
 41
0.1058
 66
1
 10
0
 20
0
 30
0
  0
VERTEX
  8
LAYER_1
 10
177.981
 20
-69.4748
  0
VERTEX
  8
LAYER_1
 10
171.681
 20
-69.4748
  0
VERTEX
  8
LAYER_1
 10
164.7901
 20
-69.4748
  0
VERTEX
  8
LAYER_1
 10
158.4901
 20
-69.4748
  0
SEQEND
  0
POLYLINE
  8
LAYER_1
 40
0.1058
 41
0.1058
 66
1
 10
0
 20
0
 30
0
  0
VERTEX
  8
LAYER_1
 10
164.7901
 20
-88.6043
  0
VERTEX
  8
LAYER_1
 10
164.7901
 20
-68.5748
  0
SEQEND
  0
POLYLINE
  8
LAYER_1
 40
0.1058
 41
0.1058
 66
1
 10
0
 20
0
 30
0
  0
VERTEX
  8
LAYER_1
 10
171.681
 20
-89.6138
  0
VERTEX
  8
LAYER_1
 10
171.681
 20
-68.5748
  0
SEQEND
  0
POLYLINE
  8
LAYER_1
 40
0.05
 41
0.05
 66
1
 10
0
 20
0
 30
0
 70
1
  0
VERTEX
  8
LAYER_1
 10
161.6401
 20
-69.8895
  0
VERTEX
  8
LAYER_1
 10
161.6401
 20
-69.0601
  0
VERTEX
  8
LAYER_1
 10
164.7901
 20
-69.4748
  0
SEQEND
  0
POLYLINE
  8
LAYER_1
 40
0.05
 41
0.05
 66
1
 10
0
 20
0
 30
0
 70
1
  0
VERTEX
  8
LAYER_1
 10
174.831
 20
-69.0601
  0
VERTEX
  8
LAYER_1
 10
174.831
 20
-69.8895
  0
VERTEX
  8
LAYER_1
 10
171.681
 20
-69.4748
  0
SEQEND
  0
ENDBLK
  0
BLOCK
  8
LAYER_1
  2
AIGNBL0101004B
 70
64
 10
0
 20
0
 30
0
  3
AIGNBL0101004B
  0
POLYLINE
  8
LAYER_1
 40
0.1058
 41
0.1058
 66
1
 10
0
 20
0
 30
0
  0
VERTEX
  8
LAYER_1
 10
149.4901
 20
-169.2701
  0
VERTEX
  8
LAYER_1
 10
149.4901
 20
-142.0188
  0
VERTEX
  8
LAYER_1
 10
149.4901
 20
-140.2188
  0
VERTEX
  8
LAYER_1
 10
149.4901
 20
-133.9188
  0
SEQEND
  0
POLYLINE
  8
LAYER_1
 40
0.1058
 41
0.1058
 66
1
 10
0
 20
0
 30
0
  0
VERTEX
  8
LAYER_1
 10
158.4901
 20
-140.2188
  0
VERTEX
  8
LAYER_1
 10
148.5901
 20
-140.2188
  0
SEQEND
  0
POLYLINE
  8
LAYER_1
 40
0.1058
 41
0.1058
 66
1
 10
0
 20
0
 30
0
  0
VERTEX
  8
LAYER_1
 10
158.4901
 20
-142.0188
  0
VERTEX
  8
LAYER_1
 10
148.5901
 20
-142.0188
  0
SEQEND
  0
POLYLINE
  8
LAYER_1
 40
0.05
 41
0.05
 66
1
 10
0
 20
0
 30
0
 70
1
  0
VERTEX
  8
LAYER_1
 10
149.0754
 20
-137.0688
  0
VERTEX
  8
LAYER_1
 10
149.9048
 20
-137.0688
  0
VERTEX
  8
LAYER_1
 10
149.4901
 20
-140.2188
  0
SEQEND
  0
POLYLINE
  8
LAYER_1
 40
0.05
 41
0.05
 66
1
 10
0
 20
0
 30
0
 70
1
  0
VERTEX
  8
LAYER_1
 10
149.9048
 20
-145.1688
  0
VERTEX
  8
LAYER_1
 10
149.0754
 20
-145.1688
  0
VERTEX
  8
LAYER_1
 10
149.4901
 20
-142.0188
  0
SEQEND
  0
ENDBLK
  0
BLOCK
  8
LAYER_1
  2
AIGNBL0101004C
 70
64
 10
0
 20
0
 30
0
  3
AIGNBL0101004C
  0
POLYLINE
  8
LAYER_1
 40
0.1058
 41
0.1058
 66
1
 10
0
 20
0
 30
0
  0
VERTEX
  8
LAYER_1
 10
187.881
 20
-225.3919
  0
VERTEX
  8
LAYER_1
 10
187.881
 20
-216.2508
  0
VERTEX
  8
LAYER_1
 10
187.881
 20
-211.3908
  0
VERTEX
  8
LAYER_1
 10
187.881
 20
-205.0908
  0
SEQEND
  0
POLYLINE
  8
LAYER_1
 40
0.1058
 41
0.1058
 66
1
 10
0
 20
0
 30
0
  0
VERTEX
  8
LAYER_1
 10
166.4101
 20
-211.3908
  0
VERTEX
  8
LAYER_1
 10
188.781
 20
-211.3908
  0
SEQEND
  0
POLYLINE
  8
LAYER_1
 40
0.1058
 41
0.1058
 66
1
 10
0
 20
0
 30
0
  0
VERTEX
  8
LAYER_1
 10
166.9501
 20
-216.2508
  0
VERTEX
  8
LAYER_1
 10
188.781
 20
-216.2508
  0
SEQEND
  0
POLYLINE
  8
LAYER_1
 40
0.05
 41
0.05
 66
1
 10
0
 20
0
 30
0
 70
1
  0
VERTEX
  8
LAYER_1
 10
187.4663
 20
-208.2408
  0
VERTEX
  8
LAYER_1
 10
188.2957
 20
-208.2408
  0
VERTEX
  8
LAYER_1
 10
187.881
 20
-211.3908
  0
SEQEND
  0
POLYLINE
  8
LAYER_1
 40
0.05
 41
0.05
 66
1
 10
0
 20
0
 30
0
 70
1
  0
VERTEX
  8
LAYER_1
 10
188.2957
 20
-219.4008
  0
VERTEX
  8
LAYER_1
 10
187.4663
 20
-219.4008
  0
VERTEX
  8
LAYER_1
 10
187.881
 20
-216.2508
  0
SEQEND
  0
ENDBLK
  0
BLOCK
  8
LAYER_1
  2
AIGNBL0101004D
 70
64
 10
0
 20
0
 30
0
  3
AIGNBL0101004D
  0
POLYLINE
  8
LAYER_1
 40
0.1058
 41
0.1058
 66
1
 10
0
 20
0
 30
0
  0
VERTEX
  8
LAYER_1
 10
187.881
 20
-139.7688
  0
VERTEX
  8
LAYER_1
 10
187.881
 20
-78.4651
  0
SEQEND
  0
POLYLINE
  8
LAYER_1
 40
0.1058
 41
0.1058
 66
1
 10
0
 20
0
 30
0
  0
VERTEX
  8
LAYER_1
 10
168.7501
 20
-139.7688
  0
VERTEX
  8
LAYER_1
 10
188.781
 20
-139.7688
  0
SEQEND
  0
POLYLINE
  8
LAYER_1
 40
0.1058
 41
0.1058
 66
1
 10
0
 20
0
 30
0
  0
VERTEX
  8
LAYER_1
 10
138.2155
 20
-78.4651
  0
VERTEX
  8
LAYER_1
 10
188.781
 20
-78.4651
  0
SEQEND
  0
POLYLINE
  8
LAYER_1
 40
0.05
 41
0.05
 66
1
 10
0
 20
0
 30
0
 70
1
  0
VERTEX
  8
LAYER_1
 10
187.4663
 20
-136.6188
  0
VERTEX
  8
LAYER_1
 10
188.2957
 20
-136.6188
  0
VERTEX
  8
LAYER_1
 10
187.881
 20
-139.7688
  0
SEQEND
  0
POLYLINE
  8
LAYER_1
 40
0.05
 41
0.05
 66
1
 10
0
 20
0
 30
0
 70
1
  0
VERTEX
  8
LAYER_1
 10
188.2957
 20
-81.6151
  0
VERTEX
  8
LAYER_1
 10
187.4663
 20
-81.6151
  0
VERTEX
  8
LAYER_1
 10
187.881
 20
-78.4651
  0
SEQEND
  0
ENDBLK
  0
BLOCK
  8
LAYER_1
  2
AIGNBL0101004E
 70
64
 10
0
 20
0
 30
0
  3
AIGNBL0101004E
  0
POLYLINE
  8
LAYER_1
 40
0.1058
 41
0.1058
 66
1
 10
0
 20
0
 30
0
  0
VERTEX
  8
LAYER_1
 10
187.881
 20
-139.7688
  0
VERTEX
  8
LAYER_1
 10
187.881
 20
-211.3908
  0
SEQEND
  0
POLYLINE
  8
LAYER_1
 40
0.1058
 41
0.1058
 66
1
 10
0
 20
0
 30
0
  0
VERTEX
  8
LAYER_1
 10
168.7501
 20
-139.7688
  0
VERTEX
  8
LAYER_1
 10
188.781
 20
-139.7688
  0
SEQEND
  0
POLYLINE
  8
LAYER_1
 40
0.1058
 41
0.1058
 66
1
 10
0
 20
0
 30
0
  0
VERTEX
  8
LAYER_1
 10
166.4101
 20
-211.3908
  0
VERTEX
  8
LAYER_1
 10
188.781
 20
-211.3908
  0
SEQEND
  0
POLYLINE
  8
LAYER_1
 40
0.05
 41
0.05
 66
1
 10
0
 20
0
 30
0
 70
1
  0
VERTEX
  8
LAYER_1
 10
188.2957
 20
-142.9188
  0
VERTEX
  8
LAYER_1
 10
187.4663
 20
-142.9188
  0
VERTEX
  8
LAYER_1
 10
187.881
 20
-139.7688
  0
SEQEND
  0
POLYLINE
  8
LAYER_1
 40
0.05
 41
0.05
 66
1
 10
0
 20
0
 30
0
 70
1
  0
VERTEX
  8
LAYER_1
 10
187.4663
 20
-208.2408
  0
VERTEX
  8
LAYER_1
 10
188.2957
 20
-208.2408
  0
VERTEX
  8
LAYER_1
 10
187.881
 20
-211.3908
  0
SEQEND
  0
ENDBLK
  0
BLOCK
  8
LAYER_1
  2
AIGNBL0101004F
 70
64
 10
0
 20
0
 30
0
  3
AIGNBL0101004F
  0
POLYLINE
  8
LAYER_1
 40
0.1058
 41
0.1058
 66
1
 10
0
 20
0
 30
0
  0
VERTEX
  8
LAYER_1
 10
104.3101
 20
-78.4748
  0
VERTEX
  8
LAYER_1
 10
98.0101
 20
-78.4748
  0
VERTEX
  8
LAYER_1
 10
92.9701
 20
-78.4748
  0
VERTEX
  8
LAYER_1
 10
86.6701
 20
-78.4748
  0
SEQEND
  0
POLYLINE
  8
LAYER_1
 40
0.1058
 41
0.1058
 66
1
 10
0
 20
0
 30
0
  0
VERTEX
  8
LAYER_1
 10
92.9701
 20
-87.1785
  0
VERTEX
  8
LAYER_1
 10
92.9701
 20
-77.5748
  0
SEQEND
  0
POLYLINE
  8
LAYER_1
 40
0.1058
 41
0.1058
 66
1
 10
0
 20
0
 30
0
  0
VERTEX
  8
LAYER_1
 10
98.0101
 20
-87.1785
  0
VERTEX
  8
LAYER_1
 10
98.0101
 20
-77.5748
  0
SEQEND
  0
POLYLINE
  8
LAYER_1
 40
0.05
 41
0.05
 66
1
 10
0
 20
0
 30
0
 70
1
  0
VERTEX
  8
LAYER_1
 10
89.8201
 20
-78.8895
  0
VERTEX
  8
LAYER_1
 10
89.8201
 20
-78.0601
  0
VERTEX
  8
LAYER_1
 10
92.9701
 20
-78.4748
  0
SEQEND
  0
POLYLINE
  8
LAYER_1
 40
0.05
 41
0.05
 66
1
 10
0
 20
0
 30
0
 70
1
  0
VERTEX
  8
LAYER_1
 10
101.1601
 20
-78.0601
  0
VERTEX
  8
LAYER_1
 10
101.1601
 20
-78.8895
  0
VERTEX
  8
LAYER_1
 10
98.0101
 20
-78.4748
  0
SEQEND
  0
ENDBLK
  0
BLOCK
  8
LAYER_1
  2
AIGNBL01010050
 70
64
 10
0
 20
0
 30
0
  3
AIGNBL01010050
  0
POLYLINE
  8
LAYER_1
 40
0.1058
 41
0.1058
 66
1
 10
0
 20
0
 30
0
  0
VERTEX
  8
LAYER_1
 10
164.7901
 20
-69.4748
  0
VERTEX
  8
LAYER_1
 10
134.1901
 20
-69.4748
  0
SEQEND
  0
POLYLINE
  8
LAYER_1
 40
0.1058
 41
0.1058
 66
1
 10
0
 20
0
 30
0
  0
VERTEX
  8
LAYER_1
 10
164.7901
 20
-88.6043
  0
VERTEX
  8
LAYER_1
 10
164.7901
 20
-68.5748
  0
SEQEND
  0
POLYLINE
  8
LAYER_1
 40
0.1058
 41
0.1058
 66
1
 10
0
 20
0
 30
0
  0
VERTEX
  8
LAYER_1
 10
134.1901
 20
-89.9988
  0
VERTEX
  8
LAYER_1
 10
134.1901
 20
-68.5748
  0
SEQEND
  0
POLYLINE
  8
LAYER_1
 40
0.05
 41
0.05
 66
1
 10
0
 20
0
 30
0
 70
1
  0
VERTEX
  8
LAYER_1
 10
161.6401
 20
-69.8895
  0
VERTEX
  8
LAYER_1
 10
161.6401
 20
-69.0601
  0
VERTEX
  8
LAYER_1
 10
164.7901
 20
-69.4748
  0
SEQEND
  0
POLYLINE
  8
LAYER_1
 40
0.05
 41
0.05
 66
1
 10
0
 20
0
 30
0
 70
1
  0
VERTEX
  8
LAYER_1
 10
137.3401
 20
-69.0601
  0
VERTEX
  8
LAYER_1
 10
137.3401
 20
-69.8895
  0
VERTEX
  8
LAYER_1
 10
134.1901
 20
-69.4748
  0
SEQEND
  0
ENDBLK
  0
BLOCK
  8
LAYER_1
  2
AIGNBL01010051
 70
64
 10
0
 20
0
 30
0
  3
AIGNBL01010051
  0
POLYLINE
  8
LAYER_1
 40
0.1058
 41
0.1058
 66
1
 10
0
 20
0
 30
0
  0
VERTEX
  8
LAYER_1
 10
72.198
 20
-23.5128
  0
VERTEX
  8
LAYER_1
 10
95.4901
 20
-23.5128
  0
SEQEND
  0
POLYLINE
  8
LAYER_1
 40
0.1058
 41
0.1058
 66
1
 10
0
 20
0
 30
0
  0
VERTEX
  8
LAYER_1
 10
72.198
 20
-52.7268
  0
VERTEX
  8
LAYER_1
 10
72.198
 20
-22.6128
  0
SEQEND
  0
POLYLINE
  8
LAYER_1
 40
0.1058
 41
0.1058
 66
1
 10
0
 20
0
 30
0
  0
VERTEX
  8
LAYER_1
 10
95.4901
 20
-27.5085
  0
VERTEX
  8
LAYER_1
 10
95.4901
 20
-22.6128
  0
SEQEND
  0
POLYLINE
  8
LAYER_1
 40
0.05
 41
0.05
 66
1
 10
0
 20
0
 30
0
 70
1
  0
VERTEX
  8
LAYER_1
 10
75.348
 20
-23.0981
  0
VERTEX
  8
LAYER_1
 10
75.348
 20
-23.9275
  0
VERTEX
  8
LAYER_1
 10
72.198
 20
-23.5128
  0
SEQEND
  0
POLYLINE
  8
LAYER_1
 40
0.05
 41
0.05
 66
1
 10
0
 20
0
 30
0
 70
1
  0
VERTEX
  8
LAYER_1
 10
92.3401
 20
-23.9275
  0
VERTEX
  8
LAYER_1
 10
92.3401
 20
-23.0981
  0
VERTEX
  8
LAYER_1
 10
95.4901
 20
-23.5128
  0
SEQEND
  0
ENDBLK
  0
BLOCK
  8
LAYER_1
  2
AIGNBL01010052
 70
64
 10
0
 20
0
 30
0
  3
AIGNBL01010052
  0
POLYLINE
  8
LAYER_1
 40
0.1058
 41
0.1058
 66
1
 10
0
 20
0
 30
0
  0
VERTEX
  8
LAYER_1
 10
95.4901
 20
-23.5141
  0
VERTEX
  8
LAYER_1
 10
118.7822
 20
-23.5141
  0
SEQEND
  0
POLYLINE
  8
LAYER_1
 40
0.1058
 41
0.1058
 66
1
 10
0
 20
0
 30
0
  0
VERTEX
  8
LAYER_1
 10
95.4901
 20
-27.5085
  0
VERTEX
  8
LAYER_1
 10
95.4901
 20
-22.6141
  0
SEQEND
  0
POLYLINE
  8
LAYER_1
 40
0.1058
 41
0.1058
 66
1
 10
0
 20
0
 30
0
  0
VERTEX
  8
LAYER_1
 10
118.7822
 20
-52.7268
  0
VERTEX
  8
LAYER_1
 10
118.7822
 20
-22.6141
  0
SEQEND
  0
POLYLINE
  8
LAYER_1
 40
0.05
 41
0.05
 66
1
 10
0
 20
0
 30
0
 70
1
  0
VERTEX
  8
LAYER_1
 10
98.6401
 20
-23.0994
  0
VERTEX
  8
LAYER_1
 10
98.6401
 20
-23.9288
  0
VERTEX
  8
LAYER_1
 10
95.4901
 20
-23.5141
  0
SEQEND
  0
POLYLINE
  8
LAYER_1
 40
0.05
 41
0.05
 66
1
 10
0
 20
0
 30
0
 70
1
  0
VERTEX
  8
LAYER_1
 10
115.6322
 20
-23.9288
  0
VERTEX
  8
LAYER_1
 10
115.6322
 20
-23.0994
  0
VERTEX
  8
LAYER_1
 10
118.7822
 20
-23.5141
  0
SEQEND
  0
ENDBLK
  0
BLOCK
  8
LAYER_1
  2
AIGNBL01010053
 70
64
 10
0
 20
0
 30
0
  3
AIGNBL01010053
  0
POLYLINE
  8
LAYER_1
 40
0.1058
 41
0.1058
 66
1
 10
0
 20
0
 30
0
  0
VERTEX
  8
LAYER_1
 10
125.2579
 20
-139.7688
  0
VERTEX
  8
LAYER_1
 10
125.2579
 20
-94.9488
  0
SEQEND
  0
POLYLINE
  8
LAYER_1
 40
0.1058
 41
0.1058
 66
1
 10
0
 20
0
 30
0
  0
VERTEX
  8
LAYER_1
 10
160.8301
 20
-139.7688
  0
VERTEX
  8
LAYER_1
 10
124.3579
 20
-139.7688
  0
SEQEND
  0
POLYLINE
  8
LAYER_1
 40
0.1058
 41
0.1058
 66
1
 10
0
 20
0
 30
0
  0
VERTEX
  8
LAYER_1
 10
136.8901
 20
-94.9488
  0
VERTEX
  8
LAYER_1
 10
124.3579
 20
-94.9488
  0
SEQEND
  0
POLYLINE
  8
LAYER_1
 40
0.05
 41
0.05
 66
1
 10
0
 20
0
 30
0
 70
1
  0
VERTEX
  8
LAYER_1
 10
124.8432
 20
-136.6188
  0
VERTEX
  8
LAYER_1
 10
125.6726
 20
-136.6188
  0
VERTEX
  8
LAYER_1
 10
125.2579
 20
-139.7688
  0
SEQEND
  0
POLYLINE
  8
LAYER_1
 40
0.05
 41
0.05
 66
1
 10
0
 20
0
 30
0
 70
1
  0
VERTEX
  8
LAYER_1
 10
125.6726
 20
-98.0988
  0
VERTEX
  8
LAYER_1
 10
124.8432
 20
-98.0988
  0
VERTEX
  8
LAYER_1
 10
125.2579
 20
-94.9488
  0
SEQEND
  0
ENDBLK
  0
BLOCK
  8
LAYER_1
  2
AIGNBL01010054
 70
64
 10
0
 20
0
 30
0
  3
AIGNBL01010054
  0
POLYLINE
  8
LAYER_1
 40
0.1058
 41
0.1058
 66
1
 10
0
 20
0
 30
0
  0
VERTEX
  8
LAYER_1
 10
117.9901
 20
-139.7688
  0
VERTEX
  8
LAYER_1
 10
117.9901
 20
-89.5488
  0
SEQEND
  0
POLYLINE
  8
LAYER_1
 40
0.1058
 41
0.1058
 66
1
 10
0
 20
0
 30
0
  0
VERTEX
  8
LAYER_1
 10
160.8301
 20
-139.7688
  0
VERTEX
  8
LAYER_1
 10
117.0901
 20
-139.7688
  0
SEQEND
  0
POLYLINE
  8
LAYER_1
 40
0.1058
 41
0.1058
 66
1
 10
0
 20
0
 30
0
  0
VERTEX
  8
LAYER_1
 10
134.3362
 20
-89.5488
  0
VERTEX
  8
LAYER_1
 10
117.0901
 20
-89.5488
  0
SEQEND
  0
POLYLINE
  8
LAYER_1
 40
0.05
 41
0.05
 66
1
 10
0
 20
0
 30
0
 70
1
  0
VERTEX
  8
LAYER_1
 10
117.5754
 20
-136.6188
  0
VERTEX
  8
LAYER_1
 10
118.4048
 20
-136.6188
  0
VERTEX
  8
LAYER_1
 10
117.9901
 20
-139.7688
  0
SEQEND
  0
POLYLINE
  8
LAYER_1
 40
0.05
 41
0.05
 66
1
 10
0
 20
0
 30
0
 70
1
  0
VERTEX
  8
LAYER_1
 10
118.4048
 20
-92.6988
  0
VERTEX
  8
LAYER_1
 10
117.5754
 20
-92.6988
  0
VERTEX
  8
LAYER_1
 10
117.9901
 20
-89.5488
  0
SEQEND
  0
ENDBLK
  0
BLOCK
  8
LAYER_1
  2
AIGNBL01010055
 70
64
 10
0
 20
0
 30
0
  3
AIGNBL01010055
  0
POLYLINE
  8
LAYER_1
 40
0.1058
 41
0.1058
 66
1
 10
0
 20
0
 30
0
  0
VERTEX
  8
LAYER_1
 10
180.681
 20
-133.4688
  0
VERTEX
  8
LAYER_1
 10
180.681
 20
-139.7688
  0
VERTEX
  8
LAYER_1
 10
180.681
 20
-147.9588
  0
VERTEX
  8
LAYER_1
 10
180.681
 20
-154.2588
  0
SEQEND
  0
POLYLINE
  8
LAYER_1
 40
0.1058
 41
0.1058
 66
1
 10
0
 20
0
 30
0
  0
VERTEX
  8
LAYER_1
 10
167.4642
 20
-147.9588
  0
VERTEX
  8
LAYER_1
 10
181.581
 20
-147.9588
  0
SEQEND
  0
POLYLINE
  8
LAYER_1
 40
0.1058
 41
0.1058
 66
1
 10
0
 20
0
 30
0
  0
VERTEX
  8
LAYER_1
 10
168.7501
 20
-139.7688
  0
VERTEX
  8
LAYER_1
 10
181.581
 20
-139.7688
  0
SEQEND
  0
POLYLINE
  8
LAYER_1
 40
0.05
 41
0.05
 66
1
 10
0
 20
0
 30
0
 70
1
  0
VERTEX
  8
LAYER_1
 10
180.2663
 20
-136.6188
  0
VERTEX
  8
LAYER_1
 10
181.0957
 20
-136.6188
  0
VERTEX
  8
LAYER_1
 10
180.681
 20
-139.7688
  0
SEQEND
  0
POLYLINE
  8
LAYER_1
 40
0.05
 41
0.05
 66
1
 10
0
 20
0
 30
0
 70
1
  0
VERTEX
  8
LAYER_1
 10
181.0957
 20
-151.1088
  0
VERTEX
  8
LAYER_1
 10
180.2663
 20
-151.1088
  0
VERTEX
  8
LAYER_1
 10
180.681
 20
-147.9588
  0
SEQEND
  0
ENDBLK
  0
BLOCK
  8
LAYER_1
  2
AIGNBL01010056
 70
64
 10
0
 20
0
 30
0
  3
AIGNBL01010056
  0
POLYLINE
  8
LAYER_1
 40
0.1058
 41
0.1058
 66
1
 10
0
 20
0
 30
0
  0
VERTEX
  8
LAYER_1
 10
180.681
 20
-139.7688
  0
VERTEX
  8
LAYER_1
 10
180.681
 20
-86.9985
  0
SEQEND
  0
POLYLINE
  8
LAYER_1
 40
0.1058
 41
0.1058
 66
1
 10
0
 20
0
 30
0
  0
VERTEX
  8
LAYER_1
 10
168.7501
 20
-139.7688
  0
VERTEX
  8
LAYER_1
 10
181.581
 20
-139.7688
  0
SEQEND
  0
POLYLINE
  8
LAYER_1
 40
0.1058
 41
0.1058
 66
1
 10
0
 20
0
 30
0
  0
VERTEX
  8
LAYER_1
 10
169.2286
 20
-86.9985
  0
VERTEX
  8
LAYER_1
 10
181.581
 20
-86.9985
  0
SEQEND
  0
POLYLINE
  8
LAYER_1
 40
0.05
 41
0.05
 66
1
 10
0
 20
0
 30
0
 70
1
  0
VERTEX
  8
LAYER_1
 10
180.2663
 20
-136.6188
  0
VERTEX
  8
LAYER_1
 10
181.0957
 20
-136.6188
  0
VERTEX
  8
LAYER_1
 10
180.681
 20
-139.7688
  0
SEQEND
  0
POLYLINE
  8
LAYER_1
 40
0.05
 41
0.05
 66
1
 10
0
 20
0
 30
0
 70
1
  0
VERTEX
  8
LAYER_1
 10
181.0957
 20
-90.1485
  0
VERTEX
  8
LAYER_1
 10
180.2663
 20
-90.1485
  0
VERTEX
  8
LAYER_1
 10
180.681
 20
-86.9985
  0
SEQEND
  0
ENDBLK
  0
BLOCK
  8
LAYER_1
  2
AIGNBL01010057
 70
64
 10
0
 20
0
 30
0
  3
AIGNBL01010057
  0
POLYLINE
  8
LAYER_1
 40
0.1058
 41
0.1058
 66
1
 10
0
 20
0
 30
0
  0
VERTEX
  8
LAYER_1
 10
79.4295
 20
-136.3467
  0
VERTEX
  8
LAYER_1
 10
91.5301
 20
-136.3467
  0
VERTEX
  8
LAYER_1
 10
99.4501
 20
-136.3467
  0
VERTEX
  8
LAYER_1
 10
105.7501
 20
-136.3467
  0
SEQEND
  0
POLYLINE
  8
LAYER_1
 40
0.1058
 41
0.1058
 66
1
 10
0
 20
0
 30
0
  0
VERTEX
  8
LAYER_1
 10
99.4501
 20
-139.7688
  0
VERTEX
  8
LAYER_1
 10
99.4501
 20
-135.4467
  0
SEQEND
  0
POLYLINE
  8
LAYER_1
 40
0.1058
 41
0.1058
 66
1
 10
0
 20
0
 30
0
  0
VERTEX
  8
LAYER_1
 10
91.5301
 20
-139.7688
  0
VERTEX
  8
LAYER_1
 10
91.5301
 20
-135.4467
  0
SEQEND
  0
POLYLINE
  8
LAYER_1
 40
0.05
 41
0.05
 66
1
 10
0
 20
0
 30
0
 70
1
  0
VERTEX
  8
LAYER_1
 10
102.6001
 20
-135.9319
  0
VERTEX
  8
LAYER_1
 10
102.6001
 20
-136.7614
  0
VERTEX
  8
LAYER_1
 10
99.4501
 20
-136.3467
  0
SEQEND
  0
POLYLINE
  8
LAYER_1
 40
0.05
 41
0.05
 66
1
 10
0
 20
0
 30
0
 70
1
  0
VERTEX
  8
LAYER_1
 10
88.3801
 20
-136.7614
  0
VERTEX
  8
LAYER_1
 10
88.3801
 20
-135.9319
  0
VERTEX
  8
LAYER_1
 10
91.5301
 20
-136.3467
  0
SEQEND
  0
ENDBLK
  0
BLOCK
  8
LAYER_1
  2
AIGNBL01010058
 70
64
 10
0
 20
0
 30
0
  3
AIGNBL01010058
  0
POLYLINE
  8
LAYER_1
 40
0.1058
 41
0.1058
 66
1
 10
0
 20
0
 30
0
  0
VERTEX
  8
LAYER_1
 10
91.3216
 20
-184.1899
  0
VERTEX
  8
LAYER_1
 10
150.7222
 20
-215.6373
  0
SEQEND
  0
POLYLINE
  8
LAYER_1
 40
0.05
 41
0.05
 66
1
 10
0
 20
0
 30
0
 70
1
  0
VERTEX
  8
LAYER_1
 10
94.2996
 20
-185.2972
  0
VERTEX
  8
LAYER_1
 10
93.9115
 20
-186.0303
  0
VERTEX
  8
LAYER_1
 10
91.3216
 20
-184.1899
  0
SEQEND
  0
ENDBLK
  0
BLOCK
  8
LAYER_1
  2
AIGNBL01010059
 70
64
 10
0
 20
0
 30
0
  3
AIGNBL01010059
  0
POLYLINE
  8
LAYER_1
 40
0.1058
 41
0.1058
 66
1
 10
0
 20
0
 30
0
  0
VERTEX
  8
LAYER_1
 10
139.5711
 20
-104.6761
  0
VERTEX
  8
LAYER_1
 10
139.5711
 20
-105.5761
  0
SEQEND
  0
POLYLINE
  8
LAYER_1
 40
0.1058
 41
0.1058
 66
1
 10
0
 20
0
 30
0
  0
VERTEX
  8
LAYER_1
 10
139.4963
 20
-95.4806
  0
VERTEX
  8
LAYER_1
 10
137.9007
 20
-104.53
  0
VERTEX
  8
LAYER_1
 10
137.7444
 20
-105.4163
  0
SEQEND
  0
POLYLINE
  8
LAYER_1
 40
0.1058
 41
0.1058
 66
1
 10
0
 20
0
 30
0
  0
VERTEX
  8
LAYER_1
 10
130.5032
 20
-98.2674
 42
0.3177066639
  0
VERTEX
  8
LAYER_1
 10
139.5711
 20
-104.6761
  0
VERTEX
  8
LAYER_1
 10
139.5711
 20
-95.2366
  0
SEQEND
  0
POLYLINE
  8
LAYER_1
 40
0.05
 41
0.05
 66
1
 10
0
 20
0
 30
0
 70
1
  0
VERTEX
  8
LAYER_1
 10
134.7916
 20
-103.8759
  0
VERTEX
  8
LAYER_1
 10
135.0668
 20
-103.0935
  0
VERTEX
  8
LAYER_1
 10
137.9007
 20
-104.53
  0
SEQEND
  0
ENDBLK
  0
BLOCK
  8
LAYER_1
  2
AIGNBL0101005A
 70
64
 10
0
 20
0
 30
0
  3
AIGNBL0101005A
  0
POLYLINE
  8
LAYER_1
 40
0.1058
 41
0.1058
 66
1
 10
0
 20
0
 30
0
  0
VERTEX
  8
LAYER_1
 10
68.7615
 20
-59.7272
  0
VERTEX
  8
LAYER_1
 10
68.1251
 20
-60.3635
  0
SEQEND
  0
POLYLINE
  8
LAYER_1
 40
0.1058
 41
0.1058
 66
1
 10
0
 20
0
 30
0
  0
VERTEX
  8
LAYER_1
 10
95.4901
 20
-70.7985
  0
VERTEX
  8
LAYER_1
 10
95.4901
 20
-71.6985
  0
SEQEND
  0
POLYLINE
  8
LAYER_1
 40
0.1058
 41
0.1058
 66
1
 10
0
 20
0
 30
0
  0
VERTEX
  8
LAYER_1
 10
73.4708
 20
-55.0178
  0
VERTEX
  8
LAYER_1
 10
68.7615
 20
-59.7272
 42
0.1989119535
  0
VERTEX
  8
LAYER_1
 10
95.4901
 20
-70.7985
  0
VERTEX
  8
LAYER_1
 10
95.4901
 20
-64.1385
  0
SEQEND
  0
POLYLINE
  8
LAYER_1
 40
0.05
 41
0.05
 66
1
 10
0
 20
0
 30
0
 70
1
  0
VERTEX
  8
LAYER_1
 10
71.3605
 20
-61.5546
  0
VERTEX
  8
LAYER_1
 10
70.7989
 20
-62.165
  0
VERTEX
  8
LAYER_1
 10
68.7615
 20
-59.7272
  0
SEQEND
  0
POLYLINE
  8
LAYER_1
 40
0.05
 41
0.05
 66
1
 10
0
 20
0
 30
0
 70
1
  0
VERTEX
  8
LAYER_1
 10
92.3256
 20
-71.0817
  0
VERTEX
  8
LAYER_1
 10
92.3601
 20
-70.253
  0
VERTEX
  8
LAYER_1
 10
95.4901
 20
-70.7985
  0
SEQEND
  0
ENDBLK
  0
BLOCK
  8
LAYER_1
  2
AIGNBL0101005B
 70
64
 10
0
 20
0
 30
0
  3
AIGNBL0101005B
  0
POLYLINE
  8
LAYER_1
 40
0.1058
 41
0.1058
 66
1
 10
0
 20
0
 30
0
  0
VERTEX
  8
LAYER_1
 10
95.4901
 20
-70.7985
  0
VERTEX
  8
LAYER_1
 10
95.4901
 20
-71.6985
  0
SEQEND
  0
POLYLINE
  8
LAYER_1
 40
0.1058
 41
0.1058
 66
1
 10
0
 20
0
 30
0
  0
VERTEX
  8
LAYER_1
 10
122.2187
 20
-59.7272
  0
VERTEX
  8
LAYER_1
 10
122.8551
 20
-60.3635
  0
SEQEND
  0
POLYLINE
  8
LAYER_1
 40
0.1058
 41
0.1058
 66
1
 10
0
 20
0
 30
0
  0
VERTEX
  8
LAYER_1
 10
95.4901
 20
-64.1385
  0
VERTEX
  8
LAYER_1
 10
95.4901
 20
-70.7985
 42
0.1989119783
  0
VERTEX
  8
LAYER_1
 10
122.2187
 20
-59.7272
  0
VERTEX
  8
LAYER_1
 10
117.5094
 20
-55.0178
  0
SEQEND
  0
POLYLINE
  8
LAYER_1
 40
0.05
 41
0.05
 66
1
 10
0
 20
0
 30
0
 70
1
  0
VERTEX
  8
LAYER_1
 10
98.6201
 20
-70.253
  0
VERTEX
  8
LAYER_1
 10
98.6546
 20
-71.0817
  0
VERTEX
  8
LAYER_1
 10
95.4901
 20
-70.7985
  0
SEQEND
  0
POLYLINE
  8
LAYER_1
 40
0.05
 41
0.05
 66
1
 10
0
 20
0
 30
0
 70
1
  0
VERTEX
  8
LAYER_1
 10
120.1813
 20
-62.165
  0
VERTEX
  8
LAYER_1
 10
119.6197
 20
-61.5546
  0
VERTEX
  8
LAYER_1
 10
122.2187
 20
-59.7272
  0
SEQEND
  0
ENDBLK
  0
BLOCK
  8
LAYER_6
  2
AIGNBL06010002
 70
64
 10
0
 20
0
 30
0
  3
AIGNBL06010002
  0
POLYLINE
  8
LAYER_6
 40
0.7056
 41
0.7056
 66
1
 10
0
 20
0
 30
0
 70
1
  0
VERTEX
  8
LAYER_6
 10
33.7873
 20
22.6587
  0
VERTEX
  8
LAYER_6
 10
230.7955
 20
22.6587
  0
VERTEX
  8
LAYER_6
 10
230.7955
 20
-259.334
  0
VERTEX
  8
LAYER_6
 10
33.7873
 20
-259.334
  0
SEQEND
  0
ENDBLK
  0
ENDSEC
  0
SECTION
  2
ENTITIES
  0
INSERT
  8
LAYER_1
  2
AIGNBL01010002
 10
0
 20
0
 30
0
  0
INSERT
  8
LAYER_1
  2
AIGNBL01010024
 10
0
 20
0
 30
0
  0
INSERT
  8
LAYER_1
  2
AIGNBL01010025
 10
0
 20
0
 30
0
  0
INSERT
  8
LAYER_1
  2
AIGNBL01010026
 10
0
 20
0
 30
0
  0
INSERT
  8
LAYER_1
  2
AIGNBL01010027
 10
0
 20
0
 30
0
  0
INSERT
  8
LAYER_1
  2
AIGNBL01010028
 10
0
 20
0
 30
0
  0
POLYLINE
  8
LAYER_1
  6
AIGENLINE001
 40
0.1058
 41
0.1058
 66
1
 10
0
 20
0
 30
0
 70
128
  0
VERTEX
  8
LAYER_1
 10
90.0001
 20
-32.9985
  0
VERTEX
  8
LAYER_1
 10
100.9801
 20
-32.9985
  0
SEQEND
  0
INSERT
  8
LAYER_1
  2
AIGNBL01010029
 10
0
 20
0
 30
0
  0
INSERT
  8
LAYER_1
  2
AIGNBL0101002A
 10
0
 20
0
 30
0
  0
INSERT
  8
LAYER_1
  2
AIGNBL0101002B
 10
0
 20
0
 30
0
  0
INSERT
  8
LAYER_1
  2
AIGNBL01010031
 10
0
 20
0
 30
0
  0
INSERT
  8
LAYER_1
  2
AIGNBL01010037
 10
0
 20
0
 30
0
  0
INSERT
  8
LAYER_1
  2
AIGNBL0101003E
 10
0
 20
0
 30
0
  0
INSERT
  8
LAYER_1
  2
AIGNBL01010043
 10
0
 20
0
 30
0
  0
INSERT
  8
LAYER_1
  2
AIGNBL01010044
 10
0
 20
0
 30
0
  0
INSERT
  8
LAYER_1
  2
AIGNBL01010045
 10
0
 20
0
 30
0
  0
INSERT
  8
LAYER_1
  2
AIGNBL01010046
 10
0
 20
0
 30
0
  0
INSERT
  8
LAYER_1
  2
AIGNBL01010047
 10
0
 20
0
 30
0
  0
POLYLINE
  8
LAYER_1
  6
AIGENLINE003
 40
0.1058
 41
0.1058
 66
1
 10
0
 20
0
 30
0
 70
128
  0
VERTEX
  8
LAYER_1
 10
94.2238
 20
-147.9588
  0
VERTEX
  8
LAYER_1
 10
93.9071
 20
-159.1702
  0
SEQEND
  0
POLYLINE
  8
LAYER_1
  6
AIGENLINE003
 40
0.1058
 41
0.1058
 66
1
 10
0
 20
0
 30
0
 70
128
  0
VERTEX
  8
LAYER_1
 10
96.7406
 20
-147.9588
  0
VERTEX
  8
LAYER_1
 10
97.0574
 20
-159.1702
  0
SEQEND
  0
POLYLINE
  8
LAYER_1
  6
AIGENLINE001
 40
0.1058
 41
0.1058
 66
1
 10
0
 20
0
 30
0
 70
128
  0
VERTEX
  8
LAYER_1
 10
164.7901
 20
-104.9388
  0
VERTEX
  8
LAYER_1
 10
164.7901
 20
-218.2868
  0
SEQEND
  0
POLYLINE
  8
LAYER_1
  6
AIGENLINE001
 40
0.1058
 41
0.1058
 66
1
 10
0
 20
0
 30
0
 70
128
  0
VERTEX
  8
LAYER_1
 10
164.7901
 20
-104.2188
  0
VERTEX
  8
LAYER_1
 10
164.7901
 20
-103.1208
  0
VERTEX
  8
LAYER_1
 10
164.7901
 20
-88.6043
  0
SEQEND
  0
POLYLINE
  8
LAYER_1
  6
AIGENLINE001
 40
0.1058
 41
0.1058
 66
1
 10
0
 20
0
 30
0
 70
128
  0
VERTEX
  8
LAYER_1
 10
158.4901
 20
-142.0188
  0
VERTEX
  8
LAYER_1
 10
161.6401
 20
-142.0188
  0
SEQEND
  0
POLYLINE
  8
LAYER_1
  6
AIGENLINE002
 40
0.1058
 41
0.1058
 66
1
 10
0
 20
0
 30
0
 70
128
  0
VERTEX
  8
LAYER_1
 10
171.0901
 20
-142.0188
  0
VERTEX
  8
LAYER_1
 10
171.0901
 20
-140.2188
  0
SEQEND
  0
POLYLINE
  8
LAYER_1
 40
0.1058
 41
0.1058
 66
1
 10
0
 20
0
 30
0
  0
VERTEX
  8
LAYER_1
 10
171.0901
 20
-140.2188
  0
VERTEX
  8
LAYER_1
 10
167.9401
 20
-140.2188
  0
SEQEND
  0
POLYLINE
  8
LAYER_1
  6
AIGENLINE002
 40
0.1058
 41
0.1058
 66
1
 10
0
 20
0
 30
0
 70
128
  0
VERTEX
  8
LAYER_1
 10
158.4901
 20
-140.2188
  0
VERTEX
  8
LAYER_1
 10
158.4901
 20
-142.0188
  0
SEQEND
  0
POLYLINE
  8
LAYER_1
  6
AIGENLINE002
 40
0.1058
 41
0.1058
 66
1
 10
0
 20
0
 30
0
 70
128
  0
VERTEX
  8
LAYER_1
 10
161.6401
 20
-140.2188
  0
VERTEX
  8
LAYER_1
 10
161.6401
 20
-142.0188
  0
SEQEND
  0
POLYLINE
  8
LAYER_1
  6
AIGENLINE001
 40
0.1058
 41
0.1058
 66
1
 10
0
 20
0
 30
0
 70
128
  0
VERTEX
  8
LAYER_1
 10
161.6401
 20
-140.2188
  0
VERTEX
  8
LAYER_1
 10
158.4901
 20
-140.2188
  0
SEQEND
  0
POLYLINE
  8
LAYER_1
  6
AIGENLINE002
 40
0.1058
 41
0.1058
 66
1
 10
0
 20
0
 30
0
 70
128
  0
VERTEX
  8
LAYER_1
 10
167.9401
 20
-142.0188
  0
VERTEX
  8
LAYER_1
 10
167.9401
 20
-140.2188
  0
SEQEND
  0
POLYLINE
  8
LAYER_1
 40
0.1058
 41
0.1058
 66
1
 10
0
 20
0
 30
0
  0
VERTEX
  8
LAYER_1
 10
167.9401
 20
-142.0188
  0
VERTEX
  8
LAYER_1
 10
171.0901
 20
-142.0188
  0
SEQEND
  0
POLYLINE
  8
LAYER_1
 40
0.1058
 41
0.1058
 66
1
 10
0
 20
0
 30
0
  0
VERTEX
  8
LAYER_1
 10
98.6401
 20
-142.0188
  0
VERTEX
  8
LAYER_1
 10
101.7901
 20
-142.0188
  0
SEQEND
  0
POLYLINE
  8
LAYER_1
  6
AIGENLINE002
 40
0.1058
 41
0.1058
 66
1
 10
0
 20
0
 30
0
 70
128
  0
VERTEX
  8
LAYER_1
 10
98.6401
 20
-142.0188
  0
VERTEX
  8
LAYER_1
 10
98.6401
 20
-140.2188
  0
SEQEND
  0
POLYLINE
  8
LAYER_1
  6
AIGENLINE001
 40
0.1058
 41
0.1058
 66
1
 10
0
 20
0
 30
0
 70
128
  0
VERTEX
  8
LAYER_1
 10
92.3401
 20
-140.2188
  0
VERTEX
  8
LAYER_1
 10
89.1901
 20
-140.2188
  0
SEQEND
  0
POLYLINE
  8
LAYER_1
  6
AIGENLINE002
 40
0.1058
 41
0.1058
 66
1
 10
0
 20
0
 30
0
 70
128
  0
VERTEX
  8
LAYER_1
 10
92.3401
 20
-140.2188
  0
VERTEX
  8
LAYER_1
 10
92.3401
 20
-142.0188
  0
SEQEND
  0
POLYLINE
  8
LAYER_1
  6
AIGENLINE002
 40
0.1058
 41
0.1058
 66
1
 10
0
 20
0
 30
0
 70
128
  0
VERTEX
  8
LAYER_1
 10
89.1901
 20
-140.2188
  0
VERTEX
  8
LAYER_1
 10
89.1901
 20
-142.0188
  0
SEQEND
  0
POLYLINE
  8
LAYER_1
 40
0.1058
 41
0.1058
 66
1
 10
0
 20
0
 30
0
  0
VERTEX
  8
LAYER_1
 10
101.7901
 20
-140.2188
  0
VERTEX
  8
LAYER_1
 10
98.6401
 20
-140.2188
  0
SEQEND
  0
POLYLINE
  8
LAYER_1
  6
AIGENLINE002
 40
0.1058
 41
0.1058
 66
1
 10
0
 20
0
 30
0
 70
128
  0
VERTEX
  8
LAYER_1
 10
101.7901
 20
-142.0188
  0
VERTEX
  8
LAYER_1
 10
101.7901
 20
-140.2188
  0
SEQEND
  0
POLYLINE
  8
LAYER_1
  6
AIGENLINE001
 40
0.1058
 41
0.1058
 66
1
 10
0
 20
0
 30
0
 70
128
  0
VERTEX
  8
LAYER_1
 10
89.1901
 20
-142.0188
  0
VERTEX
  8
LAYER_1
 10
92.3401
 20
-142.0188
  0
SEQEND
  0
POLYLINE
  8
LAYER_1
  6
AIGENLINE001
 40
0.1058
 41
0.1058
 66
1
 10
0
 20
0
 30
0
 70
128
  0
VERTEX
  8
LAYER_1
 10
139.4963
 20
-95.4806
  0
VERTEX
  8
LAYER_1
 10
139.5711
 20
-95.0566
  0
VERTEX
  8
LAYER_1
 10
140.0631
 20
-92.266
  0
SEQEND
  0
POLYLINE
  8
LAYER_1
 40
0.1058
 41
0.1058
 66
1
 10
0
 20
0
 30
0
  0
VERTEX
  8
LAYER_1
 10
139.5711
 20
-95.0566
  0
VERTEX
  8
LAYER_1
 10
139.5711
 20
-95.2366
  0
SEQEND
  0
POLYLINE
  8
LAYER_1
  6
AIGENLINE001
 40
0.1058
 41
0.1058
 66
1
 10
0
 20
0
 30
0
 70
128
  0
VERTEX
  8
LAYER_1
 10
95.4901
 20
-86.5485
  0
VERTEX
  8
LAYER_1
 10
95.4901
 20
-148.4988
  0
SEQEND
  0
POLYLINE
  8
LAYER_1
 40
0.1058
 41
0.1058
 66
1
 10
0
 20
0
 30
0
  0
VERTEX
  8
LAYER_1
 10
102.2236
 20
-59.0985
  0
VERTEX
  8
LAYER_1
 10
110.8636
 20
-59.0985
  0
SEQEND
  0
POLYLINE
  8
LAYER_1
 40
0.1058
 41
0.1058
 66
1
 10
0
 20
0
 30
0
  0
VERTEX
  8
LAYER_1
 10
88.7236
 20
-59.0985
  0
VERTEX
  8
LAYER_1
 10
79.9036
 20
-59.0985
  0
SEQEND
  0
POLYLINE
  8
LAYER_1
  6
AIGENLINE001
 40
0.1058
 41
0.1058
 66
1
 10
0
 20
0
 30
0
 70
128
  0
VERTEX
  8
LAYER_1
 10
73.4708
 20
-55.0178
  0
VERTEX
  8
LAYER_1
 10
99.3721
 20
-29.1165
  0
SEQEND
  0
POLYLINE
  8
LAYER_1
  6
AIGENLINE001
 40
0.1058
 41
0.1058
 66
1
 10
0
 20
0
 30
0
 70
128
  0
VERTEX
  8
LAYER_1
 10
91.6081
 20
-29.1165
  0
VERTEX
  8
LAYER_1
 10
117.5094
 20
-55.0178
  0
SEQEND
  0
POLYLINE
  8
LAYER_1
  6
AIGENLINE001
 40
0.1058
 41
0.1058
 66
1
 10
0
 20
0
 30
0
 70
128
  0
VERTEX
  8
LAYER_1
 10
95.4901
 20
-27.5085
  0
VERTEX
  8
LAYER_1
 10
95.4901
 20
-64.1385
  0
SEQEND
  0
POLYLINE
  8
LAYER_1
 40
0.1058
 41
0.1058
 66
1
 10
0
 20
0
 30
0
  0
VERTEX
  8
LAYER_1
 10
115.1981
 20
-87.7265
  0
VERTEX
  8
LAYER_1
 10
124.0181
 20
-87.7265
  0
SEQEND
  0
POLYLINE
  8
LAYER_1
 40
0.1058
 41
0.1058
 66
1
 10
0
 20
0
 30
0
  0
VERTEX
  8
LAYER_1
 10
124.7381
 20
-75.8465
  0
VERTEX
  8
LAYER_1
 10
133.1981
 20
-75.8465
  0
SEQEND
  0
POLYLINE
  8
LAYER_1
  6
AIGENLINE001
 40
0.1058
 41
0.1058
 66
1
 10
0
 20
0
 30
0
 70
128
  0
VERTEX
  8
LAYER_1
 10
93.9071
 20
-159.1702
  0
VERTEX
  8
LAYER_1
 10
93.4031
 20
-175.1571
  0
VERTEX
  8
LAYER_1
 10
93.4134
 20
-175.7679
 42
-0.1894471092
  0
VERTEX
  8
LAYER_1
 10
88.5972
 20
-188.0231
 42
0.1894479833
  0
VERTEX
  8
LAYER_1
 10
83.7809
 20
-200.2783
  0
VERTEX
  8
LAYER_1
 10
83.7809
 20
-218.2868
  0
SEQEND
  0
POLYLINE
  8
LAYER_1
  6
AIGENLINE001
 40
0.1058
 41
0.1058
 66
1
 10
0
 20
0
 30
0
 70
128
  0
VERTEX
  8
LAYER_1
 10
107.1836
 20
-218.2868
  0
VERTEX
  8
LAYER_1
 10
107.1836
 20
-200.2783
 42
0.1894472804
  0
VERTEX
  8
LAYER_1
 10
102.3673
 20
-188.0231
 42
-0.1894478127
  0
VERTEX
  8
LAYER_1
 10
97.551
 20
-175.7679
  0
VERTEX
  8
LAYER_1
 10
97.5614
 20
-175.1571
  0
VERTEX
  8
LAYER_1
 10
97.0574
 20
-159.1702
  0
SEQEND
  0
POLYLINE
  8
LAYER_1
 40
0.1058
 41
0.1058
 66
1
 10
0
 20
0
 30
0
  0
VERTEX
  8
LAYER_1
 10
99.8101
 20
-54.1621
 42
0.0959635998
  0
VERTEX
  8
LAYER_1
 10
107.4003
 20
-51.0181
  0
SEQEND
  0
POLYLINE
  8
LAYER_1
 40
0.1058
 41
0.1058
 66
1
 10
0
 20
0
 30
0
  0
VERTEX
  8
LAYER_1
 10
83.5799
 20
-51.0181
 42
0.09596357907
  0
VERTEX
  8
LAYER_1
 10
91.1701
 20
-54.1621
  0
SEQEND
  0
POLYLINE
  8
LAYER_1
 40
0.1058
 41
0.1058
 66
1
 10
0
 20
0
 30
0
  0
VERTEX
  8
LAYER_1
 10
127.039
 20
-78.8502
 42
0.04053662454
  0
VERTEX
  8
LAYER_1
 10
124.1056
 20
-82.0904
  0
SEQEND
  0
POLYLINE
  8
LAYER_1
 40
0.05
 41
0.05
 66
1
 10
0
 20
0
 30
0
 70
1
  0
VERTEX
  8
LAYER_1
 10
100.5821
 20
-143.8869
  0
VERTEX
  8
LAYER_1
 10
99.8639
 20
-144.3016
  0
VERTEX
  8
LAYER_1
 10
98.648
 20
-141.3662
  0
SEQEND
  0
POLYLINE
  8
LAYER_1
 40
0.05
 41
0.05
 66
1
 10
0
 20
0
 30
0
 70
1
  0
VERTEX
  8
LAYER_1
 10
100.3121
 20
-148.3247
  0
VERTEX
  8
LAYER_1
 10
99.5939
 20
-148.7394
  0
VERTEX
  8
LAYER_1
 10
98.378
 20
-145.804
  0
SEQEND
  0
POLYLINE
  8
LAYER_1
 40
0.05
 41
0.05
 66
1
 10
0
 20
0
 30
0
 70
1
  0
VERTEX
  8
LAYER_1
 10
81.7319
 20
-220.6821
  0
VERTEX
  8
LAYER_1
 10
81.0136
 20
-220.2674
  0
VERTEX
  8
LAYER_1
 10
82.9477
 20
-217.7468
  0
SEQEND
  0
POLYLINE
  8
LAYER_1
 40
0.05
 41
0.05
 66
1
 10
0
 20
0
 30
0
 70
1
  0
VERTEX
  8
LAYER_1
 10
110.022
 20
-220.2674
  0
VERTEX
  8
LAYER_1
 10
109.3037
 20
-220.6821
  0
VERTEX
  8
LAYER_1
 10
108.0879
 20
-217.7468
  0
SEQEND
  0
POLYLINE
  8
LAYER_1
 40
0.05
 41
0.05
 66
1
 10
0
 20
0
 30
0
 70
1
  0
VERTEX
  8
LAYER_1
 10
104.8892
 20
-52.9646
  0
VERTEX
  8
LAYER_1
 10
104.471
 20
-52.2484
  0
VERTEX
  8
LAYER_1
 10
107.4003
 20
-51.0181
  0
SEQEND
  0
POLYLINE
  8
LAYER_1
 40
0.05
 41
0.05
 66
1
 10
0
 20
0
 30
0
 70
1
  0
VERTEX
  8
LAYER_1
 10
86.5092
 20
-52.2484
  0
VERTEX
  8
LAYER_1
 10
86.091
 20
-52.9646
  0
VERTEX
  8
LAYER_1
 10
83.5799
 20
-51.0181
  0
SEQEND
  0
POLYLINE
  8
LAYER_1
 40
0.05
 41
0.05
 66
1
 10
0
 20
0
 30
0
 70
1
  0
VERTEX
  8
LAYER_1
 10
125.9982
 20
-80.3344
  0
VERTEX
  8
LAYER_1
 10
125.4461
 20
-79.7154
  0
VERTEX
  8
LAYER_1
 10
128.0729
 20
-77.9281
  0
SEQEND
  0
POLYLINE
  8
LAYER_1
 40
0.05
 41
0.05
 66
1
 10
0
 20
0
 30
0
 70
1
  0
VERTEX
  8
LAYER_1
 10
124.753
 20
-80.442
  0
VERTEX
  8
LAYER_1
 10
125.4287
 20
-80.9229
  0
VERTEX
  8
LAYER_1
 10
123.2643
 20
-83.2488
  0
SEQEND
  0
INSERT
  8
LAYER_1
  2
AIGNBL01010048
 10
0
 20
0
 30
0
  0
INSERT
  8
LAYER_1
  2
AIGNBL01010049
 10
0
 20
0
 30
0
  0
INSERT
  8
LAYER_1
  2
AIGNBL0101004A
 10
0
 20
0
 30
0
  0
INSERT
  8
LAYER_1
  2
AIGNBL0101004B
 10
0
 20
0
 30
0
  0
INSERT
  8
LAYER_1
  2
AIGNBL0101004C
 10
0
 20
0
 30
0
  0
INSERT
  8
LAYER_1
  2
AIGNBL0101004D
 10
0
 20
0
 30
0
  0
INSERT
  8
LAYER_1
  2
AIGNBL0101004E
 10
0
 20
0
 30
0
  0
INSERT
  8
LAYER_1
  2
AIGNBL0101004F
 10
0
 20
0
 30
0
  0
INSERT
  8
LAYER_1
  2
AIGNBL01010050
 10
0
 20
0
 30
0
  0
INSERT
  8
LAYER_1
  2
AIGNBL01010051
 10
0
 20
0
 30
0
  0
INSERT
  8
LAYER_1
  2
AIGNBL01010052
 10
0
 20
0
 30
0
  0
INSERT
  8
LAYER_1
  2
AIGNBL01010053
 10
0
 20
0
 30
0
  0
INSERT
  8
LAYER_1
  2
AIGNBL01010054
 10
0
 20
0
 30
0
  0
INSERT
  8
LAYER_1
  2
AIGNBL01010055
 10
0
 20
0
 30
0
  0
INSERT
  8
LAYER_1
  2
AIGNBL01010056
 10
0
 20
0
 30
0
  0
INSERT
  8
LAYER_1
  2
AIGNBL01010057
 10
0
 20
0
 30
0
  0
INSERT
  8
LAYER_1
  2
AIGNBL01010058
 10
0
 20
0
 30
0
  0
INSERT
  8
LAYER_1
  2
AIGNBL01010059
 10
0
 20
0
 30
0
  0
INSERT
  8
LAYER_1
  2
AIGNBL0101005A
 10
0
 20
0
 30
0
  0
INSERT
  8
LAYER_1
  2
AIGNBL0101005B
 10
0
 20
0
 30
0
  0
TEXT
  8
LAYER_1
 10
85.1503
 20
-224.7708
 11
85.1503
 21
-224.7708
 40
6.6504
 41
0.5
 72
1
  1
G1/2
  0
TEXT
  8
LAYER_1
 10
113.0225
 20
-224.7708
 11
113.0225
 21
-224.7708
 40
6.6504
 41
0.5
 72
1
  1
G1/2
  0
TEXT
  8
LAYER_1
 10
104.0225
 20
-187.2472
 11
104.0225
 21
-187.2472
 40
6.6504
 41
0.5
 50
332.8051147
  1
âtâîâLâzü[âXï╚é%%dö╝îaR50ê╚ÅÒ
  0
TEXT
  8
LAYER_1
 10
177.9092
 20
-224.9327
 11
177.9092
 21
-224.9327
 40
6.6504
 41
0.5
  1
27
  0
TEXT
  8
LAYER_1
 10
185.6879
 20
-205.0318
 11
185.6879
 21
-205.0318
 40
6.6504
 41
0.5
 50
89.99999999
  1
âtâîâLâzü[âXÆ╝èÃÄ×397
  0
TEXT
  8
LAYER_1
 10
171.8768
 20
-146.3514
 11
171.8768
 21
-146.3514
 40
6.6504
 41
0.5
  1
46
  0
TEXT
  8
LAYER_1
 10
178.5838
 20
-115.3559
 11
178.5838
 21
-115.3559
 40
6.6504
 41
0.5
 50
89.99999999
  1
294
  0
TEXT
  8
LAYER_1
 10
185.886
 20
-115.0383
 11
185.886
 21
-115.0383
 40
6.6504
 41
0.5
 50
89.99999999
  1
341
  0
TEXT
  8
LAYER_1
 10
147.9055
 20
-100.7901
 11
147.9055
 21
-100.7901
 40
6.6504
 41
0.5
  1
141
  0
TEXT
  8
LAYER_1
 10
132.0522
 20
-100.4726
 11
132.0522
 21
-100.4726
 40
6.6504
 41
0.5
  1
10üï
  0
TEXT
  8
LAYER_1
 10
147.5879
 20
-165.521
 11
147.5879
 21
-165.521
 40
6.6504
 41
0.5
 50
89.99999999
  1
ì┼æÕ30 ì┼Å¼5
  0
TEXT
  8
LAYER_1
 10
117.4936
 20
-151.907
 11
117.4936
 21
-151.907
 40
6.6504
 41
0.5
 72
1
  1
M32X1,5
  0
TEXT
  8
LAYER_1
 10
101.7426
 20
-162.5048
 11
101.7426
 21
-162.5048
 40
6.6504
 41
0.5
  1
âìâbâNâiâbâgæ╬òË 36
  0
TEXT
  8
LAYER_1
 10
80.2776
 20
-134.9744
 11
80.2776
 21
-134.9744
 40
6.6504
 41
0.5
  1
44
  0
TEXT
  8
LAYER_1
 10
116.2475
 20
-117.6304
 11
116.2475
 21
-117.6304
 40
6.6504
 41
0.5
 50
89.99999999
  1
279
  0
TEXT
  8
LAYER_1
 10
123.0213
 20
-117.4195
 11
123.0213
 21
-117.4195
 40
6.6504
 41
0.5
 50
89.99999999
  1
248
  0
TEXT
  8
LAYER_1
 10
122.6133
 20
-79.729
 11
122.6133
 21
-79.729
 40
6.6504
 41
0.5
 72
1
  1
22üï
  0
TEXT
  8
LAYER_1
 10
130.8011
 20
-73.1818
 11
130.8011
 21
-73.1818
 40
5.5886
 41
0.5
 72
1
  1
ôfÉà
  0
TEXT
  8
LAYER_1
 10
119.1594
 20
-86.7275
 11
119.1594
 21
-86.7275
 40
5.5886
 41
0.5
 72
1
  1
Ä~Éà
  0
TEXT
  8
LAYER_1
 10
148.8588
 20
-67.4526
 11
148.8588
 21
-67.4526
 40
6.6504
 41
0.5
  1
170
  0
TEXT
  8
LAYER_1
 10
166.003
 20
-67.4526
 11
166.003
 21
-67.4526
 40
6.6504
 41
0.5
  1
39
  0
TEXT
  8
LAYER_1
 10
92.978
 20
-76.554
 11
92.978
 21
-76.554
 40
6.6504
 41
0.5
  1
28
  0
TEXT
  8
LAYER_1
 10
81.8719
 20
-65.4855
 11
81.8719
 21
-65.4855
 40
6.6504
 41
0.5
 50
333.0095938
  1
45üï
  0
TEXT
  8
LAYER_1
 10
106.8128
 20
-67.4216
 11
106.8128
 21
-67.4216
 40
6.6504
 41
0.5
 50
11.4901684
  1
45üï
  0
TEXT
  8
LAYER_1
 10
109.2116
 20
-57.7302
 11
109.2116
 21
-57.7302
 40
5.5886
 41
0.5
 72
1
  1
Éàæñ
  0
TEXT
  8
LAYER_1
 10
85.2929
 20
-58.1525
 11
85.2929
 21
-58.1525
 40
5.5886
 41
0.5
 72
1
  1
ôÆæñ
  0
TEXT
  8
LAYER_1
 10
102.503
 20
-22.1561
 11
102.503
 21
-22.1561
 40
6.6504
 41
0.5
  1
130
  0
TEXT
  8
LAYER_1
 10
81.1248
 20
-22.1561
 11
81.1248
 21
-22.1561
 40
6.6504
 41
0.5
  1
130
  0
INSERT
  8
LAYER_6
  2
AIGNBL06010002
 10
0
 20
0
 30
0
  0
POLYLINE
  8
LAYER_6
 40
0.3528
 41
0.3528
 66
1
 10
0
 20
0
 30
0
  0
VERTEX
  8
LAYER_6
 10
34.7876
 20
-258.3332
  0
VERTEX
  8
LAYER_6
 10
229.7955
 20
-258.3332
  0
VERTEX
  8
LAYER_6
 10
229.7955
 20
21.6583
  0
VERTEX
  8
LAYER_6
 10
34.7876
 20
21.6583
  0
VERTEX
  8
LAYER_6
 10
34.7876
 20
-258.3332
  0
SEQEND
  0
TEXT
  8
LAYER_6
 10
166.4505
 20
-248.7955
 11
166.4505
 21
-248.7955
 40
3.3853
 41
0.5
  1
ü£TEL 0120-65-1232ü£FAX 06-6532-1580
  0
TEXT
  8
LAYER_6
 10
166.4505
 20
-252.3102
 11
166.4505
 21
-252.3102
 40
3.3853
 41
0.5
  1
hits@hiratatile.co.jp
  0
TEXT
  8
LAYER_6
 10
218.9756
 20
18.4461
 11
218.9756
 21
18.4461
 40
2.0732
 41
0.5
  1
190703RT
  0
TEXT
  8
LAYER_6
 10
37.8495
 20
-250.3797
 11
37.8495
 21
-250.3797
 40
3.2995
 41
0.5
  1
Ädùl
  0
POLYLINE
  8
LAYER_6
 40
0.3528
 41
0.3528
 66
1
 10
0
 20
0
 30
0
  0
VERTEX
  8
LAYER_6
 10
229.7955
 20
-241.6001
  0
VERTEX
  8
LAYER_6
 10
34.7874
 20
-241.6001
  0
SEQEND
  0
POLYLINE
  8
LAYER_6
 40
0.3528
 41
0.3528
 66
1
 10
0
 20
0
 30
0
  0
VERTEX
  8
LAYER_6
 10
229.7955
 20
-233.091
  0
VERTEX
  8
LAYER_6
 10
34.7874
 20
-233.091
  0
SEQEND
  0
TEXT
  8
LAYER_6
 10
35.9444
 20
-235.5675
 11
35.9444
 21
-235.5675
 40
2.1997
 41
0.5
  1
òiû╝
  0
TEXT
  8
LAYER_6
 10
48.6658
 20
-238.6599
 11
48.6658
 21
-238.6599
 40
3.6373
 41
0.5
  1
âêâèâXâbâgâVâôâOâïâîâoü[É¶û╩ì¼ìçÉàÉ­
  0
TEXT
  8
LAYER_6
 10
48.4217
 20
-250.3883
 11
48.4217
 21
-250.3883
 40
3.1177
 41
0.5
  1
ü£örÉàïÓï´ò╩ôr
  0
TEXT
  8
LAYER_6
 10
136.1566
 20
-235.5677
 11
136.1566
 21
-235.5677
 40
2.1997
 41
0.5
  1
òiöÈ
  0
TEXT
  8
LAYER_6
 10
142.1786
 20
-237.0105
 11
142.1786
 21
-237.0105
 40
3.7506
 41
0.5
  1
AQ-K4732NJV-2T/AQ-K4732NJV-2T-MDP/
  0
TEXT
  8
LAYER_6
 10
142.1786
 20
-240.5104
 11
142.1786
 21
-240.5104
 40
3.7506
 41
0.5
  1
AQ-K4732-2T-MCGP
  0
ENDSEC
  0
EOF
