  0
SECTION
  2
HEADER
  9
$ACADVER
  1
AC1009
  9
$LUNITS
 70
2
  9
$LUPREC
 70
4
  9
$LTSCALE
 40
1.0
  9
$EXTMIN
 10
33.7873
 20
-259.334
 30
0
  9
$EXTMAX
 10
230.7955
 20
22.6587
 30
0
  0
ENDSEC
  0
SECTION
  2
TABLES
  0
TABLE
  2
LTYPE
 70
256
  0
LTYPE
  2
AIGENLINE001
 70
64
  3
generate AI->DXF Converter
 72
65
 73
4
 40
35.344
 49
22.09
 49
-4.418
 49
4.418
 49
-4.418
  0
ENDTAB
  0
TABLE
  2
LAYER
 70
6
  0
LAYER
  2
LAYER_1
 70
64
 62
7
  6
CONTINUOUS
  0
LAYER
  2
LAYER_2
 70
64
 62
7
  6
CONTINUOUS
  0
LAYER
  2
LAYER_3
 70
64
 62
7
  6
CONTINUOUS
  0
LAYER
  2
LAYER_4
 70
64
 62
7
  6
CONTINUOUS
  0
LAYER
  2
LAYER_5
 70
64
 62
7
  6
CONTINUOUS
  0
LAYER
  2
LAYER_6
 70
64
 62
7
  6
CONTINUOUS
  0
ENDTAB
  0
TABLE
  2
STYLE
 70
6
  0
STYLE
  2
STANDARD
 70
0
 40
0
 50
0
 71
0
 41
0
 42
0
  3
TXT
  4
BIGFONT
  0
ENDTAB
  0
ENDSEC
  0
SECTION
  2
BLOCKS
  0
BLOCK
  8
LAYER_1
  2
AIGNBL01040005
 70
64
 10
0
 20
0
 30
0
  3
AIGNBL01040005
  0
POLYLINE
  8
LAYER_1
 40
0.05
 41
0.05
 66
1
 10
0
 20
0
 30
0
 70
1
  0
VERTEX
  8
LAYER_1
 10
138.3767
 20
-249.1011
  0
VERTEX
  8
LAYER_1
 10
137.891
 20
-250.2793
  0
VERTEX
  8
LAYER_1
 10
137.2664
 20
-250.2793
  0
VERTEX
  8
LAYER_1
 10
138.857
 20
-246.5355
  0
VERTEX
  8
LAYER_1
 10
139.586
 20
-246.5355
  0
VERTEX
  8
LAYER_1
 10
141.1828
 20
-250.2793
  0
VERTEX
  8
LAYER_1
 10
140.5365
 20
-250.2793
  0
VERTEX
  8
LAYER_1
 10
140.0369
 20
-249.1011
  0
SEQEND
  0
POLYLINE
  8
LAYER_1
 40
0.05
 41
0.05
 66
1
 10
0
 20
0
 30
0
 70
1
  0
VERTEX
  8
LAYER_1
 10
139.9115
 20
-248.7245
  0
VERTEX
  8
LAYER_1
 10
139.4533
 20
-247.6459
 42
-0.02267506524
  0
VERTEX
  8
LAYER_1
 10
139.2101
 20
-246.963
  0
VERTEX
  8
LAYER_1
 10
139.1967
 20
-246.963
 42
-0.02084266043
  0
VERTEX
  8
LAYER_1
 10
138.9603
 20
-247.6414
  0
VERTEX
  8
LAYER_1
 10
138.5021
 20
-248.7245
  0
SEQEND
  0
ENDBLK
  0
BLOCK
  8
LAYER_1
  2
AIGNBL01040006
 70
64
 10
0
 20
0
 30
0
  3
AIGNBL01040006
  0
POLYLINE
  8
LAYER_1
 40
0.05
 41
0.05
 66
1
 10
0
 20
0
 30
0
 70
1
  0
VERTEX
  8
LAYER_1
 10
145.5226
 20
-250.8295
 42
-0.01550180985
  0
VERTEX
  8
LAYER_1
 10
143.7311
 20
-250.3954
 42
0.09208348225
  0
VERTEX
  8
LAYER_1
 10
143.4465
 20
-250.3406
 42
-0.09252107557
  0
VERTEX
  8
LAYER_1
 10
142.4981
 20
-250.139
 42
-0.09792797557
  0
VERTEX
  8
LAYER_1
 10
141.8642
 20
-249.7067
 42
-0.1631033753
  0
VERTEX
  8
LAYER_1
 10
141.401
 20
-248.7192
 42
-0.03157985926
  0
VERTEX
  8
LAYER_1
 10
141.3839
 20
-248.4469
 42
-0.1088259969
  0
VERTEX
  8
LAYER_1
 10
141.5673
 20
-247.5875
 42
-0.1618048679
  0
VERTEX
  8
LAYER_1
 10
142.3628
 20
-246.7577
 42
-0.09175073832
  0
VERTEX
  8
LAYER_1
 10
143.1629
 20
-246.5018
 42
-0.03454354202
  0
VERTEX
  8
LAYER_1
 10
143.5644
 20
-246.4745
 42
-0.09527006366
  0
VERTEX
  8
LAYER_1
 10
144.5227
 20
-246.6511
 42
-0.1001818692
  0
VERTEX
  8
LAYER_1
 10
145.1563
 20
-247.0713
 42
-0.1611434138
  0
VERTEX
  8
LAYER_1
 10
145.6402
 20
-248.0664
 42
-0.03591204318
  0
VERTEX
  8
LAYER_1
 10
145.6617
 20
-248.3686
 42
-0.1066586367
  0
VERTEX
  8
LAYER_1
 10
145.4864
 20
-249.2186
 42
-0.2185717489
  0
VERTEX
  8
LAYER_1
 10
144.3825
 20
-250.147
 42
-0.006705231958
  0
VERTEX
  8
LAYER_1
 10
144.3281
 20
-250.1628
  0
VERTEX
  8
LAYER_1
 10
144.3281
 20
-250.1852
 42
0.01501268135
  0
VERTEX
  8
LAYER_1
 10
145.6965
 20
-250.424
  0
SEQEND
  0
POLYLINE
  8
LAYER_1
 40
0.05
 41
0.05
 66
1
 10
0
 20
0
 30
0
 70
1
  0
VERTEX
  8
LAYER_1
 10
145.0233
 20
-248.39
 42
0.1175404168
  0
VERTEX
  8
LAYER_1
 10
144.842
 20
-247.6261
 42
0.1170585149
  0
VERTEX
  8
LAYER_1
 10
144.419
 20
-247.1311
 42
0.1200111465
  0
VERTEX
  8
LAYER_1
 10
143.8094
 20
-246.8884
 42
0.0377207096
  0
VERTEX
  8
LAYER_1
 10
143.5433
 20
-246.8687
 42
0.1152954241
  0
VERTEX
  8
LAYER_1
 10
142.8054
 20
-247.0324
 42
0.1853004926
  0
VERTEX
  8
LAYER_1
 10
142.1509
 20
-247.7624
 42
0.09848637078
  0
VERTEX
  8
LAYER_1
 10
142.0296
 20
-248.4344
 42
0.120860713
  0
VERTEX
  8
LAYER_1
 10
142.2045
 20
-249.1849
 42
0.2836170694
  0
VERTEX
  8
LAYER_1
 10
143.5161
 20
-249.9468
 42
0.1188766714
  0
VERTEX
  8
LAYER_1
 10
144.2605
 20
-249.7757
 42
0.1796046283
  0
VERTEX
  8
LAYER_1
 10
144.8972
 20
-249.063
 42
0.09851098502
  0
SEQEND
  0
ENDBLK
  0
BLOCK
  8
LAYER_1
  2
AIGNBL01040007
 70
64
 10
0
 20
0
 30
0
  3
AIGNBL01040007
  0
POLYLINE
  8
LAYER_1
 40
0.05
 41
0.05
 66
1
 10
0
 20
0
 30
0
 70
1
  0
VERTEX
  8
LAYER_1
 10
146.9815
 20
-246.5355
  0
VERTEX
  8
LAYER_1
 10
146.9815
 20
-248.7517
 42
0.1257910062
  0
VERTEX
  8
LAYER_1
 10
147.1475
 20
-249.4752
 42
0.2217269733
  0
VERTEX
  8
LAYER_1
 10
147.7914
 20
-249.9203
 42
0.04937688774
  0
VERTEX
  8
LAYER_1
 10
148.0716
 20
-249.9468
 42
0.1302851362
  0
VERTEX
  8
LAYER_1
 10
148.7372
 20
-249.787
 42
0.1509632316
  0
VERTEX
  8
LAYER_1
 10
149.0862
 20
-249.3957
 42
0.1174446198
  0
VERTEX
  8
LAYER_1
 10
149.2105
 20
-248.7517
  0
VERTEX
  8
LAYER_1
 10
149.2105
 20
-246.5355
  0
VERTEX
  8
LAYER_1
 10
149.8217
 20
-246.5355
  0
VERTEX
  8
LAYER_1
 10
149.8217
 20
-248.7187
 42
-0.1106784388
  0
VERTEX
  8
LAYER_1
 10
149.6531
 20
-249.5323
 42
-0.1857051526
  0
VERTEX
  8
LAYER_1
 10
148.9481
 20
-250.1807
 42
-0.09650175554
  0
VERTEX
  8
LAYER_1
 10
148.1451
 20
-250.3392
 42
-0.007939811217
  0
VERTEX
  8
LAYER_1
 10
148.0509
 20
-250.3406
 42
-0.102315967
  0
VERTEX
  8
LAYER_1
 10
147.1661
 20
-250.1733
 42
-0.1218859814
  0
VERTEX
  8
LAYER_1
 10
146.6722
 20
-249.7872
 42
-0.1186228201
  0
VERTEX
  8
LAYER_1
 10
146.4122
 20
-249.188
 42
-0.0498693672
  0
VERTEX
  8
LAYER_1
 10
146.3707
 20
-248.7404
  0
VERTEX
  8
LAYER_1
 10
146.3707
 20
-246.5355
  0
SEQEND
  0
ENDBLK
  0
BLOCK
  8
LAYER_1
  2
AIGNBL01040008
 70
64
 10
0
 20
0
 30
0
  3
AIGNBL01040008
  0
POLYLINE
  8
LAYER_1
 40
0.05
 41
0.05
 66
1
 10
0
 20
0
 30
0
 70
1
  0
VERTEX
  8
LAYER_1
 10
151.5573
 20
-249.1011
  0
VERTEX
  8
LAYER_1
 10
151.0709
 20
-250.2793
  0
VERTEX
  8
LAYER_1
 10
150.447
 20
-250.2793
  0
VERTEX
  8
LAYER_1
 10
152.0365
 20
-246.5355
  0
VERTEX
  8
LAYER_1
 10
152.7655
 20
-246.5355
  0
VERTEX
  8
LAYER_1
 10
154.3623
 20
-250.2793
  0
VERTEX
  8
LAYER_1
 10
153.7167
 20
-250.2793
  0
VERTEX
  8
LAYER_1
 10
153.2175
 20
-249.1011
  0
SEQEND
  0
POLYLINE
  8
LAYER_1
 40
0.05
 41
0.05
 66
1
 10
0
 20
0
 30
0
 70
1
  0
VERTEX
  8
LAYER_1
 10
153.0921
 20
-248.7245
  0
VERTEX
  8
LAYER_1
 10
152.6332
 20
-247.6459
 42
-0.02235179902
  0
VERTEX
  8
LAYER_1
 10
152.3897
 20
-246.963
  0
VERTEX
  8
LAYER_1
 10
152.3759
 20
-246.963
 42
-0.02046417189
  0
VERTEX
  8
LAYER_1
 10
152.1402
 20
-247.6414
  0
VERTEX
  8
LAYER_1
 10
151.682
 20
-248.7245
  0
SEQEND
  0
ENDBLK
  0
BLOCK
  8
LAYER_1
  2
AIGNBL01040009
 70
64
 10
0
 20
0
 30
0
  3
AIGNBL01040009
  0
POLYLINE
  8
LAYER_1
 40
0.05
 41
0.05
 66
1
 10
0
 20
0
 30
0
 70
1
  0
VERTEX
  8
LAYER_1
 10
155.3969
 20
-246.58
 42
-0.03349666815
  0
VERTEX
  8
LAYER_1
 10
156.5576
 20
-246.5072
 42
-0.09004353297
  0
VERTEX
  8
LAYER_1
 10
157.6057
 20
-246.6749
 42
-0.05888505928
  0
VERTEX
  8
LAYER_1
 10
157.8691
 20
-246.8184
 42
-0.2472492651
  0
VERTEX
  8
LAYER_1
 10
158.279
 20
-247.6018
 42
-0.1502534052
  0
VERTEX
  8
LAYER_1
 10
158.1063
 20
-248.1984
 42
-0.07033867127
  0
VERTEX
  8
LAYER_1
 10
157.9177
 20
-248.4014
 42
-0.1211283655
  0
VERTEX
  8
LAYER_1
 10
157.2351
 20
-248.728
 42
-0.06222086556
  0
VERTEX
  8
LAYER_1
 10
156.4872
 20
-248.8127
 42
-0.05750856268
  0
VERTEX
  8
LAYER_1
 10
156.0015
 20
-248.7793
  0
VERTEX
  8
LAYER_1
 10
156.0015
 20
-250.2793
  0
VERTEX
  8
LAYER_1
 10
155.3969
 20
-250.2793
  0
SEQEND
  0
POLYLINE
  8
LAYER_1
 40
0.05
 41
0.05
 66
1
 10
0
 20
0
 30
0
 70
1
  0
VERTEX
  8
LAYER_1
 10
156.0015
 20
-248.3852
 42
0.04897120882
  0
VERTEX
  8
LAYER_1
 10
156.501
 20
-248.4245
 42
0.1137012619
  0
VERTEX
  8
LAYER_1
 10
157.2816
 20
-248.2659
 42
0.1652714782
  0
VERTEX
  8
LAYER_1
 10
157.6173
 20
-247.9196
 42
0.1043893073
  0
VERTEX
  8
LAYER_1
 10
157.6751
 20
-247.6242
 42
0.2865639904
  0
VERTEX
  8
LAYER_1
 10
157.3169
 20
-247.0395
 42
0.06445412413
  0
VERTEX
  8
LAYER_1
 10
157.0376
 20
-246.9388
 42
0.05784391407
  0
VERTEX
  8
LAYER_1
 10
156.5713
 20
-246.891
 42
0.05268039105
  0
VERTEX
  8
LAYER_1
 10
156.0015
 20
-246.93
  0
SEQEND
  0
ENDBLK
  0
BLOCK
  8
LAYER_1
  2
AIGNBL0104000A
 70
64
 10
0
 20
0
 30
0
  3
AIGNBL0104000A
  0
POLYLINE
  8
LAYER_1
 40
0.05
 41
0.05
 66
1
 10
0
 20
0
 30
0
 70
1
  0
VERTEX
  8
LAYER_1
 10
159.8218
 20
-246.8352
 42
-0.3039545568
  0
VERTEX
  8
LAYER_1
 10
159.6562
 20
-247.0887
 42
-0.1152466046
  0
VERTEX
  8
LAYER_1
 10
159.4325
 20
-247.1356
 42
-0.2445179838
  0
VERTEX
  8
LAYER_1
 10
159.1045
 20
-246.9759
 42
-0.1392448976
  0
VERTEX
  8
LAYER_1
 10
159.0645
 20
-246.8352
 42
-0.2871964131
  0
VERTEX
  8
LAYER_1
 10
159.2352
 20
-246.5772
 42
-0.118108641
  0
VERTEX
  8
LAYER_1
 10
159.4459
 20
-246.53
 42
-0.2414655549
  0
VERTEX
  8
LAYER_1
 10
159.7788
 20
-246.6849
 42
-0.1427828857
  0
SEQEND
  0
POLYLINE
  8
LAYER_1
 40
0.05
 41
0.05
 66
1
 10
0
 20
0
 30
0
 70
1
  0
VERTEX
  8
LAYER_1
 10
159.1407
 20
-250.2793
  0
VERTEX
  8
LAYER_1
 10
159.1407
 20
-247.5907
  0
VERTEX
  8
LAYER_1
 10
159.7515
 20
-247.5907
  0
VERTEX
  8
LAYER_1
 10
159.7515
 20
-250.2793
  0
SEQEND
  0
ENDBLK
  0
BLOCK
  8
LAYER_1
  2
AIGNBL0104000B
 70
64
 10
0
 20
0
 30
0
  3
AIGNBL0104000B
  0
POLYLINE
  8
LAYER_1
 40
0.05
 41
0.05
 66
1
 10
0
 20
0
 30
0
 70
1
  0
VERTEX
  8
LAYER_1
 10
161.6118
 20
-249.1011
  0
VERTEX
  8
LAYER_1
 10
161.1271
 20
-250.2793
  0
VERTEX
  8
LAYER_1
 10
160.5015
 20
-250.2793
  0
VERTEX
  8
LAYER_1
 10
162.0918
 20
-246.5355
  0
VERTEX
  8
LAYER_1
 10
162.8211
 20
-246.5355
  0
VERTEX
  8
LAYER_1
 10
164.4186
 20
-250.2793
  0
VERTEX
  8
LAYER_1
 10
163.7719
 20
-250.2793
  0
VERTEX
  8
LAYER_1
 10
163.2727
 20
-249.1011
  0
SEQEND
  0
POLYLINE
  8
LAYER_1
 40
0.05
 41
0.05
 66
1
 10
0
 20
0
 30
0
 70
1
  0
VERTEX
  8
LAYER_1
 10
163.1473
 20
-248.7245
  0
VERTEX
  8
LAYER_1
 10
162.6891
 20
-247.6459
 42
-0.02473673698
  0
VERTEX
  8
LAYER_1
 10
162.4466
 20
-246.963
  0
VERTEX
  8
LAYER_1
 10
162.4321
 20
-246.963
 42
-0.01905982629
  0
VERTEX
  8
LAYER_1
 10
162.1961
 20
-247.6414
  0
VERTEX
  8
LAYER_1
 10
161.7379
 20
-248.7245
  0
SEQEND
  0
ENDBLK
  0
BLOCK
  8
LAYER_1
  2
AIGNBL01030004
 70
64
 10
0
 20
0
 30
0
  3
AIGNBL01030004
  0
INSERT
  8
LAYER_1
  2
AIGNBL01040005
 10
0
 20
0
 30
0
  0
INSERT
  8
LAYER_1
  2
AIGNBL01040006
 10
0
 20
0
 30
0
  0
INSERT
  8
LAYER_1
  2
AIGNBL01040007
 10
0
 20
0
 30
0
  0
INSERT
  8
LAYER_1
  2
AIGNBL01040008
 10
0
 20
0
 30
0
  0
INSERT
  8
LAYER_1
  2
AIGNBL01040009
 10
0
 20
0
 30
0
  0
INSERT
  8
LAYER_1
  2
AIGNBL0104000A
 10
0
 20
0
 30
0
  0
INSERT
  8
LAYER_1
  2
AIGNBL0104000B
 10
0
 20
0
 30
0
  0
ENDBLK
  0
BLOCK
  8
LAYER_1
  2
AIGNBL0103000D
 70
64
 10
0
 20
0
 30
0
  3
AIGNBL0103000D
  0
POLYLINE
  8
LAYER_1
 40
0.05
 41
0.05
 66
1
 10
0
 20
0
 30
0
 70
1
  0
VERTEX
  8
LAYER_1
 10
137.3756
 20
-252.1676
  0
VERTEX
  8
LAYER_1
 10
137.9258
 20
-252.1676
  0
VERTEX
  8
LAYER_1
 10
137.9258
 20
-252.2609
  0
VERTEX
  8
LAYER_1
 10
137.2715
 20
-252.2609
  0
VERTEX
  8
LAYER_1
 10
137.2715
 20
-251.2339
  0
VERTEX
  8
LAYER_1
 10
137.9082
 20
-251.2339
  0
VERTEX
  8
LAYER_1
 10
137.9082
 20
-251.3266
  0
VERTEX
  8
LAYER_1
 10
137.3756
 20
-251.3266
  0
VERTEX
  8
LAYER_1
 10
137.3756
 20
-251.6787
  0
VERTEX
  8
LAYER_1
 10
137.8734
 20
-251.6787
  0
VERTEX
  8
LAYER_1
 10
137.8734
 20
-251.7717
  0
VERTEX
  8
LAYER_1
 10
137.3756
 20
-251.7717
  0
SEQEND
  0
ENDBLK
  0
BLOCK
  8
LAYER_1
  2
AIGNBL0103000E
 70
64
 10
0
 20
0
 30
0
  3
AIGNBL0103000E
  0
POLYLINE
  8
LAYER_1
 40
0.05
 41
0.05
 66
1
 10
0
 20
0
 30
0
 70
1
  0
VERTEX
  8
LAYER_1
 10
139.0589
 20
-252.1079
  0
VERTEX
  8
LAYER_1
 10
139.0613
 20
-252.1079
  0
VERTEX
  8
LAYER_1
 10
139.0613
 20
-251.2339
  0
VERTEX
  8
LAYER_1
 10
139.1663
 20
-251.2339
  0
VERTEX
  8
LAYER_1
 10
139.1663
 20
-252.2609
  0
VERTEX
  8
LAYER_1
 10
139.0365
 20
-252.2609
  0
VERTEX
  8
LAYER_1
 10
138.4384
 20
-251.3772
  0
VERTEX
  8
LAYER_1
 10
138.435
 20
-251.3772
  0
VERTEX
  8
LAYER_1
 10
138.435
 20
-252.2609
  0
VERTEX
  8
LAYER_1
 10
138.3306
 20
-252.2609
  0
VERTEX
  8
LAYER_1
 10
138.3306
 20
-251.2339
  0
VERTEX
  8
LAYER_1
 10
138.4611
 20
-251.2339
  0
SEQEND
  0
ENDBLK
  0
BLOCK
  8
LAYER_1
  2
AIGNBL0103000F
 70
64
 10
0
 20
0
 30
0
  3
AIGNBL0103000F
  0
POLYLINE
  8
LAYER_1
 40
0.05
 41
0.05
 66
1
 10
0
 20
0
 30
0
 70
1
  0
VERTEX
  8
LAYER_1
 10
139.637
 20
-252.0501
 42
0.1590284934
  0
VERTEX
  8
LAYER_1
 10
139.691
 20
-252.1527
 42
0.1903970375
  0
VERTEX
  8
LAYER_1
 10
139.8034
 20
-252.1937
  0
VERTEX
  8
LAYER_1
 10
139.8922
 20
-252.1744
  0
VERTEX
  8
LAYER_1
 10
139.948
 20
-252.1214
  0
VERTEX
  8
LAYER_1
 10
139.9763
 20
-252.0453
  0
VERTEX
  8
LAYER_1
 10
139.9853
 20
-251.956
  0
VERTEX
  8
LAYER_1
 10
139.9853
 20
-251.2339
  0
VERTEX
  8
LAYER_1
 10
140.0893
 20
-251.2339
  0
VERTEX
  8
LAYER_1
 10
140.0893
 20
-251.965
  0
VERTEX
  8
LAYER_1
 10
140.0783
 20
-252.0718
 42
-0.08830433873
  0
VERTEX
  8
LAYER_1
 10
140.0369
 20
-252.1765
 42
-0.1153589887
  0
VERTEX
  8
LAYER_1
 10
139.9529
 20
-252.2554
 42
-0.1266166698
  0
VERTEX
  8
LAYER_1
 10
139.8147
 20
-252.2868
 42
-0.1823786802
  0
VERTEX
  8
LAYER_1
 10
139.6311
 20
-252.2268
 42
-0.1773090787
  0
VERTEX
  8
LAYER_1
 10
139.5391
 20
-252.0769
  0
SEQEND
  0
ENDBLK
  0
BLOCK
  8
LAYER_1
  2
AIGNBL01030010
 70
64
 10
0
 20
0
 30
0
  3
AIGNBL01030010
  0
POLYLINE
  8
LAYER_1
 40
0.05
 41
0.05
 66
1
 10
0
 20
0
 30
0
 70
1
  0
VERTEX
  8
LAYER_1
 10
141.5693
 20
-251.7469
 42
-0.1023745756
  0
VERTEX
  8
LAYER_1
 10
141.5279
 20
-251.9629
 42
-0.1012381663
  0
VERTEX
  8
LAYER_1
 10
141.4163
 20
-252.1338
 42
-0.09607034471
  0
VERTEX
  8
LAYER_1
 10
141.2458
 20
-252.2461
 42
-0.09758991962
  0
VERTEX
  8
LAYER_1
 10
141.0332
 20
-252.2868
 42
-0.09910038025
  0
VERTEX
  8
LAYER_1
 10
140.8207
 20
-252.2461
 42
-0.09835332354
  0
VERTEX
  8
LAYER_1
 10
140.6512
 20
-252.1338
 42
-0.09652080474
  0
VERTEX
  8
LAYER_1
 10
140.5389
 20
-251.9629
 42
-0.09814472372
  0
VERTEX
  8
LAYER_1
 10
140.4986
 20
-251.7469
 42
-0.1026891031
  0
VERTEX
  8
LAYER_1
 10
140.5389
 20
-251.5306
 42
-0.09919197624
  0
VERTEX
  8
LAYER_1
 10
140.6512
 20
-251.3604
 42
-0.09851015914
  0
VERTEX
  8
LAYER_1
 10
140.8207
 20
-251.2481
 42
-0.0978389277
  0
VERTEX
  8
LAYER_1
 10
141.0332
 20
-251.2071
 42
-0.1012755921
  0
VERTEX
  8
LAYER_1
 10
141.2458
 20
-251.2481
 42
-0.101055447
  0
VERTEX
  8
LAYER_1
 10
141.4163
 20
-251.3604
 42
-0.100284748
  0
VERTEX
  8
LAYER_1
 10
141.5279
 20
-251.5306
 42
-0.09841189494
  0
SEQEND
  0
POLYLINE
  8
LAYER_1
 40
0.05
 41
0.05
 66
1
 10
0
 20
0
 30
0
 70
1
  0
VERTEX
  8
LAYER_1
 10
141.4584
 20
-251.7476
 42
0.08348185165
  0
VERTEX
  8
LAYER_1
 10
141.4301
 20
-251.5767
 42
0.09888736064
  0
VERTEX
  8
LAYER_1
 10
141.3454
 20
-251.4344
 42
0.1046117232
  0
VERTEX
  8
LAYER_1
 10
141.211
 20
-251.337
 42
0.1084373712
  0
VERTEX
  8
LAYER_1
 10
141.0332
 20
-251.3001
 42
0.1126508353
  0
VERTEX
  8
LAYER_1
 10
140.8558
 20
-251.337
 42
0.1080671084
  0
VERTEX
  8
LAYER_1
 10
140.7225
 20
-251.4344
 42
0.09765540905
  0
VERTEX
  8
LAYER_1
 10
140.6374
 20
-251.5767
 42
0.08446298011
  0
VERTEX
  8
LAYER_1
 10
140.6081
 20
-251.7476
 42
0.08257781466
  0
VERTEX
  8
LAYER_1
 10
140.6374
 20
-251.9188
 42
0.1022479965
  0
VERTEX
  8
LAYER_1
 10
140.7225
 20
-252.0607
 42
0.1007994813
  0
VERTEX
  8
LAYER_1
 10
140.8558
 20
-252.1575
 42
0.1058339915
  0
VERTEX
  8
LAYER_1
 10
141.0332
 20
-252.1937
 42
0.1146720599
  0
VERTEX
  8
LAYER_1
 10
141.211
 20
-252.1575
 42
0.1074750371
  0
VERTEX
  8
LAYER_1
 10
141.3454
 20
-252.0607
 42
0.0957445035
  0
VERTEX
  8
LAYER_1
 10
141.4301
 20
-251.9188
 42
0.08253202369
  0
SEQEND
  0
ENDBLK
  0
BLOCK
  8
LAYER_1
  2
AIGNBL01030011
 70
64
 10
0
 20
0
 30
0
  3
AIGNBL01030011
  0
POLYLINE
  8
LAYER_1
 40
0.05
 41
0.05
 66
1
 10
0
 20
0
 30
0
 70
1
  0
VERTEX
  8
LAYER_1
 10
142.3393
 20
-252.2609
  0
VERTEX
  8
LAYER_1
 10
142.2349
 20
-252.2609
  0
VERTEX
  8
LAYER_1
 10
142.2349
 20
-251.8182
  0
VERTEX
  8
LAYER_1
 10
141.8504
 20
-251.2339
  0
VERTEX
  8
LAYER_1
 10
141.9813
 20
-251.2339
  0
VERTEX
  8
LAYER_1
 10
142.2904
 20
-251.7311
  0
VERTEX
  8
LAYER_1
 10
142.6022
 20
-251.2339
  0
VERTEX
  8
LAYER_1
 10
142.7234
 20
-251.2339
  0
VERTEX
  8
LAYER_1
 10
142.3393
 20
-251.8182
  0
SEQEND
  0
ENDBLK
  0
BLOCK
  8
LAYER_1
  2
AIGNBL01030012
 70
64
 10
0
 20
0
 30
0
  3
AIGNBL01030012
  0
POLYLINE
  8
LAYER_1
 40
0.05
 41
0.05
 66
1
 10
0
 20
0
 30
0
 70
1
  0
VERTEX
  8
LAYER_1
 10
143.6236
 20
-251.2339
  0
VERTEX
  8
LAYER_1
 10
143.9288
 20
-251.2339
  0
VERTEX
  8
LAYER_1
 10
144.047
 20
-251.2457
  0
VERTEX
  8
LAYER_1
 10
144.1528
 20
-251.288
 42
-0.1142786728
  0
VERTEX
  8
LAYER_1
 10
144.2307
 20
-251.3686
 42
-0.1221660448
  0
VERTEX
  8
LAYER_1
 10
144.2603
 20
-251.4961
 42
-0.1789908253
  0
VERTEX
  8
LAYER_1
 10
144.2103
 20
-251.6373
 42
-0.1682964985
  0
VERTEX
  8
LAYER_1
 10
144.078
 20
-251.7166
  0
VERTEX
  8
LAYER_1
 10
144.078
 20
-251.7194
 42
-0.1720252291
  0
VERTEX
  8
LAYER_1
 10
144.2434
 20
-251.7969
 42
-0.2011476059
  0
VERTEX
  8
LAYER_1
 10
144.3099
 20
-251.9764
 42
-0.1263581039
  0
VERTEX
  8
LAYER_1
 10
144.2823
 20
-252.0928
 42
-0.1151202894
  0
VERTEX
  8
LAYER_1
 10
144.2062
 20
-252.1831
 42
-0.08559391469
  0
VERTEX
  8
LAYER_1
 10
144.0866
 20
-252.2402
 42
-0.06581098886
  0
VERTEX
  8
LAYER_1
 10
143.9275
 20
-252.2609
  0
VERTEX
  8
LAYER_1
 10
143.6236
 20
-252.2609
  0
SEQEND
  0
POLYLINE
  8
LAYER_1
 40
0.05
 41
0.05
 66
1
 10
0
 20
0
 30
0
 70
1
  0
VERTEX
  8
LAYER_1
 10
143.7277
 20
-251.6832
  0
VERTEX
  8
LAYER_1
 10
143.9382
 20
-251.6832
  0
VERTEX
  8
LAYER_1
 10
144.0146
 20
-251.6742
  0
VERTEX
  8
LAYER_1
 10
144.0842
 20
-251.6453
  0
VERTEX
  8
LAYER_1
 10
144.1362
 20
-251.5888
 42
0.1124449043
  0
VERTEX
  8
LAYER_1
 10
144.1552
 20
-251.5034
  0
VERTEX
  8
LAYER_1
 10
144.1362
 20
-251.4203
  0
VERTEX
  8
LAYER_1
 10
144.0835
 20
-251.3638
  0
VERTEX
  8
LAYER_1
 10
144.005
 20
-251.3328
  0
VERTEX
  8
LAYER_1
 10
143.9089
 20
-251.3235
  0
VERTEX
  8
LAYER_1
 10
143.7277
 20
-251.3235
  0
SEQEND
  0
POLYLINE
  8
LAYER_1
 40
0.05
 41
0.05
 66
1
 10
0
 20
0
 30
0
 70
1
  0
VERTEX
  8
LAYER_1
 10
143.7277
 20
-252.171
  0
VERTEX
  8
LAYER_1
 10
143.9223
 20
-252.171
  0
VERTEX
  8
LAYER_1
 10
144.0301
 20
-252.1596
  0
VERTEX
  8
LAYER_1
 10
144.1204
 20
-252.1252
  0
VERTEX
  8
LAYER_1
 10
144.181
 20
-252.0625
 42
0.1349508047
  0
VERTEX
  8
LAYER_1
 10
144.2048
 20
-251.9705
 42
0.2483168689
  0
VERTEX
  8
LAYER_1
 10
144.1362
 20
-251.8189
 42
0.1537491355
  0
VERTEX
  8
LAYER_1
 10
143.9413
 20
-251.7686
  0
VERTEX
  8
LAYER_1
 10
143.7277
 20
-251.7686
  0
SEQEND
  0
ENDBLK
  0
BLOCK
  8
LAYER_1
  2
AIGNBL01030013
 70
64
 10
0
 20
0
 30
0
  3
AIGNBL01030013
  0
POLYLINE
  8
LAYER_1
 40
0.05
 41
0.05
 66
1
 10
0
 20
0
 30
0
 70
1
  0
VERTEX
  8
LAYER_1
 10
144.7388
 20
-252.2609
  0
VERTEX
  8
LAYER_1
 10
144.6241
 20
-252.2609
  0
VERTEX
  8
LAYER_1
 10
145.0685
 20
-251.2339
  0
VERTEX
  8
LAYER_1
 10
145.1705
 20
-251.2339
  0
VERTEX
  8
LAYER_1
 10
145.6111
 20
-252.2609
  0
VERTEX
  8
LAYER_1
 10
145.4943
 20
-252.2609
  0
VERTEX
  8
LAYER_1
 10
145.3813
 20
-251.9912
  0
VERTEX
  8
LAYER_1
 10
144.8504
 20
-251.9912
  0
SEQEND
  0
POLYLINE
  8
LAYER_1
 40
0.05
 41
0.05
 66
1
 10
0
 20
0
 30
0
 70
1
  0
VERTEX
  8
LAYER_1
 10
144.8894
 20
-251.8947
  0
VERTEX
  8
LAYER_1
 10
145.3424
 20
-251.8947
  0
VERTEX
  8
LAYER_1
 10
145.1164
 20
-251.3493
  0
SEQEND
  0
ENDBLK
  0
BLOCK
  8
LAYER_1
  2
AIGNBL01030014
 70
64
 10
0
 20
0
 30
0
  3
AIGNBL01030014
  0
POLYLINE
  8
LAYER_1
 40
0.05
 41
0.05
 66
1
 10
0
 20
0
 30
0
 70
1
  0
VERTEX
  8
LAYER_1
 10
146.2915
 20
-252.2609
  0
VERTEX
  8
LAYER_1
 10
146.1871
 20
-252.2609
  0
VERTEX
  8
LAYER_1
 10
146.1871
 20
-251.3266
  0
VERTEX
  8
LAYER_1
 10
145.8426
 20
-251.3266
  0
VERTEX
  8
LAYER_1
 10
145.8426
 20
-251.2339
  0
VERTEX
  8
LAYER_1
 10
146.635
 20
-251.2339
  0
VERTEX
  8
LAYER_1
 10
146.635
 20
-251.3266
  0
VERTEX
  8
LAYER_1
 10
146.2915
 20
-251.3266
  0
SEQEND
  0
ENDBLK
  0
BLOCK
  8
LAYER_1
  2
AIGNBL01030015
 70
64
 10
0
 20
0
 30
0
  3
AIGNBL01030015
  0
POLYLINE
  8
LAYER_1
 40
0.05
 41
0.05
 66
1
 10
0
 20
0
 30
0
 70
1
  0
VERTEX
  8
LAYER_1
 10
146.9888
 20
-251.2339
  0
VERTEX
  8
LAYER_1
 10
147.0932
 20
-251.2339
  0
VERTEX
  8
LAYER_1
 10
147.0932
 20
-251.6787
  0
VERTEX
  8
LAYER_1
 10
147.654
 20
-251.6787
  0
VERTEX
  8
LAYER_1
 10
147.654
 20
-251.2339
  0
VERTEX
  8
LAYER_1
 10
147.7581
 20
-251.2339
  0
VERTEX
  8
LAYER_1
 10
147.7581
 20
-252.2609
  0
VERTEX
  8
LAYER_1
 10
147.654
 20
-252.2609
  0
VERTEX
  8
LAYER_1
 10
147.654
 20
-251.7745
  0
VERTEX
  8
LAYER_1
 10
147.0932
 20
-251.7745
  0
VERTEX
  8
LAYER_1
 10
147.0932
 20
-252.2609
  0
VERTEX
  8
LAYER_1
 10
146.9888
 20
-252.2609
  0
SEQEND
  0
ENDBLK
  0
BLOCK
  8
LAYER_1
  2
AIGNBL01030016
 70
64
 10
0
 20
0
 30
0
  3
AIGNBL01030016
  0
POLYLINE
  8
LAYER_1
 40
0.05
 41
0.05
 66
1
 10
0
 20
0
 30
0
 70
1
  0
VERTEX
  8
LAYER_1
 10
148.3351
 20
-252.2609
  0
VERTEX
  8
LAYER_1
 10
148.2311
 20
-252.2609
  0
VERTEX
  8
LAYER_1
 10
148.2311
 20
-251.2339
  0
VERTEX
  8
LAYER_1
 10
148.5322
 20
-251.2339
  0
VERTEX
  8
LAYER_1
 10
148.6724
 20
-251.2481
 42
-0.1023663758
  0
VERTEX
  8
LAYER_1
 10
148.7844
 20
-251.2953
 42
-0.1332028562
  0
VERTEX
  8
LAYER_1
 10
148.8571
 20
-251.38
 42
-0.109414644
  0
VERTEX
  8
LAYER_1
 10
148.8829
 20
-251.5078
  0
VERTEX
  8
LAYER_1
 10
148.8636
 20
-251.6108
  0
VERTEX
  8
LAYER_1
 10
148.8088
 20
-251.6911
  0
VERTEX
  8
LAYER_1
 10
148.7258
 20
-251.7459
  0
VERTEX
  8
LAYER_1
 10
148.6214
 20
-251.7717
  0
VERTEX
  8
LAYER_1
 10
148.9211
 20
-252.2609
  0
VERTEX
  8
LAYER_1
 10
148.7937
 20
-252.2609
  0
VERTEX
  8
LAYER_1
 10
148.5098
 20
-251.7807
  0
VERTEX
  8
LAYER_1
 10
148.3351
 20
-251.7807
  0
SEQEND
  0
POLYLINE
  8
LAYER_1
 40
0.05
 41
0.05
 66
1
 10
0
 20
0
 30
0
 70
1
  0
VERTEX
  8
LAYER_1
 10
148.3351
 20
-251.6904
  0
VERTEX
  8
LAYER_1
 10
148.517
 20
-251.6904
 42
0.1513063474
  0
VERTEX
  8
LAYER_1
 10
148.711
 20
-251.6453
 42
0.2568804362
  0
VERTEX
  8
LAYER_1
 10
148.7799
 20
-251.5078
  0
VERTEX
  8
LAYER_1
 10
148.7602
 20
-251.4224
 42
0.1232056022
  0
VERTEX
  8
LAYER_1
 10
148.7079
 20
-251.3652
  0
VERTEX
  8
LAYER_1
 10
148.6269
 20
-251.3338
  0
VERTEX
  8
LAYER_1
 10
148.5212
 20
-251.3235
  0
VERTEX
  8
LAYER_1
 10
148.3351
 20
-251.3235
  0
SEQEND
  0
ENDBLK
  0
BLOCK
  8
LAYER_1
  2
AIGNBL01030017
 70
64
 10
0
 20
0
 30
0
  3
AIGNBL01030017
  0
POLYLINE
  8
LAYER_1
 40
0.05
 41
0.05
 66
1
 10
0
 20
0
 30
0
 70
1
  0
VERTEX
  8
LAYER_1
 10
150.3154
 20
-251.7469
 42
-0.09975403421
  0
VERTEX
  8
LAYER_1
 10
150.2747
 20
-251.9629
 42
-0.09935173186
  0
VERTEX
  8
LAYER_1
 10
150.1624
 20
-252.1338
 42
-0.09811740303
  0
VERTEX
  8
LAYER_1
 10
149.9926
 20
-252.2461
 42
-0.09708882113
  0
VERTEX
  8
LAYER_1
 10
149.78
 20
-252.2868
 42
-0.09940093633
  0
VERTEX
  8
LAYER_1
 10
149.5674
 20
-252.2461
 42
-0.1007896559
  0
VERTEX
  8
LAYER_1
 10
149.3979
 20
-252.1338
 42
-0.09768152712
  0
VERTEX
  8
LAYER_1
 10
149.2856
 20
-251.9629
 42
-0.09531839447
  0
VERTEX
  8
LAYER_1
 10
149.2453
 20
-251.7469
 42
-0.09746952437
  0
VERTEX
  8
LAYER_1
 10
149.2856
 20
-251.5306
 42
-0.09925134223
  0
VERTEX
  8
LAYER_1
 10
149.3979
 20
-251.3604
 42
-0.1005970746
  0
VERTEX
  8
LAYER_1
 10
149.5674
 20
-251.2481
 42
-0.09815409965
  0
VERTEX
  8
LAYER_1
 10
149.78
 20
-251.2071
 42
-0.1003559568
  0
VERTEX
  8
LAYER_1
 10
149.9926
 20
-251.2481
 42
-0.1030391221
  0
VERTEX
  8
LAYER_1
 10
150.1624
 20
-251.3604
 42
-0.09760938344
  0
VERTEX
  8
LAYER_1
 10
150.2747
 20
-251.5306
 42
-0.09618621792
  0
SEQEND
  0
POLYLINE
  8
LAYER_1
 40
0.05
 41
0.05
 66
1
 10
0
 20
0
 30
0
 70
1
  0
VERTEX
  8
LAYER_1
 10
150.2051
 20
-251.7476
 42
0.08928566433
  0
VERTEX
  8
LAYER_1
 10
150.1762
 20
-251.5767
 42
0.0967309921
  0
VERTEX
  8
LAYER_1
 10
150.0921
 20
-251.4344
 42
0.1033640041
  0
VERTEX
  8
LAYER_1
 10
149.9581
 20
-251.337
 42
0.1075765453
  0
VERTEX
  8
LAYER_1
 10
149.78
 20
-251.3001
 42
0.1148421003
  0
VERTEX
  8
LAYER_1
 10
149.6026
 20
-251.337
 42
0.106797523
  0
VERTEX
  8
LAYER_1
 10
149.4682
 20
-251.4344
 42
0.09375888087
  0
VERTEX
  8
LAYER_1
 10
149.3842
 20
-251.5767
 42
0.08542444587
  0
VERTEX
  8
LAYER_1
 10
149.3549
 20
-251.7476
 42
0.08738527021
  0
VERTEX
  8
LAYER_1
 10
149.3842
 20
-251.9188
 42
0.09670329037
  0
VERTEX
  8
LAYER_1
 10
149.4682
 20
-252.0607
 42
0.09891153362
  0
VERTEX
  8
LAYER_1
 10
149.6026
 20
-252.1575
 42
0.1067011915
  0
VERTEX
  8
LAYER_1
 10
149.78
 20
-252.1937
 42
0.1133540876
  0
VERTEX
  8
LAYER_1
 10
149.9581
 20
-252.1575
 42
0.1038012544
  0
VERTEX
  8
LAYER_1
 10
150.0921
 20
-252.0607
 42
0.09726416843
  0
VERTEX
  8
LAYER_1
 10
150.1762
 20
-251.9188
 42
0.0854375021
  0
SEQEND
  0
ENDBLK
  0
BLOCK
  8
LAYER_1
  2
AIGNBL01030018
 70
64
 10
0
 20
0
 30
0
  3
AIGNBL01030018
  0
POLYLINE
  8
LAYER_1
 40
0.05
 41
0.05
 66
1
 10
0
 20
0
 30
0
 70
1
  0
VERTEX
  8
LAYER_1
 10
151.7489
 20
-251.7469
 42
-0.09970583877
  0
VERTEX
  8
LAYER_1
 10
151.7086
 20
-251.9629
 42
-0.0976989983
  0
VERTEX
  8
LAYER_1
 10
151.5963
 20
-252.1338
 42
-0.09521451671
  0
VERTEX
  8
LAYER_1
 10
151.4264
 20
-252.2461
 42
-0.09711421911
  0
VERTEX
  8
LAYER_1
 10
151.2139
 20
-252.2868
 42
-0.1003065361
  0
VERTEX
  8
LAYER_1
 10
151.0013
 20
-252.2461
 42
-0.1012502646
  0
VERTEX
  8
LAYER_1
 10
150.8318
 20
-252.1338
 42
-0.09902147312
  0
VERTEX
  8
LAYER_1
 10
150.7188
 20
-251.9629
 42
-0.09657946775
  0
VERTEX
  8
LAYER_1
 10
150.6781
 20
-251.7469
 42
-0.09892706014
  0
VERTEX
  8
LAYER_1
 10
150.7188
 20
-251.5306
 42
-0.1025433378
  0
VERTEX
  8
LAYER_1
 10
150.8318
 20
-251.3604
 42
-0.1009513296
  0
VERTEX
  8
LAYER_1
 10
151.0013
 20
-251.2481
 42
-0.09841178888
  0
VERTEX
  8
LAYER_1
 10
151.2139
 20
-251.2071
 42
-0.1004512574
  0
VERTEX
  8
LAYER_1
 10
151.4264
 20
-251.2481
 42
-0.09871557407
  0
VERTEX
  8
LAYER_1
 10
151.5963
 20
-251.3604
 42
-0.09679690961
  0
VERTEX
  8
LAYER_1
 10
151.7086
 20
-251.5306
 42
-0.09571421233
  0
SEQEND
  0
POLYLINE
  8
LAYER_1
 40
0.05
 41
0.05
 66
1
 10
0
 20
0
 30
0
 70
1
  0
VERTEX
  8
LAYER_1
 10
151.639
 20
-251.7476
 42
0.08698818876
  0
VERTEX
  8
LAYER_1
 10
151.61
 20
-251.5767
 42
0.0956708921
  0
VERTEX
  8
LAYER_1
 10
151.526
 20
-251.4344
 42
0.1033803157
  0
VERTEX
  8
LAYER_1
 10
151.3916
 20
-251.337
 42
0.1075718589
  0
VERTEX
  8
LAYER_1
 10
151.2139
 20
-251.3001
 42
0.1154259577
  0
VERTEX
  8
LAYER_1
 10
151.0361
 20
-251.337
 42
0.1064173637
  0
VERTEX
  8
LAYER_1
 10
150.9017
 20
-251.4344
 42
0.1028942614
  0
VERTEX
  8
LAYER_1
 10
150.818
 20
-251.5767
 42
0.08542444587
  0
VERTEX
  8
LAYER_1
 10
150.7887
 20
-251.7476
 42
0.08738527021
  0
VERTEX
  8
LAYER_1
 10
150.818
 20
-251.9188
 42
0.1032562832
  0
VERTEX
  8
LAYER_1
 10
150.9017
 20
-252.0607
 42
0.1008165521
  0
VERTEX
  8
LAYER_1
 10
151.0361
 20
-252.1575
 42
0.1069398409
  0
VERTEX
  8
LAYER_1
 10
151.2139
 20
-252.1937
 42
0.1127969838
  0
VERTEX
  8
LAYER_1
 10
151.3916
 20
-252.1575
 42
0.1024372123
  0
VERTEX
  8
LAYER_1
 10
151.526
 20
-252.0607
 42
0.09088614582
  0
VERTEX
  8
LAYER_1
 10
151.61
 20
-251.9188
 42
0.08498619229
  0
SEQEND
  0
ENDBLK
  0
BLOCK
  8
LAYER_1
  2
AIGNBL01030019
 70
64
 10
0
 20
0
 30
0
  3
AIGNBL01030019
  0
POLYLINE
  8
LAYER_1
 40
0.05
 41
0.05
 66
1
 10
0
 20
0
 30
0
 70
1
  0
VERTEX
  8
LAYER_1
 10
152.6742
 20
-252.0839
  0
VERTEX
  8
LAYER_1
 10
152.6756
 20
-252.0839
  0
VERTEX
  8
LAYER_1
 10
153.0194
 20
-251.2339
  0
VERTEX
  8
LAYER_1
 10
153.1793
 20
-251.2339
  0
VERTEX
  8
LAYER_1
 10
153.1793
 20
-252.2609
  0
VERTEX
  8
LAYER_1
 10
153.0749
 20
-252.2609
  0
VERTEX
  8
LAYER_1
 10
153.0749
 20
-251.3686
  0
VERTEX
  8
LAYER_1
 10
153.0718
 20
-251.3686
  0
VERTEX
  8
LAYER_1
 10
152.7007
 20
-252.2609
  0
VERTEX
  8
LAYER_1
 10
152.646
 20
-252.2609
  0
VERTEX
  8
LAYER_1
 10
152.2743
 20
-251.3686
  0
VERTEX
  8
LAYER_1
 10
152.2708
 20
-251.3686
  0
VERTEX
  8
LAYER_1
 10
152.2708
 20
-252.2609
  0
VERTEX
  8
LAYER_1
 10
152.1668
 20
-252.2609
  0
VERTEX
  8
LAYER_1
 10
152.1668
 20
-251.2339
  0
VERTEX
  8
LAYER_1
 10
152.327
 20
-251.2339
  0
SEQEND
  0
ENDBLK
  0
BLOCK
  8
LAYER_1
  2
AIGNBL0103001A
 70
64
 10
0
 20
0
 30
0
  3
AIGNBL0103001A
  0
POLYLINE
  8
LAYER_1
 40
0.05
 41
0.05
 66
1
 10
0
 20
0
 30
0
 70
1
  0
VERTEX
  8
LAYER_1
 10
154.3196
 20
-252.1676
  0
VERTEX
  8
LAYER_1
 10
154.8694
 20
-252.1676
  0
VERTEX
  8
LAYER_1
 10
154.8694
 20
-252.2609
  0
VERTEX
  8
LAYER_1
 10
154.2145
 20
-252.2609
  0
VERTEX
  8
LAYER_1
 10
154.2145
 20
-251.2339
  0
VERTEX
  8
LAYER_1
 10
154.8522
 20
-251.2339
  0
VERTEX
  8
LAYER_1
 10
154.8522
 20
-251.3263
  0
VERTEX
  8
LAYER_1
 10
154.3196
 20
-251.3263
  0
VERTEX
  8
LAYER_1
 10
154.3196
 20
-251.6787
  0
VERTEX
  8
LAYER_1
 10
154.8167
 20
-251.6787
  0
VERTEX
  8
LAYER_1
 10
154.8167
 20
-251.7717
  0
VERTEX
  8
LAYER_1
 10
154.3196
 20
-251.7717
  0
SEQEND
  0
ENDBLK
  0
BLOCK
  8
LAYER_1
  2
AIGNBL0103001B
 70
64
 10
0
 20
0
 30
0
  3
AIGNBL0103001B
  0
POLYLINE
  8
LAYER_1
 40
0.05
 41
0.05
 66
1
 10
0
 20
0
 30
0
 70
1
  0
VERTEX
  8
LAYER_1
 10
155.6101
 20
-251.6484
  0
VERTEX
  8
LAYER_1
 10
155.8906
 20
-251.2339
  0
VERTEX
  8
LAYER_1
 10
156.0153
 20
-251.2339
  0
VERTEX
  8
LAYER_1
 10
155.6749
 20
-251.7221
  0
VERTEX
  8
LAYER_1
 10
156.0518
 20
-252.2609
  0
VERTEX
  8
LAYER_1
 10
155.9216
 20
-252.2609
  0
VERTEX
  8
LAYER_1
 10
155.6081
 20
-251.7979
  0
VERTEX
  8
LAYER_1
 10
155.296
 20
-252.2609
  0
VERTEX
  8
LAYER_1
 10
155.165
 20
-252.2609
  0
VERTEX
  8
LAYER_1
 10
155.5426
 20
-251.7211
  0
VERTEX
  8
LAYER_1
 10
155.1988
 20
-251.2339
  0
VERTEX
  8
LAYER_1
 10
155.329
 20
-251.2339
  0
SEQEND
  0
ENDBLK
  0
BLOCK
  8
LAYER_1
  2
AIGNBL0103001C
 70
64
 10
0
 20
0
 30
0
  3
AIGNBL0103001C
  0
POLYLINE
  8
LAYER_1
 40
0.05
 41
0.05
 66
1
 10
0
 20
0
 30
0
 70
1
  0
VERTEX
  8
LAYER_1
 10
156.4159
 20
-251.2339
  0
VERTEX
  8
LAYER_1
 10
156.706
 20
-251.2339
  0
VERTEX
  8
LAYER_1
 10
156.8487
 20
-251.2498
 42
-0.110657953
  0
VERTEX
  8
LAYER_1
 10
156.9575
 20
-251.3015
 42
-0.1163763428
  0
VERTEX
  8
LAYER_1
 10
157.0288
 20
-251.3866
 42
-0.1004779162
  0
VERTEX
  8
LAYER_1
 10
157.053
 20
-251.5078
 42
-0.1135751127
  0
VERTEX
  8
LAYER_1
 10
157.0281
 20
-251.6291
 42
-0.1113908719
  0
VERTEX
  8
LAYER_1
 10
156.9568
 20
-251.7145
 42
-0.08575538996
  0
VERTEX
  8
LAYER_1
 10
156.8459
 20
-251.7659
 42
-0.06072195454
  0
VERTEX
  8
LAYER_1
 10
156.7032
 20
-251.7831
  0
VERTEX
  8
LAYER_1
 10
156.5203
 20
-251.7831
  0
VERTEX
  8
LAYER_1
 10
156.5203
 20
-252.2609
  0
VERTEX
  8
LAYER_1
 10
156.4159
 20
-252.2609
  0
SEQEND
  0
POLYLINE
  8
LAYER_1
 40
0.05
 41
0.05
 66
1
 10
0
 20
0
 30
0
 70
1
  0
VERTEX
  8
LAYER_1
 10
156.5203
 20
-251.6949
  0
VERTEX
  8
LAYER_1
 10
156.6974
 20
-251.6949
 42
0.1668395642
  0
VERTEX
  8
LAYER_1
 10
156.8848
 20
-251.6474
 42
0.2433158568
  0
VERTEX
  8
LAYER_1
 10
156.9489
 20
-251.5078
 42
0.2579107644
  0
VERTEX
  8
LAYER_1
 10
156.8824
 20
-251.3676
 42
0.1431777658
  0
VERTEX
  8
LAYER_1
 10
156.6974
 20
-251.3235
  0
VERTEX
  8
LAYER_1
 10
156.5203
 20
-251.3235
  0
SEQEND
  0
ENDBLK
  0
BLOCK
  8
LAYER_1
  2
AIGNBL0103001D
 70
64
 10
0
 20
0
 30
0
  3
AIGNBL0103001D
  0
POLYLINE
  8
LAYER_1
 40
0.05
 41
0.05
 66
1
 10
0
 20
0
 30
0
 70
1
  0
VERTEX
  8
LAYER_1
 10
157.5621
 20
-252.1676
  0
VERTEX
  8
LAYER_1
 10
158.1116
 20
-252.1676
  0
VERTEX
  8
LAYER_1
 10
158.1116
 20
-252.2609
  0
VERTEX
  8
LAYER_1
 10
157.4577
 20
-252.2609
  0
VERTEX
  8
LAYER_1
 10
157.4577
 20
-251.2339
  0
VERTEX
  8
LAYER_1
 10
158.0947
 20
-251.2339
  0
VERTEX
  8
LAYER_1
 10
158.0947
 20
-251.3263
  0
VERTEX
  8
LAYER_1
 10
157.5621
 20
-251.3263
  0
VERTEX
  8
LAYER_1
 10
157.5621
 20
-251.6787
  0
VERTEX
  8
LAYER_1
 10
158.0599
 20
-251.6787
  0
VERTEX
  8
LAYER_1
 10
158.0599
 20
-251.7717
  0
VERTEX
  8
LAYER_1
 10
157.5621
 20
-251.7717
  0
SEQEND
  0
ENDBLK
  0
BLOCK
  8
LAYER_1
  2
AIGNBL0103001E
 70
64
 10
0
 20
0
 30
0
  3
AIGNBL0103001E
  0
POLYLINE
  8
LAYER_1
 40
0.05
 41
0.05
 66
1
 10
0
 20
0
 30
0
 70
1
  0
VERTEX
  8
LAYER_1
 10
158.6208
 20
-252.2609
  0
VERTEX
  8
LAYER_1
 10
158.5168
 20
-252.2609
  0
VERTEX
  8
LAYER_1
 10
158.5168
 20
-251.2339
  0
VERTEX
  8
LAYER_1
 10
158.8185
 20
-251.2339
  0
VERTEX
  8
LAYER_1
 10
158.9584
 20
-251.2481
 42
-0.1005953548
  0
VERTEX
  8
LAYER_1
 10
159.07
 20
-251.2953
 42
-0.1225647981
  0
VERTEX
  8
LAYER_1
 10
159.1438
 20
-251.38
 42
-0.1056037953
  0
VERTEX
  8
LAYER_1
 10
159.1696
 20
-251.5078
 42
-0.113550017
  0
VERTEX
  8
LAYER_1
 10
159.1493
 20
-251.6105
  0
VERTEX
  8
LAYER_1
 10
159.0945
 20
-251.6915
  0
VERTEX
  8
LAYER_1
 10
159.0111
 20
-251.7459
  0
VERTEX
  8
LAYER_1
 10
158.9067
 20
-251.7717
  0
VERTEX
  8
LAYER_1
 10
159.2075
 20
-252.2609
  0
VERTEX
  8
LAYER_1
 10
159.08
 20
-252.2609
  0
VERTEX
  8
LAYER_1
 10
158.7955
 20
-251.7803
  0
VERTEX
  8
LAYER_1
 10
158.6208
 20
-251.7803
  0
SEQEND
  0
POLYLINE
  8
LAYER_1
 40
0.05
 41
0.05
 66
1
 10
0
 20
0
 30
0
 70
1
  0
VERTEX
  8
LAYER_1
 10
158.6208
 20
-251.69
  0
VERTEX
  8
LAYER_1
 10
158.8027
 20
-251.69
 42
0.1507170359
  0
VERTEX
  8
LAYER_1
 10
158.9974
 20
-251.6453
 42
0.2579683273
  0
VERTEX
  8
LAYER_1
 10
159.0652
 20
-251.5078
  0
VERTEX
  8
LAYER_1
 10
159.047
 20
-251.4224
  0
VERTEX
  8
LAYER_1
 10
158.9943
 20
-251.3652
  0
VERTEX
  8
LAYER_1
 10
158.9123
 20
-251.3338
  0
VERTEX
  8
LAYER_1
 10
158.8065
 20
-251.3235
  0
VERTEX
  8
LAYER_1
 10
158.6208
 20
-251.3235
  0
SEQEND
  0
ENDBLK
  0
BLOCK
  8
LAYER_1
  2
AIGNBL0103001F
 70
64
 10
0
 20
0
 30
0
  3
AIGNBL0103001F
  0
POLYLINE
  8
LAYER_1
 40
0.05
 41
0.05
 66
1
 10
0
 20
0
 30
0
 70
1
  0
VERTEX
  8
LAYER_1
 10
159.6898
 20
-252.2609
  0
VERTEX
  8
LAYER_1
 10
159.5865
 20
-252.2609
  0
VERTEX
  8
LAYER_1
 10
159.5865
 20
-251.2339
  0
VERTEX
  8
LAYER_1
 10
159.6898
 20
-251.2339
  0
SEQEND
  0
ENDBLK
  0
BLOCK
  8
LAYER_1
  2
AIGNBL01030020
 70
64
 10
0
 20
0
 30
0
  3
AIGNBL01030020
  0
POLYLINE
  8
LAYER_1
 40
0.05
 41
0.05
 66
1
 10
0
 20
0
 30
0
 70
1
  0
VERTEX
  8
LAYER_1
 10
160.2676
 20
-252.1676
  0
VERTEX
  8
LAYER_1
 10
160.8174
 20
-252.1676
  0
VERTEX
  8
LAYER_1
 10
160.8174
 20
-252.2609
  0
VERTEX
  8
LAYER_1
 10
160.1639
 20
-252.2609
  0
VERTEX
  8
LAYER_1
 10
160.1639
 20
-251.2339
  0
VERTEX
  8
LAYER_1
 10
160.8005
 20
-251.2339
  0
VERTEX
  8
LAYER_1
 10
160.8005
 20
-251.3263
  0
VERTEX
  8
LAYER_1
 10
160.2676
 20
-251.3263
  0
VERTEX
  8
LAYER_1
 10
160.2676
 20
-251.6787
  0
VERTEX
  8
LAYER_1
 10
160.7654
 20
-251.6787
  0
VERTEX
  8
LAYER_1
 10
160.7654
 20
-251.7717
  0
VERTEX
  8
LAYER_1
 10
160.2676
 20
-251.7717
  0
SEQEND
  0
ENDBLK
  0
BLOCK
  8
LAYER_1
  2
AIGNBL01030021
 70
64
 10
0
 20
0
 30
0
  3
AIGNBL01030021
  0
POLYLINE
  8
LAYER_1
 40
0.05
 41
0.05
 66
1
 10
0
 20
0
 30
0
 70
1
  0
VERTEX
  8
LAYER_1
 10
161.9505
 20
-252.1079
  0
VERTEX
  8
LAYER_1
 10
161.9536
 20
-252.1079
  0
VERTEX
  8
LAYER_1
 10
161.9536
 20
-251.2339
  0
VERTEX
  8
LAYER_1
 10
162.058
 20
-251.2339
  0
VERTEX
  8
LAYER_1
 10
162.058
 20
-252.2609
  0
VERTEX
  8
LAYER_1
 10
161.9277
 20
-252.2609
  0
VERTEX
  8
LAYER_1
 10
161.3297
 20
-251.3772
  0
VERTEX
  8
LAYER_1
 10
161.3266
 20
-251.3772
  0
VERTEX
  8
LAYER_1
 10
161.3266
 20
-252.2609
  0
VERTEX
  8
LAYER_1
 10
161.2222
 20
-252.2609
  0
VERTEX
  8
LAYER_1
 10
161.2222
 20
-251.2339
  0
VERTEX
  8
LAYER_1
 10
161.3535
 20
-251.2339
  0
SEQEND
  0
ENDBLK
  0
BLOCK
  8
LAYER_1
  2
AIGNBL01030022
 70
64
 10
0
 20
0
 30
0
  3
AIGNBL01030022
  0
POLYLINE
  8
LAYER_1
 40
0.05
 41
0.05
 66
1
 10
0
 20
0
 30
0
 70
1
  0
VERTEX
  8
LAYER_1
 10
163.396
 20
-252.0942
  0
VERTEX
  8
LAYER_1
 10
163.3323
 20
-252.1679
  0
VERTEX
  8
LAYER_1
 10
163.2469
 20
-252.2295
  0
VERTEX
  8
LAYER_1
 10
163.1394
 20
-252.2716
  0
VERTEX
  8
LAYER_1
 10
163.0112
 20
-252.2868
 42
-0.09929103144
  0
VERTEX
  8
LAYER_1
 10
162.7966
 20
-252.2461
 42
-0.1031170142
  0
VERTEX
  8
LAYER_1
 10
162.6271
 20
-252.1335
 42
-0.1024256256
  0
VERTEX
  8
LAYER_1
 10
162.5162
 20
-251.9633
 42
-0.09780652729
  0
VERTEX
  8
LAYER_1
 10
162.4759
 20
-251.7469
 42
-0.1005543907
  0
VERTEX
  8
LAYER_1
 10
162.5169
 20
-251.5306
 42
-0.09980539098
  0
VERTEX
  8
LAYER_1
 10
162.6285
 20
-251.3604
 42
-0.09707816065
  0
VERTEX
  8
LAYER_1
 10
162.798
 20
-251.2481
 42
-0.09782536185
  0
VERTEX
  8
LAYER_1
 10
163.0112
 20
-251.2071
  0
VERTEX
  8
LAYER_1
 10
163.1222
 20
-251.2191
  0
VERTEX
  8
LAYER_1
 10
163.2252
 20
-251.2522
  0
VERTEX
  8
LAYER_1
 10
163.3117
 20
-251.3035
  0
VERTEX
  8
LAYER_1
 10
163.3767
 20
-251.3711
  0
VERTEX
  8
LAYER_1
 10
163.2906
 20
-251.4355
  0
VERTEX
  8
LAYER_1
 10
163.2469
 20
-251.3858
  0
VERTEX
  8
LAYER_1
 10
163.1835
 20
-251.3421
  0
VERTEX
  8
LAYER_1
 10
163.1043
 20
-251.3114
  0
VERTEX
  8
LAYER_1
 10
163.0126
 20
-251.3001
 42
0.111032742
  0
VERTEX
  8
LAYER_1
 10
162.8338
 20
-251.3362
 42
0.1048566985
  0
VERTEX
  8
LAYER_1
 10
162.6998
 20
-251.4338
 42
0.09649516609
  0
VERTEX
  8
LAYER_1
 10
162.6147
 20
-251.5764
 42
0.08187604402
  0
VERTEX
  8
LAYER_1
 10
162.5868
 20
-251.7469
 42
0.09351376633
  0
VERTEX
  8
LAYER_1
 10
162.6164
 20
-251.9178
 42
0.09951767869
  0
VERTEX
  8
LAYER_1
 10
162.7012
 20
-252.0601
 42
0.1063497227
  0
VERTEX
  8
LAYER_1
 10
162.8356
 20
-252.1575
 42
0.1081437471
  0
VERTEX
  8
LAYER_1
 10
163.0126
 20
-252.1937
 42
0.1144963135
  0
VERTEX
  8
LAYER_1
 10
163.1804
 20
-252.1575
 42
0.1351211567
  0
VERTEX
  8
LAYER_1
 10
163.3148
 20
-252.0414
  0
SEQEND
  0
ENDBLK
  0
BLOCK
  8
LAYER_1
  2
AIGNBL01030023
 70
64
 10
0
 20
0
 30
0
  3
AIGNBL01030023
  0
POLYLINE
  8
LAYER_1
 40
0.05
 41
0.05
 66
1
 10
0
 20
0
 30
0
 70
1
  0
VERTEX
  8
LAYER_1
 10
163.8801
 20
-252.1676
  0
VERTEX
  8
LAYER_1
 10
164.4299
 20
-252.1676
  0
VERTEX
  8
LAYER_1
 10
164.4299
 20
-252.2609
  0
VERTEX
  8
LAYER_1
 10
163.7764
 20
-252.2609
  0
VERTEX
  8
LAYER_1
 10
163.7764
 20
-251.2339
  0
VERTEX
  8
LAYER_1
 10
164.4127
 20
-251.2339
  0
VERTEX
  8
LAYER_1
 10
164.4127
 20
-251.3263
  0
VERTEX
  8
LAYER_1
 10
163.8801
 20
-251.3263
  0
VERTEX
  8
LAYER_1
 10
163.8801
 20
-251.6787
  0
VERTEX
  8
LAYER_1
 10
164.3782
 20
-251.6787
  0
VERTEX
  8
LAYER_1
 10
164.3782
 20
-251.7717
  0
VERTEX
  8
LAYER_1
 10
163.8801
 20
-251.7717
  0
SEQEND
  0
ENDBLK
  0
BLOCK
  8
LAYER_1
  2
AIGNBL01020003
 70
64
 10
0
 20
0
 30
0
  3
AIGNBL01020003
  0
INSERT
  8
LAYER_1
  2
AIGNBL01030004
 10
0
 20
0
 30
0
  0
ENDBLK
  0
BLOCK
  8
LAYER_1
  2
AIGNBL0102000C
 70
64
 10
0
 20
0
 30
0
  3
AIGNBL0102000C
  0
INSERT
  8
LAYER_1
  2
AIGNBL0103000D
 10
0
 20
0
 30
0
  0
INSERT
  8
LAYER_1
  2
AIGNBL0103000E
 10
0
 20
0
 30
0
  0
INSERT
  8
LAYER_1
  2
AIGNBL0103000F
 10
0
 20
0
 30
0
  0
INSERT
  8
LAYER_1
  2
AIGNBL01030010
 10
0
 20
0
 30
0
  0
INSERT
  8
LAYER_1
  2
AIGNBL01030011
 10
0
 20
0
 30
0
  0
INSERT
  8
LAYER_1
  2
AIGNBL01030012
 10
0
 20
0
 30
0
  0
INSERT
  8
LAYER_1
  2
AIGNBL01030013
 10
0
 20
0
 30
0
  0
INSERT
  8
LAYER_1
  2
AIGNBL01030014
 10
0
 20
0
 30
0
  0
INSERT
  8
LAYER_1
  2
AIGNBL01030015
 10
0
 20
0
 30
0
  0
INSERT
  8
LAYER_1
  2
AIGNBL01030016
 10
0
 20
0
 30
0
  0
INSERT
  8
LAYER_1
  2
AIGNBL01030017
 10
0
 20
0
 30
0
  0
INSERT
  8
LAYER_1
  2
AIGNBL01030018
 10
0
 20
0
 30
0
  0
INSERT
  8
LAYER_1
  2
AIGNBL01030019
 10
0
 20
0
 30
0
  0
INSERT
  8
LAYER_1
  2
AIGNBL0103001A
 10
0
 20
0
 30
0
  0
INSERT
  8
LAYER_1
  2
AIGNBL0103001B
 10
0
 20
0
 30
0
  0
INSERT
  8
LAYER_1
  2
AIGNBL0103001C
 10
0
 20
0
 30
0
  0
INSERT
  8
LAYER_1
  2
AIGNBL0103001D
 10
0
 20
0
 30
0
  0
INSERT
  8
LAYER_1
  2
AIGNBL0103001E
 10
0
 20
0
 30
0
  0
INSERT
  8
LAYER_1
  2
AIGNBL0103001F
 10
0
 20
0
 30
0
  0
INSERT
  8
LAYER_1
  2
AIGNBL01030020
 10
0
 20
0
 30
0
  0
INSERT
  8
LAYER_1
  2
AIGNBL01030021
 10
0
 20
0
 30
0
  0
INSERT
  8
LAYER_1
  2
AIGNBL01030022
 10
0
 20
0
 30
0
  0
INSERT
  8
LAYER_1
  2
AIGNBL01030023
 10
0
 20
0
 30
0
  0
ENDBLK
  0
BLOCK
  8
LAYER_6
  2
AIGNBL06020004
 70
64
 10
0
 20
0
 30
0
  3
AIGNBL06020004
  0
POLYLINE
  8
LAYER_6
 40
0.1058
 41
0.1058
 66
1
 10
0
 20
0
 30
0
  0
VERTEX
  8
LAYER_6
 10
92.5426
 20
-183.8741
  0
VERTEX
  8
LAYER_6
 10
93.251
 20
-183.6249
  0
SEQEND
  0
ENDBLK
  0
BLOCK
  8
LAYER_6
  2
AIGNBL06020005
 70
64
 10
0
 20
0
 30
0
  3
AIGNBL06020005
  0
POLYLINE
  8
LAYER_6
 40
0.1058
 41
0.1058
 66
1
 10
0
 20
0
 30
0
  0
VERTEX
  8
LAYER_6
 10
93.251
 20
-183.6249
  0
VERTEX
  8
LAYER_6
 10
92.6617
 20
-184.0904
  0
SEQEND
  0
ENDBLK
  0
BLOCK
  8
LAYER_6
  2
AIGNBL06020006
 70
64
 10
0
 20
0
 30
0
  3
AIGNBL06020006
  0
POLYLINE
  8
LAYER_6
 40
0.1058
 41
0.1058
 66
1
 10
0
 20
0
 30
0
  0
VERTEX
  8
LAYER_6
 10
93.251
 20
-183.6249
  0
VERTEX
  8
LAYER_6
 10
92.6022
 20
-183.9823
  0
SEQEND
  0
ENDBLK
  0
BLOCK
  8
LAYER_6
  2
AIGNBL06020007
 70
64
 10
0
 20
0
 30
0
  3
AIGNBL06020007
  0
POLYLINE
  8
LAYER_6
 40
0.1058
 41
0.1058
 66
1
 10
0
 20
0
 30
0
  0
VERTEX
  8
LAYER_6
 10
92.5301
 20
-189.2673
  0
VERTEX
  8
LAYER_6
 10
93.251
 20
-189.0569
  0
SEQEND
  0
ENDBLK
  0
BLOCK
  8
LAYER_6
  2
AIGNBL06020008
 70
64
 10
0
 20
0
 30
0
  3
AIGNBL06020008
  0
POLYLINE
  8
LAYER_6
 40
0.1058
 41
0.1058
 66
1
 10
0
 20
0
 30
0
  0
VERTEX
  8
LAYER_6
 10
93.251
 20
-189.0569
  0
VERTEX
  8
LAYER_6
 10
92.6373
 20
-189.4898
  0
SEQEND
  0
ENDBLK
  0
BLOCK
  8
LAYER_6
  2
AIGNBL06020009
 70
64
 10
0
 20
0
 30
0
  3
AIGNBL06020009
  0
POLYLINE
  8
LAYER_6
 40
0.1058
 41
0.1058
 66
1
 10
0
 20
0
 30
0
  0
VERTEX
  8
LAYER_6
 10
93.251
 20
-189.0569
  0
VERTEX
  8
LAYER_6
 10
92.5837
 20
-189.3785
  0
SEQEND
  0
ENDBLK
  0
BLOCK
  8
LAYER_6
  2
AIGNBL0602000A
 70
64
 10
0
 20
0
 30
0
  3
AIGNBL0602000A
  0
POLYLINE
  8
LAYER_6
 40
0.1058
 41
0.1058
 66
1
 10
0
 20
0
 30
0
  0
VERTEX
  8
LAYER_6
 10
91.1488
 20
-197.7385
  0
VERTEX
  8
LAYER_6
 10
91.8818
 20
-197.5754
  0
SEQEND
  0
ENDBLK
  0
BLOCK
  8
LAYER_6
  2
AIGNBL0602000B
 70
64
 10
0
 20
0
 30
0
  3
AIGNBL0602000B
  0
POLYLINE
  8
LAYER_6
 40
0.1058
 41
0.1058
 66
1
 10
0
 20
0
 30
0
  0
VERTEX
  8
LAYER_6
 10
91.8818
 20
-197.5754
  0
VERTEX
  8
LAYER_6
 10
91.2414
 20
-197.9674
  0
SEQEND
  0
ENDBLK
  0
BLOCK
  8
LAYER_6
  2
AIGNBL0602000C
 70
64
 10
0
 20
0
 30
0
  3
AIGNBL0602000C
  0
POLYLINE
  8
LAYER_6
 40
0.1058
 41
0.1058
 66
1
 10
0
 20
0
 30
0
  0
VERTEX
  8
LAYER_6
 10
91.8818
 20
-197.5754
  0
VERTEX
  8
LAYER_6
 10
91.1951
 20
-197.853
  0
SEQEND
  0
ENDBLK
  0
BLOCK
  8
LAYER_6
  2
AIGNBL0602000D
 70
64
 10
0
 20
0
 30
0
  3
AIGNBL0602000D
  0
POLYLINE
  8
LAYER_6
 40
0.1058
 41
0.1058
 66
1
 10
0
 20
0
 30
0
  0
VERTEX
  8
LAYER_6
 10
108.0546
 20
-182.6372
  0
VERTEX
  8
LAYER_6
 10
118.9187
 20
-182.6372
  0
SEQEND
  0
ENDBLK
  0
BLOCK
  8
LAYER_6
  2
AIGNBL0602000E
 70
64
 10
0
 20
0
 30
0
  3
AIGNBL0602000E
  0
POLYLINE
  8
LAYER_6
 40
0.1058
 41
0.1058
 66
1
 10
0
 20
0
 30
0
  0
VERTEX
  8
LAYER_6
 10
105.5854
 20
-63.6259
  0
VERTEX
  8
LAYER_6
 10
118.9187
 20
-63.6259
  0
SEQEND
  0
ENDBLK
  0
BLOCK
  8
LAYER_6
  2
AIGNBL0602000F
 70
64
 10
0
 20
0
 30
0
  3
AIGNBL0602000F
  0
POLYLINE
  8
LAYER_6
 40
0.1058
 41
0.1058
 66
1
 10
0
 20
0
 30
0
  0
VERTEX
  8
LAYER_6
 10
117.931
 20
-181.8965
  0
VERTEX
  8
LAYER_6
 10
117.931
 20
-64.3666
  0
SEQEND
  0
ENDBLK
  0
BLOCK
  8
LAYER_6
  2
AIGNBL06020010
 70
64
 10
0
 20
0
 30
0
  3
AIGNBL06020010
  0
POLYLINE
  8
LAYER_6
 40
0.05
 41
0.05
 62
254
 66
1
 10
0
 20
0
 30
0
 70
1
  0
VERTEX
  8
LAYER_6
 10
117.8076
 20
-181.8965
  0
VERTEX
  8
LAYER_6
 10
117.931
 20
-182.6372
  0
VERTEX
  8
LAYER_6
 10
118.0545
 20
-181.8965
  0
SEQEND
  0
ENDBLK
  0
BLOCK
  8
LAYER_6
  2
AIGNBL06020011
 70
64
 10
0
 20
0
 30
0
  3
AIGNBL06020011
  0
POLYLINE
  8
LAYER_6
 40
0.05
 41
0.05
 62
254
 66
1
 10
0
 20
0
 30
0
 70
1
  0
VERTEX
  8
LAYER_6
 10
117.8076
 20
-64.3666
  0
VERTEX
  8
LAYER_6
 10
117.931
 20
-63.6259
  0
VERTEX
  8
LAYER_6
 10
118.0545
 20
-64.3666
  0
SEQEND
  0
ENDBLK
  0
BLOCK
  8
LAYER_6
  2
AIGNBL06020012
 70
64
 10
0
 20
0
 30
0
  3
AIGNBL06020012
  0
TEXT
  8
LAYER_6
 10
116.7105
 20
-124.7206
 11
116.7105
 21
-124.7206
 40
5.2066
 41
0.5
 50
89.99999999
  1
241
  0
ENDBLK
  0
BLOCK
  8
LAYER_6
  2
AIGNBL06020013
 70
64
 10
0
 20
0
 30
0
  3
AIGNBL06020013
  0
POLYLINE
  8
LAYER_6
 40
0.1058
 41
0.1058
 66
1
 10
0
 20
0
 30
0
  0
VERTEX
  8
LAYER_6
 10
196.6076
 20
-90.7225
  0
VERTEX
  8
LAYER_6
 10
196.6076
 20
-102.3352
  0
SEQEND
  0
ENDBLK
  0
BLOCK
  8
LAYER_6
  2
AIGNBL06020014
 70
64
 10
0
 20
0
 30
0
  3
AIGNBL06020014
  0
POLYLINE
  8
LAYER_6
 40
0.1058
 41
0.1058
 66
1
 10
0
 20
0
 30
0
  0
VERTEX
  8
LAYER_6
 10
148.8834
 20
-99.7292
  0
VERTEX
  8
LAYER_6
 10
148.8834
 20
-102.3352
  0
SEQEND
  0
ENDBLK
  0
BLOCK
  8
LAYER_6
  2
AIGNBL06020015
 70
64
 10
0
 20
0
 30
0
  3
AIGNBL06020015
  0
POLYLINE
  8
LAYER_6
 40
0.1058
 41
0.1058
 66
1
 10
0
 20
0
 30
0
  0
VERTEX
  8
LAYER_6
 10
195.8669
 20
-101.3475
  0
VERTEX
  8
LAYER_6
 10
149.6242
 20
-101.3475
  0
SEQEND
  0
ENDBLK
  0
BLOCK
  8
LAYER_6
  2
AIGNBL06020016
 70
64
 10
0
 20
0
 30
0
  3
AIGNBL06020016
  0
POLYLINE
  8
LAYER_6
 40
0.05
 41
0.05
 62
254
 66
1
 10
0
 20
0
 30
0
 70
1
  0
VERTEX
  8
LAYER_6
 10
195.8669
 20
-101.2241
  0
VERTEX
  8
LAYER_6
 10
196.6076
 20
-101.3475
  0
VERTEX
  8
LAYER_6
 10
195.8669
 20
-101.471
  0
SEQEND
  0
ENDBLK
  0
BLOCK
  8
LAYER_6
  2
AIGNBL06020017
 70
64
 10
0
 20
0
 30
0
  3
AIGNBL06020017
  0
POLYLINE
  8
LAYER_6
 40
0.05
 41
0.05
 62
254
 66
1
 10
0
 20
0
 30
0
 70
1
  0
VERTEX
  8
LAYER_6
 10
149.6242
 20
-101.2241
  0
VERTEX
  8
LAYER_6
 10
148.8834
 20
-101.3475
  0
VERTEX
  8
LAYER_6
 10
149.6242
 20
-101.471
  0
SEQEND
  0
ENDBLK
  0
BLOCK
  8
LAYER_6
  2
AIGNBL06020018
 70
64
 10
0
 20
0
 30
0
  3
AIGNBL06020018
  0
TEXT
  8
LAYER_6
 10
178.6767
 20
-99.461
 11
178.6767
 21
-99.461
 40
5.2066
 41
0.5
  1
96
  0
ENDBLK
  0
BLOCK
  8
LAYER_6
  2
AIGNBL06020019
 70
64
 10
0
 20
0
 30
0
  3
AIGNBL06020019
  0
POLYLINE
  8
LAYER_6
 40
0.1058
 41
0.1058
 66
1
 10
0
 20
0
 30
0
  0
VERTEX
  8
LAYER_6
 10
158.513
 20
-182.6372
  0
VERTEX
  8
LAYER_6
 10
174.3153
 20
-182.6372
  0
SEQEND
  0
ENDBLK
  0
BLOCK
  8
LAYER_6
  2
AIGNBL0602001A
 70
64
 10
0
 20
0
 30
0
  3
AIGNBL0602001A
  0
POLYLINE
  8
LAYER_6
 40
0.1058
 41
0.1058
 66
1
 10
0
 20
0
 30
0
  0
VERTEX
  8
LAYER_6
 10
153.4836
 20
-203.6247
  0
VERTEX
  8
LAYER_6
 10
174.3153
 20
-203.6247
  0
SEQEND
  0
ENDBLK
  0
BLOCK
  8
LAYER_6
  2
AIGNBL0602001B
 70
64
 10
0
 20
0
 30
0
  3
AIGNBL0602001B
  0
POLYLINE
  8
LAYER_6
 40
0.1058
 41
0.1058
 66
1
 10
0
 20
0
 30
0
  0
VERTEX
  8
LAYER_6
 10
173.3277
 20
-183.378
  0
VERTEX
  8
LAYER_6
 10
173.3277
 20
-202.884
  0
SEQEND
  0
ENDBLK
  0
BLOCK
  8
LAYER_6
  2
AIGNBL0602001C
 70
64
 10
0
 20
0
 30
0
  3
AIGNBL0602001C
  0
POLYLINE
  8
LAYER_6
 40
0.05
 41
0.05
 62
254
 66
1
 10
0
 20
0
 30
0
 70
1
  0
VERTEX
  8
LAYER_6
 10
173.2042
 20
-183.378
  0
VERTEX
  8
LAYER_6
 10
173.3277
 20
-182.6372
  0
VERTEX
  8
LAYER_6
 10
173.4511
 20
-183.378
  0
SEQEND
  0
ENDBLK
  0
BLOCK
  8
LAYER_6
  2
AIGNBL0602001D
 70
64
 10
0
 20
0
 30
0
  3
AIGNBL0602001D
  0
POLYLINE
  8
LAYER_6
 40
0.05
 41
0.05
 62
254
 66
1
 10
0
 20
0
 30
0
 70
1
  0
VERTEX
  8
LAYER_6
 10
173.2042
 20
-202.884
  0
VERTEX
  8
LAYER_6
 10
173.3277
 20
-203.6247
  0
VERTEX
  8
LAYER_6
 10
173.4511
 20
-202.884
  0
SEQEND
  0
ENDBLK
  0
BLOCK
  8
LAYER_6
  2
AIGNBL0602001E
 70
64
 10
0
 20
0
 30
0
  3
AIGNBL0602001E
  0
TEXT
  8
LAYER_6
 10
171.6653
 20
-195.1876
 11
171.6653
 21
-195.1876
 40
5.2066
 41
0.5
 50
89.99999999
  1
42.5
  0
ENDBLK
  0
BLOCK
  8
LAYER_6
  2
AIGNBL0602001F
 70
64
 10
0
 20
0
 30
0
  3
AIGNBL0602001F
  0
POLYLINE
  8
LAYER_6
 40
0.1058
 41
0.1058
 66
1
 10
0
 20
0
 30
0
  0
VERTEX
  8
LAYER_6
 10
108.0546
 20
-182.1434
  0
VERTEX
  8
LAYER_6
 10
108.0546
 20
-176.7113
  0
SEQEND
  0
ENDBLK
  0
BLOCK
  8
LAYER_6
  2
AIGNBL06020020
 70
64
 10
0
 20
0
 30
0
  3
AIGNBL06020020
  0
POLYLINE
  8
LAYER_6
 40
0.1058
 41
0.1058
 66
1
 10
0
 20
0
 30
0
  0
VERTEX
  8
LAYER_6
 10
88.7954
 20
-182.1434
  0
VERTEX
  8
LAYER_6
 10
88.7954
 20
-176.7113
  0
SEQEND
  0
ENDBLK
  0
BLOCK
  8
LAYER_6
  2
AIGNBL06020021
 70
64
 10
0
 20
0
 30
0
  3
AIGNBL06020021
  0
POLYLINE
  8
LAYER_6
 40
0.1058
 41
0.1058
 66
1
 10
0
 20
0
 30
0
  0
VERTEX
  8
LAYER_6
 10
107.3138
 20
-177.699
  0
VERTEX
  8
LAYER_6
 10
89.5362
 20
-177.699
  0
SEQEND
  0
ENDBLK
  0
BLOCK
  8
LAYER_6
  2
AIGNBL06020022
 70
64
 10
0
 20
0
 30
0
  3
AIGNBL06020022
  0
POLYLINE
  8
LAYER_6
 40
0.05
 41
0.05
 62
254
 66
1
 10
0
 20
0
 30
0
 70
1
  0
VERTEX
  8
LAYER_6
 10
107.3138
 20
-177.5755
  0
VERTEX
  8
LAYER_6
 10
108.0546
 20
-177.699
  0
VERTEX
  8
LAYER_6
 10
107.3138
 20
-177.8224
  0
SEQEND
  0
ENDBLK
  0
BLOCK
  8
LAYER_6
  2
AIGNBL06020023
 70
64
 10
0
 20
0
 30
0
  3
AIGNBL06020023
  0
POLYLINE
  8
LAYER_6
 40
0.05
 41
0.05
 62
254
 66
1
 10
0
 20
0
 30
0
 70
1
  0
VERTEX
  8
LAYER_6
 10
89.5362
 20
-177.5755
  0
VERTEX
  8
LAYER_6
 10
88.7954
 20
-177.699
  0
VERTEX
  8
LAYER_6
 10
89.5362
 20
-177.8224
  0
SEQEND
  0
ENDBLK
  0
BLOCK
  8
LAYER_6
  2
AIGNBL06020024
 70
64
 10
0
 20
0
 30
0
  3
AIGNBL06020024
  0
TEXT
  8
LAYER_6
 10
98.211
 20
-176.9599
 11
98.211
 21
-176.9599
 40
4.1653
 41
0.5
  1
Φ39
  0
ENDBLK
  0
BLOCK
  8
LAYER_6
  2
AIGNBL06020025
 70
64
 10
0
 20
0
 30
0
  3
AIGNBL06020025
  0
POLYLINE
  8
LAYER_6
 40
0.1058
 41
0.1058
 66
1
 10
0
 20
0
 30
0
  0
VERTEX
  8
LAYER_6
 10
91.0177
 20
-114.8833
  0
VERTEX
  8
LAYER_6
 10
91.0177
 20
-113.8956
  0
SEQEND
  0
ENDBLK
  0
BLOCK
  8
LAYER_6
  2
AIGNBL06020026
 70
64
 10
0
 20
0
 30
0
  3
AIGNBL06020026
  0
POLYLINE
  8
LAYER_6
 40
0.1058
 41
0.1058
 66
1
 10
0
 20
0
 30
0
  0
VERTEX
  8
LAYER_6
 10
105.8323
 20
-114.8833
  0
VERTEX
  8
LAYER_6
 10
105.8323
 20
-113.8956
  0
SEQEND
  0
ENDBLK
  0
BLOCK
  8
LAYER_6
  2
AIGNBL06020027
 70
64
 10
0
 20
0
 30
0
  3
AIGNBL06020027
  0
POLYLINE
  8
LAYER_6
 40
0.1058
 41
0.1058
 66
1
 10
0
 20
0
 30
0
  0
VERTEX
  8
LAYER_6
 10
91.7584
 20
-114.8833
  0
VERTEX
  8
LAYER_6
 10
105.0916
 20
-114.8833
  0
SEQEND
  0
ENDBLK
  0
BLOCK
  8
LAYER_6
  2
AIGNBL06020028
 70
64
 10
0
 20
0
 30
0
  3
AIGNBL06020028
  0
POLYLINE
  8
LAYER_6
 40
0.05
 41
0.05
 62
254
 66
1
 10
0
 20
0
 30
0
 70
1
  0
VERTEX
  8
LAYER_6
 10
91.7584
 20
-114.7598
  0
VERTEX
  8
LAYER_6
 10
91.0177
 20
-114.8833
  0
VERTEX
  8
LAYER_6
 10
91.7584
 20
-115.0068
  0
SEQEND
  0
ENDBLK
  0
BLOCK
  8
LAYER_6
  2
AIGNBL06020029
 70
64
 10
0
 20
0
 30
0
  3
AIGNBL06020029
  0
POLYLINE
  8
LAYER_6
 40
0.05
 41
0.05
 62
254
 66
1
 10
0
 20
0
 30
0
 70
1
  0
VERTEX
  8
LAYER_6
 10
105.0916
 20
-114.7598
  0
VERTEX
  8
LAYER_6
 10
105.8323
 20
-114.8833
  0
VERTEX
  8
LAYER_6
 10
105.0916
 20
-115.0068
  0
SEQEND
  0
ENDBLK
  0
BLOCK
  8
LAYER_6
  2
AIGNBL0602002A
 70
64
 10
0
 20
0
 30
0
  3
AIGNBL0602002A
  0
TEXT
  8
LAYER_6
 10
98.2648
 20
-119.6563
 11
98.2648
 21
-119.6563
 40
4.1653
 41
0.5
  1
Φ30
  0
ENDBLK
  0
BLOCK
  8
LAYER_6
  2
AIGNBL0602002B
 70
64
 10
0
 20
0
 30
0
  3
AIGNBL0602002B
  0
POLYLINE
  8
LAYER_6
 40
0.1058
 41
0.1058
 66
1
 10
0
 20
0
 30
0
  0
VERTEX
  8
LAYER_6
 10
108.0546
 20
-182.6372
  0
VERTEX
  8
LAYER_6
 10
123.8569
 20
-182.6372
  0
SEQEND
  0
ENDBLK
  0
BLOCK
  8
LAYER_6
  2
AIGNBL0602002C
 70
64
 10
0
 20
0
 30
0
  3
AIGNBL0602002C
  0
POLYLINE
  8
LAYER_6
 40
0.1058
 41
0.1058
 66
1
 10
0
 20
0
 30
0
  0
VERTEX
  8
LAYER_6
 10
105.0916
 20
-47.626
  0
VERTEX
  8
LAYER_6
 10
123.8569
 20
-47.626
  0
SEQEND
  0
ENDBLK
  0
BLOCK
  8
LAYER_6
  2
AIGNBL0602002D
 70
64
 10
0
 20
0
 30
0
  3
AIGNBL0602002D
  0
POLYLINE
  8
LAYER_6
 40
0.1058
 41
0.1058
 66
1
 10
0
 20
0
 30
0
  0
VERTEX
  8
LAYER_6
 10
122.8692
 20
-181.8965
  0
VERTEX
  8
LAYER_6
 10
122.8692
 20
-48.3667
  0
SEQEND
  0
ENDBLK
  0
BLOCK
  8
LAYER_6
  2
AIGNBL0602002E
 70
64
 10
0
 20
0
 30
0
  3
AIGNBL0602002E
  0
POLYLINE
  8
LAYER_6
 40
0.05
 41
0.05
 62
254
 66
1
 10
0
 20
0
 30
0
 70
1
  0
VERTEX
  8
LAYER_6
 10
122.7458
 20
-181.8965
  0
VERTEX
  8
LAYER_6
 10
122.8692
 20
-182.6372
  0
VERTEX
  8
LAYER_6
 10
122.9927
 20
-181.8965
  0
SEQEND
  0
ENDBLK
  0
BLOCK
  8
LAYER_6
  2
AIGNBL0602002F
 70
64
 10
0
 20
0
 30
0
  3
AIGNBL0602002F
  0
POLYLINE
  8
LAYER_6
 40
0.05
 41
0.05
 62
254
 66
1
 10
0
 20
0
 30
0
 70
1
  0
VERTEX
  8
LAYER_6
 10
122.7458
 20
-48.3667
  0
VERTEX
  8
LAYER_6
 10
122.8692
 20
-47.626
  0
VERTEX
  8
LAYER_6
 10
122.9927
 20
-48.3667
  0
SEQEND
  0
ENDBLK
  0
BLOCK
  8
LAYER_6
  2
AIGNBL06020030
 70
64
 10
0
 20
0
 30
0
  3
AIGNBL06020030
  0
TEXT
  8
LAYER_6
 10
127.3937
 20
-124.8946
 11
127.3937
 21
-124.8946
 40
5.2066
 41
0.5
 50
89.99999999
  1
273
  0
ENDBLK
  0
BLOCK
  8
LAYER_6
  2
AIGNBL06020031
 70
64
 10
0
 20
0
 30
0
  3
AIGNBL06020031
  0
POLYLINE
  8
LAYER_6
 40
0.1058
 41
0.1058
 66
1
 10
0
 20
0
 30
0
  0
VERTEX
  8
LAYER_6
 10
196.6076
 20
-92.0055
  0
VERTEX
  8
LAYER_6
 10
196.6076
 20
-102.3363
  0
SEQEND
  0
ENDBLK
  0
BLOCK
  8
LAYER_6
  2
AIGNBL06020032
 70
64
 10
0
 20
0
 30
0
  3
AIGNBL06020032
  0
POLYLINE
  8
LAYER_6
 40
0.1058
 41
0.1058
 66
1
 10
0
 20
0
 30
0
  0
VERTEX
  8
LAYER_6
 10
197.3484
 20
-92.0055
  0
VERTEX
  8
LAYER_6
 10
202.4145
 20
-100.7803
  0
SEQEND
  0
ENDBLK
  0
BLOCK
  8
LAYER_6
  2
AIGNBL06020033
 70
64
 10
0
 20
0
 30
0
  3
AIGNBL06020033
  0
POLYLINE
  8
LAYER_6
 40
0.1058
 41
0.1058
 66
1
 10
0
 20
0
 30
0
  0
VERTEX
  8
LAYER_6
 10
197.3479
 20
-101.3228
 42
0.09633487113
  0
VERTEX
  8
LAYER_6
 10
201.2667
 20
-100.2728
  0
SEQEND
  0
ENDBLK
  0
BLOCK
  8
LAYER_6
  2
AIGNBL06020034
 70
64
 10
0
 20
0
 30
0
  3
AIGNBL06020034
  0
POLYLINE
  8
LAYER_6
 40
0.05
 41
0.05
 62
254
 66
1
 10
0
 20
0
 30
0
 70
1
  0
VERTEX
  8
LAYER_6
 10
197.3522
 20
-101.4462
  0
VERTEX
  8
LAYER_6
 10
196.6076
 20
-101.3486
  0
VERTEX
  8
LAYER_6
 10
197.3436
 20
-101.1994
  0
SEQEND
  0
ENDBLK
  0
BLOCK
  8
LAYER_6
  2
AIGNBL06020035
 70
64
 10
0
 20
0
 30
0
  3
AIGNBL06020035
  0
POLYLINE
  8
LAYER_6
 40
0.05
 41
0.05
 62
254
 66
1
 10
0
 20
0
 30
0
 70
1
  0
VERTEX
  8
LAYER_6
 10
201.2087
 20
-100.1638
  0
VERTEX
  8
LAYER_6
 10
201.9207
 20
-99.925
  0
VERTEX
  8
LAYER_6
 10
201.3247
 20
-100.3818
  0
SEQEND
  0
ENDBLK
  0
BLOCK
  8
LAYER_6
  2
AIGNBL06020036
 70
64
 10
0
 20
0
 30
0
  3
AIGNBL06020036
  0
TEXT
  8
LAYER_6
 10
197.2794
 20
-107.0347
 11
197.2794
 21
-107.0347
 40
5.2066
 41
0.5
 50
15.77075465
  1
30%%d
  0
ENDBLK
  0
BLOCK
  8
LAYER_6
  2
AIGNBL06020037
 70
64
 10
0
 20
0
 30
0
  3
AIGNBL06020037
  0
POLYLINE
  8
LAYER_6
 40
0.1058
 41
0.1058
 66
1
 10
0
 20
0
 30
0
  0
VERTEX
  8
LAYER_6
 10
158.513
 20
-182.6372
  0
VERTEX
  8
LAYER_6
 10
174.3153
 20
-182.6372
  0
SEQEND
  0
ENDBLK
  0
BLOCK
  8
LAYER_6
  2
AIGNBL06020038
 70
64
 10
0
 20
0
 30
0
  3
AIGNBL06020038
  0
POLYLINE
  8
LAYER_6
 40
0.1058
 41
0.1058
 66
1
 10
0
 20
0
 30
0
  0
VERTEX
  8
LAYER_6
 10
196.6076
 20
-90.7225
  0
VERTEX
  8
LAYER_6
 10
172.34
 20
-90.7225
  0
SEQEND
  0
ENDBLK
  0
BLOCK
  8
LAYER_6
  2
AIGNBL06020039
 70
64
 10
0
 20
0
 30
0
  3
AIGNBL06020039
  0
POLYLINE
  8
LAYER_6
 40
0.1058
 41
0.1058
 66
1
 10
0
 20
0
 30
0
  0
VERTEX
  8
LAYER_6
 10
173.3277
 20
-181.8965
  0
VERTEX
  8
LAYER_6
 10
173.3277
 20
-91.4632
  0
SEQEND
  0
ENDBLK
  0
BLOCK
  8
LAYER_6
  2
AIGNBL0602003A
 70
64
 10
0
 20
0
 30
0
  3
AIGNBL0602003A
  0
POLYLINE
  8
LAYER_6
 40
0.05
 41
0.05
 62
254
 66
1
 10
0
 20
0
 30
0
 70
1
  0
VERTEX
  8
LAYER_6
 10
173.2042
 20
-181.8965
  0
VERTEX
  8
LAYER_6
 10
173.3277
 20
-182.6372
  0
VERTEX
  8
LAYER_6
 10
173.4511
 20
-181.8965
  0
SEQEND
  0
ENDBLK
  0
BLOCK
  8
LAYER_6
  2
AIGNBL0602003B
 70
64
 10
0
 20
0
 30
0
  3
AIGNBL0602003B
  0
POLYLINE
  8
LAYER_6
 40
0.05
 41
0.05
 62
254
 66
1
 10
0
 20
0
 30
0
 70
1
  0
VERTEX
  8
LAYER_6
 10
173.2042
 20
-91.4632
  0
VERTEX
  8
LAYER_6
 10
173.3277
 20
-90.7225
  0
VERTEX
  8
LAYER_6
 10
173.4511
 20
-91.4632
  0
SEQEND
  0
ENDBLK
  0
BLOCK
  8
LAYER_6
  2
AIGNBL0602003C
 70
64
 10
0
 20
0
 30
0
  3
AIGNBL0602003C
  0
TEXT
  8
LAYER_6
 10
171.6653
 20
-139.5007
 11
171.6653
 21
-139.5007
 40
5.2066
 41
0.5
 50
89.99999999
  1
186
  0
ENDBLK
  0
BLOCK
  8
LAYER_6
  2
AIGNBL0602003D
 70
64
 10
0
 20
0
 30
0
  3
AIGNBL0602003D
  0
POLYLINE
  8
LAYER_6
 40
0.1058
 41
0.1058
 66
1
 10
0
 20
0
 30
0
  0
VERTEX
  8
LAYER_6
 10
106.82
 20
-194.489
  0
VERTEX
  8
LAYER_6
 10
113.8827
 20
-194.489
  0
SEQEND
  0
ENDBLK
  0
BLOCK
  8
LAYER_6
  2
AIGNBL0602003E
 70
64
 10
0
 20
0
 30
0
  3
AIGNBL0602003E
  0
POLYLINE
  8
LAYER_6
 40
0.1058
 41
0.1058
 66
1
 10
0
 20
0
 30
0
  0
VERTEX
  8
LAYER_6
 10
108.0546
 20
-182.6372
  0
VERTEX
  8
LAYER_6
 10
113.8827
 20
-182.6372
  0
SEQEND
  0
ENDBLK
  0
BLOCK
  8
LAYER_6
  2
AIGNBL0602003F
 70
64
 10
0
 20
0
 30
0
  3
AIGNBL0602003F
  0
POLYLINE
  8
LAYER_6
 40
0.1058
 41
0.1058
 66
1
 10
0
 20
0
 30
0
  0
VERTEX
  8
LAYER_6
 10
112.8951
 20
-193.7482
  0
VERTEX
  8
LAYER_6
 10
112.8951
 20
-183.378
  0
SEQEND
  0
ENDBLK
  0
BLOCK
  8
LAYER_6
  2
AIGNBL06020040
 70
64
 10
0
 20
0
 30
0
  3
AIGNBL06020040
  0
POLYLINE
  8
LAYER_6
 40
0.1058
 41
0.1058
 66
1
 10
0
 20
0
 30
0
  0
VERTEX
  8
LAYER_6
 10
112.8951
 20
-182.6372
  0
VERTEX
  8
LAYER_6
 10
112.8951
 20
-169.0808
  0
SEQEND
  0
ENDBLK
  0
BLOCK
  8
LAYER_6
  2
AIGNBL06020041
 70
64
 10
0
 20
0
 30
0
  3
AIGNBL06020041
  0
POLYLINE
  8
LAYER_6
 40
0.05
 41
0.05
 62
254
 66
1
 10
0
 20
0
 30
0
 70
1
  0
VERTEX
  8
LAYER_6
 10
112.7716
 20
-193.7482
  0
VERTEX
  8
LAYER_6
 10
112.8951
 20
-194.489
  0
VERTEX
  8
LAYER_6
 10
113.0186
 20
-193.7482
  0
SEQEND
  0
ENDBLK
  0
BLOCK
  8
LAYER_6
  2
AIGNBL06020042
 70
64
 10
0
 20
0
 30
0
  3
AIGNBL06020042
  0
POLYLINE
  8
LAYER_6
 40
0.05
 41
0.05
 62
254
 66
1
 10
0
 20
0
 30
0
 70
1
  0
VERTEX
  8
LAYER_6
 10
112.7716
 20
-183.378
  0
VERTEX
  8
LAYER_6
 10
112.8951
 20
-182.6372
  0
VERTEX
  8
LAYER_6
 10
113.0186
 20
-183.378
  0
SEQEND
  0
ENDBLK
  0
BLOCK
  8
LAYER_6
  2
AIGNBL06020043
 70
64
 10
0
 20
0
 30
0
  3
AIGNBL06020043
  0
TEXT
  8
LAYER_6
 10
111.5311
 20
-180.3671
 11
111.5311
 21
-180.3671
 40
5.2066
 41
0.5
 50
89.99999999
  1
取付板厚max24
  0
ENDBLK
  0
BLOCK
  8
LAYER_6
  2
AIGNBL06020044
 70
64
 10
0
 20
0
 30
0
  3
AIGNBL06020044
  0
POLYLINE
  8
LAYER_6
 40
0.1058
 41
0.1058
 66
1
 10
0
 20
0
 30
0
  0
VERTEX
  8
LAYER_6
 10
105.5854
 20
-63.6259
  0
VERTEX
  8
LAYER_6
 10
118.9187
 20
-63.6259
  0
SEQEND
  0
ENDBLK
  0
BLOCK
  8
LAYER_6
  2
AIGNBL06020045
 70
64
 10
0
 20
0
 30
0
  3
AIGNBL06020045
  0
POLYLINE
  8
LAYER_6
 40
0.1058
 41
0.1058
 66
1
 10
0
 20
0
 30
0
  0
VERTEX
  8
LAYER_6
 10
105.0916
 20
-47.626
  0
VERTEX
  8
LAYER_6
 10
118.9187
 20
-47.626
  0
SEQEND
  0
ENDBLK
  0
BLOCK
  8
LAYER_6
  2
AIGNBL06020046
 70
64
 10
0
 20
0
 30
0
  3
AIGNBL06020046
  0
POLYLINE
  8
LAYER_6
 40
0.1058
 41
0.1058
 66
1
 10
0
 20
0
 30
0
  0
VERTEX
  8
LAYER_6
 10
117.931
 20
-62.8851
  0
VERTEX
  8
LAYER_6
 10
117.931
 20
-48.3667
  0
SEQEND
  0
ENDBLK
  0
BLOCK
  8
LAYER_6
  2
AIGNBL06020047
 70
64
 10
0
 20
0
 30
0
  3
AIGNBL06020047
  0
POLYLINE
  8
LAYER_6
 40
0.05
 41
0.05
 62
254
 66
1
 10
0
 20
0
 30
0
 70
1
  0
VERTEX
  8
LAYER_6
 10
117.8076
 20
-62.8851
  0
VERTEX
  8
LAYER_6
 10
117.931
 20
-63.6259
  0
VERTEX
  8
LAYER_6
 10
118.0545
 20
-62.8851
  0
SEQEND
  0
ENDBLK
  0
BLOCK
  8
LAYER_6
  2
AIGNBL06020048
 70
64
 10
0
 20
0
 30
0
  3
AIGNBL06020048
  0
POLYLINE
  8
LAYER_6
 40
0.05
 41
0.05
 62
254
 66
1
 10
0
 20
0
 30
0
 70
1
  0
VERTEX
  8
LAYER_6
 10
117.8076
 20
-48.3667
  0
VERTEX
  8
LAYER_6
 10
117.931
 20
-47.626
  0
VERTEX
  8
LAYER_6
 10
118.0545
 20
-48.3667
  0
SEQEND
  0
ENDBLK
  0
BLOCK
  8
LAYER_6
  2
AIGNBL06020049
 70
64
 10
0
 20
0
 30
0
  3
AIGNBL06020049
  0
TEXT
  8
LAYER_6
 10
117.1521
 20
-56.1384
 11
117.1521
 21
-56.1384
 40
5.2066
 41
0.5
 50
89.99999999
  1
32
  0
ENDBLK
  0
BLOCK
  8
LAYER_6
  2
AIGNBL0602004A
 70
64
 10
0
 20
0
 30
0
  3
AIGNBL0602004A
  0
TEXT
  8
LAYER_6
 10
62.9575
 20
-179.767
 11
62.9575
 21
-179.767
 40
4.4124
 41
0.5
  1
取付穴径
  0
TEXT
  8
LAYER_6
 10
62.5639
 20
-185.1172
 11
62.5639
 21
-185.1172
 40
5.2066
 41
0.5
  1
Φ23～25
  0
ENDBLK
  0
BLOCK
  8
LAYER_6
  2
AIGNBL0602004B
 70
64
 10
0
 20
0
 30
0
  3
AIGNBL0602004B
  0
POLYLINE
  8
LAYER_6
 40
0.1058
 41
0.1058
 66
1
 10
0
 20
0
 30
0
  0
VERTEX
  8
LAYER_6
 10
85.0918
 20
-187.5754
  0
VERTEX
  8
LAYER_6
 10
69.0982
 20
-187.5754
  0
SEQEND
  0
POLYLINE
  8
LAYER_6
 40
0.1058
 41
0.1058
 66
1
 10
0
 20
0
 30
0
  0
VERTEX
  8
LAYER_6
 10
92.6022
 20
-183.9823
  0
VERTEX
  8
LAYER_6
 10
86.0794
 20
-187.5754
  0
SEQEND
  0
POLYLINE
  8
LAYER_6
 40
0.1058
 41
0.1058
 66
1
 10
0
 20
0
 30
0
  0
VERTEX
  8
LAYER_6
 10
86.0794
 20
-187.5754
  0
VERTEX
  8
LAYER_6
 10
85.0918
 20
-187.5754
  0
SEQEND
  0
ENDBLK
  0
BLOCK
  8
LAYER_6
  2
AIGNBL0602004C
 70
64
 10
0
 20
0
 30
0
  3
AIGNBL0602004C
  0
TEXT
  8
LAYER_6
 10
65.1596
 20
-193.7227
 11
65.1596
 21
-193.7227
 40
5.2066
 41
0.5
  1
PJ1/2
  0
ENDBLK
  0
BLOCK
  8
LAYER_6
  2
AIGNBL0602004D
 70
64
 10
0
 20
0
 30
0
  3
AIGNBL0602004D
  0
POLYLINE
  8
LAYER_6
 40
0.1058
 41
0.1058
 66
1
 10
0
 20
0
 30
0
  0
VERTEX
  8
LAYER_6
 10
85.0918
 20
-192.5137
  0
VERTEX
  8
LAYER_6
 10
78.148
 20
-192.5137
  0
SEQEND
  0
POLYLINE
  8
LAYER_6
 40
0.1058
 41
0.1058
 66
1
 10
0
 20
0
 30
0
  0
VERTEX
  8
LAYER_6
 10
92.5837
 20
-189.3785
  0
VERTEX
  8
LAYER_6
 10
86.0794
 20
-192.5137
  0
SEQEND
  0
POLYLINE
  8
LAYER_6
 40
0.1058
 41
0.1058
 66
1
 10
0
 20
0
 30
0
  0
VERTEX
  8
LAYER_6
 10
86.0794
 20
-192.5137
  0
VERTEX
  8
LAYER_6
 10
85.0918
 20
-192.5137
  0
SEQEND
  0
ENDBLK
  0
BLOCK
  8
LAYER_6
  2
AIGNBL0602004E
 70
64
 10
0
 20
0
 30
0
  3
AIGNBL0602004E
  0
TEXT
  8
LAYER_6
 10
66.4353
 20
-205.3679
 11
66.4353
 21
-205.3679
 40
5.2066
 41
0.5
  1
二面幅24-六角
  0
ENDBLK
  0
BLOCK
  8
LAYER_6
  2
AIGNBL0602004F
 70
64
 10
0
 20
0
 30
0
  3
AIGNBL0602004F
  0
POLYLINE
  8
LAYER_6
 40
0.1058
 41
0.1058
 66
1
 10
0
 20
0
 30
0
  0
VERTEX
  8
LAYER_6
 10
85.0918
 20
-199.921
  0
VERTEX
  8
LAYER_6
 10
73.4586
 20
-199.921
  0
SEQEND
  0
POLYLINE
  8
LAYER_6
 40
0.1058
 41
0.1058
 66
1
 10
0
 20
0
 30
0
  0
VERTEX
  8
LAYER_6
 10
91.1951
 20
-197.853
  0
VERTEX
  8
LAYER_6
 10
86.0794
 20
-199.921
  0
SEQEND
  0
POLYLINE
  8
LAYER_6
 40
0.1058
 41
0.1058
 66
1
 10
0
 20
0
 30
0
  0
VERTEX
  8
LAYER_6
 10
86.0794
 20
-199.921
  0
VERTEX
  8
LAYER_6
 10
85.0918
 20
-199.921
  0
SEQEND
  0
ENDBLK
  0
BLOCK
  8
LAYER_6
  2
AIGNBL06020050
 70
64
 10
0
 20
0
 30
0
  3
AIGNBL06020050
  0
POLYLINE
  8
LAYER_6
 40
0.1058
 41
0.1058
 66
1
 10
0
 20
0
 30
0
  0
VERTEX
  8
LAYER_6
 10
156.2908
 20
-109.6995
  0
VERTEX
  8
LAYER_6
 10
156.2907
 20
-181.0076
  0
SEQEND
  0
ENDBLK
  0
BLOCK
  8
LAYER_6
  2
AIGNBL06020051
 70
64
 10
0
 20
0
 30
0
  3
AIGNBL06020051
  0
POLYLINE
  8
LAYER_6
 40
0.1058
 41
0.1058
 66
1
 10
0
 20
0
 30
0
  0
VERTEX
  8
LAYER_6
 10
156.2908
 20
-109.6995
  0
VERTEX
  8
LAYER_6
 10
156.1426
 20
-109.5514
  0
SEQEND
  0
ENDBLK
  0
BLOCK
  8
LAYER_6
  2
AIGNBL06020052
 70
64
 10
0
 20
0
 30
0
  3
AIGNBL06020052
  0
POLYLINE
  8
LAYER_6
 40
0.1058
 41
0.1058
 66
1
 10
0
 20
0
 30
0
  0
VERTEX
  8
LAYER_6
 10
148.8834
 20
-181.1557
  0
VERTEX
  8
LAYER_6
 10
156.1426
 20
-181.1557
  0
SEQEND
  0
ENDBLK
  0
BLOCK
  8
LAYER_6
  2
AIGNBL06020053
 70
64
 10
0
 20
0
 30
0
  3
AIGNBL06020053
  0
POLYLINE
  8
LAYER_6
 40
0.1058
 41
0.1058
 66
1
 10
0
 20
0
 30
0
  0
VERTEX
  8
LAYER_6
 10
156.1426
 20
-181.1557
  0
VERTEX
  8
LAYER_6
 10
156.2907
 20
-181.0076
  0
SEQEND
  0
ENDBLK
  0
BLOCK
  8
LAYER_6
  2
AIGNBL06020054
 70
64
 10
0
 20
0
 30
0
  3
AIGNBL06020054
  0
POLYLINE
  8
LAYER_6
 40
0.1058
 41
0.1058
 66
1
 10
0
 20
0
 30
0
  0
VERTEX
  8
LAYER_6
 10
148.8834
 20
-109.5514
  0
VERTEX
  8
LAYER_6
 10
156.1426
 20
-109.5514
  0
SEQEND
  0
ENDBLK
  0
BLOCK
  8
LAYER_6
  2
AIGNBL06020055
 70
64
 10
0
 20
0
 30
0
  3
AIGNBL06020055
  0
POLYLINE
  8
LAYER_6
 40
0.1058
 41
0.1058
 66
1
 10
0
 20
0
 30
0
  0
VERTEX
  8
LAYER_6
 10
141.4761
 20
-109.6995
  0
VERTEX
  8
LAYER_6
 10
141.4761
 20
-181.0076
  0
SEQEND
  0
ENDBLK
  0
BLOCK
  8
LAYER_6
  2
AIGNBL06020056
 70
64
 10
0
 20
0
 30
0
  3
AIGNBL06020056
  0
POLYLINE
  8
LAYER_6
 40
0.1058
 41
0.1058
 66
1
 10
0
 20
0
 30
0
  0
VERTEX
  8
LAYER_6
 10
141.4761
 20
-109.6995
  0
VERTEX
  8
LAYER_6
 10
141.6242
 20
-109.5514
  0
SEQEND
  0
ENDBLK
  0
BLOCK
  8
LAYER_6
  2
AIGNBL06020057
 70
64
 10
0
 20
0
 30
0
  3
AIGNBL06020057
  0
POLYLINE
  8
LAYER_6
 40
0.1058
 41
0.1058
 66
1
 10
0
 20
0
 30
0
  0
VERTEX
  8
LAYER_6
 10
148.8834
 20
-181.1557
  0
VERTEX
  8
LAYER_6
 10
141.6243
 20
-181.1557
  0
SEQEND
  0
ENDBLK
  0
BLOCK
  8
LAYER_6
  2
AIGNBL06020058
 70
64
 10
0
 20
0
 30
0
  3
AIGNBL06020058
  0
POLYLINE
  8
LAYER_6
 40
0.1058
 41
0.1058
 66
1
 10
0
 20
0
 30
0
  0
VERTEX
  8
LAYER_6
 10
141.6243
 20
-181.1557
  0
VERTEX
  8
LAYER_6
 10
141.4761
 20
-181.0076
  0
SEQEND
  0
ENDBLK
  0
BLOCK
  8
LAYER_6
  2
AIGNBL06020059
 70
64
 10
0
 20
0
 30
0
  3
AIGNBL06020059
  0
POLYLINE
  8
LAYER_6
 40
0.1058
 41
0.1058
 66
1
 10
0
 20
0
 30
0
  0
VERTEX
  8
LAYER_6
 10
148.8834
 20
-109.5514
  0
VERTEX
  8
LAYER_6
 10
141.6242
 20
-109.5514
  0
SEQEND
  0
ENDBLK
  0
BLOCK
  8
LAYER_6
  2
AIGNBL0602005A
 70
64
 10
0
 20
0
 30
0
  3
AIGNBL0602005A
  0
POLYLINE
  8
LAYER_6
 40
0.1058
 41
0.1058
 66
1
 10
0
 20
0
 30
0
  0
VERTEX
  8
LAYER_6
 10
148.8834
 20
-203.6247
  0
VERTEX
  8
LAYER_6
 10
153.4836
 20
-203.6247
  0
SEQEND
  0
ENDBLK
  0
BLOCK
  8
LAYER_6
  2
AIGNBL0602005B
 70
64
 10
0
 20
0
 30
0
  3
AIGNBL0602005B
  0
POLYLINE
  8
LAYER_6
 40
0.1058
 41
0.1058
 66
1
 10
0
 20
0
 30
0
  0
VERTEX
  8
LAYER_6
 10
154.0575
 20
-203.0509
  0
VERTEX
  8
LAYER_6
 10
154.0575
 20
-199.1803
  0
SEQEND
  0
ENDBLK
  0
BLOCK
  8
LAYER_6
  2
AIGNBL0602005C
 70
64
 10
0
 20
0
 30
0
  3
AIGNBL0602005C
  0
POLYLINE
  8
LAYER_6
 40
0.1058
 41
0.1058
 66
1
 10
0
 20
0
 30
0
  0
VERTEX
  8
LAYER_6
 10
153.4836
 20
-203.6247
  0
VERTEX
  8
LAYER_6
 10
154.0575
 20
-203.0509
  0
SEQEND
  0
ENDBLK
  0
BLOCK
  8
LAYER_6
  2
AIGNBL0602005D
 70
64
 10
0
 20
0
 30
0
  3
AIGNBL0602005D
  0
POLYLINE
  8
LAYER_6
 40
0.1058
 41
0.1058
 66
1
 10
0
 20
0
 30
0
  0
VERTEX
  8
LAYER_6
 10
154.0575
 20
-200.1679
  0
VERTEX
  8
LAYER_6
 10
154.0575
 20
-199.6741
  0
SEQEND
  0
ENDBLK
  0
BLOCK
  8
LAYER_6
  2
AIGNBL0602005E
 70
64
 10
0
 20
0
 30
0
  3
AIGNBL0602005E
  0
POLYLINE
  8
LAYER_6
 40
0.1058
 41
0.1058
 66
1
 10
0
 20
0
 30
0
  0
VERTEX
  8
LAYER_6
 10
154.0575
 20
-194.489
  0
VERTEX
  8
LAYER_6
 10
154.0575
 20
-183.6249
  0
SEQEND
  0
ENDBLK
  0
BLOCK
  8
LAYER_6
  2
AIGNBL0602005F
 70
64
 10
0
 20
0
 30
0
  3
AIGNBL0602005F
  0
POLYLINE
  8
LAYER_6
 40
0.1058
 41
0.1058
 66
1
 10
0
 20
0
 30
0
  0
VERTEX
  8
LAYER_6
 10
153.4836
 20
-183.6249
  0
VERTEX
  8
LAYER_6
 10
153.4836
 20
-194.489
  0
SEQEND
  0
ENDBLK
  0
BLOCK
  8
LAYER_6
  2
AIGNBL06020060
 70
64
 10
0
 20
0
 30
0
  3
AIGNBL06020060
  0
POLYLINE
  8
LAYER_6
 40
0.1058
 41
0.1058
 66
1
 10
0
 20
0
 30
0
  0
VERTEX
  8
LAYER_6
 10
153.4836
 20
-199.1803
  0
VERTEX
  8
LAYER_6
 10
153.4836
 20
-203.6247
  0
SEQEND
  0
ENDBLK
  0
BLOCK
  8
LAYER_6
  2
AIGNBL06020061
 70
64
 10
0
 20
0
 30
0
  3
AIGNBL06020061
  0
POLYLINE
  8
LAYER_6
 40
0.1058
 41
0.1058
 66
1
 10
0
 20
0
 30
0
  0
VERTEX
  8
LAYER_6
 10
148.8834
 20
-203.6247
  0
VERTEX
  8
LAYER_6
 10
144.2832
 20
-203.6247
  0
SEQEND
  0
ENDBLK
  0
BLOCK
  8
LAYER_6
  2
AIGNBL06020062
 70
64
 10
0
 20
0
 30
0
  3
AIGNBL06020062
  0
POLYLINE
  8
LAYER_6
 40
0.1058
 41
0.1058
 66
1
 10
0
 20
0
 30
0
  0
VERTEX
  8
LAYER_6
 10
143.7094
 20
-203.0509
  0
VERTEX
  8
LAYER_6
 10
143.7094
 20
-199.1803
  0
SEQEND
  0
ENDBLK
  0
BLOCK
  8
LAYER_6
  2
AIGNBL06020063
 70
64
 10
0
 20
0
 30
0
  3
AIGNBL06020063
  0
POLYLINE
  8
LAYER_6
 40
0.1058
 41
0.1058
 66
1
 10
0
 20
0
 30
0
  0
VERTEX
  8
LAYER_6
 10
144.2832
 20
-203.6247
  0
VERTEX
  8
LAYER_6
 10
143.7094
 20
-203.0509
  0
SEQEND
  0
ENDBLK
  0
BLOCK
  8
LAYER_6
  2
AIGNBL06020064
 70
64
 10
0
 20
0
 30
0
  3
AIGNBL06020064
  0
POLYLINE
  8
LAYER_6
 40
0.1058
 41
0.1058
 66
1
 10
0
 20
0
 30
0
  0
VERTEX
  8
LAYER_6
 10
143.7094
 20
-200.1679
  0
VERTEX
  8
LAYER_6
 10
143.7094
 20
-199.6741
  0
SEQEND
  0
ENDBLK
  0
BLOCK
  8
LAYER_6
  2
AIGNBL06020065
 70
64
 10
0
 20
0
 30
0
  3
AIGNBL06020065
  0
POLYLINE
  8
LAYER_6
 40
0.1058
 41
0.1058
 66
1
 10
0
 20
0
 30
0
  0
VERTEX
  8
LAYER_6
 10
143.7094
 20
-194.489
  0
VERTEX
  8
LAYER_6
 10
143.7094
 20
-183.6249
  0
SEQEND
  0
ENDBLK
  0
BLOCK
  8
LAYER_6
  2
AIGNBL06020066
 70
64
 10
0
 20
0
 30
0
  3
AIGNBL06020066
  0
POLYLINE
  8
LAYER_6
 40
0.1058
 41
0.1058
 66
1
 10
0
 20
0
 30
0
  0
VERTEX
  8
LAYER_6
 10
144.2832
 20
-183.6249
  0
VERTEX
  8
LAYER_6
 10
144.2832
 20
-194.489
  0
SEQEND
  0
ENDBLK
  0
BLOCK
  8
LAYER_6
  2
AIGNBL06020067
 70
64
 10
0
 20
0
 30
0
  3
AIGNBL06020067
  0
POLYLINE
  8
LAYER_6
 40
0.1058
 41
0.1058
 66
1
 10
0
 20
0
 30
0
  0
VERTEX
  8
LAYER_6
 10
144.2832
 20
-199.1803
  0
VERTEX
  8
LAYER_6
 10
144.2832
 20
-203.6247
  0
SEQEND
  0
ENDBLK
  0
BLOCK
  8
LAYER_6
  2
AIGNBL06020068
 70
64
 10
0
 20
0
 30
0
  3
AIGNBL06020068
  0
POLYLINE
  8
LAYER_6
 40
0.1058
 41
0.1058
 66
1
 10
0
 20
0
 30
0
  0
VERTEX
  8
LAYER_6
 10
176.9718
 20
-76.2307
  0
VERTEX
  8
LAYER_6
 10
156.2908
 20
-76.2307
  0
SEQEND
  0
ENDBLK
  0
BLOCK
  8
LAYER_6
  2
AIGNBL06020069
 70
64
 10
0
 20
0
 30
0
  3
AIGNBL06020069
  0
POLYLINE
  8
LAYER_6
 40
0.1058
 41
0.1058
 66
1
 10
0
 20
0
 30
0
  0
VERTEX
  8
LAYER_6
 10
156.2908
 20
-66.8234
  0
VERTEX
  8
LAYER_6
 10
176.9718
 20
-66.8234
  0
SEQEND
  0
ENDBLK
  0
BLOCK
  8
LAYER_6
  2
AIGNBL0602006A
 70
64
 10
0
 20
0
 30
0
  3
AIGNBL0602006A
  0
POLYLINE
  8
LAYER_6
  6
AIGENLINE001
 40
0.1058
 41
0.1058
 66
1
 10
0
 20
0
 30
0
 70
128
  0
VERTEX
  8
LAYER_6
 10
189.1073
 20
-77.8444
 42
0.2446995114
  0
VERTEX
  8
LAYER_6
 10
176.9718
 20
-71.527
  0
SEQEND
  0
ENDBLK
  0
BLOCK
  8
LAYER_6
  2
AIGNBL0602006B
 70
64
 10
0
 20
0
 30
0
  3
AIGNBL0602006B
  0
POLYLINE
  8
LAYER_6
  6
AIGENLINE001
 40
0.1058
 41
0.1058
 66
1
 10
0
 20
0
 30
0
 70
128
  0
VERTEX
  8
LAYER_6
 10
176.9718
 20
-71.527
  0
VERTEX
  8
LAYER_6
 10
148.8834
 20
-71.527
  0
SEQEND
  0
ENDBLK
  0
BLOCK
  8
LAYER_6
  2
AIGNBL0602006C
 70
64
 10
0
 20
0
 30
0
  3
AIGNBL0602006C
  0
POLYLINE
  8
LAYER_6
 40
0.1058
 41
0.1058
 66
1
 10
0
 20
0
 30
0
  0
VERTEX
  8
LAYER_6
 10
185.7283
 20
-81.2862
 42
0.2679509445
  0
VERTEX
  8
LAYER_6
 10
176.9718
 20
-76.2307
  0
SEQEND
  0
ENDBLK
  0
BLOCK
  8
LAYER_6
  2
AIGNBL0602006D
 70
64
 10
0
 20
0
 30
0
  3
AIGNBL0602006D
  0
POLYLINE
  8
LAYER_6
 40
0.1058
 41
0.1058
 66
1
 10
0
 20
0
 30
0
  0
VERTEX
  8
LAYER_6
 10
193.8752
 20
-76.5825
 42
0.2679490617
  0
VERTEX
  8
LAYER_6
 10
176.9718
 20
-66.8234
  0
SEQEND
  0
ENDBLK
  0
BLOCK
  8
LAYER_6
  2
AIGNBL0602006E
 70
64
 10
0
 20
0
 30
0
  3
AIGNBL0602006E
  0
POLYLINE
  8
LAYER_6
 40
0.1058
 41
0.1058
 66
1
 10
0
 20
0
 30
0
  0
VERTEX
  8
LAYER_6
 10
185.7283
 20
-81.2862
  0
VERTEX
  8
LAYER_6
 10
186.5095
 20
-82.6394
  0
SEQEND
  0
ENDBLK
  0
BLOCK
  8
LAYER_6
  2
AIGNBL0602006F
 70
64
 10
0
 20
0
 30
0
  3
AIGNBL0602006F
  0
POLYLINE
  8
LAYER_6
 40
0.1058
 41
0.1058
 66
1
 10
0
 20
0
 30
0
  0
VERTEX
  8
LAYER_6
 10
193.8752
 20
-76.5825
  0
VERTEX
  8
LAYER_6
 10
194.6565
 20
-77.9357
  0
SEQEND
  0
ENDBLK
  0
BLOCK
  8
LAYER_6
  2
AIGNBL06020070
 70
64
 10
0
 20
0
 30
0
  3
AIGNBL06020070
  0
POLYLINE
  8
LAYER_6
 40
0.1058
 41
0.1058
 66
1
 10
0
 20
0
 30
0
  0
VERTEX
  8
LAYER_6
 10
186.5095
 20
-82.6394
  0
VERTEX
  8
LAYER_6
 10
186.7119
 20
-82.6936
  0
SEQEND
  0
ENDBLK
  0
BLOCK
  8
LAYER_6
  2
AIGNBL06020071
 70
64
 10
0
 20
0
 30
0
  3
AIGNBL06020071
  0
POLYLINE
  8
LAYER_6
 40
0.1058
 41
0.1058
 66
1
 10
0
 20
0
 30
0
  0
VERTEX
  8
LAYER_6
 10
194.6023
 20
-78.1381
  0
VERTEX
  8
LAYER_6
 10
194.6565
 20
-77.9357
  0
SEQEND
  0
ENDBLK
  0
BLOCK
  8
LAYER_6
  2
AIGNBL06020072
 70
64
 10
0
 20
0
 30
0
  3
AIGNBL06020072
  0
POLYLINE
  8
LAYER_6
 40
0.1058
 41
0.1058
 66
1
 10
0
 20
0
 30
0
  0
VERTEX
  8
LAYER_6
 10
186.7119
 20
-82.6936
  0
VERTEX
  8
LAYER_6
 10
186.5095
 20
-82.6394
  0
SEQEND
  0
ENDBLK
  0
BLOCK
  8
LAYER_6
  2
AIGNBL06020073
 70
64
 10
0
 20
0
 30
0
  3
AIGNBL06020073
  0
POLYLINE
  8
LAYER_6
 40
0.1058
 41
0.1058
 66
1
 10
0
 20
0
 30
0
  0
VERTEX
  8
LAYER_6
 10
188.0338
 20
-82.7857
  0
VERTEX
  8
LAYER_6
 10
188.3054
 20
-83.2561
  0
SEQEND
  0
ENDBLK
  0
BLOCK
  8
LAYER_6
  2
AIGNBL06020074
 70
64
 10
0
 20
0
 30
0
  3
AIGNBL06020074
  0
POLYLINE
  8
LAYER_6
 40
0.1058
 41
0.1058
 66
1
 10
0
 20
0
 30
0
  0
VERTEX
  8
LAYER_6
 10
194.2927
 20
-79.7993
  0
VERTEX
  8
LAYER_6
 10
194.0211
 20
-79.3289
  0
SEQEND
  0
ENDBLK
  0
BLOCK
  8
LAYER_6
  2
AIGNBL06020075
 70
64
 10
0
 20
0
 30
0
  3
AIGNBL06020075
  0
POLYLINE
  8
LAYER_6
 40
0.1058
 41
0.1058
 66
1
 10
0
 20
0
 30
0
  0
VERTEX
  8
LAYER_6
 10
190.6571
 20
-80.4158
  0
VERTEX
  8
LAYER_6
 10
194.6023
 20
-78.1381
  0
SEQEND
  0
ENDBLK
  0
BLOCK
  8
LAYER_6
  2
AIGNBL06020076
 70
64
 10
0
 20
0
 30
0
  3
AIGNBL06020076
  0
POLYLINE
  8
LAYER_6
 40
0.1058
 41
0.1058
 66
1
 10
0
 20
0
 30
0
  0
VERTEX
  8
LAYER_6
 10
194.9619
 20
-78.7857
  0
VERTEX
  8
LAYER_6
 10
191.0274
 20
-81.0573
  0
SEQEND
  0
ENDBLK
  0
BLOCK
  8
LAYER_6
  2
AIGNBL06020077
 70
64
 10
0
 20
0
 30
0
  3
AIGNBL06020077
  0
POLYLINE
  8
LAYER_6
  6
AIGENLINE001
 40
0.1058
 41
0.1058
 66
1
 10
0
 20
0
 30
0
 70
128
  0
VERTEX
  8
LAYER_6
 10
197.3484
 20
-92.0055
  0
VERTEX
  8
LAYER_6
 10
189.6031
 20
-78.5903
  0
SEQEND
  0
ENDBLK
  0
BLOCK
  8
LAYER_6
  2
AIGNBL06020078
 70
64
 10
0
 20
0
 30
0
  3
AIGNBL06020078
  0
POLYLINE
  8
LAYER_6
 40
0.1058
 41
0.1058
 66
1
 10
0
 20
0
 30
0
  0
VERTEX
  8
LAYER_6
 10
186.8906
 20
-83.2747
  0
VERTEX
  8
LAYER_6
 10
186.7177
 20
-82.9753
  0
SEQEND
  0
ENDBLK
  0
BLOCK
  8
LAYER_6
  2
AIGNBL06020079
 70
64
 10
0
 20
0
 30
0
  3
AIGNBL06020079
  0
POLYLINE
  8
LAYER_6
 40
0.1058
 41
0.1058
 66
1
 10
0
 20
0
 30
0
  0
VERTEX
  8
LAYER_6
 10
194.8433
 20
-78.284
  0
VERTEX
  8
LAYER_6
 10
195.0162
 20
-78.5834
  0
SEQEND
  0
ENDBLK
  0
BLOCK
  8
LAYER_6
  2
AIGNBL0602007A
 70
64
 10
0
 20
0
 30
0
  3
AIGNBL0602007A
  0
POLYLINE
  8
LAYER_6
 40
0.1058
 41
0.1058
 66
1
 10
0
 20
0
 30
0
  0
VERTEX
  8
LAYER_6
 10
194.9619
 20
-78.7857
  0
VERTEX
  8
LAYER_6
 10
195.0162
 20
-78.5834
  0
SEQEND
  0
ENDBLK
  0
BLOCK
  8
LAYER_6
  2
AIGNBL0602007B
 70
64
 10
0
 20
0
 30
0
  3
AIGNBL0602007B
  0
POLYLINE
  8
LAYER_6
 40
0.1058
 41
0.1058
 66
1
 10
0
 20
0
 30
0
  0
VERTEX
  8
LAYER_6
 10
187.093
 20
-83.3289
  0
VERTEX
  8
LAYER_6
 10
186.8906
 20
-83.2747
  0
SEQEND
  0
ENDBLK
  0
BLOCK
  8
LAYER_6
  2
AIGNBL0602007C
 70
64
 10
0
 20
0
 30
0
  3
AIGNBL0602007C
  0
POLYLINE
  8
LAYER_6
 40
0.1058
 41
0.1058
 66
1
 10
0
 20
0
 30
0
  0
VERTEX
  8
LAYER_6
 10
187.0929
 20
-83.3289
  0
VERTEX
  8
LAYER_6
 10
186.8906
 20
-83.2747
  0
SEQEND
  0
ENDBLK
  0
BLOCK
  8
LAYER_6
  2
AIGNBL0602007D
 70
64
 10
0
 20
0
 30
0
  3
AIGNBL0602007D
  0
POLYLINE
  8
LAYER_6
 40
0.1058
 41
0.1058
 66
1
 10
0
 20
0
 30
0
  0
VERTEX
  8
LAYER_6
 10
187.0929
 20
-83.3289
  0
VERTEX
  8
LAYER_6
 10
191.0274
 20
-81.0573
  0
SEQEND
  0
ENDBLK
  0
BLOCK
  8
LAYER_6
  2
AIGNBL0602007E
 70
64
 10
0
 20
0
 30
0
  3
AIGNBL0602007E
  0
POLYLINE
  8
LAYER_6
 40
0.1058
 41
0.1058
 66
1
 10
0
 20
0
 30
0
  0
VERTEX
  8
LAYER_6
 10
190.6571
 20
-80.4158
  0
VERTEX
  8
LAYER_6
 10
186.7119
 20
-82.6936
  0
SEQEND
  0
ENDBLK
  0
BLOCK
  8
LAYER_6
  2
AIGNBL0602007F
 70
64
 10
0
 20
0
 30
0
  3
AIGNBL0602007F
  0
POLYLINE
  8
LAYER_6
 40
0.1058
 41
0.1058
 66
1
 10
0
 20
0
 30
0
  0
VERTEX
  8
LAYER_6
 10
186.7177
 20
-82.9753
  0
VERTEX
  8
LAYER_6
 10
186.8906
 20
-83.2747
  0
SEQEND
  0
ENDBLK
  0
BLOCK
  8
LAYER_6
  2
AIGNBL06020080
 70
64
 10
0
 20
0
 30
0
  3
AIGNBL06020080
  0
POLYLINE
  8
LAYER_6
 40
0.1058
 41
0.1058
 66
1
 10
0
 20
0
 30
0
  0
VERTEX
  8
LAYER_6
 10
186.7177
 20
-82.9753
  0
VERTEX
  8
LAYER_6
 10
186.8081
 20
-82.638
  0
SEQEND
  0
ENDBLK
  0
BLOCK
  8
LAYER_6
  2
AIGNBL06020081
 70
64
 10
0
 20
0
 30
0
  3
AIGNBL06020081
  0
POLYLINE
  8
LAYER_6
 40
0.1058
 41
0.1058
 66
1
 10
0
 20
0
 30
0
  0
VERTEX
  8
LAYER_6
 10
194.8433
 20
-78.284
  0
VERTEX
  8
LAYER_6
 10
194.506
 20
-78.1936
  0
SEQEND
  0
ENDBLK
  0
BLOCK
  8
LAYER_6
  2
AIGNBL06020082
 70
64
 10
0
 20
0
 30
0
  3
AIGNBL06020082
  0
POLYLINE
  8
LAYER_6
 40
0.1058
 41
0.1058
 66
1
 10
0
 20
0
 30
0
  0
VERTEX
  8
LAYER_6
 10
141.6242
 20
-109.5514
  0
VERTEX
  8
LAYER_6
 10
148.8834
 20
-109.5514
  0
SEQEND
  0
ENDBLK
  0
BLOCK
  8
LAYER_6
  2
AIGNBL06020083
 70
64
 10
0
 20
0
 30
0
  3
AIGNBL06020083
  0
POLYLINE
  8
LAYER_6
 40
0.1058
 41
0.1058
 66
1
 10
0
 20
0
 30
0
  0
VERTEX
  8
LAYER_6
 10
152.5871
 20
-109.5514
  0
VERTEX
  8
LAYER_6
 10
156.1426
 20
-109.5514
  0
SEQEND
  0
ENDBLK
  0
BLOCK
  8
LAYER_6
  2
AIGNBL06020084
 70
64
 10
0
 20
0
 30
0
  3
AIGNBL06020084
  0
POLYLINE
  8
LAYER_6
 40
0.1058
 41
0.1058
 66
1
 10
0
 20
0
 30
0
  0
VERTEX
  8
LAYER_6
 10
141.4761
 20
-109.4033
  0
VERTEX
  8
LAYER_6
 10
141.6242
 20
-109.5514
  0
SEQEND
  0
ENDBLK
  0
BLOCK
  8
LAYER_6
  2
AIGNBL06020085
 70
64
 10
0
 20
0
 30
0
  3
AIGNBL06020085
  0
POLYLINE
  8
LAYER_6
 40
0.1058
 41
0.1058
 66
1
 10
0
 20
0
 30
0
  0
VERTEX
  8
LAYER_6
 10
156.2908
 20
-109.4033
  0
VERTEX
  8
LAYER_6
 10
156.1426
 20
-109.5514
  0
SEQEND
  0
ENDBLK
  0
BLOCK
  8
LAYER_6
  2
AIGNBL06020086
 70
64
 10
0
 20
0
 30
0
  3
AIGNBL06020086
  0
POLYLINE
  8
LAYER_6
 40
0.1058
 41
0.1058
 66
1
 10
0
 20
0
 30
0
  0
VERTEX
  8
LAYER_6
 10
156.2908
 20
-63.8728
  0
VERTEX
  8
LAYER_6
 10
156.2908
 20
-66.8234
  0
SEQEND
  0
ENDBLK
  0
BLOCK
  8
LAYER_6
  2
AIGNBL06020087
 70
64
 10
0
 20
0
 30
0
  3
AIGNBL06020087
  0
POLYLINE
  8
LAYER_6
 40
0.1058
 41
0.1058
 66
1
 10
0
 20
0
 30
0
  0
VERTEX
  8
LAYER_6
 10
156.2908
 20
-76.2307
  0
VERTEX
  8
LAYER_6
 10
156.2908
 20
-109.4033
  0
SEQEND
  0
ENDBLK
  0
BLOCK
  8
LAYER_6
  2
AIGNBL06020088
 70
64
 10
0
 20
0
 30
0
  3
AIGNBL06020088
  0
POLYLINE
  8
LAYER_6
 40
0.1058
 41
0.1058
 66
1
 10
0
 20
0
 30
0
  0
VERTEX
  8
LAYER_6
 10
156.2908
 20
-63.8728
 42
0.4142175945
  0
VERTEX
  8
LAYER_6
 10
156.0439
 20
-63.6259
  0
SEQEND
  0
ENDBLK
  0
BLOCK
  8
LAYER_6
  2
AIGNBL06020089
 70
64
 10
0
 20
0
 30
0
  3
AIGNBL06020089
  0
POLYLINE
  8
LAYER_6
 40
0.1058
 41
0.1058
 66
1
 10
0
 20
0
 30
0
  0
VERTEX
  8
LAYER_6
 10
141.4761
 20
-63.8728
  0
VERTEX
  8
LAYER_6
 10
141.4761
 20
-109.4033
  0
SEQEND
  0
ENDBLK
  0
BLOCK
  8
LAYER_6
  2
AIGNBL0602008A
 70
64
 10
0
 20
0
 30
0
  3
AIGNBL0602008A
  0
POLYLINE
  8
LAYER_6
 40
0.1058
 41
0.1058
 66
1
 10
0
 20
0
 30
0
  0
VERTEX
  8
LAYER_6
 10
141.723
 20
-63.6259
 42
0.414256723
  0
VERTEX
  8
LAYER_6
 10
141.4761
 20
-63.8728
  0
SEQEND
  0
ENDBLK
  0
BLOCK
  8
LAYER_6
  2
AIGNBL0602008B
 70
64
 10
0
 20
0
 30
0
  3
AIGNBL0602008B
  0
POLYLINE
  8
LAYER_6
  6
AIGENLINE001
 40
0.1058
 41
0.1058
 66
1
 10
0
 20
0
 30
0
 70
128
  0
VERTEX
  8
LAYER_6
 10
148.8834
 20
-46.1445
  0
VERTEX
  8
LAYER_6
 10
148.8834
 20
-205.1062
  0
SEQEND
  0
ENDBLK
  0
BLOCK
  8
LAYER_6
  2
AIGNBL0602008C
 70
64
 10
0
 20
0
 30
0
  3
AIGNBL0602008C
  0
POLYLINE
  8
LAYER_6
 40
0.1058
 41
0.1058
 66
1
 10
0
 20
0
 30
0
  0
VERTEX
  8
LAYER_6
 10
154.9328
 20
-63.2802
  0
VERTEX
  8
LAYER_6
 10
154.9328
 20
-63.6259
  0
SEQEND
  0
ENDBLK
  0
BLOCK
  8
LAYER_6
  2
AIGNBL0602008D
 70
64
 10
0
 20
0
 30
0
  3
AIGNBL0602008D
  0
POLYLINE
  8
LAYER_6
 40
0.1058
 41
0.1058
 66
1
 10
0
 20
0
 30
0
  0
VERTEX
  8
LAYER_6
 10
154.834
 20
-63.1814
  0
VERTEX
  8
LAYER_6
 10
154.9328
 20
-63.2802
  0
SEQEND
  0
ENDBLK
  0
BLOCK
  8
LAYER_6
  2
AIGNBL0602008E
 70
64
 10
0
 20
0
 30
0
  3
AIGNBL0602008E
  0
POLYLINE
  8
LAYER_6
 40
0.1058
 41
0.1058
 66
1
 10
0
 20
0
 30
0
  0
VERTEX
  8
LAYER_6
 10
148.8834
 20
-63.6259
  0
VERTEX
  8
LAYER_6
 10
156.0439
 20
-63.6259
  0
SEQEND
  0
ENDBLK
  0
BLOCK
  8
LAYER_6
  2
AIGNBL0602008F
 70
64
 10
0
 20
0
 30
0
  3
AIGNBL0602008F
  0
POLYLINE
  8
LAYER_6
 40
0.1058
 41
0.1058
 66
1
 10
0
 20
0
 30
0
  0
VERTEX
  8
LAYER_6
 10
142.8341
 20
-63.2802
  0
VERTEX
  8
LAYER_6
 10
142.8341
 20
-63.6259
  0
SEQEND
  0
ENDBLK
  0
BLOCK
  8
LAYER_6
  2
AIGNBL06020090
 70
64
 10
0
 20
0
 30
0
  3
AIGNBL06020090
  0
POLYLINE
  8
LAYER_6
 40
0.1058
 41
0.1058
 66
1
 10
0
 20
0
 30
0
  0
VERTEX
  8
LAYER_6
 10
142.9329
 20
-63.1814
  0
VERTEX
  8
LAYER_6
 10
142.8341
 20
-63.2802
  0
SEQEND
  0
ENDBLK
  0
BLOCK
  8
LAYER_6
  2
AIGNBL06020091
 70
64
 10
0
 20
0
 30
0
  3
AIGNBL06020091
  0
POLYLINE
  8
LAYER_6
 40
0.1058
 41
0.1058
 66
1
 10
0
 20
0
 30
0
  0
VERTEX
  8
LAYER_6
 10
148.8834
 20
-63.6259
  0
VERTEX
  8
LAYER_6
 10
141.723
 20
-63.6259
  0
SEQEND
  0
ENDBLK
  0
BLOCK
  8
LAYER_6
  2
AIGNBL06020092
 70
64
 10
0
 20
0
 30
0
  3
AIGNBL06020092
  0
POLYLINE
  8
LAYER_6
 40
0.1058
 41
0.1058
 66
1
 10
0
 20
0
 30
0
  0
VERTEX
  8
LAYER_6
 10
91.0176
 20
-109.6995
  0
VERTEX
  8
LAYER_6
 10
91.0177
 20
-181.0076
  0
SEQEND
  0
ENDBLK
  0
BLOCK
  8
LAYER_6
  2
AIGNBL06020093
 70
64
 10
0
 20
0
 30
0
  3
AIGNBL06020093
  0
POLYLINE
  8
LAYER_6
 40
0.1058
 41
0.1058
 66
1
 10
0
 20
0
 30
0
  0
VERTEX
  8
LAYER_6
 10
91.1658
 20
-109.5514
  0
VERTEX
  8
LAYER_6
 10
91.0176
 20
-109.6995
  0
SEQEND
  0
ENDBLK
  0
BLOCK
  8
LAYER_6
  2
AIGNBL06020094
 70
64
 10
0
 20
0
 30
0
  3
AIGNBL06020094
  0
POLYLINE
  8
LAYER_6
 40
0.1058
 41
0.1058
 66
1
 10
0
 20
0
 30
0
  0
VERTEX
  8
LAYER_6
 10
91.1658
 20
-181.1557
  0
VERTEX
  8
LAYER_6
 10
91.0177
 20
-181.0076
  0
SEQEND
  0
ENDBLK
  0
BLOCK
  8
LAYER_6
  2
AIGNBL06020095
 70
64
 10
0
 20
0
 30
0
  3
AIGNBL06020095
  0
POLYLINE
  8
LAYER_6
 40
0.1058
 41
0.1058
 66
1
 10
0
 20
0
 30
0
  0
VERTEX
  8
LAYER_6
 10
91.1658
 20
-109.5514
  0
VERTEX
  8
LAYER_6
 10
98.425
 20
-109.5514
  0
SEQEND
  0
ENDBLK
  0
BLOCK
  8
LAYER_6
  2
AIGNBL06020096
 70
64
 10
0
 20
0
 30
0
  3
AIGNBL06020096
  0
POLYLINE
  8
LAYER_6
 40
0.1058
 41
0.1058
 66
1
 10
0
 20
0
 30
0
  0
VERTEX
  8
LAYER_6
 10
105.8324
 20
-109.6995
  0
VERTEX
  8
LAYER_6
 10
105.8323
 20
-181.0076
  0
SEQEND
  0
ENDBLK
  0
BLOCK
  8
LAYER_6
  2
AIGNBL06020097
 70
64
 10
0
 20
0
 30
0
  3
AIGNBL06020097
  0
POLYLINE
  8
LAYER_6
 40
0.1058
 41
0.1058
 66
1
 10
0
 20
0
 30
0
  0
VERTEX
  8
LAYER_6
 10
105.6842
 20
-109.5514
  0
VERTEX
  8
LAYER_6
 10
98.425
 20
-109.5514
  0
SEQEND
  0
ENDBLK
  0
BLOCK
  8
LAYER_6
  2
AIGNBL06020098
 70
64
 10
0
 20
0
 30
0
  3
AIGNBL06020098
  0
POLYLINE
  8
LAYER_6
 40
0.1058
 41
0.1058
 66
1
 10
0
 20
0
 30
0
  0
VERTEX
  8
LAYER_6
 10
105.8324
 20
-109.6995
  0
VERTEX
  8
LAYER_6
 10
105.6842
 20
-109.5514
  0
SEQEND
  0
ENDBLK
  0
BLOCK
  8
LAYER_6
  2
AIGNBL06020099
 70
64
 10
0
 20
0
 30
0
  3
AIGNBL06020099
  0
POLYLINE
  8
LAYER_6
 40
0.1058
 41
0.1058
 66
1
 10
0
 20
0
 30
0
  0
VERTEX
  8
LAYER_6
 10
91.0176
 20
-109.6995
  0
VERTEX
  8
LAYER_6
 10
105.8324
 20
-109.6995
  0
SEQEND
  0
ENDBLK
  0
BLOCK
  8
LAYER_6
  2
AIGNBL0602009A
 70
64
 10
0
 20
0
 30
0
  3
AIGNBL0602009A
  0
POLYLINE
  8
LAYER_6
 40
0.1058
 41
0.1058
 66
1
 10
0
 20
0
 30
0
  0
VERTEX
  8
LAYER_6
 10
93.251
 20
-183.6249
  0
VERTEX
  8
LAYER_6
 10
93.251
 20
-194.489
  0
SEQEND
  0
ENDBLK
  0
BLOCK
  8
LAYER_6
  2
AIGNBL0602009B
 70
64
 10
0
 20
0
 30
0
  3
AIGNBL0602009B
  0
POLYLINE
  8
LAYER_6
 40
0.1058
 41
0.1058
 66
1
 10
0
 20
0
 30
0
  0
VERTEX
  8
LAYER_6
 10
93.251
 20
-199.1803
  0
VERTEX
  8
LAYER_6
 10
93.251
 20
-203.0509
  0
SEQEND
  0
ENDBLK
  0
BLOCK
  8
LAYER_6
  2
AIGNBL0602009C
 70
64
 10
0
 20
0
 30
0
  3
AIGNBL0602009C
  0
POLYLINE
  8
LAYER_6
 40
0.1058
 41
0.1058
 66
1
 10
0
 20
0
 30
0
  0
VERTEX
  8
LAYER_6
 10
93.8248
 20
-203.6247
  0
VERTEX
  8
LAYER_6
 10
98.425
 20
-203.6247
  0
SEQEND
  0
ENDBLK
  0
BLOCK
  8
LAYER_6
  2
AIGNBL0602009D
 70
64
 10
0
 20
0
 30
0
  3
AIGNBL0602009D
  0
POLYLINE
  8
LAYER_6
 40
0.1058
 41
0.1058
 66
1
 10
0
 20
0
 30
0
  0
VERTEX
  8
LAYER_6
 10
93.8248
 20
-203.6247
  0
VERTEX
  8
LAYER_6
 10
93.251
 20
-203.0509
  0
SEQEND
  0
ENDBLK
  0
BLOCK
  8
LAYER_6
  2
AIGNBL0602009E
 70
64
 10
0
 20
0
 30
0
  3
AIGNBL0602009E
  0
POLYLINE
  8
LAYER_6
 40
0.1058
 41
0.1058
 66
1
 10
0
 20
0
 30
0
  0
VERTEX
  8
LAYER_6
 10
93.251
 20
-203.0509
  0
VERTEX
  8
LAYER_6
 10
98.425
 20
-203.0509
  0
SEQEND
  0
ENDBLK
  0
BLOCK
  8
LAYER_6
  2
AIGNBL0602009F
 70
64
 10
0
 20
0
 30
0
  3
AIGNBL0602009F
  0
POLYLINE
  8
LAYER_6
 40
0.1058
 41
0.1058
 66
1
 10
0
 20
0
 30
0
  0
VERTEX
  8
LAYER_6
 10
93.8248
 20
-183.6249
  0
VERTEX
  8
LAYER_6
 10
93.8248
 20
-194.489
  0
SEQEND
  0
ENDBLK
  0
BLOCK
  8
LAYER_6
  2
AIGNBL060200A0
 70
64
 10
0
 20
0
 30
0
  3
AIGNBL060200A0
  0
POLYLINE
  8
LAYER_6
 40
0.1058
 41
0.1058
 66
1
 10
0
 20
0
 30
0
  0
VERTEX
  8
LAYER_6
 10
93.8248
 20
-199.1803
  0
VERTEX
  8
LAYER_6
 10
93.8248
 20
-203.6247
  0
SEQEND
  0
ENDBLK
  0
BLOCK
  8
LAYER_6
  2
AIGNBL060200A1
 70
64
 10
0
 20
0
 30
0
  3
AIGNBL060200A1
  0
POLYLINE
  8
LAYER_6
 40
0.1058
 41
0.1058
 66
1
 10
0
 20
0
 30
0
  0
VERTEX
  8
LAYER_6
 10
103.599
 20
-183.6249
  0
VERTEX
  8
LAYER_6
 10
103.599
 20
-194.489
  0
SEQEND
  0
ENDBLK
  0
BLOCK
  8
LAYER_6
  2
AIGNBL060200A2
 70
64
 10
0
 20
0
 30
0
  3
AIGNBL060200A2
  0
POLYLINE
  8
LAYER_6
 40
0.1058
 41
0.1058
 66
1
 10
0
 20
0
 30
0
  0
VERTEX
  8
LAYER_6
 10
103.599
 20
-199.1803
  0
VERTEX
  8
LAYER_6
 10
103.599
 20
-203.0509
  0
SEQEND
  0
ENDBLK
  0
BLOCK
  8
LAYER_6
  2
AIGNBL060200A3
 70
64
 10
0
 20
0
 30
0
  3
AIGNBL060200A3
  0
POLYLINE
  8
LAYER_6
 40
0.1058
 41
0.1058
 66
1
 10
0
 20
0
 30
0
  0
VERTEX
  8
LAYER_6
 10
103.0252
 20
-203.6247
  0
VERTEX
  8
LAYER_6
 10
98.425
 20
-203.6247
  0
SEQEND
  0
ENDBLK
  0
BLOCK
  8
LAYER_6
  2
AIGNBL060200A4
 70
64
 10
0
 20
0
 30
0
  3
AIGNBL060200A4
  0
POLYLINE
  8
LAYER_6
 40
0.1058
 41
0.1058
 66
1
 10
0
 20
0
 30
0
  0
VERTEX
  8
LAYER_6
 10
103.0252
 20
-203.6247
  0
VERTEX
  8
LAYER_6
 10
103.599
 20
-203.0509
  0
SEQEND
  0
ENDBLK
  0
BLOCK
  8
LAYER_6
  2
AIGNBL060200A5
 70
64
 10
0
 20
0
 30
0
  3
AIGNBL060200A5
  0
POLYLINE
  8
LAYER_6
 40
0.1058
 41
0.1058
 66
1
 10
0
 20
0
 30
0
  0
VERTEX
  8
LAYER_6
 10
103.599
 20
-203.0509
  0
VERTEX
  8
LAYER_6
 10
98.425
 20
-203.0509
  0
SEQEND
  0
ENDBLK
  0
BLOCK
  8
LAYER_6
  2
AIGNBL060200A6
 70
64
 10
0
 20
0
 30
0
  3
AIGNBL060200A6
  0
POLYLINE
  8
LAYER_6
 40
0.1058
 41
0.1058
 66
1
 10
0
 20
0
 30
0
  0
VERTEX
  8
LAYER_6
 10
103.0252
 20
-183.6249
  0
VERTEX
  8
LAYER_6
 10
103.0252
 20
-194.489
  0
SEQEND
  0
ENDBLK
  0
BLOCK
  8
LAYER_6
  2
AIGNBL060200A7
 70
64
 10
0
 20
0
 30
0
  3
AIGNBL060200A7
  0
POLYLINE
  8
LAYER_6
 40
0.1058
 41
0.1058
 66
1
 10
0
 20
0
 30
0
  0
VERTEX
  8
LAYER_6
 10
103.0252
 20
-199.1803
  0
VERTEX
  8
LAYER_6
 10
103.0252
 20
-203.6247
  0
SEQEND
  0
ENDBLK
  0
BLOCK
  8
LAYER_6
  2
AIGNBL060200A8
 70
64
 10
0
 20
0
 30
0
  3
AIGNBL060200A8
  0
POLYLINE
  8
LAYER_6
 40
0.1058
 41
0.1058
 66
1
 10
0
 20
0
 30
0
  0
VERTEX
  8
LAYER_6
 10
91.1658
 20
-181.1557
  0
VERTEX
  8
LAYER_6
 10
98.425
 20
-181.1557
  0
SEQEND
  0
ENDBLK
  0
BLOCK
  8
LAYER_6
  2
AIGNBL060200A9
 70
64
 10
0
 20
0
 30
0
  3
AIGNBL060200A9
  0
POLYLINE
  8
LAYER_6
 40
0.1058
 41
0.1058
 66
1
 10
0
 20
0
 30
0
  0
VERTEX
  8
LAYER_6
 10
105.6842
 20
-181.1557
  0
VERTEX
  8
LAYER_6
 10
98.425
 20
-181.1557
  0
SEQEND
  0
ENDBLK
  0
BLOCK
  8
LAYER_6
  2
AIGNBL060200AA
 70
64
 10
0
 20
0
 30
0
  3
AIGNBL060200AA
  0
POLYLINE
  8
LAYER_6
 40
0.1058
 41
0.1058
 66
1
 10
0
 20
0
 30
0
  0
VERTEX
  8
LAYER_6
 10
105.8323
 20
-181.0076
  0
VERTEX
  8
LAYER_6
 10
105.6842
 20
-181.1557
  0
SEQEND
  0
ENDBLK
  0
BLOCK
  8
LAYER_6
  2
AIGNBL060200AB
 70
64
 10
0
 20
0
 30
0
  3
AIGNBL060200AB
  0
POLYLINE
  8
LAYER_6
 40
0.1058
 41
0.1058
 66
1
 10
0
 20
0
 30
0
  0
VERTEX
  8
LAYER_6
 10
91.0177
 20
-181.0076
  0
VERTEX
  8
LAYER_6
 10
105.8323
 20
-181.0076
  0
SEQEND
  0
ENDBLK
  0
BLOCK
  8
LAYER_6
  2
AIGNBL060200AC
 70
64
 10
0
 20
0
 30
0
  3
AIGNBL060200AC
  0
POLYLINE
  8
LAYER_6
 40
0.1058
 41
0.1058
 66
1
 10
0
 20
0
 30
0
  0
VERTEX
  8
LAYER_6
 10
91.1658
 20
-109.5514
  0
VERTEX
  8
LAYER_6
 10
105.6842
 20
-109.5514
  0
SEQEND
  0
ENDBLK
  0
BLOCK
  8
LAYER_6
  2
AIGNBL060200AD
 70
64
 10
0
 20
0
 30
0
  3
AIGNBL060200AD
  0
POLYLINE
  8
LAYER_6
 40
0.1058
 41
0.1058
 66
1
 10
0
 20
0
 30
0
  0
VERTEX
  8
LAYER_6
 10
105.8323
 20
-109.4033
  0
VERTEX
  8
LAYER_6
 10
105.6842
 20
-109.5514
  0
SEQEND
  0
ENDBLK
  0
BLOCK
  8
LAYER_6
  2
AIGNBL060200AE
 70
64
 10
0
 20
0
 30
0
  3
AIGNBL060200AE
  0
POLYLINE
  8
LAYER_6
 40
0.1058
 41
0.1058
 66
1
 10
0
 20
0
 30
0
  0
VERTEX
  8
LAYER_6
 10
91.0177
 20
-109.4033
  0
VERTEX
  8
LAYER_6
 10
91.1658
 20
-109.5514
  0
SEQEND
  0
ENDBLK
  0
BLOCK
  8
LAYER_6
  2
AIGNBL060200AF
 70
64
 10
0
 20
0
 30
0
  3
AIGNBL060200AF
  0
POLYLINE
  8
LAYER_6
 40
0.1058
 41
0.1058
 66
1
 10
0
 20
0
 30
0
  0
VERTEX
  8
LAYER_6
 10
105.8323
 20
-63.8728
  0
VERTEX
  8
LAYER_6
 10
105.8323
 20
-109.4033
  0
SEQEND
  0
ENDBLK
  0
BLOCK
  8
LAYER_6
  2
AIGNBL060200B0
 70
64
 10
0
 20
0
 30
0
  3
AIGNBL060200B0
  0
POLYLINE
  8
LAYER_6
 40
0.1058
 41
0.1058
 66
1
 10
0
 20
0
 30
0
  0
VERTEX
  8
LAYER_6
 10
105.8323
 20
-63.8728
 42
0.4142964909
  0
VERTEX
  8
LAYER_6
 10
105.5854
 20
-63.6259
  0
SEQEND
  0
ENDBLK
  0
BLOCK
  8
LAYER_6
  2
AIGNBL060200B1
 70
64
 10
0
 20
0
 30
0
  3
AIGNBL060200B1
  0
POLYLINE
  8
LAYER_6
 40
0.1058
 41
0.1058
 66
1
 10
0
 20
0
 30
0
  0
VERTEX
  8
LAYER_6
 10
91.0177
 20
-63.8728
  0
VERTEX
  8
LAYER_6
 10
91.0177
 20
-109.4033
  0
SEQEND
  0
ENDBLK
  0
BLOCK
  8
LAYER_6
  2
AIGNBL060200B2
 70
64
 10
0
 20
0
 30
0
  3
AIGNBL060200B2
  0
POLYLINE
  8
LAYER_6
 40
0.1058
 41
0.1058
 66
1
 10
0
 20
0
 30
0
  0
VERTEX
  8
LAYER_6
 10
91.2646
 20
-63.6259
 42
0.4142964912
  0
VERTEX
  8
LAYER_6
 10
91.0177
 20
-63.8728
  0
SEQEND
  0
ENDBLK
  0
BLOCK
  8
LAYER_6
  2
AIGNBL060200B3
 70
64
 10
0
 20
0
 30
0
  3
AIGNBL060200B3
  0
POLYLINE
  8
LAYER_6
 40
0.1058
 41
0.1058
 66
1
 10
0
 20
0
 30
0
  0
VERTEX
  8
LAYER_6
 10
98.425
 20
-63.6259
  0
VERTEX
  8
LAYER_6
 10
105.5854
 20
-63.6259
  0
SEQEND
  0
ENDBLK
  0
BLOCK
  8
LAYER_6
  2
AIGNBL060200B4
 70
64
 10
0
 20
0
 30
0
  3
AIGNBL060200B4
  0
POLYLINE
  8
LAYER_6
 40
0.1058
 41
0.1058
 66
1
 10
0
 20
0
 30
0
  0
VERTEX
  8
LAYER_6
 10
98.425
 20
-63.6259
  0
VERTEX
  8
LAYER_6
 10
91.2646
 20
-63.6259
  0
SEQEND
  0
ENDBLK
  0
BLOCK
  8
LAYER_6
  2
AIGNBL060200B5
 70
64
 10
0
 20
0
 30
0
  3
AIGNBL060200B5
  0
POLYLINE
  8
LAYER_6
 40
0.1058
 41
0.1058
 66
1
 10
0
 20
0
 30
0
  0
VERTEX
  8
LAYER_6
 10
91.0177
 20
-109.4033
  0
VERTEX
  8
LAYER_6
 10
105.8323
 20
-109.4033
  0
SEQEND
  0
ENDBLK
  0
BLOCK
  8
LAYER_6
  2
AIGNBL060200B6
 70
64
 10
0
 20
0
 30
0
  3
AIGNBL060200B6
  0
POLYLINE
  8
LAYER_6
 40
0.1058
 41
0.1058
 66
1
 10
0
 20
0
 30
0
  0
VERTEX
  8
LAYER_6
 10
102.8044
 20
-79.7886
 42
0.1067684286
  0
VERTEX
  8
LAYER_6
 10
102.2035
 20
-79.1424
 42
0.06989972312
  0
VERTEX
  8
LAYER_6
 10
101.2272
 20
-78.6198
 42
0.05384235966
  0
VERTEX
  8
LAYER_6
 10
99.8334
 20
-78.2494
 42
0.04713567731
  0
VERTEX
  8
LAYER_6
 10
98.1918
 20
-78.1405
 42
0.02894005328
  0
VERTEX
  8
LAYER_6
 10
97.1706
 20
-78.2261
 42
0.05649804232
  0
VERTEX
  8
LAYER_6
 10
95.6038
 20
-78.6274
 42
0.06667374693
  0
VERTEX
  8
LAYER_6
 10
94.5984
 20
-79.1798
 42
0.09277433498
  0
VERTEX
  8
LAYER_6
 10
94.0456
 20
-79.7886
  0
SEQEND
  0
ENDBLK
  0
BLOCK
  8
LAYER_6
  2
AIGNBL060200B7
 70
64
 10
0
 20
0
 30
0
  3
AIGNBL060200B7
  0
POLYLINE
  8
LAYER_6
 40
0.1058
 41
0.1058
 66
1
 10
0
 20
0
 30
0
  0
VERTEX
  8
LAYER_6
 10
103.1068
 20
-80.7794
 42
0.1366356322
  0
VERTEX
  8
LAYER_6
 10
103.0111
 20
-80.1329
 42
0.1051756771
  0
VERTEX
  8
LAYER_6
 10
102.5842
 20
-79.5439
 42
0.07742081377
  0
VERTEX
  8
LAYER_6
 10
101.7551
 20
-78.9775
 42
0.05913204954
  0
VERTEX
  8
LAYER_6
 10
100.472
 20
-78.5184
 42
0.04749619573
  0
VERTEX
  8
LAYER_6
 10
98.9052
 20
-78.2963
 42
0.004846859476
  0
VERTEX
  8
LAYER_6
 10
98.7244
 20
-78.2888
 42
0.04895902532
  0
VERTEX
  8
LAYER_6
 10
96.9326
 20
-78.4052
 42
0.04943849631
  0
VERTEX
  8
LAYER_6
 10
95.5429
 20
-78.7788
 42
0.06469722113
  0
VERTEX
  8
LAYER_6
 10
94.5125
 20
-79.3346
 42
0.09071819814
  0
VERTEX
  8
LAYER_6
 10
93.9307
 20
-79.9552
 42
0.1012848625
  0
VERTEX
  8
LAYER_6
 10
93.7432
 20
-80.48
 42
0.06350214774
  0
VERTEX
  8
LAYER_6
 10
93.7432
 20
-80.7794
  0
SEQEND
  0
ENDBLK
  0
BLOCK
  8
LAYER_6
  2
AIGNBL060200B8
 70
64
 10
0
 20
0
 30
0
  3
AIGNBL060200B8
  0
POLYLINE
  8
LAYER_6
 40
0.1058
 41
0.1058
 66
1
 10
0
 20
0
 30
0
  0
VERTEX
  8
LAYER_6
 10
103.0454
 20
-81.3353
 42
0.2623815766
  0
VERTEX
  8
LAYER_6
 10
102.8181
 20
-80.105
 42
0.08940626599
  0
VERTEX
  8
LAYER_6
 10
102.1673
 20
-79.5145
 42
0.06635556366
  0
VERTEX
  8
LAYER_6
 10
101.0672
 20
-78.9901
 42
0.05168066156
  0
VERTEX
  8
LAYER_6
 10
99.5906
 20
-78.6568
 42
0.01011785593
  0
VERTEX
  8
LAYER_6
 10
99.2375
 20
-78.6188
 42
0.04862224679
  0
VERTEX
  8
LAYER_6
 10
97.431
 20
-78.636
 42
0.04984517134
  0
VERTEX
  8
LAYER_6
 10
95.8724
 20
-78.961
 42
0.06111415754
  0
VERTEX
  8
LAYER_6
 10
94.7145
 20
-79.493
 42
0.08174110757
  0
VERTEX
  8
LAYER_6
 10
94.0411
 20
-80.0927
 42
0.07670009004
  0
VERTEX
  8
LAYER_6
 10
93.8046
 20
-80.5228
 42
0.1707278278
  0
VERTEX
  8
LAYER_6
 10
93.8046
 20
-81.3353
  0
SEQEND
  0
ENDBLK
  0
BLOCK
  8
LAYER_6
  2
AIGNBL060200B9
 70
64
 10
0
 20
0
 30
0
  3
AIGNBL060200B9
  0
POLYLINE
  8
LAYER_6
 40
0.1058
 41
0.1058
 66
1
 10
0
 20
0
 30
0
  0
VERTEX
  8
LAYER_6
 10
102.9644
 20
-81.1495
 42
0.1355425575
  0
VERTEX
  8
LAYER_6
 10
102.8427
 20
-80.5246
 42
0.1050851654
  0
VERTEX
  8
LAYER_6
 10
102.376
 20
-79.9353
 42
0.07624701918
  0
VERTEX
  8
LAYER_6
 10
101.4952
 20
-79.3829
 42
0.05656130039
  0
VERTEX
  8
LAYER_6
 10
100.2102
 20
-78.9678
 42
0.04660766287
  0
VERTEX
  8
LAYER_6
 10
98.6681
 20
-78.789
 42
0.001603889983
  0
VERTEX
  8
LAYER_6
 10
98.6094
 20
-78.7876
 42
0.04914320036
  0
VERTEX
  8
LAYER_6
 10
96.8799
 20
-78.9205
 42
0.05238040154
  0
VERTEX
  8
LAYER_6
 10
95.5093
 20
-79.3152
 42
0.06758260274
  0
VERTEX
  8
LAYER_6
 10
94.5498
 20
-79.8709
 42
0.09579721043
  0
VERTEX
  8
LAYER_6
 10
94.0289
 20
-80.4822
 42
0.09880843774
  0
VERTEX
  8
LAYER_6
 10
93.8856
 20
-80.9651
  0
VERTEX
  8
LAYER_6
 10
93.8856
 20
-81.1495
  0
SEQEND
  0
ENDBLK
  0
BLOCK
  8
LAYER_6
  2
AIGNBL060200BA
 70
64
 10
0
 20
0
 30
0
  3
AIGNBL060200BA
  0
POLYLINE
  8
LAYER_6
 40
0.1058
 41
0.1058
 66
1
 10
0
 20
0
 30
0
  0
VERTEX
  8
LAYER_6
 10
103.2398
 20
-71.527
 42
0.4142120864
  0
VERTEX
  8
LAYER_6
 10
98.425
 20
-66.7122
 42
0.4142120864
  0
VERTEX
  8
LAYER_6
 10
93.6102
 20
-71.527
  0
SEQEND
  0
ENDBLK
  0
BLOCK
  8
LAYER_6
  2
AIGNBL060200BB
 70
64
 10
0
 20
0
 30
0
  3
AIGNBL060200BB
  0
POLYLINE
  8
LAYER_6
 40
0.1058
 41
0.1058
 66
1
 10
0
 20
0
 30
0
  0
VERTEX
  8
LAYER_6
 10
103.1118
 20
-80.8262
 42
0.1287426064
  0
VERTEX
  8
LAYER_6
 10
103.2382
 20
-80.208
 42
0.119375348
  0
VERTEX
  8
LAYER_6
 10
103.0561
 20
-79.6426
 42
0.09762362395
  0
VERTEX
  8
LAYER_6
 10
102.5188
 20
-79.0496
 42
0.0694263129
  0
VERTEX
  8
LAYER_6
 10
101.5849
 20
-78.5124
 42
0.05542537724
  0
VERTEX
  8
LAYER_6
 10
100.1724
 20
-78.0957
 42
0.01810867184
  0
VERTEX
  8
LAYER_6
 10
99.5277
 20
-77.9982
 42
0.07010385434
  0
VERTEX
  8
LAYER_6
 10
96.8278
 20
-78.0686
 42
0.0504175696
  0
VERTEX
  8
LAYER_6
 10
95.3736
 20
-78.4682
 42
0.06398595316
  0
VERTEX
  8
LAYER_6
 10
94.3696
 20
-79.0186
 42
0.09083795783
  0
VERTEX
  8
LAYER_6
 10
93.801
 20
-79.6318
 42
0.0203648512
  0
VERTEX
  8
LAYER_6
 10
93.7382
 20
-79.7489
 42
0.2282944055
  0
VERTEX
  8
LAYER_6
 10
93.7382
 20
-80.8262
  0
SEQEND
  0
ENDBLK
  0
BLOCK
  8
LAYER_6
  2
AIGNBL060200BC
 70
64
 10
0
 20
0
 30
0
  3
AIGNBL060200BC
  0
POLYLINE
  8
LAYER_6
 40
0.1058
 41
0.1058
 66
1
 10
0
 20
0
 30
0
  0
VERTEX
  8
LAYER_6
 10
103.2398
 20
-71.527
  0
VERTEX
  8
LAYER_6
 10
103.2398
 20
-80.2875
  0
SEQEND
  0
ENDBLK
  0
BLOCK
  8
LAYER_6
  2
AIGNBL060200BD
 70
64
 10
0
 20
0
 30
0
  3
AIGNBL060200BD
  0
POLYLINE
  8
LAYER_6
 40
0.1058
 41
0.1058
 66
1
 10
0
 20
0
 30
0
  0
VERTEX
  8
LAYER_6
 10
93.6102
 20
-80.2875
  0
VERTEX
  8
LAYER_6
 10
93.6102
 20
-71.527
  0
SEQEND
  0
ENDBLK
  0
BLOCK
  8
LAYER_6
  2
AIGNBL060200BE
 70
64
 10
0
 20
0
 30
0
  3
AIGNBL060200BE
  0
POLYLINE
  8
LAYER_6
  6
AIGENLINE001
 40
0.1058
 41
0.1058
 66
1
 10
0
 20
0
 30
0
 70
128
  0
VERTEX
  8
LAYER_6
 10
98.425
 20
-46.1445
  0
VERTEX
  8
LAYER_6
 10
98.425
 20
-206.1232
  0
SEQEND
  0
ENDBLK
  0
BLOCK
  8
LAYER_6
  2
AIGNBL060200BF
 70
64
 10
0
 20
0
 30
0
  3
AIGNBL060200BF
  0
POLYLINE
  8
LAYER_6
 40
0.1058
 41
0.1058
 66
1
 10
0
 20
0
 30
0
  0
VERTEX
  8
LAYER_6
 10
104.4743
 20
-63.2802
  0
VERTEX
  8
LAYER_6
 10
104.4743
 20
-63.6259
  0
SEQEND
  0
ENDBLK
  0
BLOCK
  8
LAYER_6
  2
AIGNBL060200C0
 70
64
 10
0
 20
0
 30
0
  3
AIGNBL060200C0
  0
POLYLINE
  8
LAYER_6
 40
0.1058
 41
0.1058
 66
1
 10
0
 20
0
 30
0
  0
VERTEX
  8
LAYER_6
 10
104.3756
 20
-63.1814
  0
VERTEX
  8
LAYER_6
 10
104.4743
 20
-63.2802
  0
SEQEND
  0
ENDBLK
  0
BLOCK
  8
LAYER_6
  2
AIGNBL060200C1
 70
64
 10
0
 20
0
 30
0
  3
AIGNBL060200C1
  0
POLYLINE
  8
LAYER_6
 40
0.1058
 41
0.1058
 66
1
 10
0
 20
0
 30
0
  0
VERTEX
  8
LAYER_6
 10
92.3757
 20
-63.2802
  0
VERTEX
  8
LAYER_6
 10
92.3757
 20
-63.6259
  0
SEQEND
  0
ENDBLK
  0
BLOCK
  8
LAYER_6
  2
AIGNBL060200C2
 70
64
 10
0
 20
0
 30
0
  3
AIGNBL060200C2
  0
POLYLINE
  8
LAYER_6
 40
0.1058
 41
0.1058
 66
1
 10
0
 20
0
 30
0
  0
VERTEX
  8
LAYER_6
 10
92.4744
 20
-63.1814
  0
VERTEX
  8
LAYER_6
 10
92.3757
 20
-63.2802
  0
SEQEND
  0
ENDBLK
  0
BLOCK
  8
LAYER_6
  2
AIGNBL060200C3
 70
64
 10
0
 20
0
 30
0
  3
AIGNBL060200C3
  0
POLYLINE
  8
LAYER_6
 40
0.1058
 41
0.1058
 66
1
 10
0
 20
0
 30
0
  0
VERTEX
  8
LAYER_6
 10
92.3757
 20
-63.2802
  0
VERTEX
  8
LAYER_6
 10
104.4743
 20
-63.2802
  0
SEQEND
  0
ENDBLK
  0
BLOCK
  8
LAYER_6
  2
AIGNBL060200C4
 70
64
 10
0
 20
0
 30
0
  3
AIGNBL060200C4
  0
POLYLINE
  8
LAYER_6
 40
0.1058
 41
0.1058
 66
1
 10
0
 20
0
 30
0
  0
VERTEX
  8
LAYER_6
 10
143.7094
 20
-203.0509
  0
VERTEX
  8
LAYER_6
 10
154.0575
 20
-203.0509
  0
SEQEND
  0
ENDBLK
  0
BLOCK
  8
LAYER_6
  2
AIGNBL060200C5
 70
64
 10
0
 20
0
 30
0
  3
AIGNBL060200C5
  0
POLYLINE
  8
LAYER_6
 40
0.1058
 41
0.1058
 66
1
 10
0
 20
0
 30
0
  0
VERTEX
  8
LAYER_6
 10
141.4761
 20
-181.0076
  0
VERTEX
  8
LAYER_6
 10
156.2907
 20
-181.0076
  0
SEQEND
  0
ENDBLK
  0
BLOCK
  8
LAYER_6
  2
AIGNBL060200C6
 70
64
 10
0
 20
0
 30
0
  3
AIGNBL060200C6
  0
POLYLINE
  8
LAYER_6
 40
0.1058
 41
0.1058
 66
1
 10
0
 20
0
 30
0
  0
VERTEX
  8
LAYER_6
 10
142.8341
 20
-63.2802
  0
VERTEX
  8
LAYER_6
 10
154.9328
 20
-63.2802
  0
SEQEND
  0
ENDBLK
  0
BLOCK
  8
LAYER_6
  2
AIGNBL060200C7
 70
64
 10
0
 20
0
 30
0
  3
AIGNBL060200C7
  0
POLYLINE
  8
LAYER_6
 40
0.1058
 41
0.1058
 66
1
 10
0
 20
0
 30
0
  0
VERTEX
  8
LAYER_6
 10
155.7112
 20
-67.529
 42
0.06787382964
  0
VERTEX
  8
LAYER_6
 10
155.0532
 20
-69.0187
 42
0.02638712008
  0
VERTEX
  8
LAYER_6
 10
154.9328
 20
-69.5897
 42
0.02547924456
  0
VERTEX
  8
LAYER_6
 10
154.8408
 20
-70.5247
 42
0.03703451933
  0
VERTEX
  8
LAYER_6
 10
154.8951
 20
-72.6706
 42
0.006648785846
  0
VERTEX
  8
LAYER_6
 10
154.9328
 20
-72.9943
 42
0.05365728786
  0
VERTEX
  8
LAYER_6
 10
155.3513
 20
-74.74
 42
0.005876209654
  0
VERTEX
  8
LAYER_6
 10
155.5729
 20
-75.3342
  0
SEQEND
  0
ENDBLK
  0
BLOCK
  8
LAYER_6
  2
AIGNBL060200C8
 70
64
 10
0
 20
0
 30
0
  3
AIGNBL060200C8
  0
POLYLINE
  8
LAYER_6
 40
0.1058
 41
0.1058
 66
1
 10
0
 20
0
 30
0
  0
VERTEX
  8
LAYER_6
 10
186.5095
 20
-82.6394
  0
VERTEX
  8
LAYER_6
 10
194.6565
 20
-77.9357
  0
SEQEND
  0
ENDBLK
  0
BLOCK
  8
LAYER_6
  2
AIGNBL060200C9
 70
64
 10
0
 20
0
 30
0
  3
AIGNBL060200C9
  0
POLYLINE
  8
LAYER_6
 40
0.1058
 41
0.1058
 66
1
 10
0
 20
0
 30
0
  0
VERTEX
  8
LAYER_6
 10
195.0162
 20
-78.5834
  0
VERTEX
  8
LAYER_6
 10
186.8905
 20
-83.2746
  0
SEQEND
  0
ENDBLK
  0
BLOCK
  8
LAYER_6
  2
AIGNBL060200CA
 70
64
 10
0
 20
0
 30
0
  3
AIGNBL060200CA
  0
POLYLINE
  8
LAYER_6
 40
0.1058
 41
0.1058
 66
1
 10
0
 20
0
 30
0
  0
VERTEX
  8
LAYER_6
 10
194.8433
 20
-78.284
  0
VERTEX
  8
LAYER_6
 10
186.7178
 20
-82.9752
  0
SEQEND
  0
ENDBLK
  0
BLOCK
  8
LAYER_6
  2
AIGNBL060200CB
 70
64
 10
0
 20
0
 30
0
  3
AIGNBL060200CB
  0
POLYLINE
  8
LAYER_6
 40
0.1058
 41
0.1058
 66
1
 10
0
 20
0
 30
0
  0
VERTEX
  8
LAYER_6
 10
141.4761
 20
-109.6995
  0
VERTEX
  8
LAYER_6
 10
156.2908
 20
-109.6995
  0
SEQEND
  0
ENDBLK
  0
BLOCK
  8
LAYER_6
  2
AIGNBL060200CC
 70
64
 10
0
 20
0
 30
0
  3
AIGNBL060200CC
  0
POLYLINE
  8
LAYER_6
 40
0.1058
 41
0.1058
 66
1
 10
0
 20
0
 30
0
  0
VERTEX
  8
LAYER_6
 10
141.4761
 20
-109.4033
  0
VERTEX
  8
LAYER_6
 10
156.2908
 20
-109.4033
  0
SEQEND
  0
ENDBLK
  0
BLOCK
  8
LAYER_6
  2
AIGNBL060200CD
 70
64
 10
0
 20
0
 30
0
  3
AIGNBL060200CD
  0
POLYLINE
  8
LAYER_6
 40
0.1058
 41
0.1058
 66
1
 10
0
 20
0
 30
0
  0
VERTEX
  8
LAYER_6
 10
191.299
 20
-81.5277
  0
VERTEX
  8
LAYER_6
 10
195.148
 20
-79.3055
  0
SEQEND
  0
ENDBLK
  0
BLOCK
  8
LAYER_6
  2
AIGNBL060200CE
 70
64
 10
0
 20
0
 30
0
  3
AIGNBL060200CE
  0
POLYLINE
  8
LAYER_6
 40
0.1058
 41
0.1058
 66
1
 10
0
 20
0
 30
0
 70
1
  0
VERTEX
  8
LAYER_6
 10
94.351
 20
-90.7225
 42
0.1488255445
  0
VERTEX
  8
LAYER_6
 10
94.5493
 20
-91.3521
 42
0.1007218219
  0
VERTEX
  8
LAYER_6
 10
95.1026
 20
-91.9017
 42
0.07063296029
  0
VERTEX
  8
LAYER_6
 10
96.0666
 20
-92.3837
 42
0.05631462348
  0
VERTEX
  8
LAYER_6
 10
97.4558
 20
-92.7015
 42
0.03037660421
  0
VERTEX
  8
LAYER_6
 10
98.425
 20
-92.7595
 42
0.05452402852
  0
VERTEX
  8
LAYER_6
 10
100.1016
 20
-92.5796
 42
0.05967074016
  0
VERTEX
  8
LAYER_6
 10
101.3401
 20
-92.1455
 42
0.07738605498
  0
VERTEX
  8
LAYER_6
 10
102.0973
 20
-91.6056
 42
0.1182237435
  0
VERTEX
  8
LAYER_6
 10
102.4595
 20
-91.0074
 42
0.06840985911
  0
VERTEX
  8
LAYER_6
 10
102.499
 20
-90.7225
 42
0.1488255445
  0
VERTEX
  8
LAYER_6
 10
102.3007
 20
-90.0929
 42
0.1007218219
  0
VERTEX
  8
LAYER_6
 10
101.7474
 20
-89.5433
 42
0.07063296029
  0
VERTEX
  8
LAYER_6
 10
100.7834
 20
-89.0613
 42
0.05631462348
  0
VERTEX
  8
LAYER_6
 10
99.3942
 20
-88.7435
 42
0.03037660421
  0
VERTEX
  8
LAYER_6
 10
98.425
 20
-88.6855
 42
0.05452402852
  0
VERTEX
  8
LAYER_6
 10
96.7484
 20
-88.8654
 42
0.05967074016
  0
VERTEX
  8
LAYER_6
 10
95.5099
 20
-89.2995
 42
0.07738605498
  0
VERTEX
  8
LAYER_6
 10
94.7527
 20
-89.8394
 42
0.1182237435
  0
VERTEX
  8
LAYER_6
 10
94.3905
 20
-90.4376
 42
0.06840985911
  0
SEQEND
  0
ENDBLK
  0
BLOCK
  8
LAYER_6
  2
AIGNBL060200CF
 70
64
 10
0
 20
0
 30
0
  3
AIGNBL060200CF
  0
POLYLINE
  8
LAYER_6
 40
0.1058
 41
0.1058
 66
1
 10
0
 20
0
 30
0
 70
1
  0
VERTEX
  8
LAYER_6
 10
93.9806
 20
-90.7225
 42
0.1415217428
  0
VERTEX
  8
LAYER_6
 10
94.1645
 20
-91.3408
 42
0.09863411903
  0
VERTEX
  8
LAYER_6
 10
94.6808
 20
-91.8893
 42
0.07189967425
  0
VERTEX
  8
LAYER_6
 10
95.6393
 20
-92.4095
 42
0.05412274465
  0
VERTEX
  8
LAYER_6
 10
96.9995
 20
-92.7736
 42
0.04111043624
  0
VERTEX
  8
LAYER_6
 10
98.425
 20
-92.8874
 42
0.04998078908
  0
VERTEX
  8
LAYER_6
 10
100.155
 20
-92.7173
 42
0.05531976654
  0
VERTEX
  8
LAYER_6
 10
101.4914
 20
-92.2896
 42
0.0726695932
  0
VERTEX
  8
LAYER_6
 10
102.3584
 20
-91.7313
 42
0.1013769776
  0
VERTEX
  8
LAYER_6
 10
102.7791
 20
-91.1588
 42
0.0994538726
  0
VERTEX
  8
LAYER_6
 10
102.8694
 20
-90.7225
 42
0.1415164899
  0
VERTEX
  8
LAYER_6
 10
102.6855
 20
-90.1042
 42
0.09863861148
  0
VERTEX
  8
LAYER_6
 10
102.1692
 20
-89.5556
 42
0.07190311808
  0
VERTEX
  8
LAYER_6
 10
101.2107
 20
-89.0355
 42
0.05412241748
  0
VERTEX
  8
LAYER_6
 10
99.8505
 20
-88.6713
 42
0.04110742462
  0
VERTEX
  8
LAYER_6
 10
98.425
 20
-88.5576
 42
0.04997708287
  0
VERTEX
  8
LAYER_6
 10
96.695
 20
-88.7277
 42
0.0553196161
  0
VERTEX
  8
LAYER_6
 10
95.3586
 20
-89.1554
 42
0.07267336999
  0
VERTEX
  8
LAYER_6
 10
94.4916
 20
-89.7136
 42
0.1013815596
  0
VERTEX
  8
LAYER_6
 10
94.0709
 20
-90.2862
 42
0.09945013
  0
SEQEND
  0
ENDBLK
  0
BLOCK
  8
LAYER_6
  2
AIGNBL060200D0
 70
64
 10
0
 20
0
 30
0
  3
AIGNBL060200D0
  0
POLYLINE
  8
LAYER_6
 40
0.1058
 41
0.1058
 66
1
 10
0
 20
0
 30
0
  0
VERTEX
  8
LAYER_6
 10
102.7685
 20
-91.1812
 42
0.1197829586
  0
VERTEX
  8
LAYER_6
 10
103.095
 20
-90.5243
 42
0.1867483446
  0
VERTEX
  8
LAYER_6
 10
102.9365
 20
-89.6513
 42
0.09765157114
  0
VERTEX
  8
LAYER_6
 10
102.4149
 20
-89.0608
 42
0.0710442827
  0
VERTEX
  8
LAYER_6
 10
101.4976
 20
-88.5215
 42
0.05336818246
  0
VERTEX
  8
LAYER_6
 10
100.1977
 20
-88.1231
 42
0.05055616721
  0
VERTEX
  8
LAYER_6
 10
98.4248
 20
-87.9486
 42
0.0460268386
  0
VERTEX
  8
LAYER_6
 10
96.7639
 20
-88.1011
 42
0.05248018496
  0
VERTEX
  8
LAYER_6
 10
95.3637
 20
-88.5168
 42
0.06851663134
  0
VERTEX
  8
LAYER_6
 10
94.4015
 20
-89.088
 42
0.04745510778
  0
VERTEX
  8
LAYER_6
 10
94.0815
 20
-89.4085
 42
0.1264459506
  0
VERTEX
  8
LAYER_6
 10
93.7503
 20
-90.0974
 42
0.1959692171
  0
VERTEX
  8
LAYER_6
 10
93.9633
 20
-91.0197
 42
0.02646208996
  0
VERTEX
  8
LAYER_6
 10
94.0815
 20
-91.1812
  0
SEQEND
  0
ENDBLK
  0
BLOCK
  8
LAYER_6
  2
AIGNBL060200D1
 70
64
 10
0
 20
0
 30
0
  3
AIGNBL060200D1
  0
POLYLINE
  8
LAYER_6
 40
0.1058
 41
0.1058
 66
1
 10
0
 20
0
 30
0
  0
VERTEX
  8
LAYER_6
 10
103.1163
 20
-81.7416
 42
0.1326626708
  0
VERTEX
  8
LAYER_6
 10
102.9383
 20
-81.0994
 42
0.09915011597
  0
VERTEX
  8
LAYER_6
 10
102.4074
 20
-80.5012
 42
0.07210784975
  0
VERTEX
  8
LAYER_6
 10
101.4523
 20
-79.9496
 42
0.05449856955
  0
VERTEX
  8
LAYER_6
 10
100.0917
 20
-79.5483
 42
0.0458893603
  0
VERTEX
  8
LAYER_6
 10
98.4856
 20
-79.3961
 42
0.001596623108
  0
VERTEX
  8
LAYER_6
 10
98.425
 20
-79.3959
 42
0.04956878262
  0
VERTEX
  8
LAYER_6
 10
96.6517
 20
-79.5693
 42
0.05182775233
  0
VERTEX
  8
LAYER_6
 10
95.3126
 20
-79.9865
 42
0.07005074625
  0
VERTEX
  8
LAYER_6
 10
94.3553
 20
-80.574
 42
0.09507428818
  0
VERTEX
  8
LAYER_6
 10
93.8673
 20
-81.1835
 42
0.112923118
  0
VERTEX
  8
LAYER_6
 10
93.7337
 20
-81.7416
  0
SEQEND
  0
ENDBLK
  0
BLOCK
  8
LAYER_6
  2
AIGNBL060200D2
 70
64
 10
0
 20
0
 30
0
  3
AIGNBL060200D2
  0
POLYLINE
  8
LAYER_6
 40
0.1058
 41
0.1058
 66
1
 10
0
 20
0
 30
0
  0
VERTEX
  8
LAYER_6
 10
103.1163
 20
-81.7416
  0
VERTEX
  8
LAYER_6
 10
103.1163
 20
-90.2948
  0
SEQEND
  0
ENDBLK
  0
BLOCK
  8
LAYER_6
  2
AIGNBL060200D3
 70
64
 10
0
 20
0
 30
0
  3
AIGNBL060200D3
  0
POLYLINE
  8
LAYER_6
 40
0.1058
 41
0.1058
 66
1
 10
0
 20
0
 30
0
  0
VERTEX
  8
LAYER_6
 10
93.7337
 20
-81.7416
  0
VERTEX
  8
LAYER_6
 10
93.7337
 20
-90.2948
  0
SEQEND
  0
ENDBLK
  0
BLOCK
  8
LAYER_6
  2
AIGNBL060200D4
 70
64
 10
0
 20
0
 30
0
  3
AIGNBL060200D4
  0
POLYLINE
  8
LAYER_6
 40
0.1058
 41
0.1058
 66
1
 10
0
 20
0
 30
0
  0
VERTEX
  8
LAYER_6
 10
102.1506
 20
-80.316
 42
0.07632865573
  0
VERTEX
  8
LAYER_6
 10
101.0912
 20
-79.749
 42
0.05372225784
  0
VERTEX
  8
LAYER_6
 10
99.7073
 20
-79.3999
 42
0.04878208749
  0
VERTEX
  8
LAYER_6
 10
98.0163
 20
-79.3144
 42
0.04856654191
  0
VERTEX
  8
LAYER_6
 10
96.4452
 20
-79.5379
 42
0.0176610187
  0
VERTEX
  8
LAYER_6
 10
96.0016
 20
-79.6649
 42
0.07022089654
  0
VERTEX
  8
LAYER_6
 10
94.8142
 20
-80.232
 42
0.0108752703
  0
VERTEX
  8
LAYER_6
 10
94.6994
 20
-80.316
  0
SEQEND
  0
ENDBLK
  0
BLOCK
  8
LAYER_6
  2
AIGNBL060200D5
 70
64
 10
0
 20
0
 30
0
  3
AIGNBL060200D5
  0
POLYLINE
  8
LAYER_6
 40
0.1058
 41
0.1058
 66
1
 10
0
 20
0
 30
0
  0
VERTEX
  8
LAYER_6
 10
195.4853
 20
-79.3959
  0
VERTEX
  8
LAYER_6
 10
200.4235
 20
-87.9492
  0
SEQEND
  0
ENDBLK
  0
BLOCK
  8
LAYER_6
  2
AIGNBL060200D6
 70
64
 10
0
 20
0
 30
0
  3
AIGNBL060200D6
  0
POLYLINE
  8
LAYER_6
 40
0.1058
 41
0.1058
 66
1
 10
0
 20
0
 30
0
  0
VERTEX
  8
LAYER_6
 10
200.2428
 20
-88.6237
  0
VERTEX
  8
LAYER_6
 10
200.1358
 20
-88.6855
  0
SEQEND
  0
ENDBLK
  0
BLOCK
  8
LAYER_6
  2
AIGNBL060200D7
 70
64
 10
0
 20
0
 30
0
  3
AIGNBL060200D7
  0
POLYLINE
  8
LAYER_6
 40
0.1058
 41
0.1058
 66
1
 10
0
 20
0
 30
0
  0
VERTEX
  8
LAYER_6
 10
193.0794
 20
-92.7595
  0
VERTEX
  8
LAYER_6
 10
200.1358
 20
-88.6855
  0
SEQEND
  0
ENDBLK
  0
BLOCK
  8
LAYER_6
  2
AIGNBL060200D8
 70
64
 10
0
 20
0
 30
0
  3
AIGNBL060200D8
  0
POLYLINE
  8
LAYER_6
 40
0.1058
 41
0.1058
 66
1
 10
0
 20
0
 30
0
  0
VERTEX
  8
LAYER_6
 10
200.2428
 20
-88.6237
 42
0.4141626301
  0
VERTEX
  8
LAYER_6
 10
200.4235
 20
-87.9492
  0
SEQEND
  0
ENDBLK
  0
BLOCK
  8
LAYER_6
  2
AIGNBL060200D9
 70
64
 10
0
 20
0
 30
0
  3
AIGNBL060200D9
  0
POLYLINE
  8
LAYER_6
 40
0.1058
 41
0.1058
 66
1
 10
0
 20
0
 30
0
  0
VERTEX
  8
LAYER_6
 10
187.3597
 20
-84.0872
  0
VERTEX
  8
LAYER_6
 10
192.2979
 20
-92.6405
  0
SEQEND
  0
ENDBLK
  0
BLOCK
  8
LAYER_6
  2
AIGNBL060200DA
 70
64
 10
0
 20
0
 30
0
  3
AIGNBL060200DA
  0
POLYLINE
  8
LAYER_6
 40
0.1058
 41
0.1058
 66
1
 10
0
 20
0
 30
0
  0
VERTEX
  8
LAYER_6
 10
187.45
 20
-83.7499
  0
VERTEX
  8
LAYER_6
 10
187.3597
 20
-84.0872
  0
SEQEND
  0
ENDBLK
  0
BLOCK
  8
LAYER_6
  2
AIGNBL060200DB
 70
64
 10
0
 20
0
 30
0
  3
AIGNBL060200DB
  0
POLYLINE
  8
LAYER_6
 40
0.1058
 41
0.1058
 66
1
 10
0
 20
0
 30
0
  0
VERTEX
  8
LAYER_6
 10
195.4853
 20
-79.3959
  0
VERTEX
  8
LAYER_6
 10
195.148
 20
-79.3055
  0
SEQEND
  0
ENDBLK
  0
BLOCK
  8
LAYER_6
  2
AIGNBL060200DC
 70
64
 10
0
 20
0
 30
0
  3
AIGNBL060200DC
  0
POLYLINE
  8
LAYER_6
 40
0.1058
 41
0.1058
 66
1
 10
0
 20
0
 30
0
  0
VERTEX
  8
LAYER_6
 10
191.299
 20
-81.5277
  0
VERTEX
  8
LAYER_6
 10
187.45
 20
-83.7499
  0
SEQEND
  0
ENDBLK
  0
BLOCK
  8
LAYER_6
  2
AIGNBL060200DD
 70
64
 10
0
 20
0
 30
0
  3
AIGNBL060200DD
  0
POLYLINE
  8
LAYER_6
 40
0.1058
 41
0.1058
 66
1
 10
0
 20
0
 30
0
  0
VERTEX
  8
LAYER_6
 10
192.9725
 20
-92.8212
  0
VERTEX
  8
LAYER_6
 10
193.0794
 20
-92.7595
  0
SEQEND
  0
ENDBLK
  0
BLOCK
  8
LAYER_6
  2
AIGNBL060200DE
 70
64
 10
0
 20
0
 30
0
  3
AIGNBL060200DE
  0
POLYLINE
  8
LAYER_6
 40
0.1058
 41
0.1058
 66
1
 10
0
 20
0
 30
0
  0
VERTEX
  8
LAYER_6
 10
192.2979
 20
-92.6405
 42
0.4142183084
  0
VERTEX
  8
LAYER_6
 10
192.9725
 20
-92.8212
  0
SEQEND
  0
ENDBLK
  0
BLOCK
  8
LAYER_6
  2
AIGNBL060200DF
 70
64
 10
0
 20
0
 30
0
  3
AIGNBL060200DF
  0
POLYLINE
  8
LAYER_6
 40
0.1058
 41
0.1058
 66
1
 10
0
 20
0
 30
0
  0
VERTEX
  8
LAYER_6
 10
187.3597
 20
-84.0872
  0
VERTEX
  8
LAYER_6
 10
195.4853
 20
-79.3959
  0
SEQEND
  0
ENDBLK
  0
BLOCK
  8
LAYER_6
  2
AIGNBL060200E0
 70
64
 10
0
 20
0
 30
0
  3
AIGNBL060200E0
  0
POLYLINE
  8
LAYER_6
 40
0.1058
 41
0.1058
 66
1
 10
0
 20
0
 30
0
 70
1
  0
VERTEX
  8
LAYER_6
 10
96.4497
 20
-53.058
 42
-0.414207482
  0
VERTEX
  8
LAYER_6
 10
98.425
 20
-51.0827
 42
-0.414207482
  0
VERTEX
  8
LAYER_6
 10
100.4003
 20
-53.058
 42
-0.4142196427
  0
VERTEX
  8
LAYER_6
 10
98.425
 20
-55.0333
 42
-0.414219643
  0
SEQEND
  0
ENDBLK
  0
BLOCK
  8
LAYER_6
  2
AIGNBL060200E1
 70
64
 10
0
 20
0
 30
0
  3
AIGNBL060200E1
  0
POLYLINE
  8
LAYER_6
 40
0.1058
 41
0.1058
 66
1
 10
0
 20
0
 30
0
  0
VERTEX
  8
LAYER_6
 10
105.0916
 20
-47.626
  0
VERTEX
  8
LAYER_6
 10
91.7584
 20
-47.626
  0
SEQEND
  0
ENDBLK
  0
BLOCK
  8
LAYER_6
  2
AIGNBL060200E2
 70
64
 10
0
 20
0
 30
0
  3
AIGNBL060200E2
  0
POLYLINE
  8
LAYER_6
 40
0.1058
 41
0.1058
 66
1
 10
0
 20
0
 30
0
  0
VERTEX
  8
LAYER_6
 10
91.7584
 20
-47.626
 42
0.4142101856
  0
VERTEX
  8
LAYER_6
 10
91.0177
 20
-48.3667
  0
SEQEND
  0
ENDBLK
  0
BLOCK
  8
LAYER_6
  2
AIGNBL060200E3
 70
64
 10
0
 20
0
 30
0
  3
AIGNBL060200E3
  0
POLYLINE
  8
LAYER_6
 40
0.1058
 41
0.1058
 66
1
 10
0
 20
0
 30
0
  0
VERTEX
  8
LAYER_6
 10
91.0177
 20
-48.3667
  0
VERTEX
  8
LAYER_6
 10
91.0177
 20
-62.9345
  0
SEQEND
  0
ENDBLK
  0
BLOCK
  8
LAYER_6
  2
AIGNBL060200E4
 70
64
 10
0
 20
0
 30
0
  3
AIGNBL060200E4
  0
POLYLINE
  8
LAYER_6
 40
0.1058
 41
0.1058
 66
1
 10
0
 20
0
 30
0
  0
VERTEX
  8
LAYER_6
 10
91.2646
 20
-63.1814
  0
VERTEX
  8
LAYER_6
 10
105.5854
 20
-63.1814
  0
SEQEND
  0
ENDBLK
  0
BLOCK
  8
LAYER_6
  2
AIGNBL060200E5
 70
64
 10
0
 20
0
 30
0
  3
AIGNBL060200E5
  0
POLYLINE
  8
LAYER_6
 40
0.1058
 41
0.1058
 66
1
 10
0
 20
0
 30
0
  0
VERTEX
  8
LAYER_6
 10
91.0177
 20
-62.9345
 42
0.4142598669
  0
VERTEX
  8
LAYER_6
 10
91.2646
 20
-63.1814
  0
SEQEND
  0
ENDBLK
  0
BLOCK
  8
LAYER_6
  2
AIGNBL060200E6
 70
64
 10
0
 20
0
 30
0
  3
AIGNBL060200E6
  0
POLYLINE
  8
LAYER_6
 40
0.1058
 41
0.1058
 66
1
 10
0
 20
0
 30
0
  0
VERTEX
  8
LAYER_6
 10
105.5854
 20
-63.1814
 42
0.4142598667
  0
VERTEX
  8
LAYER_6
 10
105.8323
 20
-62.9345
  0
SEQEND
  0
ENDBLK
  0
BLOCK
  8
LAYER_6
  2
AIGNBL060200E7
 70
64
 10
0
 20
0
 30
0
  3
AIGNBL060200E7
  0
POLYLINE
  8
LAYER_6
 40
0.1058
 41
0.1058
 66
1
 10
0
 20
0
 30
0
  0
VERTEX
  8
LAYER_6
 10
105.8323
 20
-62.9345
  0
VERTEX
  8
LAYER_6
 10
105.8323
 20
-48.3667
  0
SEQEND
  0
ENDBLK
  0
BLOCK
  8
LAYER_6
  2
AIGNBL060200E8
 70
64
 10
0
 20
0
 30
0
  3
AIGNBL060200E8
  0
POLYLINE
  8
LAYER_6
 40
0.1058
 41
0.1058
 66
1
 10
0
 20
0
 30
0
  0
VERTEX
  8
LAYER_6
 10
105.8323
 20
-48.3667
 42
0.4142101856
  0
VERTEX
  8
LAYER_6
 10
105.0916
 20
-47.626
  0
SEQEND
  0
ENDBLK
  0
BLOCK
  8
LAYER_6
  2
AIGNBL060200E9
 70
64
 10
0
 20
0
 30
0
  3
AIGNBL060200E9
  0
POLYLINE
  8
LAYER_6
  6
AIGENLINE001
 40
0.1058
 41
0.1058
 66
1
 10
0
 20
0
 30
0
 70
128
  0
VERTEX
  8
LAYER_6
 10
94.9682
 20
-53.058
  0
VERTEX
  8
LAYER_6
 10
101.8818
 20
-53.058
  0
SEQEND
  0
ENDBLK
  0
BLOCK
  8
LAYER_6
  2
AIGNBL060200EA
 70
64
 10
0
 20
0
 30
0
  3
AIGNBL060200EA
  0
POLYLINE
  8
LAYER_6
 40
0.1058
 41
0.1058
 66
1
 10
0
 20
0
 30
0
  0
VERTEX
  8
LAYER_6
 10
156.1426
 20
-51.3297
 42
0.08165692763
  0
VERTEX
  8
LAYER_6
 10
155.55
 20
-52.3996
 42
0.1043192682
  0
VERTEX
  8
LAYER_6
 10
155.4868
 20
-53.2804
 42
0.03181036201
  0
VERTEX
  8
LAYER_6
 10
155.55
 20
-53.6162
 42
0.03985917934
  0
VERTEX
  8
LAYER_6
 10
155.7503
 20
-54.1823
 42
0.01419006151
  0
VERTEX
  8
LAYER_6
 10
156.0439
 20
-54.7865
  0
SEQEND
  0
ENDBLK
  0
BLOCK
  8
LAYER_6
  2
AIGNBL060200EB
 70
64
 10
0
 20
0
 30
0
  3
AIGNBL060200EB
  0
POLYLINE
  8
LAYER_6
 40
0.1058
 41
0.1058
 66
1
 10
0
 20
0
 30
0
  0
VERTEX
  8
LAYER_6
 10
167.8956
 20
-55.0333
  0
VERTEX
  8
LAYER_6
 10
157.2784
 20
-55.0333
  0
SEQEND
  0
ENDBLK
  0
BLOCK
  8
LAYER_6
  2
AIGNBL060200EC
 70
64
 10
0
 20
0
 30
0
  3
AIGNBL060200EC
  0
POLYLINE
  8
LAYER_6
 40
0.1058
 41
0.1058
 66
1
 10
0
 20
0
 30
0
  0
VERTEX
  8
LAYER_6
 10
157.2784
 20
-51.0827
  0
VERTEX
  8
LAYER_6
 10
167.8956
 20
-51.0827
  0
SEQEND
  0
ENDBLK
  0
BLOCK
  8
LAYER_6
  2
AIGNBL060200ED
 70
64
 10
0
 20
0
 30
0
  3
AIGNBL060200ED
  0
POLYLINE
  8
LAYER_6
 40
0.1058
 41
0.1058
 66
1
 10
0
 20
0
 30
0
  0
VERTEX
  8
LAYER_6
 10
141.723
 20
-63.1814
  0
VERTEX
  8
LAYER_6
 10
148.8834
 20
-63.1814
  0
SEQEND
  0
ENDBLK
  0
BLOCK
  8
LAYER_6
  2
AIGNBL060200EE
 70
64
 10
0
 20
0
 30
0
  3
AIGNBL060200EE
  0
POLYLINE
  8
LAYER_6
 40
0.1058
 41
0.1058
 66
1
 10
0
 20
0
 30
0
  0
VERTEX
  8
LAYER_6
 10
141.4761
 20
-48.3667
  0
VERTEX
  8
LAYER_6
 10
141.4761
 20
-62.9345
  0
SEQEND
  0
ENDBLK
  0
BLOCK
  8
LAYER_6
  2
AIGNBL060200EF
 70
64
 10
0
 20
0
 30
0
  3
AIGNBL060200EF
  0
POLYLINE
  8
LAYER_6
 40
0.1058
 41
0.1058
 66
1
 10
0
 20
0
 30
0
  0
VERTEX
  8
LAYER_6
 10
156.2908
 20
-50.0951
  0
VERTEX
  8
LAYER_6
 10
156.2908
 20
-48.3667
  0
SEQEND
  0
ENDBLK
  0
BLOCK
  8
LAYER_6
  2
AIGNBL060200F0
 70
64
 10
0
 20
0
 30
0
  3
AIGNBL060200F0
  0
POLYLINE
  8
LAYER_6
 40
0.1058
 41
0.1058
 66
1
 10
0
 20
0
 30
0
  0
VERTEX
  8
LAYER_6
 10
148.8834
 20
-63.1814
  0
VERTEX
  8
LAYER_6
 10
156.0935
 20
-63.1814
  0
SEQEND
  0
ENDBLK
  0
BLOCK
  8
LAYER_6
  2
AIGNBL060200F1
 70
64
 10
0
 20
0
 30
0
  3
AIGNBL060200F1
  0
POLYLINE
  8
LAYER_6
 40
0.1058
 41
0.1058
 66
1
 10
0
 20
0
 30
0
  0
VERTEX
  8
LAYER_6
 10
156.0439
 20
-63.1814
 42
0.414180992
  0
VERTEX
  8
LAYER_6
 10
156.2908
 20
-62.9345
  0
SEQEND
  0
ENDBLK
  0
BLOCK
  8
LAYER_6
  2
AIGNBL060200F2
 70
64
 10
0
 20
0
 30
0
  3
AIGNBL060200F2
  0
POLYLINE
  8
LAYER_6
 40
0.1058
 41
0.1058
 66
1
 10
0
 20
0
 30
0
  0
VERTEX
  8
LAYER_6
 10
141.4761
 20
-62.9345
 42
0.4142201097
  0
VERTEX
  8
LAYER_6
 10
141.723
 20
-63.1814
  0
SEQEND
  0
ENDBLK
  0
BLOCK
  8
LAYER_6
  2
AIGNBL060200F3
 70
64
 10
0
 20
0
 30
0
  3
AIGNBL060200F3
  0
POLYLINE
  8
LAYER_6
 40
0.1058
 41
0.1058
 66
1
 10
0
 20
0
 30
0
  0
VERTEX
  8
LAYER_6
 10
168.1425
 20
-51.3297
 42
0.4142924113
  0
VERTEX
  8
LAYER_6
 10
167.8956
 20
-51.0827
  0
SEQEND
  0
ENDBLK
  0
BLOCK
  8
LAYER_6
  2
AIGNBL060200F4
 70
64
 10
0
 20
0
 30
0
  3
AIGNBL060200F4
  0
POLYLINE
  8
LAYER_6
 40
0.1058
 41
0.1058
 66
1
 10
0
 20
0
 30
0
  0
VERTEX
  8
LAYER_6
 10
156.2908
 20
-48.3667
 42
0.4142234379
  0
VERTEX
  8
LAYER_6
 10
155.55
 20
-47.626
  0
SEQEND
  0
ENDBLK
  0
BLOCK
  8
LAYER_6
  2
AIGNBL060200F5
 70
64
 10
0
 20
0
 30
0
  3
AIGNBL060200F5
  0
POLYLINE
  8
LAYER_6
 40
0.1058
 41
0.1058
 66
1
 10
0
 20
0
 30
0
  0
VERTEX
  8
LAYER_6
 10
142.2168
 20
-47.626
 42
0.4141969346
  0
VERTEX
  8
LAYER_6
 10
141.4761
 20
-48.3667
  0
SEQEND
  0
ENDBLK
  0
BLOCK
  8
LAYER_6
  2
AIGNBL060200F6
 70
64
 10
0
 20
0
 30
0
  3
AIGNBL060200F6
  0
POLYLINE
  8
LAYER_6
 40
0.1058
 41
0.1058
 66
1
 10
0
 20
0
 30
0
  0
VERTEX
  8
LAYER_6
 10
168.1425
 20
-51.3297
  0
VERTEX
  8
LAYER_6
 10
168.1425
 20
-54.7864
  0
SEQEND
  0
ENDBLK
  0
BLOCK
  8
LAYER_6
  2
AIGNBL060200F7
 70
64
 10
0
 20
0
 30
0
  3
AIGNBL060200F7
  0
POLYLINE
  8
LAYER_6
 40
0.1058
 41
0.1058
 66
1
 10
0
 20
0
 30
0
  0
VERTEX
  8
LAYER_6
 10
155.55
 20
-47.626
  0
VERTEX
  8
LAYER_6
 10
142.2168
 20
-47.626
  0
SEQEND
  0
ENDBLK
  0
BLOCK
  8
LAYER_6
  2
AIGNBL060200F8
 70
64
 10
0
 20
0
 30
0
  3
AIGNBL060200F8
  0
POLYLINE
  8
LAYER_6
 40
0.1058
 41
0.1058
 66
1
 10
0
 20
0
 30
0
  0
VERTEX
  8
LAYER_6
 10
156.2908
 20
-62.9345
  0
VERTEX
  8
LAYER_6
 10
156.2908
 20
-56.021
  0
SEQEND
  0
ENDBLK
  0
BLOCK
  8
LAYER_6
  2
AIGNBL060200F9
 70
64
 10
0
 20
0
 30
0
  3
AIGNBL060200F9
  0
POLYLINE
  8
LAYER_6
 40
0.1058
 41
0.1058
 66
1
 10
0
 20
0
 30
0
  0
VERTEX
  8
LAYER_6
 10
167.8956
 20
-55.0333
 42
0.4142710806
  0
VERTEX
  8
LAYER_6
 10
168.1425
 20
-54.7864
  0
SEQEND
  0
ENDBLK
  0
BLOCK
  8
LAYER_6
  2
AIGNBL060200FA
 70
64
 10
0
 20
0
 30
0
  3
AIGNBL060200FA
  0
POLYLINE
  8
LAYER_6
 40
0.1058
 41
0.1058
 66
1
 10
0
 20
0
 30
0
  0
VERTEX
  8
LAYER_6
 10
156.2908
 20
-50.0951
 42
0.4142060339
  0
VERTEX
  8
LAYER_6
 10
157.2784
 20
-51.0827
  0
SEQEND
  0
ENDBLK
  0
BLOCK
  8
LAYER_6
  2
AIGNBL060200FB
 70
64
 10
0
 20
0
 30
0
  3
AIGNBL060200FB
  0
POLYLINE
  8
LAYER_6
 40
0.1058
 41
0.1058
 66
1
 10
0
 20
0
 30
0
  0
VERTEX
  8
LAYER_6
 10
157.2784
 20
-55.0333
 42
0.4142113689
  0
VERTEX
  8
LAYER_6
 10
156.2908
 20
-56.021
  0
SEQEND
  0
ENDBLK
  0
BLOCK
  8
LAYER_6
  2
AIGNBL060200FC
 70
64
 10
0
 20
0
 30
0
  3
AIGNBL060200FC
  0
POLYLINE
  8
LAYER_6
 40
0.1058
 41
0.1058
 66
1
 10
0
 20
0
 30
0
  0
VERTEX
  8
LAYER_6
 10
108.0546
 20
-182.6372
  0
VERTEX
  8
LAYER_6
 10
88.7954
 20
-182.6372
  0
SEQEND
  0
ENDBLK
  0
BLOCK
  8
LAYER_6
  2
AIGNBL060200FD
 70
64
 10
0
 20
0
 30
0
  3
AIGNBL060200FD
  0
POLYLINE
  8
LAYER_6
 40
0.1058
 41
0.1058
 66
1
 10
0
 20
0
 30
0
  0
VERTEX
  8
LAYER_6
 10
108.0546
 20
-182.1434
  0
VERTEX
  8
LAYER_6
 10
108.0546
 20
-182.6372
  0
SEQEND
  0
ENDBLK
  0
BLOCK
  8
LAYER_6
  2
AIGNBL060200FE
 70
64
 10
0
 20
0
 30
0
  3
AIGNBL060200FE
  0
POLYLINE
  8
LAYER_6
 40
0.1058
 41
0.1058
 66
1
 10
0
 20
0
 30
0
  0
VERTEX
  8
LAYER_6
 10
88.7954
 20
-182.1434
  0
VERTEX
  8
LAYER_6
 10
88.7954
 20
-182.6372
  0
SEQEND
  0
ENDBLK
  0
BLOCK
  8
LAYER_6
  2
AIGNBL060200FF
 70
64
 10
0
 20
0
 30
0
  3
AIGNBL060200FF
  0
POLYLINE
  8
LAYER_6
 40
0.1058
 41
0.1058
 66
1
 10
0
 20
0
 30
0
  0
VERTEX
  8
LAYER_6
 10
89.7831
 20
-181.1557
  0
VERTEX
  8
LAYER_6
 10
107.0669
 20
-181.1557
  0
SEQEND
  0
ENDBLK
  0
BLOCK
  8
LAYER_6
  2
AIGNBL06020100
 70
64
 10
0
 20
0
 30
0
  3
AIGNBL06020100
  0
POLYLINE
  8
LAYER_6
 40
0.1058
 41
0.1058
 66
1
 10
0
 20
0
 30
0
  0
VERTEX
  8
LAYER_6
 10
108.0546
 20
-182.1434
 42
0.4142178057
  0
VERTEX
  8
LAYER_6
 10
107.0669
 20
-181.1557
  0
SEQEND
  0
ENDBLK
  0
BLOCK
  8
LAYER_6
  2
AIGNBL06020101
 70
64
 10
0
 20
0
 30
0
  3
AIGNBL06020101
  0
POLYLINE
  8
LAYER_6
 40
0.1058
 41
0.1058
 66
1
 10
0
 20
0
 30
0
  0
VERTEX
  8
LAYER_6
 10
89.7831
 20
-181.1557
 42
0.4142176074
  0
VERTEX
  8
LAYER_6
 10
88.7954
 20
-182.1434
  0
SEQEND
  0
ENDBLK
  0
BLOCK
  8
LAYER_6
  2
AIGNBL06020102
 70
64
 10
0
 20
0
 30
0
  3
AIGNBL06020102
  0
POLYLINE
  8
LAYER_6
 40
0.1058
 41
0.1058
 66
1
 10
0
 20
0
 30
0
  0
VERTEX
  8
LAYER_6
 10
148.8834
 20
-182.6372
  0
VERTEX
  8
LAYER_6
 10
139.2539
 20
-182.6372
  0
SEQEND
  0
ENDBLK
  0
BLOCK
  8
LAYER_6
  2
AIGNBL06020103
 70
64
 10
0
 20
0
 30
0
  3
AIGNBL06020103
  0
POLYLINE
  8
LAYER_6
 40
0.1058
 41
0.1058
 66
1
 10
0
 20
0
 30
0
  0
VERTEX
  8
LAYER_6
 10
158.513
 20
-182.1434
  0
VERTEX
  8
LAYER_6
 10
158.513
 20
-182.6372
  0
SEQEND
  0
ENDBLK
  0
BLOCK
  8
LAYER_6
  2
AIGNBL06020104
 70
64
 10
0
 20
0
 30
0
  3
AIGNBL06020104
  0
POLYLINE
  8
LAYER_6
 40
0.1058
 41
0.1058
 66
1
 10
0
 20
0
 30
0
  0
VERTEX
  8
LAYER_6
 10
148.8834
 20
-182.6372
  0
VERTEX
  8
LAYER_6
 10
158.513
 20
-182.6372
  0
SEQEND
  0
ENDBLK
  0
BLOCK
  8
LAYER_6
  2
AIGNBL06020105
 70
64
 10
0
 20
0
 30
0
  3
AIGNBL06020105
  0
POLYLINE
  8
LAYER_6
 40
0.1058
 41
0.1058
 66
1
 10
0
 20
0
 30
0
  0
VERTEX
  8
LAYER_6
 10
157.5253
 20
-181.1557
  0
VERTEX
  8
LAYER_6
 10
148.8834
 20
-181.1557
  0
SEQEND
  0
ENDBLK
  0
BLOCK
  8
LAYER_6
  2
AIGNBL06020106
 70
64
 10
0
 20
0
 30
0
  3
AIGNBL06020106
  0
POLYLINE
  8
LAYER_6
 40
0.1058
 41
0.1058
 66
1
 10
0
 20
0
 30
0
  0
VERTEX
  8
LAYER_6
 10
139.2539
 20
-182.1434
  0
VERTEX
  8
LAYER_6
 10
139.2539
 20
-182.6372
  0
SEQEND
  0
ENDBLK
  0
BLOCK
  8
LAYER_6
  2
AIGNBL06020107
 70
64
 10
0
 20
0
 30
0
  3
AIGNBL06020107
  0
POLYLINE
  8
LAYER_6
 40
0.1058
 41
0.1058
 66
1
 10
0
 20
0
 30
0
  0
VERTEX
  8
LAYER_6
 10
140.2415
 20
-181.1557
  0
VERTEX
  8
LAYER_6
 10
148.8834
 20
-181.1557
  0
SEQEND
  0
ENDBLK
  0
BLOCK
  8
LAYER_6
  2
AIGNBL06020108
 70
64
 10
0
 20
0
 30
0
  3
AIGNBL06020108
  0
POLYLINE
  8
LAYER_6
 40
0.1058
 41
0.1058
 66
1
 10
0
 20
0
 30
0
  0
VERTEX
  8
LAYER_6
 10
158.513
 20
-182.1434
 42
0.4142276706
  0
VERTEX
  8
LAYER_6
 10
157.5253
 20
-181.1557
  0
SEQEND
  0
ENDBLK
  0
BLOCK
  8
LAYER_6
  2
AIGNBL06020109
 70
64
 10
0
 20
0
 30
0
  3
AIGNBL06020109
  0
POLYLINE
  8
LAYER_6
 40
0.1058
 41
0.1058
 66
1
 10
0
 20
0
 30
0
  0
VERTEX
  8
LAYER_6
 10
140.2415
 20
-181.1557
 42
0.4142075963
  0
VERTEX
  8
LAYER_6
 10
139.2539
 20
-182.1434
  0
SEQEND
  0
ENDBLK
  0
BLOCK
  8
LAYER_6
  2
AIGNBL0602010A
 70
64
 10
0
 20
0
 30
0
  3
AIGNBL0602010A
  0
POLYLINE
  8
LAYER_6
 40
0.1058
 41
0.1058
 66
1
 10
0
 20
0
 30
0
  0
VERTEX
  8
LAYER_6
 10
107.0669
 20
-183.6249
  0
VERTEX
  8
LAYER_6
 10
107.0669
 20
-182.6372
  0
SEQEND
  0
ENDBLK
  0
BLOCK
  8
LAYER_6
  2
AIGNBL0602010B
 70
64
 10
0
 20
0
 30
0
  3
AIGNBL0602010B
  0
POLYLINE
  8
LAYER_6
 40
0.1058
 41
0.1058
 66
1
 10
0
 20
0
 30
0
  0
VERTEX
  8
LAYER_6
 10
98.425
 20
-183.6249
  0
VERTEX
  8
LAYER_6
 10
107.0669
 20
-183.6249
  0
SEQEND
  0
ENDBLK
  0
BLOCK
  8
LAYER_6
  2
AIGNBL0602010C
 70
64
 10
0
 20
0
 30
0
  3
AIGNBL0602010C
  0
POLYLINE
  8
LAYER_6
 40
0.1058
 41
0.1058
 66
1
 10
0
 20
0
 30
0
  0
VERTEX
  8
LAYER_6
 10
98.425
 20
-183.6249
  0
VERTEX
  8
LAYER_6
 10
89.7831
 20
-183.6249
  0
SEQEND
  0
ENDBLK
  0
BLOCK
  8
LAYER_6
  2
AIGNBL0602010D
 70
64
 10
0
 20
0
 30
0
  3
AIGNBL0602010D
  0
POLYLINE
  8
LAYER_6
 40
0.1058
 41
0.1058
 66
1
 10
0
 20
0
 30
0
  0
VERTEX
  8
LAYER_6
 10
89.7831
 20
-183.6249
  0
VERTEX
  8
LAYER_6
 10
89.7831
 20
-182.6372
  0
SEQEND
  0
ENDBLK
  0
BLOCK
  8
LAYER_6
  2
AIGNBL0602010E
 70
64
 10
0
 20
0
 30
0
  3
AIGNBL0602010E
  0
POLYLINE
  8
LAYER_6
 40
0.1058
 41
0.1058
 66
1
 10
0
 20
0
 30
0
  0
VERTEX
  8
LAYER_6
 10
157.5253
 20
-183.6249
  0
VERTEX
  8
LAYER_6
 10
157.5253
 20
-182.6372
  0
SEQEND
  0
ENDBLK
  0
BLOCK
  8
LAYER_6
  2
AIGNBL0602010F
 70
64
 10
0
 20
0
 30
0
  3
AIGNBL0602010F
  0
POLYLINE
  8
LAYER_6
 40
0.1058
 41
0.1058
 66
1
 10
0
 20
0
 30
0
  0
VERTEX
  8
LAYER_6
 10
148.8834
 20
-183.6249
  0
VERTEX
  8
LAYER_6
 10
140.2415
 20
-183.6249
  0
SEQEND
  0
ENDBLK
  0
BLOCK
  8
LAYER_6
  2
AIGNBL06020110
 70
64
 10
0
 20
0
 30
0
  3
AIGNBL06020110
  0
POLYLINE
  8
LAYER_6
 40
0.1058
 41
0.1058
 66
1
 10
0
 20
0
 30
0
  0
VERTEX
  8
LAYER_6
 10
148.8834
 20
-183.6249
  0
VERTEX
  8
LAYER_6
 10
157.5253
 20
-183.6249
  0
SEQEND
  0
ENDBLK
  0
BLOCK
  8
LAYER_6
  2
AIGNBL06020111
 70
64
 10
0
 20
0
 30
0
  3
AIGNBL06020111
  0
POLYLINE
  8
LAYER_6
 40
0.1058
 41
0.1058
 66
1
 10
0
 20
0
 30
0
  0
VERTEX
  8
LAYER_6
 10
140.2415
 20
-183.6249
  0
VERTEX
  8
LAYER_6
 10
140.2415
 20
-182.6372
  0
SEQEND
  0
ENDBLK
  0
BLOCK
  8
LAYER_6
  2
AIGNBL06020112
 70
64
 10
0
 20
0
 30
0
  3
AIGNBL06020112
  0
POLYLINE
  8
LAYER_6
 40
0.1058
 41
0.1058
 66
1
 10
0
 20
0
 30
0
  0
VERTEX
  8
LAYER_6
 10
90.03
 20
-194.489
  0
VERTEX
  8
LAYER_6
 10
90.03
 20
-195.4766
  0
SEQEND
  0
ENDBLK
  0
BLOCK
  8
LAYER_6
  2
AIGNBL06020113
 70
64
 10
0
 20
0
 30
0
  3
AIGNBL06020113
  0
POLYLINE
  8
LAYER_6
 40
0.1058
 41
0.1058
 66
1
 10
0
 20
0
 30
0
  0
VERTEX
  8
LAYER_6
 10
98.425
 20
-194.489
  0
VERTEX
  8
LAYER_6
 10
106.82
 20
-194.489
  0
SEQEND
  0
ENDBLK
  0
BLOCK
  8
LAYER_6
  2
AIGNBL06020114
 70
64
 10
0
 20
0
 30
0
  3
AIGNBL06020114
  0
POLYLINE
  8
LAYER_6
 40
0.1058
 41
0.1058
 66
1
 10
0
 20
0
 30
0
  0
VERTEX
  8
LAYER_6
 10
106.82
 20
-194.489
  0
VERTEX
  8
LAYER_6
 10
106.82
 20
-195.4766
  0
SEQEND
  0
ENDBLK
  0
BLOCK
  8
LAYER_6
  2
AIGNBL06020115
 70
64
 10
0
 20
0
 30
0
  3
AIGNBL06020115
  0
POLYLINE
  8
LAYER_6
 40
0.1058
 41
0.1058
 66
1
 10
0
 20
0
 30
0
  0
VERTEX
  8
LAYER_6
 10
98.425
 20
-194.489
  0
VERTEX
  8
LAYER_6
 10
90.03
 20
-194.489
  0
SEQEND
  0
ENDBLK
  0
BLOCK
  8
LAYER_6
  2
AIGNBL06020116
 70
64
 10
0
 20
0
 30
0
  3
AIGNBL06020116
  0
POLYLINE
  8
LAYER_6
 40
0.1058
 41
0.1058
 66
1
 10
0
 20
0
 30
0
  0
VERTEX
  8
LAYER_6
 10
98.425
 20
-195.4766
  0
VERTEX
  8
LAYER_6
 10
90.03
 20
-195.4766
  0
SEQEND
  0
ENDBLK
  0
BLOCK
  8
LAYER_6
  2
AIGNBL06020117
 70
64
 10
0
 20
0
 30
0
  3
AIGNBL06020117
  0
POLYLINE
  8
LAYER_6
 40
0.1058
 41
0.1058
 66
1
 10
0
 20
0
 30
0
  0
VERTEX
  8
LAYER_6
 10
98.425
 20
-195.4766
  0
VERTEX
  8
LAYER_6
 10
106.82
 20
-195.4766
  0
SEQEND
  0
ENDBLK
  0
BLOCK
  8
LAYER_6
  2
AIGNBL06020118
 70
64
 10
0
 20
0
 30
0
  3
AIGNBL06020118
  0
POLYLINE
  8
LAYER_6
 40
0.1058
 41
0.1058
 66
1
 10
0
 20
0
 30
0
  0
VERTEX
  8
LAYER_6
 10
140.4884
 20
-194.489
  0
VERTEX
  8
LAYER_6
 10
140.4884
 20
-195.4766
  0
SEQEND
  0
ENDBLK
  0
BLOCK
  8
LAYER_6
  2
AIGNBL06020119
 70
64
 10
0
 20
0
 30
0
  3
AIGNBL06020119
  0
POLYLINE
  8
LAYER_6
 40
0.1058
 41
0.1058
 66
1
 10
0
 20
0
 30
0
  0
VERTEX
  8
LAYER_6
 10
148.8834
 20
-194.489
  0
VERTEX
  8
LAYER_6
 10
157.2784
 20
-194.489
  0
SEQEND
  0
ENDBLK
  0
BLOCK
  8
LAYER_6
  2
AIGNBL0602011A
 70
64
 10
0
 20
0
 30
0
  3
AIGNBL0602011A
  0
POLYLINE
  8
LAYER_6
 40
0.1058
 41
0.1058
 66
1
 10
0
 20
0
 30
0
  0
VERTEX
  8
LAYER_6
 10
157.2784
 20
-194.489
  0
VERTEX
  8
LAYER_6
 10
157.2784
 20
-195.4766
  0
SEQEND
  0
ENDBLK
  0
BLOCK
  8
LAYER_6
  2
AIGNBL0602011B
 70
64
 10
0
 20
0
 30
0
  3
AIGNBL0602011B
  0
POLYLINE
  8
LAYER_6
 40
0.1058
 41
0.1058
 66
1
 10
0
 20
0
 30
0
  0
VERTEX
  8
LAYER_6
 10
148.8834
 20
-194.489
  0
VERTEX
  8
LAYER_6
 10
140.4884
 20
-194.489
  0
SEQEND
  0
ENDBLK
  0
BLOCK
  8
LAYER_6
  2
AIGNBL0602011C
 70
64
 10
0
 20
0
 30
0
  3
AIGNBL0602011C
  0
POLYLINE
  8
LAYER_6
 40
0.1058
 41
0.1058
 66
1
 10
0
 20
0
 30
0
  0
VERTEX
  8
LAYER_6
 10
148.8834
 20
-195.4766
  0
VERTEX
  8
LAYER_6
 10
140.4884
 20
-195.4766
  0
SEQEND
  0
ENDBLK
  0
BLOCK
  8
LAYER_6
  2
AIGNBL0602011D
 70
64
 10
0
 20
0
 30
0
  3
AIGNBL0602011D
  0
POLYLINE
  8
LAYER_6
 40
0.1058
 41
0.1058
 66
1
 10
0
 20
0
 30
0
  0
VERTEX
  8
LAYER_6
 10
148.8834
 20
-195.4766
  0
VERTEX
  8
LAYER_6
 10
157.2784
 20
-195.4766
  0
SEQEND
  0
ENDBLK
  0
BLOCK
  8
LAYER_6
  2
AIGNBL0602011E
 70
64
 10
0
 20
0
 30
0
  3
AIGNBL0602011E
  0
POLYLINE
  8
LAYER_6
 40
0.1058
 41
0.1058
 66
1
 10
0
 20
0
 30
0
  0
VERTEX
  8
LAYER_6
 10
98.425
 20
-195.9704
  0
VERTEX
  8
LAYER_6
 10
107.3138
 20
-195.9704
  0
SEQEND
  0
ENDBLK
  0
BLOCK
  8
LAYER_6
  2
AIGNBL0602011F
 70
64
 10
0
 20
0
 30
0
  3
AIGNBL0602011F
  0
POLYLINE
  8
LAYER_6
 40
0.1058
 41
0.1058
 66
1
 10
0
 20
0
 30
0
  0
VERTEX
  8
LAYER_6
 10
98.425
 20
-195.4766
  0
VERTEX
  8
LAYER_6
 10
107.3138
 20
-195.4766
  0
SEQEND
  0
ENDBLK
  0
BLOCK
  8
LAYER_6
  2
AIGNBL06020120
 70
64
 10
0
 20
0
 30
0
  3
AIGNBL06020120
  0
POLYLINE
  8
LAYER_6
 40
0.1058
 41
0.1058
 66
1
 10
0
 20
0
 30
0
  0
VERTEX
  8
LAYER_6
 10
107.3138
 20
-195.4766
  0
VERTEX
  8
LAYER_6
 10
107.3138
 20
-195.9704
  0
SEQEND
  0
ENDBLK
  0
BLOCK
  8
LAYER_6
  2
AIGNBL06020121
 70
64
 10
0
 20
0
 30
0
  3
AIGNBL06020121
  0
POLYLINE
  8
LAYER_6
 40
0.1058
 41
0.1058
 66
1
 10
0
 20
0
 30
0
  0
VERTEX
  8
LAYER_6
 10
98.425
 20
-195.9704
  0
VERTEX
  8
LAYER_6
 10
89.5362
 20
-195.9704
  0
SEQEND
  0
ENDBLK
  0
BLOCK
  8
LAYER_6
  2
AIGNBL06020122
 70
64
 10
0
 20
0
 30
0
  3
AIGNBL06020122
  0
POLYLINE
  8
LAYER_6
 40
0.1058
 41
0.1058
 66
1
 10
0
 20
0
 30
0
  0
VERTEX
  8
LAYER_6
 10
89.5362
 20
-195.9704
  0
VERTEX
  8
LAYER_6
 10
89.5362
 20
-195.4766
  0
SEQEND
  0
ENDBLK
  0
BLOCK
  8
LAYER_6
  2
AIGNBL06020123
 70
64
 10
0
 20
0
 30
0
  3
AIGNBL06020123
  0
POLYLINE
  8
LAYER_6
 40
0.1058
 41
0.1058
 66
1
 10
0
 20
0
 30
0
  0
VERTEX
  8
LAYER_6
 10
89.5362
 20
-195.4766
  0
VERTEX
  8
LAYER_6
 10
98.425
 20
-195.4766
  0
SEQEND
  0
ENDBLK
  0
BLOCK
  8
LAYER_6
  2
AIGNBL06020124
 70
64
 10
0
 20
0
 30
0
  3
AIGNBL06020124
  0
POLYLINE
  8
LAYER_6
 40
0.1058
 41
0.1058
 66
1
 10
0
 20
0
 30
0
  0
VERTEX
  8
LAYER_6
 10
148.8834
 20
-195.4766
  0
VERTEX
  8
LAYER_6
 10
139.9946
 20
-195.4766
  0
SEQEND
  0
ENDBLK
  0
BLOCK
  8
LAYER_6
  2
AIGNBL06020125
 70
64
 10
0
 20
0
 30
0
  3
AIGNBL06020125
  0
POLYLINE
  8
LAYER_6
 40
0.1058
 41
0.1058
 66
1
 10
0
 20
0
 30
0
  0
VERTEX
  8
LAYER_6
 10
139.9946
 20
-195.4766
  0
VERTEX
  8
LAYER_6
 10
139.9946
 20
-195.9704
  0
SEQEND
  0
ENDBLK
  0
BLOCK
  8
LAYER_6
  2
AIGNBL06020126
 70
64
 10
0
 20
0
 30
0
  3
AIGNBL06020126
  0
POLYLINE
  8
LAYER_6
 40
0.1058
 41
0.1058
 66
1
 10
0
 20
0
 30
0
  0
VERTEX
  8
LAYER_6
 10
139.9946
 20
-195.9704
  0
VERTEX
  8
LAYER_6
 10
148.8834
 20
-195.9704
  0
SEQEND
  0
ENDBLK
  0
BLOCK
  8
LAYER_6
  2
AIGNBL06020127
 70
64
 10
0
 20
0
 30
0
  3
AIGNBL06020127
  0
POLYLINE
  8
LAYER_6
 40
0.1058
 41
0.1058
 66
1
 10
0
 20
0
 30
0
  0
VERTEX
  8
LAYER_6
 10
148.8834
 20
-195.9704
  0
VERTEX
  8
LAYER_6
 10
157.7722
 20
-195.9704
  0
SEQEND
  0
ENDBLK
  0
BLOCK
  8
LAYER_6
  2
AIGNBL06020128
 70
64
 10
0
 20
0
 30
0
  3
AIGNBL06020128
  0
POLYLINE
  8
LAYER_6
 40
0.1058
 41
0.1058
 66
1
 10
0
 20
0
 30
0
  0
VERTEX
  8
LAYER_6
 10
157.7722
 20
-195.9704
  0
VERTEX
  8
LAYER_6
 10
157.7722
 20
-195.4766
  0
SEQEND
  0
ENDBLK
  0
BLOCK
  8
LAYER_6
  2
AIGNBL06020129
 70
64
 10
0
 20
0
 30
0
  3
AIGNBL06020129
  0
POLYLINE
  8
LAYER_6
 40
0.1058
 41
0.1058
 66
1
 10
0
 20
0
 30
0
  0
VERTEX
  8
LAYER_6
 10
157.7722
 20
-195.4766
  0
VERTEX
  8
LAYER_6
 10
148.8834
 20
-195.4766
  0
SEQEND
  0
ENDBLK
  0
BLOCK
  8
LAYER_6
  2
AIGNBL0602012A
 70
64
 10
0
 20
0
 30
0
  3
AIGNBL0602012A
  0
POLYLINE
  8
LAYER_6
 40
0.1058
 41
0.1058
 66
1
 10
0
 20
0
 30
0
  0
VERTEX
  8
LAYER_6
 10
102.1698
 20
-199.1803
  0
VERTEX
  8
LAYER_6
 10
102.1698
 20
-195.9704
  0
SEQEND
  0
ENDBLK
  0
BLOCK
  8
LAYER_6
  2
AIGNBL0602012B
 70
64
 10
0
 20
0
 30
0
  3
AIGNBL0602012B
  0
POLYLINE
  8
LAYER_6
 40
0.1058
 41
0.1058
 66
1
 10
0
 20
0
 30
0
  0
VERTEX
  8
LAYER_6
 10
104.9682
 20
-195.9704
  0
VERTEX
  8
LAYER_6
 10
104.9682
 20
-199.1803
  0
SEQEND
  0
ENDBLK
  0
BLOCK
  8
LAYER_6
  2
AIGNBL0602012C
 70
64
 10
0
 20
0
 30
0
  3
AIGNBL0602012C
  0
POLYLINE
  8
LAYER_6
 40
0.1058
 41
0.1058
 66
1
 10
0
 20
0
 30
0
  0
VERTEX
  8
LAYER_6
 10
101.1993
 20
-199.1803
  0
VERTEX
  8
LAYER_6
 10
101.1993
 20
-195.9704
  0
SEQEND
  0
ENDBLK
  0
BLOCK
  8
LAYER_6
  2
AIGNBL0602012D
 70
64
 10
0
 20
0
 30
0
  3
AIGNBL0602012D
  0
POLYLINE
  8
LAYER_6
 40
0.1058
 41
0.1058
 66
1
 10
0
 20
0
 30
0
  0
VERTEX
  8
LAYER_6
 10
91.8818
 20
-199.1803
  0
VERTEX
  8
LAYER_6
 10
104.9682
 20
-199.1803
  0
SEQEND
  0
ENDBLK
  0
BLOCK
  8
LAYER_6
  2
AIGNBL0602012E
 70
64
 10
0
 20
0
 30
0
  3
AIGNBL0602012E
  0
POLYLINE
  8
LAYER_6
 40
0.1058
 41
0.1058
 66
1
 10
0
 20
0
 30
0
  0
VERTEX
  8
LAYER_6
 10
94.6802
 20
-199.1803
  0
VERTEX
  8
LAYER_6
 10
94.6802
 20
-195.9704
  0
SEQEND
  0
ENDBLK
  0
BLOCK
  8
LAYER_6
  2
AIGNBL0602012F
 70
64
 10
0
 20
0
 30
0
  3
AIGNBL0602012F
  0
POLYLINE
  8
LAYER_6
 40
0.1058
 41
0.1058
 66
1
 10
0
 20
0
 30
0
  0
VERTEX
  8
LAYER_6
 10
95.6507
 20
-199.1803
  0
VERTEX
  8
LAYER_6
 10
95.6507
 20
-195.9704
  0
SEQEND
  0
ENDBLK
  0
BLOCK
  8
LAYER_6
  2
AIGNBL06020130
 70
64
 10
0
 20
0
 30
0
  3
AIGNBL06020130
  0
POLYLINE
  8
LAYER_6
 40
0.1058
 41
0.1058
 66
1
 10
0
 20
0
 30
0
  0
VERTEX
  8
LAYER_6
 10
91.8818
 20
-195.9704
  0
VERTEX
  8
LAYER_6
 10
91.8818
 20
-199.1803
  0
SEQEND
  0
ENDBLK
  0
BLOCK
  8
LAYER_6
  2
AIGNBL06020131
 70
64
 10
0
 20
0
 30
0
  3
AIGNBL06020131
  0
POLYLINE
  8
LAYER_6
 40
0.1058
 41
0.1058
 66
1
 10
0
 20
0
 30
0
  0
VERTEX
  8
LAYER_6
 10
91.8818
 20
-195.9704
  0
VERTEX
  8
LAYER_6
 10
104.9682
 20
-195.9704
  0
SEQEND
  0
ENDBLK
  0
BLOCK
  8
LAYER_6
  2
AIGNBL06020132
 70
64
 10
0
 20
0
 30
0
  3
AIGNBL06020132
  0
POLYLINE
  8
LAYER_6
 40
0.1058
 41
0.1058
 66
1
 10
0
 20
0
 30
0
  0
VERTEX
  8
LAYER_6
 10
154.8093
 20
-199.1803
  0
VERTEX
  8
LAYER_6
 10
142.9576
 20
-199.1803
  0
SEQEND
  0
ENDBLK
  0
BLOCK
  8
LAYER_6
  2
AIGNBL06020133
 70
64
 10
0
 20
0
 30
0
  3
AIGNBL06020133
  0
POLYLINE
  8
LAYER_6
 40
0.1058
 41
0.1058
 66
1
 10
0
 20
0
 30
0
  0
VERTEX
  8
LAYER_6
 10
142.9576
 20
-199.1803
  0
VERTEX
  8
LAYER_6
 10
142.9576
 20
-195.9704
  0
SEQEND
  0
ENDBLK
  0
BLOCK
  8
LAYER_6
  2
AIGNBL06020134
 70
64
 10
0
 20
0
 30
0
  3
AIGNBL06020134
  0
POLYLINE
  8
LAYER_6
 40
0.1058
 41
0.1058
 66
1
 10
0
 20
0
 30
0
  0
VERTEX
  8
LAYER_6
 10
142.9576
 20
-195.9704
  0
VERTEX
  8
LAYER_6
 10
154.8093
 20
-195.9704
  0
SEQEND
  0
ENDBLK
  0
BLOCK
  8
LAYER_6
  2
AIGNBL06020135
 70
64
 10
0
 20
0
 30
0
  3
AIGNBL06020135
  0
POLYLINE
  8
LAYER_6
 40
0.1058
 41
0.1058
 66
1
 10
0
 20
0
 30
0
  0
VERTEX
  8
LAYER_6
 10
154.8093
 20
-195.9704
  0
VERTEX
  8
LAYER_6
 10
154.8093
 20
-199.1803
  0
SEQEND
  0
ENDBLK
  0
BLOCK
  8
LAYER_6
  2
AIGNBL06020136
 70
64
 10
0
 20
0
 30
0
  3
AIGNBL06020136
  0
POLYLINE
  8
LAYER_6
 40
0.1058
 41
0.1058
 66
1
 10
0
 20
0
 30
0
  0
VERTEX
  8
LAYER_6
 10
154.249
 20
-199.1803
  0
VERTEX
  8
LAYER_6
 10
154.249
 20
-195.9704
  0
SEQEND
  0
ENDBLK
  0
BLOCK
  8
LAYER_6
  2
AIGNBL06020137
 70
64
 10
0
 20
0
 30
0
  3
AIGNBL06020137
  0
POLYLINE
  8
LAYER_6
 40
0.1058
 41
0.1058
 66
1
 10
0
 20
0
 30
0
  0
VERTEX
  8
LAYER_6
 10
149.4437
 20
-199.1803
  0
VERTEX
  8
LAYER_6
 10
149.4437
 20
-195.9704
  0
SEQEND
  0
ENDBLK
  0
BLOCK
  8
LAYER_6
  2
AIGNBL06020138
 70
64
 10
0
 20
0
 30
0
  3
AIGNBL06020138
  0
POLYLINE
  8
LAYER_6
 40
0.1058
 41
0.1058
 66
1
 10
0
 20
0
 30
0
  0
VERTEX
  8
LAYER_6
 10
148.3231
 20
-199.1803
  0
VERTEX
  8
LAYER_6
 10
148.3231
 20
-195.9704
  0
SEQEND
  0
ENDBLK
  0
BLOCK
  8
LAYER_6
  2
AIGNBL06020139
 70
64
 10
0
 20
0
 30
0
  3
AIGNBL06020139
  0
POLYLINE
  8
LAYER_6
 40
0.1058
 41
0.1058
 66
1
 10
0
 20
0
 30
0
  0
VERTEX
  8
LAYER_6
 10
143.5179
 20
-199.1803
  0
VERTEX
  8
LAYER_6
 10
143.5179
 20
-195.9704
  0
SEQEND
  0
ENDBLK
  0
BLOCK
  8
LAYER_6
  2
AIGNBL0602013A
 70
64
 10
0
 20
0
 30
0
  3
AIGNBL0602013A
  0
POLYLINE
  8
LAYER_6
 40
0.1058
 41
0.1058
 66
1
 10
0
 20
0
 30
0
  0
VERTEX
  8
LAYER_6
 10
144.9328
 20
-47.626
  0
VERTEX
  8
LAYER_6
 10
152.834
 20
-47.626
  0
SEQEND
  0
ENDBLK
  0
BLOCK
  8
LAYER_6
  2
AIGNBL0602013B
 70
64
 10
0
 20
0
 30
0
  3
AIGNBL0602013B
  0
POLYLINE
  8
LAYER_6
 40
0.1058
 41
0.1058
 66
1
 10
0
 20
0
 30
0
 70
1
  0
VERTEX
  8
LAYER_6
 10
101.7089
 20
-90.637
 42
0.1590085242
  0
VERTEX
  8
LAYER_6
 10
101.5232
 20
-90.0913
 42
0.1092721984
  0
VERTEX
  8
LAYER_6
 10
100.959
 20
-89.5925
 42
0.07475917651
  0
VERTEX
  8
LAYER_6
 10
99.9553
 20
-89.1838
 42
0.05762323737
  0
VERTEX
  8
LAYER_6
 10
98.6359
 20
-88.9983
 42
0.008039854026
  0
VERTEX
  8
LAYER_6
 10
98.425
 20
-88.995
 42
0.06116811154
  0
VERTEX
  8
LAYER_6
 10
96.93
 20
-89.1746
 42
0.06915641556
  0
VERTEX
  8
LAYER_6
 10
95.891
 20
-89.5925
 42
0.1000174968
  0
VERTEX
  8
LAYER_6
 10
95.3136
 20
-90.1103
 42
0.139635924
  0
VERTEX
  8
LAYER_6
 10
95.1414
 20
-90.6158
 42
0.006324563439
  0
VERTEX
  8
LAYER_6
 10
95.1411
 20
-90.637
 42
0.1590192813
  0
VERTEX
  8
LAYER_6
 10
95.3268
 20
-91.1826
 42
0.1092687627
  0
VERTEX
  8
LAYER_6
 10
95.891
 20
-91.6814
 42
0.07475495786
  0
VERTEX
  8
LAYER_6
 10
96.8947
 20
-92.0901
 42
0.0576216046
  0
VERTEX
  8
LAYER_6
 10
98.2141
 20
-92.2756
 42
0.008039798385
  0
VERTEX
  8
LAYER_6
 10
98.425
 20
-92.2789
 42
0.06116695265
  0
VERTEX
  8
LAYER_6
 10
99.92
 20
-92.0993
 42
0.06915259098
  0
VERTEX
  8
LAYER_6
 10
100.959
 20
-91.6814
 42
0.1000128632
  0
VERTEX
  8
LAYER_6
 10
101.5364
 20
-91.1636
 42
0.1396421973
  0
VERTEX
  8
LAYER_6
 10
101.7086
 20
-90.6582
 42
0.006325184561
  0
SEQEND
  0
ENDBLK
  0
BLOCK
  8
LAYER_1
  2
AIGNBL01010002
 70
64
 10
0
 20
0
 30
0
  3
AIGNBL01010002
  0
INSERT
  8
LAYER_1
  2
AIGNBL01020003
 10
0
 20
0
 30
0
  0
INSERT
  8
LAYER_1
  2
AIGNBL0102000C
 10
0
 20
0
 30
0
  0
ENDBLK
  0
BLOCK
  8
LAYER_6
  2
AIGNBL06010002
 70
64
 10
0
 20
0
 30
0
  3
AIGNBL06010002
  0
POLYLINE
  8
LAYER_6
 40
0.7056
 41
0.7056
 66
1
 10
0
 20
0
 30
0
 70
1
  0
VERTEX
  8
LAYER_6
 10
33.7873
 20
22.6587
  0
VERTEX
  8
LAYER_6
 10
230.7955
 20
22.6587
  0
VERTEX
  8
LAYER_6
 10
230.7955
 20
-259.334
  0
VERTEX
  8
LAYER_6
 10
33.7873
 20
-259.334
  0
SEQEND
  0
ENDBLK
  0
BLOCK
  8
LAYER_6
  2
AIGNBL06010003
 70
64
 10
0
 20
0
 30
0
  3
AIGNBL06010003
  0
INSERT
  8
LAYER_6
  2
AIGNBL06020004
 10
0
 20
0
 30
0
  0
INSERT
  8
LAYER_6
  2
AIGNBL06020005
 10
0
 20
0
 30
0
  0
INSERT
  8
LAYER_6
  2
AIGNBL06020006
 10
0
 20
0
 30
0
  0
INSERT
  8
LAYER_6
  2
AIGNBL06020007
 10
0
 20
0
 30
0
  0
INSERT
  8
LAYER_6
  2
AIGNBL06020008
 10
0
 20
0
 30
0
  0
INSERT
  8
LAYER_6
  2
AIGNBL06020009
 10
0
 20
0
 30
0
  0
INSERT
  8
LAYER_6
  2
AIGNBL0602000A
 10
0
 20
0
 30
0
  0
INSERT
  8
LAYER_6
  2
AIGNBL0602000B
 10
0
 20
0
 30
0
  0
INSERT
  8
LAYER_6
  2
AIGNBL0602000C
 10
0
 20
0
 30
0
  0
INSERT
  8
LAYER_6
  2
AIGNBL0602000D
 10
0
 20
0
 30
0
  0
INSERT
  8
LAYER_6
  2
AIGNBL0602000E
 10
0
 20
0
 30
0
  0
INSERT
  8
LAYER_6
  2
AIGNBL0602000F
 10
0
 20
0
 30
0
  0
INSERT
  8
LAYER_6
  2
AIGNBL06020010
 10
0
 20
0
 30
0
  0
INSERT
  8
LAYER_6
  2
AIGNBL06020011
 10
0
 20
0
 30
0
  0
INSERT
  8
LAYER_6
  2
AIGNBL06020012
 10
0
 20
0
 30
0
  0
INSERT
  8
LAYER_6
  2
AIGNBL06020013
 10
0
 20
0
 30
0
  0
INSERT
  8
LAYER_6
  2
AIGNBL06020014
 10
0
 20
0
 30
0
  0
INSERT
  8
LAYER_6
  2
AIGNBL06020015
 10
0
 20
0
 30
0
  0
INSERT
  8
LAYER_6
  2
AIGNBL06020016
 10
0
 20
0
 30
0
  0
INSERT
  8
LAYER_6
  2
AIGNBL06020017
 10
0
 20
0
 30
0
  0
INSERT
  8
LAYER_6
  2
AIGNBL06020018
 10
0
 20
0
 30
0
  0
INSERT
  8
LAYER_6
  2
AIGNBL06020019
 10
0
 20
0
 30
0
  0
INSERT
  8
LAYER_6
  2
AIGNBL0602001A
 10
0
 20
0
 30
0
  0
INSERT
  8
LAYER_6
  2
AIGNBL0602001B
 10
0
 20
0
 30
0
  0
INSERT
  8
LAYER_6
  2
AIGNBL0602001C
 10
0
 20
0
 30
0
  0
INSERT
  8
LAYER_6
  2
AIGNBL0602001D
 10
0
 20
0
 30
0
  0
INSERT
  8
LAYER_6
  2
AIGNBL0602001E
 10
0
 20
0
 30
0
  0
INSERT
  8
LAYER_6
  2
AIGNBL0602001F
 10
0
 20
0
 30
0
  0
INSERT
  8
LAYER_6
  2
AIGNBL06020020
 10
0
 20
0
 30
0
  0
INSERT
  8
LAYER_6
  2
AIGNBL06020021
 10
0
 20
0
 30
0
  0
INSERT
  8
LAYER_6
  2
AIGNBL06020022
 10
0
 20
0
 30
0
  0
INSERT
  8
LAYER_6
  2
AIGNBL06020023
 10
0
 20
0
 30
0
  0
INSERT
  8
LAYER_6
  2
AIGNBL06020024
 10
0
 20
0
 30
0
  0
INSERT
  8
LAYER_6
  2
AIGNBL06020025
 10
0
 20
0
 30
0
  0
INSERT
  8
LAYER_6
  2
AIGNBL06020026
 10
0
 20
0
 30
0
  0
INSERT
  8
LAYER_6
  2
AIGNBL06020027
 10
0
 20
0
 30
0
  0
INSERT
  8
LAYER_6
  2
AIGNBL06020028
 10
0
 20
0
 30
0
  0
INSERT
  8
LAYER_6
  2
AIGNBL06020029
 10
0
 20
0
 30
0
  0
INSERT
  8
LAYER_6
  2
AIGNBL0602002A
 10
0
 20
0
 30
0
  0
INSERT
  8
LAYER_6
  2
AIGNBL0602002B
 10
0
 20
0
 30
0
  0
INSERT
  8
LAYER_6
  2
AIGNBL0602002C
 10
0
 20
0
 30
0
  0
INSERT
  8
LAYER_6
  2
AIGNBL0602002D
 10
0
 20
0
 30
0
  0
INSERT
  8
LAYER_6
  2
AIGNBL0602002E
 10
0
 20
0
 30
0
  0
INSERT
  8
LAYER_6
  2
AIGNBL0602002F
 10
0
 20
0
 30
0
  0
INSERT
  8
LAYER_6
  2
AIGNBL06020030
 10
0
 20
0
 30
0
  0
INSERT
  8
LAYER_6
  2
AIGNBL06020031
 10
0
 20
0
 30
0
  0
INSERT
  8
LAYER_6
  2
AIGNBL06020032
 10
0
 20
0
 30
0
  0
INSERT
  8
LAYER_6
  2
AIGNBL06020033
 10
0
 20
0
 30
0
  0
INSERT
  8
LAYER_6
  2
AIGNBL06020034
 10
0
 20
0
 30
0
  0
INSERT
  8
LAYER_6
  2
AIGNBL06020035
 10
0
 20
0
 30
0
  0
INSERT
  8
LAYER_6
  2
AIGNBL06020036
 10
0
 20
0
 30
0
  0
INSERT
  8
LAYER_6
  2
AIGNBL06020037
 10
0
 20
0
 30
0
  0
INSERT
  8
LAYER_6
  2
AIGNBL06020038
 10
0
 20
0
 30
0
  0
INSERT
  8
LAYER_6
  2
AIGNBL06020039
 10
0
 20
0
 30
0
  0
INSERT
  8
LAYER_6
  2
AIGNBL0602003A
 10
0
 20
0
 30
0
  0
INSERT
  8
LAYER_6
  2
AIGNBL0602003B
 10
0
 20
0
 30
0
  0
INSERT
  8
LAYER_6
  2
AIGNBL0602003C
 10
0
 20
0
 30
0
  0
INSERT
  8
LAYER_6
  2
AIGNBL0602003D
 10
0
 20
0
 30
0
  0
INSERT
  8
LAYER_6
  2
AIGNBL0602003E
 10
0
 20
0
 30
0
  0
INSERT
  8
LAYER_6
  2
AIGNBL0602003F
 10
0
 20
0
 30
0
  0
INSERT
  8
LAYER_6
  2
AIGNBL06020040
 10
0
 20
0
 30
0
  0
INSERT
  8
LAYER_6
  2
AIGNBL06020041
 10
0
 20
0
 30
0
  0
INSERT
  8
LAYER_6
  2
AIGNBL06020042
 10
0
 20
0
 30
0
  0
INSERT
  8
LAYER_6
  2
AIGNBL06020043
 10
0
 20
0
 30
0
  0
INSERT
  8
LAYER_6
  2
AIGNBL06020044
 10
0
 20
0
 30
0
  0
INSERT
  8
LAYER_6
  2
AIGNBL06020045
 10
0
 20
0
 30
0
  0
INSERT
  8
LAYER_6
  2
AIGNBL06020046
 10
0
 20
0
 30
0
  0
INSERT
  8
LAYER_6
  2
AIGNBL06020047
 10
0
 20
0
 30
0
  0
INSERT
  8
LAYER_6
  2
AIGNBL06020048
 10
0
 20
0
 30
0
  0
INSERT
  8
LAYER_6
  2
AIGNBL06020049
 10
0
 20
0
 30
0
  0
INSERT
  8
LAYER_6
  2
AIGNBL0602004A
 10
0
 20
0
 30
0
  0
INSERT
  8
LAYER_6
  2
AIGNBL0602004B
 10
0
 20
0
 30
0
  0
INSERT
  8
LAYER_6
  2
AIGNBL0602004C
 10
0
 20
0
 30
0
  0
INSERT
  8
LAYER_6
  2
AIGNBL0602004D
 10
0
 20
0
 30
0
  0
INSERT
  8
LAYER_6
  2
AIGNBL0602004E
 10
0
 20
0
 30
0
  0
INSERT
  8
LAYER_6
  2
AIGNBL0602004F
 10
0
 20
0
 30
0
  0
INSERT
  8
LAYER_6
  2
AIGNBL06020050
 10
0
 20
0
 30
0
  0
INSERT
  8
LAYER_6
  2
AIGNBL06020051
 10
0
 20
0
 30
0
  0
INSERT
  8
LAYER_6
  2
AIGNBL06020052
 10
0
 20
0
 30
0
  0
INSERT
  8
LAYER_6
  2
AIGNBL06020053
 10
0
 20
0
 30
0
  0
INSERT
  8
LAYER_6
  2
AIGNBL06020054
 10
0
 20
0
 30
0
  0
INSERT
  8
LAYER_6
  2
AIGNBL06020055
 10
0
 20
0
 30
0
  0
INSERT
  8
LAYER_6
  2
AIGNBL06020056
 10
0
 20
0
 30
0
  0
INSERT
  8
LAYER_6
  2
AIGNBL06020057
 10
0
 20
0
 30
0
  0
INSERT
  8
LAYER_6
  2
AIGNBL06020058
 10
0
 20
0
 30
0
  0
INSERT
  8
LAYER_6
  2
AIGNBL06020059
 10
0
 20
0
 30
0
  0
INSERT
  8
LAYER_6
  2
AIGNBL0602005A
 10
0
 20
0
 30
0
  0
INSERT
  8
LAYER_6
  2
AIGNBL0602005B
 10
0
 20
0
 30
0
  0
INSERT
  8
LAYER_6
  2
AIGNBL0602005C
 10
0
 20
0
 30
0
  0
INSERT
  8
LAYER_6
  2
AIGNBL0602005D
 10
0
 20
0
 30
0
  0
INSERT
  8
LAYER_6
  2
AIGNBL0602005E
 10
0
 20
0
 30
0
  0
INSERT
  8
LAYER_6
  2
AIGNBL0602005F
 10
0
 20
0
 30
0
  0
INSERT
  8
LAYER_6
  2
AIGNBL06020060
 10
0
 20
0
 30
0
  0
INSERT
  8
LAYER_6
  2
AIGNBL06020061
 10
0
 20
0
 30
0
  0
INSERT
  8
LAYER_6
  2
AIGNBL06020062
 10
0
 20
0
 30
0
  0
INSERT
  8
LAYER_6
  2
AIGNBL06020063
 10
0
 20
0
 30
0
  0
INSERT
  8
LAYER_6
  2
AIGNBL06020064
 10
0
 20
0
 30
0
  0
INSERT
  8
LAYER_6
  2
AIGNBL06020065
 10
0
 20
0
 30
0
  0
INSERT
  8
LAYER_6
  2
AIGNBL06020066
 10
0
 20
0
 30
0
  0
INSERT
  8
LAYER_6
  2
AIGNBL06020067
 10
0
 20
0
 30
0
  0
INSERT
  8
LAYER_6
  2
AIGNBL06020068
 10
0
 20
0
 30
0
  0
INSERT
  8
LAYER_6
  2
AIGNBL06020069
 10
0
 20
0
 30
0
  0
INSERT
  8
LAYER_6
  2
AIGNBL0602006A
 10
0
 20
0
 30
0
  0
INSERT
  8
LAYER_6
  2
AIGNBL0602006B
 10
0
 20
0
 30
0
  0
INSERT
  8
LAYER_6
  2
AIGNBL0602006C
 10
0
 20
0
 30
0
  0
INSERT
  8
LAYER_6
  2
AIGNBL0602006D
 10
0
 20
0
 30
0
  0
INSERT
  8
LAYER_6
  2
AIGNBL0602006E
 10
0
 20
0
 30
0
  0
INSERT
  8
LAYER_6
  2
AIGNBL0602006F
 10
0
 20
0
 30
0
  0
INSERT
  8
LAYER_6
  2
AIGNBL06020070
 10
0
 20
0
 30
0
  0
INSERT
  8
LAYER_6
  2
AIGNBL06020071
 10
0
 20
0
 30
0
  0
INSERT
  8
LAYER_6
  2
AIGNBL06020072
 10
0
 20
0
 30
0
  0
INSERT
  8
LAYER_6
  2
AIGNBL06020073
 10
0
 20
0
 30
0
  0
INSERT
  8
LAYER_6
  2
AIGNBL06020074
 10
0
 20
0
 30
0
  0
INSERT
  8
LAYER_6
  2
AIGNBL06020075
 10
0
 20
0
 30
0
  0
INSERT
  8
LAYER_6
  2
AIGNBL06020076
 10
0
 20
0
 30
0
  0
INSERT
  8
LAYER_6
  2
AIGNBL06020077
 10
0
 20
0
 30
0
  0
INSERT
  8
LAYER_6
  2
AIGNBL06020078
 10
0
 20
0
 30
0
  0
INSERT
  8
LAYER_6
  2
AIGNBL06020079
 10
0
 20
0
 30
0
  0
INSERT
  8
LAYER_6
  2
AIGNBL0602007A
 10
0
 20
0
 30
0
  0
INSERT
  8
LAYER_6
  2
AIGNBL0602007B
 10
0
 20
0
 30
0
  0
INSERT
  8
LAYER_6
  2
AIGNBL0602007C
 10
0
 20
0
 30
0
  0
INSERT
  8
LAYER_6
  2
AIGNBL0602007D
 10
0
 20
0
 30
0
  0
INSERT
  8
LAYER_6
  2
AIGNBL0602007E
 10
0
 20
0
 30
0
  0
INSERT
  8
LAYER_6
  2
AIGNBL0602007F
 10
0
 20
0
 30
0
  0
INSERT
  8
LAYER_6
  2
AIGNBL06020080
 10
0
 20
0
 30
0
  0
INSERT
  8
LAYER_6
  2
AIGNBL06020081
 10
0
 20
0
 30
0
  0
INSERT
  8
LAYER_6
  2
AIGNBL06020082
 10
0
 20
0
 30
0
  0
INSERT
  8
LAYER_6
  2
AIGNBL06020083
 10
0
 20
0
 30
0
  0
INSERT
  8
LAYER_6
  2
AIGNBL06020084
 10
0
 20
0
 30
0
  0
INSERT
  8
LAYER_6
  2
AIGNBL06020085
 10
0
 20
0
 30
0
  0
INSERT
  8
LAYER_6
  2
AIGNBL06020086
 10
0
 20
0
 30
0
  0
INSERT
  8
LAYER_6
  2
AIGNBL06020087
 10
0
 20
0
 30
0
  0
INSERT
  8
LAYER_6
  2
AIGNBL06020088
 10
0
 20
0
 30
0
  0
INSERT
  8
LAYER_6
  2
AIGNBL06020089
 10
0
 20
0
 30
0
  0
INSERT
  8
LAYER_6
  2
AIGNBL0602008A
 10
0
 20
0
 30
0
  0
INSERT
  8
LAYER_6
  2
AIGNBL0602008B
 10
0
 20
0
 30
0
  0
INSERT
  8
LAYER_6
  2
AIGNBL0602008C
 10
0
 20
0
 30
0
  0
INSERT
  8
LAYER_6
  2
AIGNBL0602008D
 10
0
 20
0
 30
0
  0
INSERT
  8
LAYER_6
  2
AIGNBL0602008E
 10
0
 20
0
 30
0
  0
INSERT
  8
LAYER_6
  2
AIGNBL0602008F
 10
0
 20
0
 30
0
  0
INSERT
  8
LAYER_6
  2
AIGNBL06020090
 10
0
 20
0
 30
0
  0
INSERT
  8
LAYER_6
  2
AIGNBL06020091
 10
0
 20
0
 30
0
  0
INSERT
  8
LAYER_6
  2
AIGNBL06020092
 10
0
 20
0
 30
0
  0
INSERT
  8
LAYER_6
  2
AIGNBL06020093
 10
0
 20
0
 30
0
  0
INSERT
  8
LAYER_6
  2
AIGNBL06020094
 10
0
 20
0
 30
0
  0
INSERT
  8
LAYER_6
  2
AIGNBL06020095
 10
0
 20
0
 30
0
  0
INSERT
  8
LAYER_6
  2
AIGNBL06020096
 10
0
 20
0
 30
0
  0
INSERT
  8
LAYER_6
  2
AIGNBL06020097
 10
0
 20
0
 30
0
  0
INSERT
  8
LAYER_6
  2
AIGNBL06020098
 10
0
 20
0
 30
0
  0
INSERT
  8
LAYER_6
  2
AIGNBL06020099
 10
0
 20
0
 30
0
  0
INSERT
  8
LAYER_6
  2
AIGNBL0602009A
 10
0
 20
0
 30
0
  0
INSERT
  8
LAYER_6
  2
AIGNBL0602009B
 10
0
 20
0
 30
0
  0
INSERT
  8
LAYER_6
  2
AIGNBL0602009C
 10
0
 20
0
 30
0
  0
INSERT
  8
LAYER_6
  2
AIGNBL0602009D
 10
0
 20
0
 30
0
  0
INSERT
  8
LAYER_6
  2
AIGNBL0602009E
 10
0
 20
0
 30
0
  0
INSERT
  8
LAYER_6
  2
AIGNBL0602009F
 10
0
 20
0
 30
0
  0
INSERT
  8
LAYER_6
  2
AIGNBL060200A0
 10
0
 20
0
 30
0
  0
INSERT
  8
LAYER_6
  2
AIGNBL060200A1
 10
0
 20
0
 30
0
  0
INSERT
  8
LAYER_6
  2
AIGNBL060200A2
 10
0
 20
0
 30
0
  0
INSERT
  8
LAYER_6
  2
AIGNBL060200A3
 10
0
 20
0
 30
0
  0
INSERT
  8
LAYER_6
  2
AIGNBL060200A4
 10
0
 20
0
 30
0
  0
INSERT
  8
LAYER_6
  2
AIGNBL060200A5
 10
0
 20
0
 30
0
  0
INSERT
  8
LAYER_6
  2
AIGNBL060200A6
 10
0
 20
0
 30
0
  0
INSERT
  8
LAYER_6
  2
AIGNBL060200A7
 10
0
 20
0
 30
0
  0
INSERT
  8
LAYER_6
  2
AIGNBL060200A8
 10
0
 20
0
 30
0
  0
INSERT
  8
LAYER_6
  2
AIGNBL060200A9
 10
0
 20
0
 30
0
  0
INSERT
  8
LAYER_6
  2
AIGNBL060200AA
 10
0
 20
0
 30
0
  0
INSERT
  8
LAYER_6
  2
AIGNBL060200AB
 10
0
 20
0
 30
0
  0
INSERT
  8
LAYER_6
  2
AIGNBL060200AC
 10
0
 20
0
 30
0
  0
INSERT
  8
LAYER_6
  2
AIGNBL060200AD
 10
0
 20
0
 30
0
  0
INSERT
  8
LAYER_6
  2
AIGNBL060200AE
 10
0
 20
0
 30
0
  0
INSERT
  8
LAYER_6
  2
AIGNBL060200AF
 10
0
 20
0
 30
0
  0
INSERT
  8
LAYER_6
  2
AIGNBL060200B0
 10
0
 20
0
 30
0
  0
INSERT
  8
LAYER_6
  2
AIGNBL060200B1
 10
0
 20
0
 30
0
  0
INSERT
  8
LAYER_6
  2
AIGNBL060200B2
 10
0
 20
0
 30
0
  0
INSERT
  8
LAYER_6
  2
AIGNBL060200B3
 10
0
 20
0
 30
0
  0
INSERT
  8
LAYER_6
  2
AIGNBL060200B4
 10
0
 20
0
 30
0
  0
INSERT
  8
LAYER_6
  2
AIGNBL060200B5
 10
0
 20
0
 30
0
  0
INSERT
  8
LAYER_6
  2
AIGNBL060200B6
 10
0
 20
0
 30
0
  0
INSERT
  8
LAYER_6
  2
AIGNBL060200B7
 10
0
 20
0
 30
0
  0
INSERT
  8
LAYER_6
  2
AIGNBL060200B8
 10
0
 20
0
 30
0
  0
INSERT
  8
LAYER_6
  2
AIGNBL060200B9
 10
0
 20
0
 30
0
  0
INSERT
  8
LAYER_6
  2
AIGNBL060200BA
 10
0
 20
0
 30
0
  0
INSERT
  8
LAYER_6
  2
AIGNBL060200BB
 10
0
 20
0
 30
0
  0
INSERT
  8
LAYER_6
  2
AIGNBL060200BC
 10
0
 20
0
 30
0
  0
INSERT
  8
LAYER_6
  2
AIGNBL060200BD
 10
0
 20
0
 30
0
  0
INSERT
  8
LAYER_6
  2
AIGNBL060200BE
 10
0
 20
0
 30
0
  0
INSERT
  8
LAYER_6
  2
AIGNBL060200BF
 10
0
 20
0
 30
0
  0
INSERT
  8
LAYER_6
  2
AIGNBL060200C0
 10
0
 20
0
 30
0
  0
INSERT
  8
LAYER_6
  2
AIGNBL060200C1
 10
0
 20
0
 30
0
  0
INSERT
  8
LAYER_6
  2
AIGNBL060200C2
 10
0
 20
0
 30
0
  0
INSERT
  8
LAYER_6
  2
AIGNBL060200C3
 10
0
 20
0
 30
0
  0
INSERT
  8
LAYER_6
  2
AIGNBL060200C4
 10
0
 20
0
 30
0
  0
INSERT
  8
LAYER_6
  2
AIGNBL060200C5
 10
0
 20
0
 30
0
  0
INSERT
  8
LAYER_6
  2
AIGNBL060200C6
 10
0
 20
0
 30
0
  0
INSERT
  8
LAYER_6
  2
AIGNBL060200C7
 10
0
 20
0
 30
0
  0
INSERT
  8
LAYER_6
  2
AIGNBL060200C8
 10
0
 20
0
 30
0
  0
INSERT
  8
LAYER_6
  2
AIGNBL060200C9
 10
0
 20
0
 30
0
  0
INSERT
  8
LAYER_6
  2
AIGNBL060200CA
 10
0
 20
0
 30
0
  0
INSERT
  8
LAYER_6
  2
AIGNBL060200CB
 10
0
 20
0
 30
0
  0
INSERT
  8
LAYER_6
  2
AIGNBL060200CC
 10
0
 20
0
 30
0
  0
INSERT
  8
LAYER_6
  2
AIGNBL060200CD
 10
0
 20
0
 30
0
  0
INSERT
  8
LAYER_6
  2
AIGNBL060200CE
 10
0
 20
0
 30
0
  0
INSERT
  8
LAYER_6
  2
AIGNBL060200CF
 10
0
 20
0
 30
0
  0
INSERT
  8
LAYER_6
  2
AIGNBL060200D0
 10
0
 20
0
 30
0
  0
INSERT
  8
LAYER_6
  2
AIGNBL060200D1
 10
0
 20
0
 30
0
  0
INSERT
  8
LAYER_6
  2
AIGNBL060200D2
 10
0
 20
0
 30
0
  0
INSERT
  8
LAYER_6
  2
AIGNBL060200D3
 10
0
 20
0
 30
0
  0
INSERT
  8
LAYER_6
  2
AIGNBL060200D4
 10
0
 20
0
 30
0
  0
INSERT
  8
LAYER_6
  2
AIGNBL060200D5
 10
0
 20
0
 30
0
  0
INSERT
  8
LAYER_6
  2
AIGNBL060200D6
 10
0
 20
0
 30
0
  0
INSERT
  8
LAYER_6
  2
AIGNBL060200D7
 10
0
 20
0
 30
0
  0
INSERT
  8
LAYER_6
  2
AIGNBL060200D8
 10
0
 20
0
 30
0
  0
INSERT
  8
LAYER_6
  2
AIGNBL060200D9
 10
0
 20
0
 30
0
  0
INSERT
  8
LAYER_6
  2
AIGNBL060200DA
 10
0
 20
0
 30
0
  0
INSERT
  8
LAYER_6
  2
AIGNBL060200DB
 10
0
 20
0
 30
0
  0
INSERT
  8
LAYER_6
  2
AIGNBL060200DC
 10
0
 20
0
 30
0
  0
INSERT
  8
LAYER_6
  2
AIGNBL060200DD
 10
0
 20
0
 30
0
  0
INSERT
  8
LAYER_6
  2
AIGNBL060200DE
 10
0
 20
0
 30
0
  0
INSERT
  8
LAYER_6
  2
AIGNBL060200DF
 10
0
 20
0
 30
0
  0
INSERT
  8
LAYER_6
  2
AIGNBL060200E0
 10
0
 20
0
 30
0
  0
INSERT
  8
LAYER_6
  2
AIGNBL060200E1
 10
0
 20
0
 30
0
  0
INSERT
  8
LAYER_6
  2
AIGNBL060200E2
 10
0
 20
0
 30
0
  0
INSERT
  8
LAYER_6
  2
AIGNBL060200E3
 10
0
 20
0
 30
0
  0
INSERT
  8
LAYER_6
  2
AIGNBL060200E4
 10
0
 20
0
 30
0
  0
INSERT
  8
LAYER_6
  2
AIGNBL060200E5
 10
0
 20
0
 30
0
  0
INSERT
  8
LAYER_6
  2
AIGNBL060200E6
 10
0
 20
0
 30
0
  0
INSERT
  8
LAYER_6
  2
AIGNBL060200E7
 10
0
 20
0
 30
0
  0
INSERT
  8
LAYER_6
  2
AIGNBL060200E8
 10
0
 20
0
 30
0
  0
INSERT
  8
LAYER_6
  2
AIGNBL060200E9
 10
0
 20
0
 30
0
  0
INSERT
  8
LAYER_6
  2
AIGNBL060200EA
 10
0
 20
0
 30
0
  0
INSERT
  8
LAYER_6
  2
AIGNBL060200EB
 10
0
 20
0
 30
0
  0
INSERT
  8
LAYER_6
  2
AIGNBL060200EC
 10
0
 20
0
 30
0
  0
INSERT
  8
LAYER_6
  2
AIGNBL060200ED
 10
0
 20
0
 30
0
  0
INSERT
  8
LAYER_6
  2
AIGNBL060200EE
 10
0
 20
0
 30
0
  0
INSERT
  8
LAYER_6
  2
AIGNBL060200EF
 10
0
 20
0
 30
0
  0
INSERT
  8
LAYER_6
  2
AIGNBL060200F0
 10
0
 20
0
 30
0
  0
INSERT
  8
LAYER_6
  2
AIGNBL060200F1
 10
0
 20
0
 30
0
  0
INSERT
  8
LAYER_6
  2
AIGNBL060200F2
 10
0
 20
0
 30
0
  0
INSERT
  8
LAYER_6
  2
AIGNBL060200F3
 10
0
 20
0
 30
0
  0
INSERT
  8
LAYER_6
  2
AIGNBL060200F4
 10
0
 20
0
 30
0
  0
INSERT
  8
LAYER_6
  2
AIGNBL060200F5
 10
0
 20
0
 30
0
  0
INSERT
  8
LAYER_6
  2
AIGNBL060200F6
 10
0
 20
0
 30
0
  0
INSERT
  8
LAYER_6
  2
AIGNBL060200F7
 10
0
 20
0
 30
0
  0
INSERT
  8
LAYER_6
  2
AIGNBL060200F8
 10
0
 20
0
 30
0
  0
INSERT
  8
LAYER_6
  2
AIGNBL060200F9
 10
0
 20
0
 30
0
  0
INSERT
  8
LAYER_6
  2
AIGNBL060200FA
 10
0
 20
0
 30
0
  0
INSERT
  8
LAYER_6
  2
AIGNBL060200FB
 10
0
 20
0
 30
0
  0
INSERT
  8
LAYER_6
  2
AIGNBL060200FC
 10
0
 20
0
 30
0
  0
INSERT
  8
LAYER_6
  2
AIGNBL060200FD
 10
0
 20
0
 30
0
  0
INSERT
  8
LAYER_6
  2
AIGNBL060200FE
 10
0
 20
0
 30
0
  0
INSERT
  8
LAYER_6
  2
AIGNBL060200FF
 10
0
 20
0
 30
0
  0
INSERT
  8
LAYER_6
  2
AIGNBL06020100
 10
0
 20
0
 30
0
  0
INSERT
  8
LAYER_6
  2
AIGNBL06020101
 10
0
 20
0
 30
0
  0
INSERT
  8
LAYER_6
  2
AIGNBL06020102
 10
0
 20
0
 30
0
  0
INSERT
  8
LAYER_6
  2
AIGNBL06020103
 10
0
 20
0
 30
0
  0
INSERT
  8
LAYER_6
  2
AIGNBL06020104
 10
0
 20
0
 30
0
  0
INSERT
  8
LAYER_6
  2
AIGNBL06020105
 10
0
 20
0
 30
0
  0
INSERT
  8
LAYER_6
  2
AIGNBL06020106
 10
0
 20
0
 30
0
  0
INSERT
  8
LAYER_6
  2
AIGNBL06020107
 10
0
 20
0
 30
0
  0
INSERT
  8
LAYER_6
  2
AIGNBL06020108
 10
0
 20
0
 30
0
  0
INSERT
  8
LAYER_6
  2
AIGNBL06020109
 10
0
 20
0
 30
0
  0
INSERT
  8
LAYER_6
  2
AIGNBL0602010A
 10
0
 20
0
 30
0
  0
INSERT
  8
LAYER_6
  2
AIGNBL0602010B
 10
0
 20
0
 30
0
  0
INSERT
  8
LAYER_6
  2
AIGNBL0602010C
 10
0
 20
0
 30
0
  0
INSERT
  8
LAYER_6
  2
AIGNBL0602010D
 10
0
 20
0
 30
0
  0
INSERT
  8
LAYER_6
  2
AIGNBL0602010E
 10
0
 20
0
 30
0
  0
INSERT
  8
LAYER_6
  2
AIGNBL0602010F
 10
0
 20
0
 30
0
  0
INSERT
  8
LAYER_6
  2
AIGNBL06020110
 10
0
 20
0
 30
0
  0
INSERT
  8
LAYER_6
  2
AIGNBL06020111
 10
0
 20
0
 30
0
  0
INSERT
  8
LAYER_6
  2
AIGNBL06020112
 10
0
 20
0
 30
0
  0
INSERT
  8
LAYER_6
  2
AIGNBL06020113
 10
0
 20
0
 30
0
  0
INSERT
  8
LAYER_6
  2
AIGNBL06020114
 10
0
 20
0
 30
0
  0
INSERT
  8
LAYER_6
  2
AIGNBL06020115
 10
0
 20
0
 30
0
  0
INSERT
  8
LAYER_6
  2
AIGNBL06020116
 10
0
 20
0
 30
0
  0
INSERT
  8
LAYER_6
  2
AIGNBL06020117
 10
0
 20
0
 30
0
  0
INSERT
  8
LAYER_6
  2
AIGNBL06020118
 10
0
 20
0
 30
0
  0
INSERT
  8
LAYER_6
  2
AIGNBL06020119
 10
0
 20
0
 30
0
  0
INSERT
  8
LAYER_6
  2
AIGNBL0602011A
 10
0
 20
0
 30
0
  0
INSERT
  8
LAYER_6
  2
AIGNBL0602011B
 10
0
 20
0
 30
0
  0
INSERT
  8
LAYER_6
  2
AIGNBL0602011C
 10
0
 20
0
 30
0
  0
INSERT
  8
LAYER_6
  2
AIGNBL0602011D
 10
0
 20
0
 30
0
  0
INSERT
  8
LAYER_6
  2
AIGNBL0602011E
 10
0
 20
0
 30
0
  0
INSERT
  8
LAYER_6
  2
AIGNBL0602011F
 10
0
 20
0
 30
0
  0
INSERT
  8
LAYER_6
  2
AIGNBL06020120
 10
0
 20
0
 30
0
  0
INSERT
  8
LAYER_6
  2
AIGNBL06020121
 10
0
 20
0
 30
0
  0
INSERT
  8
LAYER_6
  2
AIGNBL06020122
 10
0
 20
0
 30
0
  0
INSERT
  8
LAYER_6
  2
AIGNBL06020123
 10
0
 20
0
 30
0
  0
INSERT
  8
LAYER_6
  2
AIGNBL06020124
 10
0
 20
0
 30
0
  0
INSERT
  8
LAYER_6
  2
AIGNBL06020125
 10
0
 20
0
 30
0
  0
INSERT
  8
LAYER_6
  2
AIGNBL06020126
 10
0
 20
0
 30
0
  0
INSERT
  8
LAYER_6
  2
AIGNBL06020127
 10
0
 20
0
 30
0
  0
INSERT
  8
LAYER_6
  2
AIGNBL06020128
 10
0
 20
0
 30
0
  0
INSERT
  8
LAYER_6
  2
AIGNBL06020129
 10
0
 20
0
 30
0
  0
INSERT
  8
LAYER_6
  2
AIGNBL0602012A
 10
0
 20
0
 30
0
  0
INSERT
  8
LAYER_6
  2
AIGNBL0602012B
 10
0
 20
0
 30
0
  0
INSERT
  8
LAYER_6
  2
AIGNBL0602012C
 10
0
 20
0
 30
0
  0
INSERT
  8
LAYER_6
  2
AIGNBL0602012D
 10
0
 20
0
 30
0
  0
INSERT
  8
LAYER_6
  2
AIGNBL0602012E
 10
0
 20
0
 30
0
  0
INSERT
  8
LAYER_6
  2
AIGNBL0602012F
 10
0
 20
0
 30
0
  0
INSERT
  8
LAYER_6
  2
AIGNBL06020130
 10
0
 20
0
 30
0
  0
INSERT
  8
LAYER_6
  2
AIGNBL06020131
 10
0
 20
0
 30
0
  0
INSERT
  8
LAYER_6
  2
AIGNBL06020132
 10
0
 20
0
 30
0
  0
INSERT
  8
LAYER_6
  2
AIGNBL06020133
 10
0
 20
0
 30
0
  0
INSERT
  8
LAYER_6
  2
AIGNBL06020134
 10
0
 20
0
 30
0
  0
INSERT
  8
LAYER_6
  2
AIGNBL06020135
 10
0
 20
0
 30
0
  0
INSERT
  8
LAYER_6
  2
AIGNBL06020136
 10
0
 20
0
 30
0
  0
INSERT
  8
LAYER_6
  2
AIGNBL06020137
 10
0
 20
0
 30
0
  0
INSERT
  8
LAYER_6
  2
AIGNBL06020138
 10
0
 20
0
 30
0
  0
INSERT
  8
LAYER_6
  2
AIGNBL06020139
 10
0
 20
0
 30
0
  0
INSERT
  8
LAYER_6
  2
AIGNBL0602013A
 10
0
 20
0
 30
0
  0
INSERT
  8
LAYER_6
  2
AIGNBL0602013B
 10
0
 20
0
 30
0
  0
ENDBLK
  0
ENDSEC
  0
SECTION
  2
ENTITIES
  0
INSERT
  8
LAYER_1
  2
AIGNBL01010002
 10
0
 20
0
 30
0
  0
INSERT
  8
LAYER_6
  2
AIGNBL06010002
 10
0
 20
0
 30
0
  0
POLYLINE
  8
LAYER_6
 40
0.3528
 41
0.3528
 66
1
 10
0
 20
0
 30
0
  0
VERTEX
  8
LAYER_6
 10
34.7876
 20
-258.3332
  0
VERTEX
  8
LAYER_6
 10
229.7955
 20
-258.3332
  0
VERTEX
  8
LAYER_6
 10
229.7955
 20
21.6583
  0
VERTEX
  8
LAYER_6
 10
34.7876
 20
21.6583
  0
VERTEX
  8
LAYER_6
 10
34.7876
 20
-258.3332
  0
SEQEND
  0
TEXT
  8
LAYER_6
 10
166.4505
 20
-248.7955
 11
166.4505
 21
-248.7955
 40
3.3853
 41
0.5
  1
●TEL 0120-65-1232●FAX 06-6532-1580
  0
TEXT
  8
LAYER_6
 10
166.4505
 20
-252.3102
 11
166.4505
 21
-252.3102
 40
3.3853
 41
0.5
  1
hits@hiratatile.co.jp
  0
TEXT
  8
LAYER_6
 10
218.9756
 20
18.4461
 11
218.9756
 21
18.4461
 40
2.0732
 41
0.5
  1
190703RT
  0
TEXT
  8
LAYER_6
 10
37.8495
 20
-250.3797
 11
37.8495
 21
-250.3797
 40
3.2995
 41
0.5
  1
仕様
  0
POLYLINE
  8
LAYER_6
 40
0.3528
 41
0.3528
 66
1
 10
0
 20
0
 30
0
  0
VERTEX
  8
LAYER_6
 10
229.7955
 20
-241.6001
  0
VERTEX
  8
LAYER_6
 10
34.7874
 20
-241.6001
  0
SEQEND
  0
POLYLINE
  8
LAYER_6
 40
0.3528
 41
0.3528
 66
1
 10
0
 20
0
 30
0
  0
VERTEX
  8
LAYER_6
 10
229.7955
 20
-233.091
  0
VERTEX
  8
LAYER_6
 10
34.7874
 20
-233.091
  0
SEQEND
  0
TEXT
  8
LAYER_6
 10
35.9444
 20
-235.5675
 11
35.9444
 21
-235.5675
 40
2.1997
 41
0.5
  1
品名
  0
TEXT
  8
LAYER_6
 10
48.8795
 20
-238.6599
 11
48.8795
 21
-238.6599
 40
3.6373
 41
0.5
  1
単水栓
  0
TEXT
  8
LAYER_6
 10
48.4217
 20
-250.3883
 11
48.4217
 21
-250.3883
 40
3.1177
 41
0.5
  1
●排水金具別途
  0
TEXT
  8
LAYER_6
 10
137.7434
 20
-235.5677
 11
137.7434
 21
-235.5677
 40
2.1997
 41
0.5
  1
品番
  0
TEXT
  8
LAYER_6
 10
143.7654
 20
-240.0443
 11
143.7654
 21
-240.0443
 40
5.9385
 41
0.5
  1
AQ-LFK612(X)-187(S・BK)
  0
POLYLINE
  8
LAYER_6
 40
0.1058
 41
0.1058
 66
1
 10
0
 20
0
 30
0
  0
VERTEX
  8
LAYER_6
 10
209.1478
 20
-7.0425
  0
VERTEX
  8
LAYER_6
 10
208.148
 20
-7.045
  0
SEQEND
  0
INSERT
  8
LAYER_6
  2
AIGNBL06010003
 10
0
 20
0
 30
0
  0
ENDSEC
  0
EOF
