  0
SECTION
  2
HEADER
  9
$ACADVER
  1
AC1009
  9
$LUNITS
 70
2
  9
$LUPREC
 70
4
  9
$LTSCALE
 40
1.0
  9
$EXTMIN
 10
16.0764
 20
-7.7766
 30
0
  9
$EXTMAX
 10
206.0763
 20
269.2235
 30
0
  0
ENDSEC
  0
SECTION
  2
TABLES
  0
TABLE
  2
LTYPE
 70
256
  0
ENDTAB
  0
TABLE
  2
LAYER
 70
7
  0
LAYER
  2
LAYER_1
 70
64
 62
7
  6
CONTINUOUS
  0
LAYER
  2
LAYER_2
 70
64
 62
7
  6
CONTINUOUS
  0
LAYER
  2
LAYER_3
 70
64
 62
7
  6
CONTINUOUS
  0
LAYER
  2
LAYER_4
 70
64
 62
7
  6
CONTINUOUS
  0
LAYER
  2
LAYER_5
 70
64
 62
7
  6
CONTINUOUS
  0
LAYER
  2
LAYER_6
 70
64
 62
7
  6
CONTINUOUS
  0
LAYER
  2
LAYER_7
 70
64
 62
7
  6
CONTINUOUS
  0
ENDTAB
  0
TABLE
  2
STYLE
 70
6
  0
STYLE
  2
STANDARD
 70
0
 40
0
 50
0
 71
0
 41
0
 42
0
  3
TXT
  4
BIGFONT
  0
ENDTAB
  0
ENDSEC
  0
SECTION
  2
BLOCKS
  0
BLOCK
  8
LAYER_7
  2
AIGNBL07040006
 70
64
 10
0
 20
0
 30
0
  3
AIGNBL07040006
  0
POLYLINE
  8
LAYER_7
 40
0.05
 41
0.05
 66
1
 10
0
 20
0
 30
0
 70
1
  0
VERTEX
  8
LAYER_7
 10
129.5759
 20
-1.9017
  0
VERTEX
  8
LAYER_7
 10
129.1615
 20
-2.9063
  0
VERTEX
  8
LAYER_7
 10
128.6292
 20
-2.9063
  0
VERTEX
  8
LAYER_7
 10
129.9848
 20
0.2856
  0
VERTEX
  8
LAYER_7
 10
130.6063
 20
0.2856
  0
VERTEX
  8
LAYER_7
 10
131.9682
 20
-2.9063
  0
VERTEX
  8
LAYER_7
 10
131.417
 20
-2.9063
  0
VERTEX
  8
LAYER_7
 10
130.9908
 20
-1.9017
  0
SEQEND
  0
POLYLINE
  8
LAYER_7
 40
0.05
 41
0.05
 66
1
 10
0
 20
0
 30
0
 70
1
  0
VERTEX
  8
LAYER_7
 10
130.8843
 20
-1.5806
  0
VERTEX
  8
LAYER_7
 10
130.4937
 20
-0.6611
  0
VERTEX
  8
LAYER_7
 10
130.2863
 20
-0.0789
  0
VERTEX
  8
LAYER_7
 10
130.2746
 20
-0.0789
  0
VERTEX
  8
LAYER_7
 10
130.073
 20
-0.6573
  0
VERTEX
  8
LAYER_7
 10
129.6827
 20
-1.5806
  0
SEQEND
  0
ENDBLK
  0
BLOCK
  8
LAYER_7
  2
AIGNBL07040007
 70
64
 10
0
 20
0
 30
0
  3
AIGNBL07040007
  0
POLYLINE
  8
LAYER_7
 40
0.05
 41
0.05
 66
1
 10
0
 20
0
 30
0
 70
1
  0
VERTEX
  8
LAYER_7
 10
135.6682
 20
-3.3752
 42
-0.01590442139
  0
VERTEX
  8
LAYER_7
 10
134.1406
 20
-3.0055
  0
VERTEX
  8
LAYER_7
 10
133.8978
 20
-2.9586
 42
-0.09413929591
  0
VERTEX
  8
LAYER_7
 10
133.0892
 20
-2.7867
 42
-0.1068219955
  0
VERTEX
  8
LAYER_7
 10
132.5221
 20
-2.3895
 42
-0.1913088984
  0
VERTEX
  8
LAYER_7
 10
132.1397
 20
-1.3439
 42
-0.1037337018
  0
VERTEX
  8
LAYER_7
 10
132.2786
 20
-0.6495
 42
-0.2229654776
  0
VERTEX
  8
LAYER_7
 10
133.3175
 20
0.2396
 42
-0.07415788599
  0
VERTEX
  8
LAYER_7
 10
133.9987
 20
0.3376
 42
-0.09141547712
  0
VERTEX
  8
LAYER_7
 10
134.7756
 20
0.2029
 42
-0.2208357411
  0
VERTEX
  8
LAYER_7
 10
135.7019
 20
-0.7397
 42
-0.07993307355
  0
VERTEX
  8
LAYER_7
 10
135.7864
 20
-1.2774
 42
-0.1063866822
  0
VERTEX
  8
LAYER_7
 10
135.6435
 20
-1.9875
 42
-0.2277750027
  0
VERTEX
  8
LAYER_7
 10
134.6498
 20
-2.8071
  0
VERTEX
  8
LAYER_7
 10
134.6498
 20
-2.826
  0
VERTEX
  8
LAYER_7
 10
135.8163
 20
-3.0296
  0
SEQEND
  0
POLYLINE
  8
LAYER_7
 40
0.05
 41
0.05
 66
1
 10
0
 20
0
 30
0
 70
1
  0
VERTEX
  8
LAYER_7
 10
135.242
 20
-1.2957
 42
0.1155159286
  0
VERTEX
  8
LAYER_7
 10
135.0943
 20
-0.6577
 42
0.2893632681
  0
VERTEX
  8
LAYER_7
 10
133.9804
 20
0.0014
 42
0.1181347236
  0
VERTEX
  8
LAYER_7
 10
133.3513
 20
-0.1381
 42
0.130394181
  0
VERTEX
  8
LAYER_7
 10
132.9142
 20
-0.5289
 42
0.1498939419
  0
VERTEX
  8
LAYER_7
 10
132.6903
 20
-1.3336
 42
0.1187923829
  0
VERTEX
  8
LAYER_7
 10
132.8324
 20
-1.9598
 42
0.2872436897
  0
VERTEX
  8
LAYER_7
 10
133.957
 20
-2.6228
 42
0.1213423942
  0
VERTEX
  8
LAYER_7
 10
134.5918
 20
-2.4769
 42
0.1309340911
  0
VERTEX
  8
LAYER_7
 10
135.0283
 20
-2.0753
 42
0.1440639306
  0
SEQEND
  0
ENDBLK
  0
BLOCK
  8
LAYER_7
  2
AIGNBL07040008
 70
64
 10
0
 20
0
 30
0
  3
AIGNBL07040008
  0
POLYLINE
  8
LAYER_7
 40
0.05
 41
0.05
 66
1
 10
0
 20
0
 30
0
 70
1
  0
VERTEX
  8
LAYER_7
 10
136.9115
 20
0.2856
  0
VERTEX
  8
LAYER_7
 10
136.9115
 20
-1.604
 42
0.1245662292
  0
VERTEX
  8
LAYER_7
 10
137.0415
 20
-2.2002
 42
0.1608226014
  0
VERTEX
  8
LAYER_7
 10
137.3893
 20
-2.5306
 42
0.1085933755
  0
VERTEX
  8
LAYER_7
 10
137.841
 20
-2.6228
 42
0.1363071186
  0
VERTEX
  8
LAYER_7
 10
138.4083
 20
-2.4865
 42
0.1572655498
  0
VERTEX
  8
LAYER_7
 10
138.716
 20
-2.1307
 42
0.1010048886
  0
VERTEX
  8
LAYER_7
 10
138.8118
 20
-1.604
  0
VERTEX
  8
LAYER_7
 10
138.8118
 20
0.2856
  0
VERTEX
  8
LAYER_7
 10
139.3328
 20
0.2856
  0
VERTEX
  8
LAYER_7
 10
139.3328
 20
-1.5758
 42
-0.1114113393
  0
VERTEX
  8
LAYER_7
 10
139.1968
 20
-2.2537
 42
-0.1324547527
  0
VERTEX
  8
LAYER_7
 10
138.8235
 20
-2.6942
 42
-0.1131342628
  0
VERTEX
  8
LAYER_7
 10
138.1922
 20
-2.9314
 42
-0.04549211769
  0
VERTEX
  8
LAYER_7
 10
137.8231
 20
-2.9586
 42
-0.1002764947
  0
VERTEX
  8
LAYER_7
 10
137.0985
 20
-2.8291
 42
-0.2729567785
  0
VERTEX
  8
LAYER_7
 10
136.4121
 20
-1.8973
 42
-0.04477569465
  0
VERTEX
  8
LAYER_7
 10
136.3906
 20
-1.5944
  0
VERTEX
  8
LAYER_7
 10
136.3906
 20
0.2856
  0
SEQEND
  0
ENDBLK
  0
BLOCK
  8
LAYER_7
  2
AIGNBL07040009
 70
64
 10
0
 20
0
 30
0
  3
AIGNBL07040009
  0
POLYLINE
  8
LAYER_7
 40
0.05
 41
0.05
 66
1
 10
0
 20
0
 30
0
 70
1
  0
VERTEX
  8
LAYER_7
 10
140.8131
 20
-1.9017
  0
VERTEX
  8
LAYER_7
 10
140.3983
 20
-2.9063
  0
VERTEX
  8
LAYER_7
 10
139.866
 20
-2.9063
  0
VERTEX
  8
LAYER_7
 10
141.2217
 20
0.2856
  0
VERTEX
  8
LAYER_7
 10
141.8428
 20
0.2856
  0
VERTEX
  8
LAYER_7
 10
143.2047
 20
-2.9063
  0
VERTEX
  8
LAYER_7
 10
142.6542
 20
-2.9063
  0
VERTEX
  8
LAYER_7
 10
142.228
 20
-1.9017
  0
SEQEND
  0
POLYLINE
  8
LAYER_7
 40
0.05
 41
0.05
 66
1
 10
0
 20
0
 30
0
 70
1
  0
VERTEX
  8
LAYER_7
 10
142.1212
 20
-1.5806
  0
VERTEX
  8
LAYER_7
 10
141.7302
 20
-0.6611
  0
VERTEX
  8
LAYER_7
 10
141.5228
 20
-0.0789
  0
VERTEX
  8
LAYER_7
 10
141.5111
 20
-0.0789
  0
VERTEX
  8
LAYER_7
 10
141.3099
 20
-0.6573
  0
VERTEX
  8
LAYER_7
 10
140.9192
 20
-1.5806
  0
SEQEND
  0
ENDBLK
  0
BLOCK
  8
LAYER_7
  2
AIGNBL0704000A
 70
64
 10
0
 20
0
 30
0
  3
AIGNBL0704000A
  0
POLYLINE
  8
LAYER_7
 40
0.05
 41
0.05
 66
1
 10
0
 20
0
 30
0
 70
1
  0
VERTEX
  8
LAYER_7
 10
144.0866
 20
0.2477
 42
-0.03224903245
  0
VERTEX
  8
LAYER_7
 10
145.0757
 20
0.3097
 42
-0.09041197006
  0
VERTEX
  8
LAYER_7
 10
145.9402
 20
0.1785
 42
-0.04994368477
  0
VERTEX
  8
LAYER_7
 10
146.1944
 20
0.0444
 42
-0.2487132909
  0
VERTEX
  8
LAYER_7
 10
146.5433
 20
-0.6236
 42
-0.2272146381
  0
VERTEX
  8
LAYER_7
 10
146.2357
 20
-1.3053
 42
-0.1170283825
  0
VERTEX
  8
LAYER_7
 10
145.6436
 20
-1.5863
 42
-0.05742943746
  0
VERTEX
  8
LAYER_7
 10
145.0161
 20
-1.6561
  0
VERTEX
  8
LAYER_7
 10
144.602
 20
-1.6275
  0
VERTEX
  8
LAYER_7
 10
144.602
 20
-2.9063
  0
VERTEX
  8
LAYER_7
 10
144.0866
 20
-2.9063
  0
SEQEND
  0
POLYLINE
  8
LAYER_7
 40
0.05
 41
0.05
 66
1
 10
0
 20
0
 30
0
 70
1
  0
VERTEX
  8
LAYER_7
 10
144.602
 20
-1.2912
 42
0.04008411413
  0
VERTEX
  8
LAYER_7
 10
145.0278
 20
-1.3246
 42
0.1145518016
  0
VERTEX
  8
LAYER_7
 10
145.6752
 20
-1.1988
 42
0.2903179778
  0
VERTEX
  8
LAYER_7
 10
146.029
 20
-0.6425
 42
0.1914957055
  0
VERTEX
  8
LAYER_7
 10
145.8927
 20
-0.2718
 42
0.1589955053
  0
VERTEX
  8
LAYER_7
 10
145.4418
 20
-0.0491
 42
0.06415510501
  0
VERTEX
  8
LAYER_7
 10
145.0878
 20
-0.0176
 42
0.06838414011
  0
VERTEX
  8
LAYER_7
 10
144.602
 20
-0.0506
  0
SEQEND
  0
ENDBLK
  0
BLOCK
  8
LAYER_7
  2
AIGNBL0704000B
 70
64
 10
0
 20
0
 30
0
  3
AIGNBL0704000B
  0
POLYLINE
  8
LAYER_7
 40
0.05
 41
0.05
 66
1
 10
0
 20
0
 30
0
 70
1
  0
VERTEX
  8
LAYER_7
 10
147.859
 20
0.03
 42
-0.2988654244
  0
VERTEX
  8
LAYER_7
 10
147.7179
 20
-0.186
 42
-0.1045089306
  0
VERTEX
  8
LAYER_7
 10
147.5269
 20
-0.226
 42
-0.3827056298
  0
VERTEX
  8
LAYER_7
 10
147.2131
 20
0.03
 42
-0.2852467472
  0
VERTEX
  8
LAYER_7
 10
147.3622
 20
0.2515
 42
-0.1078871437
  0
VERTEX
  8
LAYER_7
 10
147.5386
 20
0.2901
 42
-0.2463889277
  0
VERTEX
  8
LAYER_7
 10
147.8188
 20
0.1635
 42
-0.1466000164
  0
SEQEND
  0
POLYLINE
  8
LAYER_7
 40
0.05
 41
0.05
 66
1
 10
0
 20
0
 30
0
 70
1
  0
VERTEX
  8
LAYER_7
 10
147.2778
 20
-2.9063
  0
VERTEX
  8
LAYER_7
 10
147.2778
 20
-0.6143
  0
VERTEX
  8
LAYER_7
 10
147.7987
 20
-0.6143
  0
VERTEX
  8
LAYER_7
 10
147.7987
 20
-2.9063
  0
SEQEND
  0
ENDBLK
  0
BLOCK
  8
LAYER_7
  2
AIGNBL0704000C
 70
64
 10
0
 20
0
 30
0
  3
AIGNBL0704000C
  0
POLYLINE
  8
LAYER_7
 40
0.05
 41
0.05
 66
1
 10
0
 20
0
 30
0
 70
1
  0
VERTEX
  8
LAYER_7
 10
149.3852
 20
-1.9017
  0
VERTEX
  8
LAYER_7
 10
148.9715
 20
-2.9063
  0
VERTEX
  8
LAYER_7
 10
148.4381
 20
-2.9063
  0
VERTEX
  8
LAYER_7
 10
149.7941
 20
0.2856
  0
VERTEX
  8
LAYER_7
 10
150.416
 20
0.2856
  0
VERTEX
  8
LAYER_7
 10
151.7778
 20
-2.9063
  0
VERTEX
  8
LAYER_7
 10
151.2269
 20
-2.9063
  0
VERTEX
  8
LAYER_7
 10
150.8008
 20
-1.9017
  0
SEQEND
  0
POLYLINE
  8
LAYER_7
 40
0.05
 41
0.05
 66
1
 10
0
 20
0
 30
0
 70
1
  0
VERTEX
  8
LAYER_7
 10
150.694
 20
-1.5806
  0
VERTEX
  8
LAYER_7
 10
150.3033
 20
-0.6611
  0
VERTEX
  8
LAYER_7
 10
150.0966
 20
-0.0789
  0
VERTEX
  8
LAYER_7
 10
150.0842
 20
-0.0789
  0
VERTEX
  8
LAYER_7
 10
149.883
 20
-0.6573
  0
VERTEX
  8
LAYER_7
 10
149.4923
 20
-1.5806
  0
SEQEND
  0
ENDBLK
  0
BLOCK
  8
LAYER_7
  2
AIGNBL07030005
 70
64
 10
0
 20
0
 30
0
  3
AIGNBL07030005
  0
INSERT
  8
LAYER_7
  2
AIGNBL07040006
 10
0
 20
0
 30
0
  0
INSERT
  8
LAYER_7
  2
AIGNBL07040007
 10
0
 20
0
 30
0
  0
INSERT
  8
LAYER_7
  2
AIGNBL07040008
 10
0
 20
0
 30
0
  0
INSERT
  8
LAYER_7
  2
AIGNBL07040009
 10
0
 20
0
 30
0
  0
INSERT
  8
LAYER_7
  2
AIGNBL0704000A
 10
0
 20
0
 30
0
  0
INSERT
  8
LAYER_7
  2
AIGNBL0704000B
 10
0
 20
0
 30
0
  0
INSERT
  8
LAYER_7
  2
AIGNBL0704000C
 10
0
 20
0
 30
0
  0
ENDBLK
  0
BLOCK
  8
LAYER_7
  2
AIGNBL0703000E
 70
64
 10
0
 20
0
 30
0
  3
AIGNBL0703000E
  0
POLYLINE
  8
LAYER_7
 40
0.05
 41
0.05
 66
1
 10
0
 20
0
 30
0
 70
1
  0
VERTEX
  8
LAYER_7
 10
128.7222
 20
-4.5162
  0
VERTEX
  8
LAYER_7
 10
129.1914
 20
-4.5162
  0
VERTEX
  8
LAYER_7
 10
129.1914
 20
-4.5957
  0
VERTEX
  8
LAYER_7
 10
128.6333
 20
-4.5957
  0
VERTEX
  8
LAYER_7
 10
128.6333
 20
-3.72
  0
VERTEX
  8
LAYER_7
 10
129.1762
 20
-3.72
  0
VERTEX
  8
LAYER_7
 10
129.1762
 20
-3.7989
  0
VERTEX
  8
LAYER_7
 10
128.7222
 20
-3.7989
  0
VERTEX
  8
LAYER_7
 10
128.7222
 20
-4.0993
  0
VERTEX
  8
LAYER_7
 10
129.1467
 20
-4.0993
  0
VERTEX
  8
LAYER_7
 10
129.1467
 20
-4.1785
  0
VERTEX
  8
LAYER_7
 10
128.7222
 20
-4.1785
  0
SEQEND
  0
ENDBLK
  0
BLOCK
  8
LAYER_7
  2
AIGNBL0703000F
 70
64
 10
0
 20
0
 30
0
  3
AIGNBL0703000F
  0
POLYLINE
  8
LAYER_7
 40
0.05
 41
0.05
 66
1
 10
0
 20
0
 30
0
 70
1
  0
VERTEX
  8
LAYER_7
 10
130.1574
 20
-4.4655
  0
VERTEX
  8
LAYER_7
 10
130.1595
 20
-4.4655
  0
VERTEX
  8
LAYER_7
 10
130.1595
 20
-3.72
  0
VERTEX
  8
LAYER_7
 10
130.2487
 20
-3.72
  0
VERTEX
  8
LAYER_7
 10
130.2487
 20
-4.5957
  0
VERTEX
  8
LAYER_7
 10
130.1378
 20
-4.5957
  0
VERTEX
  8
LAYER_7
 10
129.6283
 20
-3.8423
  0
VERTEX
  8
LAYER_7
 10
129.6252
 20
-3.8423
  0
VERTEX
  8
LAYER_7
 10
129.6252
 20
-4.5957
  0
VERTEX
  8
LAYER_7
 10
129.5366
 20
-4.5957
  0
VERTEX
  8
LAYER_7
 10
129.5366
 20
-3.72
  0
VERTEX
  8
LAYER_7
 10
129.6476
 20
-3.72
  0
SEQEND
  0
ENDBLK
  0
BLOCK
  8
LAYER_7
  2
AIGNBL07030010
 70
64
 10
0
 20
0
 30
0
  3
AIGNBL07030010
  0
POLYLINE
  8
LAYER_7
 40
0.05
 41
0.05
 66
1
 10
0
 20
0
 30
0
 70
1
  0
VERTEX
  8
LAYER_7
 10
130.6497
 20
-4.4159
  0
VERTEX
  8
LAYER_7
 10
130.6959
 20
-4.5034
 42
0.1764403825
  0
VERTEX
  8
LAYER_7
 10
130.7917
 20
-4.5386
  0
VERTEX
  8
LAYER_7
 10
130.8675
 20
-4.522
  0
VERTEX
  8
LAYER_7
 10
130.915
 20
-4.4769
  0
VERTEX
  8
LAYER_7
 10
130.9395
 20
-4.4118
  0
VERTEX
  8
LAYER_7
 10
130.9467
 20
-4.336
  0
VERTEX
  8
LAYER_7
 10
130.9467
 20
-3.72
  0
VERTEX
  8
LAYER_7
 10
131.0356
 20
-3.72
  0
VERTEX
  8
LAYER_7
 10
131.0356
 20
-4.3432
  0
VERTEX
  8
LAYER_7
 10
131.0259
 20
-4.4345
  0
VERTEX
  8
LAYER_7
 10
130.9908
 20
-4.5237
  0
VERTEX
  8
LAYER_7
 10
130.9191
 20
-4.5913
  0
VERTEX
  8
LAYER_7
 10
130.8013
 20
-4.6178
 42
-0.1867451878
  0
VERTEX
  8
LAYER_7
 10
130.6449
 20
-4.5668
 42
-0.1769176705
  0
VERTEX
  8
LAYER_7
 10
130.5667
 20
-4.4387
  0
SEQEND
  0
ENDBLK
  0
BLOCK
  8
LAYER_7
  2
AIGNBL07030011
 70
64
 10
0
 20
0
 30
0
  3
AIGNBL07030011
  0
POLYLINE
  8
LAYER_7
 40
0.05
 41
0.05
 66
1
 10
0
 20
0
 30
0
 70
1
  0
VERTEX
  8
LAYER_7
 10
132.2972
 20
-4.1576
  0
VERTEX
  8
LAYER_7
 10
132.2624
 20
-4.3418
  0
VERTEX
  8
LAYER_7
 10
132.167
 20
-4.4872
  0
VERTEX
  8
LAYER_7
 10
132.0219
 20
-4.583
  0
VERTEX
  8
LAYER_7
 10
131.8407
 20
-4.6178
  0
VERTEX
  8
LAYER_7
 10
131.6595
 20
-4.583
  0
VERTEX
  8
LAYER_7
 10
131.5148
 20
-4.4872
  0
VERTEX
  8
LAYER_7
 10
131.4187
 20
-4.3418
  0
VERTEX
  8
LAYER_7
 10
131.3842
 20
-4.1576
  0
VERTEX
  8
LAYER_7
 10
131.4187
 20
-3.9732
  0
VERTEX
  8
LAYER_7
 10
131.5148
 20
-3.8279
  0
VERTEX
  8
LAYER_7
 10
131.6595
 20
-3.7321
  0
VERTEX
  8
LAYER_7
 10
131.8407
 20
-3.6973
  0
VERTEX
  8
LAYER_7
 10
132.0219
 20
-3.7321
  0
VERTEX
  8
LAYER_7
 10
132.167
 20
-3.8279
  0
VERTEX
  8
LAYER_7
 10
132.2624
 20
-3.9732
  0
SEQEND
  0
POLYLINE
  8
LAYER_7
 40
0.05
 41
0.05
 66
1
 10
0
 20
0
 30
0
 70
1
  0
VERTEX
  8
LAYER_7
 10
132.2031
 20
-4.1582
  0
VERTEX
  8
LAYER_7
 10
132.1787
 20
-4.0125
  0
VERTEX
  8
LAYER_7
 10
132.1067
 20
-3.8909
  0
VERTEX
  8
LAYER_7
 10
131.9923
 20
-3.8078
  0
VERTEX
  8
LAYER_7
 10
131.8407
 20
-3.7765
  0
VERTEX
  8
LAYER_7
 10
131.6891
 20
-3.8078
  0
VERTEX
  8
LAYER_7
 10
131.5751
 20
-3.8909
  0
VERTEX
  8
LAYER_7
 10
131.5031
 20
-4.0125
  0
VERTEX
  8
LAYER_7
 10
131.4783
 20
-4.1582
  0
VERTEX
  8
LAYER_7
 10
131.5031
 20
-4.304
  0
VERTEX
  8
LAYER_7
 10
131.5751
 20
-4.4252
  0
VERTEX
  8
LAYER_7
 10
131.6891
 20
-4.5075
  0
VERTEX
  8
LAYER_7
 10
131.8407
 20
-4.5386
  0
VERTEX
  8
LAYER_7
 10
131.9923
 20
-4.5075
  0
VERTEX
  8
LAYER_7
 10
132.1067
 20
-4.4252
  0
VERTEX
  8
LAYER_7
 10
132.1787
 20
-4.304
  0
SEQEND
  0
ENDBLK
  0
BLOCK
  8
LAYER_7
  2
AIGNBL07030012
 70
64
 10
0
 20
0
 30
0
  3
AIGNBL07030012
  0
POLYLINE
  8
LAYER_7
 40
0.05
 41
0.05
 66
1
 10
0
 20
0
 30
0
 70
1
  0
VERTEX
  8
LAYER_7
 10
132.9538
 20
-4.5957
  0
VERTEX
  8
LAYER_7
 10
132.8649
 20
-4.5957
  0
VERTEX
  8
LAYER_7
 10
132.8649
 20
-4.2182
  0
VERTEX
  8
LAYER_7
 10
132.5373
 20
-3.72
  0
VERTEX
  8
LAYER_7
 10
132.6486
 20
-3.72
  0
VERTEX
  8
LAYER_7
 10
132.9121
 20
-4.1438
  0
VERTEX
  8
LAYER_7
 10
133.1777
 20
-3.72
  0
VERTEX
  8
LAYER_7
 10
133.2815
 20
-3.72
  0
VERTEX
  8
LAYER_7
 10
132.9538
 20
-4.2182
  0
SEQEND
  0
ENDBLK
  0
BLOCK
  8
LAYER_7
  2
AIGNBL07030013
 70
64
 10
0
 20
0
 30
0
  3
AIGNBL07030013
  0
POLYLINE
  8
LAYER_7
 40
0.05
 41
0.05
 66
1
 10
0
 20
0
 30
0
 70
1
  0
VERTEX
  8
LAYER_7
 10
134.0487
 20
-3.72
  0
VERTEX
  8
LAYER_7
 10
134.3094
 20
-3.72
  0
VERTEX
  8
LAYER_7
 10
134.4097
 20
-3.7303
  0
VERTEX
  8
LAYER_7
 10
134.5003
 20
-3.7662
  0
VERTEX
  8
LAYER_7
 10
134.5664
 20
-3.8351
  0
VERTEX
  8
LAYER_7
 10
134.5916
 20
-3.9436
 42
-0.1782454861
  0
VERTEX
  8
LAYER_7
 10
134.5492
 20
-4.0642
 42
-0.1596818957
  0
VERTEX
  8
LAYER_7
 10
134.4362
 20
-4.1317
  0
VERTEX
  8
LAYER_7
 10
134.4362
 20
-4.1338
 42
-0.1731234976
  0
VERTEX
  8
LAYER_7
 10
134.5775
 20
-4.2003
 42
-0.1887742098
  0
VERTEX
  8
LAYER_7
 10
134.6336
 20
-4.3532
  0
VERTEX
  8
LAYER_7
 10
134.6105
 20
-4.4524
  0
VERTEX
  8
LAYER_7
 10
134.5458
 20
-4.5293
  0
VERTEX
  8
LAYER_7
 10
134.4435
 20
-4.5782
  0
VERTEX
  8
LAYER_7
 10
134.3081
 20
-4.5957
  0
VERTEX
  8
LAYER_7
 10
134.0487
 20
-4.5957
  0
SEQEND
  0
POLYLINE
  8
LAYER_7
 40
0.05
 41
0.05
 66
1
 10
0
 20
0
 30
0
 70
1
  0
VERTEX
  8
LAYER_7
 10
134.1375
 20
-4.1031
  0
VERTEX
  8
LAYER_7
 10
134.317
 20
-4.1031
  0
VERTEX
  8
LAYER_7
 10
134.3822
 20
-4.0955
  0
VERTEX
  8
LAYER_7
 10
134.4417
 20
-4.0707
  0
VERTEX
  8
LAYER_7
 10
134.4858
 20
-4.0228
  0
VERTEX
  8
LAYER_7
 10
134.5024
 20
-3.9498
  0
VERTEX
  8
LAYER_7
 10
134.4858
 20
-3.8788
  0
VERTEX
  8
LAYER_7
 10
134.4407
 20
-3.831
  0
VERTEX
  8
LAYER_7
 10
134.3739
 20
-3.8044
  0
VERTEX
  8
LAYER_7
 10
134.2922
 20
-3.7965
  0
VERTEX
  8
LAYER_7
 10
134.1375
 20
-3.7965
  0
SEQEND
  0
POLYLINE
  8
LAYER_7
 40
0.05
 41
0.05
 66
1
 10
0
 20
0
 30
0
 70
1
  0
VERTEX
  8
LAYER_7
 10
134.1375
 20
-4.5189
  0
VERTEX
  8
LAYER_7
 10
134.3036
 20
-4.5189
  0
VERTEX
  8
LAYER_7
 10
134.3956
 20
-4.5093
  0
VERTEX
  8
LAYER_7
 10
134.4724
 20
-4.48
  0
VERTEX
  8
LAYER_7
 10
134.5244
 20
-4.4266
  0
VERTEX
  8
LAYER_7
 10
134.5444
 20
-4.3481
 42
0.2573427114
  0
VERTEX
  8
LAYER_7
 10
134.4858
 20
-4.2189
 42
0.1341930545
  0
VERTEX
  8
LAYER_7
 10
134.3194
 20
-4.1761
  0
VERTEX
  8
LAYER_7
 10
134.1375
 20
-4.1761
  0
SEQEND
  0
ENDBLK
  0
BLOCK
  8
LAYER_7
  2
AIGNBL07030014
 70
64
 10
0
 20
0
 30
0
  3
AIGNBL07030014
  0
POLYLINE
  8
LAYER_7
 40
0.05
 41
0.05
 66
1
 10
0
 20
0
 30
0
 70
1
  0
VERTEX
  8
LAYER_7
 10
134.9999
 20
-4.5957
  0
VERTEX
  8
LAYER_7
 10
134.902
 20
-4.5957
  0
VERTEX
  8
LAYER_7
 10
135.2806
 20
-3.72
  0
VERTEX
  8
LAYER_7
 10
135.3675
 20
-3.72
  0
VERTEX
  8
LAYER_7
 10
135.7433
 20
-4.5957
  0
VERTEX
  8
LAYER_7
 10
135.6441
 20
-4.5957
  0
VERTEX
  8
LAYER_7
 10
135.5476
 20
-4.3656
  0
VERTEX
  8
LAYER_7
 10
135.0949
 20
-4.3656
  0
SEQEND
  0
POLYLINE
  8
LAYER_7
 40
0.05
 41
0.05
 66
1
 10
0
 20
0
 30
0
 70
1
  0
VERTEX
  8
LAYER_7
 10
135.128
 20
-4.2836
  0
VERTEX
  8
LAYER_7
 10
135.5142
 20
-4.2836
  0
VERTEX
  8
LAYER_7
 10
135.3213
 20
-3.8185
  0
SEQEND
  0
ENDBLK
  0
BLOCK
  8
LAYER_7
  2
AIGNBL07030015
 70
64
 10
0
 20
0
 30
0
  3
AIGNBL07030015
  0
POLYLINE
  8
LAYER_7
 40
0.05
 41
0.05
 66
1
 10
0
 20
0
 30
0
 70
1
  0
VERTEX
  8
LAYER_7
 10
136.3235
 20
-4.5957
  0
VERTEX
  8
LAYER_7
 10
136.2342
 20
-4.5957
  0
VERTEX
  8
LAYER_7
 10
136.2342
 20
-3.7989
  0
VERTEX
  8
LAYER_7
 10
135.9407
 20
-3.7989
  0
VERTEX
  8
LAYER_7
 10
135.9407
 20
-3.72
  0
VERTEX
  8
LAYER_7
 10
136.6163
 20
-3.72
  0
VERTEX
  8
LAYER_7
 10
136.6163
 20
-3.7989
  0
VERTEX
  8
LAYER_7
 10
136.3235
 20
-3.7989
  0
SEQEND
  0
ENDBLK
  0
BLOCK
  8
LAYER_7
  2
AIGNBL07030016
 70
64
 10
0
 20
0
 30
0
  3
AIGNBL07030016
  0
POLYLINE
  8
LAYER_7
 40
0.05
 41
0.05
 66
1
 10
0
 20
0
 30
0
 70
1
  0
VERTEX
  8
LAYER_7
 10
136.9181
 20
-3.72
  0
VERTEX
  8
LAYER_7
 10
137.007
 20
-3.72
  0
VERTEX
  8
LAYER_7
 10
137.007
 20
-4.0993
  0
VERTEX
  8
LAYER_7
 10
137.4848
 20
-4.0993
  0
VERTEX
  8
LAYER_7
 10
137.4848
 20
-3.72
  0
VERTEX
  8
LAYER_7
 10
137.5737
 20
-3.72
  0
VERTEX
  8
LAYER_7
 10
137.5737
 20
-4.5957
  0
VERTEX
  8
LAYER_7
 10
137.4848
 20
-4.5957
  0
VERTEX
  8
LAYER_7
 10
137.4848
 20
-4.181
  0
VERTEX
  8
LAYER_7
 10
137.007
 20
-4.181
  0
VERTEX
  8
LAYER_7
 10
137.007
 20
-4.5957
  0
VERTEX
  8
LAYER_7
 10
136.9181
 20
-4.5957
  0
SEQEND
  0
ENDBLK
  0
BLOCK
  8
LAYER_7
  2
AIGNBL07030017
 70
64
 10
0
 20
0
 30
0
  3
AIGNBL07030017
  0
POLYLINE
  8
LAYER_7
 40
0.05
 41
0.05
 66
1
 10
0
 20
0
 30
0
 70
1
  0
VERTEX
  8
LAYER_7
 10
138.0656
 20
-4.5957
  0
VERTEX
  8
LAYER_7
 10
137.9767
 20
-4.5957
  0
VERTEX
  8
LAYER_7
 10
137.9767
 20
-3.72
  0
VERTEX
  8
LAYER_7
 10
138.2341
 20
-3.72
  0
VERTEX
  8
LAYER_7
 10
138.3533
 20
-3.7321
  0
VERTEX
  8
LAYER_7
 10
138.4487
 20
-3.7724
  0
VERTEX
  8
LAYER_7
 10
138.5111
 20
-3.8447
  0
VERTEX
  8
LAYER_7
 10
138.5331
 20
-3.9536
  0
VERTEX
  8
LAYER_7
 10
138.5163
 20
-4.0415
  0
VERTEX
  8
LAYER_7
 10
138.4694
 20
-4.11
  0
VERTEX
  8
LAYER_7
 10
138.3988
 20
-4.1565
  0
VERTEX
  8
LAYER_7
 10
138.3096
 20
-4.1785
  0
VERTEX
  8
LAYER_7
 10
138.5655
 20
-4.5957
  0
VERTEX
  8
LAYER_7
 10
138.4567
 20
-4.5957
  0
VERTEX
  8
LAYER_7
 10
138.2145
 20
-4.1861
  0
VERTEX
  8
LAYER_7
 10
138.0656
 20
-4.1861
  0
SEQEND
  0
POLYLINE
  8
LAYER_7
 40
0.05
 41
0.05
 66
1
 10
0
 20
0
 30
0
 70
1
  0
VERTEX
  8
LAYER_7
 10
138.0656
 20
-4.1093
  0
VERTEX
  8
LAYER_7
 10
138.2207
 20
-4.1093
 42
0.1680930757
  0
VERTEX
  8
LAYER_7
 10
138.3864
 20
-4.0707
 42
0.2475915739
  0
VERTEX
  8
LAYER_7
 10
138.4446
 20
-3.9536
  0
VERTEX
  8
LAYER_7
 10
138.4281
 20
-3.8809
  0
VERTEX
  8
LAYER_7
 10
138.3836
 20
-3.8323
  0
VERTEX
  8
LAYER_7
 10
138.3147
 20
-3.8051
  0
VERTEX
  8
LAYER_7
 10
138.2245
 20
-3.7965
  0
VERTEX
  8
LAYER_7
 10
138.0656
 20
-3.7965
  0
SEQEND
  0
ENDBLK
  0
BLOCK
  8
LAYER_7
  2
AIGNBL07030018
 70
64
 10
0
 20
0
 30
0
  3
AIGNBL07030018
  0
POLYLINE
  8
LAYER_7
 40
0.05
 41
0.05
 66
1
 10
0
 20
0
 30
0
 70
1
  0
VERTEX
  8
LAYER_7
 10
139.7541
 20
-4.1576
  0
VERTEX
  8
LAYER_7
 10
139.7196
 20
-4.3418
  0
VERTEX
  8
LAYER_7
 10
139.6235
 20
-4.4872
  0
VERTEX
  8
LAYER_7
 10
139.4792
 20
-4.583
  0
VERTEX
  8
LAYER_7
 10
139.2976
 20
-4.6178
  0
VERTEX
  8
LAYER_7
 10
139.1164
 20
-4.583
  0
VERTEX
  8
LAYER_7
 10
138.972
 20
-4.4872
  0
VERTEX
  8
LAYER_7
 10
138.8763
 20
-4.3418
  0
VERTEX
  8
LAYER_7
 10
138.8418
 20
-4.1576
  0
VERTEX
  8
LAYER_7
 10
138.8763
 20
-3.9732
  0
VERTEX
  8
LAYER_7
 10
138.972
 20
-3.8279
  0
VERTEX
  8
LAYER_7
 10
139.1164
 20
-3.7321
  0
VERTEX
  8
LAYER_7
 10
139.2976
 20
-3.6973
  0
VERTEX
  8
LAYER_7
 10
139.4792
 20
-3.7321
  0
VERTEX
  8
LAYER_7
 10
139.6235
 20
-3.8279
  0
VERTEX
  8
LAYER_7
 10
139.7196
 20
-3.9732
  0
SEQEND
  0
POLYLINE
  8
LAYER_7
 40
0.05
 41
0.05
 66
1
 10
0
 20
0
 30
0
 70
1
  0
VERTEX
  8
LAYER_7
 10
139.66
 20
-4.1582
  0
VERTEX
  8
LAYER_7
 10
139.6352
 20
-4.0125
  0
VERTEX
  8
LAYER_7
 10
139.5636
 20
-3.8909
  0
VERTEX
  8
LAYER_7
 10
139.4492
 20
-3.8078
  0
VERTEX
  8
LAYER_7
 10
139.2976
 20
-3.7765
  0
VERTEX
  8
LAYER_7
 10
139.1464
 20
-3.8078
  0
VERTEX
  8
LAYER_7
 10
139.0317
 20
-3.8909
  0
VERTEX
  8
LAYER_7
 10
138.96
 20
-4.0125
  0
VERTEX
  8
LAYER_7
 10
138.9355
 20
-4.1582
  0
VERTEX
  8
LAYER_7
 10
138.96
 20
-4.304
  0
VERTEX
  8
LAYER_7
 10
139.0317
 20
-4.4252
  0
VERTEX
  8
LAYER_7
 10
139.1464
 20
-4.5075
  0
VERTEX
  8
LAYER_7
 10
139.2976
 20
-4.5386
  0
VERTEX
  8
LAYER_7
 10
139.4492
 20
-4.5075
  0
VERTEX
  8
LAYER_7
 10
139.5636
 20
-4.4252
  0
VERTEX
  8
LAYER_7
 10
139.6352
 20
-4.304
  0
SEQEND
  0
ENDBLK
  0
BLOCK
  8
LAYER_7
  2
AIGNBL07030019
 70
64
 10
0
 20
0
 30
0
  3
AIGNBL07030019
  0
POLYLINE
  8
LAYER_7
 40
0.05
 41
0.05
 66
1
 10
0
 20
0
 30
0
 70
1
  0
VERTEX
  8
LAYER_7
 10
140.9764
 20
-4.1576
  0
VERTEX
  8
LAYER_7
 10
140.9416
 20
-4.3418
  0
VERTEX
  8
LAYER_7
 10
140.8462
 20
-4.4872
  0
VERTEX
  8
LAYER_7
 10
140.7011
 20
-4.583
  0
VERTEX
  8
LAYER_7
 10
140.5199
 20
-4.6178
  0
VERTEX
  8
LAYER_7
 10
140.3387
 20
-4.583
  0
VERTEX
  8
LAYER_7
 10
140.194
 20
-4.4872
  0
VERTEX
  8
LAYER_7
 10
140.0979
 20
-4.3418
  0
VERTEX
  8
LAYER_7
 10
140.0635
 20
-4.1576
  0
VERTEX
  8
LAYER_7
 10
140.0979
 20
-3.9732
  0
VERTEX
  8
LAYER_7
 10
140.194
 20
-3.8279
  0
VERTEX
  8
LAYER_7
 10
140.3387
 20
-3.7321
  0
VERTEX
  8
LAYER_7
 10
140.5199
 20
-3.6973
  0
VERTEX
  8
LAYER_7
 10
140.7011
 20
-3.7321
  0
VERTEX
  8
LAYER_7
 10
140.8462
 20
-3.8279
  0
VERTEX
  8
LAYER_7
 10
140.9416
 20
-3.9732
  0
SEQEND
  0
POLYLINE
  8
LAYER_7
 40
0.05
 41
0.05
 66
1
 10
0
 20
0
 30
0
 70
1
  0
VERTEX
  8
LAYER_7
 10
140.8824
 20
-4.1582
  0
VERTEX
  8
LAYER_7
 10
140.8576
 20
-4.0125
  0
VERTEX
  8
LAYER_7
 10
140.7859
 20
-3.8909
  0
VERTEX
  8
LAYER_7
 10
140.6715
 20
-3.8078
  0
VERTEX
  8
LAYER_7
 10
140.5199
 20
-3.7765
  0
VERTEX
  8
LAYER_7
 10
140.3683
 20
-3.8078
  0
VERTEX
  8
LAYER_7
 10
140.254
 20
-3.8909
  0
VERTEX
  8
LAYER_7
 10
140.1823
 20
-4.0125
  0
VERTEX
  8
LAYER_7
 10
140.1575
 20
-4.1582
  0
VERTEX
  8
LAYER_7
 10
140.1823
 20
-4.304
  0
VERTEX
  8
LAYER_7
 10
140.254
 20
-4.4252
  0
VERTEX
  8
LAYER_7
 10
140.3683
 20
-4.5075
  0
VERTEX
  8
LAYER_7
 10
140.5199
 20
-4.5386
  0
VERTEX
  8
LAYER_7
 10
140.6715
 20
-4.5075
  0
VERTEX
  8
LAYER_7
 10
140.7859
 20
-4.4252
  0
VERTEX
  8
LAYER_7
 10
140.8576
 20
-4.304
  0
SEQEND
  0
ENDBLK
  0
BLOCK
  8
LAYER_7
  2
AIGNBL0703001A
 70
64
 10
0
 20
0
 30
0
  3
AIGNBL0703001A
  0
POLYLINE
  8
LAYER_7
 40
0.05
 41
0.05
 66
1
 10
0
 20
0
 30
0
 70
1
  0
VERTEX
  8
LAYER_7
 10
141.7653
 20
-4.4445
  0
VERTEX
  8
LAYER_7
 10
141.7667
 20
-4.4445
  0
VERTEX
  8
LAYER_7
 10
142.0596
 20
-3.72
  0
VERTEX
  8
LAYER_7
 10
142.196
 20
-3.72
  0
VERTEX
  8
LAYER_7
 10
142.196
 20
-4.5957
  0
VERTEX
  8
LAYER_7
 10
142.1068
 20
-4.5957
  0
VERTEX
  8
LAYER_7
 10
142.1068
 20
-3.8351
  0
VERTEX
  8
LAYER_7
 10
142.1043
 20
-3.8351
  0
VERTEX
  8
LAYER_7
 10
141.7877
 20
-4.5957
  0
VERTEX
  8
LAYER_7
 10
141.7409
 20
-4.5957
  0
VERTEX
  8
LAYER_7
 10
141.4239
 20
-3.8351
  0
VERTEX
  8
LAYER_7
 10
141.4215
 20
-3.8351
  0
VERTEX
  8
LAYER_7
 10
141.4215
 20
-4.5957
  0
VERTEX
  8
LAYER_7
 10
141.3326
 20
-4.5957
  0
VERTEX
  8
LAYER_7
 10
141.3326
 20
-3.72
  0
VERTEX
  8
LAYER_7
 10
141.4687
 20
-3.72
  0
SEQEND
  0
ENDBLK
  0
BLOCK
  8
LAYER_7
  2
AIGNBL0703001B
 70
64
 10
0
 20
0
 30
0
  3
AIGNBL0703001B
  0
POLYLINE
  8
LAYER_7
 40
0.05
 41
0.05
 66
1
 10
0
 20
0
 30
0
 70
1
  0
VERTEX
  8
LAYER_7
 10
143.1678
 20
-4.5162
  0
VERTEX
  8
LAYER_7
 10
143.6367
 20
-4.5162
  0
VERTEX
  8
LAYER_7
 10
143.6367
 20
-4.5957
  0
VERTEX
  8
LAYER_7
 10
143.0786
 20
-4.5957
  0
VERTEX
  8
LAYER_7
 10
143.0786
 20
-3.72
  0
VERTEX
  8
LAYER_7
 10
143.6219
 20
-3.72
  0
VERTEX
  8
LAYER_7
 10
143.6219
 20
-3.7989
  0
VERTEX
  8
LAYER_7
 10
143.1678
 20
-3.7989
  0
VERTEX
  8
LAYER_7
 10
143.1678
 20
-4.0993
  0
VERTEX
  8
LAYER_7
 10
143.5919
 20
-4.0993
  0
VERTEX
  8
LAYER_7
 10
143.5919
 20
-4.1785
  0
VERTEX
  8
LAYER_7
 10
143.1678
 20
-4.1785
  0
SEQEND
  0
ENDBLK
  0
BLOCK
  8
LAYER_7
  2
AIGNBL0703001C
 70
64
 10
0
 20
0
 30
0
  3
AIGNBL0703001C
  0
POLYLINE
  8
LAYER_7
 40
0.05
 41
0.05
 66
1
 10
0
 20
0
 30
0
 70
1
  0
VERTEX
  8
LAYER_7
 10
144.2685
 20
-4.0735
  0
VERTEX
  8
LAYER_7
 10
144.5076
 20
-3.72
  0
VERTEX
  8
LAYER_7
 10
144.6134
 20
-3.72
  0
VERTEX
  8
LAYER_7
 10
144.3233
 20
-4.1365
  0
VERTEX
  8
LAYER_7
 10
144.6447
 20
-4.5957
  0
VERTEX
  8
LAYER_7
 10
144.5335
 20
-4.5957
  0
VERTEX
  8
LAYER_7
 10
144.2661
 20
-4.2009
  0
VERTEX
  8
LAYER_7
 10
144.0002
 20
-4.5957
  0
VERTEX
  8
LAYER_7
 10
143.8889
 20
-4.5957
  0
VERTEX
  8
LAYER_7
 10
144.2106
 20
-4.1355
  0
VERTEX
  8
LAYER_7
 10
143.9175
 20
-3.72
  0
VERTEX
  8
LAYER_7
 10
144.0288
 20
-3.72
  0
SEQEND
  0
ENDBLK
  0
BLOCK
  8
LAYER_7
  2
AIGNBL0703001D
 70
64
 10
0
 20
0
 30
0
  3
AIGNBL0703001D
  0
POLYLINE
  8
LAYER_7
 40
0.05
 41
0.05
 66
1
 10
0
 20
0
 30
0
 70
1
  0
VERTEX
  8
LAYER_7
 10
144.9552
 20
-3.72
  0
VERTEX
  8
LAYER_7
 10
145.2028
 20
-3.72
  0
VERTEX
  8
LAYER_7
 10
145.3241
 20
-3.7338
  0
VERTEX
  8
LAYER_7
 10
145.4171
 20
-3.7775
  0
VERTEX
  8
LAYER_7
 10
145.4774
 20
-3.8503
  0
VERTEX
  8
LAYER_7
 10
145.4981
 20
-3.9536
  0
VERTEX
  8
LAYER_7
 10
145.4767
 20
-4.0569
  0
VERTEX
  8
LAYER_7
 10
145.4161
 20
-4.13
  0
VERTEX
  8
LAYER_7
 10
145.322
 20
-4.1737
  0
VERTEX
  8
LAYER_7
 10
145.2001
 20
-4.1885
  0
VERTEX
  8
LAYER_7
 10
145.0444
 20
-4.1885
  0
VERTEX
  8
LAYER_7
 10
145.0444
 20
-4.5957
  0
VERTEX
  8
LAYER_7
 10
144.9552
 20
-4.5957
  0
SEQEND
  0
POLYLINE
  8
LAYER_7
 40
0.05
 41
0.05
 66
1
 10
0
 20
0
 30
0
 70
1
  0
VERTEX
  8
LAYER_7
 10
145.0444
 20
-4.1131
  0
VERTEX
  8
LAYER_7
 10
145.1949
 20
-4.1131
 42
0.1861162373
  0
VERTEX
  8
LAYER_7
 10
145.3548
 20
-4.0724
 42
0.2307474552
  0
VERTEX
  8
LAYER_7
 10
145.4092
 20
-3.9536
 42
0.2664837056
  0
VERTEX
  8
LAYER_7
 10
145.353
 20
-3.8341
 42
0.1218688638
  0
VERTEX
  8
LAYER_7
 10
145.1949
 20
-3.7965
  0
VERTEX
  8
LAYER_7
 10
145.0444
 20
-3.7965
  0
SEQEND
  0
ENDBLK
  0
BLOCK
  8
LAYER_7
  2
AIGNBL0703001E
 70
64
 10
0
 20
0
 30
0
  3
AIGNBL0703001E
  0
POLYLINE
  8
LAYER_7
 40
0.05
 41
0.05
 66
1
 10
0
 20
0
 30
0
 70
1
  0
VERTEX
  8
LAYER_7
 10
145.9322
 20
-4.5162
  0
VERTEX
  8
LAYER_7
 10
146.401
 20
-4.5162
  0
VERTEX
  8
LAYER_7
 10
146.401
 20
-4.5957
  0
VERTEX
  8
LAYER_7
 10
145.8433
 20
-4.5957
  0
VERTEX
  8
LAYER_7
 10
145.8433
 20
-3.72
  0
VERTEX
  8
LAYER_7
 10
146.3862
 20
-3.72
  0
VERTEX
  8
LAYER_7
 10
146.3862
 20
-3.7989
  0
VERTEX
  8
LAYER_7
 10
145.9322
 20
-3.7989
  0
VERTEX
  8
LAYER_7
 10
145.9322
 20
-4.0993
  0
VERTEX
  8
LAYER_7
 10
146.3566
 20
-4.0993
  0
VERTEX
  8
LAYER_7
 10
146.3566
 20
-4.1785
  0
VERTEX
  8
LAYER_7
 10
145.9322
 20
-4.1785
  0
SEQEND
  0
ENDBLK
  0
BLOCK
  8
LAYER_7
  2
AIGNBL0703001F
 70
64
 10
0
 20
0
 30
0
  3
AIGNBL0703001F
  0
POLYLINE
  8
LAYER_7
 40
0.05
 41
0.05
 66
1
 10
0
 20
0
 30
0
 70
1
  0
VERTEX
  8
LAYER_7
 10
146.8351
 20
-4.5957
  0
VERTEX
  8
LAYER_7
 10
146.7462
 20
-4.5957
  0
VERTEX
  8
LAYER_7
 10
146.7462
 20
-3.72
  0
VERTEX
  8
LAYER_7
 10
147.0036
 20
-3.72
  0
VERTEX
  8
LAYER_7
 10
147.1228
 20
-3.7321
  0
VERTEX
  8
LAYER_7
 10
147.2182
 20
-3.7724
  0
VERTEX
  8
LAYER_7
 10
147.2806
 20
-3.8447
  0
VERTEX
  8
LAYER_7
 10
147.3026
 20
-3.9536
  0
VERTEX
  8
LAYER_7
 10
147.2857
 20
-4.0415
  0
VERTEX
  8
LAYER_7
 10
147.2385
 20
-4.11
  0
VERTEX
  8
LAYER_7
 10
147.1679
 20
-4.1565
  0
VERTEX
  8
LAYER_7
 10
147.0791
 20
-4.1785
  0
VERTEX
  8
LAYER_7
 10
147.335
 20
-4.5957
  0
VERTEX
  8
LAYER_7
 10
147.2262
 20
-4.5957
  0
VERTEX
  8
LAYER_7
 10
146.9836
 20
-4.1861
  0
VERTEX
  8
LAYER_7
 10
146.8351
 20
-4.1861
  0
SEQEND
  0
POLYLINE
  8
LAYER_7
 40
0.05
 41
0.05
 66
1
 10
0
 20
0
 30
0
 70
1
  0
VERTEX
  8
LAYER_7
 10
146.8351
 20
-4.1093
  0
VERTEX
  8
LAYER_7
 10
146.9898
 20
-4.1093
 42
0.1697533841
  0
VERTEX
  8
LAYER_7
 10
147.1559
 20
-4.0707
 42
0.2467482694
  0
VERTEX
  8
LAYER_7
 10
147.2137
 20
-3.9536
  0
VERTEX
  8
LAYER_7
 10
147.1979
 20
-3.8809
  0
VERTEX
  8
LAYER_7
 10
147.1531
 20
-3.8323
  0
VERTEX
  8
LAYER_7
 10
147.0839
 20
-3.8051
  0
VERTEX
  8
LAYER_7
 10
146.9936
 20
-3.7965
  0
VERTEX
  8
LAYER_7
 10
146.8351
 20
-3.7965
  0
SEQEND
  0
ENDBLK
  0
BLOCK
  8
LAYER_7
  2
AIGNBL07030020
 70
64
 10
0
 20
0
 30
0
  3
AIGNBL07030020
  0
POLYLINE
  8
LAYER_7
 40
0.05
 41
0.05
 66
1
 10
0
 20
0
 30
0
 70
1
  0
VERTEX
  8
LAYER_7
 10
147.7467
 20
-4.5957
  0
VERTEX
  8
LAYER_7
 10
147.6582
 20
-4.5957
  0
VERTEX
  8
LAYER_7
 10
147.6582
 20
-3.72
  0
VERTEX
  8
LAYER_7
 10
147.7467
 20
-3.72
  0
SEQEND
  0
ENDBLK
  0
BLOCK
  8
LAYER_7
  2
AIGNBL07030021
 70
64
 10
0
 20
0
 30
0
  3
AIGNBL07030021
  0
POLYLINE
  8
LAYER_7
 40
0.05
 41
0.05
 66
1
 10
0
 20
0
 30
0
 70
1
  0
VERTEX
  8
LAYER_7
 10
148.239
 20
-4.5162
  0
VERTEX
  8
LAYER_7
 10
148.7079
 20
-4.5162
  0
VERTEX
  8
LAYER_7
 10
148.7079
 20
-4.5957
  0
VERTEX
  8
LAYER_7
 10
148.1501
 20
-4.5957
  0
VERTEX
  8
LAYER_7
 10
148.1501
 20
-3.72
  0
VERTEX
  8
LAYER_7
 10
148.6931
 20
-3.72
  0
VERTEX
  8
LAYER_7
 10
148.6931
 20
-3.7989
  0
VERTEX
  8
LAYER_7
 10
148.239
 20
-3.7989
  0
VERTEX
  8
LAYER_7
 10
148.239
 20
-4.0993
  0
VERTEX
  8
LAYER_7
 10
148.6634
 20
-4.0993
  0
VERTEX
  8
LAYER_7
 10
148.6634
 20
-4.1785
  0
VERTEX
  8
LAYER_7
 10
148.239
 20
-4.1785
  0
SEQEND
  0
ENDBLK
  0
BLOCK
  8
LAYER_7
  2
AIGNBL07030022
 70
64
 10
0
 20
0
 30
0
  3
AIGNBL07030022
  0
POLYLINE
  8
LAYER_7
 40
0.05
 41
0.05
 66
1
 10
0
 20
0
 30
0
 70
1
  0
VERTEX
  8
LAYER_7
 10
149.6739
 20
-4.4655
  0
VERTEX
  8
LAYER_7
 10
149.6763
 20
-4.4655
  0
VERTEX
  8
LAYER_7
 10
149.6763
 20
-3.72
  0
VERTEX
  8
LAYER_7
 10
149.7655
 20
-3.72
  0
VERTEX
  8
LAYER_7
 10
149.7655
 20
-4.5957
  0
VERTEX
  8
LAYER_7
 10
149.6543
 20
-4.5957
  0
VERTEX
  8
LAYER_7
 10
149.1447
 20
-3.8423
  0
VERTEX
  8
LAYER_7
 10
149.142
 20
-3.8423
  0
VERTEX
  8
LAYER_7
 10
149.142
 20
-4.5957
  0
VERTEX
  8
LAYER_7
 10
149.0531
 20
-4.5957
  0
VERTEX
  8
LAYER_7
 10
149.0531
 20
-3.72
  0
VERTEX
  8
LAYER_7
 10
149.1644
 20
-3.72
  0
SEQEND
  0
ENDBLK
  0
BLOCK
  8
LAYER_7
  2
AIGNBL07030023
 70
64
 10
0
 20
0
 30
0
  3
AIGNBL07030023
  0
POLYLINE
  8
LAYER_7
 40
0.05
 41
0.05
 66
1
 10
0
 20
0
 30
0
 70
1
  0
VERTEX
  8
LAYER_7
 10
150.9062
 20
-4.4535
  0
VERTEX
  8
LAYER_7
 10
150.8521
 20
-4.5165
  0
VERTEX
  8
LAYER_7
 10
150.7791
 20
-4.5689
  0
VERTEX
  8
LAYER_7
 10
150.6874
 20
-4.6047
  0
VERTEX
  8
LAYER_7
 10
150.5782
 20
-4.6178
  0
VERTEX
  8
LAYER_7
 10
150.3949
 20
-4.583
  0
VERTEX
  8
LAYER_7
 10
150.2506
 20
-4.4872
  0
VERTEX
  8
LAYER_7
 10
150.1559
 20
-4.3418
  0
VERTEX
  8
LAYER_7
 10
150.1218
 20
-4.1576
  0
VERTEX
  8
LAYER_7
 10
150.1565
 20
-3.9732
  0
VERTEX
  8
LAYER_7
 10
150.252
 20
-3.8279
  0
VERTEX
  8
LAYER_7
 10
150.3967
 20
-3.7321
  0
VERTEX
  8
LAYER_7
 10
150.5782
 20
-3.6973
  0
VERTEX
  8
LAYER_7
 10
150.6726
 20
-3.7076
  0
VERTEX
  8
LAYER_7
 10
150.7601
 20
-3.7358
  0
VERTEX
  8
LAYER_7
 10
150.8342
 20
-3.7796
  0
VERTEX
  8
LAYER_7
 10
150.89
 20
-3.8372
  0
VERTEX
  8
LAYER_7
 10
150.816
 20
-3.8919
  0
VERTEX
  8
LAYER_7
 10
150.7791
 20
-3.8495
  0
VERTEX
  8
LAYER_7
 10
150.7253
 20
-3.8123
  0
VERTEX
  8
LAYER_7
 10
150.6578
 20
-3.7865
  0
VERTEX
  8
LAYER_7
 10
150.5793
 20
-3.7765
  0
VERTEX
  8
LAYER_7
 10
150.4267
 20
-3.8075
  0
VERTEX
  8
LAYER_7
 10
150.3123
 20
-3.8905
  0
VERTEX
  8
LAYER_7
 10
150.2403
 20
-4.0121
  0
VERTEX
  8
LAYER_7
 10
150.2158
 20
-4.1576
  0
VERTEX
  8
LAYER_7
 10
150.2413
 20
-4.3029
  0
VERTEX
  8
LAYER_7
 10
150.3136
 20
-4.4245
  0
VERTEX
  8
LAYER_7
 10
150.428
 20
-4.5075
  0
VERTEX
  8
LAYER_7
 10
150.5793
 20
-4.5386
  0
VERTEX
  8
LAYER_7
 10
150.7226
 20
-4.5075
 42
0.1302205371
  0
VERTEX
  8
LAYER_7
 10
150.8366
 20
-4.4087
  0
SEQEND
  0
ENDBLK
  0
BLOCK
  8
LAYER_7
  2
AIGNBL07030024
 70
64
 10
0
 20
0
 30
0
  3
AIGNBL07030024
  0
POLYLINE
  8
LAYER_7
 40
0.05
 41
0.05
 66
1
 10
0
 20
0
 30
0
 70
1
  0
VERTEX
  8
LAYER_7
 10
151.3189
 20
-4.5162
  0
VERTEX
  8
LAYER_7
 10
151.7878
 20
-4.5162
  0
VERTEX
  8
LAYER_7
 10
151.7878
 20
-4.5957
  0
VERTEX
  8
LAYER_7
 10
151.23
 20
-4.5957
  0
VERTEX
  8
LAYER_7
 10
151.23
 20
-3.72
  0
VERTEX
  8
LAYER_7
 10
151.773
 20
-3.72
  0
VERTEX
  8
LAYER_7
 10
151.773
 20
-3.7989
  0
VERTEX
  8
LAYER_7
 10
151.3189
 20
-3.7989
  0
VERTEX
  8
LAYER_7
 10
151.3189
 20
-4.0993
  0
VERTEX
  8
LAYER_7
 10
151.7434
 20
-4.0993
  0
VERTEX
  8
LAYER_7
 10
151.7434
 20
-4.1785
  0
VERTEX
  8
LAYER_7
 10
151.3189
 20
-4.1785
  0
SEQEND
  0
ENDBLK
  0
BLOCK
  8
LAYER_7
  2
AIGNBL07020004
 70
64
 10
0
 20
0
 30
0
  3
AIGNBL07020004
  0
INSERT
  8
LAYER_7
  2
AIGNBL07030005
 10
0
 20
0
 30
0
  0
ENDBLK
  0
BLOCK
  8
LAYER_7
  2
AIGNBL0702000D
 70
64
 10
0
 20
0
 30
0
  3
AIGNBL0702000D
  0
INSERT
  8
LAYER_7
  2
AIGNBL0703000E
 10
0
 20
0
 30
0
  0
INSERT
  8
LAYER_7
  2
AIGNBL0703000F
 10
0
 20
0
 30
0
  0
INSERT
  8
LAYER_7
  2
AIGNBL07030010
 10
0
 20
0
 30
0
  0
INSERT
  8
LAYER_7
  2
AIGNBL07030011
 10
0
 20
0
 30
0
  0
INSERT
  8
LAYER_7
  2
AIGNBL07030012
 10
0
 20
0
 30
0
  0
INSERT
  8
LAYER_7
  2
AIGNBL07030013
 10
0
 20
0
 30
0
  0
INSERT
  8
LAYER_7
  2
AIGNBL07030014
 10
0
 20
0
 30
0
  0
INSERT
  8
LAYER_7
  2
AIGNBL07030015
 10
0
 20
0
 30
0
  0
INSERT
  8
LAYER_7
  2
AIGNBL07030016
 10
0
 20
0
 30
0
  0
INSERT
  8
LAYER_7
  2
AIGNBL07030017
 10
0
 20
0
 30
0
  0
INSERT
  8
LAYER_7
  2
AIGNBL07030018
 10
0
 20
0
 30
0
  0
INSERT
  8
LAYER_7
  2
AIGNBL07030019
 10
0
 20
0
 30
0
  0
INSERT
  8
LAYER_7
  2
AIGNBL0703001A
 10
0
 20
0
 30
0
  0
INSERT
  8
LAYER_7
  2
AIGNBL0703001B
 10
0
 20
0
 30
0
  0
INSERT
  8
LAYER_7
  2
AIGNBL0703001C
 10
0
 20
0
 30
0
  0
INSERT
  8
LAYER_7
  2
AIGNBL0703001D
 10
0
 20
0
 30
0
  0
INSERT
  8
LAYER_7
  2
AIGNBL0703001E
 10
0
 20
0
 30
0
  0
INSERT
  8
LAYER_7
  2
AIGNBL0703001F
 10
0
 20
0
 30
0
  0
INSERT
  8
LAYER_7
  2
AIGNBL07030020
 10
0
 20
0
 30
0
  0
INSERT
  8
LAYER_7
  2
AIGNBL07030021
 10
0
 20
0
 30
0
  0
INSERT
  8
LAYER_7
  2
AIGNBL07030022
 10
0
 20
0
 30
0
  0
INSERT
  8
LAYER_7
  2
AIGNBL07030023
 10
0
 20
0
 30
0
  0
INSERT
  8
LAYER_7
  2
AIGNBL07030024
 10
0
 20
0
 30
0
  0
ENDBLK
  0
BLOCK
  8
LAYER_7
  2
AIGNBL07010002
 70
64
 10
0
 20
0
 30
0
  3
AIGNBL07010002
  0
POLYLINE
  8
LAYER_7
 40
0.7056
 41
0.7056
 66
1
 10
0
 20
0
 30
0
 70
1
  0
VERTEX
  8
LAYER_7
 10
206.0763
 20
269.2235
  0
VERTEX
  8
LAYER_7
 10
206.0763
 20
-7.7766
  0
VERTEX
  8
LAYER_7
 10
16.0764
 20
-7.7766
  0
VERTEX
  8
LAYER_7
 10
16.0764
 20
269.2235
  0
SEQEND
  0
ENDBLK
  0
BLOCK
  8
LAYER_7
  2
AIGNBL07010003
 70
64
 10
0
 20
0
 30
0
  3
AIGNBL07010003
  0
INSERT
  8
LAYER_7
  2
AIGNBL07020004
 10
0
 20
0
 30
0
  0
INSERT
  8
LAYER_7
  2
AIGNBL0702000D
 10
0
 20
0
 30
0
  0
ENDBLK
  0
ENDSEC
  0
SECTION
  2
ENTITIES
  0
TEXT
  8
LAYER_1
 10
43.7168
 20
38.4902
 11
43.7168
 21
38.4902
 40
4.1445
 41
0.5
 50
89.99999999
  1
13
  0
TEXT
  8
LAYER_1
 10
37.1342
 20
90.856
 11
37.1342
 21
90.856
 40
4.1445
 41
0.5
 50
89.99999999
  1
330
  0
TEXT
  8
LAYER_1
 10
29.4081
 20
95.8508
 11
29.4081
 21
95.8508
 40
4.1445
 41
0.5
 50
89.99999999
  1
360
  0
TEXT
  8
LAYER_1
 10
37.1338
 20
152.2393
 11
37.1338
 21
152.2393
 40
4.1445
 41
0.5
 50
89.99999999
  1
30
  0
TEXT
  8
LAYER_1
 10
67.4455
 20
165.6172
 11
67.4455
 21
165.6172
 40
4.1445
 41
0.5
  1
PJ1/2
  0
TEXT
  8
LAYER_1
 10
51.3589
 20
85.2256
 11
51.3589
 21
85.2256
 40
3.6356
 41
0.5
 50
89.99999999
  1
給水管（固定側）
  0
TEXT
  8
LAYER_1
 10
70.1125
 20
34.6164
 11
70.1125
 21
34.6164
 40
4.1445
 41
0.5
  1
R1/2
  0
TEXT
  8
LAYER_1
 10
75.1927
 20
46.8923
 11
75.1927
 21
46.8923
 40
4.1445
 41
0.5
  1
%%c60
  0
TEXT
  8
LAYER_1
 10
120.6153
 20
227.2113
 11
120.6153
 21
227.2113
 40
4.1445
 41
0.5
 50
89.99999999
  1
30
  0
TEXT
  8
LAYER_1
 10
126.7051
 20
37.9818
 11
126.7051
 21
37.9818
 40
4.7366
 41
0.5
 50
89.99999999
  1
13
  0
TEXT
  8
LAYER_1
 10
120.6156
 20
128.3422
 11
120.6156
 21
128.3422
 40
4.1445
 41
0.5
 50
89.99999999
  1
555
  0
TEXT
  8
LAYER_1
 10
112.4662
 20
133.3376
 11
112.4662
 21
133.3376
 40
4.1445
 41
0.5
 50
89.99999999
  1
585
  0
TEXT
  8
LAYER_1
 10
133.7396
 20
153.5097
 11
133.7396
 21
153.5097
 40
3.6356
 41
0.5
 50
89.99999999
  1
給水管（可変側）
  0
TEXT
  8
LAYER_1
 10
134.7981
 20
88.2523
 11
134.7981
 21
88.2523
 40
3.6356
 41
0.5
 50
89.99999999
  1
給水管（固定側）
  0
TEXT
  8
LAYER_1
 10
150.207
 20
36.2039
 11
150.207
 21
36.2039
 40
4.1445
 41
0.5
  1
R1/2
  0
TEXT
  8
LAYER_1
 10
152.0488
 20
239.6368
 11
152.0488
 21
239.6368
 40
4.1445
 41
0.5
  1
PJ1/2
  0
TEXT
  8
LAYER_1
 10
157.4886
 20
48.6707
 11
157.4886
 21
48.6707
 40
4.1445
 41
0.5
  1
%%c60
  0
POLYLINE
  8
LAYER_1
 40
0.0212
 41
0.0212
 66
1
 10
0
 20
0
 30
0
  0
VERTEX
  8
LAYER_1
 10
57.2643
 20
39.8015
  0
VERTEX
  8
LAYER_1
 10
43.6753
 20
39.8015
  0
SEQEND
  0
POLYLINE
  8
LAYER_1
 40
0.0212
 41
0.0212
 66
1
 10
0
 20
0
 30
0
  0
VERTEX
  8
LAYER_1
 10
44.6701
 20
41.7277
  0
VERTEX
  8
LAYER_1
 10
44.141
 20
41.7277
  0
VERTEX
  8
LAYER_1
 10
44.6701
 20
39.8015
  0
VERTEX
  8
LAYER_1
 10
45.1781
 20
41.7277
  0
VERTEX
  8
LAYER_1
 10
44.6701
 20
41.7277
  0
SEQEND
  0
POLYLINE
  8
LAYER_1
 40
0.0212
 41
0.0212
 66
1
 10
0
 20
0
 30
0
  0
VERTEX
  8
LAYER_1
 10
44.6701
 20
39.8015
  0
VERTEX
  8
LAYER_1
 10
44.6701
 20
44.1407
  0
SEQEND
  0
POLYLINE
  8
LAYER_1
 40
0.0212
 41
0.0212
 66
1
 10
0
 20
0
 30
0
  0
VERTEX
  8
LAYER_1
 10
44.6701
 20
42.2145
  0
VERTEX
  8
LAYER_1
 10
45.1781
 20
42.2145
  0
VERTEX
  8
LAYER_1
 10
44.6701
 20
44.1407
  0
VERTEX
  8
LAYER_1
 10
44.141
 20
42.2145
  0
VERTEX
  8
LAYER_1
 10
44.6701
 20
42.2145
  0
SEQEND
  0
POLYLINE
  8
LAYER_1
 40
0.0212
 41
0.0212
 66
1
 10
0
 20
0
 30
0
  0
VERTEX
  8
LAYER_1
 10
43.6753
 20
44.1407
  0
VERTEX
  8
LAYER_1
 10
56.7775
 20
44.1407
  0
SEQEND
  0
POLYLINE
  8
LAYER_1
 40
0.0212
 41
0.0212
 66
1
 10
0
 20
0
 30
0
  0
VERTEX
  8
LAYER_1
 10
58.1533
 20
82.7275
  0
VERTEX
  8
LAYER_1
 10
52.5441
 20
88.5907
  0
SEQEND
  0
POLYLINE
  8
LAYER_1
 40
0.0212
 41
0.0212
 66
1
 10
0
 20
0
 30
0
  0
VERTEX
  8
LAYER_1
 10
57.2643
 20
39.8015
  0
VERTEX
  8
LAYER_1
 10
36.9231
 20
39.8015
  0
SEQEND
  0
POLYLINE
  8
LAYER_1
 40
0.0212
 41
0.0212
 66
1
 10
0
 20
0
 30
0
  0
VERTEX
  8
LAYER_1
 10
37.9391
 20
41.7277
  0
VERTEX
  8
LAYER_1
 10
37.41
 20
41.7277
  0
VERTEX
  8
LAYER_1
 10
37.9391
 20
39.8015
  0
VERTEX
  8
LAYER_1
 10
38.4471
 20
41.7277
  0
VERTEX
  8
LAYER_1
 10
37.9391
 20
41.7277
  0
SEQEND
  0
POLYLINE
  8
LAYER_1
 40
0.0212
 41
0.0212
 66
1
 10
0
 20
0
 30
0
  0
VERTEX
  8
LAYER_1
 10
37.9391
 20
39.8015
  0
VERTEX
  8
LAYER_1
 10
37.9391
 20
149.9105
  0
SEQEND
  0
POLYLINE
  8
LAYER_1
 40
0.0212
 41
0.0212
 66
1
 10
0
 20
0
 30
0
  0
VERTEX
  8
LAYER_1
 10
37.9391
 20
147.9632
  0
VERTEX
  8
LAYER_1
 10
38.4471
 20
147.9632
  0
VERTEX
  8
LAYER_1
 10
37.9391
 20
149.9105
  0
VERTEX
  8
LAYER_1
 10
37.41
 20
147.9632
  0
VERTEX
  8
LAYER_1
 10
37.9391
 20
147.9632
  0
SEQEND
  0
POLYLINE
  8
LAYER_1
 40
0.0212
 41
0.0212
 66
1
 10
0
 20
0
 30
0
  0
VERTEX
  8
LAYER_1
 10
36.9231
 20
149.9105
  0
VERTEX
  8
LAYER_1
 10
40.9871
 20
149.9105
  0
SEQEND
  0
POLYLINE
  8
LAYER_1
 40
0.0212
 41
0.0212
 66
1
 10
0
 20
0
 30
0
  0
VERTEX
  8
LAYER_1
 10
57.2643
 20
39.8015
  0
VERTEX
  8
LAYER_1
 10
29.1973
 20
39.8015
  0
SEQEND
  0
POLYLINE
  8
LAYER_1
 40
0.0212
 41
0.0212
 66
1
 10
0
 20
0
 30
0
  0
VERTEX
  8
LAYER_1
 10
30.1921
 20
41.7277
  0
VERTEX
  8
LAYER_1
 10
29.663
 20
41.7277
  0
VERTEX
  8
LAYER_1
 10
30.1921
 20
39.8015
  0
VERTEX
  8
LAYER_1
 10
30.7001
 20
41.7277
  0
VERTEX
  8
LAYER_1
 10
30.1921
 20
41.7277
  0
SEQEND
  0
POLYLINE
  8
LAYER_1
 40
0.0212
 41
0.0212
 66
1
 10
0
 20
0
 30
0
  0
VERTEX
  8
LAYER_1
 10
30.1921
 20
39.8015
  0
VERTEX
  8
LAYER_1
 10
30.1921
 20
159.9012
  0
SEQEND
  0
POLYLINE
  8
LAYER_1
 40
0.0212
 41
0.0212
 66
1
 10
0
 20
0
 30
0
  0
VERTEX
  8
LAYER_1
 10
30.1921
 20
157.975
  0
VERTEX
  8
LAYER_1
 10
30.7001
 20
157.975
  0
VERTEX
  8
LAYER_1
 10
30.1921
 20
159.9012
  0
VERTEX
  8
LAYER_1
 10
29.663
 20
157.975
  0
VERTEX
  8
LAYER_1
 10
30.1921
 20
157.975
  0
SEQEND
  0
POLYLINE
  8
LAYER_1
 40
0.0212
 41
0.0212
 66
1
 10
0
 20
0
 30
0
  0
VERTEX
  8
LAYER_1
 10
29.1973
 20
159.9012
  0
VERTEX
  8
LAYER_1
 10
57.0738
 20
159.9012
  0
SEQEND
  0
POLYLINE
  8
LAYER_1
 40
0.0212
 41
0.0212
 66
1
 10
0
 20
0
 30
0
  0
VERTEX
  8
LAYER_1
 10
40.9871
 20
149.9105
  0
VERTEX
  8
LAYER_1
 10
36.9231
 20
149.9105
  0
SEQEND
  0
POLYLINE
  8
LAYER_1
 40
0.0212
 41
0.0212
 66
1
 10
0
 20
0
 30
0
  0
VERTEX
  8
LAYER_1
 10
37.9391
 20
151.8367
  0
VERTEX
  8
LAYER_1
 10
37.41
 20
151.8367
  0
VERTEX
  8
LAYER_1
 10
37.9391
 20
149.9105
  0
VERTEX
  8
LAYER_1
 10
38.4471
 20
151.8367
  0
VERTEX
  8
LAYER_1
 10
37.9391
 20
151.8367
  0
SEQEND
  0
POLYLINE
  8
LAYER_1
 40
0.0212
 41
0.0212
 66
1
 10
0
 20
0
 30
0
  0
VERTEX
  8
LAYER_1
 10
37.9391
 20
149.9105
  0
VERTEX
  8
LAYER_1
 10
37.9391
 20
159.9012
  0
SEQEND
  0
POLYLINE
  8
LAYER_1
 40
0.0212
 41
0.0212
 66
1
 10
0
 20
0
 30
0
  0
VERTEX
  8
LAYER_1
 10
37.9391
 20
157.975
  0
VERTEX
  8
LAYER_1
 10
38.4471
 20
157.975
  0
VERTEX
  8
LAYER_1
 10
37.9391
 20
159.9012
  0
VERTEX
  8
LAYER_1
 10
37.41
 20
157.975
  0
VERTEX
  8
LAYER_1
 10
37.9391
 20
157.975
  0
SEQEND
  0
POLYLINE
  8
LAYER_1
 40
0.0212
 41
0.0212
 66
1
 10
0
 20
0
 30
0
  0
VERTEX
  8
LAYER_1
 10
36.9231
 20
159.9012
  0
VERTEX
  8
LAYER_1
 10
57.0738
 20
159.9012
  0
SEQEND
  0
POLYLINE
  8
LAYER_1
 40
0.0212
 41
0.0212
 66
1
 10
0
 20
0
 30
0
  0
VERTEX
  8
LAYER_1
 10
71.192
 20
50.2579
  0
VERTEX
  8
LAYER_1
 10
71.192
 20
44.9027
  0
SEQEND
  0
POLYLINE
  8
LAYER_1
 40
0.0212
 41
0.0212
 66
1
 10
0
 20
0
 30
0
  0
VERTEX
  8
LAYER_1
 10
73.1181
 20
45.9187
  0
VERTEX
  8
LAYER_1
 10
73.1181
 20
46.4267
  0
VERTEX
  8
LAYER_1
 10
71.192
 20
45.9187
  0
VERTEX
  8
LAYER_1
 10
73.1181
 20
45.3895
  0
VERTEX
  8
LAYER_1
 10
73.1181
 20
45.9187
  0
SEQEND
  0
POLYLINE
  8
LAYER_1
 40
0.0212
 41
0.0212
 66
1
 10
0
 20
0
 30
0
  0
VERTEX
  8
LAYER_1
 10
71.192
 20
45.9187
  0
VERTEX
  8
LAYER_1
 10
85.6911
 20
45.9187
  0
SEQEND
  0
POLYLINE
  8
LAYER_1
 40
0.0212
 41
0.0212
 66
1
 10
0
 20
0
 30
0
  0
VERTEX
  8
LAYER_1
 10
71.192
 20
45.9187
  0
VERTEX
  8
LAYER_1
 10
51.2106
 20
45.9187
  0
SEQEND
  0
POLYLINE
  8
LAYER_1
 40
0.0212
 41
0.0212
 66
1
 10
0
 20
0
 30
0
  0
VERTEX
  8
LAYER_1
 10
49.2633
 20
45.9187
  0
VERTEX
  8
LAYER_1
 10
49.2633
 20
45.3895
  0
VERTEX
  8
LAYER_1
 10
51.2106
 20
45.9187
  0
VERTEX
  8
LAYER_1
 10
49.2633
 20
46.4267
  0
VERTEX
  8
LAYER_1
 10
49.2633
 20
45.9187
  0
SEQEND
  0
POLYLINE
  8
LAYER_1
 40
0.0212
 41
0.0212
 66
1
 10
0
 20
0
 30
0
  0
VERTEX
  8
LAYER_1
 10
51.2106
 20
45.9187
  0
VERTEX
  8
LAYER_1
 10
46.2153
 20
45.9187
  0
SEQEND
  0
POLYLINE
  8
LAYER_1
 40
0.0212
 41
0.0212
 66
1
 10
0
 20
0
 30
0
  0
VERTEX
  8
LAYER_1
 10
51.2106
 20
44.9027
  0
VERTEX
  8
LAYER_1
 10
51.2106
 20
50.2579
  0
SEQEND
  0
POLYLINE
  8
LAYER_1
 40
0.0212
 41
0.0212
 66
1
 10
0
 20
0
 30
0
  0
VERTEX
  8
LAYER_1
 10
68.9906
 20
149.9105
  0
VERTEX
  8
LAYER_1
 10
65.35
 20
149.9105
  0
SEQEND
  0
POLYLINE
  8
LAYER_1
 40
0.0212
 41
0.0212
 66
1
 10
0
 20
0
 30
0
  0
VERTEX
  8
LAYER_1
 10
64.3551
 20
149.9105
  0
VERTEX
  8
LAYER_1
 10
63.3603
 20
149.9105
  0
SEQEND
  0
POLYLINE
  8
LAYER_1
 40
0.0212
 41
0.0212
 66
1
 10
0
 20
0
 30
0
  0
VERTEX
  8
LAYER_1
 10
62.3655
 20
149.9105
  0
VERTEX
  8
LAYER_1
 10
53.3696
 20
149.9105
  0
SEQEND
  0
POLYLINE
  8
LAYER_1
 40
0.0212
 41
0.0212
 66
1
 10
0
 20
0
 30
0
  0
VERTEX
  8
LAYER_1
 10
52.3536
 20
149.9105
  0
VERTEX
  8
LAYER_1
 10
51.3588
 20
149.9105
  0
SEQEND
  0
POLYLINE
  8
LAYER_1
 40
0.0212
 41
0.0212
 66
1
 10
0
 20
0
 30
0
  0
VERTEX
  8
LAYER_1
 10
50.364
 20
149.9105
  0
VERTEX
  8
LAYER_1
 10
46.7445
 20
149.9105
  0
SEQEND
  0
POLYLINE
  8
LAYER_1
 40
0.0212
 41
0.0212
 66
1
 10
0
 20
0
 30
0
  0
VERTEX
  8
LAYER_1
 10
127.7493
 20
224.8617
  0
VERTEX
  8
LAYER_1
 10
120.4045
 20
224.8617
  0
SEQEND
  0
POLYLINE
  8
LAYER_1
 40
0.0212
 41
0.0212
 66
1
 10
0
 20
0
 30
0
  0
VERTEX
  8
LAYER_1
 10
121.3993
 20
226.7879
  0
VERTEX
  8
LAYER_1
 10
120.8913
 20
226.7879
  0
VERTEX
  8
LAYER_1
 10
121.3993
 20
224.8617
  0
VERTEX
  8
LAYER_1
 10
121.9285
 20
226.7879
  0
VERTEX
  8
LAYER_1
 10
121.3993
 20
226.7879
  0
SEQEND
  0
POLYLINE
  8
LAYER_1
 40
0.0212
 41
0.0212
 66
1
 10
0
 20
0
 30
0
  0
VERTEX
  8
LAYER_1
 10
121.3993
 20
224.8617
  0
VERTEX
  8
LAYER_1
 10
121.3993
 20
234.8524
  0
SEQEND
  0
POLYLINE
  8
LAYER_1
 40
0.0212
 41
0.0212
 66
1
 10
0
 20
0
 30
0
  0
VERTEX
  8
LAYER_1
 10
121.3993
 20
232.9262
  0
VERTEX
  8
LAYER_1
 10
121.9285
 20
232.9262
  0
VERTEX
  8
LAYER_1
 10
121.3993
 20
234.8524
  0
VERTEX
  8
LAYER_1
 10
120.8913
 20
232.9262
  0
VERTEX
  8
LAYER_1
 10
121.3993
 20
232.9262
  0
SEQEND
  0
POLYLINE
  8
LAYER_1
 40
0.0212
 41
0.0212
 66
1
 10
0
 20
0
 30
0
  0
VERTEX
  8
LAYER_1
 10
120.4045
 20
234.8524
  0
VERTEX
  8
LAYER_1
 10
139.3698
 20
234.8524
  0
SEQEND
  0
POLYLINE
  8
LAYER_1
 40
0.0212
 41
0.0212
 66
1
 10
0
 20
0
 30
0
  0
VERTEX
  8
LAYER_1
 10
139.5603
 20
39.8015
  0
VERTEX
  8
LAYER_1
 10
126.7121
 20
39.8015
  0
SEQEND
  0
POLYLINE
  8
LAYER_1
 40
0.0212
 41
0.0212
 66
1
 10
0
 20
0
 30
0
  0
VERTEX
  8
LAYER_1
 10
127.7281
 20
41.7277
  0
VERTEX
  8
LAYER_1
 10
127.199
 20
41.7277
  0
VERTEX
  8
LAYER_1
 10
127.7281
 20
39.8015
  0
VERTEX
  8
LAYER_1
 10
128.2361
 20
41.7277
  0
VERTEX
  8
LAYER_1
 10
127.7281
 20
41.7277
  0
SEQEND
  0
POLYLINE
  8
LAYER_1
 40
0.0212
 41
0.0212
 66
1
 10
0
 20
0
 30
0
  0
VERTEX
  8
LAYER_1
 10
127.7281
 20
39.8015
  0
VERTEX
  8
LAYER_1
 10
127.7281
 20
44.1407
  0
SEQEND
  0
POLYLINE
  8
LAYER_1
 40
0.0212
 41
0.0212
 66
1
 10
0
 20
0
 30
0
  0
VERTEX
  8
LAYER_1
 10
127.7281
 20
42.2145
  0
VERTEX
  8
LAYER_1
 10
128.2361
 20
42.2145
  0
VERTEX
  8
LAYER_1
 10
127.7281
 20
44.1407
  0
VERTEX
  8
LAYER_1
 10
127.199
 20
42.2145
  0
VERTEX
  8
LAYER_1
 10
127.7281
 20
42.2145
  0
SEQEND
  0
POLYLINE
  8
LAYER_1
 40
0.0212
 41
0.0212
 66
1
 10
0
 20
0
 30
0
  0
VERTEX
  8
LAYER_1
 10
126.7121
 20
44.1407
  0
VERTEX
  8
LAYER_1
 10
139.0946
 20
44.1407
  0
SEQEND
  0
POLYLINE
  8
LAYER_1
 40
0.0212
 41
0.0212
 66
1
 10
0
 20
0
 30
0
  0
VERTEX
  8
LAYER_1
 10
140.534
 20
87.1937
  0
VERTEX
  8
LAYER_1
 10
135.8138
 20
91.1307
  0
SEQEND
  0
POLYLINE
  8
LAYER_1
 40
0.0212
 41
0.0212
 66
1
 10
0
 20
0
 30
0
  0
VERTEX
  8
LAYER_1
 10
139.5603
 20
39.8015
  0
VERTEX
  8
LAYER_1
 10
120.4045
 20
39.8015
  0
SEQEND
  0
POLYLINE
  8
LAYER_1
 40
0.0212
 41
0.0212
 66
1
 10
0
 20
0
 30
0
  0
VERTEX
  8
LAYER_1
 10
121.3993
 20
41.7277
  0
VERTEX
  8
LAYER_1
 10
120.8913
 20
41.7277
  0
VERTEX
  8
LAYER_1
 10
121.3993
 20
39.8015
  0
VERTEX
  8
LAYER_1
 10
121.9284
 20
41.7277
  0
VERTEX
  8
LAYER_1
 10
121.3993
 20
41.7277
  0
SEQEND
  0
POLYLINE
  8
LAYER_1
 40
0.0212
 41
0.0212
 66
1
 10
0
 20
0
 30
0
  0
VERTEX
  8
LAYER_1
 10
121.3993
 20
39.8015
  0
VERTEX
  8
LAYER_1
 10
121.3993
 20
224.8617
  0
SEQEND
  0
POLYLINE
  8
LAYER_1
 40
0.0212
 41
0.0212
 66
1
 10
0
 20
0
 30
0
  0
VERTEX
  8
LAYER_1
 10
121.3993
 20
222.9355
  0
VERTEX
  8
LAYER_1
 10
121.9284
 20
222.9355
  0
VERTEX
  8
LAYER_1
 10
121.3993
 20
224.8617
  0
VERTEX
  8
LAYER_1
 10
120.8913
 20
222.9355
  0
VERTEX
  8
LAYER_1
 10
121.3993
 20
222.9355
  0
SEQEND
  0
POLYLINE
  8
LAYER_1
 40
0.0212
 41
0.0212
 66
1
 10
0
 20
0
 30
0
  0
VERTEX
  8
LAYER_1
 10
120.4044
 20
224.8617
  0
VERTEX
  8
LAYER_1
 10
127.7916
 20
224.8617
  0
SEQEND
  0
POLYLINE
  8
LAYER_1
 40
0.0212
 41
0.0212
 66
1
 10
0
 20
0
 30
0
  0
VERTEX
  8
LAYER_1
 10
139.5603
 20
39.8015
  0
VERTEX
  8
LAYER_1
 10
112.2553
 20
39.8015
  0
SEQEND
  0
POLYLINE
  8
LAYER_1
 40
0.0212
 41
0.0212
 66
1
 10
0
 20
0
 30
0
  0
VERTEX
  8
LAYER_1
 10
113.2501
 20
41.7277
  0
VERTEX
  8
LAYER_1
 10
112.7209
 20
41.7277
  0
VERTEX
  8
LAYER_1
 10
113.2501
 20
39.8015
  0
VERTEX
  8
LAYER_1
 10
113.7581
 20
41.7277
  0
VERTEX
  8
LAYER_1
 10
113.2501
 20
41.7277
  0
SEQEND
  0
POLYLINE
  8
LAYER_1
 40
0.0212
 41
0.0212
 66
1
 10
0
 20
0
 30
0
  0
VERTEX
  8
LAYER_1
 10
113.2501
 20
39.8015
  0
VERTEX
  8
LAYER_1
 10
113.2501
 20
234.8524
  0
SEQEND
  0
POLYLINE
  8
LAYER_1
 40
0.0212
 41
0.0212
 66
1
 10
0
 20
0
 30
0
  0
VERTEX
  8
LAYER_1
 10
113.2501
 20
232.9262
  0
VERTEX
  8
LAYER_1
 10
113.7581
 20
232.9262
  0
VERTEX
  8
LAYER_1
 10
113.2501
 20
234.8524
  0
VERTEX
  8
LAYER_1
 10
112.7209
 20
232.9262
  0
VERTEX
  8
LAYER_1
 10
113.2501
 20
232.9262
  0
SEQEND
  0
POLYLINE
  8
LAYER_1
 40
0.0212
 41
0.0212
 66
1
 10
0
 20
0
 30
0
  0
VERTEX
  8
LAYER_1
 10
112.2553
 20
234.8524
  0
VERTEX
  8
LAYER_1
 10
139.3698
 20
234.8524
  0
SEQEND
  0
POLYLINE
  8
LAYER_1
 40
0.0212
 41
0.0212
 66
1
 10
0
 20
0
 30
0
  0
VERTEX
  8
LAYER_1
 10
141.5076
 20
154.2709
  0
VERTEX
  8
LAYER_1
 10
134.9671
 20
156.9167
  0
SEQEND
  0
POLYLINE
  8
LAYER_1
 40
0.0212
 41
0.0212
 66
1
 10
0
 20
0
 30
0
  0
VERTEX
  8
LAYER_1
 10
126.5004
 20
224.8617
  0
VERTEX
  8
LAYER_1
 10
130.8608
 20
224.8617
  0
SEQEND
  0
POLYLINE
  8
LAYER_1
 40
0.0212
 41
0.0212
 66
1
 10
0
 20
0
 30
0
  0
VERTEX
  8
LAYER_1
 10
131.8556
 20
224.8617
  0
VERTEX
  8
LAYER_1
 10
132.8504
 20
224.8617
  0
SEQEND
  0
POLYLINE
  8
LAYER_1
 40
0.0212
 41
0.0212
 66
1
 10
0
 20
0
 30
0
  0
VERTEX
  8
LAYER_1
 10
133.8664
 20
224.8617
  0
VERTEX
  8
LAYER_1
 10
142.8623
 20
224.8617
  0
SEQEND
  0
POLYLINE
  8
LAYER_1
 40
0.0212
 41
0.0212
 66
1
 10
0
 20
0
 30
0
  0
VERTEX
  8
LAYER_1
 10
143.8571
 20
224.8617
  0
VERTEX
  8
LAYER_1
 10
144.8519
 20
224.8617
  0
SEQEND
  0
POLYLINE
  8
LAYER_1
 40
0.0212
 41
0.0212
 66
1
 10
0
 20
0
 30
0
  0
VERTEX
  8
LAYER_1
 10
145.8468
 20
224.8617
  0
VERTEX
  8
LAYER_1
 10
150.2071
 20
224.8617
  0
SEQEND
  0
POLYLINE
  8
LAYER_1
 40
0.0212
 41
0.0212
 66
1
 10
0
 20
0
 30
0
  0
VERTEX
  8
LAYER_1
 10
153.4879
 20
50.2579
  0
VERTEX
  8
LAYER_1
 10
153.4879
 20
46.6807
  0
SEQEND
  0
POLYLINE
  8
LAYER_1
 40
0.0212
 41
0.0212
 66
1
 10
0
 20
0
 30
0
  0
VERTEX
  8
LAYER_1
 10
155.4141
 20
47.6755
  0
VERTEX
  8
LAYER_1
 10
155.4141
 20
48.2047
  0
VERTEX
  8
LAYER_1
 10
153.4879
 20
47.6755
  0
VERTEX
  8
LAYER_1
 10
155.4141
 20
47.1675
  0
VERTEX
  8
LAYER_1
 10
155.4141
 20
47.6755
  0
SEQEND
  0
POLYLINE
  8
LAYER_1
 40
0.0212
 41
0.0212
 66
1
 10
0
 20
0
 30
0
  0
VERTEX
  8
LAYER_1
 10
153.4879
 20
47.6755
  0
VERTEX
  8
LAYER_1
 10
167.9871
 20
47.6755
  0
SEQEND
  0
POLYLINE
  8
LAYER_1
 40
0.0212
 41
0.0212
 66
1
 10
0
 20
0
 30
0
  0
VERTEX
  8
LAYER_1
 10
153.4879
 20
47.6755
  0
VERTEX
  8
LAYER_1
 10
133.5066
 20
47.6755
  0
SEQEND
  0
POLYLINE
  8
LAYER_1
 40
0.0212
 41
0.0212
 66
1
 10
0
 20
0
 30
0
  0
VERTEX
  8
LAYER_1
 10
131.5593
 20
47.6755
  0
VERTEX
  8
LAYER_1
 10
131.5593
 20
47.1675
  0
VERTEX
  8
LAYER_1
 10
133.5066
 20
47.6755
  0
VERTEX
  8
LAYER_1
 10
131.5593
 20
48.2047
  0
VERTEX
  8
LAYER_1
 10
131.5593
 20
47.6755
  0
SEQEND
  0
POLYLINE
  8
LAYER_1
 40
0.0212
 41
0.0212
 66
1
 10
0
 20
0
 30
0
  0
VERTEX
  8
LAYER_1
 10
133.5066
 20
47.6755
  0
VERTEX
  8
LAYER_1
 10
128.4901
 20
47.6755
  0
SEQEND
  0
POLYLINE
  8
LAYER_1
 40
0.0212
 41
0.0212
 66
1
 10
0
 20
0
 30
0
  0
VERTEX
  8
LAYER_1
 10
133.5066
 20
46.6807
  0
VERTEX
  8
LAYER_1
 10
133.5066
 20
50.2579
  0
SEQEND
  0
POLYLINE
  8
LAYER_1
 40
0.0212
 41
0.0212
 66
1
 10
0
 20
0
 30
0
  0
VERTEX
  8
LAYER_1
 10
147.1591
 20
233.0109
  0
VERTEX
  8
LAYER_1
 10
151.5829
 20
238.874
  0
VERTEX
  8
LAYER_1
 10
162.9918
 20
238.874
  0
SEQEND
  0
POLYLINE
  8
LAYER_1
 40
0.0212
 41
0.0212
 66
1
 10
0
 20
0
 30
0
  0
VERTEX
  8
LAYER_1
 10
148.3021
 20
234.556
  0
VERTEX
  8
LAYER_1
 10
147.8999
 20
234.8735
  0
VERTEX
  8
LAYER_1
 10
147.1591
 20
233.0109
  0
VERTEX
  8
LAYER_1
 10
148.7254
 20
234.2385
  0
VERTEX
  8
LAYER_1
 10
148.3021
 20
234.556
  0
SEQEND
  0
POLYLINE
  8
LAYER_1
 40
0.0212
 41
0.0212
 66
1
 10
0
 20
0
 30
0
  0
VERTEX
  8
LAYER_1
 10
147.1168
 20
41.9817
  0
VERTEX
  8
LAYER_1
 10
149.6568
 20
34.8697
  0
VERTEX
  8
LAYER_1
 10
163.7961
 20
34.8697
  0
SEQEND
  0
POLYLINE
  8
LAYER_1
 40
0.0212
 41
0.0212
 66
1
 10
0
 20
0
 30
0
  0
VERTEX
  8
LAYER_1
 10
147.7518
 20
40.1614
  0
VERTEX
  8
LAYER_1
 10
148.2598
 20
40.3307
  0
VERTEX
  8
LAYER_1
 10
147.1168
 20
41.9817
  0
VERTEX
  8
LAYER_1
 10
147.2649
 20
39.992
  0
VERTEX
  8
LAYER_1
 10
147.7518
 20
40.1614
  0
SEQEND
  0
POLYLINE
  8
LAYER_1
 40
0.0212
 41
0.0212
 66
1
 10
0
 20
0
 30
0
  0
VERTEX
  8
LAYER_1
 10
64.9478
 20
41.6642
  0
VERTEX
  8
LAYER_1
 10
69.0964
 20
33.515
  0
VERTEX
  8
LAYER_1
 10
84.2518
 20
33.515
  0
SEQEND
  0
POLYLINE
  8
LAYER_1
 40
0.0212
 41
0.0212
 66
1
 10
0
 20
0
 30
0
  0
VERTEX
  8
LAYER_1
 10
65.8368
 20
39.9497
  0
VERTEX
  8
LAYER_1
 10
66.3024
 20
40.1825
  0
VERTEX
  8
LAYER_1
 10
64.9478
 20
41.6642
  0
VERTEX
  8
LAYER_1
 10
65.3711
 20
39.7169
  0
VERTEX
  8
LAYER_1
 10
65.8368
 20
39.9497
  0
SEQEND
  0
POLYLINE
  8
LAYER_1
 40
0.0212
 41
0.0212
 66
1
 10
0
 20
0
 30
0
  0
VERTEX
  8
LAYER_1
 10
64.8843
 20
158.0385
  0
VERTEX
  8
LAYER_1
 10
66.8739
 20
164.579
  0
VERTEX
  8
LAYER_1
 10
85.5429
 20
164.579
  0
SEQEND
  0
POLYLINE
  8
LAYER_1
 40
0.0212
 41
0.0212
 66
1
 10
0
 20
0
 30
0
  0
VERTEX
  8
LAYER_1
 10
65.4558
 20
159.9012
  0
VERTEX
  8
LAYER_1
 10
64.9478
 20
160.0494
  0
VERTEX
  8
LAYER_1
 10
64.8843
 20
158.0385
  0
VERTEX
  8
LAYER_1
 10
65.9426
 20
159.753
  0
VERTEX
  8
LAYER_1
 10
65.4558
 20
159.9012
  0
SEQEND
  0
POLYLINE
  8
LAYER_1
 40
0.1764
 41
0.1764
 66
1
 10
0
 20
0
 30
0
  0
VERTEX
  8
LAYER_1
 10
57.7723
 20
44.1407
  0
VERTEX
  8
LAYER_1
 10
57.8781
 20
40.1825
  0
SEQEND
  0
POLYLINE
  8
LAYER_1
 40
0.1764
 41
0.1764
 66
1
 10
0
 20
0
 30
0
  0
VERTEX
  8
LAYER_1
 10
64.6515
 20
40.1825
  0
VERTEX
  8
LAYER_1
 10
64.7361
 20
44.1407
  0
SEQEND
  0
POLYLINE
  8
LAYER_1
 40
0.1764
 41
0.1764
 66
1
 10
0
 20
0
 30
0
  0
VERTEX
  8
LAYER_1
 10
58.1533
 20
43.7809
  0
VERTEX
  8
LAYER_1
 10
57.7723
 20
44.1619
  0
SEQEND
  0
POLYLINE
  8
LAYER_1
 40
0.1764
 41
0.1764
 66
1
 10
0
 20
0
 30
0
  0
VERTEX
  8
LAYER_1
 10
64.3763
 20
43.7809
  0
VERTEX
  8
LAYER_1
 10
64.7573
 20
44.1619
  0
SEQEND
  0
POLYLINE
  8
LAYER_1
 40
0.1764
 41
0.1764
 66
1
 10
0
 20
0
 30
0
  0
VERTEX
  8
LAYER_1
 10
58.2803
 20
39.8015
  0
VERTEX
  8
LAYER_1
 10
57.8781
 20
40.1825
  0
SEQEND
  0
POLYLINE
  8
LAYER_1
 40
0.1764
 41
0.1764
 66
1
 10
0
 20
0
 30
0
  0
VERTEX
  8
LAYER_1
 10
64.2493
 20
39.8015
  0
VERTEX
  8
LAYER_1
 10
64.6515
 20
40.1825
  0
SEQEND
  0
POLYLINE
  8
LAYER_1
 40
0.1764
 41
0.1764
 66
1
 10
0
 20
0
 30
0
  0
VERTEX
  8
LAYER_1
 10
64.2493
 20
39.8015
  0
VERTEX
  8
LAYER_1
 10
58.2803
 20
39.8015
  0
SEQEND
  0
POLYLINE
  8
LAYER_1
 40
0.1764
 41
0.1764
 66
1
 10
0
 20
0
 30
0
  0
VERTEX
  8
LAYER_1
 10
140.0895
 20
44.1407
  0
VERTEX
  8
LAYER_1
 10
140.1741
 20
40.1825
  0
SEQEND
  0
POLYLINE
  8
LAYER_1
 40
0.1764
 41
0.1764
 66
1
 10
0
 20
0
 30
0
  0
VERTEX
  8
LAYER_1
 10
146.9475
 20
40.1825
  0
VERTEX
  8
LAYER_1
 10
147.0321
 20
44.1407
  0
SEQEND
  0
POLYLINE
  8
LAYER_1
 40
0.1764
 41
0.1764
 66
1
 10
0
 20
0
 30
0
  0
VERTEX
  8
LAYER_1
 10
140.4493
 20
43.7809
  0
VERTEX
  8
LAYER_1
 10
140.0683
 20
44.1619
  0
SEQEND
  0
POLYLINE
  8
LAYER_1
 40
0.1764
 41
0.1764
 66
1
 10
0
 20
0
 30
0
  0
VERTEX
  8
LAYER_1
 10
146.6723
 20
43.7809
  0
VERTEX
  8
LAYER_1
 10
147.0321
 20
44.1619
  0
SEQEND
  0
POLYLINE
  8
LAYER_1
 40
0.1764
 41
0.1764
 66
1
 10
0
 20
0
 30
0
  0
VERTEX
  8
LAYER_1
 10
140.5551
 20
39.8015
  0
VERTEX
  8
LAYER_1
 10
140.1741
 20
40.1825
  0
SEQEND
  0
POLYLINE
  8
LAYER_1
 40
0.1764
 41
0.1764
 66
1
 10
0
 20
0
 30
0
  0
VERTEX
  8
LAYER_1
 10
146.5453
 20
39.8015
  0
VERTEX
  8
LAYER_1
 10
146.9475
 20
40.1825
  0
SEQEND
  0
POLYLINE
  8
LAYER_1
 40
0.1764
 41
0.1764
 66
1
 10
0
 20
0
 30
0
  0
VERTEX
  8
LAYER_1
 10
140.5551
 20
39.8015
  0
VERTEX
  8
LAYER_1
 10
146.5453
 20
39.8015
  0
SEQEND
  0
POLYLINE
  8
LAYER_1
 40
0.1764
 41
0.1764
 66
1
 10
0
 20
0
 30
0
  0
VERTEX
  8
LAYER_1
 10
141.4441
 20
210.3625
  0
VERTEX
  8
LAYER_1
 10
141.4441
 20
134.5859
  0
SEQEND
  0
POLYLINE
  8
LAYER_1
 40
0.1764
 41
0.1764
 66
1
 10
0
 20
0
 30
0
  0
VERTEX
  8
LAYER_1
 10
145.6775
 20
210.3625
  0
VERTEX
  8
LAYER_1
 10
145.6775
 20
134.5859
  0
SEQEND
  0
POLYLINE
  8
LAYER_1
 40
0.1764
 41
0.1764
 66
1
 10
0
 20
0
 30
0
  0
VERTEX
  8
LAYER_1
 10
50.7661
 20
145.7407
  0
VERTEX
  8
LAYER_1
 10
50.9778
 20
145.5714
  0
VERTEX
  8
LAYER_1
 10
51.253
 20
145.4232
  0
VERTEX
  8
LAYER_1
 10
51.507
 20
145.3174
  0
VERTEX
  8
LAYER_1
 10
51.8033
 20
145.275
  0
VERTEX
  8
LAYER_1
 10
52.0996
 20
145.275
  0
VERTEX
  8
LAYER_1
 10
52.3748
 20
145.3385
  0
VERTEX
  8
LAYER_1
 10
52.6499
 20
145.4232
  0
VERTEX
  8
LAYER_1
 10
52.8828
 20
145.5925
  0
VERTEX
  8
LAYER_1
 10
53.0945
 20
145.7407
  0
SEQEND
  0
POLYLINE
  8
LAYER_1
 40
0.1764
 41
0.1764
 66
1
 10
0
 20
0
 30
0
  0
VERTEX
  8
LAYER_1
 10
53.0945
 20
154.0804
  0
VERTEX
  8
LAYER_1
 10
52.8616
 20
154.2497
  0
VERTEX
  8
LAYER_1
 10
52.6076
 20
154.419
  0
VERTEX
  8
LAYER_1
 10
52.3324
 20
154.5037
  0
VERTEX
  8
LAYER_1
 10
52.0573
 20
154.546
  0
VERTEX
  8
LAYER_1
 10
51.761
 20
154.546
  0
VERTEX
  8
LAYER_1
 10
51.4858
 20
154.4825
  0
VERTEX
  8
LAYER_1
 10
51.2106
 20
154.3979
  0
VERTEX
  8
LAYER_1
 10
50.9566
 20
154.2285
  0
VERTEX
  8
LAYER_1
 10
50.7661
 20
154.0804
  0
SEQEND
  0
POLYLINE
  8
LAYER_1
 40
0.1764
 41
0.1764
 66
1
 10
0
 20
0
 30
0
  0
VERTEX
  8
LAYER_1
 10
49.094
 20
147.8785
  0
VERTEX
  8
LAYER_1
 10
50.7661
 20
145.7407
  0
SEQEND
  0
POLYLINE
  8
LAYER_1
 40
0.1764
 41
0.1764
 66
1
 10
0
 20
0
 30
0
  0
VERTEX
  8
LAYER_1
 10
49.094
 20
151.879
  0
VERTEX
  8
LAYER_1
 10
50.7661
 20
154.0804
  0
SEQEND
  0
POLYLINE
  8
LAYER_1
 40
0.1764
 41
0.1764
 66
1
 10
0
 20
0
 30
0
  0
VERTEX
  8
LAYER_1
 10
49.094
 20
151.879
  0
VERTEX
  8
LAYER_1
 10
49.094
 20
151.4769
  0
VERTEX
  8
LAYER_1
 10
49.094
 20
147.8785
  0
SEQEND
  0
POLYLINE
  8
LAYER_1
 40
0.1764
 41
0.1764
 66
1
 10
0
 20
0
 30
0
  0
VERTEX
  8
LAYER_1
 10
53.0945
 20
154.0804
  0
VERTEX
  8
LAYER_1
 10
53.0945
 20
153.8899
  0
SEQEND
  0
POLYLINE
  8
LAYER_1
 40
0.1764
 41
0.1764
 66
1
 10
0
 20
0
 30
0
  0
VERTEX
  8
LAYER_1
 10
53.0945
 20
145.7407
  0
VERTEX
  8
LAYER_1
 10
53.0945
 20
153.8899
  0
SEQEND
  0
POLYLINE
  8
LAYER_1
 40
0.1764
 41
0.1764
 66
1
 10
0
 20
0
 30
0
  0
VERTEX
  8
LAYER_1
 10
50.7661
 20
145.7407
  0
VERTEX
  8
LAYER_1
 10
50.7661
 20
154.0804
  0
SEQEND
  0
POLYLINE
  8
LAYER_1
 40
0.1764
 41
0.1764
 66
1
 10
0
 20
0
 30
0
  0
VERTEX
  8
LAYER_1
 10
51.9303
 20
151.5615
  0
VERTEX
  8
LAYER_1
 10
51.8244
 20
151.5615
  0
VERTEX
  8
LAYER_1
 10
51.7186
 20
151.5404
  0
VERTEX
  8
LAYER_1
 10
51.6128
 20
151.498
  0
VERTEX
  8
LAYER_1
 10
51.5281
 20
151.4134
  0
VERTEX
  8
LAYER_1
 10
51.4223
 20
151.3499
  0
VERTEX
  8
LAYER_1
 10
51.3376
 20
151.244
  0
VERTEX
  8
LAYER_1
 10
51.253
 20
151.1382
  0
VERTEX
  8
LAYER_1
 10
51.1894
 20
151.0112
  0
VERTEX
  8
LAYER_1
 10
51.126
 20
150.8842
  0
VERTEX
  8
LAYER_1
 10
51.0624
 20
150.736
  0
VERTEX
  8
LAYER_1
 10
51.0201
 20
150.5879
  0
VERTEX
  8
LAYER_1
 10
50.9778
 20
150.4185
  0
VERTEX
  8
LAYER_1
 10
50.9566
 20
150.2492
  0
VERTEX
  8
LAYER_1
 10
50.9354
 20
150.0799
  0
VERTEX
  8
LAYER_1
 10
50.9143
 20
149.9105
  0
VERTEX
  8
LAYER_1
 10
50.9354
 20
149.7412
  0
VERTEX
  8
LAYER_1
 10
50.9566
 20
149.5507
  0
VERTEX
  8
LAYER_1
 10
50.9778
 20
149.3814
  0
VERTEX
  8
LAYER_1
 10
51.0201
 20
149.212
  0
VERTEX
  8
LAYER_1
 10
51.0624
 20
149.0639
  0
VERTEX
  8
LAYER_1
 10
51.126
 20
148.9157
  0
VERTEX
  8
LAYER_1
 10
51.1894
 20
148.7887
  0
VERTEX
  8
LAYER_1
 10
51.253
 20
148.6617
  0
VERTEX
  8
LAYER_1
 10
51.3376
 20
148.5559
  0
VERTEX
  8
LAYER_1
 10
51.4223
 20
148.4712
  0
VERTEX
  8
LAYER_1
 10
51.5281
 20
148.3865
  0
VERTEX
  8
LAYER_1
 10
51.6128
 20
148.323
  0
VERTEX
  8
LAYER_1
 10
51.7186
 20
148.2807
  0
VERTEX
  8
LAYER_1
 10
51.8244
 20
148.2384
  0
VERTEX
  8
LAYER_1
 10
51.9303
 20
148.2384
  0
VERTEX
  8
LAYER_1
 10
52.0361
 20
148.2384
  0
VERTEX
  8
LAYER_1
 10
52.142
 20
148.2807
  0
VERTEX
  8
LAYER_1
 10
52.2266
 20
148.323
  0
VERTEX
  8
LAYER_1
 10
52.3324
 20
148.3865
  0
VERTEX
  8
LAYER_1
 10
52.4171
 20
148.4712
  0
VERTEX
  8
LAYER_1
 10
52.5018
 20
148.5559
  0
VERTEX
  8
LAYER_1
 10
52.5865
 20
148.6617
  0
VERTEX
  8
LAYER_1
 10
52.6711
 20
148.7887
  0
VERTEX
  8
LAYER_1
 10
52.7346
 20
148.9157
  0
VERTEX
  8
LAYER_1
 10
52.7981
 20
149.0639
  0
VERTEX
  8
LAYER_1
 10
52.8405
 20
149.212
  0
VERTEX
  8
LAYER_1
 10
52.8828
 20
149.3814
  0
VERTEX
  8
LAYER_1
 10
52.9039
 20
149.5507
  0
VERTEX
  8
LAYER_1
 10
52.9251
 20
149.7412
  0
VERTEX
  8
LAYER_1
 10
52.9251
 20
149.9105
  0
VERTEX
  8
LAYER_1
 10
52.9251
 20
150.0799
  0
VERTEX
  8
LAYER_1
 10
52.9039
 20
150.2492
  0
VERTEX
  8
LAYER_1
 10
52.8828
 20
150.4185
  0
VERTEX
  8
LAYER_1
 10
52.8405
 20
150.5879
  0
VERTEX
  8
LAYER_1
 10
52.7981
 20
150.736
  0
VERTEX
  8
LAYER_1
 10
52.7346
 20
150.8842
  0
VERTEX
  8
LAYER_1
 10
52.6711
 20
151.0112
  0
VERTEX
  8
LAYER_1
 10
52.5865
 20
151.1382
  0
VERTEX
  8
LAYER_1
 10
52.5018
 20
151.244
  0
VERTEX
  8
LAYER_1
 10
52.4171
 20
151.3499
  0
VERTEX
  8
LAYER_1
 10
52.3324
 20
151.4134
  0
VERTEX
  8
LAYER_1
 10
52.2266
 20
151.498
  0
VERTEX
  8
LAYER_1
 10
52.142
 20
151.5404
  0
VERTEX
  8
LAYER_1
 10
52.0361
 20
151.5615
  0
VERTEX
  8
LAYER_1
 10
51.9303
 20
151.5615
  0
SEQEND
  0
POLYLINE
  8
LAYER_1
 40
0.1764
 41
0.1764
 66
1
 10
0
 20
0
 30
0
  0
VERTEX
  8
LAYER_1
 10
51.9303
 20
154.546
  0
VERTEX
  8
LAYER_1
 10
51.8244
 20
154.546
  0
VERTEX
  8
LAYER_1
 10
51.7186
 20
154.5249
  0
VERTEX
  8
LAYER_1
 10
51.6128
 20
154.5037
  0
VERTEX
  8
LAYER_1
 10
51.5281
 20
154.4614
  0
VERTEX
  8
LAYER_1
 10
51.4223
 20
154.419
  0
VERTEX
  8
LAYER_1
 10
51.3376
 20
154.3767
  0
VERTEX
  8
LAYER_1
 10
51.253
 20
154.3344
  0
VERTEX
  8
LAYER_1
 10
51.1894
 20
154.2709
  0
VERTEX
  8
LAYER_1
 10
51.126
 20
154.2074
  0
VERTEX
  8
LAYER_1
 10
51.0624
 20
154.1227
  0
VERTEX
  8
LAYER_1
 10
51.0201
 20
154.0592
  0
VERTEX
  8
LAYER_1
 10
50.9778
 20
153.9745
  0
VERTEX
  8
LAYER_1
 10
50.9566
 20
153.8687
  0
VERTEX
  8
LAYER_1
 10
50.9354
 20
153.8052
  0
VERTEX
  8
LAYER_1
 10
50.9143
 20
153.6994
  0
VERTEX
  8
LAYER_1
 10
50.9354
 20
153.6147
  0
VERTEX
  8
LAYER_1
 10
50.9566
 20
153.53
  0
VERTEX
  8
LAYER_1
 10
50.9778
 20
153.4454
  0
VERTEX
  8
LAYER_1
 10
51.0201
 20
153.3607
  0
VERTEX
  8
LAYER_1
 10
51.0624
 20
153.2972
  0
VERTEX
  8
LAYER_1
 10
51.126
 20
153.2125
  0
VERTEX
  8
LAYER_1
 10
51.1894
 20
153.149
  0
VERTEX
  8
LAYER_1
 10
51.253
 20
153.0855
  0
VERTEX
  8
LAYER_1
 10
51.3376
 20
153.0432
  0
VERTEX
  8
LAYER_1
 10
51.4223
 20
152.9797
  0
VERTEX
  8
LAYER_1
 10
51.5281
 20
152.9585
  0
VERTEX
  8
LAYER_1
 10
51.6128
 20
152.9162
  0
VERTEX
  8
LAYER_1
 10
51.7186
 20
152.895
  0
VERTEX
  8
LAYER_1
 10
51.8244
 20
152.8739
  0
VERTEX
  8
LAYER_1
 10
51.9303
 20
152.8739
  0
VERTEX
  8
LAYER_1
 10
52.0361
 20
152.8739
  0
VERTEX
  8
LAYER_1
 10
52.142
 20
152.895
  0
VERTEX
  8
LAYER_1
 10
52.2266
 20
152.9162
  0
VERTEX
  8
LAYER_1
 10
52.3324
 20
152.9585
  0
VERTEX
  8
LAYER_1
 10
52.4171
 20
152.9797
  0
VERTEX
  8
LAYER_1
 10
52.5018
 20
153.0432
  0
VERTEX
  8
LAYER_1
 10
52.5865
 20
153.0855
  0
VERTEX
  8
LAYER_1
 10
52.6711
 20
153.149
  0
VERTEX
  8
LAYER_1
 10
52.7346
 20
153.2125
  0
VERTEX
  8
LAYER_1
 10
52.7981
 20
153.2972
  0
VERTEX
  8
LAYER_1
 10
52.8405
 20
153.3607
  0
VERTEX
  8
LAYER_1
 10
52.8828
 20
153.4454
  0
VERTEX
  8
LAYER_1
 10
52.9039
 20
153.53
  0
VERTEX
  8
LAYER_1
 10
52.9251
 20
153.6147
  0
VERTEX
  8
LAYER_1
 10
52.9251
 20
153.6994
  0
VERTEX
  8
LAYER_1
 10
52.9251
 20
153.8052
  0
VERTEX
  8
LAYER_1
 10
52.9039
 20
153.8687
  0
VERTEX
  8
LAYER_1
 10
52.8828
 20
153.9745
  0
VERTEX
  8
LAYER_1
 10
52.8405
 20
154.0592
  0
VERTEX
  8
LAYER_1
 10
52.7981
 20
154.1227
  0
VERTEX
  8
LAYER_1
 10
52.7346
 20
154.2074
  0
VERTEX
  8
LAYER_1
 10
52.6711
 20
154.2709
  0
VERTEX
  8
LAYER_1
 10
52.5865
 20
154.3344
  0
VERTEX
  8
LAYER_1
 10
52.5018
 20
154.3767
  0
VERTEX
  8
LAYER_1
 10
52.4171
 20
154.419
  0
VERTEX
  8
LAYER_1
 10
52.3324
 20
154.4614
  0
VERTEX
  8
LAYER_1
 10
52.2266
 20
154.5037
  0
VERTEX
  8
LAYER_1
 10
52.142
 20
154.5249
  0
VERTEX
  8
LAYER_1
 10
52.0361
 20
154.546
  0
VERTEX
  8
LAYER_1
 10
51.9303
 20
154.546
  0
SEQEND
  0
POLYLINE
  8
LAYER_1
 40
0.1764
 41
0.1764
 66
1
 10
0
 20
0
 30
0
  0
VERTEX
  8
LAYER_1
 10
51.9303
 20
145.2539
  0
VERTEX
  8
LAYER_1
 10
52.0361
 20
145.2539
  0
VERTEX
  8
LAYER_1
 10
52.142
 20
145.275
  0
VERTEX
  8
LAYER_1
 10
52.2266
 20
145.2962
  0
VERTEX
  8
LAYER_1
 10
52.3324
 20
145.3385
  0
VERTEX
  8
LAYER_1
 10
52.4171
 20
145.3809
  0
VERTEX
  8
LAYER_1
 10
52.5018
 20
145.4232
  0
VERTEX
  8
LAYER_1
 10
52.5865
 20
145.4655
  0
VERTEX
  8
LAYER_1
 10
52.6711
 20
145.529
  0
VERTEX
  8
LAYER_1
 10
52.7346
 20
145.5925
  0
VERTEX
  8
LAYER_1
 10
52.7981
 20
145.6772
  0
VERTEX
  8
LAYER_1
 10
52.8405
 20
145.7619
  0
VERTEX
  8
LAYER_1
 10
52.8828
 20
145.8254
  0
VERTEX
  8
LAYER_1
 10
52.9039
 20
145.9312
  0
VERTEX
  8
LAYER_1
 10
52.9251
 20
145.9947
  0
VERTEX
  8
LAYER_1
 10
52.9251
 20
146.1005
  0
VERTEX
  8
LAYER_1
 10
52.9251
 20
146.1852
  0
VERTEX
  8
LAYER_1
 10
52.9039
 20
146.2699
  0
VERTEX
  8
LAYER_1
 10
52.8828
 20
146.3545
  0
VERTEX
  8
LAYER_1
 10
52.8405
 20
146.4392
  0
VERTEX
  8
LAYER_1
 10
52.7981
 20
146.5027
  0
VERTEX
  8
LAYER_1
 10
52.7346
 20
146.5874
  0
VERTEX
  8
LAYER_1
 10
52.6711
 20
146.6509
  0
VERTEX
  8
LAYER_1
 10
52.5865
 20
146.7144
  0
VERTEX
  8
LAYER_1
 10
52.5018
 20
146.7567
  0
VERTEX
  8
LAYER_1
 10
52.4171
 20
146.8202
  0
VERTEX
  8
LAYER_1
 10
52.3324
 20
146.8625
  0
VERTEX
  8
LAYER_1
 10
52.2266
 20
146.8837
  0
VERTEX
  8
LAYER_1
 10
52.142
 20
146.9049
  0
VERTEX
  8
LAYER_1
 10
52.0361
 20
146.926
  0
VERTEX
  8
LAYER_1
 10
51.9303
 20
146.926
  0
VERTEX
  8
LAYER_1
 10
51.8244
 20
146.926
  0
VERTEX
  8
LAYER_1
 10
51.7186
 20
146.9049
  0
VERTEX
  8
LAYER_1
 10
51.6128
 20
146.8837
  0
VERTEX
  8
LAYER_1
 10
51.5281
 20
146.8625
  0
VERTEX
  8
LAYER_1
 10
51.4223
 20
146.8202
  0
VERTEX
  8
LAYER_1
 10
51.3376
 20
146.7567
  0
VERTEX
  8
LAYER_1
 10
51.253
 20
146.7144
  0
VERTEX
  8
LAYER_1
 10
51.1894
 20
146.6509
  0
VERTEX
  8
LAYER_1
 10
51.126
 20
146.5874
  0
SEQEND
  0
POLYLINE
  8
LAYER_1
 40
0.1764
 41
0.1764
 66
1
 10
0
 20
0
 30
0
  0
VERTEX
  8
LAYER_1
 10
51.126
 20
146.5874
  0
VERTEX
  8
LAYER_1
 10
51.0625
 20
146.5027
  0
VERTEX
  8
LAYER_1
 10
51.0201
 20
146.4392
  0
VERTEX
  8
LAYER_1
 10
50.9778
 20
146.3545
  0
VERTEX
  8
LAYER_1
 10
50.9566
 20
146.2699
  0
VERTEX
  8
LAYER_1
 10
50.9355
 20
146.1852
  0
VERTEX
  8
LAYER_1
 10
50.9143
 20
146.1005
  0
VERTEX
  8
LAYER_1
 10
50.9355
 20
145.9947
  0
VERTEX
  8
LAYER_1
 10
50.9566
 20
145.9312
  0
VERTEX
  8
LAYER_1
 10
50.9778
 20
145.8254
  0
VERTEX
  8
LAYER_1
 10
51.0201
 20
145.7619
  0
VERTEX
  8
LAYER_1
 10
51.0625
 20
145.6772
  0
VERTEX
  8
LAYER_1
 10
51.126
 20
145.5925
  0
VERTEX
  8
LAYER_1
 10
51.1895
 20
145.529
  0
VERTEX
  8
LAYER_1
 10
51.253
 20
145.4655
  0
VERTEX
  8
LAYER_1
 10
51.3376
 20
145.4232
  0
VERTEX
  8
LAYER_1
 10
51.4223
 20
145.3808
  0
VERTEX
  8
LAYER_1
 10
51.5281
 20
145.3385
  0
VERTEX
  8
LAYER_1
 10
51.6128
 20
145.2962
  0
VERTEX
  8
LAYER_1
 10
51.7186
 20
145.275
  0
VERTEX
  8
LAYER_1
 10
51.8245
 20
145.2539
  0
VERTEX
  8
LAYER_1
 10
51.9303
 20
145.2539
  0
SEQEND
  0
POLYLINE
  8
LAYER_1
 40
0.1764
 41
0.1764
 66
1
 10
0
 20
0
 30
0
  0
VERTEX
  8
LAYER_1
 10
133.0621
 20
220.713
  0
VERTEX
  8
LAYER_1
 10
133.295
 20
220.5225
  0
VERTEX
  8
LAYER_1
 10
133.5278
 20
220.3955
  0
VERTEX
  8
LAYER_1
 10
133.803
 20
220.2897
  0
VERTEX
  8
LAYER_1
 10
134.0993
 20
220.2473
  0
VERTEX
  8
LAYER_1
 10
134.3956
 20
220.2473
  0
VERTEX
  8
LAYER_1
 10
134.6708
 20
220.2897
  0
VERTEX
  8
LAYER_1
 10
134.946
 20
220.3955
  0
VERTEX
  8
LAYER_1
 10
135.2
 20
220.5437
  0
VERTEX
  8
LAYER_1
 10
135.3905
 20
220.713
  0
SEQEND
  0
POLYLINE
  8
LAYER_1
 40
0.1764
 41
0.1764
 66
1
 10
0
 20
0
 30
0
  0
VERTEX
  8
LAYER_1
 10
135.3905
 20
229.0527
  0
VERTEX
  8
LAYER_1
 10
135.1576
 20
229.222
  0
VERTEX
  8
LAYER_1
 10
134.9248
 20
229.3702
  0
VERTEX
  8
LAYER_1
 10
134.6285
 20
229.4549
  0
VERTEX
  8
LAYER_1
 10
134.3533
 20
229.5184
  0
VERTEX
  8
LAYER_1
 10
134.057
 20
229.5184
  0
VERTEX
  8
LAYER_1
 10
133.7818
 20
229.4549
  0
VERTEX
  8
LAYER_1
 10
133.5066
 20
229.349
  0
VERTEX
  8
LAYER_1
 10
133.2526
 20
229.2009
  0
VERTEX
  8
LAYER_1
 10
133.0621
 20
229.0527
  0
SEQEND
  0
POLYLINE
  8
LAYER_1
 40
0.1764
 41
0.1764
 66
1
 10
0
 20
0
 30
0
  0
VERTEX
  8
LAYER_1
 10
131.39
 20
222.8509
  0
VERTEX
  8
LAYER_1
 10
133.0621
 20
220.713
  0
SEQEND
  0
POLYLINE
  8
LAYER_1
 40
0.1764
 41
0.1764
 66
1
 10
0
 20
0
 30
0
  0
VERTEX
  8
LAYER_1
 10
131.39
 20
226.8514
  0
VERTEX
  8
LAYER_1
 10
133.0621
 20
229.0527
  0
SEQEND
  0
POLYLINE
  8
LAYER_1
 40
0.1764
 41
0.1764
 66
1
 10
0
 20
0
 30
0
  0
VERTEX
  8
LAYER_1
 10
131.39
 20
226.8514
  0
VERTEX
  8
LAYER_1
 10
131.39
 20
226.4492
  0
VERTEX
  8
LAYER_1
 10
131.39
 20
222.8509
  0
SEQEND
  0
POLYLINE
  8
LAYER_1
 40
0.1764
 41
0.1764
 66
1
 10
0
 20
0
 30
0
  0
VERTEX
  8
LAYER_1
 10
135.3905
 20
229.0527
  0
VERTEX
  8
LAYER_1
 10
135.3905
 20
228.8622
  0
SEQEND
  0
POLYLINE
  8
LAYER_1
 40
0.1764
 41
0.1764
 66
1
 10
0
 20
0
 30
0
  0
VERTEX
  8
LAYER_1
 10
135.3905
 20
220.713
  0
VERTEX
  8
LAYER_1
 10
135.3905
 20
228.8622
  0
SEQEND
  0
POLYLINE
  8
LAYER_1
 40
0.1764
 41
0.1764
 66
1
 10
0
 20
0
 30
0
  0
VERTEX
  8
LAYER_1
 10
133.0621
 20
220.713
  0
VERTEX
  8
LAYER_1
 10
133.0621
 20
229.0527
  0
SEQEND
  0
POLYLINE
  8
LAYER_1
 40
0.1764
 41
0.1764
 66
1
 10
0
 20
0
 30
0
  0
VERTEX
  8
LAYER_1
 10
134.2263
 20
226.5339
  0
VERTEX
  8
LAYER_1
 10
134.1205
 20
226.5339
  0
VERTEX
  8
LAYER_1
 10
134.0146
 20
226.4915
  0
VERTEX
  8
LAYER_1
 10
133.9088
 20
226.4492
  0
VERTEX
  8
LAYER_1
 10
133.8241
 20
226.3857
  0
VERTEX
  8
LAYER_1
 10
133.7183
 20
226.301
  0
VERTEX
  8
LAYER_1
 10
133.6336
 20
226.2163
  0
VERTEX
  8
LAYER_1
 10
133.549
 20
226.1105
  0
VERTEX
  8
LAYER_1
 10
133.4855
 20
225.9835
  0
VERTEX
  8
LAYER_1
 10
133.422
 20
225.8354
  0
VERTEX
  8
LAYER_1
 10
133.3585
 20
225.6872
  0
VERTEX
  8
LAYER_1
 10
133.3161
 20
225.539
  0
VERTEX
  8
LAYER_1
 10
133.2738
 20
225.3909
  0
VERTEX
  8
LAYER_1
 10
133.2526
 20
225.2215
  0
VERTEX
  8
LAYER_1
 10
133.2315
 20
225.031
  0
VERTEX
  8
LAYER_1
 10
133.2315
 20
224.8617
  0
VERTEX
  8
LAYER_1
 10
133.2315
 20
224.6924
  0
VERTEX
  8
LAYER_1
 10
133.2526
 20
224.523
  0
VERTEX
  8
LAYER_1
 10
133.2738
 20
224.3537
  0
VERTEX
  8
LAYER_1
 10
133.3161
 20
224.1844
  0
VERTEX
  8
LAYER_1
 10
133.3585
 20
224.0362
  0
VERTEX
  8
LAYER_1
 10
133.422
 20
223.888
  0
VERTEX
  8
LAYER_1
 10
133.4855
 20
223.7399
  0
VERTEX
  8
LAYER_1
 10
133.549
 20
223.634
  0
VERTEX
  8
LAYER_1
 10
133.6336
 20
223.507
  0
VERTEX
  8
LAYER_1
 10
133.7183
 20
223.4223
  0
VERTEX
  8
LAYER_1
 10
133.8241
 20
223.3377
  0
VERTEX
  8
LAYER_1
 10
133.9088
 20
223.2954
  0
VERTEX
  8
LAYER_1
 10
134.0146
 20
223.2319
  0
VERTEX
  8
LAYER_1
 10
134.1205
 20
223.2107
  0
VERTEX
  8
LAYER_1
 10
134.2263
 20
223.1895
  0
VERTEX
  8
LAYER_1
 10
134.3321
 20
223.2107
  0
VERTEX
  8
LAYER_1
 10
134.438
 20
223.2319
  0
VERTEX
  8
LAYER_1
 10
134.5438
 20
223.2954
  0
VERTEX
  8
LAYER_1
 10
134.6285
 20
223.3377
  0
VERTEX
  8
LAYER_1
 10
134.7343
 20
223.4223
  0
VERTEX
  8
LAYER_1
 10
134.819
 20
223.507
  0
VERTEX
  8
LAYER_1
 10
134.9036
 20
223.634
  0
VERTEX
  8
LAYER_1
 10
134.9671
 20
223.7399
  0
VERTEX
  8
LAYER_1
 10
135.0306
 20
223.888
  0
VERTEX
  8
LAYER_1
 10
135.0941
 20
224.0362
  0
VERTEX
  8
LAYER_1
 10
135.1365
 20
224.1844
  0
VERTEX
  8
LAYER_1
 10
135.1788
 20
224.3537
  0
VERTEX
  8
LAYER_1
 10
135.2
 20
224.523
  0
VERTEX
  8
LAYER_1
 10
135.2211
 20
224.6924
  0
VERTEX
  8
LAYER_1
 10
135.2211
 20
224.8617
  0
VERTEX
  8
LAYER_1
 10
135.2211
 20
225.031
  0
VERTEX
  8
LAYER_1
 10
135.2
 20
225.2215
  0
VERTEX
  8
LAYER_1
 10
135.1788
 20
225.3909
  0
VERTEX
  8
LAYER_1
 10
135.1365
 20
225.539
  0
VERTEX
  8
LAYER_1
 10
135.0941
 20
225.6872
  0
VERTEX
  8
LAYER_1
 10
135.0306
 20
225.8354
  0
VERTEX
  8
LAYER_1
 10
134.9671
 20
225.9835
  0
VERTEX
  8
LAYER_1
 10
134.9036
 20
226.1105
  0
VERTEX
  8
LAYER_1
 10
134.819
 20
226.2163
  0
VERTEX
  8
LAYER_1
 10
134.7343
 20
226.301
  0
VERTEX
  8
LAYER_1
 10
134.6285
 20
226.3857
  0
VERTEX
  8
LAYER_1
 10
134.5438
 20
226.4492
  0
VERTEX
  8
LAYER_1
 10
134.438
 20
226.4915
  0
VERTEX
  8
LAYER_1
 10
134.3321
 20
226.5339
  0
VERTEX
  8
LAYER_1
 10
134.2263
 20
226.5339
  0
SEQEND
  0
POLYLINE
  8
LAYER_1
 40
0.1764
 41
0.1764
 66
1
 10
0
 20
0
 30
0
  0
VERTEX
  8
LAYER_1
 10
134.2263
 20
229.4972
  0
VERTEX
  8
LAYER_1
 10
134.1205
 20
229.4972
  0
VERTEX
  8
LAYER_1
 10
134.0146
 20
229.4972
  0
VERTEX
  8
LAYER_1
 10
133.9088
 20
229.4549
  0
VERTEX
  8
LAYER_1
 10
133.8241
 20
229.4337
  0
VERTEX
  8
LAYER_1
 10
133.7183
 20
229.3914
  0
VERTEX
  8
LAYER_1
 10
133.6336
 20
229.349
  0
VERTEX
  8
LAYER_1
 10
133.549
 20
229.2855
  0
VERTEX
  8
LAYER_1
 10
133.4855
 20
229.2432
  0
VERTEX
  8
LAYER_1
 10
133.422
 20
229.1585
  0
VERTEX
  8
LAYER_1
 10
133.3585
 20
229.095
  0
VERTEX
  8
LAYER_1
 10
133.3161
 20
229.0104
  0
VERTEX
  8
LAYER_1
 10
133.2738
 20
228.9257
  0
VERTEX
  8
LAYER_1
 10
133.2526
 20
228.841
  0
VERTEX
  8
LAYER_1
 10
133.2315
 20
228.7564
  0
VERTEX
  8
LAYER_1
 10
133.2315
 20
228.6717
  0
VERTEX
  8
LAYER_1
 10
133.2315
 20
228.587
  0
VERTEX
  8
LAYER_1
 10
133.2526
 20
228.5024
  0
VERTEX
  8
LAYER_1
 10
133.2738
 20
228.4177
  0
VERTEX
  8
LAYER_1
 10
133.3161
 20
228.333
  0
VERTEX
  8
LAYER_1
 10
133.3585
 20
228.2484
  0
VERTEX
  8
LAYER_1
 10
133.422
 20
228.1849
  0
VERTEX
  8
LAYER_1
 10
133.4855
 20
228.1214
  0
VERTEX
  8
LAYER_1
 10
133.549
 20
228.0579
  0
VERTEX
  8
LAYER_1
 10
133.6336
 20
227.9944
  0
VERTEX
  8
LAYER_1
 10
133.7183
 20
227.952
  0
VERTEX
  8
LAYER_1
 10
133.8241
 20
227.9097
  0
VERTEX
  8
LAYER_1
 10
133.9088
 20
227.8885
  0
VERTEX
  8
LAYER_1
 10
134.0146
 20
227.8462
  0
VERTEX
  8
LAYER_1
 10
134.1205
 20
227.8462
  0
VERTEX
  8
LAYER_1
 10
134.2263
 20
227.8462
  0
VERTEX
  8
LAYER_1
 10
134.3321
 20
227.8462
  0
VERTEX
  8
LAYER_1
 10
134.438
 20
227.8462
  0
VERTEX
  8
LAYER_1
 10
134.5438
 20
227.8885
  0
VERTEX
  8
LAYER_1
 10
134.6285
 20
227.9097
  0
VERTEX
  8
LAYER_1
 10
134.7343
 20
227.952
  0
VERTEX
  8
LAYER_1
 10
134.819
 20
227.9944
  0
VERTEX
  8
LAYER_1
 10
134.9036
 20
228.0579
  0
VERTEX
  8
LAYER_1
 10
134.9671
 20
228.1214
  0
VERTEX
  8
LAYER_1
 10
135.0306
 20
228.1849
  0
VERTEX
  8
LAYER_1
 10
135.0941
 20
228.2484
  0
VERTEX
  8
LAYER_1
 10
135.1365
 20
228.333
  0
VERTEX
  8
LAYER_1
 10
135.1788
 20
228.4177
  0
VERTEX
  8
LAYER_1
 10
135.2
 20
228.5024
  0
VERTEX
  8
LAYER_1
 10
135.2211
 20
228.587
  0
VERTEX
  8
LAYER_1
 10
135.2211
 20
228.6717
  0
VERTEX
  8
LAYER_1
 10
135.2211
 20
228.7564
  0
VERTEX
  8
LAYER_1
 10
135.2
 20
228.841
  0
VERTEX
  8
LAYER_1
 10
135.1788
 20
228.9257
  0
VERTEX
  8
LAYER_1
 10
135.1365
 20
229.0104
  0
VERTEX
  8
LAYER_1
 10
135.0941
 20
229.095
  0
VERTEX
  8
LAYER_1
 10
135.0306
 20
229.1585
  0
VERTEX
  8
LAYER_1
 10
134.9671
 20
229.2432
  0
VERTEX
  8
LAYER_1
 10
134.9036
 20
229.2855
  0
VERTEX
  8
LAYER_1
 10
134.819
 20
229.349
  0
VERTEX
  8
LAYER_1
 10
134.7343
 20
229.3914
  0
VERTEX
  8
LAYER_1
 10
134.6285
 20
229.4337
  0
VERTEX
  8
LAYER_1
 10
134.5438
 20
229.4549
  0
VERTEX
  8
LAYER_1
 10
134.438
 20
229.4972
  0
VERTEX
  8
LAYER_1
 10
134.3321
 20
229.4972
  0
VERTEX
  8
LAYER_1
 10
134.2263
 20
229.4972
  0
SEQEND
  0
POLYLINE
  8
LAYER_1
 40
0.1764
 41
0.1764
 66
1
 10
0
 20
0
 30
0
  0
VERTEX
  8
LAYER_1
 10
134.2263
 20
220.2262
  0
VERTEX
  8
LAYER_1
 10
134.3321
 20
220.2262
  0
VERTEX
  8
LAYER_1
 10
134.438
 20
220.2473
  0
VERTEX
  8
LAYER_1
 10
134.5438
 20
220.2685
  0
VERTEX
  8
LAYER_1
 10
134.6285
 20
220.2897
  0
VERTEX
  8
LAYER_1
 10
134.7343
 20
220.332
  0
VERTEX
  8
LAYER_1
 10
134.819
 20
220.3955
  0
VERTEX
  8
LAYER_1
 10
134.9036
 20
220.4378
  0
VERTEX
  8
LAYER_1
 10
134.9671
 20
220.5014
  0
VERTEX
  8
LAYER_1
 10
135.0306
 20
220.5649
  0
VERTEX
  8
LAYER_1
 10
135.0941
 20
220.6284
  0
VERTEX
  8
LAYER_1
 10
135.1365
 20
220.713
  0
VERTEX
  8
LAYER_1
 10
135.1788
 20
220.7977
  0
VERTEX
  8
LAYER_1
 10
135.2
 20
220.8823
  0
VERTEX
  8
LAYER_1
 10
135.2211
 20
220.967
  0
VERTEX
  8
LAYER_1
 10
135.2211
 20
221.0517
  0
VERTEX
  8
LAYER_1
 10
135.2211
 20
221.1575
  0
VERTEX
  8
LAYER_1
 10
135.2
 20
221.221
  0
VERTEX
  8
LAYER_1
 10
135.1788
 20
221.3268
  0
VERTEX
  8
LAYER_1
 10
135.1365
 20
221.3903
  0
VERTEX
  8
LAYER_1
 10
135.0941
 20
221.475
  0
VERTEX
  8
LAYER_1
 10
135.0306
 20
221.5385
  0
VERTEX
  8
LAYER_1
 10
134.9671
 20
221.6232
  0
VERTEX
  8
LAYER_1
 10
134.9036
 20
221.6867
  0
VERTEX
  8
LAYER_1
 10
134.819
 20
221.729
  0
VERTEX
  8
LAYER_1
 10
134.7343
 20
221.7714
  0
VERTEX
  8
LAYER_1
 10
134.6285
 20
221.8137
  0
VERTEX
  8
LAYER_1
 10
134.5438
 20
221.856
  0
VERTEX
  8
LAYER_1
 10
134.438
 20
221.8772
  0
VERTEX
  8
LAYER_1
 10
134.3321
 20
221.8772
  0
VERTEX
  8
LAYER_1
 10
134.2263
 20
221.8772
  0
VERTEX
  8
LAYER_1
 10
134.1205
 20
221.8772
  0
VERTEX
  8
LAYER_1
 10
134.0146
 20
221.8772
  0
VERTEX
  8
LAYER_1
 10
133.9088
 20
221.856
  0
VERTEX
  8
LAYER_1
 10
133.8241
 20
221.8137
  0
SEQEND
  0
POLYLINE
  8
LAYER_1
 40
0.1764
 41
0.1764
 66
1
 10
0
 20
0
 30
0
  0
VERTEX
  8
LAYER_1
 10
133.8241
 20
221.8137
  0
VERTEX
  8
LAYER_1
 10
133.7183
 20
221.7714
  0
VERTEX
  8
LAYER_1
 10
133.6336
 20
221.729
  0
VERTEX
  8
LAYER_1
 10
133.549
 20
221.6867
  0
VERTEX
  8
LAYER_1
 10
133.4855
 20
221.6232
  0
VERTEX
  8
LAYER_1
 10
133.422
 20
221.5385
  0
VERTEX
  8
LAYER_1
 10
133.3585
 20
221.475
  0
VERTEX
  8
LAYER_1
 10
133.3161
 20
221.3903
  0
VERTEX
  8
LAYER_1
 10
133.2738
 20
221.3268
  0
VERTEX
  8
LAYER_1
 10
133.2526
 20
221.221
  0
VERTEX
  8
LAYER_1
 10
133.2315
 20
221.1575
  0
VERTEX
  8
LAYER_1
 10
133.2315
 20
221.0517
  0
VERTEX
  8
LAYER_1
 10
133.2315
 20
220.967
  0
VERTEX
  8
LAYER_1
 10
133.2526
 20
220.8823
  0
VERTEX
  8
LAYER_1
 10
133.2738
 20
220.7977
  0
VERTEX
  8
LAYER_1
 10
133.3161
 20
220.713
  0
VERTEX
  8
LAYER_1
 10
133.3585
 20
220.6284
  0
VERTEX
  8
LAYER_1
 10
133.422
 20
220.5649
  0
VERTEX
  8
LAYER_1
 10
133.4855
 20
220.5014
  0
VERTEX
  8
LAYER_1
 10
133.549
 20
220.4378
  0
VERTEX
  8
LAYER_1
 10
133.6336
 20
220.3955
  0
VERTEX
  8
LAYER_1
 10
133.7183
 20
220.332
  0
VERTEX
  8
LAYER_1
 10
133.8241
 20
220.2897
  0
VERTEX
  8
LAYER_1
 10
133.9088
 20
220.2685
  0
VERTEX
  8
LAYER_1
 10
134.0146
 20
220.2473
  0
VERTEX
  8
LAYER_1
 10
134.1205
 20
220.2262
  0
VERTEX
  8
LAYER_1
 10
134.2263
 20
220.2262
  0
SEQEND
  0
POLYLINE
  8
LAYER_1
 40
0.1764
 41
0.1764
 66
1
 10
0
 20
0
 30
0
  0
VERTEX
  8
LAYER_1
 10
140.0683
 20
44.1619
  0
VERTEX
  8
LAYER_1
 10
140.0683
 20
51.2739
  0
SEQEND
  0
POLYLINE
  8
LAYER_1
 40
0.1764
 41
0.1764
 66
1
 10
0
 20
0
 30
0
  0
VERTEX
  8
LAYER_1
 10
140.0683
 20
56.9254
  0
VERTEX
  8
LAYER_1
 10
140.0683
 20
116.446
  0
SEQEND
  0
POLYLINE
  8
LAYER_1
 40
0.1764
 41
0.1764
 66
1
 10
0
 20
0
 30
0
  0
VERTEX
  8
LAYER_1
 10
147.0321
 20
44.1619
  0
VERTEX
  8
LAYER_1
 10
147.0321
 20
51.2739
  0
SEQEND
  0
POLYLINE
  8
LAYER_1
 40
0.1764
 41
0.1764
 66
1
 10
0
 20
0
 30
0
  0
VERTEX
  8
LAYER_1
 10
147.0321
 20
56.9254
  0
VERTEX
  8
LAYER_1
 10
147.0321
 20
116.446
  0
SEQEND
  0
POLYLINE
  8
LAYER_1
 40
0.1764
 41
0.1764
 66
1
 10
0
 20
0
 30
0
  0
VERTEX
  8
LAYER_1
 10
57.7723
 20
44.1619
  0
VERTEX
  8
LAYER_1
 10
57.7723
 20
51.2739
  0
SEQEND
  0
POLYLINE
  8
LAYER_1
 40
0.1764
 41
0.1764
 66
1
 10
0
 20
0
 30
0
  0
VERTEX
  8
LAYER_1
 10
57.7723
 20
56.9254
  0
VERTEX
  8
LAYER_1
 10
57.7723
 20
117.2504
  0
SEQEND
  0
POLYLINE
  8
LAYER_1
 40
0.1764
 41
0.1764
 66
1
 10
0
 20
0
 30
0
  0
VERTEX
  8
LAYER_1
 10
64.7573
 20
44.1619
  0
VERTEX
  8
LAYER_1
 10
64.7573
 20
51.2739
  0
SEQEND
  0
POLYLINE
  8
LAYER_1
 40
0.1764
 41
0.1764
 66
1
 10
0
 20
0
 30
0
  0
VERTEX
  8
LAYER_1
 10
64.7573
 20
56.9254
  0
VERTEX
  8
LAYER_1
 10
64.7573
 20
117.2504
  0
SEQEND
  0
POLYLINE
  8
LAYER_1
 40
0.1764
 41
0.1764
 66
1
 10
0
 20
0
 30
0
  0
VERTEX
  8
LAYER_1
 10
51.2106
 20
51.2739
  0
VERTEX
  8
LAYER_1
 10
71.192
 20
51.2739
  0
SEQEND
  0
POLYLINE
  8
LAYER_1
 40
0.1764
 41
0.1764
 66
1
 10
0
 20
0
 30
0
  0
VERTEX
  8
LAYER_1
 10
56.206
 20
56.9254
  0
VERTEX
  8
LAYER_1
 10
66.1966
 20
56.9254
  0
SEQEND
  0
POLYLINE
  8
LAYER_1
 40
0.1764
 41
0.1764
 66
1
 10
0
 20
0
 30
0
  0
VERTEX
  8
LAYER_1
 10
51.2106
 20
51.93
  0
VERTEX
  8
LAYER_1
 10
51.2106
 20
51.2739
  0
SEQEND
  0
POLYLINE
  8
LAYER_1
 40
0.1764
 41
0.1764
 66
1
 10
0
 20
0
 30
0
  0
VERTEX
  8
LAYER_1
 10
71.192
 20
51.93
  0
VERTEX
  8
LAYER_1
 10
71.192
 20
51.2739
  0
SEQEND
  0
POLYLINE
  8
LAYER_1
 40
0.1764
 41
0.1764
 66
1
 10
0
 20
0
 30
0
  0
VERTEX
  8
LAYER_1
 10
71.192
 20
51.93
  0
VERTEX
  8
LAYER_1
 10
71.1073
 20
52.7979
  0
VERTEX
  8
LAYER_1
 10
70.8956
 20
53.6445
  0
VERTEX
  8
LAYER_1
 10
70.5146
 20
54.4277
  0
VERTEX
  8
LAYER_1
 10
70.0278
 20
55.1473
  0
VERTEX
  8
LAYER_1
 10
69.414
 20
55.7612
  0
VERTEX
  8
LAYER_1
 10
68.6943
 20
56.2692
  0
VERTEX
  8
LAYER_1
 10
67.9111
 20
56.629
  0
VERTEX
  8
LAYER_1
 10
67.0645
 20
56.8618
  0
VERTEX
  8
LAYER_1
 10
66.1966
 20
56.9254
  0
SEQEND
  0
POLYLINE
  8
LAYER_1
 40
0.1764
 41
0.1764
 66
1
 10
0
 20
0
 30
0
  0
VERTEX
  8
LAYER_1
 10
56.206
 20
56.9254
  0
VERTEX
  8
LAYER_1
 10
55.3381
 20
56.8619
  0
VERTEX
  8
LAYER_1
 10
54.4915
 20
56.629
  0
VERTEX
  8
LAYER_1
 10
53.7083
 20
56.2692
  0
VERTEX
  8
LAYER_1
 10
52.9886
 20
55.7612
  0
VERTEX
  8
LAYER_1
 10
52.3748
 20
55.1474
  0
VERTEX
  8
LAYER_1
 10
51.8668
 20
54.4277
  0
VERTEX
  8
LAYER_1
 10
51.507
 20
53.6445
  0
VERTEX
  8
LAYER_1
 10
51.2741
 20
52.7979
  0
VERTEX
  8
LAYER_1
 10
51.2106
 20
51.93
  0
SEQEND
  0
POLYLINE
  8
LAYER_1
 40
0.1764
 41
0.1764
 66
1
 10
0
 20
0
 30
0
  0
VERTEX
  8
LAYER_1
 10
133.5066
 20
51.2739
  0
VERTEX
  8
LAYER_1
 10
153.488
 20
51.2739
  0
SEQEND
  0
POLYLINE
  8
LAYER_1
 40
0.1764
 41
0.1764
 66
1
 10
0
 20
0
 30
0
  0
VERTEX
  8
LAYER_1
 10
138.502
 20
56.9254
  0
VERTEX
  8
LAYER_1
 10
148.4926
 20
56.9254
  0
SEQEND
  0
POLYLINE
  8
LAYER_1
 40
0.1764
 41
0.1764
 66
1
 10
0
 20
0
 30
0
  0
VERTEX
  8
LAYER_1
 10
133.5066
 20
51.93
  0
VERTEX
  8
LAYER_1
 10
133.5066
 20
51.2739
  0
SEQEND
  0
POLYLINE
  8
LAYER_1
 40
0.1764
 41
0.1764
 66
1
 10
0
 20
0
 30
0
  0
VERTEX
  8
LAYER_1
 10
153.488
 20
51.93
  0
VERTEX
  8
LAYER_1
 10
153.488
 20
51.2739
  0
SEQEND
  0
POLYLINE
  8
LAYER_1
 40
0.1764
 41
0.1764
 66
1
 10
0
 20
0
 30
0
  0
VERTEX
  8
LAYER_1
 10
153.488
 20
51.93
  0
VERTEX
  8
LAYER_1
 10
153.4245
 20
52.7979
  0
VERTEX
  8
LAYER_1
 10
153.1916
 20
53.6445
  0
VERTEX
  8
LAYER_1
 10
152.8106
 20
54.4277
  0
VERTEX
  8
LAYER_1
 10
152.3238
 20
55.1473
  0
VERTEX
  8
LAYER_1
 10
151.71
 20
55.7612
  0
VERTEX
  8
LAYER_1
 10
150.9903
 20
56.2692
  0
VERTEX
  8
LAYER_1
 10
150.2071
 20
56.629
  0
VERTEX
  8
LAYER_1
 10
149.3605
 20
56.8618
  0
VERTEX
  8
LAYER_1
 10
148.4926
 20
56.9254
  0
SEQEND
  0
POLYLINE
  8
LAYER_1
 40
0.1764
 41
0.1764
 66
1
 10
0
 20
0
 30
0
  0
VERTEX
  8
LAYER_1
 10
138.502
 20
56.9254
  0
VERTEX
  8
LAYER_1
 10
137.6341
 20
56.8619
  0
VERTEX
  8
LAYER_1
 10
136.7875
 20
56.629
  0
VERTEX
  8
LAYER_1
 10
136.0043
 20
56.2692
  0
VERTEX
  8
LAYER_1
 10
135.2846
 20
55.7612
  0
VERTEX
  8
LAYER_1
 10
134.6708
 20
55.1474
  0
VERTEX
  8
LAYER_1
 10
134.1628
 20
54.4277
  0
VERTEX
  8
LAYER_1
 10
133.803
 20
53.6445
  0
VERTEX
  8
LAYER_1
 10
133.5701
 20
52.7979
  0
VERTEX
  8
LAYER_1
 10
133.5066
 20
51.93
  0
SEQEND
  0
POLYLINE
  8
LAYER_1
 40
0.1764
 41
0.1764
 66
1
 10
0
 20
0
 30
0
  0
VERTEX
  8
LAYER_1
 10
55.7615
 20
153.8898
  0
VERTEX
  8
LAYER_1
 10
53.0945
 20
153.8898
  0
SEQEND
  0
POLYLINE
  8
LAYER_1
 40
0.1764
 41
0.1764
 66
1
 10
0
 20
0
 30
0
  0
VERTEX
  8
LAYER_1
 10
55.2535
 20
145.91
  0
VERTEX
  8
LAYER_1
 10
53.0945
 20
145.91
  0
SEQEND
  0
POLYLINE
  8
LAYER_1
 40
0.1764
 41
0.1764
 66
1
 10
0
 20
0
 30
0
  0
VERTEX
  8
LAYER_1
 10
65.4135
 20
138.2265
  0
VERTEX
  8
LAYER_1
 10
57.095
 20
138.2265
  0
SEQEND
  0
POLYLINE
  8
LAYER_1
 40
0.1764
 41
0.1764
 66
1
 10
0
 20
0
 30
0
  0
VERTEX
  8
LAYER_1
 10
64.3551
 20
159.9012
  0
VERTEX
  8
LAYER_1
 10
58.1745
 20
159.9012
  0
SEQEND
  0
POLYLINE
  8
LAYER_1
 40
0.1764
 41
0.1764
 66
1
 10
0
 20
0
 30
0
  0
VERTEX
  8
LAYER_1
 10
57.7723
 20
159.499
  0
VERTEX
  8
LAYER_1
 10
57.7723
 20
155.9007
  0
SEQEND
  0
POLYLINE
  8
LAYER_1
 40
0.1764
 41
0.1764
 66
1
 10
0
 20
0
 30
0
  0
VERTEX
  8
LAYER_1
 10
56.4388
 20
138.6075
  0
VERTEX
  8
LAYER_1
 10
56.4388
 20
141.9095
  0
SEQEND
  0
POLYLINE
  8
LAYER_1
 40
0.1764
 41
0.1764
 66
1
 10
0
 20
0
 30
0
  0
VERTEX
  8
LAYER_1
 10
66.0696
 20
138.6075
  0
VERTEX
  8
LAYER_1
 10
66.0696
 20
141.9095
  0
SEQEND
  0
POLYLINE
  8
LAYER_1
 40
0.1764
 41
0.1764
 66
1
 10
0
 20
0
 30
0
  0
VERTEX
  8
LAYER_1
 10
64.7573
 20
159.499
  0
VERTEX
  8
LAYER_1
 10
64.7573
 20
156.1758
  0
SEQEND
  0
POLYLINE
  8
LAYER_1
 40
0.1764
 41
0.1764
 66
1
 10
0
 20
0
 30
0
  0
VERTEX
  8
LAYER_1
 10
65.3923
 20
145.1692
  0
VERTEX
  8
LAYER_1
 10
65.6463
 20
146.1428
  0
VERTEX
  8
LAYER_1
 10
65.858
 20
147.1165
  0
VERTEX
  8
LAYER_1
 10
65.985
 20
148.1113
  0
VERTEX
  8
LAYER_1
 10
66.0696
 20
149.085
  0
VERTEX
  8
LAYER_1
 10
66.0908
 20
150.101
  0
VERTEX
  8
LAYER_1
 10
66.0485
 20
151.0958
  0
VERTEX
  8
LAYER_1
 10
65.9426
 20
152.0907
  0
VERTEX
  8
LAYER_1
 10
65.7945
 20
153.0643
  0
VERTEX
  8
LAYER_1
 10
65.5616
 20
154.0592
  0
VERTEX
  8
LAYER_1
 10
65.2865
 20
155.0117
  0
VERTEX
  8
LAYER_1
 10
64.9478
 20
155.943
  0
VERTEX
  8
LAYER_1
 10
64.9478
 20
155.9642
  0
SEQEND
  0
POLYLINE
  8
LAYER_1
 40
0.1764
 41
0.1764
 66
1
 10
0
 20
0
 30
0
  0
VERTEX
  8
LAYER_1
 10
55.7615
 20
153.8898
  0
VERTEX
  8
LAYER_1
 10
56.1213
 20
153.9322
  0
VERTEX
  8
LAYER_1
 10
56.46
 20
154.0168
  0
VERTEX
  8
LAYER_1
 10
56.7775
 20
154.165
  0
VERTEX
  8
LAYER_1
 10
57.0526
 20
154.3767
  0
VERTEX
  8
LAYER_1
 10
57.3066
 20
154.6095
  0
VERTEX
  8
LAYER_1
 10
57.4971
 20
154.9058
  0
VERTEX
  8
LAYER_1
 10
57.6453
 20
155.2233
  0
VERTEX
  8
LAYER_1
 10
57.73
 20
155.5408
  0
VERTEX
  8
LAYER_1
 10
57.7723
 20
155.9007
  0
SEQEND
  0
POLYLINE
  8
LAYER_1
 40
0.1764
 41
0.1764
 66
1
 10
0
 20
0
 30
0
  0
VERTEX
  8
LAYER_1
 10
57.2643
 20
143.8992
  0
VERTEX
  8
LAYER_1
 10
57.222
 20
144.259
  0
VERTEX
  8
LAYER_1
 10
57.1373
 20
144.5765
  0
VERTEX
  8
LAYER_1
 10
56.9891
 20
144.894
  0
VERTEX
  8
LAYER_1
 10
56.7986
 20
145.1903
  0
VERTEX
  8
LAYER_1
 10
56.5446
 20
145.4232
  0
VERTEX
  8
LAYER_1
 10
56.2695
 20
145.6348
  0
VERTEX
  8
LAYER_1
 10
55.9308
 20
145.783
  0
VERTEX
  8
LAYER_1
 10
55.6133
 20
145.8677
  0
VERTEX
  8
LAYER_1
 10
55.2535
 20
145.91
  0
SEQEND
  0
POLYLINE
  8
LAYER_1
 40
0.1764
 41
0.1764
 66
1
 10
0
 20
0
 30
0
  0
VERTEX
  8
LAYER_1
 10
56.4388
 20
141.9095
  0
VERTEX
  8
LAYER_1
 10
56.7563
 20
142.2905
  0
VERTEX
  8
LAYER_1
 10
57.0103
 20
142.7138
  0
VERTEX
  8
LAYER_1
 10
57.1585
 20
143.1795
  0
VERTEX
  8
LAYER_1
 10
57.2431
 20
143.6663
  0
VERTEX
  8
LAYER_1
 10
57.2643
 20
143.8992
  0
SEQEND
  0
POLYLINE
  8
LAYER_1
 40
0.1764
 41
0.1764
 66
1
 10
0
 20
0
 30
0
  0
VERTEX
  8
LAYER_1
 10
65.3923
 20
145.1692
  0
VERTEX
  8
LAYER_1
 10
65.2865
 20
144.5553
  0
VERTEX
  8
LAYER_1
 10
65.2653
 20
143.9627
  0
VERTEX
  8
LAYER_1
 10
65.35
 20
143.3488
  0
VERTEX
  8
LAYER_1
 10
65.5405
 20
142.7562
  0
VERTEX
  8
LAYER_1
 10
65.8368
 20
142.227
  0
VERTEX
  8
LAYER_1
 10
66.0696
 20
141.9095
  0
SEQEND
  0
POLYLINE
  8
LAYER_1
 40
0.1764
 41
0.1764
 66
1
 10
0
 20
0
 30
0
  0
VERTEX
  8
LAYER_1
 10
58.1745
 20
159.9012
  0
VERTEX
  8
LAYER_1
 10
57.7723
 20
159.499
  0
SEQEND
  0
POLYLINE
  8
LAYER_1
 40
0.1764
 41
0.1764
 66
1
 10
0
 20
0
 30
0
  0
VERTEX
  8
LAYER_1
 10
58.1745
 20
156.578
  0
VERTEX
  8
LAYER_1
 10
57.7723
 20
156.1758
  0
SEQEND
  0
POLYLINE
  8
LAYER_1
 40
0.1764
 41
0.1764
 66
1
 10
0
 20
0
 30
0
  0
VERTEX
  8
LAYER_1
 10
64.3551
 20
159.9012
  0
VERTEX
  8
LAYER_1
 10
64.7573
 20
159.499
  0
SEQEND
  0
POLYLINE
  8
LAYER_1
 40
0.1764
 41
0.1764
 66
1
 10
0
 20
0
 30
0
  0
VERTEX
  8
LAYER_1
 10
64.3551
 20
156.578
  0
VERTEX
  8
LAYER_1
 10
64.9478
 20
155.9642
  0
SEQEND
  0
POLYLINE
  8
LAYER_1
 40
0.1764
 41
0.1764
 66
1
 10
0
 20
0
 30
0
  0
VERTEX
  8
LAYER_1
 10
57.095
 20
138.2265
  0
VERTEX
  8
LAYER_1
 10
56.4388
 20
138.6075
  0
SEQEND
  0
POLYLINE
  8
LAYER_1
 40
0.1764
 41
0.1764
 66
1
 10
0
 20
0
 30
0
  0
VERTEX
  8
LAYER_1
 10
65.4135
 20
138.2265
  0
VERTEX
  8
LAYER_1
 10
66.0696
 20
138.6075
  0
SEQEND
  0
POLYLINE
  8
LAYER_1
 40
0.1764
 41
0.1764
 66
1
 10
0
 20
0
 30
0
  0
VERTEX
  8
LAYER_1
 10
56.4388
 20
141.9095
  0
VERTEX
  8
LAYER_1
 10
66.0696
 20
141.9095
  0
SEQEND
  0
POLYLINE
  8
LAYER_1
 40
0.1764
 41
0.1764
 66
1
 10
0
 20
0
 30
0
  0
VERTEX
  8
LAYER_1
 10
58.746
 20
138.6075
  0
VERTEX
  8
LAYER_1
 10
58.746
 20
141.5285
  0
SEQEND
  0
POLYLINE
  8
LAYER_1
 40
0.1764
 41
0.1764
 66
1
 10
0
 20
0
 30
0
  0
VERTEX
  8
LAYER_1
 10
59.3175
 20
138.6075
  0
VERTEX
  8
LAYER_1
 10
59.3175
 20
141.5285
  0
SEQEND
  0
POLYLINE
  8
LAYER_1
 40
0.1764
 41
0.1764
 66
1
 10
0
 20
0
 30
0
  0
VERTEX
  8
LAYER_1
 10
56.4388
 20
138.6287
  0
VERTEX
  8
LAYER_1
 10
56.714
 20
138.4593
  0
VERTEX
  8
LAYER_1
 10
57.0103
 20
138.3323
  0
VERTEX
  8
LAYER_1
 10
57.349
 20
138.2477
  0
VERTEX
  8
LAYER_1
 10
57.6876
 20
138.2477
  0
VERTEX
  8
LAYER_1
 10
58.0051
 20
138.29
  0
VERTEX
  8
LAYER_1
 10
58.3226
 20
138.3958
  0
VERTEX
  8
LAYER_1
 10
58.619
 20
138.544
  0
VERTEX
  8
LAYER_1
 10
58.746
 20
138.6075
  0
SEQEND
  0
POLYLINE
  8
LAYER_1
 40
0.1764
 41
0.1764
 66
1
 10
0
 20
0
 30
0
  0
VERTEX
  8
LAYER_1
 10
59.3175
 20
138.6075
  0
VERTEX
  8
LAYER_1
 10
60.1853
 20
138.3535
  0
VERTEX
  8
LAYER_1
 10
61.0743
 20
138.2477
  0
VERTEX
  8
LAYER_1
 10
61.9633
 20
138.29
  0
VERTEX
  8
LAYER_1
 10
62.8311
 20
138.4805
  0
VERTEX
  8
LAYER_1
 10
63.191
 20
138.6075
  0
SEQEND
  0
POLYLINE
  8
LAYER_1
 40
0.1764
 41
0.1764
 66
1
 10
0
 20
0
 30
0
  0
VERTEX
  8
LAYER_1
 10
59.3175
 20
138.6075
  0
VERTEX
  8
LAYER_1
 10
58.746
 20
138.6075
  0
SEQEND
  0
POLYLINE
  8
LAYER_1
 40
0.1764
 41
0.1764
 66
1
 10
0
 20
0
 30
0
  0
VERTEX
  8
LAYER_1
 10
59.3175
 20
141.5285
  0
VERTEX
  8
LAYER_1
 10
58.746
 20
141.5285
  0
VERTEX
  8
LAYER_1
 10
58.4496
 20
141.6978
  0
VERTEX
  8
LAYER_1
 10
58.1321
 20
141.8248
  0
VERTEX
  8
LAYER_1
 10
57.7935
 20
141.8883
  0
VERTEX
  8
LAYER_1
 10
57.4548
 20
141.9095
  0
VERTEX
  8
LAYER_1
 10
57.1373
 20
141.846
  0
VERTEX
  8
LAYER_1
 10
56.8198
 20
141.7402
  0
VERTEX
  8
LAYER_1
 10
56.5023
 20
141.5708
  0
VERTEX
  8
LAYER_1
 10
56.4388
 20
141.5285
  0
SEQEND
  0
POLYLINE
  8
LAYER_1
 40
0.1764
 41
0.1764
 66
1
 10
0
 20
0
 30
0
  0
VERTEX
  8
LAYER_1
 10
63.191
 20
138.6075
  0
VERTEX
  8
LAYER_1
 10
63.191
 20
141.5285
  0
SEQEND
  0
POLYLINE
  8
LAYER_1
 40
0.1764
 41
0.1764
 66
1
 10
0
 20
0
 30
0
  0
VERTEX
  8
LAYER_1
 10
63.7625
 20
138.6075
  0
VERTEX
  8
LAYER_1
 10
63.7625
 20
141.5285
  0
SEQEND
  0
POLYLINE
  8
LAYER_1
 40
0.1764
 41
0.1764
 66
1
 10
0
 20
0
 30
0
  0
VERTEX
  8
LAYER_1
 10
63.7625
 20
138.6075
  0
VERTEX
  8
LAYER_1
 10
64.0376
 20
138.4382
  0
VERTEX
  8
LAYER_1
 10
64.3551
 20
138.3112
  0
VERTEX
  8
LAYER_1
 10
64.6938
 20
138.2477
  0
VERTEX
  8
LAYER_1
 10
65.0113
 20
138.2477
  0
VERTEX
  8
LAYER_1
 10
65.35
 20
138.29
  0
VERTEX
  8
LAYER_1
 10
65.6675
 20
138.3958
  0
VERTEX
  8
LAYER_1
 10
65.9638
 20
138.5652
  0
VERTEX
  8
LAYER_1
 10
66.0696
 20
138.6287
  0
SEQEND
  0
POLYLINE
  8
LAYER_1
 40
0.1764
 41
0.1764
 66
1
 10
0
 20
0
 30
0
  0
VERTEX
  8
LAYER_1
 10
66.0696
 20
141.5285
  0
VERTEX
  8
LAYER_1
 10
65.7945
 20
141.6978
  0
VERTEX
  8
LAYER_1
 10
65.477
 20
141.8248
  0
VERTEX
  8
LAYER_1
 10
65.1383
 20
141.8883
  0
VERTEX
  8
LAYER_1
 10
64.7996
 20
141.9095
  0
VERTEX
  8
LAYER_1
 10
64.461
 20
141.846
  0
VERTEX
  8
LAYER_1
 10
64.1434
 20
141.7402
  0
VERTEX
  8
LAYER_1
 10
63.8471
 20
141.5708
  0
VERTEX
  8
LAYER_1
 10
63.7625
 20
141.5285
  0
SEQEND
  0
POLYLINE
  8
LAYER_1
 40
0.1764
 41
0.1764
 66
1
 10
0
 20
0
 30
0
  0
VERTEX
  8
LAYER_1
 10
63.1909
 20
141.5285
  0
VERTEX
  8
LAYER_1
 10
63.7624
 20
141.5285
  0
SEQEND
  0
POLYLINE
  8
LAYER_1
 40
0.1764
 41
0.1764
 66
1
 10
0
 20
0
 30
0
  0
VERTEX
  8
LAYER_1
 10
63.1909
 20
138.6075
  0
VERTEX
  8
LAYER_1
 10
63.7624
 20
138.6075
  0
SEQEND
  0
POLYLINE
  8
LAYER_1
 40
0.1764
 41
0.1764
 66
1
 10
0
 20
0
 30
0
  0
VERTEX
  8
LAYER_1
 10
63.1909
 20
141.5285
  0
VERTEX
  8
LAYER_1
 10
62.3443
 20
141.8037
  0
VERTEX
  8
LAYER_1
 10
61.4553
 20
141.9095
  0
VERTEX
  8
LAYER_1
 10
60.5451
 20
141.846
  0
VERTEX
  8
LAYER_1
 10
59.6773
 20
141.6555
  0
VERTEX
  8
LAYER_1
 10
59.3175
 20
141.5285
  0
SEQEND
  0
POLYLINE
  8
LAYER_1
 40
0.1764
 41
0.1764
 66
1
 10
0
 20
0
 30
0
  0
VERTEX
  8
LAYER_1
 10
53.4543
 20
145.91
  0
VERTEX
  8
LAYER_1
 10
53.4543
 20
153.8898
  0
SEQEND
  0
POLYLINE
  8
LAYER_1
 40
0.1764
 41
0.1764
 66
1
 10
0
 20
0
 30
0
  0
VERTEX
  8
LAYER_1
 10
57.7723
 20
159.499
  0
VERTEX
  8
LAYER_1
 10
64.7573
 20
159.499
  0
SEQEND
  0
POLYLINE
  8
LAYER_1
 40
0.1764
 41
0.1764
 66
1
 10
0
 20
0
 30
0
  0
VERTEX
  8
LAYER_1
 10
57.7723
 20
156.578
  0
VERTEX
  8
LAYER_1
 10
64.7573
 20
156.578
  0
SEQEND
  0
POLYLINE
  8
LAYER_1
 40
0.1764
 41
0.1764
 66
1
 10
0
 20
0
 30
0
  0
VERTEX
  8
LAYER_1
 10
57.7723
 20
156.1758
  0
VERTEX
  8
LAYER_1
 10
64.7573
 20
156.1758
  0
SEQEND
  0
POLYLINE
  8
LAYER_1
 40
0.1764
 41
0.1764
 66
1
 10
0
 20
0
 30
0
  0
VERTEX
  8
LAYER_1
 10
56.3541
 20
148.4077
  0
VERTEX
  8
LAYER_1
 10
56.3541
 20
148.8945
  0
SEQEND
  0
POLYLINE
  8
LAYER_1
 40
0.1764
 41
0.1764
 66
1
 10
0
 20
0
 30
0
  0
VERTEX
  8
LAYER_1
 10
56.2271
 20
148.4077
  0
VERTEX
  8
LAYER_1
 10
56.2906
 20
148.9792
  0
SEQEND
  0
POLYLINE
  8
LAYER_1
 40
0.1764
 41
0.1764
 66
1
 10
0
 20
0
 30
0
  0
VERTEX
  8
LAYER_1
 10
56.1213
 20
148.8945
  0
VERTEX
  8
LAYER_1
 10
56.0366
 20
148.4077
  0
SEQEND
  0
POLYLINE
  8
LAYER_1
 40
0.1764
 41
0.1764
 66
1
 10
0
 20
0
 30
0
  0
VERTEX
  8
LAYER_1
 10
55.9943
 20
148.4077
  0
VERTEX
  8
LAYER_1
 10
55.9943
 20
148.9792
  0
SEQEND
  0
POLYLINE
  8
LAYER_1
 40
0.1764
 41
0.1764
 66
1
 10
0
 20
0
 30
0
  0
VERTEX
  8
LAYER_1
 10
55.9096
 20
148.9792
  0
VERTEX
  8
LAYER_1
 10
55.8884
 20
148.9792
  0
VERTEX
  8
LAYER_1
 10
55.8673
 20
148.9792
  0
VERTEX
  8
LAYER_1
 10
55.8461
 20
148.958
  0
VERTEX
  8
LAYER_1
 10
55.8249
 20
148.958
  0
SEQEND
  0
POLYLINE
  8
LAYER_1
 40
0.1764
 41
0.1764
 66
1
 10
0
 20
0
 30
0
  0
VERTEX
  8
LAYER_1
 10
55.825
 20
148.958
  0
VERTEX
  8
LAYER_1
 10
55.825
 20
148.9369
  0
VERTEX
  8
LAYER_1
 10
55.825
 20
148.9157
  0
VERTEX
  8
LAYER_1
 10
55.8038
 20
148.9157
  0
VERTEX
  8
LAYER_1
 10
55.8038
 20
148.8945
  0
SEQEND
  0
POLYLINE
  8
LAYER_1
 40
0.1764
 41
0.1764
 66
1
 10
0
 20
0
 30
0
  0
VERTEX
  8
LAYER_1
 10
56.206
 20
148.9792
  0
VERTEX
  8
LAYER_1
 10
56.1848
 20
148.9792
  0
VERTEX
  8
LAYER_1
 10
56.1636
 20
148.9792
  0
VERTEX
  8
LAYER_1
 10
56.1425
 20
148.9792
  0
VERTEX
  8
LAYER_1
 10
56.1425
 20
148.958
  0
VERTEX
  8
LAYER_1
 10
56.1213
 20
148.958
  0
VERTEX
  8
LAYER_1
 10
56.1213
 20
148.9369
  0
VERTEX
  8
LAYER_1
 10
56.1213
 20
148.9157
  0
VERTEX
  8
LAYER_1
 10
56.1213
 20
148.8945
  0
SEQEND
  0
POLYLINE
  8
LAYER_1
 40
0.1764
 41
0.1764
 66
1
 10
0
 20
0
 30
0
  0
VERTEX
  8
LAYER_1
 10
56.4388
 20
148.9792
  0
VERTEX
  8
LAYER_1
 10
56.4176
 20
148.9792
  0
VERTEX
  8
LAYER_1
 10
56.3965
 20
148.9792
  0
VERTEX
  8
LAYER_1
 10
56.3753
 20
148.958
  0
VERTEX
  8
LAYER_1
 10
56.3541
 20
148.9369
  0
VERTEX
  8
LAYER_1
 10
56.3541
 20
148.9157
  0
VERTEX
  8
LAYER_1
 10
56.3541
 20
148.8945
  0
SEQEND
  0
POLYLINE
  8
LAYER_1
 40
0.1764
 41
0.1764
 66
1
 10
0
 20
0
 30
0
  0
VERTEX
  8
LAYER_1
 10
55.8038
 20
149.1697
  0
VERTEX
  8
LAYER_1
 10
55.9943
 20
149.1697
  0
VERTEX
  8
LAYER_1
 10
55.9943
 20
149.4025
  0
SEQEND
  0
POLYLINE
  8
LAYER_1
 40
0.1764
 41
0.1764
 66
1
 10
0
 20
0
 30
0
  0
VERTEX
  8
LAYER_1
 10
55.9096
 20
149.593
  0
VERTEX
  8
LAYER_1
 10
56.1213
 20
149.593
  0
SEQEND
  0
POLYLINE
  8
LAYER_1
 40
0.1764
 41
0.1764
 66
1
 10
0
 20
0
 30
0
  0
VERTEX
  8
LAYER_1
 10
55.9943
 20
149.4025
  0
VERTEX
  8
LAYER_1
 10
56.1213
 20
149.4025
  0
SEQEND
  0
POLYLINE
  8
LAYER_1
 40
0.1764
 41
0.1764
 66
1
 10
0
 20
0
 30
0
  0
VERTEX
  8
LAYER_1
 10
56.3541
 20
149.0639
  0
VERTEX
  8
LAYER_1
 10
56.3541
 20
149.1909
  0
VERTEX
  8
LAYER_1
 10
56.3541
 20
149.2332
  0
VERTEX
  8
LAYER_1
 10
56.333
 20
149.2755
  0
VERTEX
  8
LAYER_1
 10
56.3118
 20
149.2967
  0
VERTEX
  8
LAYER_1
 10
56.2906
 20
149.339
  0
VERTEX
  8
LAYER_1
 10
56.2695
 20
149.3602
  0
VERTEX
  8
LAYER_1
 10
56.2483
 20
149.3814
  0
VERTEX
  8
LAYER_1
 10
56.206
 20
149.4025
  0
VERTEX
  8
LAYER_1
 10
56.1636
 20
149.4025
  0
VERTEX
  8
LAYER_1
 10
56.1213
 20
149.4025
  0
SEQEND
  0
POLYLINE
  8
LAYER_1
 40
0.1764
 41
0.1764
 66
1
 10
0
 20
0
 30
0
  0
VERTEX
  8
LAYER_1
 10
56.2483
 20
149.5719
  0
VERTEX
  8
LAYER_1
 10
56.2906
 20
149.6354
  0
VERTEX
  8
LAYER_1
 10
56.3118
 20
149.6989
  0
VERTEX
  8
LAYER_1
 10
56.333
 20
149.7624
  0
VERTEX
  8
LAYER_1
 10
56.3541
 20
149.847
  0
VERTEX
  8
LAYER_1
 10
56.3541
 20
149.8682
  0
SEQEND
  0
POLYLINE
  8
LAYER_1
 40
0.1764
 41
0.1764
 66
1
 10
0
 20
0
 30
0
  0
VERTEX
  8
LAYER_1
 10
56.3965
 20
149.4872
  0
VERTEX
  8
LAYER_1
 10
56.46
 20
149.5719
  0
VERTEX
  8
LAYER_1
 10
56.5023
 20
149.6777
  0
VERTEX
  8
LAYER_1
 10
56.5235
 20
149.7624
  0
VERTEX
  8
LAYER_1
 10
56.5235
 20
149.8682
  0
SEQEND
  0
POLYLINE
  8
LAYER_1
 40
0.1764
 41
0.1764
 66
1
 10
0
 20
0
 30
0
  0
VERTEX
  8
LAYER_1
 10
56.1001
 20
149.8047
  0
VERTEX
  8
LAYER_1
 10
56.1001
 20
149.9952
  0
SEQEND
  0
POLYLINE
  8
LAYER_1
 40
0.1764
 41
0.1764
 66
1
 10
0
 20
0
 30
0
  0
VERTEX
  8
LAYER_1
 10
55.8038
 20
149.9529
  0
VERTEX
  8
LAYER_1
 10
56.1001
 20
149.8047
  0
SEQEND
  0
POLYLINE
  8
LAYER_1
 40
0.1764
 41
0.1764
 66
1
 10
0
 20
0
 30
0
  0
VERTEX
  8
LAYER_1
 10
55.9943
 20
150.0799
  0
VERTEX
  8
LAYER_1
 10
56.1001
 20
149.9952
  0
SEQEND
  0
POLYLINE
  8
LAYER_1
 40
0.1764
 41
0.1764
 66
1
 10
0
 20
0
 30
0
  0
VERTEX
  8
LAYER_1
 10
55.9943
 20
150.0799
  0
VERTEX
  8
LAYER_1
 10
55.9943
 20
150.2069
  0
SEQEND
  0
POLYLINE
  8
LAYER_1
 40
0.1764
 41
0.1764
 66
1
 10
0
 20
0
 30
0
  0
VERTEX
  8
LAYER_1
 10
55.9096
 20
150.3974
  0
VERTEX
  8
LAYER_1
 10
55.8885
 20
150.3974
  0
VERTEX
  8
LAYER_1
 10
55.8673
 20
150.3974
  0
VERTEX
  8
LAYER_1
 10
55.8673
 20
150.3762
  0
VERTEX
  8
LAYER_1
 10
55.8461
 20
150.3762
  0
VERTEX
  8
LAYER_1
 10
55.825
 20
150.355
  0
VERTEX
  8
LAYER_1
 10
55.825
 20
150.3339
  0
VERTEX
  8
LAYER_1
 10
55.8038
 20
150.3127
  0
VERTEX
  8
LAYER_1
 10
55.8038
 20
150.2915
  0
SEQEND
  0
POLYLINE
  8
LAYER_1
 40
0.1764
 41
0.1764
 66
1
 10
0
 20
0
 30
0
  0
VERTEX
  8
LAYER_1
 10
56.3541
 20
149.9529
  0
VERTEX
  8
LAYER_1
 10
56.3541
 20
149.9952
  0
SEQEND
  0
POLYLINE
  8
LAYER_1
 40
0.1764
 41
0.1764
 66
1
 10
0
 20
0
 30
0
  0
VERTEX
  8
LAYER_1
 10
56.5235
 20
149.9952
  0
VERTEX
  8
LAYER_1
 10
56.5235
 20
150.0799
  0
VERTEX
  8
LAYER_1
 10
56.5023
 20
150.1222
  0
VERTEX
  8
LAYER_1
 10
56.4811
 20
150.1857
  0
VERTEX
  8
LAYER_1
 10
56.4388
 20
150.2492
  0
VERTEX
  8
LAYER_1
 10
56.3965
 20
150.2915
  0
VERTEX
  8
LAYER_1
 10
56.333
 20
150.3339
  0
VERTEX
  8
LAYER_1
 10
56.2695
 20
150.3762
  0
VERTEX
  8
LAYER_1
 10
56.206
 20
150.3974
  0
VERTEX
  8
LAYER_1
 10
56.1213
 20
150.3974
  0
SEQEND
  0
POLYLINE
  8
LAYER_1
 40
0.1764
 41
0.1764
 66
1
 10
0
 20
0
 30
0
  0
VERTEX
  8
LAYER_1
 10
56.2483
 20
150.101
  0
VERTEX
  8
LAYER_1
 10
56.2483
 20
150.1857
  0
SEQEND
  0
POLYLINE
  8
LAYER_1
 40
0.1764
 41
0.1764
 66
1
 10
0
 20
0
 30
0
  0
VERTEX
  8
LAYER_1
 10
56.0578
 20
150.101
  0
VERTEX
  8
LAYER_1
 10
56.0578
 20
150.2068
  0
SEQEND
  0
POLYLINE
  8
LAYER_1
 40
0.1764
 41
0.1764
 66
1
 10
0
 20
0
 30
0
  0
VERTEX
  8
LAYER_1
 10
56.2483
 20
150.101
  0
VERTEX
  8
LAYER_1
 10
56.0578
 20
150.101
  0
SEQEND
  0
POLYLINE
  8
LAYER_1
 40
0.1764
 41
0.1764
 66
1
 10
0
 20
0
 30
0
  0
VERTEX
  8
LAYER_1
 10
55.9943
 20
150.2068
  0
VERTEX
  8
LAYER_1
 10
56.0578
 20
150.2068
  0
SEQEND
  0
POLYLINE
  8
LAYER_1
 40
0.1764
 41
0.1764
 66
1
 10
0
 20
0
 30
0
  0
VERTEX
  8
LAYER_1
 10
56.3541
 20
149.9952
  0
VERTEX
  8
LAYER_1
 10
56.3541
 20
150.0375
  0
VERTEX
  8
LAYER_1
 10
56.333
 20
150.0798
  0
VERTEX
  8
LAYER_1
 10
56.3118
 20
150.101
  0
VERTEX
  8
LAYER_1
 10
56.2906
 20
150.1433
  0
VERTEX
  8
LAYER_1
 10
56.2695
 20
150.1645
  0
VERTEX
  8
LAYER_1
 10
56.2483
 20
150.1857
  0
SEQEND
  0
POLYLINE
  8
LAYER_1
 40
0.1764
 41
0.1764
 66
1
 10
0
 20
0
 30
0
  0
VERTEX
  8
LAYER_1
 10
55.9943
 20
150.482
  0
VERTEX
  8
LAYER_1
 10
55.9943
 20
150.9053
  0
SEQEND
  0
POLYLINE
  8
LAYER_1
 40
0.1764
 41
0.1764
 66
1
 10
0
 20
0
 30
0
  0
VERTEX
  8
LAYER_1
 10
56.3541
 20
150.482
  0
VERTEX
  8
LAYER_1
 10
56.3541
 20
150.8207
  0
SEQEND
  0
POLYLINE
  8
LAYER_1
 40
0.1764
 41
0.1764
 66
1
 10
0
 20
0
 30
0
  0
VERTEX
  8
LAYER_1
 10
55.9096
 20
150.9053
  0
VERTEX
  8
LAYER_1
 10
55.8885
 20
150.9053
  0
VERTEX
  8
LAYER_1
 10
55.8673
 20
150.9053
  0
VERTEX
  8
LAYER_1
 10
55.8461
 20
150.8842
  0
VERTEX
  8
LAYER_1
 10
55.825
 20
150.8842
  0
VERTEX
  8
LAYER_1
 10
55.825
 20
150.863
  0
VERTEX
  8
LAYER_1
 10
55.825
 20
150.8419
  0
VERTEX
  8
LAYER_1
 10
55.8038
 20
150.8419
  0
VERTEX
  8
LAYER_1
 10
55.8038
 20
150.8207
  0
SEQEND
  0
POLYLINE
  8
LAYER_1
 40
0.1764
 41
0.1764
 66
1
 10
0
 20
0
 30
0
  0
VERTEX
  8
LAYER_1
 10
56.4388
 20
150.9053
  0
VERTEX
  8
LAYER_1
 10
56.4176
 20
150.9053
  0
VERTEX
  8
LAYER_1
 10
56.3965
 20
150.9053
  0
VERTEX
  8
LAYER_1
 10
56.3753
 20
150.8842
  0
VERTEX
  8
LAYER_1
 10
56.3541
 20
150.863
  0
VERTEX
  8
LAYER_1
 10
56.3541
 20
150.8419
  0
VERTEX
  8
LAYER_1
 10
56.3541
 20
150.8207
  0
SEQEND
  0
POLYLINE
  8
LAYER_1
 40
0.1764
 41
0.1764
 66
1
 10
0
 20
0
 30
0
  0
VERTEX
  8
LAYER_1
 10
56.5235
 20
149.1909
  0
VERTEX
  8
LAYER_1
 10
56.5235
 20
149.2544
  0
VERTEX
  8
LAYER_1
 10
56.5023
 20
149.339
  0
VERTEX
  8
LAYER_1
 10
56.4811
 20
149.3814
  0
VERTEX
  8
LAYER_1
 10
56.4388
 20
149.4449
  0
VERTEX
  8
LAYER_1
 10
56.3965
 20
149.4872
  0
SEQEND
  0
POLYLINE
  8
LAYER_1
 40
0.1764
 41
0.1764
 66
1
 10
0
 20
0
 30
0
  0
VERTEX
  8
LAYER_1
 10
56.2483
 20
149.5719
  0
VERTEX
  8
LAYER_1
 10
56.1636
 20
149.593
  0
VERTEX
  8
LAYER_1
 10
56.1213
 20
149.593
  0
SEQEND
  0
POLYLINE
  8
LAYER_1
 40
0.1764
 41
0.1764
 66
1
 10
0
 20
0
 30
0
  0
VERTEX
  8
LAYER_1
 10
55.8673
 20
149.6988
  0
VERTEX
  8
LAYER_1
 10
55.8885
 20
149.6988
  0
VERTEX
  8
LAYER_1
 10
55.9096
 20
149.72
  0
VERTEX
  8
LAYER_1
 10
55.9308
 20
149.7412
  0
VERTEX
  8
LAYER_1
 10
55.9308
 20
149.7623
  0
VERTEX
  8
LAYER_1
 10
55.9096
 20
149.7835
  0
VERTEX
  8
LAYER_1
 10
55.8885
 20
149.7835
  0
VERTEX
  8
LAYER_1
 10
55.8885
 20
149.8047
  0
VERTEX
  8
LAYER_1
 10
55.8673
 20
149.8047
  0
VERTEX
  8
LAYER_1
 10
55.8461
 20
149.8047
  0
VERTEX
  8
LAYER_1
 10
55.8461
 20
149.7835
  0
VERTEX
  8
LAYER_1
 10
55.825
 20
149.7835
  0
VERTEX
  8
LAYER_1
 10
55.825
 20
149.7623
  0
VERTEX
  8
LAYER_1
 10
55.8038
 20
149.7623
  0
VERTEX
  8
LAYER_1
 10
55.8038
 20
149.7412
  0
VERTEX
  8
LAYER_1
 10
55.825
 20
149.7412
  0
VERTEX
  8
LAYER_1
 10
55.825
 20
149.72
  0
VERTEX
  8
LAYER_1
 10
55.8461
 20
149.6988
  0
VERTEX
  8
LAYER_1
 10
55.8673
 20
149.6988
  0
SEQEND
  0
POLYLINE
  8
LAYER_1
 40
0.1764
 41
0.1764
 66
1
 10
0
 20
0
 30
0
  0
VERTEX
  8
LAYER_1
 10
55.8673
 20
149.593
  0
VERTEX
  8
LAYER_1
 10
55.8885
 20
149.593
  0
VERTEX
  8
LAYER_1
 10
55.9096
 20
149.593
  0
VERTEX
  8
LAYER_1
 10
55.9096
 20
149.6142
  0
VERTEX
  8
LAYER_1
 10
55.9308
 20
149.6142
  0
VERTEX
  8
LAYER_1
 10
55.9308
 20
149.6353
  0
VERTEX
  8
LAYER_1
 10
55.9308
 20
149.6565
  0
VERTEX
  8
LAYER_1
 10
55.9096
 20
149.6777
  0
VERTEX
  8
LAYER_1
 10
55.8885
 20
149.6988
  0
VERTEX
  8
LAYER_1
 10
55.8673
 20
149.6988
  0
VERTEX
  8
LAYER_1
 10
55.8461
 20
149.6988
  0
VERTEX
  8
LAYER_1
 10
55.825
 20
149.6777
  0
VERTEX
  8
LAYER_1
 10
55.825
 20
149.6565
  0
VERTEX
  8
LAYER_1
 10
55.8038
 20
149.6565
  0
VERTEX
  8
LAYER_1
 10
55.8038
 20
149.6353
  0
VERTEX
  8
LAYER_1
 10
55.825
 20
149.6142
  0
VERTEX
  8
LAYER_1
 10
55.825
 20
149.593
  0
VERTEX
  8
LAYER_1
 10
55.8461
 20
149.593
  0
VERTEX
  8
LAYER_1
 10
55.8673
 20
149.593
  0
SEQEND
  0
POLYLINE
  8
LAYER_1
 40
0.1764
 41
0.1764
 66
1
 10
0
 20
0
 30
0
  0
VERTEX
  8
LAYER_1
 10
56.3541
 20
149.0638
  0
VERTEX
  8
LAYER_1
 10
56.5235
 20
149.0638
  0
SEQEND
  0
POLYLINE
  8
LAYER_1
 40
0.1764
 41
0.1764
 66
1
 10
0
 20
0
 30
0
  0
VERTEX
  8
LAYER_1
 10
56.3541
 20
149.8682
  0
VERTEX
  8
LAYER_1
 10
56.5235
 20
149.8682
  0
SEQEND
  0
POLYLINE
  8
LAYER_1
 40
0.1764
 41
0.1764
 66
1
 10
0
 20
0
 30
0
  0
VERTEX
  8
LAYER_1
 10
56.3541
 20
149.9528
  0
VERTEX
  8
LAYER_1
 10
56.5235
 20
149.9528
  0
SEQEND
  0
POLYLINE
  8
LAYER_1
 40
0.1764
 41
0.1764
 66
1
 10
0
 20
0
 30
0
  0
VERTEX
  8
LAYER_1
 10
55.9096
 20
150.3973
  0
VERTEX
  8
LAYER_1
 10
56.1213
 20
150.3973
  0
SEQEND
  0
POLYLINE
  8
LAYER_1
 40
0.1764
 41
0.1764
 66
1
 10
0
 20
0
 30
0
  0
VERTEX
  8
LAYER_1
 10
55.8038
 20
148.4077
  0
VERTEX
  8
LAYER_1
 10
55.8038
 20
148.8945
  0
SEQEND
  0
POLYLINE
  8
LAYER_1
 40
0.1764
 41
0.1764
 66
1
 10
0
 20
0
 30
0
  0
VERTEX
  8
LAYER_1
 10
55.8038
 20
149.1697
  0
VERTEX
  8
LAYER_1
 10
55.8038
 20
149.5083
  0
SEQEND
  0
POLYLINE
  8
LAYER_1
 40
0.1764
 41
0.1764
 66
1
 10
0
 20
0
 30
0
  0
VERTEX
  8
LAYER_1
 10
55.8038
 20
149.9528
  0
VERTEX
  8
LAYER_1
 10
55.8038
 20
150.2915
  0
SEQEND
  0
POLYLINE
  8
LAYER_1
 40
0.1764
 41
0.1764
 66
1
 10
0
 20
0
 30
0
  0
VERTEX
  8
LAYER_1
 10
55.8038
 20
150.482
  0
VERTEX
  8
LAYER_1
 10
55.8038
 20
150.8207
  0
SEQEND
  0
POLYLINE
  8
LAYER_1
 40
0.1764
 41
0.1764
 66
1
 10
0
 20
0
 30
0
  0
VERTEX
  8
LAYER_1
 10
56.5235
 20
150.482
  0
VERTEX
  8
LAYER_1
 10
56.5235
 20
150.9053
  0
SEQEND
  0
POLYLINE
  8
LAYER_1
 40
0.1764
 41
0.1764
 66
1
 10
0
 20
0
 30
0
  0
VERTEX
  8
LAYER_1
 10
56.5235
 20
149.9528
  0
VERTEX
  8
LAYER_1
 10
56.5235
 20
149.9952
  0
SEQEND
  0
POLYLINE
  8
LAYER_1
 40
0.1764
 41
0.1764
 66
1
 10
0
 20
0
 30
0
  0
VERTEX
  8
LAYER_1
 10
56.5235
 20
148.4077
  0
VERTEX
  8
LAYER_1
 10
56.5235
 20
148.9792
  0
SEQEND
  0
POLYLINE
  8
LAYER_1
 40
0.1764
 41
0.1764
 66
1
 10
0
 20
0
 30
0
  0
VERTEX
  8
LAYER_1
 10
55.9943
 20
148.9792
  0
VERTEX
  8
LAYER_1
 10
55.9096
 20
148.9792
  0
SEQEND
  0
POLYLINE
  8
LAYER_1
 40
0.1764
 41
0.1764
 66
1
 10
0
 20
0
 30
0
  0
VERTEX
  8
LAYER_1
 10
56.5235
 20
148.9792
  0
VERTEX
  8
LAYER_1
 10
56.4388
 20
148.9792
  0
SEQEND
  0
POLYLINE
  8
LAYER_1
 40
0.1764
 41
0.1764
 66
1
 10
0
 20
0
 30
0
  0
VERTEX
  8
LAYER_1
 10
56.2906
 20
148.9792
  0
VERTEX
  8
LAYER_1
 10
56.206
 20
148.9792
  0
SEQEND
  0
POLYLINE
  8
LAYER_1
 40
0.1764
 41
0.1764
 66
1
 10
0
 20
0
 30
0
  0
VERTEX
  8
LAYER_1
 10
56.5235
 20
148.4077
  0
VERTEX
  8
LAYER_1
 10
56.3541
 20
148.4077
  0
SEQEND
  0
POLYLINE
  8
LAYER_1
 40
0.1764
 41
0.1764
 66
1
 10
0
 20
0
 30
0
  0
VERTEX
  8
LAYER_1
 10
56.2271
 20
148.4077
  0
VERTEX
  8
LAYER_1
 10
56.0366
 20
148.4077
  0
SEQEND
  0
POLYLINE
  8
LAYER_1
 40
0.1764
 41
0.1764
 66
1
 10
0
 20
0
 30
0
  0
VERTEX
  8
LAYER_1
 10
55.9943
 20
148.4077
  0
VERTEX
  8
LAYER_1
 10
55.8038
 20
148.4077
  0
SEQEND
  0
POLYLINE
  8
LAYER_1
 40
0.1764
 41
0.1764
 66
1
 10
0
 20
0
 30
0
  0
VERTEX
  8
LAYER_1
 10
55.9943
 20
150.9053
  0
VERTEX
  8
LAYER_1
 10
55.9096
 20
150.9053
  0
SEQEND
  0
POLYLINE
  8
LAYER_1
 40
0.1764
 41
0.1764
 66
1
 10
0
 20
0
 30
0
  0
VERTEX
  8
LAYER_1
 10
56.5235
 20
150.482
  0
VERTEX
  8
LAYER_1
 10
56.3541
 20
150.482
  0
SEQEND
  0
POLYLINE
  8
LAYER_1
 40
0.1764
 41
0.1764
 66
1
 10
0
 20
0
 30
0
  0
VERTEX
  8
LAYER_1
 10
55.9943
 20
150.482
  0
VERTEX
  8
LAYER_1
 10
55.8038
 20
150.482
  0
SEQEND
  0
POLYLINE
  8
LAYER_1
 40
0.1764
 41
0.1764
 66
1
 10
0
 20
0
 30
0
  0
VERTEX
  8
LAYER_1
 10
56.5235
 20
149.0639
  0
VERTEX
  8
LAYER_1
 10
56.5235
 20
149.1909
  0
SEQEND
  0
POLYLINE
  8
LAYER_1
 40
0.1764
 41
0.1764
 66
1
 10
0
 20
0
 30
0
  0
VERTEX
  8
LAYER_1
 10
56.5235
 20
149.847
  0
VERTEX
  8
LAYER_1
 10
56.5235
 20
149.8682
  0
SEQEND
  0
POLYLINE
  8
LAYER_1
 40
0.1764
 41
0.1764
 66
1
 10
0
 20
0
 30
0
  0
VERTEX
  8
LAYER_1
 10
55.9096
 20
149.593
  0
VERTEX
  8
LAYER_1
 10
55.8885
 20
149.593
  0
VERTEX
  8
LAYER_1
 10
55.8673
 20
149.5719
  0
VERTEX
  8
LAYER_1
 10
55.8461
 20
149.5719
  0
VERTEX
  8
LAYER_1
 10
55.825
 20
149.5507
  0
VERTEX
  8
LAYER_1
 10
55.825
 20
149.5295
  0
VERTEX
  8
LAYER_1
 10
55.8038
 20
149.5084
  0
SEQEND
  0
POLYLINE
  8
LAYER_1
 40
0.1764
 41
0.1764
 66
1
 10
0
 20
0
 30
0
  0
VERTEX
  8
LAYER_1
 10
55.317
 20
149.0004
  0
VERTEX
  8
LAYER_1
 10
54.936
 20
149.0004
  0
SEQEND
  0
POLYLINE
  8
LAYER_1
 40
0.1764
 41
0.1764
 66
1
 10
0
 20
0
 30
0
  0
VERTEX
  8
LAYER_1
 10
54.936
 20
149.085
  0
VERTEX
  8
LAYER_1
 10
55.317
 20
149.085
  0
SEQEND
  0
POLYLINE
  8
LAYER_1
 40
0.1764
 41
0.1764
 66
1
 10
0
 20
0
 30
0
  0
VERTEX
  8
LAYER_1
 10
54.936
 20
149.085
  0
VERTEX
  8
LAYER_1
 10
54.936
 20
149.0004
  0
SEQEND
  0
POLYLINE
  8
LAYER_1
 40
0.1764
 41
0.1764
 66
1
 10
0
 20
0
 30
0
  0
VERTEX
  8
LAYER_1
 10
55.317
 20
149.085
  0
VERTEX
  8
LAYER_1
 10
55.317
 20
149.0004
  0
SEQEND
  0
POLYLINE
  8
LAYER_1
 40
0.1764
 41
0.1764
 66
1
 10
0
 20
0
 30
0
  0
VERTEX
  8
LAYER_1
 10
55.3805
 20
148.7887
  0
VERTEX
  8
LAYER_1
 10
55.4016
 20
148.7464
  0
SEQEND
  0
POLYLINE
  8
LAYER_1
 40
0.1764
 41
0.1764
 66
1
 10
0
 20
0
 30
0
  0
VERTEX
  8
LAYER_1
 10
54.936
 20
149.2332
  0
VERTEX
  8
LAYER_1
 10
54.936
 20
149.2967
  0
SEQEND
  0
POLYLINE
  8
LAYER_1
 40
0.1764
 41
0.1764
 66
1
 10
0
 20
0
 30
0
  0
VERTEX
  8
LAYER_1
 10
55.317
 20
149.1485
  0
VERTEX
  8
LAYER_1
 10
55.317
 20
149.1909
  0
SEQEND
  0
POLYLINE
  8
LAYER_1
 40
0.1764
 41
0.1764
 66
1
 10
0
 20
0
 30
0
  0
VERTEX
  8
LAYER_1
 10
55.317
 20
149.1485
  0
VERTEX
  8
LAYER_1
 10
55.2323
 20
149.1485
  0
SEQEND
  0
POLYLINE
  8
LAYER_1
 40
0.1764
 41
0.1764
 66
1
 10
0
 20
0
 30
0
  0
VERTEX
  8
LAYER_1
 10
54.9995
 20
149.2967
  0
VERTEX
  8
LAYER_1
 10
54.936
 20
149.2967
  0
SEQEND
  0
POLYLINE
  8
LAYER_1
 40
0.1764
 41
0.1764
 66
1
 10
0
 20
0
 30
0
  0
VERTEX
  8
LAYER_1
 10
54.9995
 20
149.2544
  0
VERTEX
  8
LAYER_1
 10
54.9995
 20
149.2967
  0
SEQEND
  0
POLYLINE
  8
LAYER_1
 40
0.1764
 41
0.1764
 66
1
 10
0
 20
0
 30
0
  0
VERTEX
  8
LAYER_1
 10
55.1053
 20
149.1697
  0
VERTEX
  8
LAYER_1
 10
55.1688
 20
149.212
  0
SEQEND
  0
POLYLINE
  8
LAYER_1
 40
0.1764
 41
0.1764
 66
1
 10
0
 20
0
 30
0
  0
VERTEX
  8
LAYER_1
 10
54.9995
 20
149.2544
  0
VERTEX
  8
LAYER_1
 10
54.9995
 20
149.2332
  0
VERTEX
  8
LAYER_1
 10
55.0206
 20
149.2332
  0
VERTEX
  8
LAYER_1
 10
55.0206
 20
149.212
  0
VERTEX
  8
LAYER_1
 10
55.0418
 20
149.212
  0
VERTEX
  8
LAYER_1
 10
55.063
 20
149.212
  0
VERTEX
  8
LAYER_1
 10
55.063
 20
149.2332
  0
VERTEX
  8
LAYER_1
 10
55.1265
 20
149.2755
  0
SEQEND
  0
POLYLINE
  8
LAYER_1
 40
0.1764
 41
0.1764
 66
1
 10
0
 20
0
 30
0
  0
VERTEX
  8
LAYER_1
 10
55.317
 20
149.1909
  0
VERTEX
  8
LAYER_1
 10
55.2958
 20
149.212
  0
VERTEX
  8
LAYER_1
 10
55.2958
 20
149.2332
  0
VERTEX
  8
LAYER_1
 10
55.2958
 20
149.2544
  0
VERTEX
  8
LAYER_1
 10
55.2746
 20
149.2755
  0
VERTEX
  8
LAYER_1
 10
55.2746
 20
149.2967
  0
VERTEX
  8
LAYER_1
 10
55.2535
 20
149.2967
  0
VERTEX
  8
LAYER_1
 10
55.2323
 20
149.3179
  0
VERTEX
  8
LAYER_1
 10
55.2111
 20
149.3179
  0
VERTEX
  8
LAYER_1
 10
55.19
 20
149.3179
  0
VERTEX
  8
LAYER_1
 10
55.1688
 20
149.3179
  0
VERTEX
  8
LAYER_1
 10
55.1476
 20
149.2967
  0
VERTEX
  8
LAYER_1
 10
55.1265
 20
149.2967
  0
VERTEX
  8
LAYER_1
 10
55.1265
 20
149.2755
  0
SEQEND
  0
POLYLINE
  8
LAYER_1
 40
0.1764
 41
0.1764
 66
1
 10
0
 20
0
 30
0
  0
VERTEX
  8
LAYER_1
 10
55.2323
 20
149.1909
  0
VERTEX
  8
LAYER_1
 10
55.2323
 20
149.212
  0
VERTEX
  8
LAYER_1
 10
55.2111
 20
149.2332
  0
VERTEX
  8
LAYER_1
 10
55.19
 20
149.2332
  0
VERTEX
  8
LAYER_1
 10
55.1688
 20
149.2332
  0
VERTEX
  8
LAYER_1
 10
55.1688
 20
149.212
  0
SEQEND
  0
POLYLINE
  8
LAYER_1
 40
0.1764
 41
0.1764
 66
1
 10
0
 20
0
 30
0
  0
VERTEX
  8
LAYER_1
 10
54.936
 20
149.2332
  0
VERTEX
  8
LAYER_1
 10
54.936
 20
149.212
  0
VERTEX
  8
LAYER_1
 10
54.936
 20
149.1909
  0
VERTEX
  8
LAYER_1
 10
54.9571
 20
149.1909
  0
VERTEX
  8
LAYER_1
 10
54.9783
 20
149.1697
  0
VERTEX
  8
LAYER_1
 10
54.9783
 20
149.1485
  0
VERTEX
  8
LAYER_1
 10
54.9995
 20
149.1485
  0
VERTEX
  8
LAYER_1
 10
55.0206
 20
149.1485
  0
VERTEX
  8
LAYER_1
 10
55.0418
 20
149.1485
  0
VERTEX
  8
LAYER_1
 10
55.063
 20
149.1485
  0
VERTEX
  8
LAYER_1
 10
55.0841
 20
149.1485
  0
VERTEX
  8
LAYER_1
 10
55.1053
 20
149.1697
  0
SEQEND
  0
POLYLINE
  8
LAYER_1
 40
0.1764
 41
0.1764
 66
1
 10
0
 20
0
 30
0
  0
VERTEX
  8
LAYER_1
 10
55.2323
 20
149.1909
  0
VERTEX
  8
LAYER_1
 10
55.2323
 20
149.1485
  0
SEQEND
  0
POLYLINE
  8
LAYER_1
 40
0.1764
 41
0.1764
 66
1
 10
0
 20
0
 30
0
  0
VERTEX
  8
LAYER_1
 10
55.1688
 20
148.831
  0
VERTEX
  8
LAYER_1
 10
54.936
 20
148.831
  0
SEQEND
  0
POLYLINE
  8
LAYER_1
 40
0.1764
 41
0.1764
 66
1
 10
0
 20
0
 30
0
  0
VERTEX
  8
LAYER_1
 10
55.1688
 20
148.9157
  0
VERTEX
  8
LAYER_1
 10
54.936
 20
148.9157
  0
VERTEX
  8
LAYER_1
 10
54.936
 20
148.831
  0
SEQEND
  0
POLYLINE
  8
LAYER_1
 40
0.1764
 41
0.1764
 66
1
 10
0
 20
0
 30
0
  0
VERTEX
  8
LAYER_1
 10
55.19
 20
148.6194
  0
VERTEX
  8
LAYER_1
 10
55.2111
 20
148.6405
  0
VERTEX
  8
LAYER_1
 10
55.2323
 20
148.6405
  0
VERTEX
  8
LAYER_1
 10
55.2535
 20
148.6617
  0
VERTEX
  8
LAYER_1
 10
55.2746
 20
148.6617
  0
VERTEX
  8
LAYER_1
 10
55.2958
 20
148.704
  0
VERTEX
  8
LAYER_1
 10
55.2958
 20
148.7252
  0
VERTEX
  8
LAYER_1
 10
55.2958
 20
148.7464
  0
VERTEX
  8
LAYER_1
 10
55.317
 20
148.7675
  0
VERTEX
  8
LAYER_1
 10
55.2958
 20
148.8099
  0
VERTEX
  8
LAYER_1
 10
55.2958
 20
148.831
  0
VERTEX
  8
LAYER_1
 10
55.2746
 20
148.8522
  0
VERTEX
  8
LAYER_1
 10
55.2535
 20
148.8734
  0
VERTEX
  8
LAYER_1
 10
55.2323
 20
148.8945
  0
VERTEX
  8
LAYER_1
 10
55.2111
 20
148.9157
  0
VERTEX
  8
LAYER_1
 10
55.19
 20
148.9157
  0
VERTEX
  8
LAYER_1
 10
55.1688
 20
148.9157
  0
SEQEND
  0
POLYLINE
  8
LAYER_1
 40
0.1764
 41
0.1764
 66
1
 10
0
 20
0
 30
0
  0
VERTEX
  8
LAYER_1
 10
55.1688
 20
148.6829
  0
VERTEX
  8
LAYER_1
 10
55.19
 20
148.6829
  0
VERTEX
  8
LAYER_1
 10
55.2111
 20
148.6829
  0
VERTEX
  8
LAYER_1
 10
55.2111
 20
148.704
  0
VERTEX
  8
LAYER_1
 10
55.2323
 20
148.7252
  0
VERTEX
  8
LAYER_1
 10
55.2323
 20
148.7464
  0
VERTEX
  8
LAYER_1
 10
55.2323
 20
148.7675
  0
VERTEX
  8
LAYER_1
 10
55.2323
 20
148.7887
  0
VERTEX
  8
LAYER_1
 10
55.2323
 20
148.8099
  0
VERTEX
  8
LAYER_1
 10
55.2111
 20
148.8099
  0
VERTEX
  8
LAYER_1
 10
55.2111
 20
148.831
  0
VERTEX
  8
LAYER_1
 10
55.19
 20
148.831
  0
VERTEX
  8
LAYER_1
 10
55.1688
 20
148.831
  0
SEQEND
  0
POLYLINE
  8
LAYER_1
 40
0.1764
 41
0.1764
 66
1
 10
0
 20
0
 30
0
  0
VERTEX
  8
LAYER_1
 10
55.3805
 20
148.7887
  0
VERTEX
  8
LAYER_1
 10
55.4016
 20
148.831
  0
VERTEX
  8
LAYER_1
 10
55.444
 20
148.8734
  0
VERTEX
  8
LAYER_1
 10
55.4651
 20
148.9369
  0
VERTEX
  8
LAYER_1
 10
55.4863
 20
149.0004
  0
VERTEX
  8
LAYER_1
 10
55.4863
 20
149.0639
  0
VERTEX
  8
LAYER_1
 10
55.4651
 20
149.1274
  0
VERTEX
  8
LAYER_1
 10
55.444
 20
149.1909
  0
VERTEX
  8
LAYER_1
 10
55.4016
 20
149.2332
  0
VERTEX
  8
LAYER_1
 10
55.3805
 20
149.2967
  0
VERTEX
  8
LAYER_1
 10
55.317
 20
149.339
  0
VERTEX
  8
LAYER_1
 10
55.2746
 20
149.3602
  0
VERTEX
  8
LAYER_1
 10
55.2111
 20
149.3814
  0
VERTEX
  8
LAYER_1
 10
55.1476
 20
149.3814
  0
VERTEX
  8
LAYER_1
 10
55.0841
 20
149.3814
  0
VERTEX
  8
LAYER_1
 10
55.0206
 20
149.3814
  0
VERTEX
  8
LAYER_1
 10
54.9783
 20
149.3602
  0
VERTEX
  8
LAYER_1
 10
54.9148
 20
149.339
  0
VERTEX
  8
LAYER_1
 10
54.8725
 20
149.2967
  0
VERTEX
  8
LAYER_1
 10
54.8301
 20
149.2332
  0
VERTEX
  8
LAYER_1
 10
54.7878
 20
149.1909
  0
VERTEX
  8
LAYER_1
 10
54.7666
 20
149.1274
  0
VERTEX
  8
LAYER_1
 10
54.7666
 20
149.0639
  0
VERTEX
  8
LAYER_1
 10
54.7666
 20
149.0004
  0
VERTEX
  8
LAYER_1
 10
54.7666
 20
148.9369
  0
VERTEX
  8
LAYER_1
 10
54.7878
 20
148.8734
  0
VERTEX
  8
LAYER_1
 10
54.8301
 20
148.831
  0
VERTEX
  8
LAYER_1
 10
54.8725
 20
148.7887
  0
VERTEX
  8
LAYER_1
 10
54.9148
 20
148.7464
  0
VERTEX
  8
LAYER_1
 10
54.9783
 20
148.704
  0
VERTEX
  8
LAYER_1
 10
55.0206
 20
148.6829
  0
VERTEX
  8
LAYER_1
 10
55.0841
 20
148.6829
  0
VERTEX
  8
LAYER_1
 10
55.1476
 20
148.6829
  0
VERTEX
  8
LAYER_1
 10
55.1688
 20
148.6829
  0
SEQEND
  0
POLYLINE
  8
LAYER_1
 40
0.1764
 41
0.1764
 66
1
 10
0
 20
0
 30
0
  0
VERTEX
  8
LAYER_1
 10
55.4016
 20
148.7464
  0
VERTEX
  8
LAYER_1
 10
55.4651
 20
148.8099
  0
VERTEX
  8
LAYER_1
 10
55.5075
 20
148.8522
  0
VERTEX
  8
LAYER_1
 10
55.5286
 20
148.9369
  0
VERTEX
  8
LAYER_1
 10
55.5286
 20
149.0004
  0
VERTEX
  8
LAYER_1
 10
55.5286
 20
149.0639
  0
VERTEX
  8
LAYER_1
 10
55.5286
 20
149.1485
  0
VERTEX
  8
LAYER_1
 10
55.5075
 20
149.212
  0
VERTEX
  8
LAYER_1
 10
55.4651
 20
149.2755
  0
VERTEX
  8
LAYER_1
 10
55.4016
 20
149.339
  0
VERTEX
  8
LAYER_1
 10
55.3593
 20
149.3814
  0
VERTEX
  8
LAYER_1
 10
55.2958
 20
149.4025
  0
VERTEX
  8
LAYER_1
 10
55.2323
 20
149.4449
  0
VERTEX
  8
LAYER_1
 10
55.1476
 20
149.4449
  0
VERTEX
  8
LAYER_1
 10
55.0841
 20
149.4449
  0
VERTEX
  8
LAYER_1
 10
55.0206
 20
149.4449
  0
VERTEX
  8
LAYER_1
 10
54.936
 20
149.4025
  0
VERTEX
  8
LAYER_1
 10
54.8725
 20
149.3814
  0
VERTEX
  8
LAYER_1
 10
54.8301
 20
149.339
  0
VERTEX
  8
LAYER_1
 10
54.7878
 20
149.2755
  0
VERTEX
  8
LAYER_1
 10
54.7455
 20
149.212
  0
VERTEX
  8
LAYER_1
 10
54.7243
 20
149.1485
  0
VERTEX
  8
LAYER_1
 10
54.7031
 20
149.0639
  0
VERTEX
  8
LAYER_1
 10
54.7031
 20
149.0004
  0
VERTEX
  8
LAYER_1
 10
54.7243
 20
148.9369
  0
VERTEX
  8
LAYER_1
 10
54.7455
 20
148.8522
  0
VERTEX
  8
LAYER_1
 10
54.7878
 20
148.8099
  0
VERTEX
  8
LAYER_1
 10
54.8301
 20
148.7464
  0
VERTEX
  8
LAYER_1
 10
54.8725
 20
148.6829
  0
VERTEX
  8
LAYER_1
 10
54.936
 20
148.6617
  0
VERTEX
  8
LAYER_1
 10
55.0206
 20
148.6405
  0
VERTEX
  8
LAYER_1
 10
55.0841
 20
148.6194
  0
VERTEX
  8
LAYER_1
 10
55.1476
 20
148.6194
  0
VERTEX
  8
LAYER_1
 10
55.19
 20
148.6194
  0
SEQEND
  0
POLYLINE
  8
LAYER_1
 40
0.1764
 41
0.1764
 66
1
 10
0
 20
0
 30
0
  0
VERTEX
  8
LAYER_1
 10
55.1688
 20
148.6829
  0
SEQEND
  0
POLYLINE
  8
LAYER_1
 40
0.1764
 41
0.1764
 66
1
 10
0
 20
0
 30
0
  0
VERTEX
  8
LAYER_1
 10
55.19
 20
148.6194
  0
SEQEND
  0
POLYLINE
  8
LAYER_1
 40
0.1764
 41
0.1764
 66
1
 10
0
 20
0
 30
0
  0
VERTEX
  8
LAYER_1
 10
56.4388
 20
150.9054
  0
VERTEX
  8
LAYER_1
 10
56.5235
 20
150.9054
  0
SEQEND
  0
POLYLINE
  8
LAYER_1
 40
0.1764
 41
0.1764
 66
1
 10
0
 20
0
 30
0
  0
VERTEX
  8
LAYER_1
 10
54.9783
 20
149.9529
  0
VERTEX
  8
LAYER_1
 10
54.9783
 20
149.7835
  0
SEQEND
  0
POLYLINE
  8
LAYER_1
 40
0.1764
 41
0.1764
 66
1
 10
0
 20
0
 30
0
  0
VERTEX
  8
LAYER_1
 10
54.9783
 20
149.8682
  0
VERTEX
  8
LAYER_1
 10
55.3805
 20
149.8682
  0
SEQEND
  0
POLYLINE
  8
LAYER_1
 40
0.1764
 41
0.1764
 66
1
 10
0
 20
0
 30
0
  0
VERTEX
  8
LAYER_1
 10
54.9783
 20
150.5244
  0
VERTEX
  8
LAYER_1
 10
54.9783
 20
150.6937
  0
SEQEND
  0
POLYLINE
  8
LAYER_1
 40
0.1764
 41
0.1764
 66
1
 10
0
 20
0
 30
0
  0
VERTEX
  8
LAYER_1
 10
54.9783
 20
150.2069
  0
VERTEX
  8
LAYER_1
 10
54.9783
 20
150.0375
  0
SEQEND
  0
POLYLINE
  8
LAYER_1
 40
0.1764
 41
0.1764
 66
1
 10
0
 20
0
 30
0
  0
VERTEX
  8
LAYER_1
 10
54.9783
 20
150.1222
  0
VERTEX
  8
LAYER_1
 10
55.5498
 20
150.228
  0
VERTEX
  8
LAYER_1
 10
55.1265
 20
150.3762
  0
SEQEND
  0
POLYLINE
  8
LAYER_1
 40
0.1764
 41
0.1764
 66
1
 10
0
 20
0
 30
0
  0
VERTEX
  8
LAYER_1
 10
55.5498
 20
150.5244
  0
VERTEX
  8
LAYER_1
 10
55.1265
 20
150.3762
  0
SEQEND
  0
POLYLINE
  8
LAYER_1
 40
0.1764
 41
0.1764
 66
1
 10
0
 20
0
 30
0
  0
VERTEX
  8
LAYER_1
 10
54.9783
 20
150.6302
  0
VERTEX
  8
LAYER_1
 10
55.5498
 20
150.5244
  0
SEQEND
  0
POLYLINE
  8
LAYER_1
 40
0.1764
 41
0.1764
 66
1
 10
0
 20
0
 30
0
  0
VERTEX
  8
LAYER_1
 10
55.3805
 20
149.5296
  0
VERTEX
  8
LAYER_1
 10
55.4016
 20
149.5507
  0
VERTEX
  8
LAYER_1
 10
55.4228
 20
149.5507
  0
VERTEX
  8
LAYER_1
 10
55.444
 20
149.5507
  0
VERTEX
  8
LAYER_1
 10
55.4863
 20
149.5719
  0
VERTEX
  8
LAYER_1
 10
55.5075
 20
149.593
  0
SEQEND
  0
POLYLINE
  8
LAYER_1
 40
0.1764
 41
0.1764
 66
1
 10
0
 20
0
 30
0
  0
VERTEX
  8
LAYER_1
 10
55.5075
 20
149.593
  0
VERTEX
  8
LAYER_1
 10
55.5075
 20
149.6142
  0
VERTEX
  8
LAYER_1
 10
55.5286
 20
149.6353
  0
VERTEX
  8
LAYER_1
 10
55.5286
 20
149.6777
  0
VERTEX
  8
LAYER_1
 10
55.5498
 20
149.6988
  0
VERTEX
  8
LAYER_1
 10
55.5286
 20
149.7412
  0
VERTEX
  8
LAYER_1
 10
55.5286
 20
149.7624
  0
VERTEX
  8
LAYER_1
 10
55.5075
 20
149.7835
  0
VERTEX
  8
LAYER_1
 10
55.5075
 20
149.8047
  0
VERTEX
  8
LAYER_1
 10
55.4863
 20
149.8259
  0
VERTEX
  8
LAYER_1
 10
55.444
 20
149.847
  0
VERTEX
  8
LAYER_1
 10
55.4228
 20
149.8682
  0
VERTEX
  8
LAYER_1
 10
55.4016
 20
149.8682
  0
VERTEX
  8
LAYER_1
 10
55.3805
 20
149.8682
  0
SEQEND
  0
POLYLINE
  8
LAYER_1
 40
0.1764
 41
0.1764
 66
1
 10
0
 20
0
 30
0
  0
VERTEX
  8
LAYER_1
 10
57.3701
 20
149.8259
  0
VERTEX
  8
LAYER_1
 10
56.7986
 20
149.8259
  0
SEQEND
  0
POLYLINE
  8
LAYER_1
 40
0.1764
 41
0.1764
 66
1
 10
0
 20
0
 30
0
  0
VERTEX
  8
LAYER_1
 10
57.3701
 20
149.4872
  0
VERTEX
  8
LAYER_1
 10
56.7986
 20
149.4872
  0
SEQEND
  0
POLYLINE
  8
LAYER_1
 40
0.1764
 41
0.1764
 66
1
 10
0
 20
0
 30
0
  0
VERTEX
  8
LAYER_1
 10
57.3701
 20
149.4025
  0
VERTEX
  8
LAYER_1
 10
57.3701
 20
149.5719
  0
SEQEND
  0
POLYLINE
  8
LAYER_1
 40
0.1764
 41
0.1764
 66
1
 10
0
 20
0
 30
0
  0
VERTEX
  8
LAYER_1
 10
57.3701
 20
149.7412
  0
VERTEX
  8
LAYER_1
 10
57.3701
 20
149.9105
  0
SEQEND
  0
POLYLINE
  8
LAYER_1
 40
0.1764
 41
0.1764
 66
1
 10
0
 20
0
 30
0
  0
VERTEX
  8
LAYER_1
 10
56.7986
 20
149.8259
  0
VERTEX
  8
LAYER_1
 10
57.095
 20
149.6565
  0
SEQEND
  0
POLYLINE
  8
LAYER_1
 40
0.1764
 41
0.1764
 66
1
 10
0
 20
0
 30
0
  0
VERTEX
  8
LAYER_1
 10
56.7986
 20
149.4872
  0
VERTEX
  8
LAYER_1
 10
57.095
 20
149.6565
  0
SEQEND
  0
POLYLINE
  8
LAYER_1
 40
0.1764
 41
0.1764
 66
1
 10
0
 20
0
 30
0
  0
VERTEX
  8
LAYER_1
 10
56.7563
 20
127.6009
  0
VERTEX
  8
LAYER_1
 10
56.7563
 20
117.589
  0
SEQEND
  0
POLYLINE
  8
LAYER_1
 40
0.1764
 41
0.1764
 66
1
 10
0
 20
0
 30
0
  0
VERTEX
  8
LAYER_1
 10
57.095
 20
127.9183
  0
VERTEX
  8
LAYER_1
 10
56.7563
 20
127.6009
  0
SEQEND
  0
POLYLINE
  8
LAYER_1
 40
0.1764
 41
0.1764
 66
1
 10
0
 20
0
 30
0
  0
VERTEX
  8
LAYER_1
 10
57.095
 20
117.2504
  0
VERTEX
  8
LAYER_1
 10
56.7563
 20
117.589
  0
SEQEND
  0
POLYLINE
  8
LAYER_1
 40
0.1764
 41
0.1764
 66
1
 10
0
 20
0
 30
0
  0
VERTEX
  8
LAYER_1
 10
65.7521
 20
127.6009
  0
VERTEX
  8
LAYER_1
 10
65.7521
 20
117.589
  0
SEQEND
  0
POLYLINE
  8
LAYER_1
 40
0.1764
 41
0.1764
 66
1
 10
0
 20
0
 30
0
  0
VERTEX
  8
LAYER_1
 10
65.4135
 20
117.2504
  0
VERTEX
  8
LAYER_1
 10
65.7521
 20
117.589
  0
SEQEND
  0
POLYLINE
  8
LAYER_1
 40
0.1764
 41
0.1764
 66
1
 10
0
 20
0
 30
0
  0
VERTEX
  8
LAYER_1
 10
62.9581
 20
127.6009
  0
VERTEX
  8
LAYER_1
 10
62.9581
 20
117.589
  0
SEQEND
  0
POLYLINE
  8
LAYER_1
 40
0.1764
 41
0.1764
 66
1
 10
0
 20
0
 30
0
  0
VERTEX
  8
LAYER_1
 10
64.0165
 20
127.6009
  0
VERTEX
  8
LAYER_1
 10
64.0165
 20
117.589
  0
SEQEND
  0
POLYLINE
  8
LAYER_1
 40
0.1764
 41
0.1764
 66
1
 10
0
 20
0
 30
0
  0
VERTEX
  8
LAYER_1
 10
64.0165
 20
127.6009
  0
VERTEX
  8
LAYER_1
 10
62.9581
 20
127.6009
  0
SEQEND
  0
POLYLINE
  8
LAYER_1
 40
0.1764
 41
0.1764
 66
1
 10
0
 20
0
 30
0
  0
VERTEX
  8
LAYER_1
 10
65.2653
 20
127.9183
  0
VERTEX
  8
LAYER_1
 10
65.2653
 20
129.2307
  0
SEQEND
  0
POLYLINE
  8
LAYER_1
 40
0.1764
 41
0.1764
 66
1
 10
0
 20
0
 30
0
  0
VERTEX
  8
LAYER_1
 10
65.4135
 20
127.9183
  0
VERTEX
  8
LAYER_1
 10
57.095
 20
127.9183
  0
SEQEND
  0
POLYLINE
  8
LAYER_1
 40
0.1764
 41
0.1764
 66
1
 10
0
 20
0
 30
0
  0
VERTEX
  8
LAYER_1
 10
65.4135
 20
127.9183
  0
VERTEX
  8
LAYER_1
 10
65.7521
 20
127.6009
  0
SEQEND
  0
POLYLINE
  8
LAYER_1
 40
0.1764
 41
0.1764
 66
1
 10
0
 20
0
 30
0
  0
VERTEX
  8
LAYER_1
 10
64.0165
 20
117.589
  0
VERTEX
  8
LAYER_1
 10
62.9581
 20
117.589
  0
SEQEND
  0
POLYLINE
  8
LAYER_1
 40
0.1764
 41
0.1764
 66
1
 10
0
 20
0
 30
0
  0
VERTEX
  8
LAYER_1
 10
62.9581
 20
127.6009
  0
VERTEX
  8
LAYER_1
 10
62.2173
 20
127.8125
  0
VERTEX
  8
LAYER_1
 10
61.4341
 20
127.9183
  0
VERTEX
  8
LAYER_1
 10
60.651
 20
127.876
  0
VERTEX
  8
LAYER_1
 10
59.889
 20
127.7067
  0
VERTEX
  8
LAYER_1
 10
59.5503
 20
127.6009
  0
SEQEND
  0
POLYLINE
  8
LAYER_1
 40
0.1764
 41
0.1764
 66
1
 10
0
 20
0
 30
0
  0
VERTEX
  8
LAYER_1
 10
65.7521
 20
127.6009
  0
VERTEX
  8
LAYER_1
 10
65.5828
 20
127.7278
  0
VERTEX
  8
LAYER_1
 10
65.3711
 20
127.8125
  0
VERTEX
  8
LAYER_1
 10
65.1595
 20
127.8972
  0
VERTEX
  8
LAYER_1
 10
64.9266
 20
127.9183
  0
VERTEX
  8
LAYER_1
 10
64.6938
 20
127.9183
  0
VERTEX
  8
LAYER_1
 10
64.4821
 20
127.8549
  0
VERTEX
  8
LAYER_1
 10
64.2705
 20
127.7702
  0
VERTEX
  8
LAYER_1
 10
64.08
 20
127.6432
  0
VERTEX
  8
LAYER_1
 10
64.0165
 20
127.6009
  0
SEQEND
  0
POLYLINE
  8
LAYER_1
 40
0.1764
 41
0.1764
 66
1
 10
0
 20
0
 30
0
  0
VERTEX
  8
LAYER_1
 10
59.5503
 20
117.589
  0
VERTEX
  8
LAYER_1
 10
60.3123
 20
117.3562
  0
VERTEX
  8
LAYER_1
 10
61.0955
 20
117.2715
  0
VERTEX
  8
LAYER_1
 10
61.8786
 20
117.2927
  0
VERTEX
  8
LAYER_1
 10
62.6195
 20
117.4832
  0
VERTEX
  8
LAYER_1
 10
62.9581
 20
117.589
  0
SEQEND
  0
POLYLINE
  8
LAYER_1
 40
0.1764
 41
0.1764
 66
1
 10
0
 20
0
 30
0
  0
VERTEX
  8
LAYER_1
 10
64.0165
 20
117.589
  0
VERTEX
  8
LAYER_1
 10
64.207
 20
117.462
  0
VERTEX
  8
LAYER_1
 10
64.3975
 20
117.3562
  0
VERTEX
  8
LAYER_1
 10
64.6091
 20
117.2927
  0
VERTEX
  8
LAYER_1
 10
64.842
 20
117.2504
  0
VERTEX
  8
LAYER_1
 10
65.0748
 20
117.2715
  0
VERTEX
  8
LAYER_1
 10
65.2865
 20
117.335
  0
VERTEX
  8
LAYER_1
 10
65.4981
 20
117.4197
  0
VERTEX
  8
LAYER_1
 10
65.6886
 20
117.5255
  0
VERTEX
  8
LAYER_1
 10
65.7521
 20
117.589
  0
SEQEND
  0
POLYLINE
  8
LAYER_1
 40
0.1764
 41
0.1764
 66
1
 10
0
 20
0
 30
0
  0
VERTEX
  8
LAYER_1
 10
65.0113
 20
128.5957
  0
VERTEX
  8
LAYER_1
 10
65.2653
 20
128.1512
  0
SEQEND
  0
POLYLINE
  8
LAYER_1
 40
0.1764
 41
0.1764
 66
1
 10
0
 20
0
 30
0
  0
VERTEX
  8
LAYER_1
 10
57.2643
 20
127.9183
  0
VERTEX
  8
LAYER_1
 10
57.2643
 20
129.2307
  0
SEQEND
  0
POLYLINE
  8
LAYER_1
 40
0.1764
 41
0.1764
 66
1
 10
0
 20
0
 30
0
  0
VERTEX
  8
LAYER_1
 10
57.095
 20
117.2504
  0
VERTEX
  8
LAYER_1
 10
65.4135
 20
117.2504
  0
SEQEND
  0
POLYLINE
  8
LAYER_1
 40
0.1764
 41
0.1764
 66
1
 10
0
 20
0
 30
0
  0
VERTEX
  8
LAYER_1
 10
57.5183
 20
128.5957
  0
VERTEX
  8
LAYER_1
 10
57.2643
 20
128.1512
  0
SEQEND
  0
POLYLINE
  8
LAYER_1
 40
0.1764
 41
0.1764
 66
1
 10
0
 20
0
 30
0
  0
VERTEX
  8
LAYER_1
 10
56.587
 20
129.2307
  0
VERTEX
  8
LAYER_1
 10
65.9215
 20
129.2307
  0
SEQEND
  0
POLYLINE
  8
LAYER_1
 40
0.1764
 41
0.1764
 66
1
 10
0
 20
0
 30
0
  0
VERTEX
  8
LAYER_1
 10
56.587
 20
135.4113
  0
VERTEX
  8
LAYER_1
 10
65.9215
 20
135.4113
  0
SEQEND
  0
POLYLINE
  8
LAYER_1
 40
0.1764
 41
0.1764
 66
1
 10
0
 20
0
 30
0
  0
VERTEX
  8
LAYER_1
 10
56.2695
 20
129.5905
  0
VERTEX
  8
LAYER_1
 10
56.2695
 20
135.0727
  0
SEQEND
  0
POLYLINE
  8
LAYER_1
 40
0.1764
 41
0.1764
 66
1
 10
0
 20
0
 30
0
  0
VERTEX
  8
LAYER_1
 10
66.2601
 20
129.5905
  0
VERTEX
  8
LAYER_1
 10
66.2601
 20
135.0727
  0
SEQEND
  0
POLYLINE
  8
LAYER_1
 40
0.1764
 41
0.1764
 66
1
 10
0
 20
0
 30
0
  0
VERTEX
  8
LAYER_1
 10
56.587
 20
135.4113
  0
VERTEX
  8
LAYER_1
 10
56.2695
 20
135.0727
  0
SEQEND
  0
POLYLINE
  8
LAYER_1
 40
0.1764
 41
0.1764
 66
1
 10
0
 20
0
 30
0
  0
VERTEX
  8
LAYER_1
 10
56.587
 20
129.2307
  0
VERTEX
  8
LAYER_1
 10
56.2695
 20
129.5905
  0
SEQEND
  0
POLYLINE
  8
LAYER_1
 40
0.1764
 41
0.1764
 66
1
 10
0
 20
0
 30
0
  0
VERTEX
  8
LAYER_1
 10
65.9215
 20
129.2307
  0
VERTEX
  8
LAYER_1
 10
66.2601
 20
129.5905
  0
SEQEND
  0
POLYLINE
  8
LAYER_1
 40
0.1764
 41
0.1764
 66
1
 10
0
 20
0
 30
0
  0
VERTEX
  8
LAYER_1
 10
65.9215
 20
135.4113
  0
VERTEX
  8
LAYER_1
 10
66.2601
 20
135.0727
  0
SEQEND
  0
POLYLINE
  8
LAYER_1
 40
0.1764
 41
0.1764
 66
1
 10
0
 20
0
 30
0
  0
VERTEX
  8
LAYER_1
 10
63.0428
 20
135.0727
  0
VERTEX
  8
LAYER_1
 10
63.0428
 20
129.5905
  0
SEQEND
  0
POLYLINE
  8
LAYER_1
 40
0.1764
 41
0.1764
 66
1
 10
0
 20
0
 30
0
  0
VERTEX
  8
LAYER_1
 10
64.3975
 20
129.5905
  0
VERTEX
  8
LAYER_1
 10
64.3975
 20
135.0727
  0
VERTEX
  8
LAYER_1
 10
63.0428
 20
135.0727
  0
SEQEND
  0
POLYLINE
  8
LAYER_1
 40
0.1764
 41
0.1764
 66
1
 10
0
 20
0
 30
0
  0
VERTEX
  8
LAYER_1
 10
64.3975
 20
129.5905
  0
VERTEX
  8
LAYER_1
 10
63.0428
 20
129.5905
  0
SEQEND
  0
POLYLINE
  8
LAYER_1
 40
0.1764
 41
0.1764
 66
1
 10
0
 20
0
 30
0
  0
VERTEX
  8
LAYER_1
 10
66.2601
 20
135.0727
  0
VERTEX
  8
LAYER_1
 10
66.0485
 20
135.2209
  0
VERTEX
  8
LAYER_1
 10
65.8156
 20
135.3267
  0
VERTEX
  8
LAYER_1
 10
65.5616
 20
135.3902
  0
VERTEX
  8
LAYER_1
 10
65.3076
 20
135.4113
  0
VERTEX
  8
LAYER_1
 10
65.0748
 20
135.3902
  0
VERTEX
  8
LAYER_1
 10
64.8208
 20
135.3267
  0
VERTEX
  8
LAYER_1
 10
64.588
 20
135.1997
  0
VERTEX
  8
LAYER_1
 10
64.3975
 20
135.0727
  0
SEQEND
  0
POLYLINE
  8
LAYER_1
 40
0.1764
 41
0.1764
 66
1
 10
0
 20
0
 30
0
  0
VERTEX
  8
LAYER_1
 10
63.0428
 20
135.0727
  0
VERTEX
  8
LAYER_1
 10
62.2173
 20
135.3267
  0
VERTEX
  8
LAYER_1
 10
61.3495
 20
135.4113
  0
VERTEX
  8
LAYER_1
 10
60.4816
 20
135.3478
  0
VERTEX
  8
LAYER_1
 10
59.635
 20
135.1362
  0
VERTEX
  8
LAYER_1
 10
59.4656
 20
135.0727
  0
SEQEND
  0
POLYLINE
  8
LAYER_1
 40
0.1764
 41
0.1764
 66
1
 10
0
 20
0
 30
0
  0
VERTEX
  8
LAYER_1
 10
59.4656
 20
129.5905
  0
VERTEX
  8
LAYER_1
 10
60.2911
 20
129.3365
  0
VERTEX
  8
LAYER_1
 10
61.159
 20
129.2307
  0
VERTEX
  8
LAYER_1
 10
62.048
 20
129.2942
  0
VERTEX
  8
LAYER_1
 10
62.8735
 20
129.5058
  0
VERTEX
  8
LAYER_1
 10
63.0428
 20
129.5905
  0
SEQEND
  0
POLYLINE
  8
LAYER_1
 40
0.1764
 41
0.1764
 66
1
 10
0
 20
0
 30
0
  0
VERTEX
  8
LAYER_1
 10
64.3975
 20
129.5905
  0
VERTEX
  8
LAYER_1
 10
64.6091
 20
129.4212
  0
VERTEX
  8
LAYER_1
 10
64.842
 20
129.3365
  0
VERTEX
  8
LAYER_1
 10
65.096
 20
129.2518
  0
VERTEX
  8
LAYER_1
 10
65.3288
 20
129.2307
  0
VERTEX
  8
LAYER_1
 10
65.5828
 20
129.273
  0
VERTEX
  8
LAYER_1
 10
65.8368
 20
129.3365
  0
VERTEX
  8
LAYER_1
 10
66.0696
 20
129.4423
  0
VERTEX
  8
LAYER_1
 10
66.2601
 20
129.5905
  0
SEQEND
  0
POLYLINE
  8
LAYER_1
 40
0.1764
 41
0.1764
 66
1
 10
0
 20
0
 30
0
  0
VERTEX
  8
LAYER_1
 10
58.492
 20
127.6008
  0
VERTEX
  8
LAYER_1
 10
59.5503
 20
127.6008
  0
VERTEX
  8
LAYER_1
 10
59.5503
 20
117.589
  0
SEQEND
  0
POLYLINE
  8
LAYER_1
 40
0.1764
 41
0.1764
 66
1
 10
0
 20
0
 30
0
  0
VERTEX
  8
LAYER_1
 10
58.492
 20
127.6008
  0
VERTEX
  8
LAYER_1
 10
58.492
 20
117.589
  0
VERTEX
  8
LAYER_1
 10
59.5503
 20
117.589
  0
SEQEND
  0
POLYLINE
  8
LAYER_1
 40
0.1764
 41
0.1764
 66
1
 10
0
 20
0
 30
0
  0
VERTEX
  8
LAYER_1
 10
58.492
 20
127.6008
  0
VERTEX
  8
LAYER_1
 10
58.3226
 20
127.7278
  0
VERTEX
  8
LAYER_1
 10
58.111
 20
127.8125
  0
VERTEX
  8
LAYER_1
 10
57.8993
 20
127.8972
  0
VERTEX
  8
LAYER_1
 10
57.6665
 20
127.9183
  0
VERTEX
  8
LAYER_1
 10
57.4548
 20
127.9183
  0
VERTEX
  8
LAYER_1
 10
57.222
 20
127.8548
  0
VERTEX
  8
LAYER_1
 10
57.0103
 20
127.7702
  0
VERTEX
  8
LAYER_1
 10
56.8198
 20
127.6432
  0
VERTEX
  8
LAYER_1
 10
56.7563
 20
127.6008
  0
SEQEND
  0
POLYLINE
  8
LAYER_1
 40
0.1764
 41
0.1764
 66
1
 10
0
 20
0
 30
0
  0
VERTEX
  8
LAYER_1
 10
56.7563
 20
117.589
  0
VERTEX
  8
LAYER_1
 10
56.9468
 20
117.462
  0
VERTEX
  8
LAYER_1
 10
57.1373
 20
117.3562
  0
VERTEX
  8
LAYER_1
 10
57.3701
 20
117.2927
  0
VERTEX
  8
LAYER_1
 10
57.5818
 20
117.2503
  0
VERTEX
  8
LAYER_1
 10
57.8146
 20
117.2715
  0
VERTEX
  8
LAYER_1
 10
58.0263
 20
117.335
  0
VERTEX
  8
LAYER_1
 10
58.238
 20
117.4197
  0
VERTEX
  8
LAYER_1
 10
58.4285
 20
117.5255
  0
VERTEX
  8
LAYER_1
 10
58.492
 20
117.589
  0
SEQEND
  0
POLYLINE
  8
LAYER_1
 40
0.1764
 41
0.1764
 66
1
 10
0
 20
0
 30
0
  0
VERTEX
  8
LAYER_1
 10
58.111
 20
135.0727
  0
VERTEX
  8
LAYER_1
 10
59.4656
 20
135.0727
  0
SEQEND
  0
POLYLINE
  8
LAYER_1
 40
0.1764
 41
0.1764
 66
1
 10
0
 20
0
 30
0
  0
VERTEX
  8
LAYER_1
 10
58.111
 20
129.5905
  0
VERTEX
  8
LAYER_1
 10
59.4656
 20
129.5905
  0
SEQEND
  0
POLYLINE
  8
LAYER_1
 40
0.1764
 41
0.1764
 66
1
 10
0
 20
0
 30
0
  0
VERTEX
  8
LAYER_1
 10
59.4656
 20
135.0727
  0
VERTEX
  8
LAYER_1
 10
59.4656
 20
129.5905
  0
SEQEND
  0
POLYLINE
  8
LAYER_1
 40
0.1764
 41
0.1764
 66
1
 10
0
 20
0
 30
0
  0
VERTEX
  8
LAYER_1
 10
58.111
 20
129.5905
  0
VERTEX
  8
LAYER_1
 10
58.111
 20
135.0727
  0
SEQEND
  0
POLYLINE
  8
LAYER_1
 40
0.1764
 41
0.1764
 66
1
 10
0
 20
0
 30
0
  0
VERTEX
  8
LAYER_1
 10
56.2695
 20
129.5905
  0
VERTEX
  8
LAYER_1
 10
56.4811
 20
129.4212
  0
VERTEX
  8
LAYER_1
 10
56.6928
 20
129.3365
  0
VERTEX
  8
LAYER_1
 10
56.9468
 20
129.2518
  0
VERTEX
  8
LAYER_1
 10
57.2008
 20
129.2307
  0
VERTEX
  8
LAYER_1
 10
57.4548
 20
129.273
  0
VERTEX
  8
LAYER_1
 10
57.7088
 20
129.3365
  0
VERTEX
  8
LAYER_1
 10
57.9205
 20
129.4423
  0
VERTEX
  8
LAYER_1
 10
58.111
 20
129.5905
  0
SEQEND
  0
POLYLINE
  8
LAYER_1
 40
0.1764
 41
0.1764
 66
1
 10
0
 20
0
 30
0
  0
VERTEX
  8
LAYER_1
 10
58.111
 20
135.0727
  0
VERTEX
  8
LAYER_1
 10
57.8993
 20
135.2208
  0
VERTEX
  8
LAYER_1
 10
57.6665
 20
135.3267
  0
VERTEX
  8
LAYER_1
 10
57.4336
 20
135.3902
  0
VERTEX
  8
LAYER_1
 10
57.1796
 20
135.4113
  0
VERTEX
  8
LAYER_1
 10
56.9256
 20
135.3902
  0
VERTEX
  8
LAYER_1
 10
56.6716
 20
135.3267
  0
VERTEX
  8
LAYER_1
 10
56.46
 20
135.1997
  0
VERTEX
  8
LAYER_1
 10
56.2695
 20
135.0727
  0
SEQEND
  0
POLYLINE
  8
LAYER_1
 40
0.1764
 41
0.1764
 66
1
 10
0
 20
0
 30
0
  0
VERTEX
  8
LAYER_1
 10
64.9266
 20
135.4113
  0
VERTEX
  8
LAYER_1
 10
57.5818
 20
135.4113
  0
SEQEND
  0
POLYLINE
  8
LAYER_1
 40
0.1764
 41
0.1764
 66
1
 10
0
 20
0
 30
0
  0
VERTEX
  8
LAYER_1
 10
64.9266
 20
138.2265
  0
VERTEX
  8
LAYER_1
 10
57.5818
 20
138.2265
  0
SEQEND
  0
POLYLINE
  8
LAYER_1
 40
0.1764
 41
0.1764
 66
1
 10
0
 20
0
 30
0
  0
VERTEX
  8
LAYER_1
 10
57.2643
 20
137.909
  0
VERTEX
  8
LAYER_1
 10
57.2643
 20
135.7288
  0
VERTEX
  8
LAYER_1
 10
57.5818
 20
135.4113
  0
SEQEND
  0
POLYLINE
  8
LAYER_1
 40
0.1764
 41
0.1764
 66
1
 10
0
 20
0
 30
0
  0
VERTEX
  8
LAYER_1
 10
57.5818
 20
138.2265
  0
VERTEX
  8
LAYER_1
 10
57.2643
 20
137.909
  0
SEQEND
  0
POLYLINE
  8
LAYER_1
 40
0.1764
 41
0.1764
 66
1
 10
0
 20
0
 30
0
  0
VERTEX
  8
LAYER_1
 10
65.2653
 20
135.7288
  0
VERTEX
  8
LAYER_1
 10
64.9266
 20
135.4113
  0
SEQEND
  0
POLYLINE
  8
LAYER_1
 40
0.1764
 41
0.1764
 66
1
 10
0
 20
0
 30
0
  0
VERTEX
  8
LAYER_1
 10
65.2653
 20
137.909
  0
VERTEX
  8
LAYER_1
 10
65.2653
 20
135.7288
  0
SEQEND
  0
POLYLINE
  8
LAYER_1
 40
0.1764
 41
0.1764
 66
1
 10
0
 20
0
 30
0
  0
VERTEX
  8
LAYER_1
 10
64.9266
 20
138.2265
  0
VERTEX
  8
LAYER_1
 10
65.2653
 20
137.909
  0
SEQEND
  0
POLYLINE
  8
LAYER_1
 40
0.1764
 41
0.1764
 66
1
 10
0
 20
0
 30
0
  0
VERTEX
  8
LAYER_1
 10
58.873
 20
135.7288
  0
VERTEX
  8
LAYER_1
 10
59.6561
 20
135.7288
  0
VERTEX
  8
LAYER_1
 10
60.3123
 20
135.5172
  0
VERTEX
  8
LAYER_1
 10
61.0108
 20
135.4113
  0
VERTEX
  8
LAYER_1
 10
61.7093
 20
135.4325
  0
VERTEX
  8
LAYER_1
 10
62.3866
 20
135.5595
  0
VERTEX
  8
LAYER_1
 10
62.8523
 20
135.7288
  0
SEQEND
  0
POLYLINE
  8
LAYER_1
 40
0.1764
 41
0.1764
 66
1
 10
0
 20
0
 30
0
  0
VERTEX
  8
LAYER_1
 10
57.2643
 20
135.7288
  0
VERTEX
  8
LAYER_1
 10
57.4125
 20
135.6018
  0
VERTEX
  8
LAYER_1
 10
57.5818
 20
135.5172
  0
VERTEX
  8
LAYER_1
 10
57.7723
 20
135.4537
  0
VERTEX
  8
LAYER_1
 10
57.984
 20
135.4113
  0
VERTEX
  8
LAYER_1
 10
58.1745
 20
135.4113
  0
VERTEX
  8
LAYER_1
 10
58.3861
 20
135.4537
  0
VERTEX
  8
LAYER_1
 10
58.5555
 20
135.5172
  0
VERTEX
  8
LAYER_1
 10
58.746
 20
135.623
  0
VERTEX
  8
LAYER_1
 10
58.873
 20
135.7288
  0
SEQEND
  0
POLYLINE
  8
LAYER_1
 40
0.1764
 41
0.1764
 66
1
 10
0
 20
0
 30
0
  0
VERTEX
  8
LAYER_1
 10
62.8523
 20
137.909
  0
VERTEX
  8
LAYER_1
 10
62.1961
 20
138.1207
  0
VERTEX
  8
LAYER_1
 10
61.5188
 20
138.2265
  0
VERTEX
  8
LAYER_1
 10
60.7991
 20
138.2265
  0
VERTEX
  8
LAYER_1
 10
60.1218
 20
138.0783
  0
VERTEX
  8
LAYER_1
 10
59.6561
 20
137.909
  0
SEQEND
  0
POLYLINE
  8
LAYER_1
 40
0.1764
 41
0.1764
 66
1
 10
0
 20
0
 30
0
  0
VERTEX
  8
LAYER_1
 10
58.873
 20
137.909
  0
VERTEX
  8
LAYER_1
 10
59.6561
 20
137.909
  0
SEQEND
  0
POLYLINE
  8
LAYER_1
 40
0.1764
 41
0.1764
 66
1
 10
0
 20
0
 30
0
  0
VERTEX
  8
LAYER_1
 10
58.873
 20
137.909
  0
VERTEX
  8
LAYER_1
 10
58.7248
 20
138.036
  0
VERTEX
  8
LAYER_1
 10
58.5555
 20
138.1418
  0
VERTEX
  8
LAYER_1
 10
58.365
 20
138.2053
  0
VERTEX
  8
LAYER_1
 10
58.1533
 20
138.2265
  0
VERTEX
  8
LAYER_1
 10
57.9628
 20
138.2265
  0
VERTEX
  8
LAYER_1
 10
57.7511
 20
138.2053
  0
VERTEX
  8
LAYER_1
 10
57.5818
 20
138.1207
  0
VERTEX
  8
LAYER_1
 10
57.3913
 20
138.036
  0
VERTEX
  8
LAYER_1
 10
57.2643
 20
137.909
  0
SEQEND
  0
POLYLINE
  8
LAYER_1
 40
0.1764
 41
0.1764
 66
1
 10
0
 20
0
 30
0
  0
VERTEX
  8
LAYER_1
 10
59.6561
 20
135.7288
  0
VERTEX
  8
LAYER_1
 10
59.6561
 20
137.909
  0
SEQEND
  0
POLYLINE
  8
LAYER_1
 40
0.1764
 41
0.1764
 66
1
 10
0
 20
0
 30
0
  0
VERTEX
  8
LAYER_1
 10
58.873
 20
135.7288
  0
VERTEX
  8
LAYER_1
 10
58.873
 20
137.909
  0
SEQEND
  0
POLYLINE
  8
LAYER_1
 40
0.1764
 41
0.1764
 66
1
 10
0
 20
0
 30
0
  0
VERTEX
  8
LAYER_1
 10
62.8523
 20
135.7288
  0
VERTEX
  8
LAYER_1
 10
62.8523
 20
137.909
  0
SEQEND
  0
POLYLINE
  8
LAYER_1
 40
0.1764
 41
0.1764
 66
1
 10
0
 20
0
 30
0
  0
VERTEX
  8
LAYER_1
 10
63.6355
 20
135.7288
  0
VERTEX
  8
LAYER_1
 10
62.8523
 20
135.7288
  0
SEQEND
  0
POLYLINE
  8
LAYER_1
 40
0.1764
 41
0.1764
 66
1
 10
0
 20
0
 30
0
  0
VERTEX
  8
LAYER_1
 10
63.6355
 20
135.7288
  0
VERTEX
  8
LAYER_1
 10
63.6355
 20
137.909
  0
VERTEX
  8
LAYER_1
 10
62.8523
 20
137.909
  0
SEQEND
  0
POLYLINE
  8
LAYER_1
 40
0.1764
 41
0.1764
 66
1
 10
0
 20
0
 30
0
  0
VERTEX
  8
LAYER_1
 10
65.2653
 20
137.909
  0
VERTEX
  8
LAYER_1
 10
65.096
 20
138.036
  0
VERTEX
  8
LAYER_1
 10
64.9266
 20
138.1418
  0
VERTEX
  8
LAYER_1
 10
64.7361
 20
138.2053
  0
VERTEX
  8
LAYER_1
 10
64.5456
 20
138.2265
  0
VERTEX
  8
LAYER_1
 10
64.334
 20
138.2265
  0
VERTEX
  8
LAYER_1
 10
64.1435
 20
138.2053
  0
VERTEX
  8
LAYER_1
 10
63.953
 20
138.1207
  0
VERTEX
  8
LAYER_1
 10
63.7836
 20
138.036
  0
VERTEX
  8
LAYER_1
 10
63.6355
 20
137.909
  0
SEQEND
  0
POLYLINE
  8
LAYER_1
 40
0.1764
 41
0.1764
 66
1
 10
0
 20
0
 30
0
  0
VERTEX
  8
LAYER_1
 10
63.6355
 20
135.7288
  0
VERTEX
  8
LAYER_1
 10
63.7836
 20
135.6018
  0
VERTEX
  8
LAYER_1
 10
63.953
 20
135.5172
  0
VERTEX
  8
LAYER_1
 10
64.1435
 20
135.4537
  0
SEQEND
  0
POLYLINE
  8
LAYER_1
 40
0.1764
 41
0.1764
 66
1
 10
0
 20
0
 30
0
  0
VERTEX
  8
LAYER_1
 10
64.1435
 20
135.4537
  0
VERTEX
  8
LAYER_1
 10
64.3551
 20
135.4114
  0
VERTEX
  8
LAYER_1
 10
64.5456
 20
135.4114
  0
VERTEX
  8
LAYER_1
 10
64.7573
 20
135.4537
  0
VERTEX
  8
LAYER_1
 10
64.9266
 20
135.5172
  0
VERTEX
  8
LAYER_1
 10
65.1171
 20
135.623
  0
VERTEX
  8
LAYER_1
 10
65.2653
 20
135.7289
  0
SEQEND
  0
POLYLINE
  8
LAYER_1
 40
0.1764
 41
0.1764
 66
1
 10
0
 20
0
 30
0
  0
VERTEX
  8
LAYER_1
 10
53.2638
 20
146.1005
  0
VERTEX
  8
LAYER_1
 10
53.4543
 20
145.91
  0
SEQEND
  0
POLYLINE
  8
LAYER_1
 40
0.1764
 41
0.1764
 66
1
 10
0
 20
0
 30
0
  0
VERTEX
  8
LAYER_1
 10
53.2638
 20
153.6994
  0
VERTEX
  8
LAYER_1
 10
53.4543
 20
153.8899
  0
SEQEND
  0
POLYLINE
  8
LAYER_1
 40
0.1764
 41
0.1764
 66
1
 10
0
 20
0
 30
0
  0
VERTEX
  8
LAYER_1
 10
53.2638
 20
146.1005
  0
VERTEX
  8
LAYER_1
 10
53.2638
 20
153.6994
  0
SEQEND
  0
POLYLINE
  8
LAYER_1
 40
0.1764
 41
0.1764
 66
1
 10
0
 20
0
 30
0
  0
VERTEX
  8
LAYER_1
 10
139.0523
 20
126.7542
  0
VERTEX
  8
LAYER_1
 10
139.0523
 20
116.7635
  0
SEQEND
  0
POLYLINE
  8
LAYER_1
 40
0.1764
 41
0.1764
 66
1
 10
0
 20
0
 30
0
  0
VERTEX
  8
LAYER_1
 10
139.391
 20
127.0928
  0
VERTEX
  8
LAYER_1
 10
139.0523
 20
126.7542
  0
SEQEND
  0
POLYLINE
  8
LAYER_1
 40
0.1764
 41
0.1764
 66
1
 10
0
 20
0
 30
0
  0
VERTEX
  8
LAYER_1
 10
139.391
 20
116.446
  0
VERTEX
  8
LAYER_1
 10
139.0523
 20
116.7635
  0
SEQEND
  0
POLYLINE
  8
LAYER_1
 40
0.1764
 41
0.1764
 66
1
 10
0
 20
0
 30
0
  0
VERTEX
  8
LAYER_1
 10
148.0481
 20
126.7542
  0
VERTEX
  8
LAYER_1
 10
148.0481
 20
116.7635
  0
SEQEND
  0
POLYLINE
  8
LAYER_1
 40
0.1764
 41
0.1764
 66
1
 10
0
 20
0
 30
0
  0
VERTEX
  8
LAYER_1
 10
147.7306
 20
116.446
  0
VERTEX
  8
LAYER_1
 10
148.0481
 20
116.7635
  0
SEQEND
  0
POLYLINE
  8
LAYER_1
 40
0.1764
 41
0.1764
 66
1
 10
0
 20
0
 30
0
  0
VERTEX
  8
LAYER_1
 10
145.2541
 20
126.7542
  0
VERTEX
  8
LAYER_1
 10
145.2541
 20
116.7635
  0
SEQEND
  0
POLYLINE
  8
LAYER_1
 40
0.1764
 41
0.1764
 66
1
 10
0
 20
0
 30
0
  0
VERTEX
  8
LAYER_1
 10
146.3125
 20
126.7542
  0
VERTEX
  8
LAYER_1
 10
146.3125
 20
116.7635
  0
SEQEND
  0
POLYLINE
  8
LAYER_1
 40
0.1764
 41
0.1764
 66
1
 10
0
 20
0
 30
0
  0
VERTEX
  8
LAYER_1
 10
146.3125
 20
126.7542
  0
VERTEX
  8
LAYER_1
 10
145.2541
 20
126.7542
  0
SEQEND
  0
POLYLINE
  8
LAYER_1
 40
0.1764
 41
0.1764
 66
1
 10
0
 20
0
 30
0
  0
VERTEX
  8
LAYER_1
 10
147.5613
 20
127.0928
  0
VERTEX
  8
LAYER_1
 10
147.5613
 20
128.4263
  0
SEQEND
  0
POLYLINE
  8
LAYER_1
 40
0.1764
 41
0.1764
 66
1
 10
0
 20
0
 30
0
  0
VERTEX
  8
LAYER_1
 10
147.7306
 20
127.0928
  0
VERTEX
  8
LAYER_1
 10
139.391
 20
127.0928
  0
SEQEND
  0
POLYLINE
  8
LAYER_1
 40
0.1764
 41
0.1764
 66
1
 10
0
 20
0
 30
0
  0
VERTEX
  8
LAYER_1
 10
147.7306
 20
127.0928
  0
VERTEX
  8
LAYER_1
 10
148.0481
 20
126.7542
  0
SEQEND
  0
POLYLINE
  8
LAYER_1
 40
0.1764
 41
0.1764
 66
1
 10
0
 20
0
 30
0
  0
VERTEX
  8
LAYER_1
 10
146.3125
 20
116.7635
  0
VERTEX
  8
LAYER_1
 10
145.2541
 20
116.7635
  0
SEQEND
  0
POLYLINE
  8
LAYER_1
 40
0.1764
 41
0.1764
 66
1
 10
0
 20
0
 30
0
  0
VERTEX
  8
LAYER_1
 10
145.2541
 20
126.7542
  0
VERTEX
  8
LAYER_1
 10
144.5133
 20
126.987
  0
VERTEX
  8
LAYER_1
 10
143.7301
 20
127.0928
  0
VERTEX
  8
LAYER_1
 10
142.947
 20
127.0505
  0
VERTEX
  8
LAYER_1
 10
142.185
 20
126.8812
  0
VERTEX
  8
LAYER_1
 10
141.8463
 20
126.7542
  0
SEQEND
  0
POLYLINE
  8
LAYER_1
 40
0.1764
 41
0.1764
 66
1
 10
0
 20
0
 30
0
  0
VERTEX
  8
LAYER_1
 10
148.0482
 20
126.7542
  0
VERTEX
  8
LAYER_1
 10
147.8788
 20
126.9024
  0
VERTEX
  8
LAYER_1
 10
147.6672
 20
127.0082
  0
VERTEX
  8
LAYER_1
 10
147.4555
 20
127.0717
  0
VERTEX
  8
LAYER_1
 10
147.2227
 20
127.0928
  0
VERTEX
  8
LAYER_1
 10
147.011
 20
127.0717
  0
VERTEX
  8
LAYER_1
 10
146.7781
 20
127.0294
  0
VERTEX
  8
LAYER_1
 10
146.5665
 20
126.9447
  0
VERTEX
  8
LAYER_1
 10
146.376
 20
126.8177
  0
VERTEX
  8
LAYER_1
 10
146.3125
 20
126.7542
  0
SEQEND
  0
POLYLINE
  8
LAYER_1
 40
0.1764
 41
0.1764
 66
1
 10
0
 20
0
 30
0
  0
VERTEX
  8
LAYER_1
 10
141.8463
 20
116.7635
  0
VERTEX
  8
LAYER_1
 10
142.6083
 20
116.5307
  0
VERTEX
  8
LAYER_1
 10
143.3915
 20
116.446
  0
VERTEX
  8
LAYER_1
 10
144.1535
 20
116.4672
  0
VERTEX
  8
LAYER_1
 10
144.9367
 20
116.6365
  0
VERTEX
  8
LAYER_1
 10
145.2542
 20
116.7635
  0
SEQEND
  0
POLYLINE
  8
LAYER_1
 40
0.1764
 41
0.1764
 66
1
 10
0
 20
0
 30
0
  0
VERTEX
  8
LAYER_1
 10
146.3125
 20
116.7635
  0
VERTEX
  8
LAYER_1
 10
146.4818
 20
116.6365
  0
VERTEX
  8
LAYER_1
 10
146.6935
 20
116.5307
  0
VERTEX
  8
LAYER_1
 10
146.9052
 20
116.446
  0
VERTEX
  8
LAYER_1
 10
147.138
 20
116.446
  0
VERTEX
  8
LAYER_1
 10
147.3708
 20
116.446
  0
VERTEX
  8
LAYER_1
 10
147.5825
 20
116.4884
  0
VERTEX
  8
LAYER_1
 10
147.7942
 20
116.5942
  0
VERTEX
  8
LAYER_1
 10
147.9847
 20
116.7
  0
VERTEX
  8
LAYER_1
 10
148.0482
 20
116.7635
  0
SEQEND
  0
POLYLINE
  8
LAYER_1
 40
0.1764
 41
0.1764
 66
1
 10
0
 20
0
 30
0
  0
VERTEX
  8
LAYER_1
 10
147.3073
 20
127.7702
  0
VERTEX
  8
LAYER_1
 10
147.5613
 20
127.3257
  0
SEQEND
  0
POLYLINE
  8
LAYER_1
 40
0.1764
 41
0.1764
 66
1
 10
0
 20
0
 30
0
  0
VERTEX
  8
LAYER_1
 10
139.5603
 20
127.0928
  0
VERTEX
  8
LAYER_1
 10
139.5603
 20
128.4263
  0
SEQEND
  0
POLYLINE
  8
LAYER_1
 40
0.1764
 41
0.1764
 66
1
 10
0
 20
0
 30
0
  0
VERTEX
  8
LAYER_1
 10
139.391
 20
116.446
  0
VERTEX
  8
LAYER_1
 10
147.7307
 20
116.446
  0
SEQEND
  0
POLYLINE
  8
LAYER_1
 40
0.1764
 41
0.1764
 66
1
 10
0
 20
0
 30
0
  0
VERTEX
  8
LAYER_1
 10
139.8143
 20
127.7702
  0
VERTEX
  8
LAYER_1
 10
139.5603
 20
127.3257
  0
SEQEND
  0
POLYLINE
  8
LAYER_1
 40
0.1764
 41
0.1764
 66
1
 10
0
 20
0
 30
0
  0
VERTEX
  8
LAYER_1
 10
138.883
 20
128.4263
  0
VERTEX
  8
LAYER_1
 10
148.2175
 20
128.4263
  0
SEQEND
  0
POLYLINE
  8
LAYER_1
 40
0.1764
 41
0.1764
 66
1
 10
0
 20
0
 30
0
  0
VERTEX
  8
LAYER_1
 10
138.883
 20
134.5858
  0
VERTEX
  8
LAYER_1
 10
148.2175
 20
134.5858
  0
SEQEND
  0
POLYLINE
  8
LAYER_1
 40
0.1764
 41
0.1764
 66
1
 10
0
 20
0
 30
0
  0
VERTEX
  8
LAYER_1
 10
138.5655
 20
128.7438
  0
VERTEX
  8
LAYER_1
 10
138.5655
 20
134.2472
  0
SEQEND
  0
POLYLINE
  8
LAYER_1
 40
0.1764
 41
0.1764
 66
1
 10
0
 20
0
 30
0
  0
VERTEX
  8
LAYER_1
 10
148.5562
 20
128.7438
  0
VERTEX
  8
LAYER_1
 10
148.5562
 20
134.2472
  0
SEQEND
  0
POLYLINE
  8
LAYER_1
 40
0.1764
 41
0.1764
 66
1
 10
0
 20
0
 30
0
  0
VERTEX
  8
LAYER_1
 10
138.883
 20
134.5858
  0
VERTEX
  8
LAYER_1
 10
138.5655
 20
134.2472
  0
SEQEND
  0
POLYLINE
  8
LAYER_1
 40
0.1764
 41
0.1764
 66
1
 10
0
 20
0
 30
0
  0
VERTEX
  8
LAYER_1
 10
138.883
 20
128.4263
  0
VERTEX
  8
LAYER_1
 10
138.5655
 20
128.7438
  0
SEQEND
  0
POLYLINE
  8
LAYER_1
 40
0.1764
 41
0.1764
 66
1
 10
0
 20
0
 30
0
  0
VERTEX
  8
LAYER_1
 10
148.2175
 20
128.4263
  0
VERTEX
  8
LAYER_1
 10
148.5562
 20
128.7438
  0
SEQEND
  0
POLYLINE
  8
LAYER_1
 40
0.1764
 41
0.1764
 66
1
 10
0
 20
0
 30
0
  0
VERTEX
  8
LAYER_1
 10
148.2175
 20
134.5858
  0
VERTEX
  8
LAYER_1
 10
148.5562
 20
134.2472
  0
SEQEND
  0
POLYLINE
  8
LAYER_1
 40
0.1764
 41
0.1764
 66
1
 10
0
 20
0
 30
0
  0
VERTEX
  8
LAYER_1
 10
145.36
 20
134.2472
  0
VERTEX
  8
LAYER_1
 10
145.36
 20
128.7438
  0
SEQEND
  0
POLYLINE
  8
LAYER_1
 40
0.1764
 41
0.1764
 66
1
 10
0
 20
0
 30
0
  0
VERTEX
  8
LAYER_1
 10
146.6935
 20
128.7438
  0
VERTEX
  8
LAYER_1
 10
146.6935
 20
134.2472
  0
VERTEX
  8
LAYER_1
 10
145.36
 20
134.2472
  0
SEQEND
  0
POLYLINE
  8
LAYER_1
 40
0.1764
 41
0.1764
 66
1
 10
0
 20
0
 30
0
  0
VERTEX
  8
LAYER_1
 10
146.6935
 20
128.7438
  0
VERTEX
  8
LAYER_1
 10
145.36
 20
128.7438
  0
SEQEND
  0
POLYLINE
  8
LAYER_1
 40
0.1764
 41
0.1764
 66
1
 10
0
 20
0
 30
0
  0
VERTEX
  8
LAYER_1
 10
148.5562
 20
134.2472
  0
VERTEX
  8
LAYER_1
 10
148.3445
 20
134.3954
  0
VERTEX
  8
LAYER_1
 10
148.1116
 20
134.5012
  0
VERTEX
  8
LAYER_1
 10
147.8788
 20
134.5647
  0
VERTEX
  8
LAYER_1
 10
147.6036
 20
134.5858
  0
VERTEX
  8
LAYER_1
 10
147.3708
 20
134.5647
  0
VERTEX
  8
LAYER_1
 10
147.1168
 20
134.48
  0
VERTEX
  8
LAYER_1
 10
146.884
 20
134.3742
  0
VERTEX
  8
LAYER_1
 10
146.6935
 20
134.2472
  0
SEQEND
  0
POLYLINE
  8
LAYER_1
 40
0.1764
 41
0.1764
 66
1
 10
0
 20
0
 30
0
  0
VERTEX
  8
LAYER_1
 10
145.36
 20
134.2472
  0
VERTEX
  8
LAYER_1
 10
144.5133
 20
134.48
  0
VERTEX
  8
LAYER_1
 10
143.6455
 20
134.5858
  0
VERTEX
  8
LAYER_1
 10
142.7777
 20
134.5223
  0
VERTEX
  8
LAYER_1
 10
141.931
 20
134.3107
  0
VERTEX
  8
LAYER_1
 10
141.7616
 20
134.2472
  0
SEQEND
  0
POLYLINE
  8
LAYER_1
 40
0.1764
 41
0.1764
 66
1
 10
0
 20
0
 30
0
  0
VERTEX
  8
LAYER_1
 10
141.7616
 20
128.7438
  0
VERTEX
  8
LAYER_1
 10
142.5871
 20
128.511
  0
VERTEX
  8
LAYER_1
 10
143.455
 20
128.4263
  0
VERTEX
  8
LAYER_1
 10
144.3228
 20
128.4898
  0
VERTEX
  8
LAYER_1
 10
145.1906
 20
128.6803
  0
VERTEX
  8
LAYER_1
 10
145.36
 20
128.7438
  0
SEQEND
  0
POLYLINE
  8
LAYER_1
 40
0.1764
 41
0.1764
 66
1
 10
0
 20
0
 30
0
  0
VERTEX
  8
LAYER_1
 10
146.6935
 20
128.7438
  0
VERTEX
  8
LAYER_1
 10
146.9052
 20
128.6169
  0
VERTEX
  8
LAYER_1
 10
147.138
 20
128.511
  0
VERTEX
  8
LAYER_1
 10
147.392
 20
128.4475
  0
VERTEX
  8
LAYER_1
 10
147.6248
 20
128.4263
  0
VERTEX
  8
LAYER_1
 10
147.9
 20
128.4475
  0
VERTEX
  8
LAYER_1
 10
148.1328
 20
128.511
  0
VERTEX
  8
LAYER_1
 10
148.3656
 20
128.6169
  0
VERTEX
  8
LAYER_1
 10
148.5562
 20
128.7438
  0
SEQEND
  0
POLYLINE
  8
LAYER_1
 40
0.1764
 41
0.1764
 66
1
 10
0
 20
0
 30
0
  0
VERTEX
  8
LAYER_1
 10
140.788
 20
126.7542
  0
VERTEX
  8
LAYER_1
 10
141.8463
 20
126.7542
  0
VERTEX
  8
LAYER_1
 10
141.8463
 20
116.7635
  0
SEQEND
  0
POLYLINE
  8
LAYER_1
 40
0.1764
 41
0.1764
 66
1
 10
0
 20
0
 30
0
  0
VERTEX
  8
LAYER_1
 10
140.788
 20
126.7542
  0
VERTEX
  8
LAYER_1
 10
140.788
 20
116.7635
  0
VERTEX
  8
LAYER_1
 10
141.8463
 20
116.7635
  0
SEQEND
  0
POLYLINE
  8
LAYER_1
 40
0.1764
 41
0.1764
 66
1
 10
0
 20
0
 30
0
  0
VERTEX
  8
LAYER_1
 10
140.788
 20
126.7542
  0
VERTEX
  8
LAYER_1
 10
140.6187
 20
126.9023
  0
VERTEX
  8
LAYER_1
 10
140.407
 20
127.0082
  0
VERTEX
  8
LAYER_1
 10
140.1953
 20
127.0717
  0
VERTEX
  8
LAYER_1
 10
139.9837
 20
127.0928
  0
VERTEX
  8
LAYER_1
 10
139.7508
 20
127.0717
  0
VERTEX
  8
LAYER_1
 10
139.518
 20
127.0293
  0
VERTEX
  8
LAYER_1
 10
139.3063
 20
126.9447
  0
VERTEX
  8
LAYER_1
 10
139.1158
 20
126.8177
  0
VERTEX
  8
LAYER_1
 10
139.0523
 20
126.7542
  0
SEQEND
  0
POLYLINE
  8
LAYER_1
 40
0.1764
 41
0.1764
 66
1
 10
0
 20
0
 30
0
  0
VERTEX
  8
LAYER_1
 10
139.0523
 20
116.7635
  0
VERTEX
  8
LAYER_1
 10
139.2428
 20
116.6365
  0
VERTEX
  8
LAYER_1
 10
139.4545
 20
116.5307
  0
VERTEX
  8
LAYER_1
 10
139.645
 20
116.446
  0
VERTEX
  8
LAYER_1
 10
139.8778
 20
116.446
  0
VERTEX
  8
LAYER_1
 10
140.1107
 20
116.446
  0
VERTEX
  8
LAYER_1
 10
140.3435
 20
116.4883
  0
VERTEX
  8
LAYER_1
 10
140.534
 20
116.5942
  0
VERTEX
  8
LAYER_1
 10
140.7245
 20
116.7
  0
VERTEX
  8
LAYER_1
 10
140.788
 20
116.7635
  0
SEQEND
  0
POLYLINE
  8
LAYER_1
 40
0.1764
 41
0.1764
 66
1
 10
0
 20
0
 30
0
  0
VERTEX
  8
LAYER_1
 10
140.407
 20
134.2472
  0
VERTEX
  8
LAYER_1
 10
141.7616
 20
134.2472
  0
SEQEND
  0
POLYLINE
  8
LAYER_1
 40
0.1764
 41
0.1764
 66
1
 10
0
 20
0
 30
0
  0
VERTEX
  8
LAYER_1
 10
140.407
 20
128.7438
  0
VERTEX
  8
LAYER_1
 10
141.7616
 20
128.7438
  0
SEQEND
  0
POLYLINE
  8
LAYER_1
 40
0.1764
 41
0.1764
 66
1
 10
0
 20
0
 30
0
  0
VERTEX
  8
LAYER_1
 10
141.7616
 20
134.2472
  0
VERTEX
  8
LAYER_1
 10
141.7616
 20
128.7438
  0
SEQEND
  0
POLYLINE
  8
LAYER_1
 40
0.1764
 41
0.1764
 66
1
 10
0
 20
0
 30
0
  0
VERTEX
  8
LAYER_1
 10
140.407
 20
128.7438
  0
VERTEX
  8
LAYER_1
 10
140.407
 20
134.2472
  0
SEQEND
  0
POLYLINE
  8
LAYER_1
 40
0.1764
 41
0.1764
 66
1
 10
0
 20
0
 30
0
  0
VERTEX
  8
LAYER_1
 10
138.5655
 20
128.7438
  0
VERTEX
  8
LAYER_1
 10
138.756
 20
128.6168
  0
VERTEX
  8
LAYER_1
 10
138.9888
 20
128.511
  0
VERTEX
  8
LAYER_1
 10
139.2428
 20
128.4475
  0
VERTEX
  8
LAYER_1
 10
139.4968
 20
128.4263
  0
VERTEX
  8
LAYER_1
 10
139.7508
 20
128.4475
  0
VERTEX
  8
LAYER_1
 10
140.0048
 20
128.511
  0
VERTEX
  8
LAYER_1
 10
140.2165
 20
128.6168
  0
VERTEX
  8
LAYER_1
 10
140.407
 20
128.7438
  0
SEQEND
  0
POLYLINE
  8
LAYER_1
 40
0.1764
 41
0.1764
 66
1
 10
0
 20
0
 30
0
  0
VERTEX
  8
LAYER_1
 10
140.407
 20
134.2472
  0
VERTEX
  8
LAYER_1
 10
140.1953
 20
134.3953
  0
VERTEX
  8
LAYER_1
 10
139.9836
 20
134.5012
  0
VERTEX
  8
LAYER_1
 10
139.7296
 20
134.5647
  0
VERTEX
  8
LAYER_1
 10
139.4756
 20
134.5858
  0
VERTEX
  8
LAYER_1
 10
139.2217
 20
134.5647
  0
VERTEX
  8
LAYER_1
 10
138.9677
 20
134.48
  0
VERTEX
  8
LAYER_1
 10
138.7348
 20
134.3742
  0
VERTEX
  8
LAYER_1
 10
138.5655
 20
134.2472
  0
SEQEND
  0
POLYLINE
  8
LAYER_1
 40
0.1764
 41
0.1764
 66
1
 10
0
 20
0
 30
0
  0
VERTEX
  8
LAYER_1
 10
147.2227
 20
134.5858
  0
VERTEX
  8
LAYER_1
 10
139.8778
 20
134.5858
  0
SEQEND
  0
POLYLINE
  8
LAYER_1
 40
0.1764
 41
0.1764
 66
1
 10
0
 20
0
 30
0
  0
VERTEX
  8
LAYER_1
 10
138.0575
 20
228.8622
  0
VERTEX
  8
LAYER_1
 10
135.3905
 20
228.8622
  0
SEQEND
  0
POLYLINE
  8
LAYER_1
 40
0.1764
 41
0.1764
 66
1
 10
0
 20
0
 30
0
  0
VERTEX
  8
LAYER_1
 10
137.5495
 20
220.8612
  0
VERTEX
  8
LAYER_1
 10
135.3905
 20
220.8612
  0
SEQEND
  0
POLYLINE
  8
LAYER_1
 40
0.1764
 41
0.1764
 66
1
 10
0
 20
0
 30
0
  0
VERTEX
  8
LAYER_1
 10
147.7306
 20
213.1988
  0
VERTEX
  8
LAYER_1
 10
139.391
 20
213.1988
  0
SEQEND
  0
POLYLINE
  8
LAYER_1
 40
0.1764
 41
0.1764
 66
1
 10
0
 20
0
 30
0
  0
VERTEX
  8
LAYER_1
 10
146.6511
 20
234.8523
  0
VERTEX
  8
LAYER_1
 10
140.4705
 20
234.8523
  0
SEQEND
  0
POLYLINE
  8
LAYER_1
 40
0.1764
 41
0.1764
 66
1
 10
0
 20
0
 30
0
  0
VERTEX
  8
LAYER_1
 10
140.0683
 20
234.4713
  0
VERTEX
  8
LAYER_1
 10
140.0683
 20
230.873
  0
SEQEND
  0
POLYLINE
  8
LAYER_1
 40
0.1764
 41
0.1764
 66
1
 10
0
 20
0
 30
0
  0
VERTEX
  8
LAYER_1
 10
138.7348
 20
213.5798
  0
VERTEX
  8
LAYER_1
 10
138.7348
 20
216.8607
  0
SEQEND
  0
POLYLINE
  8
LAYER_1
 40
0.1764
 41
0.1764
 66
1
 10
0
 20
0
 30
0
  0
VERTEX
  8
LAYER_1
 10
148.3656
 20
213.5798
  0
VERTEX
  8
LAYER_1
 10
148.3656
 20
216.8607
  0
SEQEND
  0
POLYLINE
  8
LAYER_1
 40
0.1764
 41
0.1764
 66
1
 10
0
 20
0
 30
0
  0
VERTEX
  8
LAYER_1
 10
147.0321
 20
234.4713
  0
VERTEX
  8
LAYER_1
 10
147.0321
 20
231.127
  0
SEQEND
  0
POLYLINE
  8
LAYER_1
 40
0.1764
 41
0.1764
 66
1
 10
0
 20
0
 30
0
  0
VERTEX
  8
LAYER_1
 10
147.7095
 20
220.1203
  0
VERTEX
  8
LAYER_1
 10
147.9423
 20
221.094
  0
VERTEX
  8
LAYER_1
 10
148.154
 20
222.0677
  0
VERTEX
  8
LAYER_1
 10
148.281
 20
223.0625
  0
VERTEX
  8
LAYER_1
 10
148.3656
 20
224.0573
  0
VERTEX
  8
LAYER_1
 10
148.3868
 20
225.0522
  0
VERTEX
  8
LAYER_1
 10
148.3445
 20
226.047
  0
VERTEX
  8
LAYER_1
 10
148.2386
 20
227.063
  0
VERTEX
  8
LAYER_1
 10
148.0905
 20
228.0367
  0
VERTEX
  8
LAYER_1
 10
147.8576
 20
229.0103
  0
VERTEX
  8
LAYER_1
 10
147.5825
 20
229.984
  0
VERTEX
  8
LAYER_1
 10
147.2438
 20
230.9153
  0
VERTEX
  8
LAYER_1
 10
147.2438
 20
230.9365
  0
SEQEND
  0
POLYLINE
  8
LAYER_1
 40
0.1764
 41
0.1764
 66
1
 10
0
 20
0
 30
0
  0
VERTEX
  8
LAYER_1
 10
138.0575
 20
228.8622
  0
VERTEX
  8
LAYER_1
 10
138.4173
 20
228.9045
  0
VERTEX
  8
LAYER_1
 10
138.7348
 20
228.9892
  0
VERTEX
  8
LAYER_1
 10
139.0735
 20
229.1374
  0
VERTEX
  8
LAYER_1
 10
139.3486
 20
229.3278
  0
VERTEX
  8
LAYER_1
 10
139.6027
 20
229.5818
  0
VERTEX
  8
LAYER_1
 10
139.7932
 20
229.857
  0
VERTEX
  8
LAYER_1
 10
139.9413
 20
230.1745
  0
VERTEX
  8
LAYER_1
 10
140.026
 20
230.5132
  0
VERTEX
  8
LAYER_1
 10
140.0683
 20
230.873
  0
SEQEND
  0
POLYLINE
  8
LAYER_1
 40
0.1764
 41
0.1764
 66
1
 10
0
 20
0
 30
0
  0
VERTEX
  8
LAYER_1
 10
139.5603
 20
218.8715
  0
VERTEX
  8
LAYER_1
 10
139.518
 20
219.2102
  0
VERTEX
  8
LAYER_1
 10
139.4333
 20
219.5488
  0
VERTEX
  8
LAYER_1
 10
139.2852
 20
219.8663
  0
VERTEX
  8
LAYER_1
 10
139.0946
 20
220.1627
  0
VERTEX
  8
LAYER_1
 10
138.8406
 20
220.3955
  0
VERTEX
  8
LAYER_1
 10
138.5655
 20
220.6072
  0
VERTEX
  8
LAYER_1
 10
138.248
 20
220.7553
  0
VERTEX
  8
LAYER_1
 10
137.9093
 20
220.84
  0
VERTEX
  8
LAYER_1
 10
137.5495
 20
220.8612
  0
SEQEND
  0
POLYLINE
  8
LAYER_1
 40
0.1764
 41
0.1764
 66
1
 10
0
 20
0
 30
0
  0
VERTEX
  8
LAYER_1
 10
138.7348
 20
216.8607
  0
VERTEX
  8
LAYER_1
 10
139.0523
 20
217.2417
  0
VERTEX
  8
LAYER_1
 10
139.2852
 20
217.6862
  0
VERTEX
  8
LAYER_1
 10
139.4545
 20
218.1518
  0
VERTEX
  8
LAYER_1
 10
139.5392
 20
218.6387
  0
VERTEX
  8
LAYER_1
 10
139.5603
 20
218.8715
  0
SEQEND
  0
POLYLINE
  8
LAYER_1
 40
0.1764
 41
0.1764
 66
1
 10
0
 20
0
 30
0
  0
VERTEX
  8
LAYER_1
 10
147.7095
 20
220.1203
  0
VERTEX
  8
LAYER_1
 10
147.5613
 20
219.5277
  0
VERTEX
  8
LAYER_1
 10
147.5613
 20
218.9138
  0
VERTEX
  8
LAYER_1
 10
147.646
 20
218.3
  0
VERTEX
  8
LAYER_1
 10
147.8365
 20
217.7285
  0
VERTEX
  8
LAYER_1
 10
148.1328
 20
217.1993
  0
VERTEX
  8
LAYER_1
 10
148.3656
 20
216.8607
  0
SEQEND
  0
POLYLINE
  8
LAYER_1
 40
0.1764
 41
0.1764
 66
1
 10
0
 20
0
 30
0
  0
VERTEX
  8
LAYER_1
 10
140.4705
 20
234.8523
  0
VERTEX
  8
LAYER_1
 10
140.0683
 20
234.4713
  0
SEQEND
  0
POLYLINE
  8
LAYER_1
 40
0.1764
 41
0.1764
 66
1
 10
0
 20
0
 30
0
  0
VERTEX
  8
LAYER_1
 10
140.4705
 20
231.5292
  0
VERTEX
  8
LAYER_1
 10
140.0683
 20
231.127
  0
SEQEND
  0
POLYLINE
  8
LAYER_1
 40
0.1764
 41
0.1764
 66
1
 10
0
 20
0
 30
0
  0
VERTEX
  8
LAYER_1
 10
146.6512
 20
234.8523
  0
VERTEX
  8
LAYER_1
 10
147.0321
 20
234.4713
  0
SEQEND
  0
POLYLINE
  8
LAYER_1
 40
0.1764
 41
0.1764
 66
1
 10
0
 20
0
 30
0
  0
VERTEX
  8
LAYER_1
 10
146.6512
 20
231.5292
  0
VERTEX
  8
LAYER_1
 10
147.2438
 20
230.9365
  0
SEQEND
  0
POLYLINE
  8
LAYER_1
 40
0.1764
 41
0.1764
 66
1
 10
0
 20
0
 30
0
  0
VERTEX
  8
LAYER_1
 10
139.391
 20
213.1988
  0
VERTEX
  8
LAYER_1
 10
138.7348
 20
213.5798
  0
SEQEND
  0
POLYLINE
  8
LAYER_1
 40
0.1764
 41
0.1764
 66
1
 10
0
 20
0
 30
0
  0
VERTEX
  8
LAYER_1
 10
147.7307
 20
213.1988
  0
VERTEX
  8
LAYER_1
 10
148.3657
 20
213.5798
  0
SEQEND
  0
POLYLINE
  8
LAYER_1
 40
0.1764
 41
0.1764
 66
1
 10
0
 20
0
 30
0
  0
VERTEX
  8
LAYER_1
 10
138.7348
 20
216.8607
  0
VERTEX
  8
LAYER_1
 10
148.3657
 20
216.8607
  0
SEQEND
  0
POLYLINE
  8
LAYER_1
 40
0.1764
 41
0.1764
 66
1
 10
0
 20
0
 30
0
  0
VERTEX
  8
LAYER_1
 10
141.042
 20
213.5798
  0
VERTEX
  8
LAYER_1
 10
141.042
 20
216.4797
  0
SEQEND
  0
POLYLINE
  8
LAYER_1
 40
0.1764
 41
0.1764
 66
1
 10
0
 20
0
 30
0
  0
VERTEX
  8
LAYER_1
 10
141.6135
 20
213.5798
  0
VERTEX
  8
LAYER_1
 10
141.6135
 20
216.4797
  0
SEQEND
  0
POLYLINE
  8
LAYER_1
 40
0.1764
 41
0.1764
 66
1
 10
0
 20
0
 30
0
  0
VERTEX
  8
LAYER_1
 10
138.7348
 20
213.601
  0
VERTEX
  8
LAYER_1
 10
139.01
 20
213.4317
  0
VERTEX
  8
LAYER_1
 10
139.3275
 20
213.2835
  0
VERTEX
  8
LAYER_1
 10
139.645
 20
213.22
  0
VERTEX
  8
LAYER_1
 10
139.9837
 20
213.22
  0
VERTEX
  8
LAYER_1
 10
140.3012
 20
213.2412
  0
VERTEX
  8
LAYER_1
 10
140.6187
 20
213.347
  0
VERTEX
  8
LAYER_1
 10
140.915
 20
213.4952
  0
SEQEND
  0
POLYLINE
  8
LAYER_1
 40
0.1764
 41
0.1764
 66
1
 10
0
 20
0
 30
0
  0
VERTEX
  8
LAYER_1
 10
140.915
 20
213.4952
  0
VERTEX
  8
LAYER_1
 10
141.042
 20
213.5798
  0
SEQEND
  0
POLYLINE
  8
LAYER_1
 40
0.1764
 41
0.1764
 66
1
 10
0
 20
0
 30
0
  0
VERTEX
  8
LAYER_1
 10
141.6135
 20
213.5798
  0
VERTEX
  8
LAYER_1
 10
142.4813
 20
213.3259
  0
VERTEX
  8
LAYER_1
 10
143.3703
 20
213.22
  0
VERTEX
  8
LAYER_1
 10
144.2593
 20
213.2412
  0
VERTEX
  8
LAYER_1
 10
145.1271
 20
213.4528
  0
VERTEX
  8
LAYER_1
 10
145.487
 20
213.5798
  0
SEQEND
  0
POLYLINE
  8
LAYER_1
 40
0.1764
 41
0.1764
 66
1
 10
0
 20
0
 30
0
  0
VERTEX
  8
LAYER_1
 10
141.6135
 20
213.5798
  0
VERTEX
  8
LAYER_1
 10
141.042
 20
213.5798
  0
SEQEND
  0
POLYLINE
  8
LAYER_1
 40
0.1764
 41
0.1764
 66
1
 10
0
 20
0
 30
0
  0
VERTEX
  8
LAYER_1
 10
141.6135
 20
216.4797
  0
VERTEX
  8
LAYER_1
 10
141.042
 20
216.4797
  0
VERTEX
  8
LAYER_1
 10
140.7456
 20
216.6702
  0
VERTEX
  8
LAYER_1
 10
140.4281
 20
216.7972
  0
VERTEX
  8
LAYER_1
 10
140.1106
 20
216.8607
  0
VERTEX
  8
LAYER_1
 10
139.772
 20
216.8607
  0
VERTEX
  8
LAYER_1
 10
139.4333
 20
216.8183
  0
VERTEX
  8
LAYER_1
 10
139.0946
 20
216.7125
  0
VERTEX
  8
LAYER_1
 10
138.7983
 20
216.5432
  0
VERTEX
  8
LAYER_1
 10
138.7348
 20
216.4797
  0
SEQEND
  0
POLYLINE
  8
LAYER_1
 40
0.1764
 41
0.1764
 66
1
 10
0
 20
0
 30
0
  0
VERTEX
  8
LAYER_1
 10
145.487
 20
213.5798
  0
VERTEX
  8
LAYER_1
 10
145.487
 20
216.4797
  0
SEQEND
  0
POLYLINE
  8
LAYER_1
 40
0.1764
 41
0.1764
 66
1
 10
0
 20
0
 30
0
  0
VERTEX
  8
LAYER_1
 10
146.0585
 20
213.5798
  0
VERTEX
  8
LAYER_1
 10
146.0585
 20
216.4797
  0
SEQEND
  0
POLYLINE
  8
LAYER_1
 40
0.1764
 41
0.1764
 66
1
 10
0
 20
0
 30
0
  0
VERTEX
  8
LAYER_1
 10
146.0585
 20
213.5798
  0
VERTEX
  8
LAYER_1
 10
146.3548
 20
213.4105
  0
VERTEX
  8
LAYER_1
 10
146.6723
 20
213.2835
  0
VERTEX
  8
LAYER_1
 10
146.9898
 20
213.22
  0
VERTEX
  8
LAYER_1
 10
147.3285
 20
213.22
  0
VERTEX
  8
LAYER_1
 10
147.646
 20
213.2412
  0
VERTEX
  8
LAYER_1
 10
147.9635
 20
213.3682
  0
VERTEX
  8
LAYER_1
 10
148.2598
 20
213.5163
  0
VERTEX
  8
LAYER_1
 10
148.3656
 20
213.601
  0
SEQEND
  0
POLYLINE
  8
LAYER_1
 40
0.1764
 41
0.1764
 66
1
 10
0
 20
0
 30
0
  0
VERTEX
  8
LAYER_1
 10
148.3656
 20
216.4797
  0
VERTEX
  8
LAYER_1
 10
148.0905
 20
216.6702
  0
VERTEX
  8
LAYER_1
 10
147.773
 20
216.7972
  0
VERTEX
  8
LAYER_1
 10
147.4343
 20
216.8607
  0
VERTEX
  8
LAYER_1
 10
147.0956
 20
216.8607
  0
VERTEX
  8
LAYER_1
 10
146.757
 20
216.8183
  0
VERTEX
  8
LAYER_1
 10
146.4395
 20
216.7125
  0
VERTEX
  8
LAYER_1
 10
146.1431
 20
216.5432
  0
VERTEX
  8
LAYER_1
 10
146.0585
 20
216.4797
  0
SEQEND
  0
POLYLINE
  8
LAYER_1
 40
0.1764
 41
0.1764
 66
1
 10
0
 20
0
 30
0
  0
VERTEX
  8
LAYER_1
 10
145.487
 20
216.4797
  0
VERTEX
  8
LAYER_1
 10
146.0585
 20
216.4797
  0
SEQEND
  0
POLYLINE
  8
LAYER_1
 40
0.1764
 41
0.1764
 66
1
 10
0
 20
0
 30
0
  0
VERTEX
  8
LAYER_1
 10
145.487
 20
213.5798
  0
VERTEX
  8
LAYER_1
 10
146.0585
 20
213.5798
  0
SEQEND
  0
POLYLINE
  8
LAYER_1
 40
0.1764
 41
0.1764
 66
1
 10
0
 20
0
 30
0
  0
VERTEX
  8
LAYER_1
 10
145.487
 20
216.4797
  0
VERTEX
  8
LAYER_1
 10
144.6403
 20
216.7548
  0
VERTEX
  8
LAYER_1
 10
143.7513
 20
216.8607
  0
VERTEX
  8
LAYER_1
 10
142.8623
 20
216.8183
  0
VERTEX
  8
LAYER_1
 10
141.9733
 20
216.6278
  0
VERTEX
  8
LAYER_1
 10
141.6135
 20
216.4797
  0
SEQEND
  0
POLYLINE
  8
LAYER_1
 40
0.1764
 41
0.1764
 66
1
 10
0
 20
0
 30
0
  0
VERTEX
  8
LAYER_1
 10
135.7503
 20
220.8612
  0
VERTEX
  8
LAYER_1
 10
135.7503
 20
228.8622
  0
SEQEND
  0
POLYLINE
  8
LAYER_1
 40
0.1764
 41
0.1764
 66
1
 10
0
 20
0
 30
0
  0
VERTEX
  8
LAYER_1
 10
140.0683
 20
234.4713
  0
VERTEX
  8
LAYER_1
 10
147.0321
 20
234.4713
  0
SEQEND
  0
POLYLINE
  8
LAYER_1
 40
0.1764
 41
0.1764
 66
1
 10
0
 20
0
 30
0
  0
VERTEX
  8
LAYER_1
 10
140.0683
 20
231.5292
  0
VERTEX
  8
LAYER_1
 10
147.0321
 20
231.5292
  0
SEQEND
  0
POLYLINE
  8
LAYER_1
 40
0.1764
 41
0.1764
 66
1
 10
0
 20
0
 30
0
  0
VERTEX
  8
LAYER_1
 10
140.0683
 20
231.127
  0
VERTEX
  8
LAYER_1
 10
147.0321
 20
231.127
  0
SEQEND
  0
POLYLINE
  8
LAYER_1
 40
0.1764
 41
0.1764
 66
1
 10
0
 20
0
 30
0
  0
VERTEX
  8
LAYER_1
 10
138.6501
 20
223.38
  0
VERTEX
  8
LAYER_1
 10
138.6501
 20
223.8668
  0
SEQEND
  0
POLYLINE
  8
LAYER_1
 40
0.1764
 41
0.1764
 66
1
 10
0
 20
0
 30
0
  0
VERTEX
  8
LAYER_1
 10
138.5231
 20
223.38
  0
VERTEX
  8
LAYER_1
 10
138.5866
 20
223.9515
  0
SEQEND
  0
POLYLINE
  8
LAYER_1
 40
0.1764
 41
0.1764
 66
1
 10
0
 20
0
 30
0
  0
VERTEX
  8
LAYER_1
 10
138.3961
 20
223.8668
  0
VERTEX
  8
LAYER_1
 10
138.3326
 20
223.38
  0
SEQEND
  0
POLYLINE
  8
LAYER_1
 40
0.1764
 41
0.1764
 66
1
 10
0
 20
0
 30
0
  0
VERTEX
  8
LAYER_1
 10
138.2903
 20
223.38
  0
VERTEX
  8
LAYER_1
 10
138.2903
 20
223.9515
  0
SEQEND
  0
POLYLINE
  8
LAYER_1
 40
0.1764
 41
0.1764
 66
1
 10
0
 20
0
 30
0
  0
VERTEX
  8
LAYER_1
 10
138.2057
 20
223.9515
  0
VERTEX
  8
LAYER_1
 10
138.1845
 20
223.9515
  0
VERTEX
  8
LAYER_1
 10
138.1633
 20
223.9515
  0
VERTEX
  8
LAYER_1
 10
138.1633
 20
223.9303
  0
VERTEX
  8
LAYER_1
 10
138.1422
 20
223.9303
  0
VERTEX
  8
LAYER_1
 10
138.1422
 20
223.9091
  0
VERTEX
  8
LAYER_1
 10
138.121
 20
223.9091
  0
VERTEX
  8
LAYER_1
 10
138.121
 20
223.888
  0
VERTEX
  8
LAYER_1
 10
138.121
 20
223.8668
  0
SEQEND
  0
POLYLINE
  8
LAYER_1
 40
0.1764
 41
0.1764
 66
1
 10
0
 20
0
 30
0
  0
VERTEX
  8
LAYER_1
 10
138.502
 20
223.9515
  0
VERTEX
  8
LAYER_1
 10
138.4808
 20
223.9515
  0
VERTEX
  8
LAYER_1
 10
138.4597
 20
223.9515
  0
VERTEX
  8
LAYER_1
 10
138.4597
 20
223.9303
  0
VERTEX
  8
LAYER_1
 10
138.4385
 20
223.9303
  0
VERTEX
  8
LAYER_1
 10
138.4173
 20
223.9091
  0
VERTEX
  8
LAYER_1
 10
138.4173
 20
223.888
  0
VERTEX
  8
LAYER_1
 10
138.3962
 20
223.8668
  0
SEQEND
  0
POLYLINE
  8
LAYER_1
 40
0.1764
 41
0.1764
 66
1
 10
0
 20
0
 30
0
  0
VERTEX
  8
LAYER_1
 10
138.7348
 20
223.9515
  0
VERTEX
  8
LAYER_1
 10
138.7137
 20
223.9515
  0
VERTEX
  8
LAYER_1
 10
138.6925
 20
223.9303
  0
VERTEX
  8
LAYER_1
 10
138.6713
 20
223.9303
  0
VERTEX
  8
LAYER_1
 10
138.6713
 20
223.9091
  0
VERTEX
  8
LAYER_1
 10
138.6502
 20
223.9091
  0
VERTEX
  8
LAYER_1
 10
138.6502
 20
223.888
  0
VERTEX
  8
LAYER_1
 10
138.6502
 20
223.8668
  0
SEQEND
  0
POLYLINE
  8
LAYER_1
 40
0.1764
 41
0.1764
 66
1
 10
0
 20
0
 30
0
  0
VERTEX
  8
LAYER_1
 10
138.121
 20
224.1208
  0
VERTEX
  8
LAYER_1
 10
138.2903
 20
224.1208
  0
VERTEX
  8
LAYER_1
 10
138.2903
 20
224.3748
  0
SEQEND
  0
POLYLINE
  8
LAYER_1
 40
0.1764
 41
0.1764
 66
1
 10
0
 20
0
 30
0
  0
VERTEX
  8
LAYER_1
 10
138.2057
 20
224.5653
  0
VERTEX
  8
LAYER_1
 10
138.4385
 20
224.5653
  0
SEQEND
  0
POLYLINE
  8
LAYER_1
 40
0.1764
 41
0.1764
 66
1
 10
0
 20
0
 30
0
  0
VERTEX
  8
LAYER_1
 10
138.2903
 20
224.3748
  0
VERTEX
  8
LAYER_1
 10
138.4385
 20
224.3748
  0
SEQEND
  0
POLYLINE
  8
LAYER_1
 40
0.1764
 41
0.1764
 66
1
 10
0
 20
0
 30
0
  0
VERTEX
  8
LAYER_1
 10
138.6501
 20
224.0361
  0
VERTEX
  8
LAYER_1
 10
138.6501
 20
224.1631
  0
VERTEX
  8
LAYER_1
 10
138.6501
 20
224.2055
  0
VERTEX
  8
LAYER_1
 10
138.629
 20
224.2266
  0
VERTEX
  8
LAYER_1
 10
138.6078
 20
224.269
  0
VERTEX
  8
LAYER_1
 10
138.5866
 20
224.2901
  0
VERTEX
  8
LAYER_1
 10
138.5655
 20
224.3325
  0
VERTEX
  8
LAYER_1
 10
138.5443
 20
224.3536
  0
VERTEX
  8
LAYER_1
 10
138.502
 20
224.3748
  0
VERTEX
  8
LAYER_1
 10
138.4596
 20
224.3748
  0
VERTEX
  8
LAYER_1
 10
138.4385
 20
224.3748
  0
SEQEND
  0
POLYLINE
  8
LAYER_1
 40
0.1764
 41
0.1764
 66
1
 10
0
 20
0
 30
0
  0
VERTEX
  8
LAYER_1
 10
138.5443
 20
224.5441
  0
VERTEX
  8
LAYER_1
 10
138.5866
 20
224.5865
  0
VERTEX
  8
LAYER_1
 10
138.6078
 20
224.6711
  0
VERTEX
  8
LAYER_1
 10
138.629
 20
224.7346
  0
VERTEX
  8
LAYER_1
 10
138.6501
 20
224.8193
  0
VERTEX
  8
LAYER_1
 10
138.6501
 20
224.8405
  0
SEQEND
  0
POLYLINE
  8
LAYER_1
 40
0.1764
 41
0.1764
 66
1
 10
0
 20
0
 30
0
  0
VERTEX
  8
LAYER_1
 10
138.6925
 20
224.4383
  0
VERTEX
  8
LAYER_1
 10
138.756
 20
224.5441
  0
VERTEX
  8
LAYER_1
 10
138.7983
 20
224.6288
  0
VERTEX
  8
LAYER_1
 10
138.8195
 20
224.7347
  0
VERTEX
  8
LAYER_1
 10
138.8195
 20
224.8405
  0
SEQEND
  0
POLYLINE
  8
LAYER_1
 40
0.1764
 41
0.1764
 66
1
 10
0
 20
0
 30
0
  0
VERTEX
  8
LAYER_1
 10
138.3962
 20
224.7558
  0
VERTEX
  8
LAYER_1
 10
138.3962
 20
224.9675
  0
SEQEND
  0
POLYLINE
  8
LAYER_1
 40
0.1764
 41
0.1764
 66
1
 10
0
 20
0
 30
0
  0
VERTEX
  8
LAYER_1
 10
138.121
 20
224.9251
  0
VERTEX
  8
LAYER_1
 10
138.3962
 20
224.7558
  0
SEQEND
  0
POLYLINE
  8
LAYER_1
 40
0.1764
 41
0.1764
 66
1
 10
0
 20
0
 30
0
  0
VERTEX
  8
LAYER_1
 10
138.2903
 20
225.031
  0
VERTEX
  8
LAYER_1
 10
138.3962
 20
224.9675
  0
SEQEND
  0
POLYLINE
  8
LAYER_1
 40
0.1764
 41
0.1764
 66
1
 10
0
 20
0
 30
0
  0
VERTEX
  8
LAYER_1
 10
138.2903
 20
225.031
  0
VERTEX
  8
LAYER_1
 10
138.2903
 20
225.1791
  0
SEQEND
  0
POLYLINE
  8
LAYER_1
 40
0.1764
 41
0.1764
 66
1
 10
0
 20
0
 30
0
  0
VERTEX
  8
LAYER_1
 10
138.2057
 20
225.3485
  0
VERTEX
  8
LAYER_1
 10
138.1845
 20
225.3485
  0
VERTEX
  8
LAYER_1
 10
138.1633
 20
225.3485
  0
VERTEX
  8
LAYER_1
 10
138.1422
 20
225.3273
  0
VERTEX
  8
LAYER_1
 10
138.121
 20
225.3061
  0
VERTEX
  8
LAYER_1
 10
138.121
 20
225.285
  0
VERTEX
  8
LAYER_1
 10
138.121
 20
225.2638
  0
SEQEND
  0
POLYLINE
  8
LAYER_1
 40
0.1764
 41
0.1764
 66
1
 10
0
 20
0
 30
0
  0
VERTEX
  8
LAYER_1
 10
138.6502
 20
224.9251
  0
VERTEX
  8
LAYER_1
 10
138.6502
 20
224.9675
  0
SEQEND
  0
POLYLINE
  8
LAYER_1
 40
0.1764
 41
0.1764
 66
1
 10
0
 20
0
 30
0
  0
VERTEX
  8
LAYER_1
 10
138.8195
 20
224.9675
  0
VERTEX
  8
LAYER_1
 10
138.8195
 20
225.031
  0
VERTEX
  8
LAYER_1
 10
138.7983
 20
225.0945
  0
VERTEX
  8
LAYER_1
 10
138.7772
 20
225.158
  0
VERTEX
  8
LAYER_1
 10
138.7348
 20
225.2215
  0
VERTEX
  8
LAYER_1
 10
138.6925
 20
225.2638
  0
VERTEX
  8
LAYER_1
 10
138.629
 20
225.3061
  0
VERTEX
  8
LAYER_1
 10
138.5655
 20
225.3273
  0
VERTEX
  8
LAYER_1
 10
138.502
 20
225.3485
  0
VERTEX
  8
LAYER_1
 10
138.4385
 20
225.3485
  0
SEQEND
  0
POLYLINE
  8
LAYER_1
 40
0.1764
 41
0.1764
 66
1
 10
0
 20
0
 30
0
  0
VERTEX
  8
LAYER_1
 10
138.5443
 20
225.0733
  0
VERTEX
  8
LAYER_1
 10
138.5443
 20
225.1368
  0
SEQEND
  0
POLYLINE
  8
LAYER_1
 40
0.1764
 41
0.1764
 66
1
 10
0
 20
0
 30
0
  0
VERTEX
  8
LAYER_1
 10
138.375
 20
225.0733
  0
VERTEX
  8
LAYER_1
 10
138.375
 20
225.1791
  0
SEQEND
  0
POLYLINE
  8
LAYER_1
 40
0.1764
 41
0.1764
 66
1
 10
0
 20
0
 30
0
  0
VERTEX
  8
LAYER_1
 10
138.5443
 20
225.0733
  0
VERTEX
  8
LAYER_1
 10
138.375
 20
225.0733
  0
SEQEND
  0
POLYLINE
  8
LAYER_1
 40
0.1764
 41
0.1764
 66
1
 10
0
 20
0
 30
0
  0
VERTEX
  8
LAYER_1
 10
138.2903
 20
225.1791
  0
VERTEX
  8
LAYER_1
 10
138.375
 20
225.1791
  0
SEQEND
  0
POLYLINE
  8
LAYER_1
 40
0.1764
 41
0.1764
 66
1
 10
0
 20
0
 30
0
  0
VERTEX
  8
LAYER_1
 10
138.6502
 20
224.9675
  0
VERTEX
  8
LAYER_1
 10
138.6502
 20
225.0098
  0
VERTEX
  8
LAYER_1
 10
138.629
 20
225.031
  0
VERTEX
  8
LAYER_1
 10
138.6078
 20
225.0733
  0
VERTEX
  8
LAYER_1
 10
138.5867
 20
225.1156
  0
VERTEX
  8
LAYER_1
 10
138.5655
 20
225.1156
  0
VERTEX
  8
LAYER_1
 10
138.5443
 20
225.1368
  0
SEQEND
  0
POLYLINE
  8
LAYER_1
 40
0.1764
 41
0.1764
 66
1
 10
0
 20
0
 30
0
  0
VERTEX
  8
LAYER_1
 10
138.2903
 20
225.4543
  0
VERTEX
  8
LAYER_1
 10
138.2903
 20
225.8776
  0
SEQEND
  0
POLYLINE
  8
LAYER_1
 40
0.1764
 41
0.1764
 66
1
 10
0
 20
0
 30
0
  0
VERTEX
  8
LAYER_1
 10
138.6502
 20
225.4543
  0
VERTEX
  8
LAYER_1
 10
138.6502
 20
225.793
  0
SEQEND
  0
POLYLINE
  8
LAYER_1
 40
0.1764
 41
0.1764
 66
1
 10
0
 20
0
 30
0
  0
VERTEX
  8
LAYER_1
 10
138.2057
 20
225.8776
  0
VERTEX
  8
LAYER_1
 10
138.1845
 20
225.8776
  0
VERTEX
  8
LAYER_1
 10
138.1633
 20
225.8565
  0
VERTEX
  8
LAYER_1
 10
138.1422
 20
225.8565
  0
VERTEX
  8
LAYER_1
 10
138.1422
 20
225.8353
  0
VERTEX
  8
LAYER_1
 10
138.121
 20
225.8353
  0
VERTEX
  8
LAYER_1
 10
138.121
 20
225.8141
  0
VERTEX
  8
LAYER_1
 10
138.121
 20
225.793
  0
SEQEND
  0
POLYLINE
  8
LAYER_1
 40
0.1764
 41
0.1764
 66
1
 10
0
 20
0
 30
0
  0
VERTEX
  8
LAYER_1
 10
138.7348
 20
225.8776
  0
VERTEX
  8
LAYER_1
 10
138.7137
 20
225.8565
  0
VERTEX
  8
LAYER_1
 10
138.6925
 20
225.8565
  0
VERTEX
  8
LAYER_1
 10
138.6713
 20
225.8565
  0
VERTEX
  8
LAYER_1
 10
138.6713
 20
225.8353
  0
VERTEX
  8
LAYER_1
 10
138.6502
 20
225.8353
  0
VERTEX
  8
LAYER_1
 10
138.6502
 20
225.8141
  0
VERTEX
  8
LAYER_1
 10
138.6502
 20
225.793
  0
SEQEND
  0
POLYLINE
  8
LAYER_1
 40
0.1764
 41
0.1764
 66
1
 10
0
 20
0
 30
0
  0
VERTEX
  8
LAYER_1
 10
138.8195
 20
224.1632
  0
VERTEX
  8
LAYER_1
 10
138.8195
 20
224.2266
  0
VERTEX
  8
LAYER_1
 10
138.7983
 20
224.2901
  0
VERTEX
  8
LAYER_1
 10
138.7772
 20
224.3536
  0
VERTEX
  8
LAYER_1
 10
138.7348
 20
224.4171
  0
VERTEX
  8
LAYER_1
 10
138.6925
 20
224.4383
  0
SEQEND
  0
POLYLINE
  8
LAYER_1
 40
0.1764
 41
0.1764
 66
1
 10
0
 20
0
 30
0
  0
VERTEX
  8
LAYER_1
 10
138.5443
 20
224.5442
  0
VERTEX
  8
LAYER_1
 10
138.4808
 20
224.5653
  0
VERTEX
  8
LAYER_1
 10
138.4385
 20
224.5653
  0
SEQEND
  0
POLYLINE
  8
LAYER_1
 40
0.1764
 41
0.1764
 66
1
 10
0
 20
0
 30
0
  0
VERTEX
  8
LAYER_1
 10
138.1633
 20
224.65
  0
VERTEX
  8
LAYER_1
 10
138.1845
 20
224.6712
  0
VERTEX
  8
LAYER_1
 10
138.2057
 20
224.6712
  0
VERTEX
  8
LAYER_1
 10
138.2057
 20
224.6923
  0
VERTEX
  8
LAYER_1
 10
138.2057
 20
224.7135
  0
VERTEX
  8
LAYER_1
 10
138.2057
 20
224.7347
  0
VERTEX
  8
LAYER_1
 10
138.2057
 20
224.7558
  0
VERTEX
  8
LAYER_1
 10
138.1845
 20
224.7558
  0
VERTEX
  8
LAYER_1
 10
138.1633
 20
224.7558
  0
VERTEX
  8
LAYER_1
 10
138.1422
 20
224.7558
  0
VERTEX
  8
LAYER_1
 10
138.121
 20
224.7558
  0
VERTEX
  8
LAYER_1
 10
138.121
 20
224.7347
  0
VERTEX
  8
LAYER_1
 10
138.121
 20
224.7135
  0
VERTEX
  8
LAYER_1
 10
138.121
 20
224.6923
  0
VERTEX
  8
LAYER_1
 10
138.121
 20
224.6712
  0
VERTEX
  8
LAYER_1
 10
138.1422
 20
224.6712
  0
VERTEX
  8
LAYER_1
 10
138.1633
 20
224.6712
  0
VERTEX
  8
LAYER_1
 10
138.1633
 20
224.65
  0
SEQEND
  0
POLYLINE
  8
LAYER_1
 40
0.1764
 41
0.1764
 66
1
 10
0
 20
0
 30
0
  0
VERTEX
  8
LAYER_1
 10
138.1633
 20
224.5653
  0
VERTEX
  8
LAYER_1
 10
138.1845
 20
224.5653
  0
SEQEND
  0
POLYLINE
  8
LAYER_1
 40
0.1764
 41
0.1764
 66
1
 10
0
 20
0
 30
0
  0
VERTEX
  8
LAYER_1
 10
138.1845
 20
224.5653
  0
VERTEX
  8
LAYER_1
 10
138.2056
 20
224.5653
  0
VERTEX
  8
LAYER_1
 10
138.2056
 20
224.5865
  0
VERTEX
  8
LAYER_1
 10
138.2056
 20
224.6077
  0
VERTEX
  8
LAYER_1
 10
138.2056
 20
224.6288
  0
VERTEX
  8
LAYER_1
 10
138.2056
 20
224.65
  0
VERTEX
  8
LAYER_1
 10
138.1845
 20
224.65
  0
VERTEX
  8
LAYER_1
 10
138.1633
 20
224.65
  0
VERTEX
  8
LAYER_1
 10
138.1421
 20
224.65
  0
VERTEX
  8
LAYER_1
 10
138.121
 20
224.65
  0
VERTEX
  8
LAYER_1
 10
138.121
 20
224.6288
  0
VERTEX
  8
LAYER_1
 10
138.121
 20
224.6077
  0
VERTEX
  8
LAYER_1
 10
138.121
 20
224.5865
  0
VERTEX
  8
LAYER_1
 10
138.1421
 20
224.5653
  0
VERTEX
  8
LAYER_1
 10
138.1633
 20
224.5653
  0
SEQEND
  0
POLYLINE
  8
LAYER_1
 40
0.1764
 41
0.1764
 66
1
 10
0
 20
0
 30
0
  0
VERTEX
  8
LAYER_1
 10
138.6501
 20
224.0362
  0
VERTEX
  8
LAYER_1
 10
138.8195
 20
224.0362
  0
SEQEND
  0
POLYLINE
  8
LAYER_1
 40
0.1764
 41
0.1764
 66
1
 10
0
 20
0
 30
0
  0
VERTEX
  8
LAYER_1
 10
138.6501
 20
224.8405
  0
VERTEX
  8
LAYER_1
 10
138.8195
 20
224.8405
  0
SEQEND
  0
POLYLINE
  8
LAYER_1
 40
0.1764
 41
0.1764
 66
1
 10
0
 20
0
 30
0
  0
VERTEX
  8
LAYER_1
 10
138.6501
 20
224.9252
  0
VERTEX
  8
LAYER_1
 10
138.8195
 20
224.9252
  0
SEQEND
  0
POLYLINE
  8
LAYER_1
 40
0.1764
 41
0.1764
 66
1
 10
0
 20
0
 30
0
  0
VERTEX
  8
LAYER_1
 10
138.2056
 20
225.3485
  0
VERTEX
  8
LAYER_1
 10
138.4385
 20
225.3485
  0
SEQEND
  0
POLYLINE
  8
LAYER_1
 40
0.1764
 41
0.1764
 66
1
 10
0
 20
0
 30
0
  0
VERTEX
  8
LAYER_1
 10
138.121
 20
223.38
  0
VERTEX
  8
LAYER_1
 10
138.121
 20
223.8669
  0
SEQEND
  0
POLYLINE
  8
LAYER_1
 40
0.1764
 41
0.1764
 66
1
 10
0
 20
0
 30
0
  0
VERTEX
  8
LAYER_1
 10
138.121
 20
224.1208
  0
VERTEX
  8
LAYER_1
 10
138.121
 20
224.4595
  0
SEQEND
  0
POLYLINE
  8
LAYER_1
 40
0.1764
 41
0.1764
 66
1
 10
0
 20
0
 30
0
  0
VERTEX
  8
LAYER_1
 10
138.121
 20
224.9252
  0
VERTEX
  8
LAYER_1
 10
138.121
 20
225.2639
  0
SEQEND
  0
POLYLINE
  8
LAYER_1
 40
0.1764
 41
0.1764
 66
1
 10
0
 20
0
 30
0
  0
VERTEX
  8
LAYER_1
 10
138.121
 20
225.4544
  0
VERTEX
  8
LAYER_1
 10
138.121
 20
225.793
  0
SEQEND
  0
POLYLINE
  8
LAYER_1
 40
0.1764
 41
0.1764
 66
1
 10
0
 20
0
 30
0
  0
VERTEX
  8
LAYER_1
 10
138.8195
 20
225.4544
  0
VERTEX
  8
LAYER_1
 10
138.8195
 20
225.8777
  0
SEQEND
  0
POLYLINE
  8
LAYER_1
 40
0.1764
 41
0.1764
 66
1
 10
0
 20
0
 30
0
  0
VERTEX
  8
LAYER_1
 10
138.8195
 20
224.9252
  0
VERTEX
  8
LAYER_1
 10
138.8195
 20
224.9675
  0
SEQEND
  0
POLYLINE
  8
LAYER_1
 40
0.1764
 41
0.1764
 66
1
 10
0
 20
0
 30
0
  0
VERTEX
  8
LAYER_1
 10
138.8195
 20
223.38
  0
VERTEX
  8
LAYER_1
 10
138.8195
 20
223.9515
  0
SEQEND
  0
POLYLINE
  8
LAYER_1
 40
0.1764
 41
0.1764
 66
1
 10
0
 20
0
 30
0
  0
VERTEX
  8
LAYER_1
 10
138.2903
 20
223.9515
  0
VERTEX
  8
LAYER_1
 10
138.2056
 20
223.9515
  0
SEQEND
  0
POLYLINE
  8
LAYER_1
 40
0.1764
 41
0.1764
 66
1
 10
0
 20
0
 30
0
  0
VERTEX
  8
LAYER_1
 10
138.8195
 20
223.9515
  0
VERTEX
  8
LAYER_1
 10
138.7348
 20
223.9515
  0
SEQEND
  0
POLYLINE
  8
LAYER_1
 40
0.1764
 41
0.1764
 66
1
 10
0
 20
0
 30
0
  0
VERTEX
  8
LAYER_1
 10
138.5866
 20
223.9515
  0
VERTEX
  8
LAYER_1
 10
138.502
 20
223.9515
  0
SEQEND
  0
POLYLINE
  8
LAYER_1
 40
0.1764
 41
0.1764
 66
1
 10
0
 20
0
 30
0
  0
VERTEX
  8
LAYER_1
 10
138.8195
 20
223.38
  0
VERTEX
  8
LAYER_1
 10
138.6501
 20
223.38
  0
SEQEND
  0
POLYLINE
  8
LAYER_1
 40
0.1764
 41
0.1764
 66
1
 10
0
 20
0
 30
0
  0
VERTEX
  8
LAYER_1
 10
138.5231
 20
223.38
  0
VERTEX
  8
LAYER_1
 10
138.3326
 20
223.38
  0
SEQEND
  0
POLYLINE
  8
LAYER_1
 40
0.1764
 41
0.1764
 66
1
 10
0
 20
0
 30
0
  0
VERTEX
  8
LAYER_1
 10
138.2903
 20
223.38
  0
VERTEX
  8
LAYER_1
 10
138.121
 20
223.38
  0
SEQEND
  0
POLYLINE
  8
LAYER_1
 40
0.1764
 41
0.1764
 66
1
 10
0
 20
0
 30
0
  0
VERTEX
  8
LAYER_1
 10
138.2903
 20
225.8777
  0
VERTEX
  8
LAYER_1
 10
138.2056
 20
225.8777
  0
SEQEND
  0
POLYLINE
  8
LAYER_1
 40
0.1764
 41
0.1764
 66
1
 10
0
 20
0
 30
0
  0
VERTEX
  8
LAYER_1
 10
138.8195
 20
225.4544
  0
VERTEX
  8
LAYER_1
 10
138.6501
 20
225.4544
  0
SEQEND
  0
POLYLINE
  8
LAYER_1
 40
0.1764
 41
0.1764
 66
1
 10
0
 20
0
 30
0
  0
VERTEX
  8
LAYER_1
 10
138.2903
 20
225.4544
  0
VERTEX
  8
LAYER_1
 10
138.121
 20
225.4544
  0
SEQEND
  0
POLYLINE
  8
LAYER_1
 40
0.1764
 41
0.1764
 66
1
 10
0
 20
0
 30
0
  0
VERTEX
  8
LAYER_1
 10
138.8195
 20
224.0362
  0
VERTEX
  8
LAYER_1
 10
138.8195
 20
224.1632
  0
SEQEND
  0
POLYLINE
  8
LAYER_1
 40
0.1764
 41
0.1764
 66
1
 10
0
 20
0
 30
0
  0
VERTEX
  8
LAYER_1
 10
138.8195
 20
224.7982
  0
VERTEX
  8
LAYER_1
 10
138.8195
 20
224.8405
  0
SEQEND
  0
POLYLINE
  8
LAYER_1
 40
0.1764
 41
0.1764
 66
1
 10
0
 20
0
 30
0
  0
VERTEX
  8
LAYER_1
 10
138.2056
 20
224.5653
  0
VERTEX
  8
LAYER_1
 10
138.1845
 20
224.5653
  0
VERTEX
  8
LAYER_1
 10
138.1633
 20
224.5442
  0
VERTEX
  8
LAYER_1
 10
138.1421
 20
224.5442
  0
VERTEX
  8
LAYER_1
 10
138.1421
 20
224.523
  0
VERTEX
  8
LAYER_1
 10
138.121
 20
224.5018
  0
VERTEX
  8
LAYER_1
 10
138.121
 20
224.4807
  0
VERTEX
  8
LAYER_1
 10
138.121
 20
224.4595
  0
SEQEND
  0
POLYLINE
  8
LAYER_1
 40
0.1764
 41
0.1764
 66
1
 10
0
 20
0
 30
0
  0
VERTEX
  8
LAYER_1
 10
137.613
 20
223.9515
  0
VERTEX
  8
LAYER_1
 10
137.232
 20
223.9515
  0
SEQEND
  0
POLYLINE
  8
LAYER_1
 40
0.1764
 41
0.1764
 66
1
 10
0
 20
0
 30
0
  0
VERTEX
  8
LAYER_1
 10
137.232
 20
224.0362
  0
VERTEX
  8
LAYER_1
 10
137.613
 20
224.0362
  0
SEQEND
  0
POLYLINE
  8
LAYER_1
 40
0.1764
 41
0.1764
 66
1
 10
0
 20
0
 30
0
  0
VERTEX
  8
LAYER_1
 10
137.232
 20
224.0362
  0
VERTEX
  8
LAYER_1
 10
137.232
 20
223.9515
  0
SEQEND
  0
POLYLINE
  8
LAYER_1
 40
0.1764
 41
0.1764
 66
1
 10
0
 20
0
 30
0
  0
VERTEX
  8
LAYER_1
 10
137.613
 20
224.0362
  0
VERTEX
  8
LAYER_1
 10
137.613
 20
223.9515
  0
SEQEND
  0
POLYLINE
  8
LAYER_1
 40
0.1764
 41
0.1764
 66
1
 10
0
 20
0
 30
0
  0
VERTEX
  8
LAYER_1
 10
137.6765
 20
223.7398
  0
VERTEX
  8
LAYER_1
 10
137.7188
 20
223.6975
  0
SEQEND
  0
POLYLINE
  8
LAYER_1
 40
0.1764
 41
0.1764
 66
1
 10
0
 20
0
 30
0
  0
VERTEX
  8
LAYER_1
 10
137.232
 20
224.2055
  0
VERTEX
  8
LAYER_1
 10
137.232
 20
224.2478
  0
SEQEND
  0
POLYLINE
  8
LAYER_1
 40
0.1764
 41
0.1764
 66
1
 10
0
 20
0
 30
0
  0
VERTEX
  8
LAYER_1
 10
137.613
 20
224.0997
  0
VERTEX
  8
LAYER_1
 10
137.613
 20
224.1632
  0
SEQEND
  0
POLYLINE
  8
LAYER_1
 40
0.1764
 41
0.1764
 66
1
 10
0
 20
0
 30
0
  0
VERTEX
  8
LAYER_1
 10
137.613
 20
224.0997
  0
VERTEX
  8
LAYER_1
 10
137.5283
 20
224.0997
  0
SEQEND
  0
POLYLINE
  8
LAYER_1
 40
0.1764
 41
0.1764
 66
1
 10
0
 20
0
 30
0
  0
VERTEX
  8
LAYER_1
 10
137.2955
 20
224.2478
  0
VERTEX
  8
LAYER_1
 10
137.232
 20
224.2478
  0
SEQEND
  0
POLYLINE
  8
LAYER_1
 40
0.1764
 41
0.1764
 66
1
 10
0
 20
0
 30
0
  0
VERTEX
  8
LAYER_1
 10
137.2955
 20
224.2267
  0
VERTEX
  8
LAYER_1
 10
137.2955
 20
224.2478
  0
SEQEND
  0
POLYLINE
  8
LAYER_1
 40
0.1764
 41
0.1764
 66
1
 10
0
 20
0
 30
0
  0
VERTEX
  8
LAYER_1
 10
137.4013
 20
224.142
  0
VERTEX
  8
LAYER_1
 10
137.4648
 20
224.1843
  0
SEQEND
  0
POLYLINE
  8
LAYER_1
 40
0.1764
 41
0.1764
 66
1
 10
0
 20
0
 30
0
  0
VERTEX
  8
LAYER_1
 10
137.2955
 20
224.2267
  0
VERTEX
  8
LAYER_1
 10
137.2955
 20
224.2055
  0
VERTEX
  8
LAYER_1
 10
137.3166
 20
224.1843
  0
VERTEX
  8
LAYER_1
 10
137.3378
 20
224.1843
  0
VERTEX
  8
LAYER_1
 10
137.359
 20
224.1843
  0
VERTEX
  8
LAYER_1
 10
137.359
 20
224.2055
  0
VERTEX
  8
LAYER_1
 10
137.4225
 20
224.2478
  0
SEQEND
  0
POLYLINE
  8
LAYER_1
 40
0.1764
 41
0.1764
 66
1
 10
0
 20
0
 30
0
  0
VERTEX
  8
LAYER_1
 10
137.613
 20
224.1632
  0
VERTEX
  8
LAYER_1
 10
137.613
 20
224.1843
  0
VERTEX
  8
LAYER_1
 10
137.5918
 20
224.2055
  0
VERTEX
  8
LAYER_1
 10
137.5918
 20
224.2267
  0
VERTEX
  8
LAYER_1
 10
137.5706
 20
224.2267
  0
VERTEX
  8
LAYER_1
 10
137.5706
 20
224.2478
  0
VERTEX
  8
LAYER_1
 10
137.5495
 20
224.269
  0
VERTEX
  8
LAYER_1
 10
137.5283
 20
224.269
  0
VERTEX
  8
LAYER_1
 10
137.5071
 20
224.269
  0
VERTEX
  8
LAYER_1
 10
137.486
 20
224.269
  0
VERTEX
  8
LAYER_1
 10
137.4648
 20
224.269
  0
VERTEX
  8
LAYER_1
 10
137.4436
 20
224.269
  0
VERTEX
  8
LAYER_1
 10
137.4225
 20
224.2478
  0
SEQEND
  0
POLYLINE
  8
LAYER_1
 40
0.1764
 41
0.1764
 66
1
 10
0
 20
0
 30
0
  0
VERTEX
  8
LAYER_1
 10
137.5283
 20
224.1632
  0
VERTEX
  8
LAYER_1
 10
137.5283
 20
224.1843
  0
VERTEX
  8
LAYER_1
 10
137.5283
 20
224.2055
  0
VERTEX
  8
LAYER_1
 10
137.5071
 20
224.2055
  0
VERTEX
  8
LAYER_1
 10
137.486
 20
224.2055
  0
VERTEX
  8
LAYER_1
 10
137.4648
 20
224.2055
  0
VERTEX
  8
LAYER_1
 10
137.4648
 20
224.1843
  0
SEQEND
  0
POLYLINE
  8
LAYER_1
 40
0.1764
 41
0.1764
 66
1
 10
0
 20
0
 30
0
  0
VERTEX
  8
LAYER_1
 10
137.232
 20
224.2055
  0
VERTEX
  8
LAYER_1
 10
137.232
 20
224.1843
  0
VERTEX
  8
LAYER_1
 10
137.2531
 20
224.1632
  0
VERTEX
  8
LAYER_1
 10
137.2531
 20
224.142
  0
VERTEX
  8
LAYER_1
 10
137.2743
 20
224.1208
  0
VERTEX
  8
LAYER_1
 10
137.2955
 20
224.1208
  0
VERTEX
  8
LAYER_1
 10
137.2955
 20
224.0997
  0
VERTEX
  8
LAYER_1
 10
137.3166
 20
224.0997
  0
VERTEX
  8
LAYER_1
 10
137.3378
 20
224.0997
  0
VERTEX
  8
LAYER_1
 10
137.359
 20
224.0997
  0
VERTEX
  8
LAYER_1
 10
137.3801
 20
224.1208
  0
VERTEX
  8
LAYER_1
 10
137.4013
 20
224.1208
  0
VERTEX
  8
LAYER_1
 10
137.4013
 20
224.142
  0
SEQEND
  0
POLYLINE
  8
LAYER_1
 40
0.1764
 41
0.1764
 66
1
 10
0
 20
0
 30
0
  0
VERTEX
  8
LAYER_1
 10
137.5283
 20
224.1632
  0
VERTEX
  8
LAYER_1
 10
137.5283
 20
224.0997
  0
SEQEND
  0
POLYLINE
  8
LAYER_1
 40
0.1764
 41
0.1764
 66
1
 10
0
 20
0
 30
0
  0
VERTEX
  8
LAYER_1
 10
137.4648
 20
223.8033
  0
VERTEX
  8
LAYER_1
 10
137.232
 20
223.8033
  0
SEQEND
  0
POLYLINE
  8
LAYER_1
 40
0.1764
 41
0.1764
 66
1
 10
0
 20
0
 30
0
  0
VERTEX
  8
LAYER_1
 10
137.4648
 20
223.888
  0
VERTEX
  8
LAYER_1
 10
137.232
 20
223.888
  0
VERTEX
  8
LAYER_1
 10
137.232
 20
223.8033
  0
SEQEND
  0
POLYLINE
  8
LAYER_1
 40
0.1764
 41
0.1764
 66
1
 10
0
 20
0
 30
0
  0
VERTEX
  8
LAYER_1
 10
137.486
 20
223.5917
  0
VERTEX
  8
LAYER_1
 10
137.5071
 20
223.5917
  0
VERTEX
  8
LAYER_1
 10
137.5283
 20
223.6128
  0
VERTEX
  8
LAYER_1
 10
137.5495
 20
223.634
  0
VERTEX
  8
LAYER_1
 10
137.5706
 20
223.634
  0
VERTEX
  8
LAYER_1
 10
137.5918
 20
223.6763
  0
VERTEX
  8
LAYER_1
 10
137.613
 20
223.6975
  0
VERTEX
  8
LAYER_1
 10
137.613
 20
223.7398
  0
VERTEX
  8
LAYER_1
 10
137.613
 20
223.761
  0
VERTEX
  8
LAYER_1
 10
137.5918
 20
223.7821
  0
VERTEX
  8
LAYER_1
 10
137.5918
 20
223.8033
  0
VERTEX
  8
LAYER_1
 10
137.5706
 20
223.8245
  0
VERTEX
  8
LAYER_1
 10
137.5495
 20
223.8456
  0
VERTEX
  8
LAYER_1
 10
137.5283
 20
223.8668
  0
VERTEX
  8
LAYER_1
 10
137.5071
 20
223.8668
  0
VERTEX
  8
LAYER_1
 10
137.486
 20
223.888
  0
VERTEX
  8
LAYER_1
 10
137.4648
 20
223.888
  0
SEQEND
  0
POLYLINE
  8
LAYER_1
 40
0.1764
 41
0.1764
 66
1
 10
0
 20
0
 30
0
  0
VERTEX
  8
LAYER_1
 10
137.486
 20
223.6552
  0
VERTEX
  8
LAYER_1
 10
137.5071
 20
223.6763
  0
VERTEX
  8
LAYER_1
 10
137.5283
 20
223.6763
  0
VERTEX
  8
LAYER_1
 10
137.5283
 20
223.6975
  0
VERTEX
  8
LAYER_1
 10
137.5283
 20
223.7186
  0
VERTEX
  8
LAYER_1
 10
137.5283
 20
223.7398
  0
VERTEX
  8
LAYER_1
 10
137.5283
 20
223.761
  0
VERTEX
  8
LAYER_1
 10
137.5071
 20
223.7821
  0
VERTEX
  8
LAYER_1
 10
137.486
 20
223.8033
  0
VERTEX
  8
LAYER_1
 10
137.4648
 20
223.8033
  0
SEQEND
  0
POLYLINE
  8
LAYER_1
 40
0.1764
 41
0.1764
 66
1
 10
0
 20
0
 30
0
  0
VERTEX
  8
LAYER_1
 10
137.6765
 20
223.7398
  0
VERTEX
  8
LAYER_1
 10
137.7188
 20
223.8033
  0
VERTEX
  8
LAYER_1
 10
137.74
 20
223.8456
  0
VERTEX
  8
LAYER_1
 10
137.7611
 20
223.9091
  0
VERTEX
  8
LAYER_1
 10
137.7823
 20
223.9726
  0
VERTEX
  8
LAYER_1
 10
137.7823
 20
224.0362
  0
VERTEX
  8
LAYER_1
 10
137.7611
 20
224.0997
  0
VERTEX
  8
LAYER_1
 10
137.74
 20
224.1632
  0
VERTEX
  8
LAYER_1
 10
137.7188
 20
224.2055
  0
VERTEX
  8
LAYER_1
 10
137.6765
 20
224.2478
  0
VERTEX
  8
LAYER_1
 10
137.6341
 20
224.2901
  0
VERTEX
  8
LAYER_1
 10
137.5706
 20
224.3325
  0
VERTEX
  8
LAYER_1
 10
137.5071
 20
224.3536
  0
VERTEX
  8
LAYER_1
 10
137.4436
 20
224.3536
  0
VERTEX
  8
LAYER_1
 10
137.3801
 20
224.3536
  0
VERTEX
  8
LAYER_1
 10
137.3166
 20
224.3536
  0
VERTEX
  8
LAYER_1
 10
137.2743
 20
224.3325
  0
VERTEX
  8
LAYER_1
 10
137.2108
 20
224.2901
  0
VERTEX
  8
LAYER_1
 10
137.1685
 20
224.2478
  0
VERTEX
  8
LAYER_1
 10
137.1261
 20
224.2055
  0
VERTEX
  8
LAYER_1
 10
137.105
 20
224.1632
  0
VERTEX
  8
LAYER_1
 10
137.0838
 20
224.0997
  0
VERTEX
  8
LAYER_1
 10
137.0626
 20
224.0362
  0
VERTEX
  8
LAYER_1
 10
137.0626
 20
223.9726
  0
VERTEX
  8
LAYER_1
 10
137.0838
 20
223.9091
  0
VERTEX
  8
LAYER_1
 10
137.105
 20
223.8456
  0
VERTEX
  8
LAYER_1
 10
137.1261
 20
223.8033
  0
VERTEX
  8
LAYER_1
 10
137.1685
 20
223.7398
  0
VERTEX
  8
LAYER_1
 10
137.2108
 20
223.6975
  0
SEQEND
  0
POLYLINE
  8
LAYER_1
 40
0.1764
 41
0.1764
 66
1
 10
0
 20
0
 30
0
  0
VERTEX
  8
LAYER_1
 10
137.2108
 20
223.6975
  0
VERTEX
  8
LAYER_1
 10
137.2743
 20
223.6764
  0
VERTEX
  8
LAYER_1
 10
137.3166
 20
223.6552
  0
VERTEX
  8
LAYER_1
 10
137.3801
 20
223.6552
  0
VERTEX
  8
LAYER_1
 10
137.4436
 20
223.6552
  0
VERTEX
  8
LAYER_1
 10
137.486
 20
223.6552
  0
SEQEND
  0
POLYLINE
  8
LAYER_1
 40
0.1764
 41
0.1764
 66
1
 10
0
 20
0
 30
0
  0
VERTEX
  8
LAYER_1
 10
137.7188
 20
223.6975
  0
VERTEX
  8
LAYER_1
 10
137.7611
 20
223.761
  0
VERTEX
  8
LAYER_1
 10
137.8035
 20
223.8245
  0
VERTEX
  8
LAYER_1
 10
137.8246
 20
223.888
  0
VERTEX
  8
LAYER_1
 10
137.8458
 20
223.9727
  0
VERTEX
  8
LAYER_1
 10
137.8458
 20
224.0362
  0
VERTEX
  8
LAYER_1
 10
137.8246
 20
224.0997
  0
VERTEX
  8
LAYER_1
 10
137.8035
 20
224.1844
  0
VERTEX
  8
LAYER_1
 10
137.7611
 20
224.2267
  0
VERTEX
  8
LAYER_1
 10
137.7188
 20
224.2902
  0
VERTEX
  8
LAYER_1
 10
137.6553
 20
224.3537
  0
VERTEX
  8
LAYER_1
 10
137.5918
 20
224.3749
  0
VERTEX
  8
LAYER_1
 10
137.5283
 20
224.396
  0
VERTEX
  8
LAYER_1
 10
137.4648
 20
224.4172
  0
VERTEX
  8
LAYER_1
 10
137.3801
 20
224.4172
  0
VERTEX
  8
LAYER_1
 10
137.2955
 20
224.396
  0
VERTEX
  8
LAYER_1
 10
137.2531
 20
224.3749
  0
VERTEX
  8
LAYER_1
 10
137.1685
 20
224.3537
  0
VERTEX
  8
LAYER_1
 10
137.1261
 20
224.2902
  0
VERTEX
  8
LAYER_1
 10
137.0838
 20
224.2267
  0
VERTEX
  8
LAYER_1
 10
137.0415
 20
224.1844
  0
VERTEX
  8
LAYER_1
 10
137.0203
 20
224.0997
  0
VERTEX
  8
LAYER_1
 10
136.9991
 20
224.0362
  0
VERTEX
  8
LAYER_1
 10
136.9991
 20
223.9727
  0
VERTEX
  8
LAYER_1
 10
137.0203
 20
223.888
  0
VERTEX
  8
LAYER_1
 10
137.0415
 20
223.8245
  0
VERTEX
  8
LAYER_1
 10
137.0838
 20
223.761
  0
VERTEX
  8
LAYER_1
 10
137.1261
 20
223.6975
  0
VERTEX
  8
LAYER_1
 10
137.1685
 20
223.6552
  0
VERTEX
  8
LAYER_1
 10
137.2531
 20
223.634
  0
VERTEX
  8
LAYER_1
 10
137.2955
 20
223.5917
  0
VERTEX
  8
LAYER_1
 10
137.3801
 20
223.5917
  0
VERTEX
  8
LAYER_1
 10
137.4648
 20
223.5917
  0
VERTEX
  8
LAYER_1
 10
137.486
 20
223.5917
  0
SEQEND
  0
POLYLINE
  8
LAYER_1
 40
0.1764
 41
0.1764
 66
1
 10
0
 20
0
 30
0
  0
VERTEX
  8
LAYER_1
 10
137.486
 20
223.6552
  0
SEQEND
  0
POLYLINE
  8
LAYER_1
 40
0.1764
 41
0.1764
 66
1
 10
0
 20
0
 30
0
  0
VERTEX
  8
LAYER_1
 10
137.486
 20
223.5917
  0
SEQEND
  0
POLYLINE
  8
LAYER_1
 40
0.1764
 41
0.1764
 66
1
 10
0
 20
0
 30
0
  0
VERTEX
  8
LAYER_1
 10
138.7348
 20
225.8777
  0
VERTEX
  8
LAYER_1
 10
138.8195
 20
225.8777
  0
SEQEND
  0
POLYLINE
  8
LAYER_1
 40
0.1764
 41
0.1764
 66
1
 10
0
 20
0
 30
0
  0
VERTEX
  8
LAYER_1
 10
137.2743
 20
224.9252
  0
VERTEX
  8
LAYER_1
 10
137.2743
 20
224.7559
  0
SEQEND
  0
POLYLINE
  8
LAYER_1
 40
0.1764
 41
0.1764
 66
1
 10
0
 20
0
 30
0
  0
VERTEX
  8
LAYER_1
 10
137.2743
 20
224.8405
  0
VERTEX
  8
LAYER_1
 10
137.6553
 20
224.8405
  0
SEQEND
  0
POLYLINE
  8
LAYER_1
 40
0.1764
 41
0.1764
 66
1
 10
0
 20
0
 30
0
  0
VERTEX
  8
LAYER_1
 10
137.2743
 20
225.4967
  0
VERTEX
  8
LAYER_1
 10
137.2743
 20
225.666
  0
SEQEND
  0
POLYLINE
  8
LAYER_1
 40
0.1764
 41
0.1764
 66
1
 10
0
 20
0
 30
0
  0
VERTEX
  8
LAYER_1
 10
137.2743
 20
225.158
  0
VERTEX
  8
LAYER_1
 10
137.2743
 20
224.9887
  0
SEQEND
  0
POLYLINE
  8
LAYER_1
 40
0.1764
 41
0.1764
 66
1
 10
0
 20
0
 30
0
  0
VERTEX
  8
LAYER_1
 10
137.2743
 20
225.0945
  0
VERTEX
  8
LAYER_1
 10
137.8458
 20
225.1792
  0
VERTEX
  8
LAYER_1
 10
137.4225
 20
225.3273
  0
SEQEND
  0
POLYLINE
  8
LAYER_1
 40
0.1764
 41
0.1764
 66
1
 10
0
 20
0
 30
0
  0
VERTEX
  8
LAYER_1
 10
137.8458
 20
225.4755
  0
VERTEX
  8
LAYER_1
 10
137.4225
 20
225.3274
  0
SEQEND
  0
POLYLINE
  8
LAYER_1
 40
0.1764
 41
0.1764
 66
1
 10
0
 20
0
 30
0
  0
VERTEX
  8
LAYER_1
 10
137.2743
 20
225.5813
  0
VERTEX
  8
LAYER_1
 10
137.8458
 20
225.4755
  0
SEQEND
  0
POLYLINE
  8
LAYER_1
 40
0.1764
 41
0.1764
 66
1
 10
0
 20
0
 30
0
  0
VERTEX
  8
LAYER_1
 10
137.6553
 20
224.5018
  0
VERTEX
  8
LAYER_1
 10
137.6976
 20
224.5018
  0
VERTEX
  8
LAYER_1
 10
137.7188
 20
224.5018
  0
VERTEX
  8
LAYER_1
 10
137.7611
 20
224.523
  0
VERTEX
  8
LAYER_1
 10
137.7823
 20
224.5442
  0
VERTEX
  8
LAYER_1
 10
137.8035
 20
224.5653
  0
VERTEX
  8
LAYER_1
 10
137.8246
 20
224.5865
  0
VERTEX
  8
LAYER_1
 10
137.8246
 20
224.6077
  0
VERTEX
  8
LAYER_1
 10
137.8458
 20
224.6288
  0
VERTEX
  8
LAYER_1
 10
137.8458
 20
224.6712
  0
VERTEX
  8
LAYER_1
 10
137.8458
 20
224.6923
  0
VERTEX
  8
LAYER_1
 10
137.8246
 20
224.7347
  0
VERTEX
  8
LAYER_1
 10
137.8246
 20
224.7558
  0
VERTEX
  8
LAYER_1
 10
137.8035
 20
224.777
  0
VERTEX
  8
LAYER_1
 10
137.7823
 20
224.7982
  0
VERTEX
  8
LAYER_1
 10
137.7611
 20
224.8194
  0
VERTEX
  8
LAYER_1
 10
137.7188
 20
224.8194
  0
VERTEX
  8
LAYER_1
 10
137.6976
 20
224.8194
  0
VERTEX
  8
LAYER_1
 10
137.6553
 20
224.8405
  0
SEQEND
  0
POLYLINE
  8
LAYER_1
 40
0.1764
 41
0.1764
 66
1
 10
0
 20
0
 30
0
  0
VERTEX
  8
LAYER_1
 10
139.645
 20
224.7982
  0
VERTEX
  8
LAYER_1
 10
139.0946
 20
224.7982
  0
SEQEND
  0
POLYLINE
  8
LAYER_1
 40
0.1764
 41
0.1764
 66
1
 10
0
 20
0
 30
0
  0
VERTEX
  8
LAYER_1
 10
139.645
 20
224.4595
  0
VERTEX
  8
LAYER_1
 10
139.0946
 20
224.4595
  0
SEQEND
  0
POLYLINE
  8
LAYER_1
 40
0.1764
 41
0.1764
 66
1
 10
0
 20
0
 30
0
  0
VERTEX
  8
LAYER_1
 10
139.645
 20
224.3749
  0
VERTEX
  8
LAYER_1
 10
139.645
 20
224.5442
  0
SEQEND
  0
POLYLINE
  8
LAYER_1
 40
0.1764
 41
0.1764
 66
1
 10
0
 20
0
 30
0
  0
VERTEX
  8
LAYER_1
 10
139.645
 20
224.7135
  0
VERTEX
  8
LAYER_1
 10
139.645
 20
224.8829
  0
SEQEND
  0
POLYLINE
  8
LAYER_1
 40
0.1764
 41
0.1764
 66
1
 10
0
 20
0
 30
0
  0
VERTEX
  8
LAYER_1
 10
139.0946
 20
224.7982
  0
VERTEX
  8
LAYER_1
 10
139.391
 20
224.6289
  0
SEQEND
  0
POLYLINE
  8
LAYER_1
 40
0.1764
 41
0.1764
 66
1
 10
0
 20
0
 30
0
  0
VERTEX
  8
LAYER_1
 10
139.0946
 20
224.4595
  0
VERTEX
  8
LAYER_1
 10
139.391
 20
224.6288
  0
SEQEND
  0
POLYLINE
  8
LAYER_1
 40
0.1764
 41
0.1764
 66
1
 10
0
 20
0
 30
0
  0
VERTEX
  8
LAYER_1
 10
147.2226
 20
210.3625
  0
VERTEX
  8
LAYER_1
 10
139.8778
 20
210.3625
  0
SEQEND
  0
POLYLINE
  8
LAYER_1
 40
0.1764
 41
0.1764
 66
1
 10
0
 20
0
 30
0
  0
VERTEX
  8
LAYER_1
 10
147.2226
 20
213.1988
  0
VERTEX
  8
LAYER_1
 10
139.8778
 20
213.1988
  0
SEQEND
  0
POLYLINE
  8
LAYER_1
 40
0.1764
 41
0.1764
 66
1
 10
0
 20
0
 30
0
  0
VERTEX
  8
LAYER_1
 10
139.5603
 20
212.8813
  0
VERTEX
  8
LAYER_1
 10
139.5603
 20
210.7012
  0
VERTEX
  8
LAYER_1
 10
139.8778
 20
210.3625
  0
SEQEND
  0
POLYLINE
  8
LAYER_1
 40
0.1764
 41
0.1764
 66
1
 10
0
 20
0
 30
0
  0
VERTEX
  8
LAYER_1
 10
139.8778
 20
213.1988
  0
VERTEX
  8
LAYER_1
 10
139.5603
 20
212.8813
  0
SEQEND
  0
POLYLINE
  8
LAYER_1
 40
0.1764
 41
0.1764
 66
1
 10
0
 20
0
 30
0
  0
VERTEX
  8
LAYER_1
 10
147.5613
 20
210.7012
  0
VERTEX
  8
LAYER_1
 10
147.2226
 20
210.3625
  0
SEQEND
  0
POLYLINE
  8
LAYER_1
 40
0.1764
 41
0.1764
 66
1
 10
0
 20
0
 30
0
  0
VERTEX
  8
LAYER_1
 10
147.5613
 20
212.8813
  0
VERTEX
  8
LAYER_1
 10
147.5613
 20
210.7012
  0
SEQEND
  0
POLYLINE
  8
LAYER_1
 40
0.1764
 41
0.1764
 66
1
 10
0
 20
0
 30
0
  0
VERTEX
  8
LAYER_1
 10
147.2226
 20
213.1988
  0
VERTEX
  8
LAYER_1
 10
147.5613
 20
212.8813
  0
SEQEND
  0
POLYLINE
  8
LAYER_1
 40
0.1764
 41
0.1764
 66
1
 10
0
 20
0
 30
0
  0
VERTEX
  8
LAYER_1
 10
141.1901
 20
210.7012
  0
VERTEX
  8
LAYER_1
 10
141.9521
 20
210.7012
  0
VERTEX
  8
LAYER_1
 10
142.6083
 20
210.4895
  0
VERTEX
  8
LAYER_1
 10
143.3068
 20
210.3837
  0
VERTEX
  8
LAYER_1
 10
144.0053
 20
210.4048
  0
VERTEX
  8
LAYER_1
 10
144.6826
 20
210.5318
  0
VERTEX
  8
LAYER_1
 10
145.1483
 20
210.7012
  0
SEQEND
  0
POLYLINE
  8
LAYER_1
 40
0.1764
 41
0.1764
 66
1
 10
0
 20
0
 30
0
  0
VERTEX
  8
LAYER_1
 10
139.5603
 20
210.7012
  0
VERTEX
  8
LAYER_1
 10
139.7085
 20
210.5742
  0
VERTEX
  8
LAYER_1
 10
139.8778
 20
210.4895
  0
VERTEX
  8
LAYER_1
 10
140.0683
 20
210.4048
  0
VERTEX
  8
LAYER_1
 10
140.28
 20
210.3625
  0
VERTEX
  8
LAYER_1
 10
140.4705
 20
210.3837
  0
VERTEX
  8
LAYER_1
 10
140.6821
 20
210.4048
  0
VERTEX
  8
LAYER_1
 10
140.8726
 20
210.4895
  0
VERTEX
  8
LAYER_1
 10
141.042
 20
210.5742
  0
VERTEX
  8
LAYER_1
 10
141.1901
 20
210.7012
  0
SEQEND
  0
POLYLINE
  8
LAYER_1
 40
0.1764
 41
0.1764
 66
1
 10
0
 20
0
 30
0
  0
VERTEX
  8
LAYER_1
 10
145.1483
 20
212.8813
  0
VERTEX
  8
LAYER_1
 10
144.4921
 20
213.093
  0
VERTEX
  8
LAYER_1
 10
143.7936
 20
213.1988
  0
VERTEX
  8
LAYER_1
 10
143.0951
 20
213.1777
  0
VERTEX
  8
LAYER_1
 10
142.4178
 20
213.0507
  0
VERTEX
  8
LAYER_1
 10
141.9521
 20
212.8813
  0
SEQEND
  0
POLYLINE
  8
LAYER_1
 40
0.1764
 41
0.1764
 66
1
 10
0
 20
0
 30
0
  0
VERTEX
  8
LAYER_1
 10
141.1901
 20
212.8813
  0
VERTEX
  8
LAYER_1
 10
141.9521
 20
212.8813
  0
SEQEND
  0
POLYLINE
  8
LAYER_1
 40
0.1764
 41
0.1764
 66
1
 10
0
 20
0
 30
0
  0
VERTEX
  8
LAYER_1
 10
141.1901
 20
212.8813
  0
VERTEX
  8
LAYER_1
 10
141.0208
 20
213.0083
  0
VERTEX
  8
LAYER_1
 10
140.8515
 20
213.093
  0
VERTEX
  8
LAYER_1
 10
140.661
 20
213.1777
  0
VERTEX
  8
LAYER_1
 10
140.4705
 20
213.1988
  0
VERTEX
  8
LAYER_1
 10
140.2588
 20
213.1988
  0
VERTEX
  8
LAYER_1
 10
140.0683
 20
213.1565
  0
VERTEX
  8
LAYER_1
 10
139.8778
 20
213.093
  0
VERTEX
  8
LAYER_1
 10
139.6873
 20
212.9872
  0
VERTEX
  8
LAYER_1
 10
139.5603
 20
212.8813
  0
SEQEND
  0
POLYLINE
  8
LAYER_1
 40
0.1764
 41
0.1764
 66
1
 10
0
 20
0
 30
0
  0
VERTEX
  8
LAYER_1
 10
141.9521
 20
210.7012
  0
VERTEX
  8
LAYER_1
 10
141.9521
 20
212.8813
  0
SEQEND
  0
POLYLINE
  8
LAYER_1
 40
0.1764
 41
0.1764
 66
1
 10
0
 20
0
 30
0
  0
VERTEX
  8
LAYER_1
 10
141.1901
 20
210.7012
  0
VERTEX
  8
LAYER_1
 10
141.1901
 20
212.8813
  0
SEQEND
  0
POLYLINE
  8
LAYER_1
 40
0.1764
 41
0.1764
 66
1
 10
0
 20
0
 30
0
  0
VERTEX
  8
LAYER_1
 10
145.1483
 20
210.7012
  0
VERTEX
  8
LAYER_1
 10
145.1483
 20
212.8813
  0
SEQEND
  0
POLYLINE
  8
LAYER_1
 40
0.1764
 41
0.1764
 66
1
 10
0
 20
0
 30
0
  0
VERTEX
  8
LAYER_1
 10
145.9315
 20
210.7012
  0
VERTEX
  8
LAYER_1
 10
145.1483
 20
210.7012
  0
SEQEND
  0
POLYLINE
  8
LAYER_1
 40
0.1764
 41
0.1764
 66
1
 10
0
 20
0
 30
0
  0
VERTEX
  8
LAYER_1
 10
145.9315
 20
210.7012
  0
VERTEX
  8
LAYER_1
 10
145.9315
 20
212.8813
  0
VERTEX
  8
LAYER_1
 10
145.1483
 20
212.8813
  0
SEQEND
  0
POLYLINE
  8
LAYER_1
 40
0.1764
 41
0.1764
 66
1
 10
0
 20
0
 30
0
  0
VERTEX
  8
LAYER_1
 10
147.5613
 20
212.8813
  0
VERTEX
  8
LAYER_1
 10
147.392
 20
213.0083
  0
VERTEX
  8
LAYER_1
 10
147.2226
 20
213.093
  0
VERTEX
  8
LAYER_1
 10
147.0321
 20
213.1777
  0
VERTEX
  8
LAYER_1
 10
146.8416
 20
213.1988
  0
VERTEX
  8
LAYER_1
 10
146.63
 20
213.1988
  0
VERTEX
  8
LAYER_1
 10
146.4395
 20
213.1565
  0
VERTEX
  8
LAYER_1
 10
146.249
 20
213.093
  0
VERTEX
  8
LAYER_1
 10
146.0796
 20
212.9872
  0
VERTEX
  8
LAYER_1
 10
145.9315
 20
212.8813
  0
SEQEND
  0
POLYLINE
  8
LAYER_1
 40
0.1764
 41
0.1764
 66
1
 10
0
 20
0
 30
0
  0
VERTEX
  8
LAYER_1
 10
145.9315
 20
210.7012
  0
VERTEX
  8
LAYER_1
 10
146.0796
 20
210.5742
  0
VERTEX
  8
LAYER_1
 10
146.2701
 20
210.4895
  0
VERTEX
  8
LAYER_1
 10
146.4606
 20
210.4048
  0
VERTEX
  8
LAYER_1
 10
146.6511
 20
210.3625
  0
VERTEX
  8
LAYER_1
 10
146.8416
 20
210.3837
  0
VERTEX
  8
LAYER_1
 10
147.0533
 20
210.4048
  0
VERTEX
  8
LAYER_1
 10
147.2226
 20
210.4895
  0
VERTEX
  8
LAYER_1
 10
147.4131
 20
210.5742
  0
VERTEX
  8
LAYER_1
 10
147.5613
 20
210.7012
  0
SEQEND
  0
POLYLINE
  8
LAYER_1
 40
0.1764
 41
0.1764
 66
1
 10
0
 20
0
 30
0
  0
VERTEX
  8
LAYER_1
 10
135.5598
 20
221.0728
  0
VERTEX
  8
LAYER_1
 10
135.7503
 20
220.8612
  0
SEQEND
  0
POLYLINE
  8
LAYER_1
 40
0.1764
 41
0.1764
 66
1
 10
0
 20
0
 30
0
  0
VERTEX
  8
LAYER_1
 10
135.5598
 20
228.6717
  0
VERTEX
  8
LAYER_1
 10
135.7503
 20
228.8622
  0
SEQEND
  0
POLYLINE
  8
LAYER_1
 40
0.1764
 41
0.1764
 66
1
 10
0
 20
0
 30
0
  0
VERTEX
  8
LAYER_1
 10
135.5598
 20
221.0728
  0
VERTEX
  8
LAYER_1
 10
135.5598
 20
228.6717
  0
SEQEND
  0
POLYLINE
  8
LAYER_1
 40
0.1764
 41
0.1764
 66
1
 10
0
 20
0
 30
0
  0
VERTEX
  8
LAYER_1
 10
49.094
 20
151.4768
  0
VERTEX
  8
LAYER_1
 10
46.5963
 20
151.4768
  0
SEQEND
  0
POLYLINE
  8
LAYER_1
 40
0.1764
 41
0.1764
 66
1
 10
0
 20
0
 30
0
  0
VERTEX
  8
LAYER_1
 10
49.094
 20
148.323
  0
VERTEX
  8
LAYER_1
 10
46.5963
 20
148.323
  0
SEQEND
  0
POLYLINE
  8
LAYER_1
 40
0.1764
 41
0.1764
 66
1
 10
0
 20
0
 30
0
  0
VERTEX
  8
LAYER_1
 10
46.5963
 20
140.449
  0
VERTEX
  8
LAYER_1
 10
46.5963
 20
155.9007
  0
SEQEND
  0
POLYLINE
  8
LAYER_1
 40
0.1764
 41
0.1764
 66
1
 10
0
 20
0
 30
0
  0
VERTEX
  8
LAYER_1
 10
45.7496
 20
139.7928
  0
VERTEX
  8
LAYER_1
 10
44.7548
 20
140.068
  0
SEQEND
  0
POLYLINE
  8
LAYER_1
 40
0.1764
 41
0.1764
 66
1
 10
0
 20
0
 30
0
  0
VERTEX
  8
LAYER_1
 10
45.7496
 20
139.7928
  0
VERTEX
  8
LAYER_1
 10
45.8766
 20
139.7717
  0
VERTEX
  8
LAYER_1
 10
45.9825
 20
139.7717
  0
VERTEX
  8
LAYER_1
 10
46.1095
 20
139.7928
  0
VERTEX
  8
LAYER_1
 10
46.2153
 20
139.8352
  0
VERTEX
  8
LAYER_1
 10
46.3211
 20
139.8987
  0
VERTEX
  8
LAYER_1
 10
46.4058
 20
139.9622
  0
VERTEX
  8
LAYER_1
 10
46.4693
 20
140.0468
  0
VERTEX
  8
LAYER_1
 10
46.5328
 20
140.1527
  0
VERTEX
  8
LAYER_1
 10
46.5751
 20
140.2585
  0
VERTEX
  8
LAYER_1
 10
46.5963
 20
140.3855
  0
VERTEX
  8
LAYER_1
 10
46.5963
 20
140.449
  0
SEQEND
  0
POLYLINE
  8
LAYER_1
 40
0.1764
 41
0.1764
 66
1
 10
0
 20
0
 30
0
  0
VERTEX
  8
LAYER_1
 10
43.125
 20
154.6942
  0
VERTEX
  8
LAYER_1
 10
43.0615
 20
153.6993
  0
VERTEX
  8
LAYER_1
 10
42.998
 20
152.7045
  0
VERTEX
  8
LAYER_1
 10
42.9556
 20
151.7097
  0
VERTEX
  8
LAYER_1
 10
42.9345
 20
150.7148
  0
VERTEX
  8
LAYER_1
 10
42.9345
 20
149.72
  0
VERTEX
  8
LAYER_1
 10
42.9556
 20
148.704
  0
VERTEX
  8
LAYER_1
 10
42.9768
 20
147.7092
  0
VERTEX
  8
LAYER_1
 10
43.0191
 20
146.7143
  0
VERTEX
  8
LAYER_1
 10
43.0826
 20
145.7195
  0
VERTEX
  8
LAYER_1
 10
43.1461
 20
144.7035
  0
VERTEX
  8
LAYER_1
 10
43.252
 20
143.7298
  0
VERTEX
  8
LAYER_1
 10
43.3578
 20
142.7138
  0
VERTEX
  8
LAYER_1
 10
43.4848
 20
141.7402
  0
VERTEX
  8
LAYER_1
 10
43.5271
 20
141.4438
  0
VERTEX
  8
LAYER_1
 10
43.5906
 20
141.1475
  0
VERTEX
  8
LAYER_1
 10
43.6965
 20
140.8935
  0
VERTEX
  8
LAYER_1
 10
43.8658
 20
140.6395
  0
VERTEX
  8
LAYER_1
 10
44.0563
 20
140.4278
  0
VERTEX
  8
LAYER_1
 10
44.2891
 20
140.2585
  0
VERTEX
  8
LAYER_1
 10
44.5643
 20
140.1315
  0
VERTEX
  8
LAYER_1
 10
44.7548
 20
140.068
  0
SEQEND
  0
POLYLINE
  8
LAYER_1
 40
0.1764
 41
0.1764
 66
1
 10
0
 20
0
 30
0
  0
VERTEX
  8
LAYER_1
 10
46.2576
 20
156.2182
  0
VERTEX
  8
LAYER_1
 10
44.776
 20
156.2182
  0
SEQEND
  0
POLYLINE
  8
LAYER_1
 40
0.1764
 41
0.1764
 66
1
 10
0
 20
0
 30
0
  0
VERTEX
  8
LAYER_1
 10
46.5963
 20
155.9007
  0
VERTEX
  8
LAYER_1
 10
46.5963
 20
155.9642
  0
VERTEX
  8
LAYER_1
 10
46.5751
 20
156.0065
  0
VERTEX
  8
LAYER_1
 10
46.554
 20
156.07
  0
VERTEX
  8
LAYER_1
 10
46.5116
 20
156.1123
  0
VERTEX
  8
LAYER_1
 10
46.4693
 20
156.1547
  0
VERTEX
  8
LAYER_1
 10
46.427
 20
156.197
  0
VERTEX
  8
LAYER_1
 10
46.3846
 20
156.2182
  0
VERTEX
  8
LAYER_1
 10
46.3211
 20
156.2182
  0
VERTEX
  8
LAYER_1
 10
46.2576
 20
156.2182
  0
SEQEND
  0
POLYLINE
  8
LAYER_1
 40
0.1764
 41
0.1764
 66
1
 10
0
 20
0
 30
0
  0
VERTEX
  8
LAYER_1
 10
44.776
 20
156.2182
  0
VERTEX
  8
LAYER_1
 10
44.5008
 20
156.2182
  0
VERTEX
  8
LAYER_1
 10
44.2256
 20
156.1335
  0
VERTEX
  8
LAYER_1
 10
43.9505
 20
156.0065
  0
VERTEX
  8
LAYER_1
 10
43.7176
 20
155.8372
  0
VERTEX
  8
LAYER_1
 10
43.506
 20
155.6467
  0
VERTEX
  8
LAYER_1
 10
43.3366
 20
155.3927
  0
VERTEX
  8
LAYER_1
 10
43.2096
 20
155.1387
  0
VERTEX
  8
LAYER_1
 10
43.1461
 20
154.8635
  0
VERTEX
  8
LAYER_1
 10
43.125
 20
154.6942
  0
SEQEND
  0
POLYLINE
  8
LAYER_1
 40
0.1764
 41
0.1764
 66
1
 10
0
 20
0
 30
0
  0
VERTEX
  8
LAYER_1
 10
46.2576
 20
152.5775
  0
VERTEX
  8
LAYER_1
 10
44.6066
 20
152.5775
  0
VERTEX
  8
LAYER_1
 10
44.3103
 20
152.5352
  0
VERTEX
  8
LAYER_1
 10
44.0351
 20
152.4717
  0
VERTEX
  8
LAYER_1
 10
43.7811
 20
152.3447
  0
VERTEX
  8
LAYER_1
 10
43.5271
 20
152.1753
  0
SEQEND
  0
POLYLINE
  8
LAYER_1
 40
0.1764
 41
0.1764
 66
1
 10
0
 20
0
 30
0
  0
VERTEX
  8
LAYER_1
 10
43.5271
 20
152.1754
  0
VERTEX
  8
LAYER_1
 10
43.3366
 20
151.9637
  0
VERTEX
  8
LAYER_1
 10
43.1673
 20
151.7308
  0
VERTEX
  8
LAYER_1
 10
43.0403
 20
151.4768
  0
VERTEX
  8
LAYER_1
 10
42.9768
 20
151.1805
  0
VERTEX
  8
LAYER_1
 10
42.9345
 20
150.9265
  0
SEQEND
  0
POLYLINE
  8
LAYER_1
 40
0.1764
 41
0.1764
 66
1
 10
0
 20
0
 30
0
  0
VERTEX
  8
LAYER_1
 10
46.5963
 20
152.2388
  0
VERTEX
  8
LAYER_1
 10
46.5963
 20
152.2812
  0
VERTEX
  8
LAYER_1
 10
46.5751
 20
152.3447
  0
VERTEX
  8
LAYER_1
 10
46.554
 20
152.4082
  0
VERTEX
  8
LAYER_1
 10
46.5116
 20
152.4505
  0
VERTEX
  8
LAYER_1
 10
46.4693
 20
152.4928
  0
VERTEX
  8
LAYER_1
 10
46.427
 20
152.514
  0
VERTEX
  8
LAYER_1
 10
46.3846
 20
152.5563
  0
VERTEX
  8
LAYER_1
 10
46.3211
 20
152.5563
  0
VERTEX
  8
LAYER_1
 10
46.2576
 20
152.5775
  0
SEQEND
  0
POLYLINE
  8
LAYER_1
 40
0.1764
 41
0.1764
 66
1
 10
0
 20
0
 30
0
  0
VERTEX
  8
LAYER_1
 10
41.9185
 20
147.5822
  0
VERTEX
  8
LAYER_1
 10
41.9185
 20
152.2388
  0
SEQEND
  0
POLYLINE
  8
LAYER_1
 40
0.1764
 41
0.1764
 66
1
 10
0
 20
0
 30
0
  0
VERTEX
  8
LAYER_1
 10
42.9768
 20
147.5822
  0
VERTEX
  8
LAYER_1
 10
41.9185
 20
147.5822
  0
SEQEND
  0
POLYLINE
  8
LAYER_1
 40
0.1764
 41
0.1764
 66
1
 10
0
 20
0
 30
0
  0
VERTEX
  8
LAYER_1
 10
42.9768
 20
152.2388
  0
VERTEX
  8
LAYER_1
 10
41.9185
 20
152.2388
  0
SEQEND
  0
POLYLINE
  8
LAYER_1
 40
0.1764
 41
0.1764
 66
1
 10
0
 20
0
 30
0
  0
VERTEX
  8
LAYER_1
 10
131.39
 20
226.4492
  0
VERTEX
  8
LAYER_1
 10
128.8923
 20
226.4492
  0
SEQEND
  0
POLYLINE
  8
LAYER_1
 40
0.1764
 41
0.1764
 66
1
 10
0
 20
0
 30
0
  0
VERTEX
  8
LAYER_1
 10
131.39
 20
223.2954
  0
VERTEX
  8
LAYER_1
 10
128.8923
 20
223.2954
  0
SEQEND
  0
POLYLINE
  8
LAYER_1
 40
0.1764
 41
0.1764
 66
1
 10
0
 20
0
 30
0
  0
VERTEX
  8
LAYER_1
 10
128.8923
 20
215.4002
  0
VERTEX
  8
LAYER_1
 10
128.8923
 20
230.873
  0
SEQEND
  0
POLYLINE
  8
LAYER_1
 40
0.1764
 41
0.1764
 66
1
 10
0
 20
0
 30
0
  0
VERTEX
  8
LAYER_1
 10
128.0668
 20
214.7652
  0
VERTEX
  8
LAYER_1
 10
127.0508
 20
215.0404
  0
SEQEND
  0
POLYLINE
  8
LAYER_1
 40
0.1764
 41
0.1764
 66
1
 10
0
 20
0
 30
0
  0
VERTEX
  8
LAYER_1
 10
128.0668
 20
214.7652
  0
VERTEX
  8
LAYER_1
 10
128.1726
 20
214.744
  0
VERTEX
  8
LAYER_1
 10
128.2996
 20
214.744
  0
VERTEX
  8
LAYER_1
 10
128.4055
 20
214.7652
  0
VERTEX
  8
LAYER_1
 10
128.5113
 20
214.8075
  0
VERTEX
  8
LAYER_1
 10
128.6171
 20
214.871
  0
VERTEX
  8
LAYER_1
 10
128.7018
 20
214.9345
  0
VERTEX
  8
LAYER_1
 10
128.7653
 20
215.0192
  0
VERTEX
  8
LAYER_1
 10
128.8288
 20
215.125
  0
VERTEX
  8
LAYER_1
 10
128.8711
 20
215.2309
  0
VERTEX
  8
LAYER_1
 10
128.8923
 20
215.3579
  0
VERTEX
  8
LAYER_1
 10
128.8923
 20
215.4002
  0
SEQEND
  0
POLYLINE
  8
LAYER_1
 40
0.1764
 41
0.1764
 66
1
 10
0
 20
0
 30
0
  0
VERTEX
  8
LAYER_1
 10
125.421
 20
229.6665
  0
VERTEX
  8
LAYER_1
 10
125.3575
 20
228.6717
  0
VERTEX
  8
LAYER_1
 10
125.294
 20
227.6557
  0
VERTEX
  8
LAYER_1
 10
125.2516
 20
226.682
  0
VERTEX
  8
LAYER_1
 10
125.2305
 20
225.666
  0
VERTEX
  8
LAYER_1
 10
125.2305
 20
224.6712
  0
VERTEX
  8
LAYER_1
 10
125.2305
 20
223.6764
  0
VERTEX
  8
LAYER_1
 10
125.2728
 20
222.6815
  0
VERTEX
  8
LAYER_1
 10
125.3151
 20
221.6867
  0
VERTEX
  8
LAYER_1
 10
125.3786
 20
220.6707
  0
VERTEX
  8
LAYER_1
 10
125.4421
 20
219.6759
  0
VERTEX
  8
LAYER_1
 10
125.548
 20
218.681
  0
VERTEX
  8
LAYER_1
 10
125.6538
 20
217.6862
  0
VERTEX
  8
LAYER_1
 10
125.7808
 20
216.6914
  0
VERTEX
  8
LAYER_1
 10
125.8231
 20
216.4162
  0
VERTEX
  8
LAYER_1
 10
125.8866
 20
216.1198
  0
VERTEX
  8
LAYER_1
 10
126.0136
 20
215.8659
  0
VERTEX
  8
LAYER_1
 10
126.1618
 20
215.6118
  0
VERTEX
  8
LAYER_1
 10
126.3735
 20
215.4002
  0
VERTEX
  8
LAYER_1
 10
126.6063
 20
215.2309
  0
VERTEX
  8
LAYER_1
 10
126.8603
 20
215.1039
  0
VERTEX
  8
LAYER_1
 10
127.0508
 20
215.0403
  0
SEQEND
  0
POLYLINE
  8
LAYER_1
 40
0.1764
 41
0.1764
 66
1
 10
0
 20
0
 30
0
  0
VERTEX
  8
LAYER_1
 10
128.5536
 20
231.1905
  0
VERTEX
  8
LAYER_1
 10
127.072
 20
231.1905
  0
SEQEND
  0
POLYLINE
  8
LAYER_1
 40
0.1764
 41
0.1764
 66
1
 10
0
 20
0
 30
0
  0
VERTEX
  8
LAYER_1
 10
128.8923
 20
230.873
  0
VERTEX
  8
LAYER_1
 10
128.8923
 20
230.9153
  0
VERTEX
  8
LAYER_1
 10
128.8711
 20
230.9788
  0
VERTEX
  8
LAYER_1
 10
128.85
 20
231.0423
  0
VERTEX
  8
LAYER_1
 10
128.8288
 20
231.0635
  0
VERTEX
  8
LAYER_1
 10
128.7865
 20
231.127
  0
VERTEX
  8
LAYER_1
 10
128.723
 20
231.1482
  0
VERTEX
  8
LAYER_1
 10
128.6806
 20
231.1694
  0
VERTEX
  8
LAYER_1
 10
128.6171
 20
231.1905
  0
VERTEX
  8
LAYER_1
 10
128.5536
 20
231.1905
  0
SEQEND
  0
POLYLINE
  8
LAYER_1
 40
0.1764
 41
0.1764
 66
1
 10
0
 20
0
 30
0
  0
VERTEX
  8
LAYER_1
 10
127.072
 20
231.1905
  0
VERTEX
  8
LAYER_1
 10
126.7968
 20
231.1694
  0
VERTEX
  8
LAYER_1
 10
126.5005
 20
231.0847
  0
VERTEX
  8
LAYER_1
 10
126.2465
 20
230.9789
  0
VERTEX
  8
LAYER_1
 10
126.0136
 20
230.8095
  0
VERTEX
  8
LAYER_1
 10
125.802
 20
230.5979
  0
VERTEX
  8
LAYER_1
 10
125.6326
 20
230.365
  0
VERTEX
  8
LAYER_1
 10
125.5268
 20
230.111
  0
VERTEX
  8
LAYER_1
 10
125.4421
 20
229.8147
  0
VERTEX
  8
LAYER_1
 10
125.421
 20
229.6665
  0
SEQEND
  0
POLYLINE
  8
LAYER_1
 40
0.1764
 41
0.1764
 66
1
 10
0
 20
0
 30
0
  0
VERTEX
  8
LAYER_1
 10
128.5536
 20
227.5287
  0
VERTEX
  8
LAYER_1
 10
126.9026
 20
227.5287
  0
VERTEX
  8
LAYER_1
 10
126.6063
 20
227.5075
  0
VERTEX
  8
LAYER_1
 10
126.3311
 20
227.444
  0
VERTEX
  8
LAYER_1
 10
126.0771
 20
227.2959
  0
VERTEX
  8
LAYER_1
 10
125.8231
 20
227.1477
  0
VERTEX
  8
LAYER_1
 10
125.6326
 20
226.936
  0
VERTEX
  8
LAYER_1
 10
125.4633
 20
226.7032
  0
VERTEX
  8
LAYER_1
 10
125.3363
 20
226.428
  0
VERTEX
  8
LAYER_1
 10
125.2516
 20
226.1528
  0
VERTEX
  8
LAYER_1
 10
125.2305
 20
225.8989
  0
SEQEND
  0
POLYLINE
  8
LAYER_1
 40
0.1764
 41
0.1764
 66
1
 10
0
 20
0
 30
0
  0
VERTEX
  8
LAYER_1
 10
128.8923
 20
227.19
  0
VERTEX
  8
LAYER_1
 10
128.8923
 20
227.2535
  0
VERTEX
  8
LAYER_1
 10
128.8711
 20
227.317
  0
VERTEX
  8
LAYER_1
 10
128.85
 20
227.3593
  0
VERTEX
  8
LAYER_1
 10
128.8288
 20
227.4228
  0
VERTEX
  8
LAYER_1
 10
128.7865
 20
227.4652
  0
VERTEX
  8
LAYER_1
 10
128.723
 20
227.4864
  0
VERTEX
  8
LAYER_1
 10
128.6806
 20
227.5075
  0
VERTEX
  8
LAYER_1
 10
128.6171
 20
227.5287
  0
VERTEX
  8
LAYER_1
 10
128.5536
 20
227.5287
  0
SEQEND
  0
POLYLINE
  8
LAYER_1
 40
0.1764
 41
0.1764
 66
1
 10
0
 20
0
 30
0
  0
VERTEX
  8
LAYER_1
 10
124.2356
 20
222.5333
  0
VERTEX
  8
LAYER_1
 10
124.2356
 20
227.19
  0
SEQEND
  0
POLYLINE
  8
LAYER_1
 40
0.1764
 41
0.1764
 66
1
 10
0
 20
0
 30
0
  0
VERTEX
  8
LAYER_1
 10
125.2728
 20
222.5333
  0
VERTEX
  8
LAYER_1
 10
124.2356
 20
222.5333
  0
SEQEND
  0
POLYLINE
  8
LAYER_1
 40
0.1764
 41
0.1764
 66
1
 10
0
 20
0
 30
0
  0
VERTEX
  8
LAYER_1
 10
125.2728
 20
227.19
  0
VERTEX
  8
LAYER_1
 10
124.2356
 20
227.19
  0
SEQEND
  0
POLYLINE
  8
LAYER_1
 40
0.1764
 41
0.1764
 66
1
 10
0
 20
0
 30
0
  0
VERTEX
  8
LAYER_1
 10
183.1425
 20
213.1989
  0
VERTEX
  8
LAYER_1
 10
174.4641
 20
213.1989
  0
SEQEND
  0
POLYLINE
  8
LAYER_1
 40
0.1764
 41
0.1764
 66
1
 10
0
 20
0
 30
0
  0
VERTEX
  8
LAYER_1
 10
174.4641
 20
216.4797
  0
VERTEX
  8
LAYER_1
 10
174.4641
 20
213.1989
  0
SEQEND
  0
POLYLINE
  8
LAYER_1
 40
0.1764
 41
0.1764
 66
1
 10
0
 20
0
 30
0
  0
VERTEX
  8
LAYER_1
 10
183.1425
 20
216.4797
  0
VERTEX
  8
LAYER_1
 10
183.1425
 20
213.1989
  0
SEQEND
  0
POLYLINE
  8
LAYER_1
 40
0.1764
 41
0.1764
 66
1
 10
0
 20
0
 30
0
  0
VERTEX
  8
LAYER_1
 10
178.4646
 20
214.5535
  0
VERTEX
  8
LAYER_1
 10
178.4646
 20
213.5798
  0
SEQEND
  0
POLYLINE
  8
LAYER_1
 40
0.1764
 41
0.1764
 66
1
 10
0
 20
0
 30
0
  0
VERTEX
  8
LAYER_1
 10
179.142
 20
214.5535
  0
VERTEX
  8
LAYER_1
 10
179.142
 20
213.5798
  0
SEQEND
  0
POLYLINE
  8
LAYER_1
 40
0.1764
 41
0.1764
 66
1
 10
0
 20
0
 30
0
  0
VERTEX
  8
LAYER_1
 10
174.8028
 20
216.4797
  0
VERTEX
  8
LAYER_1
 10
174.8028
 20
213.5799
  0
SEQEND
  0
POLYLINE
  8
LAYER_1
 40
0.1764
 41
0.1764
 66
1
 10
0
 20
0
 30
0
  0
VERTEX
  8
LAYER_1
 10
182.8038
 20
216.4797
  0
VERTEX
  8
LAYER_1
 10
182.8038
 20
213.5799
  0
SEQEND
  0
POLYLINE
  8
LAYER_1
 40
0.1764
 41
0.1764
 66
1
 10
0
 20
0
 30
0
  0
VERTEX
  8
LAYER_1
 10
174.8028
 20
213.5799
  0
VERTEX
  8
LAYER_1
 10
175.5648
 20
213.3259
  0
VERTEX
  8
LAYER_1
 10
176.3691
 20
213.22
  0
VERTEX
  8
LAYER_1
 10
177.1735
 20
213.2412
  0
VERTEX
  8
LAYER_1
 10
177.9778
 20
213.4105
  0
VERTEX
  8
LAYER_1
 10
178.4646
 20
213.5799
  0
SEQEND
  0
POLYLINE
  8
LAYER_1
 40
0.1764
 41
0.1764
 66
1
 10
0
 20
0
 30
0
  0
VERTEX
  8
LAYER_1
 10
179.142
 20
213.5799
  0
VERTEX
  8
LAYER_1
 10
179.904
 20
213.3259
  0
VERTEX
  8
LAYER_1
 10
180.7083
 20
213.22
  0
VERTEX
  8
LAYER_1
 10
181.5126
 20
213.2412
  0
VERTEX
  8
LAYER_1
 10
182.2958
 20
213.4105
  0
VERTEX
  8
LAYER_1
 10
182.8038
 20
213.5799
  0
SEQEND
  0
POLYLINE
  8
LAYER_1
 40
0.1764
 41
0.1764
 66
1
 10
0
 20
0
 30
0
  0
VERTEX
  8
LAYER_1
 10
176.6866
 20
216.8607
  0
VERTEX
  8
LAYER_1
 10
175.8823
 20
216.8184
  0
VERTEX
  8
LAYER_1
 10
175.0991
 20
216.6067
  0
VERTEX
  8
LAYER_1
 10
174.8028
 20
216.4797
  0
SEQEND
  0
POLYLINE
  8
LAYER_1
 40
0.1764
 41
0.1764
 66
1
 10
0
 20
0
 30
0
  0
VERTEX
  8
LAYER_1
 10
182.8038
 20
216.4797
  0
VERTEX
  8
LAYER_1
 10
182.0418
 20
216.7549
  0
VERTEX
  8
LAYER_1
 10
181.2375
 20
216.8607
  0
VERTEX
  8
LAYER_1
 10
180.92
 20
216.8607
  0
SEQEND
  0
POLYLINE
  8
LAYER_1
 40
0.1764
 41
0.1764
 66
1
 10
0
 20
0
 30
0
  0
VERTEX
  8
LAYER_1
 10
174.8028
 20
213.5799
  0
VERTEX
  8
LAYER_1
 10
174.4641
 20
213.5799
  0
SEQEND
  0
POLYLINE
  8
LAYER_1
 40
0.1764
 41
0.1764
 66
1
 10
0
 20
0
 30
0
  0
VERTEX
  8
LAYER_1
 10
183.1425
 20
213.5799
  0
VERTEX
  8
LAYER_1
 10
182.8038
 20
213.5799
  0
SEQEND
  0
POLYLINE
  8
LAYER_1
 40
0.1764
 41
0.1764
 66
1
 10
0
 20
0
 30
0
  0
VERTEX
  8
LAYER_1
 10
179.142
 20
213.5799
  0
VERTEX
  8
LAYER_1
 10
178.4646
 20
213.5799
  0
SEQEND
  0
POLYLINE
  8
LAYER_1
 40
0.1764
 41
0.1764
 66
1
 10
0
 20
0
 30
0
  0
VERTEX
  8
LAYER_1
 10
183.1425
 20
216.4797
  0
VERTEX
  8
LAYER_1
 10
182.8038
 20
216.4797
  0
SEQEND
  0
POLYLINE
  8
LAYER_1
 40
0.1764
 41
0.1764
 66
1
 10
0
 20
0
 30
0
  0
VERTEX
  8
LAYER_1
 10
174.8028
 20
216.4797
  0
VERTEX
  8
LAYER_1
 10
174.4641
 20
216.4797
  0
SEQEND
  0
POLYLINE
  8
LAYER_1
 40
0.1764
 41
0.1764
 66
1
 10
0
 20
0
 30
0
  0
VERTEX
  8
LAYER_1
 10
175.7129
 20
231.5292
  0
VERTEX
  8
LAYER_1
 10
175.3108
 20
231.127
  0
SEQEND
  0
POLYLINE
  8
LAYER_1
 40
0.1764
 41
0.1764
 66
1
 10
0
 20
0
 30
0
  0
VERTEX
  8
LAYER_1
 10
181.8936
 20
231.5292
  0
VERTEX
  8
LAYER_1
 10
182.2958
 20
231.127
  0
SEQEND
  0
POLYLINE
  8
LAYER_1
 40
0.1764
 41
0.1764
 66
1
 10
0
 20
0
 30
0
  0
VERTEX
  8
LAYER_1
 10
174.4641
 20
216.4797
  0
VERTEX
  8
LAYER_1
 10
174.6546
 20
216.8607
  0
VERTEX
  8
LAYER_1
 10
174.7604
 20
217.2417
  0
VERTEX
  8
LAYER_1
 10
174.8028
 20
217.6438
  0
VERTEX
  8
LAYER_1
 10
174.8028
 20
217.6862
  0
SEQEND
  0
POLYLINE
  8
LAYER_1
 40
0.1764
 41
0.1764
 66
1
 10
0
 20
0
 30
0
  0
VERTEX
  8
LAYER_1
 10
182.8038
 20
217.6862
  0
VERTEX
  8
LAYER_1
 10
182.8461
 20
217.284
  0
VERTEX
  8
LAYER_1
 10
182.952
 20
216.903
  0
VERTEX
  8
LAYER_1
 10
183.1213
 20
216.522
  0
VERTEX
  8
LAYER_1
 10
183.1424
 20
216.4797
  0
SEQEND
  0
POLYLINE
  8
LAYER_1
 40
0.1764
 41
0.1764
 66
1
 10
0
 20
0
 30
0
  0
VERTEX
  8
LAYER_1
 10
175.3108
 20
234.4714
  0
VERTEX
  8
LAYER_1
 10
175.3108
 20
231.127
  0
SEQEND
  0
POLYLINE
  8
LAYER_1
 40
0.1764
 41
0.1764
 66
1
 10
0
 20
0
 30
0
  0
VERTEX
  8
LAYER_1
 10
182.2958
 20
234.4714
  0
VERTEX
  8
LAYER_1
 10
182.2958
 20
231.127
  0
SEQEND
  0
POLYLINE
  8
LAYER_1
 40
0.1764
 41
0.1764
 66
1
 10
0
 20
0
 30
0
  0
VERTEX
  8
LAYER_1
 10
176.8559
 20
216.1198
  0
VERTEX
  8
LAYER_1
 10
176.6231
 20
217.1147
  0
VERTEX
  8
LAYER_1
 10
176.3479
 20
218.0672
  0
VERTEX
  8
LAYER_1
 10
176.0304
 20
219.0197
  0
VERTEX
  8
LAYER_1
 10
175.6706
 20
219.951
  0
VERTEX
  8
LAYER_1
 10
175.2684
 20
220.8612
  0
VERTEX
  8
LAYER_1
 10
174.8239
 20
221.7502
  0
VERTEX
  8
LAYER_1
 10
174.3371
 20
222.618
  0
VERTEX
  8
LAYER_1
 10
173.7868
 20
223.4647
  0
VERTEX
  8
LAYER_1
 10
173.2153
 20
224.2902
  0
VERTEX
  8
LAYER_1
 10
172.6014
 20
225.0945
  0
VERTEX
  8
LAYER_1
 10
171.9664
 20
225.8353
  0
VERTEX
  8
LAYER_1
 10
171.2891
 20
226.5762
  0
VERTEX
  8
LAYER_1
 10
170.5694
 20
227.2747
  0
VERTEX
  8
LAYER_1
 10
170.2519
 20
227.5287
  0
SEQEND
  0
POLYLINE
  8
LAYER_1
 40
0.1764
 41
0.1764
 66
1
 10
0
 20
0
 30
0
  0
VERTEX
  8
LAYER_1
 10
187.3546
 20
227.5287
  0
VERTEX
  8
LAYER_1
 10
186.6138
 20
226.8514
  0
VERTEX
  8
LAYER_1
 10
185.9153
 20
226.1317
  0
VERTEX
  8
LAYER_1
 10
185.2591
 20
225.3909
  0
VERTEX
  8
LAYER_1
 10
184.6453
 20
224.6077
  0
VERTEX
  8
LAYER_1
 10
184.0526
 20
223.8034
  0
VERTEX
  8
LAYER_1
 10
183.5023
 20
222.9567
  0
VERTEX
  8
LAYER_1
 10
182.9943
 20
222.11
  0
VERTEX
  8
LAYER_1
 10
182.5074
 20
221.221
  0
VERTEX
  8
LAYER_1
 10
182.1053
 20
220.3108
  0
VERTEX
  8
LAYER_1
 10
181.7243
 20
219.3795
  0
VERTEX
  8
LAYER_1
 10
181.3856
 20
218.4482
  0
VERTEX
  8
LAYER_1
 10
181.0893
 20
217.4957
  0
VERTEX
  8
LAYER_1
 10
180.8564
 20
216.522
  0
VERTEX
  8
LAYER_1
 10
180.7718
 20
216.1198
  0
SEQEND
  0
POLYLINE
  8
LAYER_1
 40
0.1764
 41
0.1764
 66
1
 10
0
 20
0
 30
0
  0
VERTEX
  8
LAYER_1
 10
172.2204
 20
230.9153
  0
VERTEX
  8
LAYER_1
 10
173.1729
 20
230.6402
  0
VERTEX
  8
LAYER_1
 10
174.1466
 20
230.3862
  0
VERTEX
  8
LAYER_1
 10
175.1203
 20
230.1957
  0
VERTEX
  8
LAYER_1
 10
176.1151
 20
230.0263
  0
VERTEX
  8
LAYER_1
 10
177.1099
 20
229.9417
  0
VERTEX
  8
LAYER_1
 10
178.1048
 20
229.8782
  0
VERTEX
  8
LAYER_1
 10
179.0996
 20
229.857
  0
VERTEX
  8
LAYER_1
 10
180.1156
 20
229.8993
  0
VERTEX
  8
LAYER_1
 10
181.0893
 20
229.984
  0
VERTEX
  8
LAYER_1
 10
182.0841
 20
230.1322
  0
VERTEX
  8
LAYER_1
 10
183.0789
 20
230.3015
  0
VERTEX
  8
LAYER_1
 10
184.0526
 20
230.5343
  0
VERTEX
  8
LAYER_1
 10
185.0051
 20
230.8095
  0
VERTEX
  8
LAYER_1
 10
185.3861
 20
230.9153
  0
SEQEND
  0
POLYLINE
  8
LAYER_1
 40
0.1764
 41
0.1764
 66
1
 10
0
 20
0
 30
0
  0
VERTEX
  8
LAYER_1
 10
176.8559
 20
216.1198
  0
VERTEX
  8
LAYER_1
 10
176.9406
 20
215.8023
  0
VERTEX
  8
LAYER_1
 10
177.1099
 20
215.4848
  0
VERTEX
  8
LAYER_1
 10
177.3004
 20
215.2097
  0
VERTEX
  8
LAYER_1
 10
177.5756
 20
214.9768
  0
VERTEX
  8
LAYER_1
 10
177.8508
 20
214.7863
  0
VERTEX
  8
LAYER_1
 10
178.1683
 20
214.6382
  0
VERTEX
  8
LAYER_1
 10
178.5281
 20
214.5535
  0
VERTEX
  8
LAYER_1
 10
178.8668
 20
214.5323
  0
VERTEX
  8
LAYER_1
 10
179.2054
 20
214.5747
  0
VERTEX
  8
LAYER_1
 10
179.5441
 20
214.6805
  0
VERTEX
  8
LAYER_1
 10
179.8616
 20
214.8287
  0
VERTEX
  8
LAYER_1
 10
180.1368
 20
215.0403
  0
VERTEX
  8
LAYER_1
 10
180.3696
 20
215.2943
  0
VERTEX
  8
LAYER_1
 10
180.5601
 20
215.5907
  0
VERTEX
  8
LAYER_1
 10
180.7083
 20
215.9082
  0
VERTEX
  8
LAYER_1
 10
180.7718
 20
216.1198
  0
SEQEND
  0
POLYLINE
  8
LAYER_1
 40
0.1764
 41
0.1764
 66
1
 10
0
 20
0
 30
0
  0
VERTEX
  8
LAYER_1
 10
172.2204
 20
230.9153
  0
VERTEX
  8
LAYER_1
 10
171.8818
 20
231.0212
  0
VERTEX
  8
LAYER_1
 10
171.5219
 20
231.0423
  0
VERTEX
  8
LAYER_1
 10
171.1833
 20
231
  0
VERTEX
  8
LAYER_1
 10
170.8446
 20
230.8942
  0
VERTEX
  8
LAYER_1
 10
170.5483
 20
230.7249
  0
SEQEND
  0
POLYLINE
  8
LAYER_1
 40
0.1764
 41
0.1764
 66
1
 10
0
 20
0
 30
0
  0
VERTEX
  8
LAYER_1
 10
170.5483
 20
230.7249
  0
VERTEX
  8
LAYER_1
 10
170.252
 20
230.5132
  0
VERTEX
  8
LAYER_1
 10
170.0191
 20
230.2803
  0
VERTEX
  8
LAYER_1
 10
169.8286
 20
229.984
  0
VERTEX
  8
LAYER_1
 10
169.7016
 20
229.6665
  0
VERTEX
  8
LAYER_1
 10
169.617
 20
229.3278
  0
VERTEX
  8
LAYER_1
 10
169.5958
 20
228.968
  0
VERTEX
  8
LAYER_1
 10
169.6381
 20
228.6294
  0
VERTEX
  8
LAYER_1
 10
169.7228
 20
228.2907
  0
VERTEX
  8
LAYER_1
 10
169.8921
 20
227.9944
  0
VERTEX
  8
LAYER_1
 10
170.1038
 20
227.698
  0
VERTEX
  8
LAYER_1
 10
170.252
 20
227.5287
  0
SEQEND
  0
POLYLINE
  8
LAYER_1
 40
0.1764
 41
0.1764
 66
1
 10
0
 20
0
 30
0
  0
VERTEX
  8
LAYER_1
 10
187.3546
 20
227.5287
  0
VERTEX
  8
LAYER_1
 10
187.5874
 20
227.8039
  0
VERTEX
  8
LAYER_1
 10
187.778
 20
228.079
  0
VERTEX
  8
LAYER_1
 10
187.905
 20
228.3965
  0
VERTEX
  8
LAYER_1
 10
187.9896
 20
228.7352
  0
VERTEX
  8
LAYER_1
 10
188.0108
 20
229.0739
  0
VERTEX
  8
LAYER_1
 10
187.9685
 20
229.4337
  0
VERTEX
  8
LAYER_1
 10
187.8838
 20
229.7723
  0
VERTEX
  8
LAYER_1
 10
187.7145
 20
230.0899
  0
VERTEX
  8
LAYER_1
 10
187.524
 20
230.365
  0
VERTEX
  8
LAYER_1
 10
187.27
 20
230.5979
  0
VERTEX
  8
LAYER_1
 10
186.9736
 20
230.7884
  0
VERTEX
  8
LAYER_1
 10
186.6561
 20
230.9153
  0
VERTEX
  8
LAYER_1
 10
186.3175
 20
231.0212
  0
VERTEX
  8
LAYER_1
 10
185.9576
 20
231.0424
  0
VERTEX
  8
LAYER_1
 10
185.619
 20
231
  0
VERTEX
  8
LAYER_1
 10
185.3861
 20
230.9153
  0
SEQEND
  0
POLYLINE
  8
LAYER_1
 40
0.1764
 41
0.1764
 66
1
 10
0
 20
0
 30
0
  0
VERTEX
  8
LAYER_1
 10
178.8033
 20
222.5334
  0
VERTEX
  8
LAYER_1
 10
179.2055
 20
222.5757
  0
VERTEX
  8
LAYER_1
 10
179.6076
 20
222.6815
  0
VERTEX
  8
LAYER_1
 10
179.9675
 20
222.8509
  0
VERTEX
  8
LAYER_1
 10
180.3061
 20
223.0837
  0
VERTEX
  8
LAYER_1
 10
180.6025
 20
223.3589
  0
VERTEX
  8
LAYER_1
 10
180.8353
 20
223.6975
  0
VERTEX
  8
LAYER_1
 10
181.0046
 20
224.0574
  0
VERTEX
  8
LAYER_1
 10
181.1105
 20
224.4595
  0
VERTEX
  8
LAYER_1
 10
181.1316
 20
224.8617
  0
VERTEX
  8
LAYER_1
 10
181.1105
 20
225.285
  0
VERTEX
  8
LAYER_1
 10
181.0046
 20
225.666
  0
VERTEX
  8
LAYER_1
 10
180.8353
 20
226.0259
  0
VERTEX
  8
LAYER_1
 10
180.6025
 20
226.3645
  0
VERTEX
  8
LAYER_1
 10
180.3061
 20
226.6609
  0
VERTEX
  8
LAYER_1
 10
179.9675
 20
226.8937
  0
VERTEX
  8
LAYER_1
 10
179.6076
 20
227.063
  0
VERTEX
  8
LAYER_1
 10
179.2055
 20
227.1689
  0
VERTEX
  8
LAYER_1
 10
178.8033
 20
227.19
  0
VERTEX
  8
LAYER_1
 10
178.4011
 20
227.1689
  0
VERTEX
  8
LAYER_1
 10
177.999
 20
227.063
  0
VERTEX
  8
LAYER_1
 10
177.6391
 20
226.8937
  0
VERTEX
  8
LAYER_1
 10
177.3005
 20
226.6609
  0
VERTEX
  8
LAYER_1
 10
177.0253
 20
226.3645
  0
VERTEX
  8
LAYER_1
 10
176.7925
 20
226.0259
  0
VERTEX
  8
LAYER_1
 10
176.6231
 20
225.666
  0
VERTEX
  8
LAYER_1
 10
176.5173
 20
225.285
  0
VERTEX
  8
LAYER_1
 10
176.475
 20
224.8617
  0
VERTEX
  8
LAYER_1
 10
176.5173
 20
224.4595
  0
VERTEX
  8
LAYER_1
 10
176.6231
 20
224.0574
  0
VERTEX
  8
LAYER_1
 10
176.7925
 20
223.6975
  0
VERTEX
  8
LAYER_1
 10
177.0253
 20
223.3589
  0
VERTEX
  8
LAYER_1
 10
177.3005
 20
223.0837
  0
VERTEX
  8
LAYER_1
 10
177.6391
 20
222.8509
  0
VERTEX
  8
LAYER_1
 10
177.999
 20
222.6815
  0
VERTEX
  8
LAYER_1
 10
178.4011
 20
222.5757
  0
VERTEX
  8
LAYER_1
 10
178.8033
 20
222.5334
  0
SEQEND
  0
POLYLINE
  8
LAYER_1
 40
0.1764
 41
0.1764
 66
1
 10
0
 20
0
 30
0
  0
VERTEX
  8
LAYER_1
 10
182.2958
 20
231.127
  0
VERTEX
  8
LAYER_1
 10
178.8033
 20
231.127
  0
VERTEX
  8
LAYER_1
 10
175.3108
 20
231.127
  0
SEQEND
  0
POLYLINE
  8
LAYER_1
 40
0.1764
 41
0.1764
 66
1
 10
0
 20
0
 30
0
  0
VERTEX
  8
LAYER_1
 10
175.713
 20
234.8524
  0
VERTEX
  8
LAYER_1
 10
175.3108
 20
234.4714
  0
SEQEND
  0
POLYLINE
  8
LAYER_1
 40
0.1764
 41
0.1764
 66
1
 10
0
 20
0
 30
0
  0
VERTEX
  8
LAYER_1
 10
181.8936
 20
234.8524
  0
VERTEX
  8
LAYER_1
 10
182.2958
 20
234.4714
  0
SEQEND
  0
POLYLINE
  8
LAYER_1
 40
0.1764
 41
0.1764
 66
1
 10
0
 20
0
 30
0
  0
VERTEX
  8
LAYER_1
 10
181.8936
 20
234.8524
  0
VERTEX
  8
LAYER_1
 10
178.8033
 20
234.8524
  0
VERTEX
  8
LAYER_1
 10
175.713
 20
234.8524
  0
SEQEND
  0
POLYLINE
  8
LAYER_1
 40
0.1764
 41
0.1764
 66
1
 10
0
 20
0
 30
0
  0
VERTEX
  8
LAYER_1
 10
175.3108
 20
231.127
  0
VERTEX
  8
LAYER_1
 10
175.1203
 20
230.1957
  0
SEQEND
  0
POLYLINE
  8
LAYER_1
 40
0.1764
 41
0.1764
 66
1
 10
0
 20
0
 30
0
  0
VERTEX
  8
LAYER_1
 10
174.8028
 20
217.6862
  0
VERTEX
  8
LAYER_1
 10
174.7816
 20
218.681
  0
VERTEX
  8
LAYER_1
 10
174.7181
 20
219.697
  0
VERTEX
  8
LAYER_1
 10
174.5911
 20
220.6707
  0
VERTEX
  8
LAYER_1
 10
174.4218
 20
221.6655
  0
VERTEX
  8
LAYER_1
 10
174.2101
 20
222.6392
  0
VERTEX
  8
LAYER_1
 10
174.1466
 20
222.9355
  0
SEQEND
  0
POLYLINE
  8
LAYER_1
 40
0.1764
 41
0.1764
 66
1
 10
0
 20
0
 30
0
  0
VERTEX
  8
LAYER_1
 10
182.4863
 20
230.1957
  0
VERTEX
  8
LAYER_1
 10
182.2958
 20
231.127
  0
SEQEND
  0
POLYLINE
  8
LAYER_1
 40
0.1764
 41
0.1764
 66
1
 10
0
 20
0
 30
0
  0
VERTEX
  8
LAYER_1
 10
183.4811
 20
222.9355
  0
VERTEX
  8
LAYER_1
 10
183.2483
 20
221.9619
  0
VERTEX
  8
LAYER_1
 10
183.0578
 20
220.9882
  0
VERTEX
  8
LAYER_1
 10
182.9308
 20
219.9934
  0
VERTEX
  8
LAYER_1
 10
182.8461
 20
218.9985
  0
VERTEX
  8
LAYER_1
 10
182.8038
 20
217.9825
  0
VERTEX
  8
LAYER_1
 10
182.8038
 20
217.6862
  0
SEQEND
  0
POLYLINE
  8
LAYER_1
 40
0.1764
 41
0.1764
 66
1
 10
0
 20
0
 30
0
  0
VERTEX
  8
LAYER_1
 10
176.6866
 20
210.3625
  0
VERTEX
  8
LAYER_1
 10
176.6866
 20
134.5859
  0
SEQEND
  0
POLYLINE
  8
LAYER_1
 40
0.1764
 41
0.1764
 66
1
 10
0
 20
0
 30
0
  0
VERTEX
  8
LAYER_1
 10
180.9199
 20
210.3625
  0
VERTEX
  8
LAYER_1
 10
180.9199
 20
134.5859
  0
SEQEND
  0
POLYLINE
  8
LAYER_1
 40
0.1764
 41
0.1764
 66
1
 10
0
 20
0
 30
0
  0
VERTEX
  8
LAYER_1
 10
182.4651
 20
210.3625
  0
VERTEX
  8
LAYER_1
 10
175.1414
 20
210.3625
  0
SEQEND
  0
POLYLINE
  8
LAYER_1
 40
0.1764
 41
0.1764
 66
1
 10
0
 20
0
 30
0
  0
VERTEX
  8
LAYER_1
 10
174.8028
 20
212.8814
  0
VERTEX
  8
LAYER_1
 10
174.8028
 20
210.7012
  0
VERTEX
  8
LAYER_1
 10
175.1414
 20
210.3625
  0
SEQEND
  0
POLYLINE
  8
LAYER_1
 40
0.1764
 41
0.1764
 66
1
 10
0
 20
0
 30
0
  0
VERTEX
  8
LAYER_1
 10
175.1414
 20
213.1989
  0
VERTEX
  8
LAYER_1
 10
174.8028
 20
212.8814
  0
SEQEND
  0
POLYLINE
  8
LAYER_1
 40
0.1764
 41
0.1764
 66
1
 10
0
 20
0
 30
0
  0
VERTEX
  8
LAYER_1
 10
182.8038
 20
210.7012
  0
VERTEX
  8
LAYER_1
 10
182.4651
 20
210.3625
  0
SEQEND
  0
POLYLINE
  8
LAYER_1
 40
0.1764
 41
0.1764
 66
1
 10
0
 20
0
 30
0
  0
VERTEX
  8
LAYER_1
 10
182.8038
 20
212.8814
  0
VERTEX
  8
LAYER_1
 10
182.8038
 20
210.7012
  0
SEQEND
  0
POLYLINE
  8
LAYER_1
 40
0.1764
 41
0.1764
 66
1
 10
0
 20
0
 30
0
  0
VERTEX
  8
LAYER_1
 10
182.4651
 20
213.1989
  0
VERTEX
  8
LAYER_1
 10
182.8038
 20
212.8814
  0
SEQEND
  0
POLYLINE
  8
LAYER_1
 40
0.1764
 41
0.1764
 66
1
 10
0
 20
0
 30
0
  0
VERTEX
  8
LAYER_1
 10
176.4326
 20
210.7012
  0
VERTEX
  8
LAYER_1
 10
177.2158
 20
210.7012
  0
VERTEX
  8
LAYER_1
 10
177.8719
 20
210.4895
  0
VERTEX
  8
LAYER_1
 10
178.5493
 20
210.3837
  0
VERTEX
  8
LAYER_1
 10
179.2478
 20
210.4049
  0
VERTEX
  8
LAYER_1
 10
179.9463
 20
210.5319
  0
VERTEX
  8
LAYER_1
 10
180.4119
 20
210.7012
  0
SEQEND
  0
POLYLINE
  8
LAYER_1
 40
0.1764
 41
0.1764
 66
1
 10
0
 20
0
 30
0
  0
VERTEX
  8
LAYER_1
 10
174.8028
 20
210.7012
  0
VERTEX
  8
LAYER_1
 10
174.951
 20
210.5742
  0
VERTEX
  8
LAYER_1
 10
175.1414
 20
210.4895
  0
VERTEX
  8
LAYER_1
 10
175.332
 20
210.4049
  0
VERTEX
  8
LAYER_1
 10
175.5225
 20
210.3625
  0
VERTEX
  8
LAYER_1
 10
175.7341
 20
210.3837
  0
VERTEX
  8
LAYER_1
 10
175.9246
 20
210.4049
  0
VERTEX
  8
LAYER_1
 10
176.1151
 20
210.4895
  0
VERTEX
  8
LAYER_1
 10
176.2845
 20
210.5742
  0
VERTEX
  8
LAYER_1
 10
176.4326
 20
210.7012
  0
SEQEND
  0
POLYLINE
  8
LAYER_1
 40
0.1764
 41
0.1764
 66
1
 10
0
 20
0
 30
0
  0
VERTEX
  8
LAYER_1
 10
180.4119
 20
212.8814
  0
VERTEX
  8
LAYER_1
 10
179.7558
 20
213.093
  0
VERTEX
  8
LAYER_1
 10
179.0573
 20
213.1989
  0
VERTEX
  8
LAYER_1
 10
178.3588
 20
213.1777
  0
VERTEX
  8
LAYER_1
 10
177.6815
 20
213.0507
  0
VERTEX
  8
LAYER_1
 10
177.2158
 20
212.8814
  0
SEQEND
  0
POLYLINE
  8
LAYER_1
 40
0.1764
 41
0.1764
 66
1
 10
0
 20
0
 30
0
  0
VERTEX
  8
LAYER_1
 10
176.4326
 20
212.8814
  0
VERTEX
  8
LAYER_1
 10
177.2158
 20
212.8814
  0
SEQEND
  0
POLYLINE
  8
LAYER_1
 40
0.1764
 41
0.1764
 66
1
 10
0
 20
0
 30
0
  0
VERTEX
  8
LAYER_1
 10
176.4326
 20
212.8814
  0
VERTEX
  8
LAYER_1
 10
176.2844
 20
213.0084
  0
VERTEX
  8
LAYER_1
 10
176.094
 20
213.093
  0
VERTEX
  8
LAYER_1
 10
175.9034
 20
213.1777
  0
VERTEX
  8
LAYER_1
 10
175.7129
 20
213.1989
  0
VERTEX
  8
LAYER_1
 10
175.5013
 20
213.1989
  0
VERTEX
  8
LAYER_1
 10
175.3108
 20
213.1565
  0
VERTEX
  8
LAYER_1
 10
175.1203
 20
213.093
  0
VERTEX
  8
LAYER_1
 10
174.9509
 20
212.9872
  0
VERTEX
  8
LAYER_1
 10
174.8028
 20
212.8814
  0
SEQEND
  0
POLYLINE
  8
LAYER_1
 40
0.1764
 41
0.1764
 66
1
 10
0
 20
0
 30
0
  0
VERTEX
  8
LAYER_1
 10
177.2158
 20
210.7012
  0
VERTEX
  8
LAYER_1
 10
177.2158
 20
212.8814
  0
SEQEND
  0
POLYLINE
  8
LAYER_1
 40
0.1764
 41
0.1764
 66
1
 10
0
 20
0
 30
0
  0
VERTEX
  8
LAYER_1
 10
176.4326
 20
210.7012
  0
VERTEX
  8
LAYER_1
 10
176.4326
 20
212.8814
  0
SEQEND
  0
POLYLINE
  8
LAYER_1
 40
0.1764
 41
0.1764
 66
1
 10
0
 20
0
 30
0
  0
VERTEX
  8
LAYER_1
 10
180.4119
 20
210.7012
  0
VERTEX
  8
LAYER_1
 10
180.4119
 20
212.8814
  0
SEQEND
  0
POLYLINE
  8
LAYER_1
 40
0.1764
 41
0.1764
 66
1
 10
0
 20
0
 30
0
  0
VERTEX
  8
LAYER_1
 10
181.174
 20
210.7012
  0
VERTEX
  8
LAYER_1
 10
180.4119
 20
210.7012
  0
SEQEND
  0
POLYLINE
  8
LAYER_1
 40
0.1764
 41
0.1764
 66
1
 10
0
 20
0
 30
0
  0
VERTEX
  8
LAYER_1
 10
181.174
 20
210.7012
  0
VERTEX
  8
LAYER_1
 10
181.174
 20
212.8814
  0
VERTEX
  8
LAYER_1
 10
180.4119
 20
212.8814
  0
SEQEND
  0
POLYLINE
  8
LAYER_1
 40
0.1764
 41
0.1764
 66
1
 10
0
 20
0
 30
0
  0
VERTEX
  8
LAYER_1
 10
182.8038
 20
212.8814
  0
VERTEX
  8
LAYER_1
 10
182.6556
 20
213.0084
  0
VERTEX
  8
LAYER_1
 10
182.4863
 20
213.093
  0
VERTEX
  8
LAYER_1
 10
182.2958
 20
213.1777
  0
VERTEX
  8
LAYER_1
 10
182.0841
 20
213.1989
  0
VERTEX
  8
LAYER_1
 10
181.8936
 20
213.1989
  0
VERTEX
  8
LAYER_1
 10
181.682
 20
213.1565
  0
VERTEX
  8
LAYER_1
 10
181.4914
 20
213.093
  0
VERTEX
  8
LAYER_1
 10
181.3221
 20
212.9872
  0
VERTEX
  8
LAYER_1
 10
181.174
 20
212.8814
  0
SEQEND
  0
POLYLINE
  8
LAYER_1
 40
0.1764
 41
0.1764
 66
1
 10
0
 20
0
 30
0
  0
VERTEX
  8
LAYER_1
 10
181.174
 20
210.7012
  0
VERTEX
  8
LAYER_1
 10
181.3433
 20
210.5742
  0
VERTEX
  8
LAYER_1
 10
181.5126
 20
210.4895
  0
VERTEX
  8
LAYER_1
 10
181.7031
 20
210.4049
  0
VERTEX
  8
LAYER_1
 10
181.8936
 20
210.3625
  0
VERTEX
  8
LAYER_1
 10
182.1053
 20
210.3837
  0
VERTEX
  8
LAYER_1
 10
182.2958
 20
210.4049
  0
VERTEX
  8
LAYER_1
 10
182.4863
 20
210.4895
  0
VERTEX
  8
LAYER_1
 10
182.6556
 20
210.5742
  0
VERTEX
  8
LAYER_1
 10
182.8038
 20
210.7012
  0
SEQEND
  0
POLYLINE
  8
LAYER_1
 40
0.1764
 41
0.1764
 66
1
 10
0
 20
0
 30
0
  0
VERTEX
  8
LAYER_1
 10
175.332
 20
44.1407
  0
VERTEX
  8
LAYER_1
 10
175.4166
 20
40.1825
  0
SEQEND
  0
POLYLINE
  8
LAYER_1
 40
0.1764
 41
0.1764
 66
1
 10
0
 20
0
 30
0
  0
VERTEX
  8
LAYER_1
 10
182.19
 20
40.1825
  0
VERTEX
  8
LAYER_1
 10
182.2746
 20
44.1407
  0
SEQEND
  0
POLYLINE
  8
LAYER_1
 40
0.1764
 41
0.1764
 66
1
 10
0
 20
0
 30
0
  0
VERTEX
  8
LAYER_1
 10
175.6918
 20
43.7809
  0
VERTEX
  8
LAYER_1
 10
175.3108
 20
44.1619
  0
SEQEND
  0
POLYLINE
  8
LAYER_1
 40
0.1764
 41
0.1764
 66
1
 10
0
 20
0
 30
0
  0
VERTEX
  8
LAYER_1
 10
181.9148
 20
43.7809
  0
VERTEX
  8
LAYER_1
 10
182.2958
 20
44.1619
  0
SEQEND
  0
POLYLINE
  8
LAYER_1
 40
0.1764
 41
0.1764
 66
1
 10
0
 20
0
 30
0
  0
VERTEX
  8
LAYER_1
 10
175.8188
 20
39.8015
  0
VERTEX
  8
LAYER_1
 10
175.4166
 20
40.1825
  0
SEQEND
  0
POLYLINE
  8
LAYER_1
 40
0.1764
 41
0.1764
 66
1
 10
0
 20
0
 30
0
  0
VERTEX
  8
LAYER_1
 10
181.7878
 20
39.8015
  0
VERTEX
  8
LAYER_1
 10
182.19
 20
40.1825
  0
SEQEND
  0
POLYLINE
  8
LAYER_1
 40
0.1764
 41
0.1764
 66
1
 10
0
 20
0
 30
0
  0
VERTEX
  8
LAYER_1
 10
175.8188
 20
39.8015
  0
VERTEX
  8
LAYER_1
 10
181.7878
 20
39.8015
  0
SEQEND
  0
POLYLINE
  8
LAYER_1
 40
0.1764
 41
0.1764
 66
1
 10
0
 20
0
 30
0
  0
VERTEX
  8
LAYER_1
 10
175.3108
 20
44.1619
  0
VERTEX
  8
LAYER_1
 10
175.3108
 20
51.2739
  0
SEQEND
  0
POLYLINE
  8
LAYER_1
 40
0.1764
 41
0.1764
 66
1
 10
0
 20
0
 30
0
  0
VERTEX
  8
LAYER_1
 10
175.3108
 20
56.9254
  0
VERTEX
  8
LAYER_1
 10
175.3108
 20
116.446
  0
SEQEND
  0
POLYLINE
  8
LAYER_1
 40
0.1764
 41
0.1764
 66
1
 10
0
 20
0
 30
0
  0
VERTEX
  8
LAYER_1
 10
182.2958
 20
44.1619
  0
VERTEX
  8
LAYER_1
 10
182.2958
 20
51.2739
  0
SEQEND
  0
POLYLINE
  8
LAYER_1
 40
0.1764
 41
0.1764
 66
1
 10
0
 20
0
 30
0
  0
VERTEX
  8
LAYER_1
 10
182.2958
 20
56.9254
  0
VERTEX
  8
LAYER_1
 10
182.2958
 20
116.446
  0
SEQEND
  0
POLYLINE
  8
LAYER_1
 40
0.1764
 41
0.1764
 66
1
 10
0
 20
0
 30
0
  0
VERTEX
  8
LAYER_1
 10
168.7491
 20
51.2739
  0
VERTEX
  8
LAYER_1
 10
188.7516
 20
51.2739
  0
SEQEND
  0
POLYLINE
  8
LAYER_1
 40
0.1764
 41
0.1764
 66
1
 10
0
 20
0
 30
0
  0
VERTEX
  8
LAYER_1
 10
173.7444
 20
56.9254
  0
VERTEX
  8
LAYER_1
 10
183.7563
 20
56.9254
  0
SEQEND
  0
POLYLINE
  8
LAYER_1
 40
0.1764
 41
0.1764
 66
1
 10
0
 20
0
 30
0
  0
VERTEX
  8
LAYER_1
 10
168.7491
 20
51.93
  0
VERTEX
  8
LAYER_1
 10
168.7491
 20
51.2739
  0
SEQEND
  0
POLYLINE
  8
LAYER_1
 40
0.1764
 41
0.1764
 66
1
 10
0
 20
0
 30
0
  0
VERTEX
  8
LAYER_1
 10
188.7516
 20
51.93
  0
VERTEX
  8
LAYER_1
 10
188.7516
 20
51.2739
  0
SEQEND
  0
POLYLINE
  8
LAYER_1
 40
0.1764
 41
0.1764
 66
1
 10
0
 20
0
 30
0
  0
VERTEX
  8
LAYER_1
 10
188.7516
 20
51.93
  0
VERTEX
  8
LAYER_1
 10
188.6669
 20
52.7979
  0
VERTEX
  8
LAYER_1
 10
188.4341
 20
53.6445
  0
VERTEX
  8
LAYER_1
 10
188.0743
 20
54.4277
  0
VERTEX
  8
LAYER_1
 10
187.5663
 20
55.1474
  0
VERTEX
  8
LAYER_1
 10
186.9525
 20
55.7612
  0
VERTEX
  8
LAYER_1
 10
186.2539
 20
56.2692
  0
VERTEX
  8
LAYER_1
 10
185.4496
 20
56.629
  0
VERTEX
  8
LAYER_1
 10
184.6241
 20
56.8619
  0
VERTEX
  8
LAYER_1
 10
183.7563
 20
56.9254
  0
SEQEND
  0
POLYLINE
  8
LAYER_1
 40
0.1764
 41
0.1764
 66
1
 10
0
 20
0
 30
0
  0
VERTEX
  8
LAYER_1
 10
173.7444
 20
56.9254
  0
VERTEX
  8
LAYER_1
 10
172.8766
 20
56.8619
  0
VERTEX
  8
LAYER_1
 10
172.0511
 20
56.629
  0
VERTEX
  8
LAYER_1
 10
171.2468
 20
56.2692
  0
VERTEX
  8
LAYER_1
 10
170.5483
 20
55.7612
  0
VERTEX
  8
LAYER_1
 10
169.9133
 20
55.1474
  0
VERTEX
  8
LAYER_1
 10
169.4264
 20
54.4277
  0
VERTEX
  8
LAYER_1
 10
169.0454
 20
53.6445
  0
VERTEX
  8
LAYER_1
 10
168.8338
 20
52.7979
  0
VERTEX
  8
LAYER_1
 10
168.7491
 20
51.93
  0
SEQEND
  0
POLYLINE
  8
LAYER_1
 40
0.1764
 41
0.1764
 66
1
 10
0
 20
0
 30
0
  0
VERTEX
  8
LAYER_1
 10
174.3159
 20
126.7542
  0
VERTEX
  8
LAYER_1
 10
174.3159
 20
116.7635
  0
SEQEND
  0
POLYLINE
  8
LAYER_1
 40
0.1764
 41
0.1764
 66
1
 10
0
 20
0
 30
0
  0
VERTEX
  8
LAYER_1
 10
174.6334
 20
127.0929
  0
VERTEX
  8
LAYER_1
 10
174.3159
 20
126.7542
  0
SEQEND
  0
POLYLINE
  8
LAYER_1
 40
0.1764
 41
0.1764
 66
1
 10
0
 20
0
 30
0
  0
VERTEX
  8
LAYER_1
 10
174.6334
 20
116.446
  0
VERTEX
  8
LAYER_1
 10
174.3159
 20
116.7635
  0
SEQEND
  0
POLYLINE
  8
LAYER_1
 40
0.1764
 41
0.1764
 66
1
 10
0
 20
0
 30
0
  0
VERTEX
  8
LAYER_1
 10
183.3118
 20
126.7542
  0
VERTEX
  8
LAYER_1
 10
183.3118
 20
116.7635
  0
SEQEND
  0
POLYLINE
  8
LAYER_1
 40
0.1764
 41
0.1764
 66
1
 10
0
 20
0
 30
0
  0
VERTEX
  8
LAYER_1
 10
182.9731
 20
116.446
  0
VERTEX
  8
LAYER_1
 10
183.3118
 20
116.7635
  0
SEQEND
  0
POLYLINE
  8
LAYER_1
 40
0.1764
 41
0.1764
 66
1
 10
0
 20
0
 30
0
  0
VERTEX
  8
LAYER_1
 10
180.5178
 20
126.7542
  0
VERTEX
  8
LAYER_1
 10
180.5178
 20
116.7635
  0
SEQEND
  0
POLYLINE
  8
LAYER_1
 40
0.1764
 41
0.1764
 66
1
 10
0
 20
0
 30
0
  0
VERTEX
  8
LAYER_1
 10
181.5761
 20
126.7542
  0
VERTEX
  8
LAYER_1
 10
181.5761
 20
116.7635
  0
SEQEND
  0
POLYLINE
  8
LAYER_1
 40
0.1764
 41
0.1764
 66
1
 10
0
 20
0
 30
0
  0
VERTEX
  8
LAYER_1
 10
181.5761
 20
126.7542
  0
VERTEX
  8
LAYER_1
 10
180.5178
 20
126.7542
  0
SEQEND
  0
POLYLINE
  8
LAYER_1
 40
0.1764
 41
0.1764
 66
1
 10
0
 20
0
 30
0
  0
VERTEX
  8
LAYER_1
 10
182.8038
 20
127.0929
  0
VERTEX
  8
LAYER_1
 10
182.8038
 20
128.4264
  0
SEQEND
  0
POLYLINE
  8
LAYER_1
 40
0.1764
 41
0.1764
 66
1
 10
0
 20
0
 30
0
  0
VERTEX
  8
LAYER_1
 10
182.9731
 20
127.0929
  0
VERTEX
  8
LAYER_1
 10
174.6335
 20
127.0929
  0
SEQEND
  0
POLYLINE
  8
LAYER_1
 40
0.1764
 41
0.1764
 66
1
 10
0
 20
0
 30
0
  0
VERTEX
  8
LAYER_1
 10
182.9731
 20
127.0929
  0
VERTEX
  8
LAYER_1
 10
183.3118
 20
126.7542
  0
SEQEND
  0
POLYLINE
  8
LAYER_1
 40
0.1764
 41
0.1764
 66
1
 10
0
 20
0
 30
0
  0
VERTEX
  8
LAYER_1
 10
181.5761
 20
116.7635
  0
VERTEX
  8
LAYER_1
 10
180.5178
 20
116.7635
  0
SEQEND
  0
POLYLINE
  8
LAYER_1
 40
0.1764
 41
0.1764
 66
1
 10
0
 20
0
 30
0
  0
VERTEX
  8
LAYER_1
 10
180.5178
 20
126.7542
  0
VERTEX
  8
LAYER_1
 10
179.7558
 20
126.987
  0
VERTEX
  8
LAYER_1
 10
178.9726
 20
127.0929
  0
VERTEX
  8
LAYER_1
 10
178.1895
 20
127.0505
  0
VERTEX
  8
LAYER_1
 10
177.4275
 20
126.8812
  0
VERTEX
  8
LAYER_1
 10
177.11
 20
126.7542
  0
SEQEND
  0
POLYLINE
  8
LAYER_1
 40
0.1764
 41
0.1764
 66
1
 10
0
 20
0
 30
0
  0
VERTEX
  8
LAYER_1
 10
183.3118
 20
126.7542
  0
VERTEX
  8
LAYER_1
 10
183.1213
 20
126.9024
  0
VERTEX
  8
LAYER_1
 10
182.9096
 20
127.0082
  0
SEQEND
  0
POLYLINE
  8
LAYER_1
 40
0.1764
 41
0.1764
 66
1
 10
0
 20
0
 30
0
  0
VERTEX
  8
LAYER_1
 10
182.9096
 20
127.0082
  0
VERTEX
  8
LAYER_1
 10
182.698
 20
127.0717
  0
VERTEX
  8
LAYER_1
 10
182.4863
 20
127.0928
  0
VERTEX
  8
LAYER_1
 10
182.2535
 20
127.0717
  0
VERTEX
  8
LAYER_1
 10
182.0206
 20
127.0294
  0
VERTEX
  8
LAYER_1
 10
181.809
 20
126.9447
  0
VERTEX
  8
LAYER_1
 10
181.6185
 20
126.8177
  0
VERTEX
  8
LAYER_1
 10
181.5761
 20
126.7542
  0
SEQEND
  0
POLYLINE
  8
LAYER_1
 40
0.1764
 41
0.1764
 66
1
 10
0
 20
0
 30
0
  0
VERTEX
  8
LAYER_1
 10
177.11
 20
116.7635
  0
VERTEX
  8
LAYER_1
 10
177.8508
 20
116.5307
  0
VERTEX
  8
LAYER_1
 10
178.634
 20
116.446
  0
VERTEX
  8
LAYER_1
 10
179.4171
 20
116.4672
  0
VERTEX
  8
LAYER_1
 10
180.1791
 20
116.6365
  0
VERTEX
  8
LAYER_1
 10
180.5178
 20
116.7635
  0
SEQEND
  0
POLYLINE
  8
LAYER_1
 40
0.1764
 41
0.1764
 66
1
 10
0
 20
0
 30
0
  0
VERTEX
  8
LAYER_1
 10
181.5761
 20
116.7635
  0
VERTEX
  8
LAYER_1
 10
181.7455
 20
116.6365
  0
VERTEX
  8
LAYER_1
 10
181.9571
 20
116.5307
  0
VERTEX
  8
LAYER_1
 10
182.1688
 20
116.446
  0
VERTEX
  8
LAYER_1
 10
182.3805
 20
116.446
  0
VERTEX
  8
LAYER_1
 10
182.6133
 20
116.446
  0
VERTEX
  8
LAYER_1
 10
182.8461
 20
116.4884
  0
VERTEX
  8
LAYER_1
 10
183.0366
 20
116.5942
  0
VERTEX
  8
LAYER_1
 10
183.2271
 20
116.7
  0
VERTEX
  8
LAYER_1
 10
183.3118
 20
116.7635
  0
SEQEND
  0
POLYLINE
  8
LAYER_1
 40
0.1764
 41
0.1764
 66
1
 10
0
 20
0
 30
0
  0
VERTEX
  8
LAYER_1
 10
182.5498
 20
127.7702
  0
VERTEX
  8
LAYER_1
 10
182.8038
 20
127.3257
  0
SEQEND
  0
POLYLINE
  8
LAYER_1
 40
0.1764
 41
0.1764
 66
1
 10
0
 20
0
 30
0
  0
VERTEX
  8
LAYER_1
 10
174.8028
 20
127.0928
  0
VERTEX
  8
LAYER_1
 10
174.8028
 20
128.4263
  0
SEQEND
  0
POLYLINE
  8
LAYER_1
 40
0.1764
 41
0.1764
 66
1
 10
0
 20
0
 30
0
  0
VERTEX
  8
LAYER_1
 10
174.6335
 20
116.446
  0
VERTEX
  8
LAYER_1
 10
182.9731
 20
116.446
  0
SEQEND
  0
POLYLINE
  8
LAYER_1
 40
0.1764
 41
0.1764
 66
1
 10
0
 20
0
 30
0
  0
VERTEX
  8
LAYER_1
 10
175.0568
 20
127.7702
  0
VERTEX
  8
LAYER_1
 10
174.8028
 20
127.3257
  0
SEQEND
  0
POLYLINE
  8
LAYER_1
 40
0.1764
 41
0.1764
 66
1
 10
0
 20
0
 30
0
  0
VERTEX
  8
LAYER_1
 10
174.1466
 20
128.4263
  0
VERTEX
  8
LAYER_1
 10
183.46
 20
128.4263
  0
SEQEND
  0
POLYLINE
  8
LAYER_1
 40
0.1764
 41
0.1764
 66
1
 10
0
 20
0
 30
0
  0
VERTEX
  8
LAYER_1
 10
174.1466
 20
134.5858
  0
VERTEX
  8
LAYER_1
 10
183.46
 20
134.5858
  0
SEQEND
  0
POLYLINE
  8
LAYER_1
 40
0.1764
 41
0.1764
 66
1
 10
0
 20
0
 30
0
  0
VERTEX
  8
LAYER_1
 10
173.808
 20
128.7438
  0
VERTEX
  8
LAYER_1
 10
173.808
 20
134.2472
  0
SEQEND
  0
POLYLINE
  8
LAYER_1
 40
0.1764
 41
0.1764
 66
1
 10
0
 20
0
 30
0
  0
VERTEX
  8
LAYER_1
 10
183.7986
 20
128.7438
  0
VERTEX
  8
LAYER_1
 10
183.7986
 20
134.2472
  0
SEQEND
  0
POLYLINE
  8
LAYER_1
 40
0.1764
 41
0.1764
 66
1
 10
0
 20
0
 30
0
  0
VERTEX
  8
LAYER_1
 10
174.1466
 20
134.5858
  0
VERTEX
  8
LAYER_1
 10
173.808
 20
134.2472
  0
SEQEND
  0
POLYLINE
  8
LAYER_1
 40
0.1764
 41
0.1764
 66
1
 10
0
 20
0
 30
0
  0
VERTEX
  8
LAYER_1
 10
174.1466
 20
128.4263
  0
VERTEX
  8
LAYER_1
 10
173.808
 20
128.7438
  0
SEQEND
  0
POLYLINE
  8
LAYER_1
 40
0.1764
 41
0.1764
 66
1
 10
0
 20
0
 30
0
  0
VERTEX
  8
LAYER_1
 10
183.46
 20
128.4263
  0
VERTEX
  8
LAYER_1
 10
183.7986
 20
128.7438
  0
SEQEND
  0
POLYLINE
  8
LAYER_1
 40
0.1764
 41
0.1764
 66
1
 10
0
 20
0
 30
0
  0
VERTEX
  8
LAYER_1
 10
183.46
 20
134.5858
  0
VERTEX
  8
LAYER_1
 10
183.7986
 20
134.2472
  0
SEQEND
  0
POLYLINE
  8
LAYER_1
 40
0.1764
 41
0.1764
 66
1
 10
0
 20
0
 30
0
  0
VERTEX
  8
LAYER_1
 10
180.6025
 20
134.2472
  0
VERTEX
  8
LAYER_1
 10
180.6025
 20
128.7438
  0
SEQEND
  0
POLYLINE
  8
LAYER_1
 40
0.1764
 41
0.1764
 66
1
 10
0
 20
0
 30
0
  0
VERTEX
  8
LAYER_1
 10
181.9571
 20
128.7438
  0
VERTEX
  8
LAYER_1
 10
181.9571
 20
134.2472
  0
VERTEX
  8
LAYER_1
 10
180.6025
 20
134.2472
  0
SEQEND
  0
POLYLINE
  8
LAYER_1
 40
0.1764
 41
0.1764
 66
1
 10
0
 20
0
 30
0
  0
VERTEX
  8
LAYER_1
 10
181.9571
 20
128.7438
  0
VERTEX
  8
LAYER_1
 10
180.6025
 20
128.7438
  0
SEQEND
  0
POLYLINE
  8
LAYER_1
 40
0.1764
 41
0.1764
 66
1
 10
0
 20
0
 30
0
  0
VERTEX
  8
LAYER_1
 10
183.7986
 20
134.2472
  0
VERTEX
  8
LAYER_1
 10
183.587
 20
134.3954
  0
VERTEX
  8
LAYER_1
 10
183.3753
 20
134.5012
  0
VERTEX
  8
LAYER_1
 10
183.1213
 20
134.5647
  0
VERTEX
  8
LAYER_1
 10
182.8673
 20
134.5858
  0
VERTEX
  8
LAYER_1
 10
182.6133
 20
134.5647
  0
VERTEX
  8
LAYER_1
 10
182.3593
 20
134.48
  0
VERTEX
  8
LAYER_1
 10
182.1265
 20
134.3742
  0
VERTEX
  8
LAYER_1
 10
181.9571
 20
134.2472
  0
SEQEND
  0
POLYLINE
  8
LAYER_1
 40
0.1764
 41
0.1764
 66
1
 10
0
 20
0
 30
0
  0
VERTEX
  8
LAYER_1
 10
180.6025
 20
134.2472
  0
VERTEX
  8
LAYER_1
 10
179.777
 20
134.48
  0
VERTEX
  8
LAYER_1
 10
178.888
 20
134.5858
  0
VERTEX
  8
LAYER_1
 10
178.0201
 20
134.5223
  0
VERTEX
  8
LAYER_1
 10
177.1735
 20
134.3107
  0
VERTEX
  8
LAYER_1
 10
177.0041
 20
134.2472
  0
SEQEND
  0
POLYLINE
  8
LAYER_1
 40
0.1764
 41
0.1764
 66
1
 10
0
 20
0
 30
0
  0
VERTEX
  8
LAYER_1
 10
177.0041
 20
128.7438
  0
VERTEX
  8
LAYER_1
 10
177.8508
 20
128.511
  0
VERTEX
  8
LAYER_1
 10
178.7186
 20
128.4263
  0
VERTEX
  8
LAYER_1
 10
179.5865
 20
128.4898
  0
VERTEX
  8
LAYER_1
 10
180.4331
 20
128.6803
  0
VERTEX
  8
LAYER_1
 10
180.6025
 20
128.7438
  0
SEQEND
  0
POLYLINE
  8
LAYER_1
 40
0.1764
 41
0.1764
 66
1
 10
0
 20
0
 30
0
  0
VERTEX
  8
LAYER_1
 10
181.9571
 20
128.7438
  0
VERTEX
  8
LAYER_1
 10
182.1476
 20
128.6169
  0
VERTEX
  8
LAYER_1
 10
182.3805
 20
128.511
  0
VERTEX
  8
LAYER_1
 10
182.6345
 20
128.4475
  0
VERTEX
  8
LAYER_1
 10
182.8885
 20
128.4263
  0
VERTEX
  8
LAYER_1
 10
183.1425
 20
128.4475
  0
VERTEX
  8
LAYER_1
 10
183.3965
 20
128.511
  0
VERTEX
  8
LAYER_1
 10
183.6081
 20
128.6169
  0
VERTEX
  8
LAYER_1
 10
183.7986
 20
128.7438
  0
SEQEND
  0
POLYLINE
  8
LAYER_1
 40
0.1764
 41
0.1764
 66
1
 10
0
 20
0
 30
0
  0
VERTEX
  8
LAYER_1
 10
176.0516
 20
126.7542
  0
VERTEX
  8
LAYER_1
 10
177.11
 20
126.7542
  0
VERTEX
  8
LAYER_1
 10
177.11
 20
116.7635
  0
SEQEND
  0
POLYLINE
  8
LAYER_1
 40
0.1764
 41
0.1764
 66
1
 10
0
 20
0
 30
0
  0
VERTEX
  8
LAYER_1
 10
176.0516
 20
126.7542
  0
VERTEX
  8
LAYER_1
 10
176.0516
 20
116.7635
  0
VERTEX
  8
LAYER_1
 10
177.11
 20
116.7635
  0
SEQEND
  0
POLYLINE
  8
LAYER_1
 40
0.1764
 41
0.1764
 66
1
 10
0
 20
0
 30
0
  0
VERTEX
  8
LAYER_1
 10
176.0516
 20
126.7542
  0
VERTEX
  8
LAYER_1
 10
175.8611
 20
126.9023
  0
VERTEX
  8
LAYER_1
 10
175.6706
 20
127.0082
  0
VERTEX
  8
LAYER_1
 10
175.459
 20
127.0717
  0
VERTEX
  8
LAYER_1
 10
175.2261
 20
127.0928
  0
VERTEX
  8
LAYER_1
 10
174.9933
 20
127.0717
  0
VERTEX
  8
LAYER_1
 10
174.7605
 20
127.0293
  0
VERTEX
  8
LAYER_1
 10
174.57
 20
126.9447
  0
VERTEX
  8
LAYER_1
 10
174.3795
 20
126.8177
  0
VERTEX
  8
LAYER_1
 10
174.316
 20
126.7542
  0
SEQEND
  0
POLYLINE
  8
LAYER_1
 40
0.1764
 41
0.1764
 66
1
 10
0
 20
0
 30
0
  0
VERTEX
  8
LAYER_1
 10
174.316
 20
116.7635
  0
VERTEX
  8
LAYER_1
 10
174.4853
 20
116.6365
  0
VERTEX
  8
LAYER_1
 10
174.697
 20
116.5307
  0
VERTEX
  8
LAYER_1
 10
174.9086
 20
116.446
  0
VERTEX
  8
LAYER_1
 10
175.1415
 20
116.446
  0
VERTEX
  8
LAYER_1
 10
175.3531
 20
116.446
  0
VERTEX
  8
LAYER_1
 10
175.586
 20
116.4883
  0
VERTEX
  8
LAYER_1
 10
175.7976
 20
116.5942
  0
VERTEX
  8
LAYER_1
 10
175.9881
 20
116.7
  0
VERTEX
  8
LAYER_1
 10
176.0516
 20
116.7635
  0
SEQEND
  0
POLYLINE
  8
LAYER_1
 40
0.1764
 41
0.1764
 66
1
 10
0
 20
0
 30
0
  0
VERTEX
  8
LAYER_1
 10
175.6495
 20
134.2472
  0
VERTEX
  8
LAYER_1
 10
177.0041
 20
134.2472
  0
SEQEND
  0
POLYLINE
  8
LAYER_1
 40
0.1764
 41
0.1764
 66
1
 10
0
 20
0
 30
0
  0
VERTEX
  8
LAYER_1
 10
175.6495
 20
128.7438
  0
VERTEX
  8
LAYER_1
 10
177.0041
 20
128.7438
  0
SEQEND
  0
POLYLINE
  8
LAYER_1
 40
0.1764
 41
0.1764
 66
1
 10
0
 20
0
 30
0
  0
VERTEX
  8
LAYER_1
 10
177.0041
 20
134.2472
  0
VERTEX
  8
LAYER_1
 10
177.0041
 20
128.7438
  0
SEQEND
  0
POLYLINE
  8
LAYER_1
 40
0.1764
 41
0.1764
 66
1
 10
0
 20
0
 30
0
  0
VERTEX
  8
LAYER_1
 10
175.6495
 20
128.7438
  0
VERTEX
  8
LAYER_1
 10
175.6495
 20
134.2472
  0
SEQEND
  0
POLYLINE
  8
LAYER_1
 40
0.1764
 41
0.1764
 66
1
 10
0
 20
0
 30
0
  0
VERTEX
  8
LAYER_1
 10
173.808
 20
128.7438
  0
VERTEX
  8
LAYER_1
 10
174.0196
 20
128.6168
  0
VERTEX
  8
LAYER_1
 10
174.2525
 20
128.511
  0
VERTEX
  8
LAYER_1
 10
174.4853
 20
128.4475
  0
VERTEX
  8
LAYER_1
 10
174.7393
 20
128.4263
  0
VERTEX
  8
LAYER_1
 10
174.9933
 20
128.4475
  0
VERTEX
  8
LAYER_1
 10
175.2473
 20
128.511
  0
VERTEX
  8
LAYER_1
 10
175.459
 20
128.6168
  0
VERTEX
  8
LAYER_1
 10
175.6495
 20
128.7438
  0
SEQEND
  0
POLYLINE
  8
LAYER_1
 40
0.1764
 41
0.1764
 66
1
 10
0
 20
0
 30
0
  0
VERTEX
  8
LAYER_1
 10
175.6495
 20
134.2472
  0
VERTEX
  8
LAYER_1
 10
175.459
 20
134.3953
  0
VERTEX
  8
LAYER_1
 10
175.2261
 20
134.5012
  0
VERTEX
  8
LAYER_1
 10
174.9721
 20
134.5647
  0
VERTEX
  8
LAYER_1
 10
174.7181
 20
134.5858
  0
VERTEX
  8
LAYER_1
 10
174.4641
 20
134.5647
  0
VERTEX
  8
LAYER_1
 10
174.2313
 20
134.48
  0
VERTEX
  8
LAYER_1
 10
173.9985
 20
134.3742
  0
VERTEX
  8
LAYER_1
 10
173.808
 20
134.2472
  0
SEQEND
  0
POLYLINE
  8
LAYER_1
 40
0.1764
 41
0.1764
 66
1
 10
0
 20
0
 30
0
  0
VERTEX
  8
LAYER_1
 10
182.4651
 20
134.5858
  0
VERTEX
  8
LAYER_1
 10
175.1415
 20
134.5858
  0
SEQEND
  0
POLYLINE
  8
LAYER_1
 40
0.1764
 41
0.1764
 66
1
 10
0
 20
0
 30
0
  0
VERTEX
  8
LAYER_1
 10
97.354
 20
138.2265
  0
VERTEX
  8
LAYER_1
 10
88.6968
 20
138.2265
  0
SEQEND
  0
POLYLINE
  8
LAYER_1
 40
0.1764
 41
0.1764
 66
1
 10
0
 20
0
 30
0
  0
VERTEX
  8
LAYER_1
 10
88.6968
 20
141.5285
  0
VERTEX
  8
LAYER_1
 10
88.6968
 20
138.2265
  0
SEQEND
  0
POLYLINE
  8
LAYER_1
 40
0.1764
 41
0.1764
 66
1
 10
0
 20
0
 30
0
  0
VERTEX
  8
LAYER_1
 10
97.354
 20
141.5285
  0
VERTEX
  8
LAYER_1
 10
97.354
 20
138.2265
  0
SEQEND
  0
POLYLINE
  8
LAYER_1
 40
0.1764
 41
0.1764
 66
1
 10
0
 20
0
 30
0
  0
VERTEX
  8
LAYER_1
 10
92.6761
 20
139.6023
  0
VERTEX
  8
LAYER_1
 10
92.6761
 20
138.6075
  0
SEQEND
  0
POLYLINE
  8
LAYER_1
 40
0.1764
 41
0.1764
 66
1
 10
0
 20
0
 30
0
  0
VERTEX
  8
LAYER_1
 10
93.3535
 20
139.6023
  0
VERTEX
  8
LAYER_1
 10
93.3535
 20
138.6075
  0
SEQEND
  0
POLYLINE
  8
LAYER_1
 40
0.1764
 41
0.1764
 66
1
 10
0
 20
0
 30
0
  0
VERTEX
  8
LAYER_1
 10
89.0143
 20
141.5285
  0
VERTEX
  8
LAYER_1
 10
89.0143
 20
138.6075
  0
SEQEND
  0
POLYLINE
  8
LAYER_1
 40
0.1764
 41
0.1764
 66
1
 10
0
 20
0
 30
0
  0
VERTEX
  8
LAYER_1
 10
97.0153
 20
141.5285
  0
VERTEX
  8
LAYER_1
 10
97.0153
 20
138.6075
  0
SEQEND
  0
POLYLINE
  8
LAYER_1
 40
0.1764
 41
0.1764
 66
1
 10
0
 20
0
 30
0
  0
VERTEX
  8
LAYER_1
 10
89.0143
 20
138.6075
  0
VERTEX
  8
LAYER_1
 10
89.7763
 20
138.3747
  0
VERTEX
  8
LAYER_1
 10
90.5807
 20
138.2477
  0
VERTEX
  8
LAYER_1
 10
91.385
 20
138.2688
  0
VERTEX
  8
LAYER_1
 10
92.1682
 20
138.4382
  0
VERTEX
  8
LAYER_1
 10
92.6762
 20
138.6075
  0
SEQEND
  0
POLYLINE
  8
LAYER_1
 40
0.1764
 41
0.1764
 66
1
 10
0
 20
0
 30
0
  0
VERTEX
  8
LAYER_1
 10
93.3535
 20
138.6075
  0
VERTEX
  8
LAYER_1
 10
94.1155
 20
138.3747
  0
VERTEX
  8
LAYER_1
 10
94.9198
 20
138.2477
  0
VERTEX
  8
LAYER_1
 10
95.7241
 20
138.2688
  0
VERTEX
  8
LAYER_1
 10
96.5073
 20
138.4382
  0
VERTEX
  8
LAYER_1
 10
97.0153
 20
138.6075
  0
SEQEND
  0
POLYLINE
  8
LAYER_1
 40
0.1764
 41
0.1764
 66
1
 10
0
 20
0
 30
0
  0
VERTEX
  8
LAYER_1
 10
90.8982
 20
141.9095
  0
VERTEX
  8
LAYER_1
 10
90.0938
 20
141.846
  0
VERTEX
  8
LAYER_1
 10
89.3107
 20
141.6343
  0
VERTEX
  8
LAYER_1
 10
89.0143
 20
141.5285
  0
SEQEND
  0
POLYLINE
  8
LAYER_1
 40
0.1764
 41
0.1764
 66
1
 10
0
 20
0
 30
0
  0
VERTEX
  8
LAYER_1
 10
97.0153
 20
141.5285
  0
VERTEX
  8
LAYER_1
 10
96.2533
 20
141.7825
  0
VERTEX
  8
LAYER_1
 10
95.449
 20
141.8883
  0
VERTEX
  8
LAYER_1
 10
95.1527
 20
141.9095
  0
SEQEND
  0
POLYLINE
  8
LAYER_1
 40
0.1764
 41
0.1764
 66
1
 10
0
 20
0
 30
0
  0
VERTEX
  8
LAYER_1
 10
89.0143
 20
138.6075
  0
VERTEX
  8
LAYER_1
 10
88.6968
 20
138.6075
  0
SEQEND
  0
POLYLINE
  8
LAYER_1
 40
0.1764
 41
0.1764
 66
1
 10
0
 20
0
 30
0
  0
VERTEX
  8
LAYER_1
 10
97.354
 20
138.6075
  0
VERTEX
  8
LAYER_1
 10
97.0153
 20
138.6075
  0
SEQEND
  0
POLYLINE
  8
LAYER_1
 40
0.1764
 41
0.1764
 66
1
 10
0
 20
0
 30
0
  0
VERTEX
  8
LAYER_1
 10
93.3535
 20
138.6075
  0
VERTEX
  8
LAYER_1
 10
92.6761
 20
138.6075
  0
SEQEND
  0
POLYLINE
  8
LAYER_1
 40
0.1764
 41
0.1764
 66
1
 10
0
 20
0
 30
0
  0
VERTEX
  8
LAYER_1
 10
97.354
 20
141.5285
  0
VERTEX
  8
LAYER_1
 10
97.0153
 20
141.5285
  0
SEQEND
  0
POLYLINE
  8
LAYER_1
 40
0.1764
 41
0.1764
 66
1
 10
0
 20
0
 30
0
  0
VERTEX
  8
LAYER_1
 10
89.0143
 20
141.5285
  0
VERTEX
  8
LAYER_1
 10
88.6968
 20
141.5285
  0
SEQEND
  0
POLYLINE
  8
LAYER_1
 40
0.1764
 41
0.1764
 66
1
 10
0
 20
0
 30
0
  0
VERTEX
  8
LAYER_1
 10
89.9245
 20
156.578
  0
VERTEX
  8
LAYER_1
 10
89.5223
 20
156.1758
  0
SEQEND
  0
POLYLINE
  8
LAYER_1
 40
0.1764
 41
0.1764
 66
1
 10
0
 20
0
 30
0
  0
VERTEX
  8
LAYER_1
 10
96.1051
 20
156.578
  0
VERTEX
  8
LAYER_1
 10
96.5073
 20
156.1758
  0
SEQEND
  0
POLYLINE
  8
LAYER_1
 40
0.1764
 41
0.1764
 66
1
 10
0
 20
0
 30
0
  0
VERTEX
  8
LAYER_1
 10
88.6968
 20
141.5285
  0
VERTEX
  8
LAYER_1
 10
88.8661
 20
141.8883
  0
VERTEX
  8
LAYER_1
 10
88.972
 20
142.2905
  0
VERTEX
  8
LAYER_1
 10
89.0143
 20
142.6927
  0
VERTEX
  8
LAYER_1
 10
89.0143
 20
142.7138
  0
SEQEND
  0
POLYLINE
  8
LAYER_1
 40
0.1764
 41
0.1764
 66
1
 10
0
 20
0
 30
0
  0
VERTEX
  8
LAYER_1
 10
97.0153
 20
142.7138
  0
VERTEX
  8
LAYER_1
 10
97.0576
 20
142.3328
  0
VERTEX
  8
LAYER_1
 10
97.1635
 20
141.9307
  0
VERTEX
  8
LAYER_1
 10
97.3328
 20
141.5708
  0
VERTEX
  8
LAYER_1
 10
97.354
 20
141.5285
  0
SEQEND
  0
POLYLINE
  8
LAYER_1
 40
0.1764
 41
0.1764
 66
1
 10
0
 20
0
 30
0
  0
VERTEX
  8
LAYER_1
 10
89.5223
 20
159.499
  0
VERTEX
  8
LAYER_1
 10
89.5223
 20
156.1758
  0
SEQEND
  0
POLYLINE
  8
LAYER_1
 40
0.1764
 41
0.1764
 66
1
 10
0
 20
0
 30
0
  0
VERTEX
  8
LAYER_1
 10
96.5073
 20
159.499
  0
VERTEX
  8
LAYER_1
 10
96.5073
 20
156.1758
  0
SEQEND
  0
POLYLINE
  8
LAYER_1
 40
0.1764
 41
0.1764
 66
1
 10
0
 20
0
 30
0
  0
VERTEX
  8
LAYER_1
 10
91.0463
 20
141.1687
  0
VERTEX
  8
LAYER_1
 10
90.8346
 20
142.1423
  0
VERTEX
  8
LAYER_1
 10
90.5595
 20
143.0948
  0
VERTEX
  8
LAYER_1
 10
90.242
 20
144.0473
  0
VERTEX
  8
LAYER_1
 10
89.8821
 20
144.9787
  0
VERTEX
  8
LAYER_1
 10
89.48
 20
145.8888
  0
VERTEX
  8
LAYER_1
 10
89.0355
 20
146.799
  0
VERTEX
  8
LAYER_1
 10
88.5275
 20
147.6668
  0
VERTEX
  8
LAYER_1
 10
87.9983
 20
148.4923
  0
VERTEX
  8
LAYER_1
 10
87.4268
 20
149.3178
  0
VERTEX
  8
LAYER_1
 10
86.813
 20
150.1222
  0
VERTEX
  8
LAYER_1
 10
86.178
 20
150.8842
  0
VERTEX
  8
LAYER_1
 10
85.4795
 20
151.6038
  0
VERTEX
  8
LAYER_1
 10
84.7598
 20
152.3023
  0
VERTEX
  8
LAYER_1
 10
84.4846
 20
152.5775
  0
SEQEND
  0
POLYLINE
  8
LAYER_1
 40
0.1764
 41
0.1764
 66
1
 10
0
 20
0
 30
0
  0
VERTEX
  8
LAYER_1
 10
101.5661
 20
152.5775
  0
VERTEX
  8
LAYER_1
 10
100.8253
 20
151.9002
  0
VERTEX
  8
LAYER_1
 10
100.1268
 20
151.1805
  0
VERTEX
  8
LAYER_1
 10
99.4706
 20
150.4397
  0
VERTEX
  8
LAYER_1
 10
98.8356
 20
149.6565
  0
VERTEX
  8
LAYER_1
 10
98.243
 20
148.831
  0
VERTEX
  8
LAYER_1
 10
97.6926
 20
148.0055
  0
VERTEX
  8
LAYER_1
 10
97.1846
 20
147.1377
  0
VERTEX
  8
LAYER_1
 10
96.7401
 20
146.2698
  0
VERTEX
  8
LAYER_1
 10
96.2956
 20
145.3597
  0
VERTEX
  8
LAYER_1
 10
95.9146
 20
144.4283
  0
VERTEX
  8
LAYER_1
 10
95.5971
 20
143.4758
  0
VERTEX
  8
LAYER_1
 10
95.3008
 20
142.5445
  0
VERTEX
  8
LAYER_1
 10
95.068
 20
141.5708
  0
VERTEX
  8
LAYER_1
 10
94.9833
 20
141.1687
  0
SEQEND
  0
POLYLINE
  8
LAYER_1
 40
0.1764
 41
0.1764
 66
1
 10
0
 20
0
 30
0
  0
VERTEX
  8
LAYER_1
 10
86.432
 20
155.9642
  0
VERTEX
  8
LAYER_1
 10
87.3845
 20
155.6678
  0
VERTEX
  8
LAYER_1
 10
88.3581
 20
155.435
  0
VERTEX
  8
LAYER_1
 10
89.3318
 20
155.2233
  0
VERTEX
  8
LAYER_1
 10
90.3266
 20
155.0752
  0
VERTEX
  8
LAYER_1
 10
91.3215
 20
154.9693
  0
VERTEX
  8
LAYER_1
 10
92.3163
 20
154.9058
  0
VERTEX
  8
LAYER_1
 10
93.3111
 20
154.9058
  0
VERTEX
  8
LAYER_1
 10
94.306
 20
154.9482
  0
VERTEX
  8
LAYER_1
 10
95.322
 20
155.0328
  0
VERTEX
  8
LAYER_1
 10
96.2956
 20
155.1598
  0
VERTEX
  8
LAYER_1
 10
97.2905
 20
155.3292
  0
VERTEX
  8
LAYER_1
 10
98.2641
 20
155.562
  0
VERTEX
  8
LAYER_1
 10
99.2166
 20
155.8372
  0
VERTEX
  8
LAYER_1
 10
99.5976
 20
155.9642
  0
SEQEND
  0
POLYLINE
  8
LAYER_1
 40
0.1764
 41
0.1764
 66
1
 10
0
 20
0
 30
0
  0
VERTEX
  8
LAYER_1
 10
91.0463
 20
141.1687
  0
VERTEX
  8
LAYER_1
 10
91.1521
 20
140.83
  0
VERTEX
  8
LAYER_1
 10
91.3215
 20
140.5337
  0
VERTEX
  8
LAYER_1
 10
91.5331
 20
140.2373
  0
VERTEX
  8
LAYER_1
 10
91.766
 20
140.0045
  0
VERTEX
  8
LAYER_1
 10
92.0623
 20
139.814
  0
VERTEX
  8
LAYER_1
 10
92.3798
 20
139.6658
  0
VERTEX
  8
LAYER_1
 10
92.7185
 20
139.6023
  0
VERTEX
  8
LAYER_1
 10
93.0783
 20
139.5812
  0
VERTEX
  8
LAYER_1
 10
93.417
 20
139.6235
  0
VERTEX
  8
LAYER_1
 10
93.7556
 20
139.7082
  0
VERTEX
  8
LAYER_1
 10
94.0731
 20
139.8563
  0
VERTEX
  8
LAYER_1
 10
94.3483
 20
140.068
  0
SEQEND
  0
POLYLINE
  8
LAYER_1
 40
0.1764
 41
0.1764
 66
1
 10
0
 20
0
 30
0
  0
VERTEX
  8
LAYER_1
 10
94.3483
 20
140.068
  0
VERTEX
  8
LAYER_1
 10
94.5811
 20
140.3432
  0
VERTEX
  8
LAYER_1
 10
94.7716
 20
140.6183
  0
VERTEX
  8
LAYER_1
 10
94.9198
 20
140.9358
  0
VERTEX
  8
LAYER_1
 10
94.9833
 20
141.1687
  0
SEQEND
  0
POLYLINE
  8
LAYER_1
 40
0.1764
 41
0.1764
 66
1
 10
0
 20
0
 30
0
  0
VERTEX
  8
LAYER_1
 10
86.432
 20
155.9642
  0
VERTEX
  8
LAYER_1
 10
86.0933
 20
156.0488
  0
VERTEX
  8
LAYER_1
 10
85.7546
 20
156.07
  0
VERTEX
  8
LAYER_1
 10
85.3948
 20
156.0277
  0
VERTEX
  8
LAYER_1
 10
85.0773
 20
155.9219
  0
VERTEX
  8
LAYER_1
 10
84.7598
 20
155.7737
  0
VERTEX
  8
LAYER_1
 10
84.4846
 20
155.562
  0
VERTEX
  8
LAYER_1
 10
84.2306
 20
155.308
  0
VERTEX
  8
LAYER_1
 10
84.0401
 20
155.0117
  0
VERTEX
  8
LAYER_1
 10
83.9131
 20
154.6942
  0
VERTEX
  8
LAYER_1
 10
83.8285
 20
154.3555
  0
VERTEX
  8
LAYER_1
 10
83.8073
 20
154.0169
  0
VERTEX
  8
LAYER_1
 10
83.8496
 20
153.657
  0
VERTEX
  8
LAYER_1
 10
83.9555
 20
153.3395
  0
VERTEX
  8
LAYER_1
 10
84.1036
 20
153.022
  0
VERTEX
  8
LAYER_1
 10
84.3153
 20
152.7469
  0
VERTEX
  8
LAYER_1
 10
84.4846
 20
152.5775
  0
SEQEND
  0
POLYLINE
  8
LAYER_1
 40
0.1764
 41
0.1764
 66
1
 10
0
 20
0
 30
0
  0
VERTEX
  8
LAYER_1
 10
101.5661
 20
152.5775
  0
VERTEX
  8
LAYER_1
 10
101.799
 20
152.8315
  0
VERTEX
  8
LAYER_1
 10
101.9895
 20
153.1278
  0
VERTEX
  8
LAYER_1
 10
102.1376
 20
153.4453
  0
VERTEX
  8
LAYER_1
 10
102.2011
 20
153.784
  0
VERTEX
  8
LAYER_1
 10
102.2223
 20
154.1227
  0
VERTEX
  8
LAYER_1
 10
102.2011
 20
154.4613
  0
VERTEX
  8
LAYER_1
 10
102.0953
 20
154.8
  0
VERTEX
  8
LAYER_1
 10
101.926
 20
155.1175
  0
VERTEX
  8
LAYER_1
 10
101.7143
 20
155.3927
  0
VERTEX
  8
LAYER_1
 10
101.4815
 20
155.6255
  0
VERTEX
  8
LAYER_1
 10
101.1851
 20
155.8372
  0
VERTEX
  8
LAYER_1
 10
100.8676
 20
155.9642
  0
VERTEX
  8
LAYER_1
 10
100.529
 20
156.0488
  0
VERTEX
  8
LAYER_1
 10
100.1691
 20
156.07
  0
VERTEX
  8
LAYER_1
 10
99.8305
 20
156.0277
  0
VERTEX
  8
LAYER_1
 10
99.5976
 20
155.9642
  0
SEQEND
  0
POLYLINE
  8
LAYER_1
 40
0.1764
 41
0.1764
 66
1
 10
0
 20
0
 30
0
  0
VERTEX
  8
LAYER_1
 10
93.0148
 20
147.5822
  0
VERTEX
  8
LAYER_1
 10
93.417
 20
147.6033
  0
VERTEX
  8
LAYER_1
 10
93.8191
 20
147.7092
  0
VERTEX
  8
LAYER_1
 10
94.179
 20
147.8785
  0
VERTEX
  8
LAYER_1
 10
94.5176
 20
148.1113
  0
VERTEX
  8
LAYER_1
 10
94.814
 20
148.4077
  0
VERTEX
  8
LAYER_1
 10
95.0256
 20
148.7252
  0
VERTEX
  8
LAYER_1
 10
95.2161
 20
149.1062
  0
VERTEX
  8
LAYER_1
 10
95.322
 20
149.4872
  0
VERTEX
  8
LAYER_1
 10
95.3643
 20
149.9105
  0
VERTEX
  8
LAYER_1
 10
95.322
 20
150.3127
  0
VERTEX
  8
LAYER_1
 10
95.2161
 20
150.6937
  0
VERTEX
  8
LAYER_1
 10
95.0256
 20
151.0747
  0
VERTEX
  8
LAYER_1
 10
94.814
 20
151.3922
  0
VERTEX
  8
LAYER_1
 10
94.5176
 20
151.6885
  0
VERTEX
  8
LAYER_1
 10
94.179
 20
151.9213
  0
VERTEX
  8
LAYER_1
 10
93.8191
 20
152.0907
  0
VERTEX
  8
LAYER_1
 10
93.417
 20
152.1965
  0
VERTEX
  8
LAYER_1
 10
93.0148
 20
152.2388
  0
VERTEX
  8
LAYER_1
 10
92.6126
 20
152.1965
  0
VERTEX
  8
LAYER_1
 10
92.2105
 20
152.0907
  0
VERTEX
  8
LAYER_1
 10
91.8506
 20
151.9213
  0
VERTEX
  8
LAYER_1
 10
91.512
 20
151.6885
  0
VERTEX
  8
LAYER_1
 10
91.2368
 20
151.3922
  0
VERTEX
  8
LAYER_1
 10
91.004
 20
151.0747
  0
VERTEX
  8
LAYER_1
 10
90.8346
 20
150.6937
  0
VERTEX
  8
LAYER_1
 10
90.7076
 20
150.3127
  0
VERTEX
  8
LAYER_1
 10
90.6865
 20
149.9105
  0
VERTEX
  8
LAYER_1
 10
90.7076
 20
149.4872
  0
VERTEX
  8
LAYER_1
 10
90.8346
 20
149.1062
  0
VERTEX
  8
LAYER_1
 10
91.004
 20
148.7252
  0
VERTEX
  8
LAYER_1
 10
91.2368
 20
148.4077
  0
VERTEX
  8
LAYER_1
 10
91.512
 20
148.1113
  0
VERTEX
  8
LAYER_1
 10
91.8506
 20
147.8785
  0
VERTEX
  8
LAYER_1
 10
92.2105
 20
147.7092
  0
VERTEX
  8
LAYER_1
 10
92.6126
 20
147.6033
  0
VERTEX
  8
LAYER_1
 10
93.0148
 20
147.5822
  0
SEQEND
  0
POLYLINE
  8
LAYER_1
 40
0.1764
 41
0.1764
 66
1
 10
0
 20
0
 30
0
  0
VERTEX
  8
LAYER_1
 10
96.5073
 20
156.1759
  0
VERTEX
  8
LAYER_1
 10
93.0148
 20
156.1759
  0
VERTEX
  8
LAYER_1
 10
89.5223
 20
156.1759
  0
SEQEND
  0
POLYLINE
  8
LAYER_1
 40
0.1764
 41
0.1764
 66
1
 10
0
 20
0
 30
0
  0
VERTEX
  8
LAYER_1
 10
89.9245
 20
159.9012
  0
VERTEX
  8
LAYER_1
 10
89.5223
 20
159.499
  0
SEQEND
  0
POLYLINE
  8
LAYER_1
 40
0.1764
 41
0.1764
 66
1
 10
0
 20
0
 30
0
  0
VERTEX
  8
LAYER_1
 10
96.1051
 20
159.9012
  0
VERTEX
  8
LAYER_1
 10
96.5073
 20
159.499
  0
SEQEND
  0
POLYLINE
  8
LAYER_1
 40
0.1764
 41
0.1764
 66
1
 10
0
 20
0
 30
0
  0
VERTEX
  8
LAYER_1
 10
96.1051
 20
159.9012
  0
VERTEX
  8
LAYER_1
 10
93.0148
 20
159.9012
  0
VERTEX
  8
LAYER_1
 10
89.9245
 20
159.9012
  0
SEQEND
  0
POLYLINE
  8
LAYER_1
 40
0.1764
 41
0.1764
 66
1
 10
0
 20
0
 30
0
  0
VERTEX
  8
LAYER_1
 10
89.5223
 20
156.1759
  0
VERTEX
  8
LAYER_1
 10
89.3318
 20
155.2233
  0
SEQEND
  0
POLYLINE
  8
LAYER_1
 40
0.1764
 41
0.1764
 66
1
 10
0
 20
0
 30
0
  0
VERTEX
  8
LAYER_1
 10
89.0143
 20
142.7138
  0
VERTEX
  8
LAYER_1
 10
88.9931
 20
143.7299
  0
VERTEX
  8
LAYER_1
 10
88.9296
 20
144.7247
  0
VERTEX
  8
LAYER_1
 10
88.8026
 20
145.7195
  0
VERTEX
  8
LAYER_1
 10
88.6333
 20
146.6932
  0
VERTEX
  8
LAYER_1
 10
88.4216
 20
147.688
  0
VERTEX
  8
LAYER_1
 10
88.337
 20
147.9632
  0
SEQEND
  0
POLYLINE
  8
LAYER_1
 40
0.1764
 41
0.1764
 66
1
 10
0
 20
0
 30
0
  0
VERTEX
  8
LAYER_1
 10
96.719
 20
155.2233
  0
VERTEX
  8
LAYER_1
 10
96.5073
 20
156.1759
  0
SEQEND
  0
POLYLINE
  8
LAYER_1
 40
0.1764
 41
0.1764
 66
1
 10
0
 20
0
 30
0
  0
VERTEX
  8
LAYER_1
 10
97.6926
 20
147.9632
  0
VERTEX
  8
LAYER_1
 10
97.4598
 20
146.9895
  0
VERTEX
  8
LAYER_1
 10
97.2693
 20
146.0159
  0
VERTEX
  8
LAYER_1
 10
97.1423
 20
145.021
  0
VERTEX
  8
LAYER_1
 10
97.0576
 20
144.0262
  0
VERTEX
  8
LAYER_1
 10
97.0153
 20
143.0313
  0
VERTEX
  8
LAYER_1
 10
97.0153
 20
142.7138
  0
SEQEND
  0
POLYLINE
  8
LAYER_1
 40
0.1764
 41
0.1764
 66
1
 10
0
 20
0
 30
0
  0
VERTEX
  8
LAYER_1
 10
96.6766
 20
135.4114
  0
VERTEX
  8
LAYER_1
 10
89.353
 20
135.4114
  0
SEQEND
  0
POLYLINE
  8
LAYER_1
 40
0.1764
 41
0.1764
 66
1
 10
0
 20
0
 30
0
  0
VERTEX
  8
LAYER_1
 10
89.0143
 20
137.909
  0
VERTEX
  8
LAYER_1
 10
89.0143
 20
135.7289
  0
VERTEX
  8
LAYER_1
 10
89.353
 20
135.4114
  0
SEQEND
  0
POLYLINE
  8
LAYER_1
 40
0.1764
 41
0.1764
 66
1
 10
0
 20
0
 30
0
  0
VERTEX
  8
LAYER_1
 10
89.353
 20
138.2265
  0
VERTEX
  8
LAYER_1
 10
89.0143
 20
137.909
  0
SEQEND
  0
POLYLINE
  8
LAYER_1
 40
0.1764
 41
0.1764
 66
1
 10
0
 20
0
 30
0
  0
VERTEX
  8
LAYER_1
 10
97.0153
 20
135.7289
  0
VERTEX
  8
LAYER_1
 10
96.6766
 20
135.4114
  0
SEQEND
  0
POLYLINE
  8
LAYER_1
 40
0.1764
 41
0.1764
 66
1
 10
0
 20
0
 30
0
  0
VERTEX
  8
LAYER_1
 10
97.0153
 20
137.909
  0
VERTEX
  8
LAYER_1
 10
97.0153
 20
135.7289
  0
SEQEND
  0
POLYLINE
  8
LAYER_1
 40
0.1764
 41
0.1764
 66
1
 10
0
 20
0
 30
0
  0
VERTEX
  8
LAYER_1
 10
96.6766
 20
138.2265
  0
VERTEX
  8
LAYER_1
 10
97.0153
 20
137.909
  0
SEQEND
  0
POLYLINE
  8
LAYER_1
 40
0.1764
 41
0.1764
 66
1
 10
0
 20
0
 30
0
  0
VERTEX
  8
LAYER_1
 10
90.6441
 20
135.7289
  0
VERTEX
  8
LAYER_1
 10
91.4061
 20
135.7289
  0
VERTEX
  8
LAYER_1
 10
92.0835
 20
135.5172
  0
VERTEX
  8
LAYER_1
 10
92.7608
 20
135.4114
  0
VERTEX
  8
LAYER_1
 10
93.4593
 20
135.4325
  0
VERTEX
  8
LAYER_1
 10
94.1366
 20
135.5595
  0
VERTEX
  8
LAYER_1
 10
94.6235
 20
135.7289
  0
SEQEND
  0
POLYLINE
  8
LAYER_1
 40
0.1764
 41
0.1764
 66
1
 10
0
 20
0
 30
0
  0
VERTEX
  8
LAYER_1
 10
89.0143
 20
135.7289
  0
VERTEX
  8
LAYER_1
 10
89.1836
 20
135.6019
  0
VERTEX
  8
LAYER_1
 10
89.353
 20
135.5172
  0
VERTEX
  8
LAYER_1
 10
89.5435
 20
135.4537
  0
VERTEX
  8
LAYER_1
 10
89.734
 20
135.4114
  0
VERTEX
  8
LAYER_1
 10
89.9456
 20
135.4114
  0
VERTEX
  8
LAYER_1
 10
90.1361
 20
135.4537
  0
VERTEX
  8
LAYER_1
 10
90.3266
 20
135.5172
  0
VERTEX
  8
LAYER_1
 10
90.496
 20
135.623
  0
VERTEX
  8
LAYER_1
 10
90.6441
 20
135.7289
  0
SEQEND
  0
POLYLINE
  8
LAYER_1
 40
0.1764
 41
0.1764
 66
1
 10
0
 20
0
 30
0
  0
VERTEX
  8
LAYER_1
 10
94.6235
 20
137.909
  0
VERTEX
  8
LAYER_1
 10
93.9461
 20
138.1207
  0
VERTEX
  8
LAYER_1
 10
93.2688
 20
138.2265
  0
VERTEX
  8
LAYER_1
 10
92.5703
 20
138.2265
  0
VERTEX
  8
LAYER_1
 10
91.8929
 20
138.0784
  0
VERTEX
  8
LAYER_1
 10
91.4061
 20
137.909
  0
SEQEND
  0
POLYLINE
  8
LAYER_1
 40
0.1764
 41
0.1764
 66
1
 10
0
 20
0
 30
0
  0
VERTEX
  8
LAYER_1
 10
90.6441
 20
137.909
  0
VERTEX
  8
LAYER_1
 10
91.4061
 20
137.909
  0
SEQEND
  0
POLYLINE
  8
LAYER_1
 40
0.1764
 41
0.1764
 66
1
 10
0
 20
0
 30
0
  0
VERTEX
  8
LAYER_1
 10
90.6441
 20
137.909
  0
VERTEX
  8
LAYER_1
 10
90.496
 20
138.036
  0
VERTEX
  8
LAYER_1
 10
90.3054
 20
138.1419
  0
VERTEX
  8
LAYER_1
 10
90.1361
 20
138.2053
  0
VERTEX
  8
LAYER_1
 10
89.9245
 20
138.2265
  0
VERTEX
  8
LAYER_1
 10
89.734
 20
138.2265
  0
VERTEX
  8
LAYER_1
 10
89.5223
 20
138.2053
  0
VERTEX
  8
LAYER_1
 10
89.3318
 20
138.1207
  0
VERTEX
  8
LAYER_1
 10
89.1625
 20
138.036
  0
VERTEX
  8
LAYER_1
 10
89.0143
 20
137.909
  0
SEQEND
  0
POLYLINE
  8
LAYER_1
 40
0.1764
 41
0.1764
 66
1
 10
0
 20
0
 30
0
  0
VERTEX
  8
LAYER_1
 10
91.4061
 20
135.7289
  0
VERTEX
  8
LAYER_1
 10
91.4061
 20
137.909
  0
SEQEND
  0
POLYLINE
  8
LAYER_1
 40
0.1764
 41
0.1764
 66
1
 10
0
 20
0
 30
0
  0
VERTEX
  8
LAYER_1
 10
90.6441
 20
135.7289
  0
VERTEX
  8
LAYER_1
 10
90.6441
 20
137.909
  0
SEQEND
  0
POLYLINE
  8
LAYER_1
 40
0.1764
 41
0.1764
 66
1
 10
0
 20
0
 30
0
  0
VERTEX
  8
LAYER_1
 10
94.6235
 20
135.7289
  0
VERTEX
  8
LAYER_1
 10
94.6235
 20
137.909
  0
SEQEND
  0
POLYLINE
  8
LAYER_1
 40
0.1764
 41
0.1764
 66
1
 10
0
 20
0
 30
0
  0
VERTEX
  8
LAYER_1
 10
95.3855
 20
135.7289
  0
VERTEX
  8
LAYER_1
 10
94.6235
 20
135.7289
  0
SEQEND
  0
POLYLINE
  8
LAYER_1
 40
0.1764
 41
0.1764
 66
1
 10
0
 20
0
 30
0
  0
VERTEX
  8
LAYER_1
 10
95.3855
 20
135.7289
  0
VERTEX
  8
LAYER_1
 10
95.3855
 20
137.909
  0
VERTEX
  8
LAYER_1
 10
94.6235
 20
137.909
  0
SEQEND
  0
POLYLINE
  8
LAYER_1
 40
0.1764
 41
0.1764
 66
1
 10
0
 20
0
 30
0
  0
VERTEX
  8
LAYER_1
 10
97.0153
 20
137.909
  0
VERTEX
  8
LAYER_1
 10
96.8671
 20
138.036
  0
VERTEX
  8
LAYER_1
 10
96.6766
 20
138.1419
  0
VERTEX
  8
LAYER_1
 10
96.4861
 20
138.2053
  0
VERTEX
  8
LAYER_1
 10
96.2956
 20
138.2265
  0
VERTEX
  8
LAYER_1
 10
96.0839
 20
138.2265
  0
VERTEX
  8
LAYER_1
 10
95.8935
 20
138.2053
  0
VERTEX
  8
LAYER_1
 10
95.7241
 20
138.1207
  0
VERTEX
  8
LAYER_1
 10
95.5336
 20
138.036
  0
VERTEX
  8
LAYER_1
 10
95.3855
 20
137.909
  0
SEQEND
  0
POLYLINE
  8
LAYER_1
 40
0.1764
 41
0.1764
 66
1
 10
0
 20
0
 30
0
  0
VERTEX
  8
LAYER_1
 10
95.3855
 20
135.7289
  0
VERTEX
  8
LAYER_1
 10
95.5336
 20
135.6019
  0
VERTEX
  8
LAYER_1
 10
95.7241
 20
135.5172
  0
VERTEX
  8
LAYER_1
 10
95.9146
 20
135.4537
  0
VERTEX
  8
LAYER_1
 10
96.1051
 20
135.4114
  0
VERTEX
  8
LAYER_1
 10
96.3168
 20
135.4114
  0
VERTEX
  8
LAYER_1
 10
96.5073
 20
135.4537
  0
VERTEX
  8
LAYER_1
 10
96.6978
 20
135.5172
  0
VERTEX
  8
LAYER_1
 10
96.8671
 20
135.623
  0
VERTEX
  8
LAYER_1
 10
97.0153
 20
135.7289
  0
SEQEND
  0
POLYLINE
  8
LAYER_1
 40
0.1764
 41
0.1764
 66
1
 10
0
 20
0
 30
0
  0
VERTEX
  8
LAYER_1
 10
88.5063
 20
127.6009
  0
VERTEX
  8
LAYER_1
 10
88.5063
 20
117.589
  0
SEQEND
  0
POLYLINE
  8
LAYER_1
 40
0.1764
 41
0.1764
 66
1
 10
0
 20
0
 30
0
  0
VERTEX
  8
LAYER_1
 10
88.8661
 20
127.9183
  0
VERTEX
  8
LAYER_1
 10
88.5063
 20
127.6009
  0
SEQEND
  0
POLYLINE
  8
LAYER_1
 40
0.1764
 41
0.1764
 66
1
 10
0
 20
0
 30
0
  0
VERTEX
  8
LAYER_1
 10
88.3581
 20
129.2307
  0
VERTEX
  8
LAYER_1
 10
97.6926
 20
129.2307
  0
SEQEND
  0
POLYLINE
  8
LAYER_1
 40
0.1764
 41
0.1764
 66
1
 10
0
 20
0
 30
0
  0
VERTEX
  8
LAYER_1
 10
88.3581
 20
135.4113
  0
VERTEX
  8
LAYER_1
 10
97.6926
 20
135.4113
  0
SEQEND
  0
POLYLINE
  8
LAYER_1
 40
0.1764
 41
0.1764
 66
1
 10
0
 20
0
 30
0
  0
VERTEX
  8
LAYER_1
 10
88.0195
 20
129.5905
  0
VERTEX
  8
LAYER_1
 10
88.0195
 20
135.0727
  0
SEQEND
  0
POLYLINE
  8
LAYER_1
 40
0.1764
 41
0.1764
 66
1
 10
0
 20
0
 30
0
  0
VERTEX
  8
LAYER_1
 10
88.3581
 20
135.4113
  0
VERTEX
  8
LAYER_1
 10
88.0195
 20
135.0727
  0
SEQEND
  0
POLYLINE
  8
LAYER_1
 40
0.1764
 41
0.1764
 66
1
 10
0
 20
0
 30
0
  0
VERTEX
  8
LAYER_1
 10
88.3581
 20
129.2307
  0
VERTEX
  8
LAYER_1
 10
88.0195
 20
129.5905
  0
SEQEND
  0
POLYLINE
  8
LAYER_1
 40
0.1764
 41
0.1764
 66
1
 10
0
 20
0
 30
0
  0
VERTEX
  8
LAYER_1
 10
90.2631
 20
127.6009
  0
VERTEX
  8
LAYER_1
 10
90.0726
 20
127.7278
  0
VERTEX
  8
LAYER_1
 10
89.8821
 20
127.8125
  0
VERTEX
  8
LAYER_1
 10
89.6493
 20
127.8972
  0
VERTEX
  8
LAYER_1
 10
89.4376
 20
127.9183
  0
VERTEX
  8
LAYER_1
 10
89.2048
 20
127.9183
  0
VERTEX
  8
LAYER_1
 10
88.9931
 20
127.8549
  0
VERTEX
  8
LAYER_1
 10
88.7815
 20
127.7702
  0
VERTEX
  8
LAYER_1
 10
88.5909
 20
127.6432
  0
VERTEX
  8
LAYER_1
 10
88.5063
 20
127.6009
  0
SEQEND
  0
POLYLINE
  8
LAYER_1
 40
0.1764
 41
0.1764
 66
1
 10
0
 20
0
 30
0
  0
VERTEX
  8
LAYER_1
 10
88.0195
 20
129.5905
  0
VERTEX
  8
LAYER_1
 10
88.2311
 20
129.4212
  0
VERTEX
  8
LAYER_1
 10
88.4639
 20
129.3365
  0
VERTEX
  8
LAYER_1
 10
88.6968
 20
129.2519
  0
VERTEX
  8
LAYER_1
 10
88.9508
 20
129.2307
  0
VERTEX
  8
LAYER_1
 10
89.2048
 20
129.273
  0
VERTEX
  8
LAYER_1
 10
89.4588
 20
129.3365
  0
VERTEX
  8
LAYER_1
 10
89.6916
 20
129.4424
  0
VERTEX
  8
LAYER_1
 10
89.8821
 20
129.5905
  0
SEQEND
  0
POLYLINE
  8
LAYER_1
 40
0.1764
 41
0.1764
 66
1
 10
0
 20
0
 30
0
  0
VERTEX
  8
LAYER_1
 10
89.8821
 20
135.0727
  0
VERTEX
  8
LAYER_1
 10
89.6704
 20
135.2209
  0
VERTEX
  8
LAYER_1
 10
89.4376
 20
135.3267
  0
VERTEX
  8
LAYER_1
 10
89.1836
 20
135.3902
  0
VERTEX
  8
LAYER_1
 10
88.9296
 20
135.4114
  0
VERTEX
  8
LAYER_1
 10
88.6968
 20
135.3902
  0
VERTEX
  8
LAYER_1
 10
88.4428
 20
135.3267
  0
VERTEX
  8
LAYER_1
 10
88.2099
 20
135.1997
  0
VERTEX
  8
LAYER_1
 10
88.0195
 20
135.0727
  0
SEQEND
  0
POLYLINE
  8
LAYER_1
 40
0.1764
 41
0.1764
 66
1
 10
0
 20
0
 30
0
  0
VERTEX
  8
LAYER_1
 10
98.0101
 20
129.5905
  0
VERTEX
  8
LAYER_1
 10
98.0101
 20
135.0727
  0
SEQEND
  0
POLYLINE
  8
LAYER_1
 40
0.1764
 41
0.1764
 66
1
 10
0
 20
0
 30
0
  0
VERTEX
  8
LAYER_1
 10
97.6926
 20
135.4114
  0
VERTEX
  8
LAYER_1
 10
98.0101
 20
135.0727
  0
VERTEX
  8
LAYER_1
 10
97.7985
 20
135.2209
  0
VERTEX
  8
LAYER_1
 10
97.5656
 20
135.3267
  0
VERTEX
  8
LAYER_1
 10
97.3328
 20
135.3902
  0
VERTEX
  8
LAYER_1
 10
97.0788
 20
135.4114
  0
VERTEX
  8
LAYER_1
 10
96.8248
 20
135.3902
  0
VERTEX
  8
LAYER_1
 10
96.592
 20
135.3267
  0
VERTEX
  8
LAYER_1
 10
96.3591
 20
135.1997
  0
VERTEX
  8
LAYER_1
 10
96.1686
 20
135.0727
  0
SEQEND
  0
POLYLINE
  8
LAYER_1
 40
0.1764
 41
0.1764
 66
1
 10
0
 20
0
 30
0
  0
VERTEX
  8
LAYER_1
 10
89.5223
 20
56.9254
  0
VERTEX
  8
LAYER_1
 10
89.5223
 20
117.2504
  0
SEQEND
  0
POLYLINE
  8
LAYER_1
 40
0.1764
 41
0.1764
 66
1
 10
0
 20
0
 30
0
  0
VERTEX
  8
LAYER_1
 10
96.5073
 20
56.9254
  0
VERTEX
  8
LAYER_1
 10
96.5073
 20
117.2504
  0
SEQEND
  0
POLYLINE
  8
LAYER_1
 40
0.1764
 41
0.1764
 66
1
 10
0
 20
0
 30
0
  0
VERTEX
  8
LAYER_1
 10
88.8661
 20
117.2504
  0
VERTEX
  8
LAYER_1
 10
88.5063
 20
117.589
  0
SEQEND
  0
POLYLINE
  8
LAYER_1
 40
0.1764
 41
0.1764
 66
1
 10
0
 20
0
 30
0
  0
VERTEX
  8
LAYER_1
 10
97.5233
 20
127.6009
  0
VERTEX
  8
LAYER_1
 10
97.5233
 20
117.589
  0
SEQEND
  0
POLYLINE
  8
LAYER_1
 40
0.1764
 41
0.1764
 66
1
 10
0
 20
0
 30
0
  0
VERTEX
  8
LAYER_1
 10
97.1846
 20
117.2504
  0
VERTEX
  8
LAYER_1
 10
97.5233
 20
117.589
  0
SEQEND
  0
POLYLINE
  8
LAYER_1
 40
0.1764
 41
0.1764
 66
1
 10
0
 20
0
 30
0
  0
VERTEX
  8
LAYER_1
 10
94.7081
 20
127.6009
  0
VERTEX
  8
LAYER_1
 10
94.7081
 20
117.589
  0
SEQEND
  0
POLYLINE
  8
LAYER_1
 40
0.1764
 41
0.1764
 66
1
 10
0
 20
0
 30
0
  0
VERTEX
  8
LAYER_1
 10
95.7665
 20
127.6009
  0
VERTEX
  8
LAYER_1
 10
95.7665
 20
117.589
  0
SEQEND
  0
POLYLINE
  8
LAYER_1
 40
0.1764
 41
0.1764
 66
1
 10
0
 20
0
 30
0
  0
VERTEX
  8
LAYER_1
 10
95.7665
 20
127.6009
  0
VERTEX
  8
LAYER_1
 10
94.7081
 20
127.6009
  0
SEQEND
  0
POLYLINE
  8
LAYER_1
 40
0.1764
 41
0.1764
 66
1
 10
0
 20
0
 30
0
  0
VERTEX
  8
LAYER_1
 10
97.0153
 20
127.9183
  0
VERTEX
  8
LAYER_1
 10
97.0153
 20
129.2307
  0
SEQEND
  0
POLYLINE
  8
LAYER_1
 40
0.1764
 41
0.1764
 66
1
 10
0
 20
0
 30
0
  0
VERTEX
  8
LAYER_1
 10
97.1846
 20
127.9183
  0
VERTEX
  8
LAYER_1
 10
88.8661
 20
127.9183
  0
SEQEND
  0
POLYLINE
  8
LAYER_1
 40
0.1764
 41
0.1764
 66
1
 10
0
 20
0
 30
0
  0
VERTEX
  8
LAYER_1
 10
97.1846
 20
127.9183
  0
VERTEX
  8
LAYER_1
 10
97.5233
 20
127.6009
  0
SEQEND
  0
POLYLINE
  8
LAYER_1
 40
0.1764
 41
0.1764
 66
1
 10
0
 20
0
 30
0
  0
VERTEX
  8
LAYER_1
 10
95.7665
 20
117.589
  0
VERTEX
  8
LAYER_1
 10
94.7081
 20
117.589
  0
SEQEND
  0
POLYLINE
  8
LAYER_1
 40
0.1764
 41
0.1764
 66
1
 10
0
 20
0
 30
0
  0
VERTEX
  8
LAYER_1
 10
94.7081
 20
127.6009
  0
VERTEX
  8
LAYER_1
 10
93.9673
 20
127.8125
  0
VERTEX
  8
LAYER_1
 10
93.1841
 20
127.9183
  0
VERTEX
  8
LAYER_1
 10
92.401
 20
127.876
  0
VERTEX
  8
LAYER_1
 10
91.639
 20
127.7067
  0
VERTEX
  8
LAYER_1
 10
91.3215
 20
127.6009
  0
SEQEND
  0
POLYLINE
  8
LAYER_1
 40
0.1764
 41
0.1764
 66
1
 10
0
 20
0
 30
0
  0
VERTEX
  8
LAYER_1
 10
97.5233
 20
127.6009
  0
VERTEX
  8
LAYER_1
 10
97.3328
 20
127.7278
  0
VERTEX
  8
LAYER_1
 10
97.1423
 20
127.8125
  0
VERTEX
  8
LAYER_1
 10
96.9095
 20
127.8972
  0
VERTEX
  8
LAYER_1
 10
96.6978
 20
127.9183
  0
VERTEX
  8
LAYER_1
 10
96.465
 20
127.9183
  0
VERTEX
  8
LAYER_1
 10
96.2533
 20
127.8549
  0
VERTEX
  8
LAYER_1
 10
96.0416
 20
127.7702
  0
VERTEX
  8
LAYER_1
 10
95.8511
 20
127.6432
  0
VERTEX
  8
LAYER_1
 10
95.7665
 20
127.6009
  0
SEQEND
  0
POLYLINE
  8
LAYER_1
 40
0.1764
 41
0.1764
 66
1
 10
0
 20
0
 30
0
  0
VERTEX
  8
LAYER_1
 10
91.3215
 20
117.589
  0
VERTEX
  8
LAYER_1
 10
92.0623
 20
117.3562
  0
VERTEX
  8
LAYER_1
 10
92.8455
 20
117.2715
  0
VERTEX
  8
LAYER_1
 10
93.6286
 20
117.2927
  0
VERTEX
  8
LAYER_1
 10
94.3906
 20
117.4832
  0
VERTEX
  8
LAYER_1
 10
94.7081
 20
117.589
  0
SEQEND
  0
POLYLINE
  8
LAYER_1
 40
0.1764
 41
0.1764
 66
1
 10
0
 20
0
 30
0
  0
VERTEX
  8
LAYER_1
 10
95.7665
 20
117.589
  0
VERTEX
  8
LAYER_1
 10
95.957
 20
117.462
  0
VERTEX
  8
LAYER_1
 10
96.1686
 20
117.3562
  0
VERTEX
  8
LAYER_1
 10
96.3803
 20
117.2927
  0
VERTEX
  8
LAYER_1
 10
96.6131
 20
117.2504
  0
VERTEX
  8
LAYER_1
 10
96.8248
 20
117.2715
  0
VERTEX
  8
LAYER_1
 10
97.0576
 20
117.335
  0
VERTEX
  8
LAYER_1
 10
97.2693
 20
117.4197
  0
VERTEX
  8
LAYER_1
 10
97.4598
 20
117.5255
  0
VERTEX
  8
LAYER_1
 10
97.5233
 20
117.589
  0
SEQEND
  0
POLYLINE
  8
LAYER_1
 40
0.1764
 41
0.1764
 66
1
 10
0
 20
0
 30
0
  0
VERTEX
  8
LAYER_1
 10
96.7613
 20
128.5957
  0
VERTEX
  8
LAYER_1
 10
97.0153
 20
128.1512
  0
SEQEND
  0
POLYLINE
  8
LAYER_1
 40
0.1764
 41
0.1764
 66
1
 10
0
 20
0
 30
0
  0
VERTEX
  8
LAYER_1
 10
89.0143
 20
127.9183
  0
VERTEX
  8
LAYER_1
 10
89.0143
 20
129.2307
  0
SEQEND
  0
POLYLINE
  8
LAYER_1
 40
0.1764
 41
0.1764
 66
1
 10
0
 20
0
 30
0
  0
VERTEX
  8
LAYER_1
 10
88.8661
 20
117.2504
  0
VERTEX
  8
LAYER_1
 10
97.1846
 20
117.2504
  0
SEQEND
  0
POLYLINE
  8
LAYER_1
 40
0.1764
 41
0.1764
 66
1
 10
0
 20
0
 30
0
  0
VERTEX
  8
LAYER_1
 10
89.2683
 20
128.5957
  0
VERTEX
  8
LAYER_1
 10
89.0143
 20
128.1512
  0
SEQEND
  0
POLYLINE
  8
LAYER_1
 40
0.1764
 41
0.1764
 66
1
 10
0
 20
0
 30
0
  0
VERTEX
  8
LAYER_1
 10
97.6926
 20
129.2307
  0
VERTEX
  8
LAYER_1
 10
98.0101
 20
129.5905
  0
SEQEND
  0
POLYLINE
  8
LAYER_1
 40
0.1764
 41
0.1764
 66
1
 10
0
 20
0
 30
0
  0
VERTEX
  8
LAYER_1
 10
94.814
 20
135.0727
  0
VERTEX
  8
LAYER_1
 10
94.814
 20
129.5905
  0
SEQEND
  0
POLYLINE
  8
LAYER_1
 40
0.1764
 41
0.1764
 66
1
 10
0
 20
0
 30
0
  0
VERTEX
  8
LAYER_1
 10
96.1686
 20
129.5905
  0
VERTEX
  8
LAYER_1
 10
96.1686
 20
135.0727
  0
SEQEND
  0
POLYLINE
  8
LAYER_1
 40
0.1764
 41
0.1764
 66
1
 10
0
 20
0
 30
0
  0
VERTEX
  8
LAYER_1
 10
96.1686
 20
129.5905
  0
VERTEX
  8
LAYER_1
 10
94.814
 20
129.5905
  0
SEQEND
  0
POLYLINE
  8
LAYER_1
 40
0.1764
 41
0.1764
 66
1
 10
0
 20
0
 30
0
  0
VERTEX
  8
LAYER_1
 10
91.2156
 20
129.5905
  0
VERTEX
  8
LAYER_1
 10
92.0623
 20
129.3365
  0
VERTEX
  8
LAYER_1
 10
92.9301
 20
129.2307
  0
VERTEX
  8
LAYER_1
 10
93.798
 20
129.2942
  0
VERTEX
  8
LAYER_1
 10
94.6446
 20
129.5058
  0
VERTEX
  8
LAYER_1
 10
94.814
 20
129.5905
  0
SEQEND
  0
POLYLINE
  8
LAYER_1
 40
0.1764
 41
0.1764
 66
1
 10
0
 20
0
 30
0
  0
VERTEX
  8
LAYER_1
 10
96.1686
 20
129.5905
  0
VERTEX
  8
LAYER_1
 10
96.3803
 20
129.4212
  0
VERTEX
  8
LAYER_1
 10
96.6131
 20
129.3365
  0
VERTEX
  8
LAYER_1
 10
96.846
 20
129.2518
  0
VERTEX
  8
LAYER_1
 10
97.1
 20
129.2307
  0
VERTEX
  8
LAYER_1
 10
97.354
 20
129.273
  0
VERTEX
  8
LAYER_1
 10
97.5868
 20
129.3365
  0
VERTEX
  8
LAYER_1
 10
97.8196
 20
129.4423
  0
VERTEX
  8
LAYER_1
 10
98.0101
 20
129.5905
  0
SEQEND
  0
POLYLINE
  8
LAYER_1
 40
0.1764
 41
0.1764
 66
1
 10
0
 20
0
 30
0
  0
VERTEX
  8
LAYER_1
 10
90.2631
 20
127.6008
  0
VERTEX
  8
LAYER_1
 10
91.3215
 20
127.6008
  0
VERTEX
  8
LAYER_1
 10
91.3215
 20
117.589
  0
SEQEND
  0
POLYLINE
  8
LAYER_1
 40
0.1764
 41
0.1764
 66
1
 10
0
 20
0
 30
0
  0
VERTEX
  8
LAYER_1
 10
90.2631
 20
127.6008
  0
VERTEX
  8
LAYER_1
 10
90.2631
 20
117.589
  0
VERTEX
  8
LAYER_1
 10
91.3215
 20
117.589
  0
SEQEND
  0
POLYLINE
  8
LAYER_1
 40
0.1764
 41
0.1764
 66
1
 10
0
 20
0
 30
0
  0
VERTEX
  8
LAYER_1
 10
88.5063
 20
117.589
  0
VERTEX
  8
LAYER_1
 10
88.6968
 20
117.462
  0
VERTEX
  8
LAYER_1
 10
88.9085
 20
117.3562
  0
VERTEX
  8
LAYER_1
 10
89.1201
 20
117.2927
  0
VERTEX
  8
LAYER_1
 10
89.353
 20
117.2503
  0
VERTEX
  8
LAYER_1
 10
89.5858
 20
117.2715
  0
VERTEX
  8
LAYER_1
 10
89.7975
 20
117.335
  0
VERTEX
  8
LAYER_1
 10
90.0091
 20
117.4197
  0
VERTEX
  8
LAYER_1
 10
90.1996
 20
117.5255
  0
VERTEX
  8
LAYER_1
 10
90.2631
 20
117.589
  0
SEQEND
  0
POLYLINE
  8
LAYER_1
 40
0.1764
 41
0.1764
 66
1
 10
0
 20
0
 30
0
  0
VERTEX
  8
LAYER_1
 10
89.8821
 20
129.5905
  0
VERTEX
  8
LAYER_1
 10
91.2156
 20
129.5905
  0
SEQEND
  0
POLYLINE
  8
LAYER_1
 40
0.1764
 41
0.1764
 66
1
 10
0
 20
0
 30
0
  0
VERTEX
  8
LAYER_1
 10
91.2156
 20
135.0727
  0
VERTEX
  8
LAYER_1
 10
91.2156
 20
129.5905
  0
SEQEND
  0
POLYLINE
  8
LAYER_1
 40
0.1764
 41
0.1764
 66
1
 10
0
 20
0
 30
0
  0
VERTEX
  8
LAYER_1
 10
89.8821
 20
129.5905
  0
VERTEX
  8
LAYER_1
 10
89.8821
 20
135.0727
  0
VERTEX
  8
LAYER_1
 10
91.2156
 20
135.0727
  0
SEQEND
  0
POLYLINE
  8
LAYER_1
 40
0.1764
 41
0.1764
 66
1
 10
0
 20
0
 30
0
  0
VERTEX
  8
LAYER_1
 10
94.814
 20
135.0727
  0
VERTEX
  8
LAYER_1
 10
93.9673
 20
135.3267
  0
VERTEX
  8
LAYER_1
 10
93.0995
 20
135.4113
  0
VERTEX
  8
LAYER_1
 10
92.2316
 20
135.3478
  0
VERTEX
  8
LAYER_1
 10
91.4061
 20
135.1362
  0
VERTEX
  8
LAYER_1
 10
91.2156
 20
135.0727
  0
SEQEND
  0
POLYLINE
  8
LAYER_1
 40
0.1764
 41
0.1764
 66
1
 10
0
 20
0
 30
0
  0
VERTEX
  8
LAYER_1
 10
96.1686
 20
135.0727
  0
VERTEX
  8
LAYER_1
 10
94.814
 20
135.0727
  0
SEQEND
  0
POLYLINE
  8
LAYER_1
 40
0.1764
 41
0.1764
 66
1
 10
0
 20
0
 30
0
  0
VERTEX
  8
LAYER_1
 10
89.5435
 20
44.1407
  0
VERTEX
  8
LAYER_1
 10
89.6281
 20
40.1825
  0
SEQEND
  0
POLYLINE
  8
LAYER_1
 40
0.1764
 41
0.1764
 66
1
 10
0
 20
0
 30
0
  0
VERTEX
  8
LAYER_1
 10
96.4015
 20
40.1825
  0
VERTEX
  8
LAYER_1
 10
96.4861
 20
44.1407
  0
SEQEND
  0
POLYLINE
  8
LAYER_1
 40
0.1764
 41
0.1764
 66
1
 10
0
 20
0
 30
0
  0
VERTEX
  8
LAYER_1
 10
89.9033
 20
43.7808
  0
VERTEX
  8
LAYER_1
 10
89.5223
 20
44.1618
  0
SEQEND
  0
POLYLINE
  8
LAYER_1
 40
0.1764
 41
0.1764
 66
1
 10
0
 20
0
 30
0
  0
VERTEX
  8
LAYER_1
 10
96.1263
 20
43.7808
  0
VERTEX
  8
LAYER_1
 10
96.5073
 20
44.1618
  0
SEQEND
  0
POLYLINE
  8
LAYER_1
 40
0.1764
 41
0.1764
 66
1
 10
0
 20
0
 30
0
  0
VERTEX
  8
LAYER_1
 10
90.0303
 20
39.8015
  0
VERTEX
  8
LAYER_1
 10
89.6281
 20
40.1825
  0
SEQEND
  0
POLYLINE
  8
LAYER_1
 40
0.1764
 41
0.1764
 66
1
 10
0
 20
0
 30
0
  0
VERTEX
  8
LAYER_1
 10
95.9993
 20
39.8015
  0
VERTEX
  8
LAYER_1
 10
96.4015
 20
40.1825
  0
SEQEND
  0
POLYLINE
  8
LAYER_1
 40
0.1764
 41
0.1764
 66
1
 10
0
 20
0
 30
0
  0
VERTEX
  8
LAYER_1
 10
95.9993
 20
39.8015
  0
VERTEX
  8
LAYER_1
 10
90.0303
 20
39.8015
  0
SEQEND
  0
POLYLINE
  8
LAYER_1
 40
0.1764
 41
0.1764
 66
1
 10
0
 20
0
 30
0
  0
VERTEX
  8
LAYER_1
 10
89.5223
 20
44.1618
  0
VERTEX
  8
LAYER_1
 10
89.5223
 20
51.2738
  0
SEQEND
  0
POLYLINE
  8
LAYER_1
 40
0.1764
 41
0.1764
 66
1
 10
0
 20
0
 30
0
  0
VERTEX
  8
LAYER_1
 10
96.5073
 20
44.1618
  0
VERTEX
  8
LAYER_1
 10
96.5073
 20
51.2738
  0
SEQEND
  0
POLYLINE
  8
LAYER_1
 40
0.1764
 41
0.1764
 66
1
 10
0
 20
0
 30
0
  0
VERTEX
  8
LAYER_1
 10
82.9607
 20
51.2738
  0
VERTEX
  8
LAYER_1
 10
102.942
 20
51.2738
  0
SEQEND
  0
POLYLINE
  8
LAYER_1
 40
0.1764
 41
0.1764
 66
1
 10
0
 20
0
 30
0
  0
VERTEX
  8
LAYER_1
 10
87.956
 20
56.9253
  0
VERTEX
  8
LAYER_1
 10
97.9467
 20
56.9253
  0
SEQEND
  0
POLYLINE
  8
LAYER_1
 40
0.1764
 41
0.1764
 66
1
 10
0
 20
0
 30
0
  0
VERTEX
  8
LAYER_1
 10
82.9607
 20
51.93
  0
VERTEX
  8
LAYER_1
 10
82.9607
 20
51.2738
  0
SEQEND
  0
POLYLINE
  8
LAYER_1
 40
0.1764
 41
0.1764
 66
1
 10
0
 20
0
 30
0
  0
VERTEX
  8
LAYER_1
 10
102.942
 20
51.93
  0
VERTEX
  8
LAYER_1
 10
102.942
 20
51.2738
  0
SEQEND
  0
POLYLINE
  8
LAYER_1
 40
0.1764
 41
0.1764
 66
1
 10
0
 20
0
 30
0
  0
VERTEX
  8
LAYER_1
 10
102.942
 20
51.93
  0
VERTEX
  8
LAYER_1
 10
102.8785
 20
52.7978
  0
VERTEX
  8
LAYER_1
 10
102.6457
 20
53.6445
  0
VERTEX
  8
LAYER_1
 10
102.2858
 20
54.4277
  0
VERTEX
  8
LAYER_1
 10
101.7778
 20
55.1473
  0
VERTEX
  8
LAYER_1
 10
101.164
 20
55.7612
  0
VERTEX
  8
LAYER_1
 10
100.4443
 20
56.2692
  0
VERTEX
  8
LAYER_1
 10
99.6612
 20
56.629
  0
VERTEX
  8
LAYER_1
 10
98.8145
 20
56.8618
  0
VERTEX
  8
LAYER_1
 10
97.9467
 20
56.9253
  0
SEQEND
  0
POLYLINE
  8
LAYER_1
 40
0.1764
 41
0.1764
 66
1
 10
0
 20
0
 30
0
  0
VERTEX
  8
LAYER_1
 10
87.956
 20
56.9253
  0
VERTEX
  8
LAYER_1
 10
87.0882
 20
56.8618
  0
VERTEX
  8
LAYER_1
 10
86.2415
 20
56.629
  0
VERTEX
  8
LAYER_1
 10
85.4583
 20
56.2692
  0
VERTEX
  8
LAYER_1
 10
84.7387
 20
55.7612
  0
VERTEX
  8
LAYER_1
 10
84.1248
 20
55.1473
  0
VERTEX
  8
LAYER_1
 10
83.638
 20
54.4277
  0
VERTEX
  8
LAYER_1
 10
83.257
 20
53.6445
  0
VERTEX
  8
LAYER_1
 10
83.0453
 20
52.7978
  0
VERTEX
  8
LAYER_1
 10
82.9607
 20
51.93
  0
SEQEND
  0
POLYLINE
  8
LAYER_1
 40
0.0212
 41
0.0212
 66
1
 10
0
 20
0
 30
0
  0
VERTEX
  8
LAYER_1
 10
64.3763
 20
43.7809
  0
VERTEX
  8
LAYER_1
 10
64.2493
 20
39.8015
  0
SEQEND
  0
POLYLINE
  8
LAYER_1
 40
0.0212
 41
0.0212
 66
1
 10
0
 20
0
 30
0
  0
VERTEX
  8
LAYER_1
 10
58.1533
 20
43.7809
  0
VERTEX
  8
LAYER_1
 10
58.2803
 20
39.8015
  0
SEQEND
  0
POLYLINE
  8
LAYER_1
 40
0.0212
 41
0.0212
 66
1
 10
0
 20
0
 30
0
  0
VERTEX
  8
LAYER_1
 10
146.6723
 20
43.7809
  0
VERTEX
  8
LAYER_1
 10
146.5453
 20
39.8015
  0
SEQEND
  0
POLYLINE
  8
LAYER_1
 40
0.0212
 41
0.0212
 66
1
 10
0
 20
0
 30
0
  0
VERTEX
  8
LAYER_1
 10
140.4493
 20
43.7809
  0
VERTEX
  8
LAYER_1
 10
140.5551
 20
39.8015
  0
SEQEND
  0
POLYLINE
  8
LAYER_1
 40
0.0212
 41
0.0212
 66
1
 10
0
 20
0
 30
0
  0
VERTEX
  8
LAYER_1
 10
64.715
 20
43.7809
  0
VERTEX
  8
LAYER_1
 10
57.7935
 20
43.7809
  0
SEQEND
  0
POLYLINE
  8
LAYER_1
 40
0.0212
 41
0.0212
 66
1
 10
0
 20
0
 30
0
  0
VERTEX
  8
LAYER_1
 10
140.0895
 20
43.7809
  0
VERTEX
  8
LAYER_1
 10
147.0321
 20
43.7809
  0
SEQEND
  0
POLYLINE
  8
LAYER_1
 40
0.0212
 41
0.0212
 66
1
 10
0
 20
0
 30
0
  0
VERTEX
  8
LAYER_1
 10
58.1745
 20
159.9012
  0
VERTEX
  8
LAYER_1
 10
58.1745
 20
156.578
  0
SEQEND
  0
POLYLINE
  8
LAYER_1
 40
0.0212
 41
0.0212
 66
1
 10
0
 20
0
 30
0
  0
VERTEX
  8
LAYER_1
 10
64.3551
 20
159.9012
  0
VERTEX
  8
LAYER_1
 10
64.3551
 20
156.578
  0
SEQEND
  0
POLYLINE
  8
LAYER_1
 40
0.0212
 41
0.0212
 66
1
 10
0
 20
0
 30
0
  0
VERTEX
  8
LAYER_1
 10
55.0418
 20
149.0004
  0
VERTEX
  8
LAYER_1
 10
55.1265
 20
149.085
  0
SEQEND
  0
POLYLINE
  8
LAYER_1
 40
0.0212
 41
0.0212
 66
1
 10
0
 20
0
 30
0
  0
VERTEX
  8
LAYER_1
 10
55.0841
 20
149.1485
  0
VERTEX
  8
LAYER_1
 10
55.2323
 20
149.3179
  0
SEQEND
  0
POLYLINE
  8
LAYER_1
 40
0.0212
 41
0.0212
 66
1
 10
0
 20
0
 30
0
  0
VERTEX
  8
LAYER_1
 10
54.936
 20
149.2755
  0
VERTEX
  8
LAYER_1
 10
54.936
 20
149.2967
  0
SEQEND
  0
POLYLINE
  8
LAYER_1
 40
0.0212
 41
0.0212
 66
1
 10
0
 20
0
 30
0
  0
VERTEX
  8
LAYER_1
 10
54.7455
 20
149.212
  0
VERTEX
  8
LAYER_1
 10
54.936
 20
149.4025
  0
SEQEND
  0
POLYLINE
  8
LAYER_1
 40
0.0212
 41
0.0212
 66
1
 10
0
 20
0
 30
0
  0
VERTEX
  8
LAYER_1
 10
54.7243
 20
148.9157
  0
VERTEX
  8
LAYER_1
 10
54.7666
 20
148.958
  0
SEQEND
  0
POLYLINE
  8
LAYER_1
 40
0.0212
 41
0.0212
 66
1
 10
0
 20
0
 30
0
  0
VERTEX
  8
LAYER_1
 10
55.19
 20
149.3814
  0
VERTEX
  8
LAYER_1
 10
55.2323
 20
149.4237
  0
SEQEND
  0
POLYLINE
  8
LAYER_1
 40
0.0212
 41
0.0212
 66
1
 10
0
 20
0
 30
0
  0
VERTEX
  8
LAYER_1
 10
54.8301
 20
148.7464
  0
SEQEND
  0
POLYLINE
  8
LAYER_1
 40
0.0212
 41
0.0212
 66
1
 10
0
 20
0
 30
0
  0
VERTEX
  8
LAYER_1
 10
54.8725
 20
148.7887
  0
SEQEND
  0
POLYLINE
  8
LAYER_1
 40
0.0212
 41
0.0212
 66
1
 10
0
 20
0
 30
0
  0
VERTEX
  8
LAYER_1
 10
54.936
 20
148.831
  0
VERTEX
  8
LAYER_1
 10
55.0206
 20
148.9157
  0
SEQEND
  0
POLYLINE
  8
LAYER_1
 40
0.0212
 41
0.0212
 66
1
 10
0
 20
0
 30
0
  0
VERTEX
  8
LAYER_1
 10
55.3805
 20
149.2967
  0
SEQEND
  0
POLYLINE
  8
LAYER_1
 40
0.0212
 41
0.0212
 66
1
 10
0
 20
0
 30
0
  0
VERTEX
  8
LAYER_1
 10
55.0206
 20
148.6405
  0
VERTEX
  8
LAYER_1
 10
55.0418
 20
148.6829
  0
SEQEND
  0
POLYLINE
  8
LAYER_1
 40
0.0212
 41
0.0212
 66
1
 10
0
 20
0
 30
0
  0
VERTEX
  8
LAYER_1
 10
55.2111
 20
148.831
  0
VERTEX
  8
LAYER_1
 10
55.2535
 20
148.8734
  0
SEQEND
  0
POLYLINE
  8
LAYER_1
 40
0.0212
 41
0.0212
 66
1
 10
0
 20
0
 30
0
  0
VERTEX
  8
LAYER_1
 10
55.4651
 20
149.1062
  0
VERTEX
  8
LAYER_1
 10
55.5286
 20
149.1485
  0
SEQEND
  0
POLYLINE
  8
LAYER_1
 40
0.0212
 41
0.0212
 66
1
 10
0
 20
0
 30
0
  0
VERTEX
  8
LAYER_1
 10
55.4016
 20
148.7464
  0
VERTEX
  8
LAYER_1
 10
55.4863
 20
148.831
  0
SEQEND
  0
POLYLINE
  8
LAYER_1
 40
0.0212
 41
0.0212
 66
1
 10
0
 20
0
 30
0
  0
VERTEX
  8
LAYER_1
 10
65.0113
 20
128.5957
  0
VERTEX
  8
LAYER_1
 10
57.5183
 20
128.5957
  0
SEQEND
  0
POLYLINE
  8
LAYER_1
 40
0.0212
 41
0.0212
 66
1
 10
0
 20
0
 30
0
  0
VERTEX
  8
LAYER_1
 10
65.0113
 20
128.5957
  0
VERTEX
  8
LAYER_1
 10
65.0113
 20
129.2307
  0
SEQEND
  0
POLYLINE
  8
LAYER_1
 40
0.0212
 41
0.0212
 66
1
 10
0
 20
0
 30
0
  0
VERTEX
  8
LAYER_1
 10
57.5183
 20
128.5957
  0
VERTEX
  8
LAYER_1
 10
57.5183
 20
129.2307
  0
SEQEND
  0
POLYLINE
  8
LAYER_1
 40
0.0212
 41
0.0212
 66
1
 10
0
 20
0
 30
0
  0
VERTEX
  8
LAYER_1
 10
53.2638
 20
153.6994
  0
VERTEX
  8
LAYER_1
 10
53.0945
 20
153.6994
  0
SEQEND
  0
POLYLINE
  8
LAYER_1
 40
0.0212
 41
0.0212
 66
1
 10
0
 20
0
 30
0
  0
VERTEX
  8
LAYER_1
 10
53.2638
 20
146.1005
  0
VERTEX
  8
LAYER_1
 10
53.0945
 20
146.1005
  0
SEQEND
  0
POLYLINE
  8
LAYER_1
 40
0.0212
 41
0.0212
 66
1
 10
0
 20
0
 30
0
  0
VERTEX
  8
LAYER_1
 10
147.3073
 20
127.7702
  0
VERTEX
  8
LAYER_1
 10
139.8143
 20
127.7702
  0
SEQEND
  0
POLYLINE
  8
LAYER_1
 40
0.0212
 41
0.0212
 66
1
 10
0
 20
0
 30
0
  0
VERTEX
  8
LAYER_1
 10
147.3073
 20
127.7702
  0
VERTEX
  8
LAYER_1
 10
147.3073
 20
128.4264
  0
SEQEND
  0
POLYLINE
  8
LAYER_1
 40
0.0212
 41
0.0212
 66
1
 10
0
 20
0
 30
0
  0
VERTEX
  8
LAYER_1
 10
139.8143
 20
127.7702
  0
VERTEX
  8
LAYER_1
 10
139.8143
 20
128.4264
  0
SEQEND
  0
POLYLINE
  8
LAYER_1
 40
0.0212
 41
0.0212
 66
1
 10
0
 20
0
 30
0
  0
VERTEX
  8
LAYER_1
 10
140.4705
 20
234.8524
  0
VERTEX
  8
LAYER_1
 10
140.4705
 20
231.5292
  0
SEQEND
  0
POLYLINE
  8
LAYER_1
 40
0.0212
 41
0.0212
 66
1
 10
0
 20
0
 30
0
  0
VERTEX
  8
LAYER_1
 10
146.6511
 20
234.8524
  0
VERTEX
  8
LAYER_1
 10
146.6511
 20
231.5292
  0
SEQEND
  0
POLYLINE
  8
LAYER_1
 40
0.0212
 41
0.0212
 66
1
 10
0
 20
0
 30
0
  0
VERTEX
  8
LAYER_1
 10
137.3378
 20
223.9515
  0
VERTEX
  8
LAYER_1
 10
137.4225
 20
224.0362
  0
SEQEND
  0
POLYLINE
  8
LAYER_1
 40
0.0212
 41
0.0212
 66
1
 10
0
 20
0
 30
0
  0
VERTEX
  8
LAYER_1
 10
137.3801
 20
224.1209
  0
VERTEX
  8
LAYER_1
 10
137.5283
 20
224.269
  0
SEQEND
  0
POLYLINE
  8
LAYER_1
 40
0.0212
 41
0.0212
 66
1
 10
0
 20
0
 30
0
  0
VERTEX
  8
LAYER_1
 10
137.232
 20
224.2479
  0
SEQEND
  0
POLYLINE
  8
LAYER_1
 40
0.0212
 41
0.0212
 66
1
 10
0
 20
0
 30
0
  0
VERTEX
  8
LAYER_1
 10
137.0415
 20
224.1844
  0
VERTEX
  8
LAYER_1
 10
137.232
 20
224.3749
  0
SEQEND
  0
POLYLINE
  8
LAYER_1
 40
0.0212
 41
0.0212
 66
1
 10
0
 20
0
 30
0
  0
VERTEX
  8
LAYER_1
 10
137.0203
 20
223.8669
  0
VERTEX
  8
LAYER_1
 10
137.0626
 20
223.9303
  0
SEQEND
  0
POLYLINE
  8
LAYER_1
 40
0.0212
 41
0.0212
 66
1
 10
0
 20
0
 30
0
  0
VERTEX
  8
LAYER_1
 10
137.486
 20
224.3537
  0
VERTEX
  8
LAYER_1
 10
137.5283
 20
224.396
  0
SEQEND
  0
POLYLINE
  8
LAYER_1
 40
0.0212
 41
0.0212
 66
1
 10
0
 20
0
 30
0
  0
VERTEX
  8
LAYER_1
 10
137.1261
 20
223.6975
  0
SEQEND
  0
POLYLINE
  8
LAYER_1
 40
0.0212
 41
0.0212
 66
1
 10
0
 20
0
 30
0
  0
VERTEX
  8
LAYER_1
 10
137.1685
 20
223.7399
  0
SEQEND
  0
POLYLINE
  8
LAYER_1
 40
0.0212
 41
0.0212
 66
1
 10
0
 20
0
 30
0
  0
VERTEX
  8
LAYER_1
 10
137.232
 20
223.8034
  0
VERTEX
  8
LAYER_1
 10
137.2955
 20
223.888
  0
SEQEND
  0
POLYLINE
  8
LAYER_1
 40
0.0212
 41
0.0212
 66
1
 10
0
 20
0
 30
0
  0
VERTEX
  8
LAYER_1
 10
137.6765
 20
224.2479
  0
SEQEND
  0
POLYLINE
  8
LAYER_1
 40
0.0212
 41
0.0212
 66
1
 10
0
 20
0
 30
0
  0
VERTEX
  8
LAYER_1
 10
137.2955
 20
223.5917
  0
VERTEX
  8
LAYER_1
 10
137.359
 20
223.6552
  0
SEQEND
  0
POLYLINE
  8
LAYER_1
 40
0.0212
 41
0.0212
 66
1
 10
0
 20
0
 30
0
  0
VERTEX
  8
LAYER_1
 10
137.5071
 20
223.8034
  0
VERTEX
  8
LAYER_1
 10
137.5495
 20
223.8457
  0
SEQEND
  0
POLYLINE
  8
LAYER_1
 40
0.0212
 41
0.0212
 66
1
 10
0
 20
0
 30
0
  0
VERTEX
  8
LAYER_1
 10
137.7611
 20
224.0573
  0
VERTEX
  8
LAYER_1
 10
137.8246
 20
224.1208
  0
SEQEND
  0
POLYLINE
  8
LAYER_1
 40
0.0212
 41
0.0212
 66
1
 10
0
 20
0
 30
0
  0
VERTEX
  8
LAYER_1
 10
137.6976
 20
223.7187
  0
VERTEX
  8
LAYER_1
 10
137.7823
 20
223.7822
  0
SEQEND
  0
POLYLINE
  8
LAYER_1
 40
0.0212
 41
0.0212
 66
1
 10
0
 20
0
 30
0
  0
VERTEX
  8
LAYER_1
 10
135.5598
 20
228.6717
  0
VERTEX
  8
LAYER_1
 10
135.3905
 20
228.6717
  0
SEQEND
  0
POLYLINE
  8
LAYER_1
 40
0.0212
 41
0.0212
 66
1
 10
0
 20
0
 30
0
  0
VERTEX
  8
LAYER_1
 10
135.5598
 20
221.0728
  0
VERTEX
  8
LAYER_1
 10
135.3905
 20
221.0728
  0
SEQEND
  0
POLYLINE
  8
LAYER_1
 40
0.0212
 41
0.0212
 66
1
 10
0
 20
0
 30
0
  0
VERTEX
  8
LAYER_1
 10
42.9345
 20
149.9105
  0
VERTEX
  8
LAYER_1
 10
41.9185
 20
149.9105
  0
SEQEND
  0
POLYLINE
  8
LAYER_1
 40
0.0212
 41
0.0212
 66
1
 10
0
 20
0
 30
0
  0
VERTEX
  8
LAYER_1
 10
42.9345
 20
150.0798
  0
VERTEX
  8
LAYER_1
 10
41.9185
 20
150.0798
  0
SEQEND
  0
POLYLINE
  8
LAYER_1
 40
0.0212
 41
0.0212
 66
1
 10
0
 20
0
 30
0
  0
VERTEX
  8
LAYER_1
 10
42.9345
 20
150.228
  0
VERTEX
  8
LAYER_1
 10
41.9185
 20
150.228
  0
SEQEND
  0
POLYLINE
  8
LAYER_1
 40
0.0212
 41
0.0212
 66
1
 10
0
 20
0
 30
0
  0
VERTEX
  8
LAYER_1
 10
42.9345
 20
150.3973
  0
VERTEX
  8
LAYER_1
 10
41.9185
 20
150.3973
  0
SEQEND
  0
POLYLINE
  8
LAYER_1
 40
0.0212
 41
0.0212
 66
1
 10
0
 20
0
 30
0
  0
VERTEX
  8
LAYER_1
 10
42.9345
 20
150.5667
  0
VERTEX
  8
LAYER_1
 10
41.9185
 20
150.5667
  0
SEQEND
  0
POLYLINE
  8
LAYER_1
 40
0.0212
 41
0.0212
 66
1
 10
0
 20
0
 30
0
  0
VERTEX
  8
LAYER_1
 10
42.9345
 20
150.736
  0
VERTEX
  8
LAYER_1
 10
41.9185
 20
150.736
  0
SEQEND
  0
POLYLINE
  8
LAYER_1
 40
0.0212
 41
0.0212
 66
1
 10
0
 20
0
 30
0
  0
VERTEX
  8
LAYER_1
 10
42.9345
 20
150.9054
  0
VERTEX
  8
LAYER_1
 10
41.9185
 20
150.9054
  0
SEQEND
  0
POLYLINE
  8
LAYER_1
 40
0.0212
 41
0.0212
 66
1
 10
0
 20
0
 30
0
  0
VERTEX
  8
LAYER_1
 10
42.9556
 20
151.0747
  0
VERTEX
  8
LAYER_1
 10
41.9185
 20
151.0747
  0
SEQEND
  0
POLYLINE
  8
LAYER_1
 40
0.0212
 41
0.0212
 66
1
 10
0
 20
0
 30
0
  0
VERTEX
  8
LAYER_1
 10
42.9556
 20
151.2229
  0
VERTEX
  8
LAYER_1
 10
41.9185
 20
151.2229
  0
SEQEND
  0
POLYLINE
  8
LAYER_1
 40
0.0212
 41
0.0212
 66
1
 10
0
 20
0
 30
0
  0
VERTEX
  8
LAYER_1
 10
42.9556
 20
151.3922
  0
VERTEX
  8
LAYER_1
 10
41.9185
 20
151.3922
  0
SEQEND
  0
POLYLINE
  8
LAYER_1
 40
0.0212
 41
0.0212
 66
1
 10
0
 20
0
 30
0
  0
VERTEX
  8
LAYER_1
 10
42.9556
 20
151.5615
  0
VERTEX
  8
LAYER_1
 10
41.9185
 20
151.5615
  0
SEQEND
  0
POLYLINE
  8
LAYER_1
 40
0.0212
 41
0.0212
 66
1
 10
0
 20
0
 30
0
  0
VERTEX
  8
LAYER_1
 10
42.9556
 20
151.7309
  0
VERTEX
  8
LAYER_1
 10
41.9185
 20
151.7309
  0
SEQEND
  0
POLYLINE
  8
LAYER_1
 40
0.0212
 41
0.0212
 66
1
 10
0
 20
0
 30
0
  0
VERTEX
  8
LAYER_1
 10
42.9768
 20
151.9002
  0
VERTEX
  8
LAYER_1
 10
41.9185
 20
151.9002
  0
SEQEND
  0
POLYLINE
  8
LAYER_1
 40
0.0212
 41
0.0212
 66
1
 10
0
 20
0
 30
0
  0
VERTEX
  8
LAYER_1
 10
42.9768
 20
152.0696
  0
VERTEX
  8
LAYER_1
 10
41.9185
 20
152.0696
  0
SEQEND
  0
POLYLINE
  8
LAYER_1
 40
0.0212
 41
0.0212
 66
1
 10
0
 20
0
 30
0
  0
VERTEX
  8
LAYER_1
 10
42.9345
 20
149.7412
  0
VERTEX
  8
LAYER_1
 10
41.9185
 20
149.7412
  0
SEQEND
  0
POLYLINE
  8
LAYER_1
 40
0.0212
 41
0.0212
 66
1
 10
0
 20
0
 30
0
  0
VERTEX
  8
LAYER_1
 10
42.9345
 20
149.5719
  0
VERTEX
  8
LAYER_1
 10
41.9185
 20
149.5719
  0
SEQEND
  0
POLYLINE
  8
LAYER_1
 40
0.0212
 41
0.0212
 66
1
 10
0
 20
0
 30
0
  0
VERTEX
  8
LAYER_1
 10
42.9345
 20
149.4025
  0
VERTEX
  8
LAYER_1
 10
41.9185
 20
149.4025
  0
SEQEND
  0
POLYLINE
  8
LAYER_1
 40
0.0212
 41
0.0212
 66
1
 10
0
 20
0
 30
0
  0
VERTEX
  8
LAYER_1
 10
42.9345
 20
149.2332
  0
VERTEX
  8
LAYER_1
 10
41.9185
 20
149.2332
  0
SEQEND
  0
POLYLINE
  8
LAYER_1
 40
0.0212
 41
0.0212
 66
1
 10
0
 20
0
 30
0
  0
VERTEX
  8
LAYER_1
 10
42.9345
 20
149.0639
  0
VERTEX
  8
LAYER_1
 10
41.9185
 20
149.0639
  0
SEQEND
  0
POLYLINE
  8
LAYER_1
 40
0.0212
 41
0.0212
 66
1
 10
0
 20
0
 30
0
  0
VERTEX
  8
LAYER_1
 10
42.9345
 20
148.8945
  0
VERTEX
  8
LAYER_1
 10
41.9185
 20
148.8945
  0
SEQEND
  0
POLYLINE
  8
LAYER_1
 40
0.0212
 41
0.0212
 66
1
 10
0
 20
0
 30
0
  0
VERTEX
  8
LAYER_1
 10
42.9556
 20
148.7252
  0
VERTEX
  8
LAYER_1
 10
41.9185
 20
148.7252
  0
SEQEND
  0
POLYLINE
  8
LAYER_1
 40
0.0212
 41
0.0212
 66
1
 10
0
 20
0
 30
0
  0
VERTEX
  8
LAYER_1
 10
42.9556
 20
148.577
  0
VERTEX
  8
LAYER_1
 10
41.9185
 20
148.577
  0
SEQEND
  0
POLYLINE
  8
LAYER_1
 40
0.0212
 41
0.0212
 66
1
 10
0
 20
0
 30
0
  0
VERTEX
  8
LAYER_1
 10
42.9556
 20
148.4077
  0
VERTEX
  8
LAYER_1
 10
41.9185
 20
148.4077
  0
SEQEND
  0
POLYLINE
  8
LAYER_1
 40
0.0212
 41
0.0212
 66
1
 10
0
 20
0
 30
0
  0
VERTEX
  8
LAYER_1
 10
42.9556
 20
148.2384
  0
VERTEX
  8
LAYER_1
 10
41.9185
 20
148.2384
  0
SEQEND
  0
POLYLINE
  8
LAYER_1
 40
0.0212
 41
0.0212
 66
1
 10
0
 20
0
 30
0
  0
VERTEX
  8
LAYER_1
 10
42.9556
 20
148.069
  0
VERTEX
  8
LAYER_1
 10
41.9185
 20
148.069
  0
SEQEND
  0
POLYLINE
  8
LAYER_1
 40
0.0212
 41
0.0212
 66
1
 10
0
 20
0
 30
0
  0
VERTEX
  8
LAYER_1
 10
42.9768
 20
147.8997
  0
VERTEX
  8
LAYER_1
 10
41.9185
 20
147.8997
  0
SEQEND
  0
POLYLINE
  8
LAYER_1
 40
0.0212
 41
0.0212
 66
1
 10
0
 20
0
 30
0
  0
VERTEX
  8
LAYER_1
 10
42.9768
 20
147.7303
  0
VERTEX
  8
LAYER_1
 10
41.9185
 20
147.7303
  0
SEQEND
  0
POLYLINE
  8
LAYER_1
 40
0.0212
 41
0.0212
 66
1
 10
0
 20
0
 30
0
  0
VERTEX
  8
LAYER_1
 10
125.2305
 20
224.8617
  0
VERTEX
  8
LAYER_1
 10
124.2356
 20
224.8617
  0
SEQEND
  0
POLYLINE
  8
LAYER_1
 40
0.0212
 41
0.0212
 66
1
 10
0
 20
0
 30
0
  0
VERTEX
  8
LAYER_1
 10
125.2305
 20
225.031
  0
VERTEX
  8
LAYER_1
 10
124.2356
 20
225.031
  0
SEQEND
  0
POLYLINE
  8
LAYER_1
 40
0.0212
 41
0.0212
 66
1
 10
0
 20
0
 30
0
  0
VERTEX
  8
LAYER_1
 10
125.2305
 20
225.2003
  0
VERTEX
  8
LAYER_1
 10
124.2356
 20
225.2003
  0
SEQEND
  0
POLYLINE
  8
LAYER_1
 40
0.0212
 41
0.0212
 66
1
 10
0
 20
0
 30
0
  0
VERTEX
  8
LAYER_1
 10
125.2305
 20
225.3696
  0
VERTEX
  8
LAYER_1
 10
124.2356
 20
225.3696
  0
SEQEND
  0
POLYLINE
  8
LAYER_1
 40
0.0212
 41
0.0212
 66
1
 10
0
 20
0
 30
0
  0
VERTEX
  8
LAYER_1
 10
125.2305
 20
225.539
  0
VERTEX
  8
LAYER_1
 10
124.2356
 20
225.539
  0
SEQEND
  0
POLYLINE
  8
LAYER_1
 40
0.0212
 41
0.0212
 66
1
 10
0
 20
0
 30
0
  0
VERTEX
  8
LAYER_1
 10
125.2305
 20
225.6871
  0
VERTEX
  8
LAYER_1
 10
124.2356
 20
225.6871
  0
SEQEND
  0
POLYLINE
  8
LAYER_1
 40
0.0212
 41
0.0212
 66
1
 10
0
 20
0
 30
0
  0
VERTEX
  8
LAYER_1
 10
125.2305
 20
225.8565
  0
VERTEX
  8
LAYER_1
 10
124.2356
 20
225.8565
  0
SEQEND
  0
POLYLINE
  8
LAYER_1
 40
0.0212
 41
0.0212
 66
1
 10
0
 20
0
 30
0
  0
VERTEX
  8
LAYER_1
 10
125.2305
 20
226.0258
  0
VERTEX
  8
LAYER_1
 10
124.2356
 20
226.0258
  0
SEQEND
  0
POLYLINE
  8
LAYER_1
 40
0.0212
 41
0.0212
 66
1
 10
0
 20
0
 30
0
  0
VERTEX
  8
LAYER_1
 10
125.2305
 20
226.1951
  0
VERTEX
  8
LAYER_1
 10
124.2356
 20
226.1951
  0
SEQEND
  0
POLYLINE
  8
LAYER_1
 40
0.0212
 41
0.0212
 66
1
 10
0
 20
0
 30
0
  0
VERTEX
  8
LAYER_1
 10
125.2516
 20
226.3644
  0
VERTEX
  8
LAYER_1
 10
124.2356
 20
226.3644
  0
SEQEND
  0
POLYLINE
  8
LAYER_1
 40
0.0212
 41
0.0212
 66
1
 10
0
 20
0
 30
0
  0
VERTEX
  8
LAYER_1
 10
125.2516
 20
226.5338
  0
VERTEX
  8
LAYER_1
 10
124.2356
 20
226.5338
  0
SEQEND
  0
POLYLINE
  8
LAYER_1
 40
0.0212
 41
0.0212
 66
1
 10
0
 20
0
 30
0
  0
VERTEX
  8
LAYER_1
 10
125.2516
 20
226.7031
  0
VERTEX
  8
LAYER_1
 10
124.2356
 20
226.7031
  0
SEQEND
  0
POLYLINE
  8
LAYER_1
 40
0.0212
 41
0.0212
 66
1
 10
0
 20
0
 30
0
  0
VERTEX
  8
LAYER_1
 10
125.2516
 20
226.8724
  0
VERTEX
  8
LAYER_1
 10
124.2356
 20
226.8724
  0
SEQEND
  0
POLYLINE
  8
LAYER_1
 40
0.0212
 41
0.0212
 66
1
 10
0
 20
0
 30
0
  0
VERTEX
  8
LAYER_1
 10
125.2728
 20
227.0417
  0
VERTEX
  8
LAYER_1
 10
124.2356
 20
227.0417
  0
SEQEND
  0
POLYLINE
  8
LAYER_1
 40
0.0212
 41
0.0212
 66
1
 10
0
 20
0
 30
0
  0
VERTEX
  8
LAYER_1
 10
125.2305
 20
224.6923
  0
VERTEX
  8
LAYER_1
 10
124.2356
 20
224.6923
  0
SEQEND
  0
POLYLINE
  8
LAYER_1
 40
0.0212
 41
0.0212
 66
1
 10
0
 20
0
 30
0
  0
VERTEX
  8
LAYER_1
 10
125.2305
 20
224.5441
  0
VERTEX
  8
LAYER_1
 10
124.2356
 20
224.5441
  0
SEQEND
  0
POLYLINE
  8
LAYER_1
 40
0.0212
 41
0.0212
 66
1
 10
0
 20
0
 30
0
  0
VERTEX
  8
LAYER_1
 10
125.2305
 20
224.3748
  0
VERTEX
  8
LAYER_1
 10
124.2356
 20
224.3748
  0
SEQEND
  0
POLYLINE
  8
LAYER_1
 40
0.0212
 41
0.0212
 66
1
 10
0
 20
0
 30
0
  0
VERTEX
  8
LAYER_1
 10
125.2305
 20
224.2054
  0
VERTEX
  8
LAYER_1
 10
124.2356
 20
224.2054
  0
SEQEND
  0
POLYLINE
  8
LAYER_1
 40
0.0212
 41
0.0212
 66
1
 10
0
 20
0
 30
0
  0
VERTEX
  8
LAYER_1
 10
125.2305
 20
224.0361
  0
VERTEX
  8
LAYER_1
 10
124.2356
 20
224.0361
  0
SEQEND
  0
POLYLINE
  8
LAYER_1
 40
0.0212
 41
0.0212
 66
1
 10
0
 20
0
 30
0
  0
VERTEX
  8
LAYER_1
 10
125.2305
 20
223.8668
  0
VERTEX
  8
LAYER_1
 10
124.2356
 20
223.8668
  0
SEQEND
  0
POLYLINE
  8
LAYER_1
 40
0.0212
 41
0.0212
 66
1
 10
0
 20
0
 30
0
  0
VERTEX
  8
LAYER_1
 10
125.2305
 20
223.6975
  0
VERTEX
  8
LAYER_1
 10
124.2356
 20
223.6975
  0
SEQEND
  0
POLYLINE
  8
LAYER_1
 40
0.0212
 41
0.0212
 66
1
 10
0
 20
0
 30
0
  0
VERTEX
  8
LAYER_1
 10
125.2305
 20
223.5281
  0
VERTEX
  8
LAYER_1
 10
124.2356
 20
223.5281
  0
SEQEND
  0
POLYLINE
  8
LAYER_1
 40
0.0212
 41
0.0212
 66
1
 10
0
 20
0
 30
0
  0
VERTEX
  8
LAYER_1
 10
125.2516
 20
223.3588
  0
VERTEX
  8
LAYER_1
 10
124.2356
 20
223.3588
  0
SEQEND
  0
POLYLINE
  8
LAYER_1
 40
0.0212
 41
0.0212
 66
1
 10
0
 20
0
 30
0
  0
VERTEX
  8
LAYER_1
 10
125.2516
 20
223.1895
  0
VERTEX
  8
LAYER_1
 10
124.2356
 20
223.1895
  0
SEQEND
  0
POLYLINE
  8
LAYER_1
 40
0.0212
 41
0.0212
 66
1
 10
0
 20
0
 30
0
  0
VERTEX
  8
LAYER_1
 10
125.2516
 20
223.0413
  0
VERTEX
  8
LAYER_1
 10
124.2356
 20
223.0413
  0
SEQEND
  0
POLYLINE
  8
LAYER_1
 40
0.0212
 41
0.0212
 66
1
 10
0
 20
0
 30
0
  0
VERTEX
  8
LAYER_1
 10
125.2516
 20
222.872
  0
VERTEX
  8
LAYER_1
 10
124.2356
 20
222.872
  0
SEQEND
  0
POLYLINE
  8
LAYER_1
 40
0.0212
 41
0.0212
 66
1
 10
0
 20
0
 30
0
  0
VERTEX
  8
LAYER_1
 10
125.2728
 20
222.7027
  0
VERTEX
  8
LAYER_1
 10
124.2356
 20
222.7027
  0
SEQEND
  0
POLYLINE
  8
LAYER_1
 40
0.0212
 41
0.0212
 66
1
 10
0
 20
0
 30
0
  0
VERTEX
  8
LAYER_1
 10
175.713
 20
234.8523
  0
VERTEX
  8
LAYER_1
 10
175.713
 20
231.5292
  0
SEQEND
  0
POLYLINE
  8
LAYER_1
 40
0.0212
 41
0.0212
 66
1
 10
0
 20
0
 30
0
  0
VERTEX
  8
LAYER_1
 10
181.8936
 20
234.8523
  0
VERTEX
  8
LAYER_1
 10
181.8936
 20
231.5292
  0
VERTEX
  8
LAYER_1
 10
178.8033
 20
231.5292
  0
VERTEX
  8
LAYER_1
 10
175.713
 20
231.5292
  0
SEQEND
  0
POLYLINE
  8
LAYER_1
 40
0.0212
 41
0.0212
 66
1
 10
0
 20
0
 30
0
  0
VERTEX
  8
LAYER_1
 10
182.2958
 20
234.4713
  0
VERTEX
  8
LAYER_1
 10
178.8033
 20
234.4713
  0
VERTEX
  8
LAYER_1
 10
175.3108
 20
234.4713
  0
SEQEND
  0
POLYLINE
  8
LAYER_1
 40
0.0212
 41
0.0212
 66
1
 10
0
 20
0
 30
0
  0
VERTEX
  8
LAYER_1
 10
181.9148
 20
43.7808
  0
VERTEX
  8
LAYER_1
 10
181.7878
 20
39.8015
  0
SEQEND
  0
POLYLINE
  8
LAYER_1
 40
0.0212
 41
0.0212
 66
1
 10
0
 20
0
 30
0
  0
VERTEX
  8
LAYER_1
 10
175.6918
 20
43.7808
  0
VERTEX
  8
LAYER_1
 10
175.8188
 20
39.8015
  0
SEQEND
  0
POLYLINE
  8
LAYER_1
 40
0.0212
 41
0.0212
 66
1
 10
0
 20
0
 30
0
  0
VERTEX
  8
LAYER_1
 10
175.332
 20
43.7808
  0
VERTEX
  8
LAYER_1
 10
182.2746
 20
43.7808
  0
SEQEND
  0
POLYLINE
  8
LAYER_1
 40
0.0212
 41
0.0212
 66
1
 10
0
 20
0
 30
0
  0
VERTEX
  8
LAYER_1
 10
182.5498
 20
127.7702
  0
VERTEX
  8
LAYER_1
 10
175.0568
 20
127.7702
  0
SEQEND
  0
POLYLINE
  8
LAYER_1
 40
0.0212
 41
0.0212
 66
1
 10
0
 20
0
 30
0
  0
VERTEX
  8
LAYER_1
 10
182.5498
 20
127.7702
  0
VERTEX
  8
LAYER_1
 10
182.5498
 20
128.4263
  0
SEQEND
  0
POLYLINE
  8
LAYER_1
 40
0.0212
 41
0.0212
 66
1
 10
0
 20
0
 30
0
  0
VERTEX
  8
LAYER_1
 10
175.0568
 20
127.7702
  0
VERTEX
  8
LAYER_1
 10
175.0568
 20
128.4263
  0
SEQEND
  0
POLYLINE
  8
LAYER_1
 40
0.0212
 41
0.0212
 66
1
 10
0
 20
0
 30
0
  0
VERTEX
  8
LAYER_1
 10
39.2727
 20
149.9105
  0
VERTEX
  8
LAYER_1
 10
44.9242
 20
149.9105
  0
SEQEND
  0
POLYLINE
  8
LAYER_1
 40
0.0212
 41
0.0212
 66
1
 10
0
 20
0
 30
0
  0
VERTEX
  8
LAYER_1
 10
45.919
 20
149.9105
  0
VERTEX
  8
LAYER_1
 10
46.935
 20
149.9105
  0
SEQEND
  0
POLYLINE
  8
LAYER_1
 40
0.0212
 41
0.0212
 66
1
 10
0
 20
0
 30
0
  0
VERTEX
  8
LAYER_1
 10
47.9298
 20
149.9105
  0
VERTEX
  8
LAYER_1
 10
56.9257
 20
149.9105
  0
SEQEND
  0
POLYLINE
  8
LAYER_1
 40
0.0212
 41
0.0212
 66
1
 10
0
 20
0
 30
0
  0
VERTEX
  8
LAYER_1
 10
57.9205
 20
149.9105
  0
VERTEX
  8
LAYER_1
 10
58.9153
 20
149.9105
  0
SEQEND
  0
POLYLINE
  8
LAYER_1
 40
0.0212
 41
0.0212
 66
1
 10
0
 20
0
 30
0
  0
VERTEX
  8
LAYER_1
 10
59.9101
 20
149.9105
  0
VERTEX
  8
LAYER_1
 10
68.906
 20
149.9105
  0
SEQEND
  0
POLYLINE
  8
LAYER_1
 40
0.0212
 41
0.0212
 66
1
 10
0
 20
0
 30
0
  0
VERTEX
  8
LAYER_1
 10
69.922
 20
149.9105
  0
VERTEX
  8
LAYER_1
 10
70.9168
 20
149.9105
  0
SEQEND
  0
POLYLINE
  8
LAYER_1
 40
0.0212
 41
0.0212
 66
1
 10
0
 20
0
 30
0
  0
VERTEX
  8
LAYER_1
 10
71.9116
 20
149.9105
  0
VERTEX
  8
LAYER_1
 10
80.9075
 20
149.9105
  0
SEQEND
  0
POLYLINE
  8
LAYER_1
 40
0.0212
 41
0.0212
 66
1
 10
0
 20
0
 30
0
  0
VERTEX
  8
LAYER_1
 10
81.9023
 20
149.9105
  0
VERTEX
  8
LAYER_1
 10
82.9183
 20
149.9105
  0
SEQEND
  0
POLYLINE
  8
LAYER_1
 40
0.0212
 41
0.0212
 66
1
 10
0
 20
0
 30
0
  0
VERTEX
  8
LAYER_1
 10
83.9132
 20
149.9105
  0
VERTEX
  8
LAYER_1
 10
92.909
 20
149.9105
  0
SEQEND
  0
POLYLINE
  8
LAYER_1
 40
0.0212
 41
0.0212
 66
1
 10
0
 20
0
 30
0
  0
VERTEX
  8
LAYER_1
 10
93.9038
 20
149.9105
  0
VERTEX
  8
LAYER_1
 10
94.8986
 20
149.9105
  0
SEQEND
  0
POLYLINE
  8
LAYER_1
 40
0.0212
 41
0.0212
 66
1
 10
0
 20
0
 30
0
  0
VERTEX
  8
LAYER_1
 10
95.8935
 20
149.9105
  0
VERTEX
  8
LAYER_1
 10
101.5661
 20
149.9105
  0
SEQEND
  0
POLYLINE
  8
LAYER_1
 40
0.0212
 41
0.0212
 66
1
 10
0
 20
0
 30
0
  0
VERTEX
  8
LAYER_1
 10
89.9245
 20
159.9012
  0
VERTEX
  8
LAYER_1
 10
89.9245
 20
156.578
  0
SEQEND
  0
POLYLINE
  8
LAYER_1
 40
0.0212
 41
0.0212
 66
1
 10
0
 20
0
 30
0
  0
VERTEX
  8
LAYER_1
 10
96.1052
 20
159.9012
  0
VERTEX
  8
LAYER_1
 10
96.1052
 20
156.578
  0
VERTEX
  8
LAYER_1
 10
93.0148
 20
156.578
  0
VERTEX
  8
LAYER_1
 10
89.9245
 20
156.578
  0
SEQEND
  0
POLYLINE
  8
LAYER_1
 40
0.0212
 41
0.0212
 66
1
 10
0
 20
0
 30
0
  0
VERTEX
  8
LAYER_1
 10
96.5073
 20
159.499
  0
VERTEX
  8
LAYER_1
 10
93.0148
 20
159.499
  0
VERTEX
  8
LAYER_1
 10
89.5223
 20
159.499
  0
SEQEND
  0
POLYLINE
  8
LAYER_1
 40
0.0212
 41
0.0212
 66
1
 10
0
 20
0
 30
0
  0
VERTEX
  8
LAYER_1
 10
96.7613
 20
128.5957
  0
VERTEX
  8
LAYER_1
 10
89.2683
 20
128.5957
  0
SEQEND
  0
POLYLINE
  8
LAYER_1
 40
0.0212
 41
0.0212
 66
1
 10
0
 20
0
 30
0
  0
VERTEX
  8
LAYER_1
 10
96.7613
 20
128.5957
  0
VERTEX
  8
LAYER_1
 10
96.7613
 20
129.2307
  0
SEQEND
  0
POLYLINE
  8
LAYER_1
 40
0.0212
 41
0.0212
 66
1
 10
0
 20
0
 30
0
  0
VERTEX
  8
LAYER_1
 10
89.2683
 20
128.5957
  0
VERTEX
  8
LAYER_1
 10
89.2683
 20
129.2307
  0
SEQEND
  0
POLYLINE
  8
LAYER_1
 40
0.0212
 41
0.0212
 66
1
 10
0
 20
0
 30
0
  0
VERTEX
  8
LAYER_1
 10
96.1263
 20
43.7808
  0
VERTEX
  8
LAYER_1
 10
95.9993
 20
39.8015
  0
SEQEND
  0
POLYLINE
  8
LAYER_1
 40
0.0212
 41
0.0212
 66
1
 10
0
 20
0
 30
0
  0
VERTEX
  8
LAYER_1
 10
89.9033
 20
43.7808
  0
VERTEX
  8
LAYER_1
 10
90.0303
 20
39.8015
  0
SEQEND
  0
POLYLINE
  8
LAYER_1
 40
0.0212
 41
0.0212
 66
1
 10
0
 20
0
 30
0
  0
VERTEX
  8
LAYER_1
 10
96.4861
 20
43.7808
  0
VERTEX
  8
LAYER_1
 10
89.5647
 20
43.7808
  0
SEQEND
  0
POLYLINE
  8
LAYER_1
 40
0.0212
 41
0.0212
 66
1
 10
0
 20
0
 30
0
  0
VERTEX
  8
LAYER_1
 10
178.8033
 20
237.731
  0
VERTEX
  8
LAYER_1
 10
178.8033
 20
233.8152
  0
SEQEND
  0
POLYLINE
  8
LAYER_1
 40
0.0212
 41
0.0212
 66
1
 10
0
 20
0
 30
0
  0
VERTEX
  8
LAYER_1
 10
178.8033
 20
232.8204
  0
VERTEX
  8
LAYER_1
 10
178.8033
 20
231.8255
  0
SEQEND
  0
POLYLINE
  8
LAYER_1
 40
0.0212
 41
0.0212
 66
1
 10
0
 20
0
 30
0
  0
VERTEX
  8
LAYER_1
 10
178.8033
 20
230.8307
  0
VERTEX
  8
LAYER_1
 10
178.8033
 20
221.8348
  0
SEQEND
  0
POLYLINE
  8
LAYER_1
 40
0.0212
 41
0.0212
 66
1
 10
0
 20
0
 30
0
  0
VERTEX
  8
LAYER_1
 10
178.8033
 20
220.8188
  0
VERTEX
  8
LAYER_1
 10
178.8033
 20
219.824
  0
SEQEND
  0
POLYLINE
  8
LAYER_1
 40
0.0212
 41
0.0212
 66
1
 10
0
 20
0
 30
0
  0
VERTEX
  8
LAYER_1
 10
178.8033
 20
218.8292
  0
VERTEX
  8
LAYER_1
 10
178.8033
 20
209.8333
  0
SEQEND
  0
POLYLINE
  8
LAYER_1
 40
0.0212
 41
0.0212
 66
1
 10
0
 20
0
 30
0
  0
VERTEX
  8
LAYER_1
 10
178.8033
 20
208.8385
  0
VERTEX
  8
LAYER_1
 10
178.8033
 20
207.8437
  0
SEQEND
  0
POLYLINE
  8
LAYER_1
 40
0.0212
 41
0.0212
 66
1
 10
0
 20
0
 30
0
  0
VERTEX
  8
LAYER_1
 10
178.8033
 20
206.8277
  0
VERTEX
  8
LAYER_1
 10
178.8033
 20
197.8318
  0
SEQEND
  0
POLYLINE
  8
LAYER_1
 40
0.0212
 41
0.0212
 66
1
 10
0
 20
0
 30
0
  0
VERTEX
  8
LAYER_1
 10
178.8033
 20
196.837
  0
VERTEX
  8
LAYER_1
 10
178.8033
 20
195.8422
  0
SEQEND
  0
POLYLINE
  8
LAYER_1
 40
0.0212
 41
0.0212
 66
1
 10
0
 20
0
 30
0
  0
VERTEX
  8
LAYER_1
 10
178.8033
 20
194.8473
  0
VERTEX
  8
LAYER_1
 10
178.8033
 20
185.8515
  0
SEQEND
  0
POLYLINE
  8
LAYER_1
 40
0.0212
 41
0.0212
 66
1
 10
0
 20
0
 30
0
  0
VERTEX
  8
LAYER_1
 10
178.8033
 20
184.8355
  0
VERTEX
  8
LAYER_1
 10
178.8033
 20
183.8407
  0
SEQEND
  0
POLYLINE
  8
LAYER_1
 40
0.0212
 41
0.0212
 66
1
 10
0
 20
0
 30
0
  0
VERTEX
  8
LAYER_1
 10
178.8033
 20
182.8458
  0
VERTEX
  8
LAYER_1
 10
178.8033
 20
173.85
  0
SEQEND
  0
POLYLINE
  8
LAYER_1
 40
0.0212
 41
0.0212
 66
1
 10
0
 20
0
 30
0
  0
VERTEX
  8
LAYER_1
 10
178.8033
 20
172.8552
  0
VERTEX
  8
LAYER_1
 10
178.8033
 20
171.8603
  0
SEQEND
  0
POLYLINE
  8
LAYER_1
 40
0.0212
 41
0.0212
 66
1
 10
0
 20
0
 30
0
  0
VERTEX
  8
LAYER_1
 10
178.8033
 20
170.8443
  0
VERTEX
  8
LAYER_1
 10
178.8033
 20
161.8485
  0
SEQEND
  0
POLYLINE
  8
LAYER_1
 40
0.0212
 41
0.0212
 66
1
 10
0
 20
0
 30
0
  0
VERTEX
  8
LAYER_1
 10
178.8033
 20
160.8536
  0
VERTEX
  8
LAYER_1
 10
178.8033
 20
159.8588
  0
SEQEND
  0
POLYLINE
  8
LAYER_1
 40
0.0212
 41
0.0212
 66
1
 10
0
 20
0
 30
0
  0
VERTEX
  8
LAYER_1
 10
178.8033
 20
158.864
  0
VERTEX
  8
LAYER_1
 10
178.8033
 20
149.8681
  0
SEQEND
  0
POLYLINE
  8
LAYER_1
 40
0.0212
 41
0.0212
 66
1
 10
0
 20
0
 30
0
  0
VERTEX
  8
LAYER_1
 10
178.8033
 20
148.8521
  0
VERTEX
  8
LAYER_1
 10
178.8033
 20
147.8573
  0
SEQEND
  0
POLYLINE
  8
LAYER_1
 40
0.0212
 41
0.0212
 66
1
 10
0
 20
0
 30
0
  0
VERTEX
  8
LAYER_1
 10
178.8033
 20
146.8625
  0
VERTEX
  8
LAYER_1
 10
178.8033
 20
137.8666
  0
SEQEND
  0
POLYLINE
  8
LAYER_1
 40
0.0212
 41
0.0212
 66
1
 10
0
 20
0
 30
0
  0
VERTEX
  8
LAYER_1
 10
178.8033
 20
136.8718
  0
VERTEX
  8
LAYER_1
 10
178.8033
 20
135.877
  0
SEQEND
  0
POLYLINE
  8
LAYER_1
 40
0.0212
 41
0.0212
 66
1
 10
0
 20
0
 30
0
  0
VERTEX
  8
LAYER_1
 10
178.8033
 20
134.861
  0
VERTEX
  8
LAYER_1
 10
178.8033
 20
125.8651
  0
SEQEND
  0
POLYLINE
  8
LAYER_1
 40
0.0212
 41
0.0212
 66
1
 10
0
 20
0
 30
0
  0
VERTEX
  8
LAYER_1
 10
178.8033
 20
124.8703
  0
VERTEX
  8
LAYER_1
 10
178.8033
 20
123.8755
  0
SEQEND
  0
POLYLINE
  8
LAYER_1
 40
0.0212
 41
0.0212
 66
1
 10
0
 20
0
 30
0
  0
VERTEX
  8
LAYER_1
 10
178.8033
 20
122.8806
  0
VERTEX
  8
LAYER_1
 10
178.8033
 20
113.8848
  0
SEQEND
  0
POLYLINE
  8
LAYER_1
 40
0.0212
 41
0.0212
 66
1
 10
0
 20
0
 30
0
  0
VERTEX
  8
LAYER_1
 10
178.8033
 20
112.8688
  0
VERTEX
  8
LAYER_1
 10
178.8033
 20
111.8739
  0
SEQEND
  0
POLYLINE
  8
LAYER_1
 40
0.0212
 41
0.0212
 66
1
 10
0
 20
0
 30
0
  0
VERTEX
  8
LAYER_1
 10
178.8033
 20
110.8791
  0
VERTEX
  8
LAYER_1
 10
178.8033
 20
101.8833
  0
SEQEND
  0
POLYLINE
  8
LAYER_1
 40
0.0212
 41
0.0212
 66
1
 10
0
 20
0
 30
0
  0
VERTEX
  8
LAYER_1
 10
178.8033
 20
100.8884
  0
VERTEX
  8
LAYER_1
 10
178.8033
 20
99.8936
  0
SEQEND
  0
POLYLINE
  8
LAYER_1
 40
0.0212
 41
0.0212
 66
1
 10
0
 20
0
 30
0
  0
VERTEX
  8
LAYER_1
 10
178.8033
 20
98.8776
  0
VERTEX
  8
LAYER_1
 10
178.8033
 20
89.8818
  0
SEQEND
  0
POLYLINE
  8
LAYER_1
 40
0.0212
 41
0.0212
 66
1
 10
0
 20
0
 30
0
  0
VERTEX
  8
LAYER_1
 10
178.8033
 20
88.8869
  0
VERTEX
  8
LAYER_1
 10
178.8033
 20
87.8921
  0
SEQEND
  0
POLYLINE
  8
LAYER_1
 40
0.0212
 41
0.0212
 66
1
 10
0
 20
0
 30
0
  0
VERTEX
  8
LAYER_1
 10
178.8033
 20
86.8973
  0
VERTEX
  8
LAYER_1
 10
178.8033
 20
77.9014
  0
SEQEND
  0
POLYLINE
  8
LAYER_1
 40
0.0212
 41
0.0212
 66
1
 10
0
 20
0
 30
0
  0
VERTEX
  8
LAYER_1
 10
178.8033
 20
76.8854
  0
VERTEX
  8
LAYER_1
 10
178.8033
 20
75.8906
  0
SEQEND
  0
POLYLINE
  8
LAYER_1
 40
0.0212
 41
0.0212
 66
1
 10
0
 20
0
 30
0
  0
VERTEX
  8
LAYER_1
 10
178.8033
 20
74.8958
  0
VERTEX
  8
LAYER_1
 10
178.8033
 20
65.8999
  0
SEQEND
  0
POLYLINE
  8
LAYER_1
 40
0.0212
 41
0.0212
 66
1
 10
0
 20
0
 30
0
  0
VERTEX
  8
LAYER_1
 10
178.8033
 20
64.9051
  0
VERTEX
  8
LAYER_1
 10
178.8033
 20
63.9103
  0
SEQEND
  0
POLYLINE
  8
LAYER_1
 40
0.0212
 41
0.0212
 66
1
 10
0
 20
0
 30
0
  0
VERTEX
  8
LAYER_1
 10
178.8033
 20
62.8943
  0
VERTEX
  8
LAYER_1
 10
178.8033
 20
53.8984
  0
SEQEND
  0
POLYLINE
  8
LAYER_1
 40
0.0212
 41
0.0212
 66
1
 10
0
 20
0
 30
0
  0
VERTEX
  8
LAYER_1
 10
178.8033
 20
52.9036
  0
VERTEX
  8
LAYER_1
 10
178.8033
 20
51.9088
  0
SEQEND
  0
POLYLINE
  8
LAYER_1
 40
0.0212
 41
0.0212
 66
1
 10
0
 20
0
 30
0
  0
VERTEX
  8
LAYER_1
 10
178.8033
 20
50.9139
  0
VERTEX
  8
LAYER_1
 10
178.8033
 20
41.9181
  0
SEQEND
  0
POLYLINE
  8
LAYER_1
 40
0.0212
 41
0.0212
 66
1
 10
0
 20
0
 30
0
  0
VERTEX
  8
LAYER_1
 10
178.8033
 20
40.9021
  0
VERTEX
  8
LAYER_1
 10
178.8033
 20
39.9073
  0
SEQEND
  0
POLYLINE
  8
LAYER_1
 40
0.0212
 41
0.0212
 66
1
 10
0
 20
0
 30
0
  0
VERTEX
  8
LAYER_1
 10
178.8033
 20
38.9124
  0
VERTEX
  8
LAYER_1
 10
178.8033
 20
34.9754
  0
SEQEND
  0
POLYLINE
  8
LAYER_1
 40
0.0212
 41
0.0212
 66
1
 10
0
 20
0
 30
0
  0
VERTEX
  8
LAYER_1
 10
121.7803
 20
224.8616
  0
VERTEX
  8
LAYER_1
 10
124.9976
 20
224.8616
  0
SEQEND
  0
POLYLINE
  8
LAYER_1
 40
0.0212
 41
0.0212
 66
1
 10
0
 20
0
 30
0
  0
VERTEX
  8
LAYER_1
 10
125.9925
 20
224.8616
  0
VERTEX
  8
LAYER_1
 10
126.9873
 20
224.8616
  0
SEQEND
  0
POLYLINE
  8
LAYER_1
 40
0.0212
 41
0.0212
 66
1
 10
0
 20
0
 30
0
  0
VERTEX
  8
LAYER_1
 10
127.9821
 20
224.8616
  0
VERTEX
  8
LAYER_1
 10
136.978
 20
224.8616
  0
SEQEND
  0
POLYLINE
  8
LAYER_1
 40
0.0212
 41
0.0212
 66
1
 10
0
 20
0
 30
0
  0
VERTEX
  8
LAYER_1
 10
137.994
 20
224.8616
  0
VERTEX
  8
LAYER_1
 10
138.9888
 20
224.8616
  0
SEQEND
  0
POLYLINE
  8
LAYER_1
 40
0.0212
 41
0.0212
 66
1
 10
0
 20
0
 30
0
  0
VERTEX
  8
LAYER_1
 10
139.9837
 20
224.8616
  0
VERTEX
  8
LAYER_1
 10
148.9795
 20
224.8616
  0
SEQEND
  0
POLYLINE
  8
LAYER_1
 40
0.0212
 41
0.0212
 66
1
 10
0
 20
0
 30
0
  0
VERTEX
  8
LAYER_1
 10
149.9743
 20
224.8616
  0
VERTEX
  8
LAYER_1
 10
150.9903
 20
224.8616
  0
SEQEND
  0
POLYLINE
  8
LAYER_1
 40
0.0212
 41
0.0212
 66
1
 10
0
 20
0
 30
0
  0
VERTEX
  8
LAYER_1
 10
151.9852
 20
224.8616
  0
VERTEX
  8
LAYER_1
 10
155.1813
 20
224.8616
  0
SEQEND
  0
POLYLINE
  8
LAYER_1
 40
0.0212
 41
0.0212
 66
1
 10
0
 20
0
 30
0
  0
VERTEX
  8
LAYER_1
 10
143.5608
 20
237.7309
  0
VERTEX
  8
LAYER_1
 10
143.5608
 20
234.7252
  0
SEQEND
  0
POLYLINE
  8
LAYER_1
 40
0.0212
 41
0.0212
 66
1
 10
0
 20
0
 30
0
  0
VERTEX
  8
LAYER_1
 10
143.5608
 20
233.7304
  0
VERTEX
  8
LAYER_1
 10
143.5608
 20
232.7356
  0
SEQEND
  0
POLYLINE
  8
LAYER_1
 40
0.0212
 41
0.0212
 66
1
 10
0
 20
0
 30
0
  0
VERTEX
  8
LAYER_1
 10
143.5608
 20
231.7407
  0
VERTEX
  8
LAYER_1
 10
143.5608
 20
222.7449
  0
SEQEND
  0
POLYLINE
  8
LAYER_1
 40
0.0212
 41
0.0212
 66
1
 10
0
 20
0
 30
0
  0
VERTEX
  8
LAYER_1
 10
143.5608
 20
221.7289
  0
VERTEX
  8
LAYER_1
 10
143.5608
 20
220.7341
  0
SEQEND
  0
POLYLINE
  8
LAYER_1
 40
0.0212
 41
0.0212
 66
1
 10
0
 20
0
 30
0
  0
VERTEX
  8
LAYER_1
 10
143.5608
 20
219.7392
  0
VERTEX
  8
LAYER_1
 10
143.5608
 20
210.7434
  0
SEQEND
  0
POLYLINE
  8
LAYER_1
 40
0.0212
 41
0.0212
 66
1
 10
0
 20
0
 30
0
  0
VERTEX
  8
LAYER_1
 10
143.5608
 20
209.7485
  0
VERTEX
  8
LAYER_1
 10
143.5608
 20
208.7537
  0
SEQEND
  0
POLYLINE
  8
LAYER_1
 40
0.0212
 41
0.0212
 66
1
 10
0
 20
0
 30
0
  0
VERTEX
  8
LAYER_1
 10
143.5608
 20
207.7377
  0
VERTEX
  8
LAYER_1
 10
143.5608
 20
198.7419
  0
SEQEND
  0
POLYLINE
  8
LAYER_1
 40
0.0212
 41
0.0212
 66
1
 10
0
 20
0
 30
0
  0
VERTEX
  8
LAYER_1
 10
143.5608
 20
197.747
  0
VERTEX
  8
LAYER_1
 10
143.5608
 20
196.7522
  0
SEQEND
  0
POLYLINE
  8
LAYER_1
 40
0.0212
 41
0.0212
 66
1
 10
0
 20
0
 30
0
  0
VERTEX
  8
LAYER_1
 10
143.5608
 20
195.7574
  0
VERTEX
  8
LAYER_1
 10
143.5608
 20
186.7615
  0
SEQEND
  0
POLYLINE
  8
LAYER_1
 40
0.0212
 41
0.0212
 66
1
 10
0
 20
0
 30
0
  0
VERTEX
  8
LAYER_1
 10
143.5608
 20
185.7455
  0
VERTEX
  8
LAYER_1
 10
143.5608
 20
184.7507
  0
SEQEND
  0
POLYLINE
  8
LAYER_1
 40
0.0212
 41
0.0212
 66
1
 10
0
 20
0
 30
0
  0
VERTEX
  8
LAYER_1
 10
143.5608
 20
183.7559
  0
VERTEX
  8
LAYER_1
 10
143.5608
 20
174.76
  0
SEQEND
  0
POLYLINE
  8
LAYER_1
 40
0.0212
 41
0.0212
 66
1
 10
0
 20
0
 30
0
  0
VERTEX
  8
LAYER_1
 10
143.5608
 20
173.7652
  0
VERTEX
  8
LAYER_1
 10
143.5608
 20
172.7704
  0
SEQEND
  0
POLYLINE
  8
LAYER_1
 40
0.0212
 41
0.0212
 66
1
 10
0
 20
0
 30
0
  0
VERTEX
  8
LAYER_1
 10
143.5608
 20
171.7544
  0
VERTEX
  8
LAYER_1
 10
143.5608
 20
162.7585
  0
SEQEND
  0
POLYLINE
  8
LAYER_1
 40
0.0212
 41
0.0212
 66
1
 10
0
 20
0
 30
0
  0
VERTEX
  8
LAYER_1
 10
143.5608
 20
161.7637
  0
VERTEX
  8
LAYER_1
 10
143.5608
 20
160.7689
  0
SEQEND
  0
POLYLINE
  8
LAYER_1
 40
0.0212
 41
0.0212
 66
1
 10
0
 20
0
 30
0
  0
VERTEX
  8
LAYER_1
 10
143.5608
 20
159.774
  0
VERTEX
  8
LAYER_1
 10
143.5608
 20
150.7782
  0
SEQEND
  0
POLYLINE
  8
LAYER_1
 40
0.0212
 41
0.0212
 66
1
 10
0
 20
0
 30
0
  0
VERTEX
  8
LAYER_1
 10
143.5608
 20
149.7622
  0
VERTEX
  8
LAYER_1
 10
143.5608
 20
148.7673
  0
SEQEND
  0
POLYLINE
  8
LAYER_1
 40
0.0212
 41
0.0212
 66
1
 10
0
 20
0
 30
0
  0
VERTEX
  8
LAYER_1
 10
143.5608
 20
147.7725
  0
VERTEX
  8
LAYER_1
 10
143.5608
 20
138.7767
  0
SEQEND
  0
POLYLINE
  8
LAYER_1
 40
0.0212
 41
0.0212
 66
1
 10
0
 20
0
 30
0
  0
VERTEX
  8
LAYER_1
 10
143.5608
 20
137.7818
  0
VERTEX
  8
LAYER_1
 10
143.5608
 20
136.787
  0
SEQEND
  0
POLYLINE
  8
LAYER_1
 40
0.0212
 41
0.0212
 66
1
 10
0
 20
0
 30
0
  0
VERTEX
  8
LAYER_1
 10
143.5608
 20
135.771
  0
VERTEX
  8
LAYER_1
 10
143.5608
 20
126.7752
  0
SEQEND
  0
POLYLINE
  8
LAYER_1
 40
0.0212
 41
0.0212
 66
1
 10
0
 20
0
 30
0
  0
VERTEX
  8
LAYER_1
 10
143.5608
 20
125.7805
  0
VERTEX
  8
LAYER_1
 10
143.5608
 20
124.7857
  0
SEQEND
  0
POLYLINE
  8
LAYER_1
 40
0.0212
 41
0.0212
 66
1
 10
0
 20
0
 30
0
  0
VERTEX
  8
LAYER_1
 10
143.5608
 20
123.7908
  0
VERTEX
  8
LAYER_1
 10
143.5608
 20
114.795
  0
SEQEND
  0
POLYLINE
  8
LAYER_1
 40
0.0212
 41
0.0212
 66
1
 10
0
 20
0
 30
0
  0
VERTEX
  8
LAYER_1
 10
143.5608
 20
113.779
  0
VERTEX
  8
LAYER_1
 10
143.5608
 20
112.7842
  0
SEQEND
  0
POLYLINE
  8
LAYER_1
 40
0.0212
 41
0.0212
 66
1
 10
0
 20
0
 30
0
  0
VERTEX
  8
LAYER_1
 10
143.5608
 20
111.7893
  0
VERTEX
  8
LAYER_1
 10
143.5608
 20
102.7935
  0
SEQEND
  0
POLYLINE
  8
LAYER_1
 40
0.0212
 41
0.0212
 66
1
 10
0
 20
0
 30
0
  0
VERTEX
  8
LAYER_1
 10
143.5608
 20
101.7987
  0
VERTEX
  8
LAYER_1
 10
143.5608
 20
100.8038
  0
SEQEND
  0
POLYLINE
  8
LAYER_1
 40
0.0212
 41
0.0212
 66
1
 10
0
 20
0
 30
0
  0
VERTEX
  8
LAYER_1
 10
143.5608
 20
99.7878
  0
VERTEX
  8
LAYER_1
 10
143.5608
 20
90.792
  0
SEQEND
  0
POLYLINE
  8
LAYER_1
 40
0.0212
 41
0.0212
 66
1
 10
0
 20
0
 30
0
  0
VERTEX
  8
LAYER_1
 10
143.5608
 20
89.7972
  0
VERTEX
  8
LAYER_1
 10
143.5608
 20
88.8023
  0
SEQEND
  0
POLYLINE
  8
LAYER_1
 40
0.0212
 41
0.0212
 66
1
 10
0
 20
0
 30
0
  0
VERTEX
  8
LAYER_1
 10
143.5608
 20
87.8075
  0
VERTEX
  8
LAYER_1
 10
143.5608
 20
78.8117
  0
SEQEND
  0
POLYLINE
  8
LAYER_1
 40
0.0212
 41
0.0212
 66
1
 10
0
 20
0
 30
0
  0
VERTEX
  8
LAYER_1
 10
143.5608
 20
77.7957
  0
VERTEX
  8
LAYER_1
 10
143.5608
 20
76.8008
  0
SEQEND
  0
POLYLINE
  8
LAYER_1
 40
0.0212
 41
0.0212
 66
1
 10
0
 20
0
 30
0
  0
VERTEX
  8
LAYER_1
 10
143.5608
 20
75.806
  0
VERTEX
  8
LAYER_1
 10
143.5608
 20
66.8102
  0
SEQEND
  0
POLYLINE
  8
LAYER_1
 40
0.0212
 41
0.0212
 66
1
 10
0
 20
0
 30
0
  0
VERTEX
  8
LAYER_1
 10
143.5608
 20
65.8153
  0
VERTEX
  8
LAYER_1
 10
143.5608
 20
64.8205
  0
SEQEND
  0
POLYLINE
  8
LAYER_1
 40
0.0212
 41
0.0212
 66
1
 10
0
 20
0
 30
0
  0
VERTEX
  8
LAYER_1
 10
143.5608
 20
63.8045
  0
VERTEX
  8
LAYER_1
 10
143.5608
 20
54.8087
  0
SEQEND
  0
POLYLINE
  8
LAYER_1
 40
0.0212
 41
0.0212
 66
1
 10
0
 20
0
 30
0
  0
VERTEX
  8
LAYER_1
 10
143.5608
 20
53.8138
  0
VERTEX
  8
LAYER_1
 10
143.5608
 20
52.819
  0
SEQEND
  0
POLYLINE
  8
LAYER_1
 40
0.0212
 41
0.0212
 66
1
 10
0
 20
0
 30
0
  0
VERTEX
  8
LAYER_1
 10
143.5608
 20
51.8242
  0
VERTEX
  8
LAYER_1
 10
143.5608
 20
42.8283
  0
SEQEND
  0
POLYLINE
  8
LAYER_1
 40
0.0212
 41
0.0212
 66
1
 10
0
 20
0
 30
0
  0
VERTEX
  8
LAYER_1
 10
143.5608
 20
41.8123
  0
VERTEX
  8
LAYER_1
 10
143.5608
 20
40.8175
  0
SEQEND
  0
POLYLINE
  8
LAYER_1
 40
0.0212
 41
0.0212
 66
1
 10
0
 20
0
 30
0
  0
VERTEX
  8
LAYER_1
 10
143.5608
 20
39.8227
  0
VERTEX
  8
LAYER_1
 10
143.5608
 20
36.7958
  0
SEQEND
  0
POLYLINE
  8
LAYER_1
 40
0.0212
 41
0.0212
 66
1
 10
0
 20
0
 30
0
  0
VERTEX
  8
LAYER_1
 10
93.0148
 20
162.9915
  0
VERTEX
  8
LAYER_1
 10
93.0148
 20
154.5672
  0
SEQEND
  0
POLYLINE
  8
LAYER_1
 40
0.0212
 41
0.0212
 66
1
 10
0
 20
0
 30
0
  0
VERTEX
  8
LAYER_1
 10
93.0148
 20
153.5723
  0
VERTEX
  8
LAYER_1
 10
93.0148
 20
152.5775
  0
SEQEND
  0
POLYLINE
  8
LAYER_1
 40
0.0212
 41
0.0212
 66
1
 10
0
 20
0
 30
0
  0
VERTEX
  8
LAYER_1
 10
93.0148
 20
151.5615
  0
VERTEX
  8
LAYER_1
 10
93.0148
 20
142.5657
  0
SEQEND
  0
POLYLINE
  8
LAYER_1
 40
0.0212
 41
0.0212
 66
1
 10
0
 20
0
 30
0
  0
VERTEX
  8
LAYER_1
 10
93.0148
 20
141.5708
  0
VERTEX
  8
LAYER_1
 10
93.0148
 20
140.576
  0
SEQEND
  0
POLYLINE
  8
LAYER_1
 40
0.0212
 41
0.0212
 66
1
 10
0
 20
0
 30
0
  0
VERTEX
  8
LAYER_1
 10
93.0148
 20
139.5811
  0
VERTEX
  8
LAYER_1
 10
93.0148
 20
130.5853
  0
SEQEND
  0
POLYLINE
  8
LAYER_1
 40
0.0212
 41
0.0212
 66
1
 10
0
 20
0
 30
0
  0
VERTEX
  8
LAYER_1
 10
93.0148
 20
129.5905
  0
VERTEX
  8
LAYER_1
 10
93.0148
 20
128.5745
  0
SEQEND
  0
POLYLINE
  8
LAYER_1
 40
0.0212
 41
0.0212
 66
1
 10
0
 20
0
 30
0
  0
VERTEX
  8
LAYER_1
 10
93.0148
 20
127.5796
  0
VERTEX
  8
LAYER_1
 10
93.0148
 20
118.5838
  0
SEQEND
  0
POLYLINE
  8
LAYER_1
 40
0.0212
 41
0.0212
 66
1
 10
0
 20
0
 30
0
  0
VERTEX
  8
LAYER_1
 10
93.0148
 20
117.589
  0
VERTEX
  8
LAYER_1
 10
93.0148
 20
116.5941
  0
SEQEND
  0
POLYLINE
  8
LAYER_1
 40
0.0212
 41
0.0212
 66
1
 10
0
 20
0
 30
0
  0
VERTEX
  8
LAYER_1
 10
93.0148
 20
115.5781
  0
VERTEX
  8
LAYER_1
 10
93.0148
 20
106.5823
  0
SEQEND
  0
POLYLINE
  8
LAYER_1
 40
0.0212
 41
0.0212
 66
1
 10
0
 20
0
 30
0
  0
VERTEX
  8
LAYER_1
 10
93.0148
 20
105.5875
  0
VERTEX
  8
LAYER_1
 10
93.0148
 20
104.5926
  0
SEQEND
  0
POLYLINE
  8
LAYER_1
 40
0.0212
 41
0.0212
 66
1
 10
0
 20
0
 30
0
  0
VERTEX
  8
LAYER_1
 10
93.0148
 20
103.5978
  0
VERTEX
  8
LAYER_1
 10
93.0148
 20
94.602
  0
SEQEND
  0
POLYLINE
  8
LAYER_1
 40
0.0212
 41
0.0212
 66
1
 10
0
 20
0
 30
0
  0
VERTEX
  8
LAYER_1
 10
93.0148
 20
93.6071
  0
VERTEX
  8
LAYER_1
 10
93.0148
 20
92.5911
  0
SEQEND
  0
POLYLINE
  8
LAYER_1
 40
0.0212
 41
0.0212
 66
1
 10
0
 20
0
 30
0
  0
VERTEX
  8
LAYER_1
 10
93.0148
 20
91.5963
  0
VERTEX
  8
LAYER_1
 10
93.0148
 20
82.6005
  0
SEQEND
  0
POLYLINE
  8
LAYER_1
 40
0.0212
 41
0.0212
 66
1
 10
0
 20
0
 30
0
  0
VERTEX
  8
LAYER_1
 10
93.0148
 20
81.6056
  0
VERTEX
  8
LAYER_1
 10
93.0148
 20
80.6108
  0
SEQEND
  0
POLYLINE
  8
LAYER_1
 40
0.0212
 41
0.0212
 66
1
 10
0
 20
0
 30
0
  0
VERTEX
  8
LAYER_1
 10
93.0148
 20
79.5948
  0
VERTEX
  8
LAYER_1
 10
93.0148
 20
70.5989
  0
SEQEND
  0
POLYLINE
  8
LAYER_1
 40
0.0212
 41
0.0212
 66
1
 10
0
 20
0
 30
0
  0
VERTEX
  8
LAYER_1
 10
93.0148
 20
69.6041
  0
VERTEX
  8
LAYER_1
 10
93.0148
 20
68.6093
  0
SEQEND
  0
POLYLINE
  8
LAYER_1
 40
0.0212
 41
0.0212
 66
1
 10
0
 20
0
 30
0
  0
VERTEX
  8
LAYER_1
 10
93.0148
 20
67.6144
  0
VERTEX
  8
LAYER_1
 10
93.0148
 20
58.6186
  0
SEQEND
  0
POLYLINE
  8
LAYER_1
 40
0.0212
 41
0.0212
 66
1
 10
0
 20
0
 30
0
  0
VERTEX
  8
LAYER_1
 10
93.0148
 20
57.6238
  0
VERTEX
  8
LAYER_1
 10
93.0148
 20
56.6078
  0
SEQEND
  0
POLYLINE
  8
LAYER_1
 40
0.0212
 41
0.0212
 66
1
 10
0
 20
0
 30
0
  0
VERTEX
  8
LAYER_1
 10
93.0148
 20
55.6129
  0
VERTEX
  8
LAYER_1
 10
93.0148
 20
46.6171
  0
SEQEND
  0
POLYLINE
  8
LAYER_1
 40
0.0212
 41
0.0212
 66
1
 10
0
 20
0
 30
0
  0
VERTEX
  8
LAYER_1
 10
93.0148
 20
45.6223
  0
VERTEX
  8
LAYER_1
 10
93.0148
 20
44.6274
  0
SEQEND
  0
POLYLINE
  8
LAYER_1
 40
0.0212
 41
0.0212
 66
1
 10
0
 20
0
 30
0
  0
VERTEX
  8
LAYER_1
 10
93.0148
 20
43.6115
  0
VERTEX
  8
LAYER_1
 10
93.0148
 20
35.2083
  0
SEQEND
  0
POLYLINE
  8
LAYER_1
 40
0.0212
 41
0.0212
 66
1
 10
0
 20
0
 30
0
  0
VERTEX
  8
LAYER_1
 10
61.2648
 20
162.9915
  0
VERTEX
  8
LAYER_1
 10
61.2648
 20
154.5671
  0
SEQEND
  0
POLYLINE
  8
LAYER_1
 40
0.0212
 41
0.0212
 66
1
 10
0
 20
0
 30
0
  0
VERTEX
  8
LAYER_1
 10
61.2648
 20
153.5723
  0
VERTEX
  8
LAYER_1
 10
61.2648
 20
152.5774
  0
SEQEND
  0
POLYLINE
  8
LAYER_1
 40
0.0212
 41
0.0212
 66
1
 10
0
 20
0
 30
0
  0
VERTEX
  8
LAYER_1
 10
61.2648
 20
151.5614
  0
VERTEX
  8
LAYER_1
 10
61.2648
 20
142.5656
  0
SEQEND
  0
POLYLINE
  8
LAYER_1
 40
0.0212
 41
0.0212
 66
1
 10
0
 20
0
 30
0
  0
VERTEX
  8
LAYER_1
 10
61.2648
 20
141.5708
  0
VERTEX
  8
LAYER_1
 10
61.2648
 20
140.5759
  0
SEQEND
  0
POLYLINE
  8
LAYER_1
 40
0.0212
 41
0.0212
 66
1
 10
0
 20
0
 30
0
  0
VERTEX
  8
LAYER_1
 10
61.2648
 20
139.5811
  0
VERTEX
  8
LAYER_1
 10
61.2648
 20
130.5853
  0
SEQEND
  0
POLYLINE
  8
LAYER_1
 40
0.0212
 41
0.0212
 66
1
 10
0
 20
0
 30
0
  0
VERTEX
  8
LAYER_1
 10
61.2648
 20
129.5904
  0
VERTEX
  8
LAYER_1
 10
61.2648
 20
128.5744
  0
SEQEND
  0
POLYLINE
  8
LAYER_1
 40
0.0212
 41
0.0212
 66
1
 10
0
 20
0
 30
0
  0
VERTEX
  8
LAYER_1
 10
61.2648
 20
127.5796
  0
VERTEX
  8
LAYER_1
 10
61.2648
 20
118.5838
  0
SEQEND
  0
POLYLINE
  8
LAYER_1
 40
0.0212
 41
0.0212
 66
1
 10
0
 20
0
 30
0
  0
VERTEX
  8
LAYER_1
 10
61.2648
 20
117.5889
  0
VERTEX
  8
LAYER_1
 10
61.2648
 20
116.5941
  0
SEQEND
  0
POLYLINE
  8
LAYER_1
 40
0.0212
 41
0.0212
 66
1
 10
0
 20
0
 30
0
  0
VERTEX
  8
LAYER_1
 10
61.2648
 20
115.5781
  0
VERTEX
  8
LAYER_1
 10
61.2648
 20
106.5823
  0
SEQEND
  0
POLYLINE
  8
LAYER_1
 40
0.0212
 41
0.0212
 66
1
 10
0
 20
0
 30
0
  0
VERTEX
  8
LAYER_1
 10
61.2648
 20
105.5874
  0
VERTEX
  8
LAYER_1
 10
61.2648
 20
104.5926
  0
SEQEND
  0
POLYLINE
  8
LAYER_1
 40
0.0212
 41
0.0212
 66
1
 10
0
 20
0
 30
0
  0
VERTEX
  8
LAYER_1
 10
61.2648
 20
103.5978
  0
VERTEX
  8
LAYER_1
 10
61.2648
 20
94.6019
  0
SEQEND
  0
POLYLINE
  8
LAYER_1
 40
0.0212
 41
0.0212
 66
1
 10
0
 20
0
 30
0
  0
VERTEX
  8
LAYER_1
 10
61.2648
 20
93.6071
  0
VERTEX
  8
LAYER_1
 10
61.2648
 20
92.5911
  0
SEQEND
  0
POLYLINE
  8
LAYER_1
 40
0.0212
 41
0.0212
 66
1
 10
0
 20
0
 30
0
  0
VERTEX
  8
LAYER_1
 10
61.2648
 20
91.5962
  0
VERTEX
  8
LAYER_1
 10
61.2648
 20
82.6004
  0
SEQEND
  0
POLYLINE
  8
LAYER_1
 40
0.0212
 41
0.0212
 66
1
 10
0
 20
0
 30
0
  0
VERTEX
  8
LAYER_1
 10
61.2648
 20
81.6056
  0
VERTEX
  8
LAYER_1
 10
61.2648
 20
80.6107
  0
SEQEND
  0
POLYLINE
  8
LAYER_1
 40
0.0212
 41
0.0212
 66
1
 10
0
 20
0
 30
0
  0
VERTEX
  8
LAYER_1
 10
61.2648
 20
79.5947
  0
VERTEX
  8
LAYER_1
 10
61.2648
 20
70.5989
  0
SEQEND
  0
POLYLINE
  8
LAYER_1
 40
0.0212
 41
0.0212
 66
1
 10
0
 20
0
 30
0
  0
VERTEX
  8
LAYER_1
 10
61.2648
 20
69.6041
  0
VERTEX
  8
LAYER_1
 10
61.2648
 20
68.6092
  0
SEQEND
  0
POLYLINE
  8
LAYER_1
 40
0.0212
 41
0.0212
 66
1
 10
0
 20
0
 30
0
  0
VERTEX
  8
LAYER_1
 10
61.2648
 20
67.6144
  0
VERTEX
  8
LAYER_1
 10
61.2648
 20
58.6186
  0
SEQEND
  0
POLYLINE
  8
LAYER_1
 40
0.0212
 41
0.0212
 66
1
 10
0
 20
0
 30
0
  0
VERTEX
  8
LAYER_1
 10
61.2648
 20
57.6237
  0
VERTEX
  8
LAYER_1
 10
61.2648
 20
56.6077
  0
SEQEND
  0
POLYLINE
  8
LAYER_1
 40
0.0212
 41
0.0212
 66
1
 10
0
 20
0
 30
0
  0
VERTEX
  8
LAYER_1
 10
61.2648
 20
55.6129
  0
VERTEX
  8
LAYER_1
 10
61.2648
 20
46.6171
  0
SEQEND
  0
POLYLINE
  8
LAYER_1
 40
0.0212
 41
0.0212
 66
1
 10
0
 20
0
 30
0
  0
VERTEX
  8
LAYER_1
 10
61.2648
 20
45.6222
  0
VERTEX
  8
LAYER_1
 10
61.2648
 20
44.6274
  0
SEQEND
  0
POLYLINE
  8
LAYER_1
 40
0.0212
 41
0.0212
 66
1
 10
0
 20
0
 30
0
  0
VERTEX
  8
LAYER_1
 10
61.2648
 20
43.6114
  0
VERTEX
  8
LAYER_1
 10
61.2648
 20
35.2082
  0
SEQEND
  0
TEXT
  8
LAYER_7
 10
18.4399
 20
5.4632
 11
18.4399
 21
5.4632
 40
3.2995
 41
0.5
  1
仕様
  0
POLYLINE
  8
LAYER_7
 40
0.3528
 41
0.3528
 66
1
 10
0
 20
0
 30
0
  0
VERTEX
  8
LAYER_7
 10
205.0762
 20
10.8455
  0
VERTEX
  8
LAYER_7
 10
17.0763
 20
10.8455
  0
SEQEND
  0
INSERT
  8
LAYER_7
  2
AIGNBL07010002
 10
0
 20
0
 30
0
  0
POLYLINE
  8
LAYER_7
 40
0.3528
 41
0.3528
 66
1
 10
0
 20
0
 30
0
  0
VERTEX
  8
LAYER_7
 10
17.0763
 20
268.2234
  0
VERTEX
  8
LAYER_7
 10
17.0763
 20
-6.7769
  0
VERTEX
  8
LAYER_7
 10
205.0762
 20
-6.7769
  0
VERTEX
  8
LAYER_7
 10
205.0762
 20
268.2234
  0
VERTEX
  8
LAYER_7
 10
17.0763
 20
268.2234
  0
SEQEND
  0
POLYLINE
  8
LAYER_7
 40
0.3528
 41
0.3528
 66
1
 10
0
 20
0
 30
0
  0
VERTEX
  8
LAYER_7
 10
205.0762
 20
19.3546
  0
VERTEX
  8
LAYER_7
 10
17.0763
 20
19.3546
  0
SEQEND
  0
POLYLINE
  8
LAYER_7
 40
0.3528
 41
0.3528
 66
1
 10
0
 20
0
 30
0
  0
VERTEX
  8
LAYER_7
 10
205.0762
 20
2.3365
  0
VERTEX
  8
LAYER_7
 10
127.3025
 20
2.3365
  0
SEQEND
  0
TEXT
  8
LAYER_7
 10
157.5084
 20
4.6123
 11
157.5084
 21
4.6123
 40
3.7615
 41
0.5
  1
-
  0
TEXT
  8
LAYER_7
 10
152.2167
 20
8.3692
 11
152.2167
 21
8.3692
 40
2.1997
 41
0.5
  1
縮尺
  0
POLYLINE
  8
LAYER_7
 40
0.3528
 41
0.3528
 66
1
 10
0
 20
0
 30
0
  0
VERTEX
  8
LAYER_7
 10
150.6885
 20
2.3365
  0
VERTEX
  8
LAYER_7
 10
150.6885
 20
10.8455
  0
SEQEND
  0
TEXT
  8
LAYER_7
 10
128.0011
 20
16.8782
 11
128.0011
 21
16.8782
 40
2.1997
 41
0.5
  1
品番
  0
TEXT
  8
LAYER_7
 10
18.2332
 20
16.8782
 11
18.2332
 21
16.8782
 40
2.1997
 41
0.5
  1
品名
  0
TEXT
  8
LAYER_7
 10
128.0011
 20
8.3692
 11
128.0011
 21
8.3692
 40
2.1997
 41
0.5
  1
重量
  0
TEXT
  8
LAYER_7
 10
135.5345
 20
13.0462
 11
135.5345
 21
13.0462
 40
5.9385
 41
0.5
  1
AQ-MZ21AD-L
  0
TEXT
  8
LAYER_7
 10
133.3138
 20
4.6123
 11
133.3138
 21
4.6123
 40
3.7615
 41
0.5
  1
-
  0
POLYLINE
  8
LAYER_7
 40
0.3528
 41
0.3528
 66
1
 10
0
 20
0
 30
0
  0
VERTEX
  8
LAYER_7
 10
127.3025
 20
-6.1512
  0
VERTEX
  8
LAYER_7
 10
127.3025
 20
19.3546
  0
SEQEND
  0
TEXT
  8
LAYER_7
 10
24.5084
 20
13.7859
 11
24.5084
 21
13.7859
 40
3.6373
 41
0.5
  1
可変式ストレート形止水栓
  0
TEXT
  8
LAYER_7
 10
29.012
 20
6.2546
 11
29.012
 21
6.2546
 40
3.258
 41
0.5
  1
●クロム●JIS
  0
TEXT
  8
LAYER_7
 10
191.6644
 20
22.153
 11
191.6644
 21
22.153
 40
2.9618
 41
0.5
  1
単位：mm
  0
TEXT
  8
LAYER_7
 10
192.6441
 20
263.5136
 11
192.6441
 21
263.5136
 40
2.0732
 41
0.5
  1
20220120RT
  0
TEXT
  8
LAYER_7
 10
154.3861
 20
-1.5679
 11
154.3861
 21
-1.5679
 40
2.8694
 41
0.5
  1
●TEL 0120-65-1232●FAX 06-6532-1580
  0
TEXT
  8
LAYER_7
 10
154.3861
 20
-4.5472
 11
154.3861
 21
-4.5472
 40
2.8694
 41
0.5
  1
hits@hiratatile.co.jp
  0
INSERT
  8
LAYER_7
  2
AIGNBL07010003
 10
0
 20
0
 30
0
  0
ENDSEC
  0
EOF
