  0
SECTION
  2
HEADER
  9
$ACADVER
  1
AC1009
  9
$LUNITS
 70
2
  9
$LUPREC
 70
4
  9
$LTSCALE
 40
1.0
  9
$EXTMIN
 10
16.0764
 20
-7.7766
 30
0
  9
$EXTMAX
 10
206.0763
 20
269.2235
 30
0
  0
ENDSEC
  0
SECTION
  2
TABLES
  0
TABLE
  2
LTYPE
 70
256
  0
LTYPE
  2
AIGENLINE001
 70
64
  3
generate AI->DXF Converter
 72
65
 73
6
 40
1.4111
 49
0.7056
 49
-0.7056
 49
0
 49
0
 49
0
 49
0
  0
ENDTAB
  0
TABLE
  2
LAYER
 70
7
  0
LAYER
  2
LAYER_1
 70
64
 62
7
  6
CONTINUOUS
  0
LAYER
  2
LAYER_2
 70
64
 62
7
  6
CONTINUOUS
  0
LAYER
  2
LAYER_3
 70
64
 62
7
  6
CONTINUOUS
  0
LAYER
  2
LAYER_4
 70
64
 62
7
  6
CONTINUOUS
  0
LAYER
  2
LAYER_5
 70
64
 62
7
  6
CONTINUOUS
  0
LAYER
  2
LAYER_6
 70
64
 62
7
  6
CONTINUOUS
  0
LAYER
  2
LAYER_7
 70
64
 62
7
  6
CONTINUOUS
  0
ENDTAB
  0
TABLE
  2
STYLE
 70
6
  0
STYLE
  2
STANDARD
 70
0
 40
0
 50
0
 71
0
 41
0
 42
0
  3
TXT
  4
BIGFONT
  0
ENDTAB
  0
ENDSEC
  0
SECTION
  2
BLOCKS
  0
BLOCK
  8
LAYER_7
  2
AIGNBL07040006
 70
64
 10
0
 20
0
 30
0
  3
AIGNBL07040006
  0
POLYLINE
  8
LAYER_7
 40
0.05
 41
0.05
 66
1
 10
0
 20
0
 30
0
 70
1
  0
VERTEX
  8
LAYER_7
 10
129.5759
 20
-1.9017
  0
VERTEX
  8
LAYER_7
 10
129.1615
 20
-2.9063
  0
VERTEX
  8
LAYER_7
 10
128.6292
 20
-2.9063
  0
VERTEX
  8
LAYER_7
 10
129.9848
 20
0.2856
  0
VERTEX
  8
LAYER_7
 10
130.6063
 20
0.2856
  0
VERTEX
  8
LAYER_7
 10
131.9682
 20
-2.9063
  0
VERTEX
  8
LAYER_7
 10
131.417
 20
-2.9063
  0
VERTEX
  8
LAYER_7
 10
130.9908
 20
-1.9017
  0
SEQEND
  0
POLYLINE
  8
LAYER_7
 40
0.05
 41
0.05
 66
1
 10
0
 20
0
 30
0
 70
1
  0
VERTEX
  8
LAYER_7
 10
130.8843
 20
-1.5806
  0
VERTEX
  8
LAYER_7
 10
130.4937
 20
-0.6611
 42
-0.02231634433
  0
VERTEX
  8
LAYER_7
 10
130.2863
 20
-0.0789
  0
VERTEX
  8
LAYER_7
 10
130.2746
 20
-0.0789
  0
VERTEX
  8
LAYER_7
 10
130.073
 20
-0.6573
  0
VERTEX
  8
LAYER_7
 10
129.6827
 20
-1.5806
  0
SEQEND
  0
ENDBLK
  0
BLOCK
  8
LAYER_7
  2
AIGNBL07040007
 70
64
 10
0
 20
0
 30
0
  3
AIGNBL07040007
  0
POLYLINE
  8
LAYER_7
 40
0.05
 41
0.05
 66
1
 10
0
 20
0
 30
0
 70
1
  0
VERTEX
  8
LAYER_7
 10
135.6682
 20
-3.3752
 42
-0.01546784356
  0
VERTEX
  8
LAYER_7
 10
134.1406
 20
-3.0055
 42
0.09489436555
  0
VERTEX
  8
LAYER_7
 10
133.8978
 20
-2.9586
 42
-0.10037316
  0
VERTEX
  8
LAYER_7
 10
133.0334
 20
-2.7616
 42
-0.109711943
  0
VERTEX
  8
LAYER_7
 10
132.4708
 20
-2.3298
 42
-0.1713268648
  0
VERTEX
  8
LAYER_7
 10
132.1403
 20
-1.3917
 42
-0.006480698287
  0
VERTEX
  8
LAYER_7
 10
132.1397
 20
-1.3439
 42
-0.1157034776
  0
VERTEX
  8
LAYER_7
 10
132.3143
 20
-0.5737
 42
-0.1679073219
  0
VERTEX
  8
LAYER_7
 10
133.0508
 20
0.1353
 42
-0.1003512093
  0
VERTEX
  8
LAYER_7
 10
133.8492
 20
0.3333
 42
-0.01509702754
  0
VERTEX
  8
LAYER_7
 10
133.9987
 20
0.3376
 42
-0.1039792847
  0
VERTEX
  8
LAYER_7
 10
134.8741
 20
0.1618
 42
-0.1145979469
  0
VERTEX
  8
LAYER_7
 10
135.4472
 20
-0.2739
 42
-0.1701831437
  0
VERTEX
  8
LAYER_7
 10
135.7859
 20
-1.2334
 42
-0.006053583771
  0
VERTEX
  8
LAYER_7
 10
135.7864
 20
-1.2774
 42
-0.1147423235
  0
VERTEX
  8
LAYER_7
 10
135.6161
 20
-2.0449
 42
-0.1769022546
  0
VERTEX
  8
LAYER_7
 10
134.889
 20
-2.7221
 42
-0.03554750027
  0
VERTEX
  8
LAYER_7
 10
134.6498
 20
-2.8071
  0
VERTEX
  8
LAYER_7
 10
134.6498
 20
-2.826
 42
0.01550615466
  0
VERTEX
  8
LAYER_7
 10
135.8163
 20
-3.0296
  0
SEQEND
  0
POLYLINE
  8
LAYER_7
 40
0.05
 41
0.05
 66
1
 10
0
 20
0
 30
0
 70
1
  0
VERTEX
  8
LAYER_7
 10
135.242
 20
-1.2957
 42
0.1259408456
  0
VERTEX
  8
LAYER_7
 10
135.0661
 20
-0.6047
 42
0.2766861333
  0
VERTEX
  8
LAYER_7
 10
133.9804
 20
0.0014
 42
0.1290056232
  0
VERTEX
  8
LAYER_7
 10
133.2943
 20
-0.169
 42
0.1986365062
  0
VERTEX
  8
LAYER_7
 10
132.7484
 20
-0.8931
 42
0.0720898619
  0
VERTEX
  8
LAYER_7
 10
132.6903
 20
-1.3336
 42
0.1266906031
  0
VERTEX
  8
LAYER_7
 10
132.8535
 20
-1.9998
 42
0.2778283058
  0
VERTEX
  8
LAYER_7
 10
133.957
 20
-2.6228
 42
0.1289619697
  0
VERTEX
  8
LAYER_7
 10
134.6333
 20
-2.4541
 42
0.197407087
  0
VERTEX
  8
LAYER_7
 10
135.1812
 20
-1.7353
 42
0.07132386385
  0
SEQEND
  0
ENDBLK
  0
BLOCK
  8
LAYER_7
  2
AIGNBL07040008
 70
64
 10
0
 20
0
 30
0
  3
AIGNBL07040008
  0
POLYLINE
  8
LAYER_7
 40
0.05
 41
0.05
 66
1
 10
0
 20
0
 30
0
 70
1
  0
VERTEX
  8
LAYER_7
 10
136.9115
 20
0.2856
  0
VERTEX
  8
LAYER_7
 10
136.9115
 20
-1.604
 42
0.138981145
  0
VERTEX
  8
LAYER_7
 10
137.0775
 20
-2.2603
 42
0.2426831429
  0
VERTEX
  8
LAYER_7
 10
137.7307
 20
-2.6183
 42
0.02279944991
  0
VERTEX
  8
LAYER_7
 10
137.841
 20
-2.6228
 42
0.1447112033
  0
VERTEX
  8
LAYER_7
 10
138.4458
 20
-2.4624
 42
0.1656484091
  0
VERTEX
  8
LAYER_7
 10
138.7433
 20
-2.0609
 42
0.08652758299
  0
VERTEX
  8
LAYER_7
 10
138.8118
 20
-1.604
  0
VERTEX
  8
LAYER_7
 10
138.8118
 20
0.2856
  0
VERTEX
  8
LAYER_7
 10
139.3328
 20
0.2856
  0
VERTEX
  8
LAYER_7
 10
139.3328
 20
-1.5758
 42
-0.1213960252
  0
VERTEX
  8
LAYER_7
 10
139.1651
 20
-2.3157
 42
-0.2016266738
  0
VERTEX
  8
LAYER_7
 10
138.4576
 20
-2.87
 42
-0.07892314617
  0
VERTEX
  8
LAYER_7
 10
137.8231
 20
-2.9586
 42
-0.1140673463
  0
VERTEX
  8
LAYER_7
 10
137.0107
 20
-2.7878
 42
-0.2086854916
  0
VERTEX
  8
LAYER_7
 10
136.4579
 20
-2.1056
 42
-0.07376116688
  0
VERTEX
  8
LAYER_7
 10
136.3906
 20
-1.5944
  0
VERTEX
  8
LAYER_7
 10
136.3906
 20
0.2856
  0
SEQEND
  0
ENDBLK
  0
BLOCK
  8
LAYER_7
  2
AIGNBL07040009
 70
64
 10
0
 20
0
 30
0
  3
AIGNBL07040009
  0
POLYLINE
  8
LAYER_7
 40
0.05
 41
0.05
 66
1
 10
0
 20
0
 30
0
 70
1
  0
VERTEX
  8
LAYER_7
 10
140.8131
 20
-1.9017
  0
VERTEX
  8
LAYER_7
 10
140.3983
 20
-2.9063
  0
VERTEX
  8
LAYER_7
 10
139.866
 20
-2.9063
  0
VERTEX
  8
LAYER_7
 10
141.2217
 20
0.2856
  0
VERTEX
  8
LAYER_7
 10
141.8428
 20
0.2856
  0
VERTEX
  8
LAYER_7
 10
143.2047
 20
-2.9063
  0
VERTEX
  8
LAYER_7
 10
142.6542
 20
-2.9063
  0
VERTEX
  8
LAYER_7
 10
142.228
 20
-1.9017
  0
SEQEND
  0
POLYLINE
  8
LAYER_7
 40
0.05
 41
0.05
 66
1
 10
0
 20
0
 30
0
 70
1
  0
VERTEX
  8
LAYER_7
 10
142.1212
 20
-1.5806
  0
VERTEX
  8
LAYER_7
 10
141.7302
 20
-0.6611
 42
-0.02125651819
  0
VERTEX
  8
LAYER_7
 10
141.5228
 20
-0.0789
  0
VERTEX
  8
LAYER_7
 10
141.5111
 20
-0.0789
 42
-0.02103918769
  0
VERTEX
  8
LAYER_7
 10
141.3099
 20
-0.6573
  0
VERTEX
  8
LAYER_7
 10
140.9192
 20
-1.5806
  0
SEQEND
  0
ENDBLK
  0
BLOCK
  8
LAYER_7
  2
AIGNBL0704000A
 70
64
 10
0
 20
0
 30
0
  3
AIGNBL0704000A
  0
POLYLINE
  8
LAYER_7
 40
0.05
 41
0.05
 66
1
 10
0
 20
0
 30
0
 70
1
  0
VERTEX
  8
LAYER_7
 10
144.0866
 20
0.2477
 42
-0.03323004622
  0
VERTEX
  8
LAYER_7
 10
145.0757
 20
0.3097
 42
-0.09649700979
  0
VERTEX
  8
LAYER_7
 10
146.0056
 20
0.1514
 42
-0.0523624427
  0
VERTEX
  8
LAYER_7
 10
146.1944
 20
0.0444
 42
-0.2476074937
  0
VERTEX
  8
LAYER_7
 10
146.5433
 20
-0.6236
 42
-0.1633493674
  0
VERTEX
  8
LAYER_7
 10
146.3723
 20
-1.1652
 42
-0.05697336531
  0
VERTEX
  8
LAYER_7
 10
146.2357
 20
-1.3053
 42
-0.1301814771
  0
VERTEX
  8
LAYER_7
 10
145.5827
 20
-1.6002
 42
-0.05286501804
  0
VERTEX
  8
LAYER_7
 10
145.0161
 20
-1.6561
 42
-0.0589106892
  0
VERTEX
  8
LAYER_7
 10
144.602
 20
-1.6275
  0
VERTEX
  8
LAYER_7
 10
144.602
 20
-2.9063
  0
VERTEX
  8
LAYER_7
 10
144.0866
 20
-2.9063
  0
SEQEND
  0
POLYLINE
  8
LAYER_7
 40
0.05
 41
0.05
 66
1
 10
0
 20
0
 30
0
 70
1
  0
VERTEX
  8
LAYER_7
 10
144.602
 20
-1.2912
 42
0.04848394292
  0
VERTEX
  8
LAYER_7
 10
145.0278
 20
-1.3246
 42
0.1267241775
  0
VERTEX
  8
LAYER_7
 10
145.737
 20
-1.1646
 42
0.1801713856
  0
VERTEX
  8
LAYER_7
 10
146.0018
 20
-0.8343
 42
0.07354410889
  0
VERTEX
  8
LAYER_7
 10
146.029
 20
-0.6425
 42
0.3108550011
  0
VERTEX
  8
LAYER_7
 10
145.6717
 20
-0.1192
 42
0.1110538748
  0
VERTEX
  8
LAYER_7
 10
145.0878
 20
-0.0176
 42
0.05507706355
  0
VERTEX
  8
LAYER_7
 10
144.602
 20
-0.0506
  0
SEQEND
  0
ENDBLK
  0
BLOCK
  8
LAYER_7
  2
AIGNBL0704000B
 70
64
 10
0
 20
0
 30
0
  3
AIGNBL0704000B
  0
POLYLINE
  8
LAYER_7
 40
0.05
 41
0.05
 66
1
 10
0
 20
0
 30
0
 70
1
  0
VERTEX
  8
LAYER_7
 10
147.859
 20
0.03
 42
-0.3245339907
  0
VERTEX
  8
LAYER_7
 10
147.6969
 20
-0.1954
 42
-0.09620347437
  0
VERTEX
  8
LAYER_7
 10
147.5269
 20
-0.226
 42
-0.2676237393
  0
VERTEX
  8
LAYER_7
 10
147.2363
 20
-0.0702
 42
-0.1146413536
  0
VERTEX
  8
LAYER_7
 10
147.2131
 20
0.03
 42
-0.3124013774
  0
VERTEX
  8
LAYER_7
 10
147.3861
 20
0.2622
 42
-0.09436570029
  0
VERTEX
  8
LAYER_7
 10
147.5386
 20
0.2901
 42
-0.2690720095
  0
VERTEX
  8
LAYER_7
 10
147.8351
 20
0.1355
 42
-0.1137202002
  0
SEQEND
  0
POLYLINE
  8
LAYER_7
 40
0.05
 41
0.05
 66
1
 10
0
 20
0
 30
0
 70
1
  0
VERTEX
  8
LAYER_7
 10
147.2778
 20
-2.9063
  0
VERTEX
  8
LAYER_7
 10
147.2778
 20
-0.6143
  0
VERTEX
  8
LAYER_7
 10
147.7987
 20
-0.6143
  0
VERTEX
  8
LAYER_7
 10
147.7987
 20
-2.9063
  0
SEQEND
  0
ENDBLK
  0
BLOCK
  8
LAYER_7
  2
AIGNBL0704000C
 70
64
 10
0
 20
0
 30
0
  3
AIGNBL0704000C
  0
POLYLINE
  8
LAYER_7
 40
0.05
 41
0.05
 66
1
 10
0
 20
0
 30
0
 70
1
  0
VERTEX
  8
LAYER_7
 10
149.3852
 20
-1.9017
  0
VERTEX
  8
LAYER_7
 10
148.9715
 20
-2.9063
  0
VERTEX
  8
LAYER_7
 10
148.4381
 20
-2.9063
  0
VERTEX
  8
LAYER_7
 10
149.7941
 20
0.2856
  0
VERTEX
  8
LAYER_7
 10
150.416
 20
0.2856
  0
VERTEX
  8
LAYER_7
 10
151.7778
 20
-2.9063
  0
VERTEX
  8
LAYER_7
 10
151.2269
 20
-2.9063
  0
VERTEX
  8
LAYER_7
 10
150.8008
 20
-1.9017
  0
SEQEND
  0
POLYLINE
  8
LAYER_7
 40
0.05
 41
0.05
 66
1
 10
0
 20
0
 30
0
 70
1
  0
VERTEX
  8
LAYER_7
 10
150.694
 20
-1.5806
  0
VERTEX
  8
LAYER_7
 10
150.3033
 20
-0.6611
 42
-0.02374663041
  0
VERTEX
  8
LAYER_7
 10
150.0966
 20
-0.0789
  0
VERTEX
  8
LAYER_7
 10
150.0842
 20
-0.0789
  0
VERTEX
  8
LAYER_7
 10
149.883
 20
-0.6573
  0
VERTEX
  8
LAYER_7
 10
149.4923
 20
-1.5806
  0
SEQEND
  0
ENDBLK
  0
BLOCK
  8
LAYER_7
  2
AIGNBL07030005
 70
64
 10
0
 20
0
 30
0
  3
AIGNBL07030005
  0
INSERT
  8
LAYER_7
  2
AIGNBL07040006
 10
0
 20
0
 30
0
  0
INSERT
  8
LAYER_7
  2
AIGNBL07040007
 10
0
 20
0
 30
0
  0
INSERT
  8
LAYER_7
  2
AIGNBL07040008
 10
0
 20
0
 30
0
  0
INSERT
  8
LAYER_7
  2
AIGNBL07040009
 10
0
 20
0
 30
0
  0
INSERT
  8
LAYER_7
  2
AIGNBL0704000A
 10
0
 20
0
 30
0
  0
INSERT
  8
LAYER_7
  2
AIGNBL0704000B
 10
0
 20
0
 30
0
  0
INSERT
  8
LAYER_7
  2
AIGNBL0704000C
 10
0
 20
0
 30
0
  0
ENDBLK
  0
BLOCK
  8
LAYER_7
  2
AIGNBL0703000E
 70
64
 10
0
 20
0
 30
0
  3
AIGNBL0703000E
  0
POLYLINE
  8
LAYER_7
 40
0.05
 41
0.05
 66
1
 10
0
 20
0
 30
0
 70
1
  0
VERTEX
  8
LAYER_7
 10
128.7222
 20
-4.5162
  0
VERTEX
  8
LAYER_7
 10
129.1914
 20
-4.5162
  0
VERTEX
  8
LAYER_7
 10
129.1914
 20
-4.5957
  0
VERTEX
  8
LAYER_7
 10
128.6333
 20
-4.5957
  0
VERTEX
  8
LAYER_7
 10
128.6333
 20
-3.72
  0
VERTEX
  8
LAYER_7
 10
129.1762
 20
-3.72
  0
VERTEX
  8
LAYER_7
 10
129.1762
 20
-3.7989
  0
VERTEX
  8
LAYER_7
 10
128.7222
 20
-3.7989
  0
VERTEX
  8
LAYER_7
 10
128.7222
 20
-4.0993
  0
VERTEX
  8
LAYER_7
 10
129.1467
 20
-4.0993
  0
VERTEX
  8
LAYER_7
 10
129.1467
 20
-4.1785
  0
VERTEX
  8
LAYER_7
 10
128.7222
 20
-4.1785
  0
SEQEND
  0
ENDBLK
  0
BLOCK
  8
LAYER_7
  2
AIGNBL0703000F
 70
64
 10
0
 20
0
 30
0
  3
AIGNBL0703000F
  0
POLYLINE
  8
LAYER_7
 40
0.05
 41
0.05
 66
1
 10
0
 20
0
 30
0
 70
1
  0
VERTEX
  8
LAYER_7
 10
130.1574
 20
-4.4655
  0
VERTEX
  8
LAYER_7
 10
130.1595
 20
-4.4655
  0
VERTEX
  8
LAYER_7
 10
130.1595
 20
-3.72
  0
VERTEX
  8
LAYER_7
 10
130.2487
 20
-3.72
  0
VERTEX
  8
LAYER_7
 10
130.2487
 20
-4.5957
  0
VERTEX
  8
LAYER_7
 10
130.1378
 20
-4.5957
  0
VERTEX
  8
LAYER_7
 10
129.6283
 20
-3.8423
  0
VERTEX
  8
LAYER_7
 10
129.6252
 20
-3.8423
  0
VERTEX
  8
LAYER_7
 10
129.6252
 20
-4.5957
  0
VERTEX
  8
LAYER_7
 10
129.5366
 20
-4.5957
  0
VERTEX
  8
LAYER_7
 10
129.5366
 20
-3.72
  0
VERTEX
  8
LAYER_7
 10
129.6476
 20
-3.72
  0
SEQEND
  0
ENDBLK
  0
BLOCK
  8
LAYER_7
  2
AIGNBL07030010
 70
64
 10
0
 20
0
 30
0
  3
AIGNBL07030010
  0
POLYLINE
  8
LAYER_7
 40
0.05
 41
0.05
 66
1
 10
0
 20
0
 30
0
 70
1
  0
VERTEX
  8
LAYER_7
 10
130.6497
 20
-4.4159
 42
0.1576719028
  0
VERTEX
  8
LAYER_7
 10
130.6959
 20
-4.5034
 42
0.1890563282
  0
VERTEX
  8
LAYER_7
 10
130.7917
 20
-4.5386
  0
VERTEX
  8
LAYER_7
 10
130.8675
 20
-4.522
  0
VERTEX
  8
LAYER_7
 10
130.915
 20
-4.4769
  0
VERTEX
  8
LAYER_7
 10
130.9395
 20
-4.4118
  0
VERTEX
  8
LAYER_7
 10
130.9467
 20
-4.336
  0
VERTEX
  8
LAYER_7
 10
130.9467
 20
-3.72
  0
VERTEX
  8
LAYER_7
 10
131.0356
 20
-3.72
  0
VERTEX
  8
LAYER_7
 10
131.0356
 20
-4.3432
  0
VERTEX
  8
LAYER_7
 10
131.0259
 20
-4.4345
  0
VERTEX
  8
LAYER_7
 10
130.9908
 20
-4.5237
 42
-0.1130953748
  0
VERTEX
  8
LAYER_7
 10
130.9191
 20
-4.5913
 42
-0.1226010698
  0
VERTEX
  8
LAYER_7
 10
130.8013
 20
-4.6178
 42
-0.1818698991
  0
VERTEX
  8
LAYER_7
 10
130.6449
 20
-4.5668
 42
-0.1775350534
  0
VERTEX
  8
LAYER_7
 10
130.5667
 20
-4.4387
  0
SEQEND
  0
ENDBLK
  0
BLOCK
  8
LAYER_7
  2
AIGNBL07030011
 70
64
 10
0
 20
0
 30
0
  3
AIGNBL07030011
  0
POLYLINE
  8
LAYER_7
 40
0.05
 41
0.05
 66
1
 10
0
 20
0
 30
0
 70
1
  0
VERTEX
  8
LAYER_7
 10
132.2972
 20
-4.1576
 42
-0.1022791594
  0
VERTEX
  8
LAYER_7
 10
132.2624
 20
-4.3418
 42
-0.09970376068
  0
VERTEX
  8
LAYER_7
 10
132.167
 20
-4.4872
 42
-0.09570319659
  0
VERTEX
  8
LAYER_7
 10
132.0219
 20
-4.583
 42
-0.09730113973
  0
VERTEX
  8
LAYER_7
 10
131.8407
 20
-4.6178
 42
-0.1005044879
  0
VERTEX
  8
LAYER_7
 10
131.6595
 20
-4.583
 42
-0.09966120318
  0
VERTEX
  8
LAYER_7
 10
131.5148
 20
-4.4872
 42
-0.09705125056
  0
VERTEX
  8
LAYER_7
 10
131.4187
 20
-4.3418
 42
-0.09607487332
  0
VERTEX
  8
LAYER_7
 10
131.3842
 20
-4.1576
 42
-0.1007736406
  0
VERTEX
  8
LAYER_7
 10
131.4187
 20
-3.9732
 42
-0.1001858518
  0
VERTEX
  8
LAYER_7
 10
131.5148
 20
-3.8279
 42
-0.09808507614
  0
VERTEX
  8
LAYER_7
 10
131.6595
 20
-3.7321
 42
-0.09730113973
  0
VERTEX
  8
LAYER_7
 10
131.8407
 20
-3.6973
 42
-0.1005044879
  0
VERTEX
  8
LAYER_7
 10
132.0219
 20
-3.7321
 42
-0.09855811897
  0
VERTEX
  8
LAYER_7
 10
132.167
 20
-3.8279
 42
-0.09628842512
  0
VERTEX
  8
LAYER_7
 10
132.2624
 20
-3.9732
 42
-0.09699166297
  0
SEQEND
  0
POLYLINE
  8
LAYER_7
 40
0.05
 41
0.05
 66
1
 10
0
 20
0
 30
0
 70
1
  0
VERTEX
  8
LAYER_7
 10
132.2031
 20
-4.1582
 42
0.08559937197
  0
VERTEX
  8
LAYER_7
 10
132.1787
 20
-4.0125
 42
0.09664405852
  0
VERTEX
  8
LAYER_7
 10
132.1067
 20
-3.8909
 42
0.1020590541
  0
VERTEX
  8
LAYER_7
 10
131.9923
 20
-3.8078
 42
0.1059768973
  0
VERTEX
  8
LAYER_7
 10
131.8407
 20
-3.7765
 42
0.1133141163
  0
VERTEX
  8
LAYER_7
 10
131.6891
 20
-3.8078
 42
0.1061646081
  0
VERTEX
  8
LAYER_7
 10
131.5751
 20
-3.8909
 42
0.0967254779
  0
VERTEX
  8
LAYER_7
 10
131.5031
 20
-4.0125
 42
0.08449949919
  0
VERTEX
  8
LAYER_7
 10
131.4783
 20
-4.1582
 42
0.08539697836
  0
VERTEX
  8
LAYER_7
 10
131.5031
 20
-4.304
 42
0.1012181166
  0
VERTEX
  8
LAYER_7
 10
131.5751
 20
-4.4252
 42
0.09946553095
  0
VERTEX
  8
LAYER_7
 10
131.6891
 20
-4.5075
 42
0.1062766662
  0
VERTEX
  8
LAYER_7
 10
131.8407
 20
-4.5386
 42
0.1150129684
  0
VERTEX
  8
LAYER_7
 10
131.9923
 20
-4.5075
 42
0.10635245
  0
VERTEX
  8
LAYER_7
 10
132.1067
 20
-4.4252
 42
0.09368815098
  0
VERTEX
  8
LAYER_7
 10
132.1787
 20
-4.304
 42
0.0834821187
  0
SEQEND
  0
ENDBLK
  0
BLOCK
  8
LAYER_7
  2
AIGNBL07030012
 70
64
 10
0
 20
0
 30
0
  3
AIGNBL07030012
  0
POLYLINE
  8
LAYER_7
 40
0.05
 41
0.05
 66
1
 10
0
 20
0
 30
0
 70
1
  0
VERTEX
  8
LAYER_7
 10
132.9538
 20
-4.5957
  0
VERTEX
  8
LAYER_7
 10
132.8649
 20
-4.5957
  0
VERTEX
  8
LAYER_7
 10
132.8649
 20
-4.2182
  0
VERTEX
  8
LAYER_7
 10
132.5373
 20
-3.72
  0
VERTEX
  8
LAYER_7
 10
132.6486
 20
-3.72
  0
VERTEX
  8
LAYER_7
 10
132.9121
 20
-4.1438
  0
VERTEX
  8
LAYER_7
 10
133.1777
 20
-3.72
  0
VERTEX
  8
LAYER_7
 10
133.2815
 20
-3.72
  0
VERTEX
  8
LAYER_7
 10
132.9538
 20
-4.2182
  0
SEQEND
  0
ENDBLK
  0
BLOCK
  8
LAYER_7
  2
AIGNBL07030013
 70
64
 10
0
 20
0
 30
0
  3
AIGNBL07030013
  0
POLYLINE
  8
LAYER_7
 40
0.05
 41
0.05
 66
1
 10
0
 20
0
 30
0
 70
1
  0
VERTEX
  8
LAYER_7
 10
134.0487
 20
-3.72
  0
VERTEX
  8
LAYER_7
 10
134.3094
 20
-3.72
  0
VERTEX
  8
LAYER_7
 10
134.4097
 20
-3.7303
  0
VERTEX
  8
LAYER_7
 10
134.5003
 20
-3.7662
 42
-0.1150293855
  0
VERTEX
  8
LAYER_7
 10
134.5664
 20
-3.8351
 42
-0.1215002924
  0
VERTEX
  8
LAYER_7
 10
134.5916
 20
-3.9436
 42
-0.179677182
  0
VERTEX
  8
LAYER_7
 10
134.5492
 20
-4.0642
 42
-0.1667916725
  0
VERTEX
  8
LAYER_7
 10
134.4362
 20
-4.1317
  0
VERTEX
  8
LAYER_7
 10
134.4362
 20
-4.1338
 42
-0.1720976719
  0
VERTEX
  8
LAYER_7
 10
134.5775
 20
-4.2003
 42
-0.1997018961
  0
VERTEX
  8
LAYER_7
 10
134.6336
 20
-4.3532
 42
-0.1274833917
  0
VERTEX
  8
LAYER_7
 10
134.6105
 20
-4.4524
 42
-0.11637429
  0
VERTEX
  8
LAYER_7
 10
134.5458
 20
-4.5293
 42
-0.08593783818
  0
VERTEX
  8
LAYER_7
 10
134.4435
 20
-4.5782
 42
-0.06453463165
  0
VERTEX
  8
LAYER_7
 10
134.3081
 20
-4.5957
  0
VERTEX
  8
LAYER_7
 10
134.0487
 20
-4.5957
  0
SEQEND
  0
POLYLINE
  8
LAYER_7
 40
0.05
 41
0.05
 66
1
 10
0
 20
0
 30
0
 70
1
  0
VERTEX
  8
LAYER_7
 10
134.1375
 20
-4.1031
  0
VERTEX
  8
LAYER_7
 10
134.317
 20
-4.1031
  0
VERTEX
  8
LAYER_7
 10
134.3822
 20
-4.0955
  0
VERTEX
  8
LAYER_7
 10
134.4417
 20
-4.0707
  0
VERTEX
  8
LAYER_7
 10
134.4858
 20
-4.0228
 42
0.1131003852
  0
VERTEX
  8
LAYER_7
 10
134.5024
 20
-3.9498
  0
VERTEX
  8
LAYER_7
 10
134.4858
 20
-3.8788
  0
VERTEX
  8
LAYER_7
 10
134.4407
 20
-3.831
  0
VERTEX
  8
LAYER_7
 10
134.3739
 20
-3.8044
  0
VERTEX
  8
LAYER_7
 10
134.2922
 20
-3.7965
  0
VERTEX
  8
LAYER_7
 10
134.1375
 20
-3.7965
  0
SEQEND
  0
POLYLINE
  8
LAYER_7
 40
0.05
 41
0.05
 66
1
 10
0
 20
0
 30
0
 70
1
  0
VERTEX
  8
LAYER_7
 10
134.1375
 20
-4.5189
  0
VERTEX
  8
LAYER_7
 10
134.3036
 20
-4.5189
  0
VERTEX
  8
LAYER_7
 10
134.3956
 20
-4.5093
  0
VERTEX
  8
LAYER_7
 10
134.4724
 20
-4.48
  0
VERTEX
  8
LAYER_7
 10
134.5244
 20
-4.4266
 42
0.1281406861
  0
VERTEX
  8
LAYER_7
 10
134.5444
 20
-4.3481
 42
0.2512555223
  0
VERTEX
  8
LAYER_7
 10
134.4858
 20
-4.2189
 42
0.1507360226
  0
VERTEX
  8
LAYER_7
 10
134.3194
 20
-4.1761
  0
VERTEX
  8
LAYER_7
 10
134.1375
 20
-4.1761
  0
SEQEND
  0
ENDBLK
  0
BLOCK
  8
LAYER_7
  2
AIGNBL07030014
 70
64
 10
0
 20
0
 30
0
  3
AIGNBL07030014
  0
POLYLINE
  8
LAYER_7
 40
0.05
 41
0.05
 66
1
 10
0
 20
0
 30
0
 70
1
  0
VERTEX
  8
LAYER_7
 10
134.9999
 20
-4.5957
  0
VERTEX
  8
LAYER_7
 10
134.902
 20
-4.5957
  0
VERTEX
  8
LAYER_7
 10
135.2806
 20
-3.72
  0
VERTEX
  8
LAYER_7
 10
135.3675
 20
-3.72
  0
VERTEX
  8
LAYER_7
 10
135.7433
 20
-4.5957
  0
VERTEX
  8
LAYER_7
 10
135.6441
 20
-4.5957
  0
VERTEX
  8
LAYER_7
 10
135.5476
 20
-4.3656
  0
VERTEX
  8
LAYER_7
 10
135.0949
 20
-4.3656
  0
SEQEND
  0
POLYLINE
  8
LAYER_7
 40
0.05
 41
0.05
 66
1
 10
0
 20
0
 30
0
 70
1
  0
VERTEX
  8
LAYER_7
 10
135.128
 20
-4.2836
  0
VERTEX
  8
LAYER_7
 10
135.5142
 20
-4.2836
  0
VERTEX
  8
LAYER_7
 10
135.3213
 20
-3.8185
  0
SEQEND
  0
ENDBLK
  0
BLOCK
  8
LAYER_7
  2
AIGNBL07030015
 70
64
 10
0
 20
0
 30
0
  3
AIGNBL07030015
  0
POLYLINE
  8
LAYER_7
 40
0.05
 41
0.05
 66
1
 10
0
 20
0
 30
0
 70
1
  0
VERTEX
  8
LAYER_7
 10
136.3235
 20
-4.5957
  0
VERTEX
  8
LAYER_7
 10
136.2342
 20
-4.5957
  0
VERTEX
  8
LAYER_7
 10
136.2342
 20
-3.7989
  0
VERTEX
  8
LAYER_7
 10
135.9407
 20
-3.7989
  0
VERTEX
  8
LAYER_7
 10
135.9407
 20
-3.72
  0
VERTEX
  8
LAYER_7
 10
136.6163
 20
-3.72
  0
VERTEX
  8
LAYER_7
 10
136.6163
 20
-3.7989
  0
VERTEX
  8
LAYER_7
 10
136.3235
 20
-3.7989
  0
SEQEND
  0
ENDBLK
  0
BLOCK
  8
LAYER_7
  2
AIGNBL07030016
 70
64
 10
0
 20
0
 30
0
  3
AIGNBL07030016
  0
POLYLINE
  8
LAYER_7
 40
0.05
 41
0.05
 66
1
 10
0
 20
0
 30
0
 70
1
  0
VERTEX
  8
LAYER_7
 10
136.9181
 20
-3.72
  0
VERTEX
  8
LAYER_7
 10
137.007
 20
-3.72
  0
VERTEX
  8
LAYER_7
 10
137.007
 20
-4.0993
  0
VERTEX
  8
LAYER_7
 10
137.4848
 20
-4.0993
  0
VERTEX
  8
LAYER_7
 10
137.4848
 20
-3.72
  0
VERTEX
  8
LAYER_7
 10
137.5737
 20
-3.72
  0
VERTEX
  8
LAYER_7
 10
137.5737
 20
-4.5957
  0
VERTEX
  8
LAYER_7
 10
137.4848
 20
-4.5957
  0
VERTEX
  8
LAYER_7
 10
137.4848
 20
-4.181
  0
VERTEX
  8
LAYER_7
 10
137.007
 20
-4.181
  0
VERTEX
  8
LAYER_7
 10
137.007
 20
-4.5957
  0
VERTEX
  8
LAYER_7
 10
136.9181
 20
-4.5957
  0
SEQEND
  0
ENDBLK
  0
BLOCK
  8
LAYER_7
  2
AIGNBL07030017
 70
64
 10
0
 20
0
 30
0
  3
AIGNBL07030017
  0
POLYLINE
  8
LAYER_7
 40
0.05
 41
0.05
 66
1
 10
0
 20
0
 30
0
 70
1
  0
VERTEX
  8
LAYER_7
 10
138.0656
 20
-4.5957
  0
VERTEX
  8
LAYER_7
 10
137.9767
 20
-4.5957
  0
VERTEX
  8
LAYER_7
 10
137.9767
 20
-3.72
  0
VERTEX
  8
LAYER_7
 10
138.2341
 20
-3.72
  0
VERTEX
  8
LAYER_7
 10
138.3533
 20
-3.7321
  0
VERTEX
  8
LAYER_7
 10
138.4487
 20
-3.7724
 42
-0.1287326038
  0
VERTEX
  8
LAYER_7
 10
138.5111
 20
-3.8447
 42
-0.1051928432
  0
VERTEX
  8
LAYER_7
 10
138.5331
 20
-3.9536
  0
VERTEX
  8
LAYER_7
 10
138.5163
 20
-4.0415
  0
VERTEX
  8
LAYER_7
 10
138.4694
 20
-4.11
  0
VERTEX
  8
LAYER_7
 10
138.3988
 20
-4.1565
  0
VERTEX
  8
LAYER_7
 10
138.3096
 20
-4.1785
  0
VERTEX
  8
LAYER_7
 10
138.5655
 20
-4.5957
  0
VERTEX
  8
LAYER_7
 10
138.4567
 20
-4.5957
  0
VERTEX
  8
LAYER_7
 10
138.2145
 20
-4.1861
  0
VERTEX
  8
LAYER_7
 10
138.0656
 20
-4.1861
  0
SEQEND
  0
POLYLINE
  8
LAYER_7
 40
0.05
 41
0.05
 66
1
 10
0
 20
0
 30
0
 70
1
  0
VERTEX
  8
LAYER_7
 10
138.0656
 20
-4.1093
  0
VERTEX
  8
LAYER_7
 10
138.2207
 20
-4.1093
 42
0.1560036385
  0
VERTEX
  8
LAYER_7
 10
138.3864
 20
-4.0707
 42
0.256718439
  0
VERTEX
  8
LAYER_7
 10
138.4446
 20
-3.9536
  0
VERTEX
  8
LAYER_7
 10
138.4281
 20
-3.8809
  0
VERTEX
  8
LAYER_7
 10
138.3836
 20
-3.8323
  0
VERTEX
  8
LAYER_7
 10
138.3147
 20
-3.8051
  0
VERTEX
  8
LAYER_7
 10
138.2245
 20
-3.7965
  0
VERTEX
  8
LAYER_7
 10
138.0656
 20
-3.7965
  0
SEQEND
  0
ENDBLK
  0
BLOCK
  8
LAYER_7
  2
AIGNBL07030018
 70
64
 10
0
 20
0
 30
0
  3
AIGNBL07030018
  0
POLYLINE
  8
LAYER_7
 40
0.05
 41
0.05
 66
1
 10
0
 20
0
 30
0
 70
1
  0
VERTEX
  8
LAYER_7
 10
139.7541
 20
-4.1576
 42
-0.09915680833
  0
VERTEX
  8
LAYER_7
 10
139.7196
 20
-4.3418
 42
-0.1002507449
  0
VERTEX
  8
LAYER_7
 10
139.6235
 20
-4.4872
 42
-0.09817592867
  0
VERTEX
  8
LAYER_7
 10
139.4792
 20
-4.583
 42
-0.09701762268
  0
VERTEX
  8
LAYER_7
 10
139.2976
 20
-4.6178
 42
-0.1005044879
  0
VERTEX
  8
LAYER_7
 10
139.1164
 20
-4.583
 42
-0.101043309
  0
VERTEX
  8
LAYER_7
 10
138.972
 20
-4.4872
 42
-0.1005637126
  0
VERTEX
  8
LAYER_7
 10
138.8763
 20
-4.3418
 42
-0.09607487332
  0
VERTEX
  8
LAYER_7
 10
138.8418
 20
-4.1576
 42
-0.1007736406
  0
VERTEX
  8
LAYER_7
 10
138.8763
 20
-3.9732
 42
-0.1017405254
  0
VERTEX
  8
LAYER_7
 10
138.972
 20
-3.8279
 42
-0.09844101569
  0
VERTEX
  8
LAYER_7
 10
139.1164
 20
-3.7321
 42
-0.09730113973
  0
VERTEX
  8
LAYER_7
 10
139.2976
 20
-3.6973
 42
-0.1002689506
  0
VERTEX
  8
LAYER_7
 10
139.4792
 20
-3.7321
 42
-0.1027545576
  0
VERTEX
  8
LAYER_7
 10
139.6235
 20
-3.8279
 42
-0.09614814713
  0
VERTEX
  8
LAYER_7
 10
139.7196
 20
-3.9732
 42
-0.09518668509
  0
SEQEND
  0
POLYLINE
  8
LAYER_7
 40
0.05
 41
0.05
 66
1
 10
0
 20
0
 30
0
 70
1
  0
VERTEX
  8
LAYER_7
 10
139.66
 20
-4.1582
 42
0.09061433698
  0
VERTEX
  8
LAYER_7
 10
139.6352
 20
-4.0125
 42
0.09836919047
  0
VERTEX
  8
LAYER_7
 10
139.5636
 20
-3.8909
 42
0.1015931446
  0
VERTEX
  8
LAYER_7
 10
139.4492
 20
-3.8078
 42
0.1060724797
  0
VERTEX
  8
LAYER_7
 10
139.2976
 20
-3.7765
 42
0.1141455391
  0
VERTEX
  8
LAYER_7
 10
139.1464
 20
-3.8078
 42
0.1055281049
  0
VERTEX
  8
LAYER_7
 10
139.0317
 20
-3.8909
 42
0.095177252
  0
VERTEX
  8
LAYER_7
 10
138.96
 20
-4.0125
 42
0.08415691518
  0
VERTEX
  8
LAYER_7
 10
138.9355
 20
-4.1582
 42
0.08886818036
  0
VERTEX
  8
LAYER_7
 10
138.96
 20
-4.304
 42
0.09765150327
  0
VERTEX
  8
LAYER_7
 10
139.0317
 20
-4.4252
 42
0.0995166294
  0
VERTEX
  8
LAYER_7
 10
139.1464
 20
-4.5075
 42
0.1065794205
  0
VERTEX
  8
LAYER_7
 10
139.2976
 20
-4.5386
 42
0.1160974191
  0
VERTEX
  8
LAYER_7
 10
139.4492
 20
-4.5075
 42
0.1037742872
  0
VERTEX
  8
LAYER_7
 10
139.5636
 20
-4.4252
 42
0.09853996684
  0
VERTEX
  8
LAYER_7
 10
139.6352
 20
-4.304
 42
0.08559935114
  0
SEQEND
  0
ENDBLK
  0
BLOCK
  8
LAYER_7
  2
AIGNBL07030019
 70
64
 10
0
 20
0
 30
0
  3
AIGNBL07030019
  0
POLYLINE
  8
LAYER_7
 40
0.05
 41
0.05
 66
1
 10
0
 20
0
 30
0
 70
1
  0
VERTEX
  8
LAYER_7
 10
140.9764
 20
-4.1576
 42
-0.1005156893
  0
VERTEX
  8
LAYER_7
 10
140.9416
 20
-4.3418
 42
-0.09814135571
  0
VERTEX
  8
LAYER_7
 10
140.8462
 20
-4.4872
 42
-0.09626167578
  0
VERTEX
  8
LAYER_7
 10
140.7011
 20
-4.583
 42
-0.09730113973
  0
VERTEX
  8
LAYER_7
 10
140.5199
 20
-4.6178
 42
-0.1010483144
  0
VERTEX
  8
LAYER_7
 10
140.3387
 20
-4.583
 42
-0.1015483086
  0
VERTEX
  8
LAYER_7
 10
140.194
 20
-4.4872
 42
-0.09705125056
  0
VERTEX
  8
LAYER_7
 10
140.0979
 20
-4.3418
 42
-0.09595480919
  0
VERTEX
  8
LAYER_7
 10
140.0635
 20
-4.1576
 42
-0.1009778383
  0
VERTEX
  8
LAYER_7
 10
140.0979
 20
-3.9732
 42
-0.1001858518
  0
VERTEX
  8
LAYER_7
 10
140.194
 20
-3.8279
 42
-0.09897696487
  0
VERTEX
  8
LAYER_7
 10
140.3387
 20
-3.7321
 42
-0.09743363976
  0
VERTEX
  8
LAYER_7
 10
140.5199
 20
-3.6973
 42
-0.1005044879
  0
VERTEX
  8
LAYER_7
 10
140.7011
 20
-3.7321
 42
-0.09855811897
  0
VERTEX
  8
LAYER_7
 10
140.8462
 20
-3.8279
 42
-0.09570246514
  0
VERTEX
  8
LAYER_7
 10
140.9416
 20
-3.9732
 42
-0.09626309093
  0
SEQEND
  0
POLYLINE
  8
LAYER_7
 40
0.05
 41
0.05
 66
1
 10
0
 20
0
 30
0
 70
1
  0
VERTEX
  8
LAYER_7
 10
140.8824
 20
-4.1582
 42
0.08713456795
  0
VERTEX
  8
LAYER_7
 10
140.8576
 20
-4.0125
 42
0.09738770282
  0
VERTEX
  8
LAYER_7
 10
140.7859
 20
-3.8909
 42
0.1017288255
  0
VERTEX
  8
LAYER_7
 10
140.6715
 20
-3.8078
 42
0.1057138949
  0
VERTEX
  8
LAYER_7
 10
140.5199
 20
-3.7765
 42
0.1140423269
  0
VERTEX
  8
LAYER_7
 10
140.3683
 20
-3.8078
 42
0.1049835418
  0
VERTEX
  8
LAYER_7
 10
140.254
 20
-3.8909
 42
0.09806626716
  0
VERTEX
  8
LAYER_7
 10
140.1823
 20
-4.0125
 42
0.08487390418
  0
VERTEX
  8
LAYER_7
 10
140.1575
 20
-4.1582
 42
0.08802482071
  0
VERTEX
  8
LAYER_7
 10
140.1823
 20
-4.304
 42
0.1001537592
  0
VERTEX
  8
LAYER_7
 10
140.254
 20
-4.4252
 42
0.09980276313
  0
VERTEX
  8
LAYER_7
 10
140.3683
 20
-4.5075
 42
0.1064312049
  0
VERTEX
  8
LAYER_7
 10
140.5199
 20
-4.5386
 42
0.1150208314
  0
VERTEX
  8
LAYER_7
 10
140.6715
 20
-4.5075
 42
0.1044169808
  0
VERTEX
  8
LAYER_7
 10
140.7859
 20
-4.4252
 42
0.0931574303
  0
VERTEX
  8
LAYER_7
 10
140.8576
 20
-4.304
 42
0.08489455374
  0
SEQEND
  0
ENDBLK
  0
BLOCK
  8
LAYER_7
  2
AIGNBL0703001A
 70
64
 10
0
 20
0
 30
0
  3
AIGNBL0703001A
  0
POLYLINE
  8
LAYER_7
 40
0.05
 41
0.05
 66
1
 10
0
 20
0
 30
0
 70
1
  0
VERTEX
  8
LAYER_7
 10
141.7653
 20
-4.4445
  0
VERTEX
  8
LAYER_7
 10
141.7667
 20
-4.4445
  0
VERTEX
  8
LAYER_7
 10
142.0596
 20
-3.72
  0
VERTEX
  8
LAYER_7
 10
142.196
 20
-3.72
  0
VERTEX
  8
LAYER_7
 10
142.196
 20
-4.5957
  0
VERTEX
  8
LAYER_7
 10
142.1068
 20
-4.5957
  0
VERTEX
  8
LAYER_7
 10
142.1068
 20
-3.8351
  0
VERTEX
  8
LAYER_7
 10
142.1043
 20
-3.8351
  0
VERTEX
  8
LAYER_7
 10
141.7877
 20
-4.5957
  0
VERTEX
  8
LAYER_7
 10
141.7409
 20
-4.5957
  0
VERTEX
  8
LAYER_7
 10
141.4239
 20
-3.8351
  0
VERTEX
  8
LAYER_7
 10
141.4215
 20
-3.8351
  0
VERTEX
  8
LAYER_7
 10
141.4215
 20
-4.5957
  0
VERTEX
  8
LAYER_7
 10
141.3326
 20
-4.5957
  0
VERTEX
  8
LAYER_7
 10
141.3326
 20
-3.72
  0
VERTEX
  8
LAYER_7
 10
141.4687
 20
-3.72
  0
SEQEND
  0
ENDBLK
  0
BLOCK
  8
LAYER_7
  2
AIGNBL0703001B
 70
64
 10
0
 20
0
 30
0
  3
AIGNBL0703001B
  0
POLYLINE
  8
LAYER_7
 40
0.05
 41
0.05
 66
1
 10
0
 20
0
 30
0
 70
1
  0
VERTEX
  8
LAYER_7
 10
143.1678
 20
-4.5162
  0
VERTEX
  8
LAYER_7
 10
143.6367
 20
-4.5162
  0
VERTEX
  8
LAYER_7
 10
143.6367
 20
-4.5957
  0
VERTEX
  8
LAYER_7
 10
143.0786
 20
-4.5957
  0
VERTEX
  8
LAYER_7
 10
143.0786
 20
-3.72
  0
VERTEX
  8
LAYER_7
 10
143.6219
 20
-3.72
  0
VERTEX
  8
LAYER_7
 10
143.6219
 20
-3.7989
  0
VERTEX
  8
LAYER_7
 10
143.1678
 20
-3.7989
  0
VERTEX
  8
LAYER_7
 10
143.1678
 20
-4.0993
  0
VERTEX
  8
LAYER_7
 10
143.5919
 20
-4.0993
  0
VERTEX
  8
LAYER_7
 10
143.5919
 20
-4.1785
  0
VERTEX
  8
LAYER_7
 10
143.1678
 20
-4.1785
  0
SEQEND
  0
ENDBLK
  0
BLOCK
  8
LAYER_7
  2
AIGNBL0703001C
 70
64
 10
0
 20
0
 30
0
  3
AIGNBL0703001C
  0
POLYLINE
  8
LAYER_7
 40
0.05
 41
0.05
 66
1
 10
0
 20
0
 30
0
 70
1
  0
VERTEX
  8
LAYER_7
 10
144.2685
 20
-4.0735
  0
VERTEX
  8
LAYER_7
 10
144.5076
 20
-3.72
  0
VERTEX
  8
LAYER_7
 10
144.6134
 20
-3.72
  0
VERTEX
  8
LAYER_7
 10
144.3233
 20
-4.1365
  0
VERTEX
  8
LAYER_7
 10
144.6447
 20
-4.5957
  0
VERTEX
  8
LAYER_7
 10
144.5335
 20
-4.5957
  0
VERTEX
  8
LAYER_7
 10
144.2661
 20
-4.2009
  0
VERTEX
  8
LAYER_7
 10
144.0002
 20
-4.5957
  0
VERTEX
  8
LAYER_7
 10
143.8889
 20
-4.5957
  0
VERTEX
  8
LAYER_7
 10
144.2106
 20
-4.1355
  0
VERTEX
  8
LAYER_7
 10
143.9175
 20
-3.72
  0
VERTEX
  8
LAYER_7
 10
144.0288
 20
-3.72
  0
SEQEND
  0
ENDBLK
  0
BLOCK
  8
LAYER_7
  2
AIGNBL0703001D
 70
64
 10
0
 20
0
 30
0
  3
AIGNBL0703001D
  0
POLYLINE
  8
LAYER_7
 40
0.05
 41
0.05
 66
1
 10
0
 20
0
 30
0
 70
1
  0
VERTEX
  8
LAYER_7
 10
144.9552
 20
-3.72
  0
VERTEX
  8
LAYER_7
 10
145.2028
 20
-3.72
  0
VERTEX
  8
LAYER_7
 10
145.3241
 20
-3.7338
  0
VERTEX
  8
LAYER_7
 10
145.4171
 20
-3.7775
 42
-0.1200340237
  0
VERTEX
  8
LAYER_7
 10
145.4774
 20
-3.8503
 42
-0.1008018243
  0
VERTEX
  8
LAYER_7
 10
145.4981
 20
-3.9536
 42
-0.1220863619
  0
VERTEX
  8
LAYER_7
 10
145.4767
 20
-4.0569
 42
-0.11472397
  0
VERTEX
  8
LAYER_7
 10
145.4161
 20
-4.13
 42
-0.08429664184
  0
VERTEX
  8
LAYER_7
 10
145.322
 20
-4.1737
  0
VERTEX
  8
LAYER_7
 10
145.2001
 20
-4.1885
  0
VERTEX
  8
LAYER_7
 10
145.0444
 20
-4.1885
  0
VERTEX
  8
LAYER_7
 10
145.0444
 20
-4.5957
  0
VERTEX
  8
LAYER_7
 10
144.9552
 20
-4.5957
  0
SEQEND
  0
POLYLINE
  8
LAYER_7
 40
0.05
 41
0.05
 66
1
 10
0
 20
0
 30
0
 70
1
  0
VERTEX
  8
LAYER_7
 10
145.0444
 20
-4.1131
  0
VERTEX
  8
LAYER_7
 10
145.1949
 20
-4.1131
 42
0.1719973382
  0
VERTEX
  8
LAYER_7
 10
145.3548
 20
-4.0724
 42
0.2424570955
  0
VERTEX
  8
LAYER_7
 10
145.4092
 20
-3.9536
 42
0.2614467224
  0
VERTEX
  8
LAYER_7
 10
145.353
 20
-3.8341
 42
0.1401513942
  0
VERTEX
  8
LAYER_7
 10
145.1949
 20
-3.7965
  0
VERTEX
  8
LAYER_7
 10
145.0444
 20
-3.7965
  0
SEQEND
  0
ENDBLK
  0
BLOCK
  8
LAYER_7
  2
AIGNBL0703001E
 70
64
 10
0
 20
0
 30
0
  3
AIGNBL0703001E
  0
POLYLINE
  8
LAYER_7
 40
0.05
 41
0.05
 66
1
 10
0
 20
0
 30
0
 70
1
  0
VERTEX
  8
LAYER_7
 10
145.9322
 20
-4.5162
  0
VERTEX
  8
LAYER_7
 10
146.401
 20
-4.5162
  0
VERTEX
  8
LAYER_7
 10
146.401
 20
-4.5957
  0
VERTEX
  8
LAYER_7
 10
145.8433
 20
-4.5957
  0
VERTEX
  8
LAYER_7
 10
145.8433
 20
-3.72
  0
VERTEX
  8
LAYER_7
 10
146.3862
 20
-3.72
  0
VERTEX
  8
LAYER_7
 10
146.3862
 20
-3.7989
  0
VERTEX
  8
LAYER_7
 10
145.9322
 20
-3.7989
  0
VERTEX
  8
LAYER_7
 10
145.9322
 20
-4.0993
  0
VERTEX
  8
LAYER_7
 10
146.3566
 20
-4.0993
  0
VERTEX
  8
LAYER_7
 10
146.3566
 20
-4.1785
  0
VERTEX
  8
LAYER_7
 10
145.9322
 20
-4.1785
  0
SEQEND
  0
ENDBLK
  0
BLOCK
  8
LAYER_7
  2
AIGNBL0703001F
 70
64
 10
0
 20
0
 30
0
  3
AIGNBL0703001F
  0
POLYLINE
  8
LAYER_7
 40
0.05
 41
0.05
 66
1
 10
0
 20
0
 30
0
 70
1
  0
VERTEX
  8
LAYER_7
 10
146.8351
 20
-4.5957
  0
VERTEX
  8
LAYER_7
 10
146.7462
 20
-4.5957
  0
VERTEX
  8
LAYER_7
 10
146.7462
 20
-3.72
  0
VERTEX
  8
LAYER_7
 10
147.0036
 20
-3.72
  0
VERTEX
  8
LAYER_7
 10
147.1228
 20
-3.7321
  0
VERTEX
  8
LAYER_7
 10
147.2182
 20
-3.7724
 42
-0.1251490281
  0
VERTEX
  8
LAYER_7
 10
147.2806
 20
-3.8447
 42
-0.1051928432
  0
VERTEX
  8
LAYER_7
 10
147.3026
 20
-3.9536
  0
VERTEX
  8
LAYER_7
 10
147.2857
 20
-4.0415
  0
VERTEX
  8
LAYER_7
 10
147.2385
 20
-4.11
  0
VERTEX
  8
LAYER_7
 10
147.1679
 20
-4.1565
  0
VERTEX
  8
LAYER_7
 10
147.0791
 20
-4.1785
  0
VERTEX
  8
LAYER_7
 10
147.335
 20
-4.5957
  0
VERTEX
  8
LAYER_7
 10
147.2262
 20
-4.5957
  0
VERTEX
  8
LAYER_7
 10
146.9836
 20
-4.1861
  0
VERTEX
  8
LAYER_7
 10
146.8351
 20
-4.1861
  0
SEQEND
  0
POLYLINE
  8
LAYER_7
 40
0.05
 41
0.05
 66
1
 10
0
 20
0
 30
0
 70
1
  0
VERTEX
  8
LAYER_7
 10
146.8351
 20
-4.1093
  0
VERTEX
  8
LAYER_7
 10
146.9898
 20
-4.1093
 42
0.1569755974
  0
VERTEX
  8
LAYER_7
 10
147.1559
 20
-4.0707
 42
0.2563621513
  0
VERTEX
  8
LAYER_7
 10
147.2137
 20
-3.9536
  0
VERTEX
  8
LAYER_7
 10
147.1979
 20
-3.8809
  0
VERTEX
  8
LAYER_7
 10
147.1531
 20
-3.8323
  0
VERTEX
  8
LAYER_7
 10
147.0839
 20
-3.8051
  0
VERTEX
  8
LAYER_7
 10
146.9936
 20
-3.7965
  0
VERTEX
  8
LAYER_7
 10
146.8351
 20
-3.7965
  0
SEQEND
  0
ENDBLK
  0
BLOCK
  8
LAYER_7
  2
AIGNBL07030020
 70
64
 10
0
 20
0
 30
0
  3
AIGNBL07030020
  0
POLYLINE
  8
LAYER_7
 40
0.05
 41
0.05
 66
1
 10
0
 20
0
 30
0
 70
1
  0
VERTEX
  8
LAYER_7
 10
147.7467
 20
-4.5957
  0
VERTEX
  8
LAYER_7
 10
147.6582
 20
-4.5957
  0
VERTEX
  8
LAYER_7
 10
147.6582
 20
-3.72
  0
VERTEX
  8
LAYER_7
 10
147.7467
 20
-3.72
  0
SEQEND
  0
ENDBLK
  0
BLOCK
  8
LAYER_7
  2
AIGNBL07030021
 70
64
 10
0
 20
0
 30
0
  3
AIGNBL07030021
  0
POLYLINE
  8
LAYER_7
 40
0.05
 41
0.05
 66
1
 10
0
 20
0
 30
0
 70
1
  0
VERTEX
  8
LAYER_7
 10
148.239
 20
-4.5162
  0
VERTEX
  8
LAYER_7
 10
148.7079
 20
-4.5162
  0
VERTEX
  8
LAYER_7
 10
148.7079
 20
-4.5957
  0
VERTEX
  8
LAYER_7
 10
148.1501
 20
-4.5957
  0
VERTEX
  8
LAYER_7
 10
148.1501
 20
-3.72
  0
VERTEX
  8
LAYER_7
 10
148.6931
 20
-3.72
  0
VERTEX
  8
LAYER_7
 10
148.6931
 20
-3.7989
  0
VERTEX
  8
LAYER_7
 10
148.239
 20
-3.7989
  0
VERTEX
  8
LAYER_7
 10
148.239
 20
-4.0993
  0
VERTEX
  8
LAYER_7
 10
148.6634
 20
-4.0993
  0
VERTEX
  8
LAYER_7
 10
148.6634
 20
-4.1785
  0
VERTEX
  8
LAYER_7
 10
148.239
 20
-4.1785
  0
SEQEND
  0
ENDBLK
  0
BLOCK
  8
LAYER_7
  2
AIGNBL07030022
 70
64
 10
0
 20
0
 30
0
  3
AIGNBL07030022
  0
POLYLINE
  8
LAYER_7
 40
0.05
 41
0.05
 66
1
 10
0
 20
0
 30
0
 70
1
  0
VERTEX
  8
LAYER_7
 10
149.6739
 20
-4.4655
  0
VERTEX
  8
LAYER_7
 10
149.6763
 20
-4.4655
  0
VERTEX
  8
LAYER_7
 10
149.6763
 20
-3.72
  0
VERTEX
  8
LAYER_7
 10
149.7655
 20
-3.72
  0
VERTEX
  8
LAYER_7
 10
149.7655
 20
-4.5957
  0
VERTEX
  8
LAYER_7
 10
149.6543
 20
-4.5957
  0
VERTEX
  8
LAYER_7
 10
149.1447
 20
-3.8423
  0
VERTEX
  8
LAYER_7
 10
149.142
 20
-3.8423
  0
VERTEX
  8
LAYER_7
 10
149.142
 20
-4.5957
  0
VERTEX
  8
LAYER_7
 10
149.0531
 20
-4.5957
  0
VERTEX
  8
LAYER_7
 10
149.0531
 20
-3.72
  0
VERTEX
  8
LAYER_7
 10
149.1644
 20
-3.72
  0
SEQEND
  0
ENDBLK
  0
BLOCK
  8
LAYER_7
  2
AIGNBL07030023
 70
64
 10
0
 20
0
 30
0
  3
AIGNBL07030023
  0
POLYLINE
  8
LAYER_7
 40
0.05
 41
0.05
 66
1
 10
0
 20
0
 30
0
 70
1
  0
VERTEX
  8
LAYER_7
 10
150.9062
 20
-4.4535
  0
VERTEX
  8
LAYER_7
 10
150.8521
 20
-4.5165
  0
VERTEX
  8
LAYER_7
 10
150.7791
 20
-4.5689
  0
VERTEX
  8
LAYER_7
 10
150.6874
 20
-4.6047
  0
VERTEX
  8
LAYER_7
 10
150.5782
 20
-4.6178
 42
-0.1000682052
  0
VERTEX
  8
LAYER_7
 10
150.3949
 20
-4.583
 42
-0.1034407441
  0
VERTEX
  8
LAYER_7
 10
150.2506
 20
-4.4872
 42
-0.1010263025
  0
VERTEX
  8
LAYER_7
 10
150.1559
 20
-4.3418
 42
-0.09559414111
  0
VERTEX
  8
LAYER_7
 10
150.1218
 20
-4.1576
 42
-0.1022637682
  0
VERTEX
  8
LAYER_7
 10
150.1565
 20
-3.9732
 42
-0.09995964721
  0
VERTEX
  8
LAYER_7
 10
150.252
 20
-3.8279
 42
-0.09773712273
  0
VERTEX
  8
LAYER_7
 10
150.3967
 20
-3.7321
 42
-0.09710431873
  0
VERTEX
  8
LAYER_7
 10
150.5782
 20
-3.6973
  0
VERTEX
  8
LAYER_7
 10
150.6726
 20
-3.7076
  0
VERTEX
  8
LAYER_7
 10
150.7601
 20
-3.7358
  0
VERTEX
  8
LAYER_7
 10
150.8342
 20
-3.7796
  0
VERTEX
  8
LAYER_7
 10
150.89
 20
-3.8372
  0
VERTEX
  8
LAYER_7
 10
150.816
 20
-3.8919
  0
VERTEX
  8
LAYER_7
 10
150.7791
 20
-3.8495
  0
VERTEX
  8
LAYER_7
 10
150.7253
 20
-3.8123
  0
VERTEX
  8
LAYER_7
 10
150.6578
 20
-3.7865
  0
VERTEX
  8
LAYER_7
 10
150.5793
 20
-3.7765
 42
0.113174973
  0
VERTEX
  8
LAYER_7
 10
150.4267
 20
-3.8075
 42
0.1043770607
  0
VERTEX
  8
LAYER_7
 10
150.3123
 20
-3.8905
 42
0.09614808583
  0
VERTEX
  8
LAYER_7
 10
150.2403
 20
-4.0121
 42
0.083796008
  0
VERTEX
  8
LAYER_7
 10
150.2158
 20
-4.1576
 42
0.09231692079
  0
VERTEX
  8
LAYER_7
 10
150.2413
 20
-4.3029
 42
0.09858996648
  0
VERTEX
  8
LAYER_7
 10
150.3136
 20
-4.4245
 42
0.1046808317
  0
VERTEX
  8
LAYER_7
 10
150.428
 20
-4.5075
 42
0.1066098621
  0
VERTEX
  8
LAYER_7
 10
150.5793
 20
-4.5386
 42
0.1119688629
  0
VERTEX
  8
LAYER_7
 10
150.7226
 20
-4.5075
 42
0.1360900407
  0
VERTEX
  8
LAYER_7
 10
150.8366
 20
-4.4087
  0
SEQEND
  0
ENDBLK
  0
BLOCK
  8
LAYER_7
  2
AIGNBL07030024
 70
64
 10
0
 20
0
 30
0
  3
AIGNBL07030024
  0
POLYLINE
  8
LAYER_7
 40
0.05
 41
0.05
 66
1
 10
0
 20
0
 30
0
 70
1
  0
VERTEX
  8
LAYER_7
 10
151.3189
 20
-4.5162
  0
VERTEX
  8
LAYER_7
 10
151.7878
 20
-4.5162
  0
VERTEX
  8
LAYER_7
 10
151.7878
 20
-4.5957
  0
VERTEX
  8
LAYER_7
 10
151.23
 20
-4.5957
  0
VERTEX
  8
LAYER_7
 10
151.23
 20
-3.72
  0
VERTEX
  8
LAYER_7
 10
151.773
 20
-3.72
  0
VERTEX
  8
LAYER_7
 10
151.773
 20
-3.7989
  0
VERTEX
  8
LAYER_7
 10
151.3189
 20
-3.7989
  0
VERTEX
  8
LAYER_7
 10
151.3189
 20
-4.0993
  0
VERTEX
  8
LAYER_7
 10
151.7434
 20
-4.0993
  0
VERTEX
  8
LAYER_7
 10
151.7434
 20
-4.1785
  0
VERTEX
  8
LAYER_7
 10
151.3189
 20
-4.1785
  0
SEQEND
  0
ENDBLK
  0
BLOCK
  8
LAYER_7
  2
AIGNBL07020004
 70
64
 10
0
 20
0
 30
0
  3
AIGNBL07020004
  0
INSERT
  8
LAYER_7
  2
AIGNBL07030005
 10
0
 20
0
 30
0
  0
ENDBLK
  0
BLOCK
  8
LAYER_7
  2
AIGNBL0702000D
 70
64
 10
0
 20
0
 30
0
  3
AIGNBL0702000D
  0
INSERT
  8
LAYER_7
  2
AIGNBL0703000E
 10
0
 20
0
 30
0
  0
INSERT
  8
LAYER_7
  2
AIGNBL0703000F
 10
0
 20
0
 30
0
  0
INSERT
  8
LAYER_7
  2
AIGNBL07030010
 10
0
 20
0
 30
0
  0
INSERT
  8
LAYER_7
  2
AIGNBL07030011
 10
0
 20
0
 30
0
  0
INSERT
  8
LAYER_7
  2
AIGNBL07030012
 10
0
 20
0
 30
0
  0
INSERT
  8
LAYER_7
  2
AIGNBL07030013
 10
0
 20
0
 30
0
  0
INSERT
  8
LAYER_7
  2
AIGNBL07030014
 10
0
 20
0
 30
0
  0
INSERT
  8
LAYER_7
  2
AIGNBL07030015
 10
0
 20
0
 30
0
  0
INSERT
  8
LAYER_7
  2
AIGNBL07030016
 10
0
 20
0
 30
0
  0
INSERT
  8
LAYER_7
  2
AIGNBL07030017
 10
0
 20
0
 30
0
  0
INSERT
  8
LAYER_7
  2
AIGNBL07030018
 10
0
 20
0
 30
0
  0
INSERT
  8
LAYER_7
  2
AIGNBL07030019
 10
0
 20
0
 30
0
  0
INSERT
  8
LAYER_7
  2
AIGNBL0703001A
 10
0
 20
0
 30
0
  0
INSERT
  8
LAYER_7
  2
AIGNBL0703001B
 10
0
 20
0
 30
0
  0
INSERT
  8
LAYER_7
  2
AIGNBL0703001C
 10
0
 20
0
 30
0
  0
INSERT
  8
LAYER_7
  2
AIGNBL0703001D
 10
0
 20
0
 30
0
  0
INSERT
  8
LAYER_7
  2
AIGNBL0703001E
 10
0
 20
0
 30
0
  0
INSERT
  8
LAYER_7
  2
AIGNBL0703001F
 10
0
 20
0
 30
0
  0
INSERT
  8
LAYER_7
  2
AIGNBL07030020
 10
0
 20
0
 30
0
  0
INSERT
  8
LAYER_7
  2
AIGNBL07030021
 10
0
 20
0
 30
0
  0
INSERT
  8
LAYER_7
  2
AIGNBL07030022
 10
0
 20
0
 30
0
  0
INSERT
  8
LAYER_7
  2
AIGNBL07030023
 10
0
 20
0
 30
0
  0
INSERT
  8
LAYER_7
  2
AIGNBL07030024
 10
0
 20
0
 30
0
  0
ENDBLK
  0
BLOCK
  8
LAYER_1
  2
AIGNBL01010002
 70
64
 10
0
 20
0
 30
0
  3
AIGNBL01010002
  0
POLYLINE
  8
LAYER_1
 40
0.05
 41
0.05
 66
1
 10
0
 20
0
 30
0
 70
1
  0
VERTEX
  8
LAYER_1
 10
145.1851
 20
196.013
  0
VERTEX
  8
LAYER_1
 10
135.1851
 20
196.013
  0
VERTEX
  8
LAYER_1
 10
135.1851
 20
210.013
  0
VERTEX
  8
LAYER_1
 10
145.1851
 20
210.013
  0
SEQEND
  0
POLYLINE
  8
LAYER_1
 40
0.05
 41
0.05
 66
1
 10
0
 20
0
 30
0
 70
1
  0
VERTEX
  8
LAYER_1
 10
141.6855
 20
209.0127
  0
VERTEX
  8
LAYER_1
 10
138.6855
 20
209.0127
  0
VERTEX
  8
LAYER_1
 10
138.6855
 20
208.0127
  0
VERTEX
  8
LAYER_1
 10
141.6855
 20
208.0127
  0
SEQEND
  0
ENDBLK
  0
BLOCK
  8
LAYER_7
  2
AIGNBL07010002
 70
64
 10
0
 20
0
 30
0
  3
AIGNBL07010002
  0
POLYLINE
  8
LAYER_7
 40
0.7056
 41
0.7056
 66
1
 10
0
 20
0
 30
0
 70
1
  0
VERTEX
  8
LAYER_7
 10
206.0763
 20
269.2235
  0
VERTEX
  8
LAYER_7
 10
206.0763
 20
-7.7766
  0
VERTEX
  8
LAYER_7
 10
16.0764
 20
-7.7766
  0
VERTEX
  8
LAYER_7
 10
16.0764
 20
269.2235
  0
SEQEND
  0
ENDBLK
  0
BLOCK
  8
LAYER_7
  2
AIGNBL07010003
 70
64
 10
0
 20
0
 30
0
  3
AIGNBL07010003
  0
INSERT
  8
LAYER_7
  2
AIGNBL07020004
 10
0
 20
0
 30
0
  0
INSERT
  8
LAYER_7
  2
AIGNBL0702000D
 10
0
 20
0
 30
0
  0
ENDBLK
  0
ENDSEC
  0
SECTION
  2
ENTITIES
  0
TEXT
  8
LAYER_1
 10
55.4121
 20
127.8875
 11
55.4121
 21
127.8875
 40
5.2871
 41
0.5
  1
19
  0
TEXT
  8
LAYER_1
 10
66.2039
 20
107.7116
 11
66.2039
 21
107.7116
 40
5.2871
 41
0.5
 50
270
  1
70
  0
TEXT
  8
LAYER_1
 10
109.4779
 20
127.8875
 11
109.4779
 21
127.8875
 40
5.2871
 41
0.5
  1
2
  0
POLYLINE
  8
LAYER_1
 40
0.1693
 41
0.1693
 66
1
 10
0
 20
0
 30
0
  0
VERTEX
  8
LAYER_1
 10
112.4495
 20
104.2856
  0
VERTEX
  8
LAYER_1
 10
111.5341
 20
104.2856
  0
SEQEND
  0
POLYLINE
  8
LAYER_1
 40
0.1058
 41
0.1058
 66
1
 10
0
 20
0
 30
0
  0
VERTEX
  8
LAYER_1
 10
94.5451
 20
121.2736
  0
VERTEX
  8
LAYER_1
 10
84.7893
 20
121.2736
  0
SEQEND
  0
POLYLINE
  8
LAYER_1
 40
0.1058
 41
0.1058
 66
1
 10
0
 20
0
 30
0
  0
VERTEX
  8
LAYER_1
 10
94.5451
 20
85.2947
  0
VERTEX
  8
LAYER_1
 10
94.5451
 20
121.2736
  0
SEQEND
  0
POLYLINE
  8
LAYER_1
 40
0.1058
 41
0.1058
 66
1
 10
0
 20
0
 30
0
  0
VERTEX
  8
LAYER_1
 10
94.5451
 20
85.2947
  0
VERTEX
  8
LAYER_1
 10
84.7893
 20
85.2947
  0
SEQEND
  0
POLYLINE
  8
LAYER_1
 40
0.1058
 41
0.1058
 66
1
 10
0
 20
0
 30
0
  0
VERTEX
  8
LAYER_1
 10
84.7893
 20
85.2947
  0
VERTEX
  8
LAYER_1
 10
84.7893
 20
121.2736
  0
SEQEND
  0
POLYLINE
  8
LAYER_1
 40
0.1058
 41
0.1058
 66
1
 10
0
 20
0
 30
0
  0
VERTEX
  8
LAYER_1
 10
87.0976
 20
100.6704
  0
VERTEX
  8
LAYER_1
 10
87.0535
 20
100.6704
 42
0.2026227467
  0
VERTEX
  8
LAYER_1
 10
86.1719
 20
100.2895
 42
0.1917023272
  0
VERTEX
  8
LAYER_1
 10
85.7908
 20
99.3636
 42
0.414215315
  0
VERTEX
  8
LAYER_1
 10
87.0535
 20
98.0998
  0
VERTEX
  8
LAYER_1
 10
87.0976
 20
98.0998
  0
SEQEND
  0
POLYLINE
  8
LAYER_1
 40
0.1058
 41
0.1058
 66
1
 10
0
 20
0
 30
0
  0
VERTEX
  8
LAYER_1
 10
87.0976
 20
98.0998
 42
0.4142169486
  0
VERTEX
  8
LAYER_1
 10
88.3603
 20
99.3636
 42
0.2593050243
  0
VERTEX
  8
LAYER_1
 10
87.7259
 20
100.4728
 42
0.1217104932
  0
VERTEX
  8
LAYER_1
 10
87.0976
 20
100.6704
  0
SEQEND
  0
POLYLINE
  8
LAYER_1
 40
0.1058
 41
0.1058
 66
1
 10
0
 20
0
 30
0
  0
VERTEX
  8
LAYER_1
 10
92.2378
 20
100.6704
  0
VERTEX
  8
LAYER_1
 10
92.1937
 20
100.6704
 42
0.1996055791
  0
VERTEX
  8
LAYER_1
 10
91.3227
 20
100.3006
 42
0.1945948586
  0
VERTEX
  8
LAYER_1
 10
90.931
 20
99.3636
 42
0.4142124652
  0
VERTEX
  8
LAYER_1
 10
92.1937
 20
98.0998
  0
VERTEX
  8
LAYER_1
 10
92.2378
 20
98.0998
  0
SEQEND
  0
POLYLINE
  8
LAYER_1
 40
0.1058
 41
0.1058
 66
1
 10
0
 20
0
 30
0
  0
VERTEX
  8
LAYER_1
 10
92.2378
 20
98.0998
 42
0.3932965713
  0
VERTEX
  8
LAYER_1
 10
93.4996
 20
99.3636
 42
0.2592040647
  0
VERTEX
  8
LAYER_1
 10
92.8655
 20
100.4728
 42
0.121748487
  0
VERTEX
  8
LAYER_1
 10
92.2378
 20
100.6704
  0
SEQEND
  0
POLYLINE
  8
LAYER_1
 40
0.1058
 41
0.1058
 66
1
 10
0
 20
0
 30
0
  0
VERTEX
  8
LAYER_1
 10
92.2378
 20
88.8658
  0
VERTEX
  8
LAYER_1
 10
92.1937
 20
88.8658
 42
0.199624734
  0
VERTEX
  8
LAYER_1
 10
91.3227
 20
88.4959
 42
0.1945776073
  0
VERTEX
  8
LAYER_1
 10
90.931
 20
87.5589
 42
0.4142192777
  0
VERTEX
  8
LAYER_1
 10
92.1937
 20
86.2961
  0
VERTEX
  8
LAYER_1
 10
92.2378
 20
86.2961
  0
SEQEND
  0
POLYLINE
  8
LAYER_1
 40
0.1058
 41
0.1058
 66
1
 10
0
 20
0
 30
0
  0
VERTEX
  8
LAYER_1
 10
92.2378
 20
86.2961
 42
0.4142266253
  0
VERTEX
  8
LAYER_1
 10
93.4996
 20
87.5589
 42
0.2592063831
  0
VERTEX
  8
LAYER_1
 10
92.8655
 20
88.6681
 42
0.1216925415
  0
VERTEX
  8
LAYER_1
 10
92.2378
 20
88.8658
  0
SEQEND
  0
POLYLINE
  8
LAYER_1
 40
0.1058
 41
0.1058
 66
1
 10
0
 20
0
 30
0
  0
VERTEX
  8
LAYER_1
 10
87.0976
 20
88.8658
  0
VERTEX
  8
LAYER_1
 10
87.0535
 20
88.8658
 42
0.1996119322
  0
VERTEX
  8
LAYER_1
 10
86.1828
 20
88.4959
 42
0.1945598891
  0
VERTEX
  8
LAYER_1
 10
85.7908
 20
87.5589
 42
0.4142221299
  0
VERTEX
  8
LAYER_1
 10
87.0535
 20
86.2961
  0
VERTEX
  8
LAYER_1
 10
87.0976
 20
86.2961
  0
SEQEND
  0
POLYLINE
  8
LAYER_1
 40
0.1058
 41
0.1058
 66
1
 10
0
 20
0
 30
0
  0
VERTEX
  8
LAYER_1
 10
87.0976
 20
86.2961
 42
0.4142237649
  0
VERTEX
  8
LAYER_1
 10
88.3603
 20
87.5589
 42
0.2593073431
  0
VERTEX
  8
LAYER_1
 10
87.7259
 20
88.6681
 42
0.121654621
  0
VERTEX
  8
LAYER_1
 10
87.0976
 20
88.8658
  0
SEQEND
  0
POLYLINE
  8
LAYER_1
 40
0.1058
 41
0.1058
 66
1
 10
0
 20
0
 30
0
  0
VERTEX
  8
LAYER_1
 10
63.5763
 20
121.2736
  0
VERTEX
  8
LAYER_1
 10
53.7754
 20
121.2736
  0
SEQEND
  0
POLYLINE
  8
LAYER_1
 40
0.1058
 41
0.1058
 66
1
 10
0
 20
0
 30
0
  0
VERTEX
  8
LAYER_1
 10
63.5763
 20
85.2947
  0
VERTEX
  8
LAYER_1
 10
63.5763
 20
121.2736
  0
SEQEND
  0
POLYLINE
  8
LAYER_1
 40
0.1058
 41
0.1058
 66
1
 10
0
 20
0
 30
0
  0
VERTEX
  8
LAYER_1
 10
63.5763
 20
85.2947
  0
VERTEX
  8
LAYER_1
 10
53.7754
 20
85.2947
  0
SEQEND
  0
POLYLINE
  8
LAYER_1
 40
0.1058
 41
0.1058
 66
1
 10
0
 20
0
 30
0
  0
VERTEX
  8
LAYER_1
 10
53.7754
 20
85.2947
  0
VERTEX
  8
LAYER_1
 10
53.7754
 20
121.2736
  0
SEQEND
  0
POLYLINE
  8
LAYER_1
 40
0.1058
 41
0.1058
 66
1
 10
0
 20
0
 30
0
  0
VERTEX
  8
LAYER_1
 10
63.5763
 20
103.2842
  0
VERTEX
  8
LAYER_1
 10
53.7754
 20
103.2842
  0
SEQEND
  0
POLYLINE
  8
LAYER_1
 40
0.1058
 41
0.1058
 66
1
 10
0
 20
0
 30
0
  0
VERTEX
  8
LAYER_1
 10
56.0838
 20
100.6704
  0
VERTEX
  8
LAYER_1
 10
56.0406
 20
100.6704
 42
0.1996055791
  0
VERTEX
  8
LAYER_1
 10
55.1696
 20
100.3006
 42
0.1945948586
  0
VERTEX
  8
LAYER_1
 10
54.7779
 20
99.3636
 42
0.4142151293
  0
VERTEX
  8
LAYER_1
 10
56.0406
 20
98.0998
  0
VERTEX
  8
LAYER_1
 10
56.0838
 20
98.0998
  0
SEQEND
  0
POLYLINE
  8
LAYER_1
 40
0.1058
 41
0.1058
 66
1
 10
0
 20
0
 30
0
  0
VERTEX
  8
LAYER_1
 10
56.0838
 20
98.0998
 42
0.4142067884
  0
VERTEX
  8
LAYER_1
 10
57.3476
 20
99.3636
 42
0.2594369919
  0
VERTEX
  8
LAYER_1
 10
56.7128
 20
100.4728
 42
0.1216575292
  0
VERTEX
  8
LAYER_1
 10
56.0838
 20
100.6704
  0
SEQEND
  0
POLYLINE
  8
LAYER_1
 40
0.1058
 41
0.1058
 66
1
 10
0
 20
0
 30
0
  0
VERTEX
  8
LAYER_1
 10
61.224
 20
100.6704
  0
VERTEX
  8
LAYER_1
 10
61.1799
 20
100.6704
 42
0.1997287254
  0
VERTEX
  8
LAYER_1
 10
60.3097
 20
100.3006
 42
0.194513661
  0
VERTEX
  8
LAYER_1
 10
59.9182
 20
99.3636
 42
0.3926054977
  0
VERTEX
  8
LAYER_1
 10
61.1799
 20
98.0998
  0
VERTEX
  8
LAYER_1
 10
61.224
 20
98.0998
  0
SEQEND
  0
POLYLINE
  8
LAYER_1
 40
0.1058
 41
0.1058
 66
1
 10
0
 20
0
 30
0
  0
VERTEX
  8
LAYER_1
 10
61.224
 20
98.0998
 42
0.4142140694
  0
VERTEX
  8
LAYER_1
 10
62.4878
 20
99.3636
 42
0.2596005096
  0
VERTEX
  8
LAYER_1
 10
61.8522
 20
100.4728
 42
0.121534506
  0
VERTEX
  8
LAYER_1
 10
61.224
 20
100.6704
  0
SEQEND
  0
POLYLINE
  8
LAYER_1
 40
0.1058
 41
0.1058
 66
1
 10
0
 20
0
 30
0
  0
VERTEX
  8
LAYER_1
 10
61.224
 20
88.8658
  0
VERTEX
  8
LAYER_1
 10
61.1799
 20
88.8658
 42
0.1997478842
  0
VERTEX
  8
LAYER_1
 10
60.3097
 20
88.4959
 42
0.1944964092
  0
VERTEX
  8
LAYER_1
 10
59.9182
 20
87.5589
 42
0.4142250166
  0
VERTEX
  8
LAYER_1
 10
61.1799
 20
86.2961
  0
VERTEX
  8
LAYER_1
 10
61.224
 20
86.2961
  0
SEQEND
  0
POLYLINE
  8
LAYER_1
 40
0.1058
 41
0.1058
 66
1
 10
0
 20
0
 30
0
  0
VERTEX
  8
LAYER_1
 10
61.224
 20
86.2961
 42
0.4142208773
  0
VERTEX
  8
LAYER_1
 10
62.4878
 20
87.5589
 42
0.2596028284
  0
VERTEX
  8
LAYER_1
 10
61.8522
 20
88.6681
 42
0.1214785814
  0
VERTEX
  8
LAYER_1
 10
61.224
 20
88.8658
  0
SEQEND
  0
POLYLINE
  8
LAYER_1
 40
0.1058
 41
0.1058
 66
1
 10
0
 20
0
 30
0
  0
VERTEX
  8
LAYER_1
 10
56.0838
 20
88.8658
  0
VERTEX
  8
LAYER_1
 10
56.0406
 20
88.8658
 42
0.199624734
  0
VERTEX
  8
LAYER_1
 10
55.1696
 20
88.4959
 42
0.1945776073
  0
VERTEX
  8
LAYER_1
 10
54.7779
 20
87.5589
 42
0.414221944
  0
VERTEX
  8
LAYER_1
 10
56.0406
 20
86.2961
  0
VERTEX
  8
LAYER_1
 10
56.0838
 20
86.2961
  0
SEQEND
  0
POLYLINE
  8
LAYER_1
 40
0.1058
 41
0.1058
 66
1
 10
0
 20
0
 30
0
  0
VERTEX
  8
LAYER_1
 10
56.0838
 20
86.2961
 42
0.4142135902
  0
VERTEX
  8
LAYER_1
 10
57.3476
 20
87.5589
 42
0.2594393112
  0
VERTEX
  8
LAYER_1
 10
56.7128
 20
88.6681
 42
0.1216017393
  0
VERTEX
  8
LAYER_1
 10
56.0838
 20
88.8658
  0
SEQEND
  0
POLYLINE
  8
LAYER_1
 40
0.1058
 41
0.1058
 66
1
 10
0
 20
0
 30
0
  0
VERTEX
  8
LAYER_1
 10
94.5451
 20
104.2856
  0
VERTEX
  8
LAYER_1
 10
84.7893
 20
104.2856
  0
SEQEND
  0
POLYLINE
  8
LAYER_1
 40
0.1058
 41
0.1058
 66
1
 10
0
 20
0
 30
0
  0
VERTEX
  8
LAYER_1
 10
111.5341
 20
121.2736
  0
VERTEX
  8
LAYER_1
 10
110.4897
 20
121.2736
  0
SEQEND
  0
POLYLINE
  8
LAYER_1
 40
0.1058
 41
0.1058
 66
1
 10
0
 20
0
 30
0
  0
VERTEX
  8
LAYER_1
 10
111.5341
 20
104.2856
  0
VERTEX
  8
LAYER_1
 10
111.5341
 20
121.2736
  0
SEQEND
  0
POLYLINE
  8
LAYER_1
 40
0.1058
 41
0.1058
 66
1
 10
0
 20
0
 30
0
  0
VERTEX
  8
LAYER_1
 10
113.0593
 20
85.2947
  0
VERTEX
  8
LAYER_1
 10
112.0138
 20
85.2947
  0
SEQEND
  0
POLYLINE
  8
LAYER_1
 40
0.1058
 41
0.1058
 66
1
 10
0
 20
0
 30
0
  0
VERTEX
  8
LAYER_1
 10
112.0138
 20
85.2947
  0
VERTEX
  8
LAYER_1
 10
112.0138
 20
103.2842
  0
SEQEND
  0
POLYLINE
  8
LAYER_1
 40
0.1058
 41
0.1058
 66
1
 10
0
 20
0
 30
0
  0
VERTEX
  8
LAYER_1
 10
110.4897
 20
103.8929
  0
VERTEX
  8
LAYER_1
 10
110.4897
 20
121.2736
  0
SEQEND
  0
POLYLINE
  8
LAYER_1
 40
0.1058
 41
0.1058
 66
1
 10
0
 20
0
 30
0
  0
VERTEX
  8
LAYER_1
 10
112.0138
 20
103.2842
  0
VERTEX
  8
LAYER_1
 10
111.0985
 20
103.2842
  0
SEQEND
  0
POLYLINE
  8
LAYER_1
 40
0.1058
 41
0.1058
 66
1
 10
0
 20
0
 30
0
  0
VERTEX
  8
LAYER_1
 10
110.4897
 20
103.8929
 42
0.4141732942
  0
VERTEX
  8
LAYER_1
 10
111.0985
 20
103.2842
  0
SEQEND
  0
POLYLINE
  8
LAYER_1
 40
0.1058
 41
0.1058
 66
1
 10
0
 20
0
 30
0
  0
VERTEX
  8
LAYER_1
 10
113.0593
 20
85.2947
  0
VERTEX
  8
LAYER_1
 10
113.0593
 20
103.7198
  0
SEQEND
  0
POLYLINE
  8
LAYER_1
 40
0.1058
 41
0.1058
 66
1
 10
0
 20
0
 30
0
  0
VERTEX
  8
LAYER_1
 10
113.0593
 20
103.7198
 42
0.4141738159
  0
VERTEX
  8
LAYER_1
 10
112.4495
 20
104.3297
  0
SEQEND
  0
POLYLINE
  8
LAYER_1
 40
0.1058
 41
0.1058
 66
1
 10
0
 20
0
 30
0
  0
VERTEX
  8
LAYER_1
 10
63.5763
 20
125.3243
  0
VERTEX
  8
LAYER_1
 10
53.7754
 20
125.3243
  0
SEQEND
  0
POLYLINE
  8
LAYER_1
 40
0.1058
 41
0.1058
 66
1
 10
0
 20
0
 30
0
  0
VERTEX
  8
LAYER_1
 10
72.4629
 20
85.2947
  0
VERTEX
  8
LAYER_1
 10
72.4629
 20
121.2736
  0
SEQEND
  0
POLYLINE
  8
LAYER_1
 40
0.1058
 41
0.1058
 66
1
 10
0
 20
0
 30
0
  0
VERTEX
  8
LAYER_1
 10
111.5341
 20
125.3243
  0
VERTEX
  8
LAYER_1
 10
110.4897
 20
125.3243
  0
SEQEND
  0
POLYLINE
  8
LAYER_1
 40
0.1058
 41
0.1058
 66
1
 10
0
 20
0
 30
0
  0
VERTEX
  8
LAYER_1
 10
53.7754
 20
123.0396
  0
VERTEX
  8
LAYER_1
 10
53.7754
 20
126.5215
  0
SEQEND
  0
POLYLINE
  8
LAYER_1
 40
0.1058
 41
0.1058
 66
1
 10
0
 20
0
 30
0
  0
VERTEX
  8
LAYER_1
 10
110.4897
 20
123.0396
  0
VERTEX
  8
LAYER_1
 10
110.4897
 20
126.5215
  0
SEQEND
  0
POLYLINE
  8
LAYER_1
 40
0.1058
 41
0.1058
 66
1
 10
0
 20
0
 30
0
  0
VERTEX
  8
LAYER_1
 10
111.6438
 20
123.0396
  0
VERTEX
  8
LAYER_1
 10
111.6438
 20
126.5215
  0
SEQEND
  0
POLYLINE
  8
LAYER_1
 40
0.1058
 41
0.1058
 66
1
 10
0
 20
0
 30
0
  0
VERTEX
  8
LAYER_1
 10
66.4996
 20
121.2736
  0
VERTEX
  8
LAYER_1
 10
75.0428
 20
121.2736
  0
SEQEND
  0
POLYLINE
  8
LAYER_1
 40
0.1058
 41
0.1058
 66
1
 10
0
 20
0
 30
0
  0
VERTEX
  8
LAYER_1
 10
66.4996
 20
85.2947
  0
VERTEX
  8
LAYER_1
 10
75.0428
 20
85.2947
  0
SEQEND
  0
POLYLINE
  8
LAYER_1
 40
0.1058
 41
0.1058
 66
1
 10
0
 20
0
 30
0
  0
VERTEX
  8
LAYER_1
 10
63.5763
 20
123.0396
  0
VERTEX
  8
LAYER_1
 10
63.5763
 20
126.5215
  0
SEQEND
  0
TEXT
  8
LAYER_1
 10
61.5873
 20
69.264
 11
61.5873
 21
69.264
 40
5.8888
 41
0.5
  1
取り付け金具形状
  0
TEXT
  8
LAYER_1
 10
55.1932
 20
233.7933
 11
55.1932
 21
233.7933
 40
5.3152
 41
0.5
  1
300
  0
TEXT
  8
LAYER_1
 10
82.8331
 20
199.0824
 11
82.8331
 21
199.0824
 40
5.3152
 41
0.5
 50
89.99999999
  1
540
  0
POLYLINE
  8
LAYER_1
 40
0.1058
 41
0.1058
 66
1
 10
0
 20
0
 30
0
  0
VERTEX
  8
LAYER_1
 10
44.5489
 20
232.0113
  0
VERTEX
  8
LAYER_1
 10
74.5489
 20
232.0113
  0
SEQEND
  0
POLYLINE
  8
LAYER_1
 40
0.1058
 41
0.1058
 66
1
 10
0
 20
0
 30
0
  0
VERTEX
  8
LAYER_1
 10
44.5489
 20
227.8729
  0
VERTEX
  8
LAYER_1
 10
44.5489
 20
232.0113
  0
SEQEND
  0
POLYLINE
  8
LAYER_1
 40
0.1058
 41
0.1058
 66
1
 10
0
 20
0
 30
0
  0
VERTEX
  8
LAYER_1
 10
74.5489
 20
227.8729
  0
VERTEX
  8
LAYER_1
 10
74.5489
 20
232.0113
  0
SEQEND
  0
POLYLINE
  8
LAYER_1
 40
0.1058
 41
0.1058
 66
1
 10
0
 20
0
 30
0
  0
VERTEX
  8
LAYER_1
 10
84.667
 20
226.013
  0
VERTEX
  8
LAYER_1
 10
80.4333
 20
226.013
  0
SEQEND
  0
POLYLINE
  8
LAYER_1
 40
0.1058
 41
0.1058
 66
1
 10
0
 20
0
 30
0
  0
VERTEX
  8
LAYER_1
 10
84.667
 20
226.013
  0
VERTEX
  8
LAYER_1
 10
84.667
 20
172.013
  0
VERTEX
  8
LAYER_1
 10
80.4333
 20
172.013
  0
SEQEND
  0
POLYLINE
  8
LAYER_1
 40
0.1058
 41
0.1058
 66
1
 10
0
 20
0
 30
0
  0
VERTEX
  8
LAYER_1
 10
146.1431
 20
180.013
  0
VERTEX
  8
LAYER_1
 10
146.1431
 20
182.0134
  0
SEQEND
  0
POLYLINE
  8
LAYER_1
 40
0.1058
 41
0.1058
 66
1
 10
0
 20
0
 30
0
  0
VERTEX
  8
LAYER_1
 10
134.2916
 20
180.013
  0
VERTEX
  8
LAYER_1
 10
134.2916
 20
182.0134
  0
SEQEND
  0
POLYLINE
  8
LAYER_1
 40
0.1058
 41
0.1058
 66
1
 10
0
 20
0
 30
0
  0
VERTEX
  8
LAYER_1
 10
181.0073
 20
172.0129
  0
VERTEX
  8
LAYER_1
 10
180.4993
 20
172.0129
  0
VERTEX
  8
LAYER_1
 10
180.4993
 20
226.013
  0
SEQEND
  0
POLYLINE
  8
LAYER_1
 40
0.1058
 41
0.1058
 66
1
 10
0
 20
0
 30
0
  0
VERTEX
  8
LAYER_1
 10
181.0073
 20
226.013
  0
VERTEX
  8
LAYER_1
 10
180.4993
 20
226.013
  0
SEQEND
  0
POLYLINE
  8
LAYER_1
 40
0.1058
 41
0.1058
 66
1
 10
0
 20
0
 30
0
  0
VERTEX
  8
LAYER_1
 10
181.0073
 20
172.0129
  0
VERTEX
  8
LAYER_1
 10
181.0073
 20
226.013
  0
SEQEND
  0
POLYLINE
  8
LAYER_1
 40
0.1058
 41
0.1058
 66
1
 10
0
 20
0
 30
0
  0
VERTEX
  8
LAYER_1
 10
181.3037
 20
196.0101
  0
VERTEX
  8
LAYER_1
 10
181.3037
 20
210.013
  0
VERTEX
  8
LAYER_1
 10
181.0073
 20
210.013
  0
SEQEND
  0
POLYLINE
  8
LAYER_1
 40
0.1058
 41
0.1058
 66
1
 10
0
 20
0
 30
0
  0
VERTEX
  8
LAYER_1
 10
181.3037
 20
196.0101
  0
VERTEX
  8
LAYER_1
 10
181.0073
 20
196.0101
  0
SEQEND
  0
POLYLINE
  8
LAYER_1
 40
0.1058
 41
0.1058
 66
1
 10
0
 20
0
 30
0
  0
VERTEX
  8
LAYER_1
 10
181.8011
 20
208.0126
  0
VERTEX
  8
LAYER_1
 10
181.8011
 20
209.0075
  0
VERTEX
  8
LAYER_1
 10
181.3037
 20
209.0075
  0
SEQEND
  0
POLYLINE
  8
LAYER_1
 40
0.1058
 41
0.1058
 66
1
 10
0
 20
0
 30
0
  0
VERTEX
  8
LAYER_1
 10
181.8011
 20
208.0126
  0
VERTEX
  8
LAYER_1
 10
181.3037
 20
208.0126
  0
SEQEND
  0
POLYLINE
  8
LAYER_1
 40
0.1058
 41
0.1058
 66
1
 10
0
 20
0
 30
0
  0
VERTEX
  8
LAYER_1
 10
146.1431
 20
182.0134
  0
VERTEX
  8
LAYER_1
 10
134.2916
 20
182.0134
  0
SEQEND
  0
POLYLINE
  8
LAYER_1
 40
0.1058
 41
0.1058
 66
1
 10
0
 20
0
 30
0
  0
VERTEX
  8
LAYER_1
 10
146.1431
 20
180.013
  0
VERTEX
  8
LAYER_1
 10
134.2916
 20
180.013
  0
SEQEND
  0
POLYLINE
  8
LAYER_1
 40
0.1058
 41
0.1058
 66
1
 10
0
 20
0
 30
0
  0
VERTEX
  8
LAYER_1
 10
182.0022
 20
182.0134
  0
VERTEX
  8
LAYER_1
 10
181.0073
 20
182.0134
  0
SEQEND
  0
POLYLINE
  8
LAYER_1
 40
0.1058
 41
0.1058
 66
1
 10
0
 20
0
 30
0
  0
VERTEX
  8
LAYER_1
 10
182.0022
 20
180.013
  0
VERTEX
  8
LAYER_1
 10
182.0022
 20
182.0134
  0
SEQEND
  0
POLYLINE
  8
LAYER_1
 40
0.1058
 41
0.1058
 66
1
 10
0
 20
0
 30
0
  0
VERTEX
  8
LAYER_1
 10
182.0022
 20
180.013
  0
VERTEX
  8
LAYER_1
 10
181.0073
 20
180.013
  0
SEQEND
  0
TEXT
  8
LAYER_1
 10
58.0237
 20
183.199
 11
58.0237
 21
183.199
 40
5.3152
 41
0.5
 50
89.99999999
  1
150R
  0
POLYLINE
  8
LAYER_1
 40
0.1058
 41
0.1058
 66
1
 10
0
 20
0
 30
0
  0
VERTEX
  8
LAYER_1
 10
59.5019
 20
172.0129
  0
VERTEX
  8
LAYER_1
 10
59.5019
 20
197.0128
  0
SEQEND
  0
POLYLINE
  8
LAYER_1
  6
AIGENLINE001
 40
0.1058
 41
0.1058
 66
1
 10
0
 20
0
 30
0
 70
128
  0
VERTEX
  8
LAYER_1
 10
140.2209
 20
206.8611
  0
VERTEX
  8
LAYER_1
 10
140.2209
 20
233.9071
  0
SEQEND
  0
TEXT
  8
LAYER_1
 10
119.0275
 20
213.4756
 11
119.0275
 21
213.4756
 40
5.3152
 41
0.5
 50
89.99999999
  1
160
  0
POLYLINE
  8
LAYER_1
 40
0.1058
 41
0.1058
 66
1
 10
0
 20
0
 30
0
  0
VERTEX
  8
LAYER_1
 10
119.7208
 20
210.013
  0
VERTEX
  8
LAYER_1
 10
119.7208
 20
226.013
  0
VERTEX
  8
LAYER_1
 10
123.0019
 20
226.013
  0
SEQEND
  0
POLYLINE
  8
LAYER_1
  6
AIGENLINE001
 40
0.1058
 41
0.1058
 66
1
 10
0
 20
0
 30
0
 70
128
  0
VERTEX
  8
LAYER_1
 10
119.7208
 20
210.013
  0
VERTEX
  8
LAYER_1
 10
130.5025
 20
210.013
  0
SEQEND
  0
TEXT
  8
LAYER_1
 10
166.5349
 20
213.4756
 11
166.5349
 21
213.4756
 40
5.3152
 41
0.5
 50
89.99999999
  1
180
  0
POLYLINE
  8
LAYER_1
 40
0.1058
 41
0.1058
 66
1
 10
0
 20
0
 30
0
  0
VERTEX
  8
LAYER_1
 10
161.7569
 20
208.013
  0
VERTEX
  8
LAYER_1
 10
161.7569
 20
226.013
  0
VERTEX
  8
LAYER_1
 10
158.4758
 20
226.013
  0
SEQEND
  0
POLYLINE
  8
LAYER_1
  6
AIGENLINE001
 40
0.1058
 41
0.1058
 66
1
 10
0
 20
0
 30
0
 70
128
  0
VERTEX
  8
LAYER_1
 10
161.7569
 20
208.013
  0
VERTEX
  8
LAYER_1
 10
142.4989
 20
208.013
  0
SEQEND
  0
TEXT
  8
LAYER_1
 10
119.0275
 20
183.4756
 11
119.0275
 21
183.4756
 40
5.3152
 41
0.5
 50
89.99999999
  1
160
  0
POLYLINE
  8
LAYER_1
 40
0.1058
 41
0.1058
 66
1
 10
0
 20
0
 30
0
  0
VERTEX
  8
LAYER_1
 10
119.7208
 20
180.013
  0
VERTEX
  8
LAYER_1
 10
119.7208
 20
196.013
  0
VERTEX
  8
LAYER_1
 10
123.0019
 20
196.013
  0
SEQEND
  0
POLYLINE
  8
LAYER_1
  6
AIGENLINE001
 40
0.1058
 41
0.1058
 66
1
 10
0
 20
0
 30
0
 70
128
  0
VERTEX
  8
LAYER_1
 10
119.7208
 20
180.013
  0
VERTEX
  8
LAYER_1
 10
130.5025
 20
180.013
  0
SEQEND
  0
TEXT
  8
LAYER_1
 10
119.0275
 20
198.7691
 11
119.0275
 21
198.7691
 40
5.3152
 41
0.5
 50
89.99999999
  1
140
  0
POLYLINE
  8
LAYER_1
 40
0.1058
 41
0.1058
 66
1
 10
0
 20
0
 30
0
  0
VERTEX
  8
LAYER_1
 10
119.7208
 20
196.013
  0
VERTEX
  8
LAYER_1
 10
119.7208
 20
210.013
  0
VERTEX
  8
LAYER_1
 10
123.0019
 20
210.013
  0
SEQEND
  0
POLYLINE
  8
LAYER_1
  6
AIGENLINE001
 40
0.1058
 41
0.1058
 66
1
 10
0
 20
0
 30
0
 70
128
  0
VERTEX
  8
LAYER_1
 10
119.7208
 20
196.013
  0
VERTEX
  8
LAYER_1
 10
130.5025
 20
196.013
  0
SEQEND
  0
POLYLINE
  8
LAYER_1
  6
AIGENLINE001
 40
0.1058
 41
0.1058
 66
1
 10
0
 20
0
 30
0
 70
128
  0
VERTEX
  8
LAYER_1
 10
119.7208
 20
180.013
  0
VERTEX
  8
LAYER_1
 10
130.5025
 20
180.013
  0
SEQEND
  0
TEXT
  8
LAYER_1
 10
119.0275
 20
172.6098
 11
119.0275
 21
172.6098
 40
5.3152
 41
0.5
 50
89.99999999
  1
80
  0
POLYLINE
  8
LAYER_1
  6
AIGENLINE001
 40
0.1058
 41
0.1058
 66
1
 10
0
 20
0
 30
0
 70
128
  0
VERTEX
  8
LAYER_1
 10
119.7208
 20
180.013
  0
VERTEX
  8
LAYER_1
 10
130.5025
 20
180.013
  0
SEQEND
  0
POLYLINE
  8
LAYER_1
 40
0.1058
 41
0.1058
 66
1
 10
0
 20
0
 30
0
  0
VERTEX
  8
LAYER_1
 10
119.7208
 20
172.013
  0
VERTEX
  8
LAYER_1
 10
119.7208
 20
180.013
  0
VERTEX
  8
LAYER_1
 10
123.0019
 20
180.013
  0
SEQEND
  0
POLYLINE
  8
LAYER_1
  6
AIGENLINE001
 40
0.1058
 41
0.1058
 66
1
 10
0
 20
0
 30
0
 70
128
  0
VERTEX
  8
LAYER_1
 10
119.7208
 20
172.013
  0
VERTEX
  8
LAYER_1
 10
139.5277
 20
172.013
  0
SEQEND
  0
TEXT
  8
LAYER_1
 10
135.6115
 20
174.3589
 11
135.6115
 21
174.3589
 40
5.3152
 41
0.5
  1
120
  0
POLYLINE
  8
LAYER_1
 40
0.1058
 41
0.1058
 66
1
 10
0
 20
0
 30
0
  0
VERTEX
  8
LAYER_1
 10
146.1428
 20
178.5074
  0
VERTEX
  8
LAYER_1
 10
134.294
 20
178.5074
  0
SEQEND
  0
POLYLINE
  8
LAYER_1
 40
0.1058
 41
0.1058
 66
1
 10
0
 20
0
 30
0
  0
VERTEX
  8
LAYER_1
 10
134.2968
 20
177.4563
  0
VERTEX
  8
LAYER_1
 10
134.2968
 20
179.4563
  0
SEQEND
  0
POLYLINE
  8
LAYER_1
 40
0.1058
 41
0.1058
 66
1
 10
0
 20
0
 30
0
  0
VERTEX
  8
LAYER_1
 10
146.1431
 20
177.4563
  0
VERTEX
  8
LAYER_1
 10
146.1431
 20
179.4563
  0
SEQEND
  0
TEXT
  8
LAYER_1
 10
135.2905
 20
188.6571
 11
135.2905
 21
188.6571
 40
5.3152
 41
0.5
  1
100
  0
POLYLINE
  8
LAYER_1
 40
0.1058
 41
0.1058
 66
1
 10
0
 20
0
 30
0
  0
VERTEX
  8
LAYER_1
 10
145.182
 20
193.2977
  0
VERTEX
  8
LAYER_1
 10
135.1823
 20
193.2977
  0
SEQEND
  0
POLYLINE
  8
LAYER_1
 40
0.1058
 41
0.1058
 66
1
 10
0
 20
0
 30
0
  0
VERTEX
  8
LAYER_1
 10
145.186
 20
191.7698
  0
VERTEX
  8
LAYER_1
 10
145.186
 20
194.7698
  0
SEQEND
  0
POLYLINE
  8
LAYER_1
 40
0.1058
 41
0.1058
 66
1
 10
0
 20
0
 30
0
  0
VERTEX
  8
LAYER_1
 10
135.1846
 20
191.7698
  0
VERTEX
  8
LAYER_1
 10
135.1846
 20
194.7698
  0
SEQEND
  0
POLYLINE
  8
LAYER_1
 40
0.1058
 41
0.1058
 66
1
 10
0
 20
0
 30
0
  0
VERTEX
  8
LAYER_1
 10
145.1872
 20
191.7698
  0
VERTEX
  8
LAYER_1
 10
145.1872
 20
194.7698
  0
SEQEND
  0
TEXT
  8
LAYER_1
 10
145.2905
 20
188.6571
 11
145.2905
 21
188.6571
 40
5.3152
 41
0.5
  1
100
  0
POLYLINE
  8
LAYER_1
 40
0.1058
 41
0.1058
 66
1
 10
0
 20
0
 30
0
  0
VERTEX
  8
LAYER_1
 10
155.182
 20
193.2977
  0
VERTEX
  8
LAYER_1
 10
145.1823
 20
193.2977
  0
SEQEND
  0
POLYLINE
  8
LAYER_1
 40
0.1058
 41
0.1058
 66
1
 10
0
 20
0
 30
0
  0
VERTEX
  8
LAYER_1
 10
155.186
 20
191.7698
  0
VERTEX
  8
LAYER_1
 10
155.186
 20
194.7698
  0
SEQEND
  0
POLYLINE
  8
LAYER_1
 40
0.1058
 41
0.1058
 66
1
 10
0
 20
0
 30
0
  0
VERTEX
  8
LAYER_1
 10
145.1846
 20
191.7698
  0
VERTEX
  8
LAYER_1
 10
145.1846
 20
194.7698
  0
SEQEND
  0
POLYLINE
  8
LAYER_1
 40
0.1058
 41
0.1058
 66
1
 10
0
 20
0
 30
0
  0
VERTEX
  8
LAYER_1
 10
155.1872
 20
191.7698
  0
VERTEX
  8
LAYER_1
 10
155.1872
 20
194.7698
  0
SEQEND
  0
TEXT
  8
LAYER_1
 10
125.2904
 20
188.6571
 11
125.2904
 21
188.6571
 40
5.3152
 41
0.5
  1
100
  0
POLYLINE
  8
LAYER_1
 40
0.1058
 41
0.1058
 66
1
 10
0
 20
0
 30
0
  0
VERTEX
  8
LAYER_1
 10
135.182
 20
193.2977
  0
VERTEX
  8
LAYER_1
 10
125.1823
 20
193.2977
  0
SEQEND
  0
POLYLINE
  8
LAYER_1
 40
0.1058
 41
0.1058
 66
1
 10
0
 20
0
 30
0
  0
VERTEX
  8
LAYER_1
 10
135.186
 20
191.7698
  0
VERTEX
  8
LAYER_1
 10
135.186
 20
194.7698
  0
SEQEND
  0
POLYLINE
  8
LAYER_1
 40
0.1058
 41
0.1058
 66
1
 10
0
 20
0
 30
0
  0
VERTEX
  8
LAYER_1
 10
125.1846
 20
191.7698
  0
VERTEX
  8
LAYER_1
 10
125.1846
 20
194.7698
  0
SEQEND
  0
POLYLINE
  8
LAYER_1
 40
0.1058
 41
0.1058
 66
1
 10
0
 20
0
 30
0
  0
VERTEX
  8
LAYER_1
 10
135.1872
 20
191.7698
  0
VERTEX
  8
LAYER_1
 10
135.1872
 20
194.7698
  0
SEQEND
  0
TEXT
  8
LAYER_1
 10
143.4694
 20
235.5826
 11
143.4694
 21
235.5826
 40
5.3152
 41
0.5
  1
150
  0
POLYLINE
  8
LAYER_1
 40
0.1058
 41
0.1058
 66
1
 10
0
 20
0
 30
0
  0
VERTEX
  8
LAYER_1
 10
155.2113
 20
233.5393
  0
VERTEX
  8
LAYER_1
 10
140.2174
 20
233.5393
  0
SEQEND
  0
POLYLINE
  8
LAYER_1
 40
0.1058
 41
0.1058
 66
1
 10
0
 20
0
 30
0
  0
VERTEX
  8
LAYER_1
 10
155.2174
 20
232.0113
  0
VERTEX
  8
LAYER_1
 10
155.2174
 20
235.0113
  0
SEQEND
  0
POLYLINE
  8
LAYER_1
 40
0.1058
 41
0.1058
 66
1
 10
0
 20
0
 30
0
  0
VERTEX
  8
LAYER_1
 10
140.2209
 20
232.0113
  0
VERTEX
  8
LAYER_1
 10
140.2209
 20
235.0113
  0
SEQEND
  0
TEXT
  8
LAYER_1
 10
128.4694
 20
235.5826
 11
128.4694
 21
235.5826
 40
5.3152
 41
0.5
  1
150
  0
POLYLINE
  8
LAYER_1
 40
0.1058
 41
0.1058
 66
1
 10
0
 20
0
 30
0
  0
VERTEX
  8
LAYER_1
 10
140.2113
 20
233.5393
  0
VERTEX
  8
LAYER_1
 10
125.2174
 20
233.5393
  0
SEQEND
  0
POLYLINE
  8
LAYER_1
 40
0.1058
 41
0.1058
 66
1
 10
0
 20
0
 30
0
  0
VERTEX
  8
LAYER_1
 10
140.2174
 20
232.0113
  0
VERTEX
  8
LAYER_1
 10
140.2174
 20
235.0113
  0
SEQEND
  0
POLYLINE
  8
LAYER_1
 40
0.1058
 41
0.1058
 66
1
 10
0
 20
0
 30
0
  0
VERTEX
  8
LAYER_1
 10
125.2209
 20
232.0113
  0
VERTEX
  8
LAYER_1
 10
125.2209
 20
235.0113
  0
SEQEND
  0
INSERT
  8
LAYER_1
  2
AIGNBL01010002
 10
0
 20
0
 30
0
  0
TEXT
  8
LAYER_7
 10
18.4399
 20
5.4632
 11
18.4399
 21
5.4632
 40
3.2995
 41
0.5
  1
仕様
  0
POLYLINE
  8
LAYER_7
 40
0.3528
 41
0.3528
 66
1
 10
0
 20
0
 30
0
  0
VERTEX
  8
LAYER_7
 10
205.0762
 20
10.8455
  0
VERTEX
  8
LAYER_7
 10
17.0763
 20
10.8455
  0
SEQEND
  0
INSERT
  8
LAYER_7
  2
AIGNBL07010002
 10
0
 20
0
 30
0
  0
POLYLINE
  8
LAYER_7
 40
0.3528
 41
0.3528
 66
1
 10
0
 20
0
 30
0
  0
VERTEX
  8
LAYER_7
 10
17.0763
 20
268.2234
  0
VERTEX
  8
LAYER_7
 10
17.0763
 20
-6.7769
  0
VERTEX
  8
LAYER_7
 10
205.0762
 20
-6.7769
  0
VERTEX
  8
LAYER_7
 10
205.0762
 20
268.2234
  0
VERTEX
  8
LAYER_7
 10
17.0763
 20
268.2234
  0
SEQEND
  0
POLYLINE
  8
LAYER_7
 40
0.3528
 41
0.3528
 66
1
 10
0
 20
0
 30
0
  0
VERTEX
  8
LAYER_7
 10
205.0762
 20
19.3546
  0
VERTEX
  8
LAYER_7
 10
17.0763
 20
19.3546
  0
SEQEND
  0
POLYLINE
  8
LAYER_7
 40
0.3528
 41
0.3528
 66
1
 10
0
 20
0
 30
0
  0
VERTEX
  8
LAYER_7
 10
205.0762
 20
2.3365
  0
VERTEX
  8
LAYER_7
 10
127.3025
 20
2.3365
  0
SEQEND
  0
TEXT
  8
LAYER_7
 10
157.5084
 20
4.6123
 11
157.5084
 21
4.6123
 40
3.7615
 41
0.5
  1
-
  0
TEXT
  8
LAYER_7
 10
152.2167
 20
8.3692
 11
152.2167
 21
8.3692
 40
2.1997
 41
0.5
  1
縮尺
  0
POLYLINE
  8
LAYER_7
 40
0.3528
 41
0.3528
 66
1
 10
0
 20
0
 30
0
  0
VERTEX
  8
LAYER_7
 10
150.6885
 20
2.3365
  0
VERTEX
  8
LAYER_7
 10
150.6885
 20
10.8455
  0
SEQEND
  0
TEXT
  8
LAYER_7
 10
128.0011
 20
16.8782
 11
128.0011
 21
16.8782
 40
2.1997
 41
0.5
  1
品番
  0
TEXT
  8
LAYER_7
 10
18.2332
 20
16.8782
 11
18.2332
 21
16.8782
 40
2.1997
 41
0.5
  1
品名
  0
TEXT
  8
LAYER_7
 10
128.0011
 20
8.3692
 11
128.0011
 21
8.3692
 40
2.1997
 41
0.5
  1
重量
  0
TEXT
  8
LAYER_7
 10
135.5345
 20
13.0462
 11
135.5345
 21
13.0462
 40
5.9385
 41
0.5
  1
AQ-OVB300/540
  0
TEXT
  8
LAYER_7
 10
133.3138
 20
4.6123
 11
133.3138
 21
4.6123
 40
3.7615
 41
0.5
  1
-
  0
POLYLINE
  8
LAYER_7
 40
0.3528
 41
0.3528
 66
1
 10
0
 20
0
 30
0
  0
VERTEX
  8
LAYER_7
 10
127.3025
 20
-6.1512
  0
VERTEX
  8
LAYER_7
 10
127.3025
 20
19.3546
  0
SEQEND
  0
TEXT
  8
LAYER_7
 10
24.4163
 20
13.7859
 11
24.4163
 21
13.7859
 40
3.6373
 41
0.5
  1
オーバルミラー
  0
TEXT
  8
LAYER_7
 10
29.012
 20
6.2546
 11
29.012
 21
6.2546
 40
3.258
 41
0.5
  1
●ミラー：5mm厚（Agガード加工・小口磨き）
  0
TEXT
  8
LAYER_7
 10
29.012
 20
1.5045
 11
29.012
 21
1.5045
 40
3.258
 41
0.5
  1
●サイズ：W300×H540×D15mm●重量：
  0
TEXT
  8
LAYER_7
 10
29.012
 20
-3.2453
 11
29.012
 21
-3.2453
 40
2.8579
 41
0.5
  1
●設置方法：壁付け（取り付け金具同梱）
  0
TEXT
  8
LAYER_7
 10
191.6644
 20
22.153
 11
191.6644
 21
22.153
 40
2.9618
 41
0.5
  1
単位：mm
  0
TEXT
  8
LAYER_7
 10
192.6441
 20
263.5136
 11
192.6441
 21
263.5136
 40
2.0732
 41
0.5
  1
200615RT
  0
TEXT
  8
LAYER_7
 10
154.3861
 20
-1.5679
 11
154.3861
 21
-1.5679
 40
2.8694
 41
0.5
  1
●TEL 0120-65-1232●FAX 06-6532-1580
  0
TEXT
  8
LAYER_7
 10
154.3861
 20
-4.5472
 11
154.3861
 21
-4.5472
 40
2.8694
 41
0.5
  1
hits@hiratatile.co.jp
  0
INSERT
  8
LAYER_7
  2
AIGNBL07010003
 10
0
 20
0
 30
0
  0
POLYLINE
  8
LAYER_7
 40
0.1058
 41
0.1058
 66
1
 10
0
 20
0
 30
0
 70
1
  0
VERTEX
  8
LAYER_7
 10
59.5019
 20
226.013
 42
0.4142135774
  0
VERTEX
  8
LAYER_7
 10
44.5018
 20
211.013
  0
VERTEX
  8
LAYER_7
 10
44.5018
 20
187.013
 42
0.4142154147
  0
VERTEX
  8
LAYER_7
 10
59.5019
 20
172.0129
 42
0.4142135341
  0
VERTEX
  8
LAYER_7
 10
74.5018
 20
187.013
  0
VERTEX
  8
LAYER_7
 10
74.5018
 20
211.013
 42
0.4142116971
  0
SEQEND
  0
POLYLINE
  8
LAYER_7
 40
0.1058
 41
0.1058
 66
1
 10
0
 20
0
 30
0
 70
1
  0
VERTEX
  8
LAYER_7
 10
140.1704
 20
226.013
 42
0.4142132158
  0
VERTEX
  8
LAYER_7
 10
125.1704
 20
211.013
  0
VERTEX
  8
LAYER_7
 10
125.1704
 20
187.013
 42
0.4142150531
  0
VERTEX
  8
LAYER_7
 10
140.1704
 20
172.0129
 42
0.4142138957
  0
VERTEX
  8
LAYER_7
 10
155.1704
 20
187.013
  0
VERTEX
  8
LAYER_7
 10
155.1704
 20
211.013
 42
0.4142120587
  0
SEQEND
  0
ENDSEC
  0
EOF
