  0
SECTION
  2
HEADER
  9
$ACADVER
  1
AC1009
  9
$LUNITS
 70
2
  9
$LUPREC
 70
4
  9
$LTSCALE
 40
1.0
  9
$EXTMIN
 10
-30.3177
 20
33.3285
 30
0
  9
$EXTMAX
 10
251.6749
 20
230.337
 30
0
  0
ENDSEC
  0
SECTION
  2
TABLES
  0
TABLE
  2
LTYPE
 70
256
  0
LTYPE
  2
AIGENLINE001
 70
64
  3
generate AI->DXF Converter
 72
65
 73
4
 40
14
 49
11
 49
-1
 49
1
 49
-1
  0
LTYPE
  2
AIGENLINE002
 70
64
  3
generate AI->DXF Converter
 72
65
 73
6
 40
13.0071
 49
10
 49
-1
 49
0.0035
 49
-1
 49
0.0035
 49
-1
  0
ENDTAB
  0
TABLE
  2
LAYER
 70
5
  0
LAYER
  2
LAYER_1
 70
64
 62
7
  6
CONTINUOUS
  0
LAYER
  2
LAYER_2
 70
64
 62
7
  6
CONTINUOUS
  0
LAYER
  2
LAYER_3
 70
64
 62
7
  6
CONTINUOUS
  0
LAYER
  2
LAYER_4
 70
64
 62
7
  6
CONTINUOUS
  0
LAYER
  2
LAYER_5
 70
64
 62
7
  6
CONTINUOUS
  0
ENDTAB
  0
TABLE
  2
STYLE
 70
6
  0
STYLE
  2
STANDARD
 70
0
 40
0
 50
0
 71
0
 41
0
 42
0
  3
TXT
  4
BIGFONT
  0
ENDTAB
  0
ENDSEC
  0
SECTION
  2
BLOCKS
  0
BLOCK
  8
LAYER_5
  2
AIGNBL05040006
 70
64
 10
0
 20
0
 30
0
  3
AIGNBL05040006
  0
POLYLINE
  8
LAYER_5
 40
0.05
 41
0.05
 66
1
 10
0
 20
0
 30
0
 70
1
  0
VERTEX
  8
LAYER_5
 10
146.7545
 20
39.1418
  0
VERTEX
  8
LAYER_5
 10
146.2656
 20
37.9567
  0
VERTEX
  8
LAYER_5
 10
145.6376
 20
37.9567
  0
VERTEX
  8
LAYER_5
 10
147.2372
 20
41.7225
  0
VERTEX
  8
LAYER_5
 10
147.9703
 20
41.7225
  0
VERTEX
  8
LAYER_5
 10
149.5768
 20
37.9567
  0
VERTEX
  8
LAYER_5
 10
148.9267
 20
37.9567
  0
VERTEX
  8
LAYER_5
 10
148.424
 20
39.1418
  0
SEQEND
  0
POLYLINE
  8
LAYER_5
 40
0.05
 41
0.05
 66
1
 10
0
 20
0
 30
0
 70
1
  0
VERTEX
  8
LAYER_5
 10
148.2983
 20
39.5207
  0
VERTEX
  8
LAYER_5
 10
147.8373
 20
40.6056
 42
-0.02317247198
  0
VERTEX
  8
LAYER_5
 10
147.5927
 20
41.2926
  0
VERTEX
  8
LAYER_5
 10
147.5789
 20
41.2926
 42
-0.02064481114
  0
VERTEX
  8
LAYER_5
 10
147.3412
 20
40.6101
  0
VERTEX
  8
LAYER_5
 10
146.8806
 20
39.5207
  0
SEQEND
  0
ENDBLK
  0
BLOCK
  8
LAYER_5
  2
AIGNBL05040007
 70
64
 10
0
 20
0
 30
0
  3
AIGNBL05040007
  0
POLYLINE
  8
LAYER_5
 40
0.05
 41
0.05
 66
1
 10
0
 20
0
 30
0
 70
1
  0
VERTEX
  8
LAYER_5
 10
153.942
 20
37.4034
 42
-0.01520763512
  0
VERTEX
  8
LAYER_5
 10
152.1399
 20
37.8395
 42
0.09160443264
  0
VERTEX
  8
LAYER_5
 10
151.8533
 20
37.895
 42
-0.09256808484
  0
VERTEX
  8
LAYER_5
 10
150.8994
 20
38.0977
 42
-0.09799469934
  0
VERTEX
  8
LAYER_5
 10
150.2621
 20
38.5324
 42
-0.1630918382
  0
VERTEX
  8
LAYER_5
 10
149.7964
 20
39.5259
 42
-0.0316951694
  0
VERTEX
  8
LAYER_5
 10
149.7793
 20
39.7998
 42
-0.1055313794
  0
VERTEX
  8
LAYER_5
 10
149.9533
 20
40.6417
 42
-0.1619874109
  0
VERTEX
  8
LAYER_5
 10
150.7418
 20
41.4867
 42
-0.09224146328
  0
VERTEX
  8
LAYER_5
 10
151.5409
 20
41.7524
 42
-0.03717154931
  0
VERTEX
  8
LAYER_5
 10
151.9725
 20
41.7838
 42
-0.09530639066
  0
VERTEX
  8
LAYER_5
 10
152.9361
 20
41.6062
 42
-0.1001950085
  0
VERTEX
  8
LAYER_5
 10
153.5732
 20
41.1834
 42
-0.1611155306
  0
VERTEX
  8
LAYER_5
 10
154.0599
 20
40.1825
 42
-0.03590167283
  0
VERTEX
  8
LAYER_5
 10
154.0815
 20
39.8784
 42
-0.1066761192
  0
VERTEX
  8
LAYER_5
 10
153.9051
 20
39.0236
 42
-0.2183970027
  0
VERTEX
  8
LAYER_5
 10
152.7953
 20
38.0897
 42
-0.006706711403
  0
VERTEX
  8
LAYER_5
 10
152.7407
 20
38.0738
  0
VERTEX
  8
LAYER_5
 10
152.7407
 20
38.0514
 42
0.01533555045
  0
VERTEX
  8
LAYER_5
 10
154.117
 20
37.8113
  0
SEQEND
  0
POLYLINE
  8
LAYER_5
 40
0.05
 41
0.05
 66
1
 10
0
 20
0
 30
0
 70
1
  0
VERTEX
  8
LAYER_5
 10
153.4394
 20
39.857
 42
0.1175610784
  0
VERTEX
  8
LAYER_5
 10
153.257
 20
40.6254
 42
0.1170135141
  0
VERTEX
  8
LAYER_5
 10
152.8315
 20
41.1234
 42
0.1200044572
  0
VERTEX
  8
LAYER_5
 10
152.2186
 20
41.3675
 42
0.03774262044
  0
VERTEX
  8
LAYER_5
 10
151.9511
 20
41.3873
 42
0.1153139376
  0
VERTEX
  8
LAYER_5
 10
151.2089
 20
41.2226
 42
0.1853550912
  0
VERTEX
  8
LAYER_5
 10
150.5507
 20
40.4882
 42
0.09859892291
  0
VERTEX
  8
LAYER_5
 10
150.4287
 20
39.8122
 42
0.1178359247
  0
VERTEX
  8
LAYER_5
 10
150.5964
 20
39.0734
 42
0.2866694251
  0
VERTEX
  8
LAYER_5
 10
151.9232
 20
38.2912
 42
0.1188197759
  0
VERTEX
  8
LAYER_5
 10
152.6722
 20
38.4633
 42
0.1796740134
  0
VERTEX
  8
LAYER_5
 10
153.3126
 20
39.18
 42
0.09850052237
  0
SEQEND
  0
ENDBLK
  0
BLOCK
  8
LAYER_5
  2
AIGNBL05040008
 70
64
 10
0
 20
0
 30
0
  3
AIGNBL05040008
  0
POLYLINE
  8
LAYER_5
 40
0.05
 41
0.05
 66
1
 10
0
 20
0
 30
0
 70
1
  0
VERTEX
  8
LAYER_5
 10
155.4089
 20
41.7225
  0
VERTEX
  8
LAYER_5
 10
155.4089
 20
39.4932
 42
0.1220213404
  0
VERTEX
  8
LAYER_5
 10
155.569
 20
38.7775
 42
0.2218709818
  0
VERTEX
  8
LAYER_5
 10
156.2104
 20
38.3206
 42
0.05223876895
  0
VERTEX
  8
LAYER_5
 10
156.5055
 20
38.2912
 42
0.1302821267
  0
VERTEX
  8
LAYER_5
 10
157.1748
 20
38.452
 42
0.1509367336
  0
VERTEX
  8
LAYER_5
 10
157.526
 20
38.8454
 42
0.1174732039
  0
VERTEX
  8
LAYER_5
 10
157.651
 20
39.4932
  0
VERTEX
  8
LAYER_5
 10
157.651
 20
41.7225
  0
VERTEX
  8
LAYER_5
 10
158.2656
 20
41.7225
  0
VERTEX
  8
LAYER_5
 10
158.2656
 20
39.5266
 42
-0.1106199636
  0
VERTEX
  8
LAYER_5
 10
158.0961
 20
38.708
 42
-0.1822316276
  0
VERTEX
  8
LAYER_5
 10
157.4057
 20
38.0637
 42
-0.09768689614
  0
VERTEX
  8
LAYER_5
 10
156.6028
 20
37.8972
 42
-0.01000776787
  0
VERTEX
  8
LAYER_5
 10
156.4845
 20
37.895
 42
-0.09899539667
  0
VERTEX
  8
LAYER_5
 10
155.612
 20
38.0554
 42
-0.120955925
  0
VERTEX
  8
LAYER_5
 10
155.1093
 20
38.4366
 42
-0.1193006487
  0
VERTEX
  8
LAYER_5
 10
154.8407
 20
39.0316
 42
-0.05319923583
  0
VERTEX
  8
LAYER_5
 10
154.7943
 20
39.5045
  0
VERTEX
  8
LAYER_5
 10
154.7943
 20
41.7225
  0
SEQEND
  0
ENDBLK
  0
BLOCK
  8
LAYER_5
  2
AIGNBL05040009
 70
64
 10
0
 20
0
 30
0
  3
AIGNBL05040009
  0
POLYLINE
  8
LAYER_5
 40
0.05
 41
0.05
 66
1
 10
0
 20
0
 30
0
 70
1
  0
VERTEX
  8
LAYER_5
 10
160.0119
 20
39.1418
  0
VERTEX
  8
LAYER_5
 10
159.5227
 20
37.9567
  0
VERTEX
  8
LAYER_5
 10
158.8947
 20
37.9567
  0
VERTEX
  8
LAYER_5
 10
160.4939
 20
41.7225
  0
VERTEX
  8
LAYER_5
 10
161.227
 20
41.7225
  0
VERTEX
  8
LAYER_5
 10
162.8335
 20
37.9567
  0
VERTEX
  8
LAYER_5
 10
162.1841
 20
37.9567
  0
VERTEX
  8
LAYER_5
 10
161.6814
 20
39.1418
  0
SEQEND
  0
POLYLINE
  8
LAYER_5
 40
0.05
 41
0.05
 66
1
 10
0
 20
0
 30
0
 70
1
  0
VERTEX
  8
LAYER_5
 10
161.5553
 20
39.5207
  0
VERTEX
  8
LAYER_5
 10
161.094
 20
40.6056
 42
-0.02227599701
  0
VERTEX
  8
LAYER_5
 10
160.8494
 20
41.2926
  0
VERTEX
  8
LAYER_5
 10
160.8357
 20
41.2926
 42
-0.0208222547
  0
VERTEX
  8
LAYER_5
 10
160.5983
 20
40.6101
  0
VERTEX
  8
LAYER_5
 10
160.1373
 20
39.5207
  0
SEQEND
  0
ENDBLK
  0
BLOCK
  8
LAYER_5
  2
AIGNBL0504000A
 70
64
 10
0
 20
0
 30
0
  3
AIGNBL0504000A
  0
POLYLINE
  8
LAYER_5
 40
0.05
 41
0.05
 66
1
 10
0
 20
0
 30
0
 70
1
  0
VERTEX
  8
LAYER_5
 10
163.8742
 20
41.6777
 42
-0.03334485223
  0
VERTEX
  8
LAYER_5
 10
165.0411
 20
41.7508
 42
-0.08844478427
  0
VERTEX
  8
LAYER_5
 10
166.0871
 20
41.5858
 42
-0.06037505309
  0
VERTEX
  8
LAYER_5
 10
166.3609
 20
41.4379
 42
-0.2472514979
  0
VERTEX
  8
LAYER_5
 10
166.7726
 20
40.6497
 42
-0.1483298328
  0
VERTEX
  8
LAYER_5
 10
166.6029
 20
40.0554
 42
-0.07223194904
  0
VERTEX
  8
LAYER_5
 10
166.4095
 20
39.8456
 42
-0.1209372404
  0
VERTEX
  8
LAYER_5
 10
165.7228
 20
39.517
 42
-0.06224269186
  0
VERTEX
  8
LAYER_5
 10
164.9708
 20
39.4319
 42
-0.05738783264
  0
VERTEX
  8
LAYER_5
 10
164.4823
 20
39.4653
  0
VERTEX
  8
LAYER_5
 10
164.4823
 20
37.9567
  0
VERTEX
  8
LAYER_5
 10
163.8742
 20
37.9567
  0
SEQEND
  0
POLYLINE
  8
LAYER_5
 40
0.05
 41
0.05
 66
1
 10
0
 20
0
 30
0
 70
1
  0
VERTEX
  8
LAYER_5
 10
164.4823
 20
39.8622
 42
0.05012782438
  0
VERTEX
  8
LAYER_5
 10
164.9846
 20
39.8229
 42
0.1135299982
  0
VERTEX
  8
LAYER_5
 10
165.7697
 20
39.9822
 42
0.1653556145
  0
VERTEX
  8
LAYER_5
 10
166.1074
 20
40.3302
 42
0.1044590446
  0
VERTEX
  8
LAYER_5
 10
166.1656
 20
40.6273
 42
0.2826437488
  0
VERTEX
  8
LAYER_5
 10
165.8147
 20
41.2103
 42
0.0629694601
  0
VERTEX
  8
LAYER_5
 10
165.549
 20
41.3107
 42
0.06259589917
  0
VERTEX
  8
LAYER_5
 10
165.0552
 20
41.3649
 42
0.05192366909
  0
VERTEX
  8
LAYER_5
 10
164.4823
 20
41.3257
  0
SEQEND
  0
ENDBLK
  0
BLOCK
  8
LAYER_5
  2
AIGNBL0504000B
 70
64
 10
0
 20
0
 30
0
  3
AIGNBL0504000B
  0
POLYLINE
  8
LAYER_5
 40
0.05
 41
0.05
 66
1
 10
0
 20
0
 30
0
 70
1
  0
VERTEX
  8
LAYER_5
 10
168.3246
 20
41.4207
 42
-0.3048675751
  0
VERTEX
  8
LAYER_5
 10
168.1582
 20
41.1661
 42
-0.1151020929
  0
VERTEX
  8
LAYER_5
 10
167.9329
 20
41.1189
 42
-0.2442513348
  0
VERTEX
  8
LAYER_5
 10
167.6028
 20
41.2794
 42
-0.1394546152
  0
VERTEX
  8
LAYER_5
 10
167.5626
 20
41.4207
 42
-0.287439772
  0
VERTEX
  8
LAYER_5
 10
167.7346
 20
41.6803
 42
-0.1179404017
  0
VERTEX
  8
LAYER_5
 10
167.9467
 20
41.7277
 42
-0.2416274379
  0
VERTEX
  8
LAYER_5
 10
168.2814
 20
41.5719
 42
-0.1426378456
  0
SEQEND
  0
POLYLINE
  8
LAYER_5
 40
0.05
 41
0.05
 66
1
 10
0
 20
0
 30
0
 70
1
  0
VERTEX
  8
LAYER_5
 10
167.639
 20
37.9567
  0
VERTEX
  8
LAYER_5
 10
167.639
 20
40.6607
  0
VERTEX
  8
LAYER_5
 10
168.2537
 20
40.6607
  0
VERTEX
  8
LAYER_5
 10
168.2537
 20
37.9567
  0
SEQEND
  0
ENDBLK
  0
BLOCK
  8
LAYER_5
  2
AIGNBL0504000C
 70
64
 10
0
 20
0
 30
0
  3
AIGNBL0504000C
  0
POLYLINE
  8
LAYER_5
 40
0.05
 41
0.05
 66
1
 10
0
 20
0
 30
0
 70
1
  0
VERTEX
  8
LAYER_5
 10
170.1254
 20
39.1418
  0
VERTEX
  8
LAYER_5
 10
169.6372
 20
37.9567
  0
VERTEX
  8
LAYER_5
 10
169.0081
 20
37.9567
  0
VERTEX
  8
LAYER_5
 10
170.6077
 20
41.7225
  0
VERTEX
  8
LAYER_5
 10
171.3415
 20
41.7225
  0
VERTEX
  8
LAYER_5
 10
172.9479
 20
37.9567
  0
VERTEX
  8
LAYER_5
 10
172.2982
 20
37.9567
  0
VERTEX
  8
LAYER_5
 10
171.7955
 20
39.1418
  0
SEQEND
  0
POLYLINE
  8
LAYER_5
 40
0.05
 41
0.05
 66
1
 10
0
 20
0
 30
0
 70
1
  0
VERTEX
  8
LAYER_5
 10
171.6695
 20
39.5207
  0
VERTEX
  8
LAYER_5
 10
171.2085
 20
40.6056
 42
-0.02430767271
  0
VERTEX
  8
LAYER_5
 10
170.9646
 20
41.2926
  0
VERTEX
  8
LAYER_5
 10
170.9498
 20
41.2926
 42
-0.02034719794
  0
VERTEX
  8
LAYER_5
 10
170.7128
 20
40.6101
  0
VERTEX
  8
LAYER_5
 10
170.2518
 20
39.5207
  0
SEQEND
  0
ENDBLK
  0
BLOCK
  8
LAYER_5
  2
AIGNBL05030005
 70
64
 10
0
 20
0
 30
0
  3
AIGNBL05030005
  0
INSERT
  8
LAYER_5
  2
AIGNBL05040006
 10
0
 20
0
 30
0
  0
INSERT
  8
LAYER_5
  2
AIGNBL05040007
 10
0
 20
0
 30
0
  0
INSERT
  8
LAYER_5
  2
AIGNBL05040008
 10
0
 20
0
 30
0
  0
INSERT
  8
LAYER_5
  2
AIGNBL05040009
 10
0
 20
0
 30
0
  0
INSERT
  8
LAYER_5
  2
AIGNBL0504000A
 10
0
 20
0
 30
0
  0
INSERT
  8
LAYER_5
  2
AIGNBL0504000B
 10
0
 20
0
 30
0
  0
INSERT
  8
LAYER_5
  2
AIGNBL0504000C
 10
0
 20
0
 30
0
  0
ENDBLK
  0
BLOCK
  8
LAYER_5
  2
AIGNBL0503000E
 70
64
 10
0
 20
0
 30
0
  3
AIGNBL0503000E
  0
POLYLINE
  8
LAYER_5
 40
0.05
 41
0.05
 66
1
 10
0
 20
0
 30
0
 70
1
  0
VERTEX
  8
LAYER_5
 10
145.7475
 20
36.0574
  0
VERTEX
  8
LAYER_5
 10
146.3008
 20
36.0574
  0
VERTEX
  8
LAYER_5
 10
146.3008
 20
35.9637
  0
VERTEX
  8
LAYER_5
 10
145.6424
 20
35.9637
  0
VERTEX
  8
LAYER_5
 10
145.6424
 20
36.9969
  0
VERTEX
  8
LAYER_5
 10
146.2832
 20
36.9969
  0
VERTEX
  8
LAYER_5
 10
146.2832
 20
36.9035
  0
VERTEX
  8
LAYER_5
 10
145.7475
 20
36.9035
  0
VERTEX
  8
LAYER_5
 10
145.7475
 20
36.549
  0
VERTEX
  8
LAYER_5
 10
146.2481
 20
36.549
  0
VERTEX
  8
LAYER_5
 10
146.2481
 20
36.4557
  0
VERTEX
  8
LAYER_5
 10
145.7475
 20
36.4557
  0
SEQEND
  0
ENDBLK
  0
BLOCK
  8
LAYER_5
  2
AIGNBL0503000F
 70
64
 10
0
 20
0
 30
0
  3
AIGNBL0503000F
  0
POLYLINE
  8
LAYER_5
 40
0.05
 41
0.05
 66
1
 10
0
 20
0
 30
0
 70
1
  0
VERTEX
  8
LAYER_5
 10
147.4404
 20
36.117
  0
VERTEX
  8
LAYER_5
 10
147.4432
 20
36.117
  0
VERTEX
  8
LAYER_5
 10
147.4432
 20
36.9969
  0
VERTEX
  8
LAYER_5
 10
147.5483
 20
36.9969
  0
VERTEX
  8
LAYER_5
 10
147.5483
 20
35.9637
  0
VERTEX
  8
LAYER_5
 10
147.4174
 20
35.9637
  0
VERTEX
  8
LAYER_5
 10
146.8162
 20
36.8525
  0
VERTEX
  8
LAYER_5
 10
146.8127
 20
36.8525
  0
VERTEX
  8
LAYER_5
 10
146.8127
 20
35.9637
  0
VERTEX
  8
LAYER_5
 10
146.708
 20
35.9637
  0
VERTEX
  8
LAYER_5
 10
146.708
 20
36.9969
  0
VERTEX
  8
LAYER_5
 10
146.8393
 20
36.9969
  0
SEQEND
  0
ENDBLK
  0
BLOCK
  8
LAYER_5
  2
AIGNBL05030010
 70
64
 10
0
 20
0
 30
0
  3
AIGNBL05030010
  0
POLYLINE
  8
LAYER_5
 40
0.05
 41
0.05
 66
1
 10
0
 20
0
 30
0
 70
1
  0
VERTEX
  8
LAYER_5
 10
148.0213
 20
36.1756
 42
0.1557655154
  0
VERTEX
  8
LAYER_5
 10
148.0757
 20
36.0725
 42
0.1918235184
  0
VERTEX
  8
LAYER_5
 10
148.1891
 20
36.0309
  0
VERTEX
  8
LAYER_5
 10
148.2783
 20
36.0505
  0
VERTEX
  8
LAYER_5
 10
148.3344
 20
36.1039
  0
VERTEX
  8
LAYER_5
 10
148.3634
 20
36.1804
  0
VERTEX
  8
LAYER_5
 10
148.3717
 20
36.27
  0
VERTEX
  8
LAYER_5
 10
148.3717
 20
36.9969
  0
VERTEX
  8
LAYER_5
 10
148.4767
 20
36.9969
  0
VERTEX
  8
LAYER_5
 10
148.4767
 20
36.2614
  0
VERTEX
  8
LAYER_5
 10
148.4654
 20
36.1535
 42
-0.0973308998
  0
VERTEX
  8
LAYER_5
 10
148.424
 20
36.0485
 42
-0.1149355521
  0
VERTEX
  8
LAYER_5
 10
148.3393
 20
35.9689
 42
-0.1249341208
  0
VERTEX
  8
LAYER_5
 10
148.2004
 20
35.9375
 42
-0.1793665557
  0
VERTEX
  8
LAYER_5
 10
148.0158
 20
35.9974
 42
-0.1772363953
  0
VERTEX
  8
LAYER_5
 10
147.9234
 20
36.149
  0
SEQEND
  0
ENDBLK
  0
BLOCK
  8
LAYER_5
  2
AIGNBL05030011
 70
64
 10
0
 20
0
 30
0
  3
AIGNBL05030011
  0
POLYLINE
  8
LAYER_5
 40
0.05
 41
0.05
 66
1
 10
0
 20
0
 30
0
 70
1
  0
VERTEX
  8
LAYER_5
 10
149.965
 20
36.4805
 42
-0.1019307791
  0
VERTEX
  8
LAYER_5
 10
149.924
 20
36.2631
 42
-0.1000112985
  0
VERTEX
  8
LAYER_5
 10
149.8113
 20
36.0915
 42
-0.09646612644
  0
VERTEX
  8
LAYER_5
 10
149.6405
 20
35.9785
 42
-0.09758594962
  0
VERTEX
  8
LAYER_5
 10
149.4265
 20
35.9375
 42
-0.1000844711
  0
VERTEX
  8
LAYER_5
 10
149.2129
 20
35.9785
 42
-0.09954994557
  0
VERTEX
  8
LAYER_5
 10
149.042
 20
36.0915
 42
-0.09699237735
  0
VERTEX
  8
LAYER_5
 10
148.9287
 20
36.2631
 42
-0.09653980076
  0
VERTEX
  8
LAYER_5
 10
148.8881
 20
36.4805
 42
-0.1004051845
  0
VERTEX
  8
LAYER_5
 10
148.9287
 20
36.6978
 42
-0.0998654539
  0
VERTEX
  8
LAYER_5
 10
149.042
 20
36.8694
 42
-0.09851519288
  0
VERTEX
  8
LAYER_5
 10
149.2129
 20
36.9824
 42
-0.09768823248
  0
VERTEX
  8
LAYER_5
 10
149.4265
 20
37.0234
 42
-0.1000514256
  0
VERTEX
  8
LAYER_5
 10
149.6405
 20
36.9824
 42
-0.09863053528
  0
VERTEX
  8
LAYER_5
 10
149.8113
 20
36.8694
 42
-0.09807107579
  0
VERTEX
  8
LAYER_5
 10
149.924
 20
36.6978
 42
-0.0978256893
  0
SEQEND
  0
POLYLINE
  8
LAYER_5
 40
0.05
 41
0.05
 66
1
 10
0
 20
0
 30
0
 70
1
  0
VERTEX
  8
LAYER_5
 10
149.8541
 20
36.4798
 42
0.08634913196
  0
VERTEX
  8
LAYER_5
 10
149.8251
 20
36.6517
 42
0.09649608129
  0
VERTEX
  8
LAYER_5
 10
149.7404
 20
36.795
 42
0.1032857511
  0
VERTEX
  8
LAYER_5
 10
149.6053
 20
36.8932
 42
0.1061320656
  0
VERTEX
  8
LAYER_5
 10
149.4265
 20
36.93
 42
0.1115874499
  0
VERTEX
  8
LAYER_5
 10
149.2478
 20
36.8932
 42
0.1058584166
  0
VERTEX
  8
LAYER_5
 10
149.113
 20
36.795
 42
0.09787799956
  0
VERTEX
  8
LAYER_5
 10
149.0283
 20
36.6517
 42
0.08491464556
  0
VERTEX
  8
LAYER_5
 10
148.999
 20
36.4798
 42
0.08693146424
  0
VERTEX
  8
LAYER_5
 10
149.0283
 20
36.3079
 42
0.1009797617
  0
VERTEX
  8
LAYER_5
 10
149.113
 20
36.1649
 42
0.09998489394
  0
VERTEX
  8
LAYER_5
 10
149.2478
 20
36.0674
 42
0.1061678446
  0
VERTEX
  8
LAYER_5
 10
149.4265
 20
36.0309
 42
0.1126980581
  0
VERTEX
  8
LAYER_5
 10
149.6053
 20
36.0674
 42
0.1036982708
  0
VERTEX
  8
LAYER_5
 10
149.7404
 20
36.1649
 42
0.09370250368
  0
VERTEX
  8
LAYER_5
 10
149.8251
 20
36.3079
 42
0.08466662837
  0
SEQEND
  0
ENDBLK
  0
BLOCK
  8
LAYER_5
  2
AIGNBL05030012
 70
64
 10
0
 20
0
 30
0
  3
AIGNBL05030012
  0
POLYLINE
  8
LAYER_5
 40
0.05
 41
0.05
 66
1
 10
0
 20
0
 30
0
 70
1
  0
VERTEX
  8
LAYER_5
 10
150.7398
 20
35.9637
  0
VERTEX
  8
LAYER_5
 10
150.6351
 20
35.9637
  0
VERTEX
  8
LAYER_5
 10
150.6351
 20
36.4091
  0
VERTEX
  8
LAYER_5
 10
150.2482
 20
36.9969
  0
VERTEX
  8
LAYER_5
 10
150.3795
 20
36.9969
  0
VERTEX
  8
LAYER_5
 10
150.6905
 20
36.4967
  0
VERTEX
  8
LAYER_5
 10
151.0041
 20
36.9969
  0
VERTEX
  8
LAYER_5
 10
151.1263
 20
36.9969
  0
VERTEX
  8
LAYER_5
 10
150.7398
 20
36.4091
  0
SEQEND
  0
ENDBLK
  0
BLOCK
  8
LAYER_5
  2
AIGNBL05030013
 70
64
 10
0
 20
0
 30
0
  3
AIGNBL05030013
  0
POLYLINE
  8
LAYER_5
 40
0.05
 41
0.05
 66
1
 10
0
 20
0
 30
0
 70
1
  0
VERTEX
  8
LAYER_5
 10
152.0314
 20
36.9969
  0
VERTEX
  8
LAYER_5
 10
152.339
 20
36.9969
  0
VERTEX
  8
LAYER_5
 10
152.4575
 20
36.9845
  0
VERTEX
  8
LAYER_5
 10
152.5643
 20
36.9421
 42
-0.1168262011
  0
VERTEX
  8
LAYER_5
 10
152.6422
 20
36.8611
 42
-0.1230288266
  0
VERTEX
  8
LAYER_5
 10
152.6718
 20
36.733
 42
-0.1795449175
  0
VERTEX
  8
LAYER_5
 10
152.6219
 20
36.5907
 42
-0.170141964
  0
VERTEX
  8
LAYER_5
 10
152.4885
 20
36.5111
  0
VERTEX
  8
LAYER_5
 10
152.4885
 20
36.5084
 42
-0.1719890535
  0
VERTEX
  8
LAYER_5
 10
152.6553
 20
36.4302
 42
-0.2018462152
  0
VERTEX
  8
LAYER_5
 10
152.7214
 20
36.2496
 42
-0.1247085485
  0
VERTEX
  8
LAYER_5
 10
152.6942
 20
36.1325
 42
-0.1153486961
  0
VERTEX
  8
LAYER_5
 10
152.6181
 20
36.0419
 42
-0.08656795839
  0
VERTEX
  8
LAYER_5
 10
152.4972
 20
35.9844
 42
-0.06557363107
  0
VERTEX
  8
LAYER_5
 10
152.3373
 20
35.9637
  0
VERTEX
  8
LAYER_5
 10
152.0314
 20
35.9637
  0
SEQEND
  0
POLYLINE
  8
LAYER_5
 40
0.05
 41
0.05
 66
1
 10
0
 20
0
 30
0
 70
1
  0
VERTEX
  8
LAYER_5
 10
152.1364
 20
36.5445
  0
VERTEX
  8
LAYER_5
 10
152.348
 20
36.5445
  0
VERTEX
  8
LAYER_5
 10
152.4248
 20
36.5535
  0
VERTEX
  8
LAYER_5
 10
152.4951
 20
36.5831
  0
VERTEX
  8
LAYER_5
 10
152.5471
 20
36.6396
 42
0.1162126025
  0
VERTEX
  8
LAYER_5
 10
152.5668
 20
36.7258
  0
VERTEX
  8
LAYER_5
 10
152.5471
 20
36.8095
  0
VERTEX
  8
LAYER_5
 10
152.494
 20
36.8656
  0
VERTEX
  8
LAYER_5
 10
152.4152
 20
36.897
  0
VERTEX
  8
LAYER_5
 10
152.3187
 20
36.9066
  0
VERTEX
  8
LAYER_5
 10
152.1364
 20
36.9066
  0
SEQEND
  0
POLYLINE
  8
LAYER_5
 40
0.05
 41
0.05
 66
1
 10
0
 20
0
 30
0
 70
1
  0
VERTEX
  8
LAYER_5
 10
152.1364
 20
36.0543
  0
VERTEX
  8
LAYER_5
 10
152.3321
 20
36.0543
  0
VERTEX
  8
LAYER_5
 10
152.4406
 20
36.0653
  0
VERTEX
  8
LAYER_5
 10
152.5313
 20
36.1001
 42
0.1172546835
  0
VERTEX
  8
LAYER_5
 10
152.5929
 20
36.1632
 42
0.1286243504
  0
VERTEX
  8
LAYER_5
 10
152.6164
 20
36.2559
 42
0.2498669706
  0
VERTEX
  8
LAYER_5
 10
152.5471
 20
36.4081
 42
0.1538083763
  0
VERTEX
  8
LAYER_5
 10
152.3511
 20
36.4584
  0
VERTEX
  8
LAYER_5
 10
152.1364
 20
36.4584
  0
SEQEND
  0
ENDBLK
  0
BLOCK
  8
LAYER_5
  2
AIGNBL05030014
 70
64
 10
0
 20
0
 30
0
  3
AIGNBL05030014
  0
POLYLINE
  8
LAYER_5
 40
0.05
 41
0.05
 66
1
 10
0
 20
0
 30
0
 70
1
  0
VERTEX
  8
LAYER_5
 10
153.1534
 20
35.9637
  0
VERTEX
  8
LAYER_5
 10
153.038
 20
35.9637
  0
VERTEX
  8
LAYER_5
 10
153.4849
 20
36.9969
  0
VERTEX
  8
LAYER_5
 10
153.5872
 20
36.9969
  0
VERTEX
  8
LAYER_5
 10
154.0306
 20
35.9637
  0
VERTEX
  8
LAYER_5
 10
153.9138
 20
35.9637
  0
VERTEX
  8
LAYER_5
 10
153.7997
 20
36.2352
  0
VERTEX
  8
LAYER_5
 10
153.2657
 20
36.2352
  0
SEQEND
  0
POLYLINE
  8
LAYER_5
 40
0.05
 41
0.05
 66
1
 10
0
 20
0
 30
0
 70
1
  0
VERTEX
  8
LAYER_5
 10
153.305
 20
36.3316
  0
VERTEX
  8
LAYER_5
 10
153.7604
 20
36.3316
  0
VERTEX
  8
LAYER_5
 10
153.5327
 20
36.8804
  0
SEQEND
  0
ENDBLK
  0
BLOCK
  8
LAYER_5
  2
AIGNBL05030015
 70
64
 10
0
 20
0
 30
0
  3
AIGNBL05030015
  0
POLYLINE
  8
LAYER_5
 40
0.05
 41
0.05
 66
1
 10
0
 20
0
 30
0
 70
1
  0
VERTEX
  8
LAYER_5
 10
154.7151
 20
35.9637
  0
VERTEX
  8
LAYER_5
 10
154.61
 20
35.9637
  0
VERTEX
  8
LAYER_5
 10
154.61
 20
36.9035
  0
VERTEX
  8
LAYER_5
 10
154.2638
 20
36.9035
  0
VERTEX
  8
LAYER_5
 10
154.2638
 20
36.9969
  0
VERTEX
  8
LAYER_5
 10
155.0606
 20
36.9969
  0
VERTEX
  8
LAYER_5
 10
155.0606
 20
36.9035
  0
VERTEX
  8
LAYER_5
 10
154.7151
 20
36.9035
  0
SEQEND
  0
ENDBLK
  0
BLOCK
  8
LAYER_5
  2
AIGNBL05030016
 70
64
 10
0
 20
0
 30
0
  3
AIGNBL05030016
  0
POLYLINE
  8
LAYER_5
 40
0.05
 41
0.05
 66
1
 10
0
 20
0
 30
0
 70
1
  0
VERTEX
  8
LAYER_5
 10
155.4169
 20
36.9969
  0
VERTEX
  8
LAYER_5
 10
155.5216
 20
36.9969
  0
VERTEX
  8
LAYER_5
 10
155.5216
 20
36.549
  0
VERTEX
  8
LAYER_5
 10
156.0852
 20
36.549
  0
VERTEX
  8
LAYER_5
 10
156.0852
 20
36.9969
  0
VERTEX
  8
LAYER_5
 10
156.1903
 20
36.9969
  0
VERTEX
  8
LAYER_5
 10
156.1903
 20
35.9637
  0
VERTEX
  8
LAYER_5
 10
156.0852
 20
35.9637
  0
VERTEX
  8
LAYER_5
 10
156.0852
 20
36.4529
  0
VERTEX
  8
LAYER_5
 10
155.5216
 20
36.4529
  0
VERTEX
  8
LAYER_5
 10
155.5216
 20
35.9637
  0
VERTEX
  8
LAYER_5
 10
155.4169
 20
35.9637
  0
SEQEND
  0
ENDBLK
  0
BLOCK
  8
LAYER_5
  2
AIGNBL05030017
 70
64
 10
0
 20
0
 30
0
  3
AIGNBL05030017
  0
POLYLINE
  8
LAYER_5
 40
0.05
 41
0.05
 66
1
 10
0
 20
0
 30
0
 70
1
  0
VERTEX
  8
LAYER_5
 10
156.7708
 20
35.9637
  0
VERTEX
  8
LAYER_5
 10
156.6657
 20
35.9637
  0
VERTEX
  8
LAYER_5
 10
156.6657
 20
36.9969
  0
VERTEX
  8
LAYER_5
 10
156.9696
 20
36.9969
  0
VERTEX
  8
LAYER_5
 10
157.1101
 20
36.9824
 42
-0.1032885834
  0
VERTEX
  8
LAYER_5
 10
157.2228
 20
36.9349
 42
-0.1280591957
  0
VERTEX
  8
LAYER_5
 10
157.2962
 20
36.8494
 42
-0.1078860225
  0
VERTEX
  8
LAYER_5
 10
157.3223
 20
36.7213
  0
VERTEX
  8
LAYER_5
 10
157.3024
 20
36.6176
  0
VERTEX
  8
LAYER_5
 10
157.2469
 20
36.5366
  0
VERTEX
  8
LAYER_5
 10
157.1635
 20
36.4818
  0
VERTEX
  8
LAYER_5
 10
157.0585
 20
36.4557
  0
VERTEX
  8
LAYER_5
 10
157.3606
 20
35.9637
  0
VERTEX
  8
LAYER_5
 10
157.2321
 20
35.9637
  0
VERTEX
  8
LAYER_5
 10
156.9461
 20
36.4467
  0
VERTEX
  8
LAYER_5
 10
156.7708
 20
36.4467
  0
SEQEND
  0
POLYLINE
  8
LAYER_5
 40
0.05
 41
0.05
 66
1
 10
0
 20
0
 30
0
 70
1
  0
VERTEX
  8
LAYER_5
 10
156.7708
 20
36.5373
  0
VERTEX
  8
LAYER_5
 10
156.9534
 20
36.5373
 42
0.153451873
  0
VERTEX
  8
LAYER_5
 10
157.1491
 20
36.5831
 42
0.2580279849
  0
VERTEX
  8
LAYER_5
 10
157.2176
 20
36.7213
  0
VERTEX
  8
LAYER_5
 10
157.1983
 20
36.8071
  0
VERTEX
  8
LAYER_5
 10
157.146
 20
36.8643
  0
VERTEX
  8
LAYER_5
 10
157.0643
 20
36.8963
  0
VERTEX
  8
LAYER_5
 10
156.9578
 20
36.9066
  0
VERTEX
  8
LAYER_5
 10
156.7708
 20
36.9066
  0
SEQEND
  0
ENDBLK
  0
BLOCK
  8
LAYER_5
  2
AIGNBL05030018
 70
64
 10
0
 20
0
 30
0
  3
AIGNBL05030018
  0
POLYLINE
  8
LAYER_5
 40
0.05
 41
0.05
 66
1
 10
0
 20
0
 30
0
 70
1
  0
VERTEX
  8
LAYER_5
 10
158.7627
 20
36.4805
 42
-0.09904480664
  0
VERTEX
  8
LAYER_5
 10
158.7221
 20
36.2631
 42
-0.09984043552
  0
VERTEX
  8
LAYER_5
 10
158.6087
 20
36.0915
 42
-0.09841590082
  0
VERTEX
  8
LAYER_5
 10
158.4382
 20
35.9785
 42
-0.09758412454
  0
VERTEX
  8
LAYER_5
 10
158.2243
 20
35.9375
 42
-0.09999517154
  0
VERTEX
  8
LAYER_5
 10
158.0103
 20
35.9785
 42
-0.09953435427
  0
VERTEX
  8
LAYER_5
 10
157.8398
 20
36.0915
 42
-0.09853706159
  0
VERTEX
  8
LAYER_5
 10
157.7268
 20
36.2631
 42
-0.09653980076
  0
VERTEX
  8
LAYER_5
 10
157.6862
 20
36.4805
 42
-0.1004051845
  0
VERTEX
  8
LAYER_5
 10
157.7268
 20
36.6978
 42
-0.1008040346
  0
VERTEX
  8
LAYER_5
 10
157.8398
 20
36.8694
 42
-0.09763764092
  0
VERTEX
  8
LAYER_5
 10
158.0103
 20
36.9824
 42
-0.09752919603
  0
VERTEX
  8
LAYER_5
 10
158.2243
 20
37.0234
 42
-0.1000174927
  0
VERTEX
  8
LAYER_5
 10
158.4382
 20
36.9824
 42
-0.1009762109
  0
VERTEX
  8
LAYER_5
 10
158.6087
 20
36.8694
 42
-0.09735230618
  0
VERTEX
  8
LAYER_5
 10
158.7221
 20
36.6978
 42
-0.09580191209
  0
SEQEND
  0
POLYLINE
  8
LAYER_5
 40
0.05
 41
0.05
 66
1
 10
0
 20
0
 30
0
 70
1
  0
VERTEX
  8
LAYER_5
 10
158.6518
 20
36.4798
 42
0.08852014676
  0
VERTEX
  8
LAYER_5
 10
158.6225
 20
36.6517
 42
0.09973444611
  0
VERTEX
  8
LAYER_5
 10
158.5378
 20
36.795
 42
0.1024799068
  0
VERTEX
  8
LAYER_5
 10
158.4031
 20
36.8932
 42
0.1060321998
  0
VERTEX
  8
LAYER_5
 10
158.2243
 20
36.93
 42
0.1116325688
  0
VERTEX
  8
LAYER_5
 10
158.0455
 20
36.8932
 42
0.1060506217
  0
VERTEX
  8
LAYER_5
 10
157.9104
 20
36.795
 42
0.09526104957
  0
VERTEX
  8
LAYER_5
 10
157.8257
 20
36.6517
 42
0.08422602157
  0
VERTEX
  8
LAYER_5
 10
157.7968
 20
36.4798
 42
0.0876992245
  0
VERTEX
  8
LAYER_5
 10
157.8257
 20
36.3079
 42
0.09826867926
  0
VERTEX
  8
LAYER_5
 10
157.9104
 20
36.1649
 42
0.09965756504
  0
VERTEX
  8
LAYER_5
 10
158.0455
 20
36.0674
 42
0.1061654103
  0
VERTEX
  8
LAYER_5
 10
158.2243
 20
36.0309
 42
0.1124388132
  0
VERTEX
  8
LAYER_5
 10
158.4031
 20
36.0674
 42
0.1029122982
  0
VERTEX
  8
LAYER_5
 10
158.5378
 20
36.1649
 42
0.09882210045
  0
VERTEX
  8
LAYER_5
 10
158.6225
 20
36.3079
 42
0.08589740831
  0
SEQEND
  0
ENDBLK
  0
BLOCK
  8
LAYER_5
  2
AIGNBL05030019
 70
64
 10
0
 20
0
 30
0
  3
AIGNBL05030019
  0
POLYLINE
  8
LAYER_5
 40
0.05
 41
0.05
 66
1
 10
0
 20
0
 30
0
 70
1
  0
VERTEX
  8
LAYER_5
 10
160.2045
 20
36.4805
 42
-0.1019307791
  0
VERTEX
  8
LAYER_5
 10
160.1635
 20
36.2631
 42
-0.09929652324
  0
VERTEX
  8
LAYER_5
 10
160.0509
 20
36.0915
 42
-0.09710469009
  0
VERTEX
  8
LAYER_5
 10
159.88
 20
35.9785
 42
-0.09758412454
  0
VERTEX
  8
LAYER_5
 10
159.6661
 20
35.9375
 42
-0.1005051182
  0
VERTEX
  8
LAYER_5
 10
159.4524
 20
35.9785
 42
-0.1009789173
  0
VERTEX
  8
LAYER_5
 10
159.2816
 20
36.0915
 42
-0.09724598852
  0
VERTEX
  8
LAYER_5
 10
159.1682
 20
36.2631
 42
-0.09653980076
  0
VERTEX
  8
LAYER_5
 10
159.1276
 20
36.4805
 42
-0.1004051845
  0
VERTEX
  8
LAYER_5
 10
159.1682
 20
36.6978
 42
-0.1001669327
  0
VERTEX
  8
LAYER_5
 10
159.2816
 20
36.8694
 42
-0.09846843416
  0
VERTEX
  8
LAYER_5
 10
159.4524
 20
36.9824
 42
-0.09783444074
  0
VERTEX
  8
LAYER_5
 10
159.6661
 20
37.0234
 42
-0.1000174927
  0
VERTEX
  8
LAYER_5
 10
159.88
 20
36.9824
 42
-0.098457988
  0
VERTEX
  8
LAYER_5
 10
160.0509
 20
36.8694
 42
-0.09762598086
  0
VERTEX
  8
LAYER_5
 10
160.1635
 20
36.6978
 42
-0.0978256893
  0
SEQEND
  0
POLYLINE
  8
LAYER_5
 40
0.05
 41
0.05
 66
1
 10
0
 20
0
 30
0
 70
1
  0
VERTEX
  8
LAYER_5
 10
160.0936
 20
36.4798
 42
0.08653869446
  0
VERTEX
  8
LAYER_5
 10
160.0647
 20
36.6517
 42
0.09689814906
  0
VERTEX
  8
LAYER_5
 10
159.9799
 20
36.795
 42
0.1032857511
  0
VERTEX
  8
LAYER_5
 10
159.8448
 20
36.8932
 42
0.1061350344
  0
VERTEX
  8
LAYER_5
 10
159.6661
 20
36.93
 42
0.1114208933
  0
VERTEX
  8
LAYER_5
 10
159.4872
 20
36.8932
 42
0.1056595975
  0
VERTEX
  8
LAYER_5
 10
159.3525
 20
36.795
 42
0.09787799956
  0
VERTEX
  8
LAYER_5
 10
159.2678
 20
36.6517
 42
0.08491464556
  0
VERTEX
  8
LAYER_5
 10
159.2385
 20
36.4798
 42
0.08693146424
  0
VERTEX
  8
LAYER_5
 10
159.2678
 20
36.3079
 42
0.1009797617
  0
VERTEX
  8
LAYER_5
 10
159.3525
 20
36.1649
 42
0.09978391674
  0
VERTEX
  8
LAYER_5
 10
159.4872
 20
36.0674
 42
0.1060616244
  0
VERTEX
  8
LAYER_5
 10
159.6661
 20
36.0309
 42
0.1126531325
  0
VERTEX
  8
LAYER_5
 10
159.8448
 20
36.0674
 42
0.1036982708
  0
VERTEX
  8
LAYER_5
 10
159.9799
 20
36.1649
 42
0.09401062747
  0
VERTEX
  8
LAYER_5
 10
160.0647
 20
36.3079
 42
0.0844927763
  0
SEQEND
  0
ENDBLK
  0
BLOCK
  8
LAYER_5
  2
AIGNBL0503001A
 70
64
 10
0
 20
0
 30
0
  3
AIGNBL0503001A
  0
POLYLINE
  8
LAYER_5
 40
0.05
 41
0.05
 66
1
 10
0
 20
0
 30
0
 70
1
  0
VERTEX
  8
LAYER_5
 10
161.1354
 20
36.1418
  0
VERTEX
  8
LAYER_5
 10
161.1371
 20
36.1418
  0
VERTEX
  8
LAYER_5
 10
161.4826
 20
36.9969
  0
VERTEX
  8
LAYER_5
 10
161.6435
 20
36.9969
  0
VERTEX
  8
LAYER_5
 10
161.6435
 20
35.9637
  0
VERTEX
  8
LAYER_5
 10
161.5381
 20
35.9637
  0
VERTEX
  8
LAYER_5
 10
161.5381
 20
36.8611
  0
VERTEX
  8
LAYER_5
 10
161.5354
 20
36.8611
  0
VERTEX
  8
LAYER_5
 10
161.1619
 20
35.9637
  0
VERTEX
  8
LAYER_5
 10
161.1064
 20
35.9637
  0
VERTEX
  8
LAYER_5
 10
160.7326
 20
36.8611
  0
VERTEX
  8
LAYER_5
 10
160.7299
 20
36.8611
  0
VERTEX
  8
LAYER_5
 10
160.7299
 20
35.9637
  0
VERTEX
  8
LAYER_5
 10
160.6248
 20
35.9637
  0
VERTEX
  8
LAYER_5
 10
160.6248
 20
36.9969
  0
VERTEX
  8
LAYER_5
 10
160.7853
 20
36.9969
  0
SEQEND
  0
ENDBLK
  0
BLOCK
  8
LAYER_5
  2
AIGNBL0503001B
 70
64
 10
0
 20
0
 30
0
  3
AIGNBL0503001B
  0
POLYLINE
  8
LAYER_5
 40
0.05
 41
0.05
 66
1
 10
0
 20
0
 30
0
 70
1
  0
VERTEX
  8
LAYER_5
 10
162.79
 20
36.0574
  0
VERTEX
  8
LAYER_5
 10
163.3433
 20
36.0574
  0
VERTEX
  8
LAYER_5
 10
163.3433
 20
35.9637
  0
VERTEX
  8
LAYER_5
 10
162.685
 20
35.9637
  0
VERTEX
  8
LAYER_5
 10
162.685
 20
36.9969
  0
VERTEX
  8
LAYER_5
 10
163.3258
 20
36.9969
  0
VERTEX
  8
LAYER_5
 10
163.3258
 20
36.9035
  0
VERTEX
  8
LAYER_5
 10
162.79
 20
36.9035
  0
VERTEX
  8
LAYER_5
 10
162.79
 20
36.549
  0
VERTEX
  8
LAYER_5
 10
163.2906
 20
36.549
  0
VERTEX
  8
LAYER_5
 10
163.2906
 20
36.4557
  0
VERTEX
  8
LAYER_5
 10
162.79
 20
36.4557
  0
SEQEND
  0
ENDBLK
  0
BLOCK
  8
LAYER_5
  2
AIGNBL0503001C
 70
64
 10
0
 20
0
 30
0
  3
AIGNBL0503001C
  0
POLYLINE
  8
LAYER_5
 40
0.05
 41
0.05
 66
1
 10
0
 20
0
 30
0
 70
1
  0
VERTEX
  8
LAYER_5
 10
164.0885
 20
36.5797
  0
VERTEX
  8
LAYER_5
 10
164.3707
 20
36.9969
  0
VERTEX
  8
LAYER_5
 10
164.4957
 20
36.9969
  0
VERTEX
  8
LAYER_5
 10
164.1533
 20
36.5053
  0
VERTEX
  8
LAYER_5
 10
164.5326
 20
35.9637
  0
VERTEX
  8
LAYER_5
 10
164.4013
 20
35.9637
  0
VERTEX
  8
LAYER_5
 10
164.0858
 20
36.4295
  0
VERTEX
  8
LAYER_5
 10
163.7722
 20
35.9637
  0
VERTEX
  8
LAYER_5
 10
163.6407
 20
35.9637
  0
VERTEX
  8
LAYER_5
 10
164.0203
 20
36.5066
  0
VERTEX
  8
LAYER_5
 10
163.6744
 20
36.9969
  0
VERTEX
  8
LAYER_5
 10
163.806
 20
36.9969
  0
SEQEND
  0
ENDBLK
  0
BLOCK
  8
LAYER_5
  2
AIGNBL0503001D
 70
64
 10
0
 20
0
 30
0
  3
AIGNBL0503001D
  0
POLYLINE
  8
LAYER_5
 40
0.05
 41
0.05
 66
1
 10
0
 20
0
 30
0
 70
1
  0
VERTEX
  8
LAYER_5
 10
164.8988
 20
36.9969
  0
VERTEX
  8
LAYER_5
 10
165.1909
 20
36.9969
  0
VERTEX
  8
LAYER_5
 10
165.3339
 20
36.9804
 42
-0.104160294
  0
VERTEX
  8
LAYER_5
 10
165.4438
 20
36.929
 42
-0.1209616443
  0
VERTEX
  8
LAYER_5
 10
165.5148
 20
36.8429
 42
-0.1032545831
  0
VERTEX
  8
LAYER_5
 10
165.5392
 20
36.7213
 42
-0.1239274235
  0
VERTEX
  8
LAYER_5
 10
165.5141
 20
36.5993
 42
-0.1163667494
  0
VERTEX
  8
LAYER_5
 10
165.4424
 20
36.5132
 42
-0.08715194998
  0
VERTEX
  8
LAYER_5
 10
165.3315
 20
36.4615
 42
-0.06075348808
  0
VERTEX
  8
LAYER_5
 10
165.1878
 20
36.444
  0
VERTEX
  8
LAYER_5
 10
165.0039
 20
36.444
  0
VERTEX
  8
LAYER_5
 10
165.0039
 20
35.9637
  0
VERTEX
  8
LAYER_5
 10
164.8988
 20
35.9637
  0
SEQEND
  0
POLYLINE
  8
LAYER_5
 40
0.05
 41
0.05
 66
1
 10
0
 20
0
 30
0
 70
1
  0
VERTEX
  8
LAYER_5
 10
165.0039
 20
36.5328
  0
VERTEX
  8
LAYER_5
 10
165.1816
 20
36.5328
 42
0.1694225951
  0
VERTEX
  8
LAYER_5
 10
165.3701
 20
36.581
 42
0.2442570363
  0
VERTEX
  8
LAYER_5
 10
165.4345
 20
36.7213
 42
0.2590967024
  0
VERTEX
  8
LAYER_5
 10
165.368
 20
36.8622
 42
0.143072224
  0
VERTEX
  8
LAYER_5
 10
165.1816
 20
36.9066
  0
VERTEX
  8
LAYER_5
 10
165.0039
 20
36.9066
  0
SEQEND
  0
ENDBLK
  0
BLOCK
  8
LAYER_5
  2
AIGNBL0503001E
 70
64
 10
0
 20
0
 30
0
  3
AIGNBL0503001E
  0
POLYLINE
  8
LAYER_5
 40
0.05
 41
0.05
 66
1
 10
0
 20
0
 30
0
 70
1
  0
VERTEX
  8
LAYER_5
 10
166.0515
 20
36.0574
  0
VERTEX
  8
LAYER_5
 10
166.6048
 20
36.0574
  0
VERTEX
  8
LAYER_5
 10
166.6048
 20
35.9637
  0
VERTEX
  8
LAYER_5
 10
165.9465
 20
35.9637
  0
VERTEX
  8
LAYER_5
 10
165.9465
 20
36.9969
  0
VERTEX
  8
LAYER_5
 10
166.5872
 20
36.9969
  0
VERTEX
  8
LAYER_5
 10
166.5872
 20
36.9035
  0
VERTEX
  8
LAYER_5
 10
166.0515
 20
36.9035
  0
VERTEX
  8
LAYER_5
 10
166.0515
 20
36.549
  0
VERTEX
  8
LAYER_5
 10
166.5521
 20
36.549
  0
VERTEX
  8
LAYER_5
 10
166.5521
 20
36.4557
  0
VERTEX
  8
LAYER_5
 10
166.0515
 20
36.4557
  0
SEQEND
  0
ENDBLK
  0
BLOCK
  8
LAYER_5
  2
AIGNBL0503001F
 70
64
 10
0
 20
0
 30
0
  3
AIGNBL0503001F
  0
POLYLINE
  8
LAYER_5
 40
0.05
 41
0.05
 66
1
 10
0
 20
0
 30
0
 70
1
  0
VERTEX
  8
LAYER_5
 10
167.1168
 20
35.9637
  0
VERTEX
  8
LAYER_5
 10
167.0117
 20
35.9637
  0
VERTEX
  8
LAYER_5
 10
167.0117
 20
36.9969
  0
VERTEX
  8
LAYER_5
 10
167.3155
 20
36.9969
  0
VERTEX
  8
LAYER_5
 10
167.4561
 20
36.9824
 42
-0.1039428931
  0
VERTEX
  8
LAYER_5
 10
167.5687
 20
36.9349
 42
-0.1259973384
  0
VERTEX
  8
LAYER_5
 10
167.6425
 20
36.8494
 42
-0.1064650891
  0
VERTEX
  8
LAYER_5
 10
167.6683
 20
36.7213
  0
VERTEX
  8
LAYER_5
 10
167.6483
 20
36.6176
  0
VERTEX
  8
LAYER_5
 10
167.5929
 20
36.5366
  0
VERTEX
  8
LAYER_5
 10
167.5095
 20
36.4818
  0
VERTEX
  8
LAYER_5
 10
167.4044
 20
36.4557
  0
VERTEX
  8
LAYER_5
 10
167.7066
 20
35.9637
  0
VERTEX
  8
LAYER_5
 10
167.578
 20
35.9637
  0
VERTEX
  8
LAYER_5
 10
167.2921
 20
36.4467
  0
VERTEX
  8
LAYER_5
 10
167.1168
 20
36.4467
  0
SEQEND
  0
POLYLINE
  8
LAYER_5
 40
0.05
 41
0.05
 66
1
 10
0
 20
0
 30
0
 70
1
  0
VERTEX
  8
LAYER_5
 10
167.1168
 20
36.5373
  0
VERTEX
  8
LAYER_5
 10
167.2994
 20
36.5373
 42
0.1542400453
  0
VERTEX
  8
LAYER_5
 10
167.495
 20
36.5831
 42
0.2583775622
  0
VERTEX
  8
LAYER_5
 10
167.5636
 20
36.7213
  0
VERTEX
  8
LAYER_5
 10
167.5446
 20
36.8071
  0
VERTEX
  8
LAYER_5
 10
167.4919
 20
36.8643
  0
VERTEX
  8
LAYER_5
 10
167.4103
 20
36.8963
  0
VERTEX
  8
LAYER_5
 10
167.3038
 20
36.9066
  0
VERTEX
  8
LAYER_5
 10
167.1168
 20
36.9066
  0
SEQEND
  0
ENDBLK
  0
BLOCK
  8
LAYER_5
  2
AIGNBL05030020
 70
64
 10
0
 20
0
 30
0
  3
AIGNBL05030020
  0
POLYLINE
  8
LAYER_5
 40
0.05
 41
0.05
 66
1
 10
0
 20
0
 30
0
 70
1
  0
VERTEX
  8
LAYER_5
 10
168.1923
 20
35.9637
  0
VERTEX
  8
LAYER_5
 10
168.0876
 20
35.9637
  0
VERTEX
  8
LAYER_5
 10
168.0876
 20
36.9969
  0
VERTEX
  8
LAYER_5
 10
168.1923
 20
36.9969
  0
SEQEND
  0
ENDBLK
  0
BLOCK
  8
LAYER_5
  2
AIGNBL05030021
 70
64
 10
0
 20
0
 30
0
  3
AIGNBL05030021
  0
POLYLINE
  8
LAYER_5
 40
0.05
 41
0.05
 66
1
 10
0
 20
0
 30
0
 70
1
  0
VERTEX
  8
LAYER_5
 10
168.7732
 20
36.0574
  0
VERTEX
  8
LAYER_5
 10
169.3261
 20
36.0574
  0
VERTEX
  8
LAYER_5
 10
169.3261
 20
35.9637
  0
VERTEX
  8
LAYER_5
 10
168.6681
 20
35.9637
  0
VERTEX
  8
LAYER_5
 10
168.6681
 20
36.9969
  0
VERTEX
  8
LAYER_5
 10
169.3089
 20
36.9969
  0
VERTEX
  8
LAYER_5
 10
169.3089
 20
36.9035
  0
VERTEX
  8
LAYER_5
 10
168.7732
 20
36.9035
  0
VERTEX
  8
LAYER_5
 10
168.7732
 20
36.549
  0
VERTEX
  8
LAYER_5
 10
169.2737
 20
36.549
  0
VERTEX
  8
LAYER_5
 10
169.2737
 20
36.4557
  0
VERTEX
  8
LAYER_5
 10
168.7732
 20
36.4557
  0
SEQEND
  0
ENDBLK
  0
BLOCK
  8
LAYER_5
  2
AIGNBL05030022
 70
64
 10
0
 20
0
 30
0
  3
AIGNBL05030022
  0
POLYLINE
  8
LAYER_5
 40
0.05
 41
0.05
 66
1
 10
0
 20
0
 30
0
 70
1
  0
VERTEX
  8
LAYER_5
 10
170.4661
 20
36.117
  0
VERTEX
  8
LAYER_5
 10
170.4689
 20
36.117
  0
VERTEX
  8
LAYER_5
 10
170.4689
 20
36.9969
  0
VERTEX
  8
LAYER_5
 10
170.5739
 20
36.9969
  0
VERTEX
  8
LAYER_5
 10
170.5739
 20
35.9637
  0
VERTEX
  8
LAYER_5
 10
170.4426
 20
35.9637
  0
VERTEX
  8
LAYER_5
 10
169.8415
 20
36.8525
  0
VERTEX
  8
LAYER_5
 10
169.8384
 20
36.8525
  0
VERTEX
  8
LAYER_5
 10
169.8384
 20
35.9637
  0
VERTEX
  8
LAYER_5
 10
169.7333
 20
35.9637
  0
VERTEX
  8
LAYER_5
 10
169.7333
 20
36.9969
  0
VERTEX
  8
LAYER_5
 10
169.8649
 20
36.9969
  0
SEQEND
  0
ENDBLK
  0
BLOCK
  8
LAYER_5
  2
AIGNBL05030023
 70
64
 10
0
 20
0
 30
0
  3
AIGNBL05030023
  0
POLYLINE
  8
LAYER_5
 40
0.05
 41
0.05
 66
1
 10
0
 20
0
 30
0
 70
1
  0
VERTEX
  8
LAYER_5
 10
171.9196
 20
36.1315
  0
VERTEX
  8
LAYER_5
 10
171.8558
 20
36.0571
  0
VERTEX
  8
LAYER_5
 10
171.7697
 20
35.9954
  0
VERTEX
  8
LAYER_5
 10
171.6615
 20
35.953
  0
VERTEX
  8
LAYER_5
 10
171.5327
 20
35.9375
 42
-0.0997799169
  0
VERTEX
  8
LAYER_5
 10
171.3167
 20
35.9785
 42
-0.102530266
  0
VERTEX
  8
LAYER_5
 10
171.1461
 20
36.0915
 42
-0.09968794278
  0
VERTEX
  8
LAYER_5
 10
171.0345
 20
36.2631
 42
-0.09630702324
  0
VERTEX
  8
LAYER_5
 10
170.9942
 20
36.4805
 42
-0.1018981748
  0
VERTEX
  8
LAYER_5
 10
171.0352
 20
36.6978
 42
-0.09989904409
  0
VERTEX
  8
LAYER_5
 10
171.1479
 20
36.8694
 42
-0.09694965588
  0
VERTEX
  8
LAYER_5
 10
171.3187
 20
36.9824
 42
-0.09744116728
  0
VERTEX
  8
LAYER_5
 10
171.5327
 20
37.0234
  0
VERTEX
  8
LAYER_5
 10
171.6443
 20
37.0114
  0
VERTEX
  8
LAYER_5
 10
171.7473
 20
36.9779
  0
VERTEX
  8
LAYER_5
 10
171.8348
 20
36.9263
  0
VERTEX
  8
LAYER_5
 10
171.9006
 20
36.8584
  0
VERTEX
  8
LAYER_5
 10
171.8131
 20
36.794
  0
VERTEX
  8
LAYER_5
 10
171.7697
 20
36.8439
  0
VERTEX
  8
LAYER_5
 10
171.7063
 20
36.8877
  0
VERTEX
  8
LAYER_5
 10
171.6267
 20
36.9183
  0
VERTEX
  8
LAYER_5
 10
171.5341
 20
36.93
 42
0.1106055686
  0
VERTEX
  8
LAYER_5
 10
171.3539
 20
36.8935
 42
0.1037389517
  0
VERTEX
  8
LAYER_5
 10
171.2188
 20
36.7954
 42
0.09534605581
  0
VERTEX
  8
LAYER_5
 10
171.1341
 20
36.652
 42
0.08447361069
  0
VERTEX
  8
LAYER_5
 10
171.1052
 20
36.4805
 42
0.09038739564
  0
VERTEX
  8
LAYER_5
 10
171.1351
 20
36.3089
 42
0.09795352863
  0
VERTEX
  8
LAYER_5
 10
171.2205
 20
36.1656
 42
0.1034747097
  0
VERTEX
  8
LAYER_5
 10
171.3556
 20
36.0674
 42
0.1064777274
  0
VERTEX
  8
LAYER_5
 10
171.5341
 20
36.0309
 42
0.1092499226
  0
VERTEX
  8
LAYER_5
 10
171.7032
 20
36.0674
 42
0.1370031249
  0
VERTEX
  8
LAYER_5
 10
171.8376
 20
36.1842
  0
SEQEND
  0
ENDBLK
  0
BLOCK
  8
LAYER_5
  2
AIGNBL05030024
 70
64
 10
0
 20
0
 30
0
  3
AIGNBL05030024
  0
POLYLINE
  8
LAYER_5
 40
0.05
 41
0.05
 66
1
 10
0
 20
0
 30
0
 70
1
  0
VERTEX
  8
LAYER_5
 10
172.4067
 20
36.0574
  0
VERTEX
  8
LAYER_5
 10
172.96
 20
36.0574
  0
VERTEX
  8
LAYER_5
 10
172.96
 20
35.9637
  0
VERTEX
  8
LAYER_5
 10
172.3016
 20
35.9637
  0
VERTEX
  8
LAYER_5
 10
172.3016
 20
36.9969
  0
VERTEX
  8
LAYER_5
 10
172.9424
 20
36.9969
  0
VERTEX
  8
LAYER_5
 10
172.9424
 20
36.9035
  0
VERTEX
  8
LAYER_5
 10
172.4067
 20
36.9035
  0
VERTEX
  8
LAYER_5
 10
172.4067
 20
36.549
  0
VERTEX
  8
LAYER_5
 10
172.9073
 20
36.549
  0
VERTEX
  8
LAYER_5
 10
172.9073
 20
36.4557
  0
VERTEX
  8
LAYER_5
 10
172.4067
 20
36.4557
  0
SEQEND
  0
ENDBLK
  0
BLOCK
  8
LAYER_4
  2
AIGNBL04020003
 70
64
 10
0
 20
0
 30
0
  3
AIGNBL04020003
  0
POLYLINE
  8
LAYER_4
 40
0.1058
 41
0.1058
 66
1
 10
0
 20
0
 30
0
  0
VERTEX
  8
LAYER_4
 10
134.6853
 20
212.3278
  0
VERTEX
  8
LAYER_4
 10
142.7906
 20
212.3278
  0
SEQEND
  0
ENDBLK
  0
BLOCK
  8
LAYER_4
  2
AIGNBL04020004
 70
64
 10
0
 20
0
 30
0
  3
AIGNBL04020004
  0
POLYLINE
  8
LAYER_4
 40
0.1058
 41
0.1058
 66
1
 10
0
 20
0
 30
0
  0
VERTEX
  8
LAYER_4
 10
142.7906
 20
212.3278
  0
VERTEX
  8
LAYER_4
 10
142.7906
 20
214.4419
  0
SEQEND
  0
ENDBLK
  0
BLOCK
  8
LAYER_4
  2
AIGNBL04020005
 70
64
 10
0
 20
0
 30
0
  3
AIGNBL04020005
  0
POLYLINE
  8
LAYER_4
 40
0.1058
 41
0.1058
 66
1
 10
0
 20
0
 30
0
  0
VERTEX
  8
LAYER_4
 10
142.7906
 20
214.4419
  0
VERTEX
  8
LAYER_4
 10
134.6853
 20
214.4419
  0
SEQEND
  0
ENDBLK
  0
BLOCK
  8
LAYER_4
  2
AIGNBL04020006
 70
64
 10
0
 20
0
 30
0
  3
AIGNBL04020006
  0
POLYLINE
  8
LAYER_4
 40
0.1058
 41
0.1058
 66
1
 10
0
 20
0
 30
0
  0
VERTEX
  8
LAYER_4
 10
134.6853
 20
214.4419
  0
VERTEX
  8
LAYER_4
 10
134.6853
 20
212.3278
  0
SEQEND
  0
ENDBLK
  0
BLOCK
  8
LAYER_4
  2
AIGNBL04020007
 70
64
 10
0
 20
0
 30
0
  3
AIGNBL04020007
  0
POLYLINE
  8
LAYER_4
 40
0.1058
 41
0.1058
 66
1
 10
0
 20
0
 30
0
  0
VERTEX
  8
LAYER_4
 10
70.3253
 20
212.3278
  0
VERTEX
  8
LAYER_4
 10
72.7409
 20
214.4419
  0
SEQEND
  0
ENDBLK
  0
BLOCK
  8
LAYER_4
  2
AIGNBL04020008
 70
64
 10
0
 20
0
 30
0
  3
AIGNBL04020008
  0
POLYLINE
  8
LAYER_4
 40
0.1058
 41
0.1058
 66
1
 10
0
 20
0
 30
0
  0
VERTEX
  8
LAYER_4
 10
70.3253
 20
214.4419
  0
VERTEX
  8
LAYER_4
 10
72.7409
 20
212.3278
  0
SEQEND
  0
ENDBLK
  0
BLOCK
  8
LAYER_4
  2
AIGNBL04020009
 70
64
 10
0
 20
0
 30
0
  3
AIGNBL04020009
  0
POLYLINE
  8
LAYER_4
 40
0.1058
 41
0.1058
 66
1
 10
0
 20
0
 30
0
  0
VERTEX
  8
LAYER_4
 10
72.7409
 20
212.3278
  0
VERTEX
  8
LAYER_4
 10
75.7614
 20
212.3278
  0
SEQEND
  0
ENDBLK
  0
BLOCK
  8
LAYER_4
  2
AIGNBL0402000A
 70
64
 10
0
 20
0
 30
0
  3
AIGNBL0402000A
  0
POLYLINE
  8
LAYER_4
 40
0.1058
 41
0.1058
 66
1
 10
0
 20
0
 30
0
  0
VERTEX
  8
LAYER_4
 10
72.7409
 20
214.4419
  0
VERTEX
  8
LAYER_4
 10
70.3253
 20
214.4419
  0
SEQEND
  0
ENDBLK
  0
BLOCK
  8
LAYER_4
  2
AIGNBL0402000B
 70
64
 10
0
 20
0
 30
0
  3
AIGNBL0402000B
  0
POLYLINE
  8
LAYER_4
 40
0.1058
 41
0.1058
 66
1
 10
0
 20
0
 30
0
  0
VERTEX
  8
LAYER_4
 10
72.7409
 20
212.3278
  0
VERTEX
  8
LAYER_4
 10
72.7409
 20
214.4419
  0
SEQEND
  0
ENDBLK
  0
BLOCK
  8
LAYER_4
  2
AIGNBL0402000C
 70
64
 10
0
 20
0
 30
0
  3
AIGNBL0402000C
  0
POLYLINE
  8
LAYER_4
 40
0.1058
 41
0.1058
 66
1
 10
0
 20
0
 30
0
  0
VERTEX
  8
LAYER_4
 10
70.3253
 20
214.4419
  0
VERTEX
  8
LAYER_4
 10
67.3048
 20
214.4419
  0
SEQEND
  0
ENDBLK
  0
BLOCK
  8
LAYER_4
  2
AIGNBL0402000D
 70
64
 10
0
 20
0
 30
0
  3
AIGNBL0402000D
  0
POLYLINE
  8
LAYER_4
 40
0.1058
 41
0.1058
 66
1
 10
0
 20
0
 30
0
  0
VERTEX
  8
LAYER_4
 10
70.3253
 20
212.3278
  0
VERTEX
  8
LAYER_4
 10
72.7409
 20
212.3278
  0
SEQEND
  0
ENDBLK
  0
BLOCK
  8
LAYER_4
  2
AIGNBL0402000E
 70
64
 10
0
 20
0
 30
0
  3
AIGNBL0402000E
  0
POLYLINE
  8
LAYER_4
 40
0.1058
 41
0.1058
 66
1
 10
0
 20
0
 30
0
  0
VERTEX
  8
LAYER_4
 10
70.3253
 20
214.4419
  0
VERTEX
  8
LAYER_4
 10
70.3253
 20
212.3278
  0
SEQEND
  0
ENDBLK
  0
BLOCK
  8
LAYER_4
  2
AIGNBL0402000F
 70
64
 10
0
 20
0
 30
0
  3
AIGNBL0402000F
  0
POLYLINE
  8
LAYER_4
 40
0.1058
 41
0.1058
 66
1
 10
0
 20
0
 30
0
  0
VERTEX
  8
LAYER_4
 10
67.3048
 20
214.4419
  0
VERTEX
  8
LAYER_4
 10
67.3048
 20
212.3278
  0
SEQEND
  0
ENDBLK
  0
BLOCK
  8
LAYER_4
  2
AIGNBL04020010
 70
64
 10
0
 20
0
 30
0
  3
AIGNBL04020010
  0
POLYLINE
  8
LAYER_4
 40
0.1058
 41
0.1058
 66
1
 10
0
 20
0
 30
0
  0
VERTEX
  8
LAYER_4
 10
75.7614
 20
214.4419
  0
VERTEX
  8
LAYER_4
 10
72.7409
 20
214.4419
  0
SEQEND
  0
ENDBLK
  0
BLOCK
  8
LAYER_4
  2
AIGNBL04020011
 70
64
 10
0
 20
0
 30
0
  3
AIGNBL04020011
  0
POLYLINE
  8
LAYER_4
 40
0.1058
 41
0.1058
 66
1
 10
0
 20
0
 30
0
  0
VERTEX
  8
LAYER_4
 10
75.7614
 20
212.3278
  0
VERTEX
  8
LAYER_4
 10
75.7614
 20
214.4419
  0
SEQEND
  0
ENDBLK
  0
BLOCK
  8
LAYER_4
  2
AIGNBL04020012
 70
64
 10
0
 20
0
 30
0
  3
AIGNBL04020012
  0
POLYLINE
  8
LAYER_4
 40
0.1058
 41
0.1058
 66
1
 10
0
 20
0
 30
0
  0
VERTEX
  8
LAYER_4
 10
67.3048
 20
212.3278
  0
VERTEX
  8
LAYER_4
 10
70.3253
 20
212.3278
  0
SEQEND
  0
ENDBLK
  0
BLOCK
  8
LAYER_4
  2
AIGNBL04020014
 70
64
 10
0
 20
0
 30
0
  3
AIGNBL04020014
  0
POLYLINE
  8
LAYER_4
  6
AIGENLINE002
 40
0.1058
 41
0.1058
 66
1
 10
0
 20
0
 30
0
 70
128
  0
VERTEX
  8
LAYER_4
 10
71.5331
 20
213.2436
  0
VERTEX
  8
LAYER_4
 10
68.8463
 20
213.2436
  0
SEQEND
  0
ENDBLK
  0
BLOCK
  8
LAYER_4
  2
AIGNBL04020015
 70
64
 10
0
 20
0
 30
0
  3
AIGNBL04020015
  0
POLYLINE
  8
LAYER_4
  6
AIGENLINE002
 40
0.1058
 41
0.1058
 66
1
 10
0
 20
0
 30
0
 70
128
  0
VERTEX
  8
LAYER_4
 10
71.5331
 20
212.8916
  0
VERTEX
  8
LAYER_4
 10
68.8463
 20
212.8916
  0
SEQEND
  0
ENDBLK
  0
BLOCK
  8
LAYER_4
  2
AIGNBL04020016
 70
64
 10
0
 20
0
 30
0
  3
AIGNBL04020016
  0
POLYLINE
  8
LAYER_4
  6
AIGENLINE002
 40
0.1058
 41
0.1058
 66
1
 10
0
 20
0
 30
0
 70
128
  0
VERTEX
  8
LAYER_4
 10
74.2198
 20
212.8916
  0
VERTEX
  8
LAYER_4
 10
71.5331
 20
212.8916
  0
SEQEND
  0
ENDBLK
  0
BLOCK
  8
LAYER_4
  2
AIGNBL04020017
 70
64
 10
0
 20
0
 30
0
  3
AIGNBL04020017
  0
POLYLINE
  8
LAYER_4
  6
AIGENLINE002
 40
0.1058
 41
0.1058
 66
1
 10
0
 20
0
 30
0
 70
128
  0
VERTEX
  8
LAYER_4
 10
74.2198
 20
213.2436
  0
VERTEX
  8
LAYER_4
 10
71.5331
 20
213.2436
  0
SEQEND
  0
ENDBLK
  0
BLOCK
  8
LAYER_4
  2
AIGNBL04020018
 70
64
 10
0
 20
0
 30
0
  3
AIGNBL04020018
  0
POLYLINE
  8
LAYER_4
  6
AIGENLINE002
 40
0.1058
 41
0.1058
 66
1
 10
0
 20
0
 30
0
 70
129
  0
VERTEX
  8
LAYER_4
 10
68.8463
 20
213.2436
  0
VERTEX
  8
LAYER_4
 10
68.1857
 20
213.2436
  0
VERTEX
  8
LAYER_4
 10
68.1857
 20
212.8916
  0
VERTEX
  8
LAYER_4
 10
68.8463
 20
212.8916
  0
SEQEND
  0
ENDBLK
  0
BLOCK
  8
LAYER_4
  2
AIGNBL04020019
 70
64
 10
0
 20
0
 30
0
  3
AIGNBL04020019
  0
POLYLINE
  8
LAYER_4
  6
AIGENLINE002
 40
0.1058
 41
0.1058
 66
1
 10
0
 20
0
 30
0
 70
129
  0
VERTEX
  8
LAYER_4
 10
74.2198
 20
212.8916
  0
VERTEX
  8
LAYER_4
 10
74.8807
 20
212.8916
  0
VERTEX
  8
LAYER_4
 10
74.8807
 20
213.2436
  0
VERTEX
  8
LAYER_4
 10
74.2198
 20
213.2436
  0
SEQEND
  0
ENDBLK
  0
BLOCK
  8
LAYER_4
  2
AIGNBL0402001B
 70
64
 10
0
 20
0
 30
0
  3
AIGNBL0402001B
  0
POLYLINE
  8
LAYER_4
 40
0.1058
 41
0.1058
 66
1
 10
0
 20
0
 30
0
  0
VERTEX
  8
LAYER_4
 10
135.9417
 20
212.3278
  0
VERTEX
  8
LAYER_4
 10
135.9417
 20
205.6164
  0
SEQEND
  0
ENDBLK
  0
BLOCK
  8
LAYER_4
  2
AIGNBL0402001C
 70
64
 10
0
 20
0
 30
0
  3
AIGNBL0402001C
  0
POLYLINE
  8
LAYER_4
 40
0.1058
 41
0.1058
 66
1
 10
0
 20
0
 30
0
  0
VERTEX
  8
LAYER_4
 10
141.5349
 20
205.6164
  0
VERTEX
  8
LAYER_4
 10
141.5349
 20
212.3278
  0
SEQEND
  0
ENDBLK
  0
BLOCK
  8
LAYER_4
  2
AIGNBL0402001D
 70
64
 10
0
 20
0
 30
0
  3
AIGNBL0402001D
  0
POLYLINE
  8
LAYER_4
 40
0.1058
 41
0.1058
 66
1
 10
0
 20
0
 30
0
  0
VERTEX
  8
LAYER_4
 10
74.33
 20
205.5799
  0
VERTEX
  8
LAYER_4
 10
74.33
 20
212.3278
  0
SEQEND
  0
ENDBLK
  0
BLOCK
  8
LAYER_4
  2
AIGNBL0402001E
 70
64
 10
0
 20
0
 30
0
  3
AIGNBL0402001E
  0
POLYLINE
  8
LAYER_4
 40
0.1058
 41
0.1058
 66
1
 10
0
 20
0
 30
0
  0
VERTEX
  8
LAYER_4
 10
68.7362
 20
212.3278
  0
VERTEX
  8
LAYER_4
 10
68.7362
 20
205.5799
  0
SEQEND
  0
ENDBLK
  0
BLOCK
  8
LAYER_4
  2
AIGNBL04020020
 70
64
 10
0
 20
0
 30
0
  3
AIGNBL04020020
  0
POLYLINE
  8
LAYER_4
 40
0.1058
 41
0.1058
 66
1
 10
0
 20
0
 30
0
  0
VERTEX
  8
LAYER_4
 10
134.6853
 20
203.4656
  0
VERTEX
  8
LAYER_4
 10
134.6853
 20
205.5799
  0
SEQEND
  0
ENDBLK
  0
BLOCK
  8
LAYER_4
  2
AIGNBL04020021
 70
64
 10
0
 20
0
 30
0
  3
AIGNBL04020021
  0
POLYLINE
  8
LAYER_4
 40
0.1058
 41
0.1058
 66
1
 10
0
 20
0
 30
0
  0
VERTEX
  8
LAYER_4
 10
142.7906
 20
203.4656
  0
VERTEX
  8
LAYER_4
 10
134.6853
 20
203.4656
  0
SEQEND
  0
ENDBLK
  0
BLOCK
  8
LAYER_4
  2
AIGNBL04020022
 70
64
 10
0
 20
0
 30
0
  3
AIGNBL04020022
  0
POLYLINE
  8
LAYER_4
 40
0.1058
 41
0.1058
 66
1
 10
0
 20
0
 30
0
  0
VERTEX
  8
LAYER_4
 10
142.7906
 20
205.5799
  0
VERTEX
  8
LAYER_4
 10
142.7906
 20
203.4656
  0
SEQEND
  0
ENDBLK
  0
BLOCK
  8
LAYER_4
  2
AIGNBL04020023
 70
64
 10
0
 20
0
 30
0
  3
AIGNBL04020023
  0
POLYLINE
  8
LAYER_4
 40
0.1058
 41
0.1058
 66
1
 10
0
 20
0
 30
0
  0
VERTEX
  8
LAYER_4
 10
134.6853
 20
205.5799
  0
VERTEX
  8
LAYER_4
 10
142.7906
 20
205.5799
  0
SEQEND
  0
ENDBLK
  0
BLOCK
  8
LAYER_4
  2
AIGNBL04020024
 70
64
 10
0
 20
0
 30
0
  3
AIGNBL04020024
  0
POLYLINE
  8
LAYER_4
 40
0.1058
 41
0.1058
 66
1
 10
0
 20
0
 30
0
  0
VERTEX
  8
LAYER_4
 10
70.3253
 20
205.5799
  0
VERTEX
  8
LAYER_4
 10
72.7409
 20
203.4656
  0
SEQEND
  0
ENDBLK
  0
BLOCK
  8
LAYER_4
  2
AIGNBL04020025
 70
64
 10
0
 20
0
 30
0
  3
AIGNBL04020025
  0
POLYLINE
  8
LAYER_4
 40
0.1058
 41
0.1058
 66
1
 10
0
 20
0
 30
0
  0
VERTEX
  8
LAYER_4
 10
70.3253
 20
203.4656
  0
VERTEX
  8
LAYER_4
 10
72.7409
 20
205.5799
  0
SEQEND
  0
ENDBLK
  0
BLOCK
  8
LAYER_4
  2
AIGNBL04020026
 70
64
 10
0
 20
0
 30
0
  3
AIGNBL04020026
  0
POLYLINE
  8
LAYER_4
 40
0.1058
 41
0.1058
 66
1
 10
0
 20
0
 30
0
  0
VERTEX
  8
LAYER_4
 10
72.7409
 20
203.4656
  0
VERTEX
  8
LAYER_4
 10
75.7614
 20
203.4656
  0
SEQEND
  0
ENDBLK
  0
BLOCK
  8
LAYER_4
  2
AIGNBL04020027
 70
64
 10
0
 20
0
 30
0
  3
AIGNBL04020027
  0
POLYLINE
  8
LAYER_4
 40
0.1058
 41
0.1058
 66
1
 10
0
 20
0
 30
0
  0
VERTEX
  8
LAYER_4
 10
72.7409
 20
205.5799
  0
VERTEX
  8
LAYER_4
 10
70.3253
 20
205.5799
  0
SEQEND
  0
ENDBLK
  0
BLOCK
  8
LAYER_4
  2
AIGNBL04020028
 70
64
 10
0
 20
0
 30
0
  3
AIGNBL04020028
  0
POLYLINE
  8
LAYER_4
 40
0.1058
 41
0.1058
 66
1
 10
0
 20
0
 30
0
  0
VERTEX
  8
LAYER_4
 10
72.7409
 20
203.4656
  0
VERTEX
  8
LAYER_4
 10
72.7409
 20
205.5799
  0
SEQEND
  0
ENDBLK
  0
BLOCK
  8
LAYER_4
  2
AIGNBL04020029
 70
64
 10
0
 20
0
 30
0
  3
AIGNBL04020029
  0
POLYLINE
  8
LAYER_4
 40
0.1058
 41
0.1058
 66
1
 10
0
 20
0
 30
0
  0
VERTEX
  8
LAYER_4
 10
70.3253
 20
205.5799
  0
VERTEX
  8
LAYER_4
 10
67.3048
 20
205.5799
  0
SEQEND
  0
ENDBLK
  0
BLOCK
  8
LAYER_4
  2
AIGNBL0402002A
 70
64
 10
0
 20
0
 30
0
  3
AIGNBL0402002A
  0
POLYLINE
  8
LAYER_4
 40
0.1058
 41
0.1058
 66
1
 10
0
 20
0
 30
0
  0
VERTEX
  8
LAYER_4
 10
70.3253
 20
203.4656
  0
VERTEX
  8
LAYER_4
 10
72.7409
 20
203.4656
  0
SEQEND
  0
ENDBLK
  0
BLOCK
  8
LAYER_4
  2
AIGNBL0402002B
 70
64
 10
0
 20
0
 30
0
  3
AIGNBL0402002B
  0
POLYLINE
  8
LAYER_4
 40
0.1058
 41
0.1058
 66
1
 10
0
 20
0
 30
0
  0
VERTEX
  8
LAYER_4
 10
70.3253
 20
205.5799
  0
VERTEX
  8
LAYER_4
 10
70.3253
 20
203.4656
  0
SEQEND
  0
ENDBLK
  0
BLOCK
  8
LAYER_4
  2
AIGNBL0402002C
 70
64
 10
0
 20
0
 30
0
  3
AIGNBL0402002C
  0
POLYLINE
  8
LAYER_4
 40
0.1058
 41
0.1058
 66
1
 10
0
 20
0
 30
0
  0
VERTEX
  8
LAYER_4
 10
67.3048
 20
205.5799
  0
VERTEX
  8
LAYER_4
 10
67.3048
 20
203.4656
  0
SEQEND
  0
ENDBLK
  0
BLOCK
  8
LAYER_4
  2
AIGNBL0402002D
 70
64
 10
0
 20
0
 30
0
  3
AIGNBL0402002D
  0
POLYLINE
  8
LAYER_4
 40
0.1058
 41
0.1058
 66
1
 10
0
 20
0
 30
0
  0
VERTEX
  8
LAYER_4
 10
75.7614
 20
205.5799
  0
VERTEX
  8
LAYER_4
 10
72.7409
 20
205.5799
  0
SEQEND
  0
ENDBLK
  0
BLOCK
  8
LAYER_4
  2
AIGNBL0402002E
 70
64
 10
0
 20
0
 30
0
  3
AIGNBL0402002E
  0
POLYLINE
  8
LAYER_4
 40
0.1058
 41
0.1058
 66
1
 10
0
 20
0
 30
0
  0
VERTEX
  8
LAYER_4
 10
75.7614
 20
203.4656
  0
VERTEX
  8
LAYER_4
 10
75.7614
 20
205.5799
  0
SEQEND
  0
ENDBLK
  0
BLOCK
  8
LAYER_4
  2
AIGNBL0402002F
 70
64
 10
0
 20
0
 30
0
  3
AIGNBL0402002F
  0
POLYLINE
  8
LAYER_4
 40
0.1058
 41
0.1058
 66
1
 10
0
 20
0
 30
0
  0
VERTEX
  8
LAYER_4
 10
67.3048
 20
203.4656
  0
VERTEX
  8
LAYER_4
 10
70.3253
 20
203.4656
  0
SEQEND
  0
ENDBLK
  0
BLOCK
  8
LAYER_4
  2
AIGNBL04020031
 70
64
 10
0
 20
0
 30
0
  3
AIGNBL04020031
  0
POLYLINE
  8
LAYER_4
 40
0.1058
 41
0.1058
 66
1
 10
0
 20
0
 30
0
  0
VERTEX
  8
LAYER_4
 10
135.7777
 20
195.2732
  0
VERTEX
  8
LAYER_4
 10
135.7777
 20
202.7256
  0
SEQEND
  0
ENDBLK
  0
BLOCK
  8
LAYER_4
  2
AIGNBL04020032
 70
64
 10
0
 20
0
 30
0
  3
AIGNBL04020032
  0
POLYLINE
  8
LAYER_4
 40
0.1058
 41
0.1058
 66
1
 10
0
 20
0
 30
0
  0
VERTEX
  8
LAYER_4
 10
141.6978
 20
202.7256
  0
VERTEX
  8
LAYER_4
 10
141.6978
 20
195.2732
  0
SEQEND
  0
ENDBLK
  0
BLOCK
  8
LAYER_4
  2
AIGNBL04020033
 70
64
 10
0
 20
0
 30
0
  3
AIGNBL04020033
  0
POLYLINE
  8
LAYER_4
 40
0.1058
 41
0.1058
 66
1
 10
0
 20
0
 30
0
  0
VERTEX
  8
LAYER_4
 10
74.4928
 20
202.7256
  0
VERTEX
  8
LAYER_4
 10
74.4928
 20
195.2732
  0
SEQEND
  0
ENDBLK
  0
BLOCK
  8
LAYER_4
  2
AIGNBL04020034
 70
64
 10
0
 20
0
 30
0
  3
AIGNBL04020034
  0
POLYLINE
  8
LAYER_4
 40
0.1058
 41
0.1058
 66
1
 10
0
 20
0
 30
0
  0
VERTEX
  8
LAYER_4
 10
74.3198
 20
194.9028
  0
VERTEX
  8
LAYER_4
 10
71.5331
 20
194.9028
  0
SEQEND
  0
ENDBLK
  0
BLOCK
  8
LAYER_4
  2
AIGNBL04020035
 70
64
 10
0
 20
0
 30
0
  3
AIGNBL04020035
  0
POLYLINE
  8
LAYER_4
 40
0.1058
 41
0.1058
 66
1
 10
0
 20
0
 30
0
  0
VERTEX
  8
LAYER_4
 10
68.7362
 20
188.2257
  0
VERTEX
  8
LAYER_4
 10
68.7362
 20
194.533
  0
SEQEND
  0
ENDBLK
  0
BLOCK
  8
LAYER_4
  2
AIGNBL04020036
 70
64
 10
0
 20
0
 30
0
  3
AIGNBL04020036
  0
POLYLINE
  8
LAYER_4
 40
0.1058
 41
0.1058
 66
1
 10
0
 20
0
 30
0
  0
VERTEX
  8
LAYER_4
 10
74.33
 20
188.2257
  0
VERTEX
  8
LAYER_4
 10
74.33
 20
194.533
  0
SEQEND
  0
ENDBLK
  0
BLOCK
  8
LAYER_4
  2
AIGNBL04020037
 70
64
 10
0
 20
0
 30
0
  3
AIGNBL04020037
  0
POLYLINE
  8
LAYER_4
 40
0.1058
 41
0.1058
 66
1
 10
0
 20
0
 30
0
  0
VERTEX
  8
LAYER_4
 10
71.5331
 20
194.9028
  0
VERTEX
  8
LAYER_4
 10
68.7467
 20
194.9028
  0
SEQEND
  0
ENDBLK
  0
BLOCK
  8
LAYER_4
  2
AIGNBL04020038
 70
64
 10
0
 20
0
 30
0
  3
AIGNBL04020038
  0
POLYLINE
  8
LAYER_4
 40
0.1058
 41
0.1058
 66
1
 10
0
 20
0
 30
0
  0
VERTEX
  8
LAYER_4
 10
68.5733
 20
195.2732
  0
VERTEX
  8
LAYER_4
 10
68.5733
 20
202.7256
  0
SEQEND
  0
ENDBLK
  0
BLOCK
  8
LAYER_4
  2
AIGNBL04020039
 70
64
 10
0
 20
0
 30
0
  3
AIGNBL04020039
  0
POLYLINE
  8
LAYER_4
 40
0.1058
 41
0.1058
 66
1
 10
0
 20
0
 30
0
  0
VERTEX
  8
LAYER_4
 10
68.1884
 20
202.7256
  0
VERTEX
  8
LAYER_4
 10
68.5733
 20
202.7256
  0
SEQEND
  0
ENDBLK
  0
BLOCK
  8
LAYER_4
  2
AIGNBL0402003A
 70
64
 10
0
 20
0
 30
0
  3
AIGNBL0402003A
  0
POLYLINE
  8
LAYER_4
 40
0.1058
 41
0.1058
 66
1
 10
0
 20
0
 30
0
  0
VERTEX
  8
LAYER_4
 10
68.0315
 20
202.8827
  0
VERTEX
  8
LAYER_4
 10
71.5331
 20
202.8827
  0
SEQEND
  0
ENDBLK
  0
BLOCK
  8
LAYER_4
  2
AIGNBL0402003B
 70
64
 10
0
 20
0
 30
0
  3
AIGNBL0402003B
  0
POLYLINE
  8
LAYER_4
 40
0.1058
 41
0.1058
 66
1
 10
0
 20
0
 30
0
  0
VERTEX
  8
LAYER_4
 10
68.0315
 20
202.8827
  0
VERTEX
  8
LAYER_4
 10
68.0315
 20
203.4656
  0
SEQEND
  0
ENDBLK
  0
BLOCK
  8
LAYER_4
  2
AIGNBL0402003C
 70
64
 10
0
 20
0
 30
0
  3
AIGNBL0402003C
  0
POLYLINE
  8
LAYER_4
 40
0.1058
 41
0.1058
 66
1
 10
0
 20
0
 30
0
  0
VERTEX
  8
LAYER_4
 10
68.1884
 20
202.7256
  0
VERTEX
  8
LAYER_4
 10
68.1884
 20
203.4656
  0
SEQEND
  0
ENDBLK
  0
BLOCK
  8
LAYER_4
  2
AIGNBL0402003D
 70
64
 10
0
 20
0
 30
0
  3
AIGNBL0402003D
  0
POLYLINE
  8
LAYER_4
 40
0.1058
 41
0.1058
 66
1
 10
0
 20
0
 30
0
  0
VERTEX
  8
LAYER_4
 10
68.0315
 20
202.8827
  0
VERTEX
  8
LAYER_4
 10
68.1884
 20
202.7256
  0
SEQEND
  0
ENDBLK
  0
BLOCK
  8
LAYER_4
  2
AIGNBL0402003E
 70
64
 10
0
 20
0
 30
0
  3
AIGNBL0402003E
  0
POLYLINE
  8
LAYER_4
 40
0.1058
 41
0.1058
 66
1
 10
0
 20
0
 30
0
  0
VERTEX
  8
LAYER_4
 10
74.8776
 20
202.7256
  0
VERTEX
  8
LAYER_4
 10
75.0349
 20
202.8827
  0
SEQEND
  0
ENDBLK
  0
BLOCK
  8
LAYER_4
  2
AIGNBL0402003F
 70
64
 10
0
 20
0
 30
0
  3
AIGNBL0402003F
  0
POLYLINE
  8
LAYER_4
 40
0.1058
 41
0.1058
 66
1
 10
0
 20
0
 30
0
  0
VERTEX
  8
LAYER_4
 10
74.8776
 20
203.4656
  0
VERTEX
  8
LAYER_4
 10
74.8776
 20
202.7256
  0
SEQEND
  0
ENDBLK
  0
BLOCK
  8
LAYER_4
  2
AIGNBL04020040
 70
64
 10
0
 20
0
 30
0
  3
AIGNBL04020040
  0
POLYLINE
  8
LAYER_4
 40
0.1058
 41
0.1058
 66
1
 10
0
 20
0
 30
0
  0
VERTEX
  8
LAYER_4
 10
75.0349
 20
203.4656
  0
VERTEX
  8
LAYER_4
 10
75.0349
 20
202.8827
  0
SEQEND
  0
ENDBLK
  0
BLOCK
  8
LAYER_4
  2
AIGNBL04020041
 70
64
 10
0
 20
0
 30
0
  3
AIGNBL04020041
  0
POLYLINE
  8
LAYER_4
 40
0.1058
 41
0.1058
 66
1
 10
0
 20
0
 30
0
  0
VERTEX
  8
LAYER_4
 10
71.5331
 20
202.8827
  0
VERTEX
  8
LAYER_4
 10
75.0349
 20
202.8827
  0
SEQEND
  0
ENDBLK
  0
BLOCK
  8
LAYER_4
  2
AIGNBL04020042
 70
64
 10
0
 20
0
 30
0
  3
AIGNBL04020042
  0
POLYLINE
  8
LAYER_4
 40
0.1058
 41
0.1058
 66
1
 10
0
 20
0
 30
0
  0
VERTEX
  8
LAYER_4
 10
71.5331
 20
202.7256
  0
VERTEX
  8
LAYER_4
 10
74.4928
 20
202.7256
  0
SEQEND
  0
ENDBLK
  0
BLOCK
  8
LAYER_4
  2
AIGNBL04020043
 70
64
 10
0
 20
0
 30
0
  3
AIGNBL04020043
  0
POLYLINE
  8
LAYER_4
 40
0.1058
 41
0.1058
 66
1
 10
0
 20
0
 30
0
  0
VERTEX
  8
LAYER_4
 10
68.5733
 20
202.7256
  0
VERTEX
  8
LAYER_4
 10
71.5331
 20
202.7256
  0
SEQEND
  0
ENDBLK
  0
BLOCK
  8
LAYER_4
  2
AIGNBL04020044
 70
64
 10
0
 20
0
 30
0
  3
AIGNBL04020044
  0
POLYLINE
  8
LAYER_4
 40
0.1058
 41
0.1058
 66
1
 10
0
 20
0
 30
0
  0
VERTEX
  8
LAYER_4
 10
74.4928
 20
202.7256
  0
VERTEX
  8
LAYER_4
 10
74.8776
 20
202.7256
  0
SEQEND
  0
ENDBLK
  0
BLOCK
  8
LAYER_4
  2
AIGNBL04020045
 70
64
 10
0
 20
0
 30
0
  3
AIGNBL04020045
  0
POLYLINE
  8
LAYER_4
 40
0.1058
 41
0.1058
 66
1
 10
0
 20
0
 30
0
  0
VERTEX
  8
LAYER_4
 10
88.2678
 20
188.6133
  0
VERTEX
  8
LAYER_4
 10
84.923
 20
188.6133
  0
SEQEND
  0
ENDBLK
  0
BLOCK
  8
LAYER_4
  2
AIGNBL04020046
 70
64
 10
0
 20
0
 30
0
  3
AIGNBL04020046
  0
POLYLINE
  8
LAYER_4
 40
0.1058
 41
0.1058
 66
1
 10
0
 20
0
 30
0
  0
VERTEX
  8
LAYER_4
 10
88.2678
 20
188.6133
  0
VERTEX
  8
LAYER_4
 10
88.2678
 20
188.7366
  0
SEQEND
  0
ENDBLK
  0
BLOCK
  8
LAYER_4
  2
AIGNBL04020047
 70
64
 10
0
 20
0
 30
0
  3
AIGNBL04020047
  0
POLYLINE
  8
LAYER_4
 40
0.1058
 41
0.1058
 66
1
 10
0
 20
0
 30
0
  0
VERTEX
  8
LAYER_4
 10
88.3912
 20
188.7366
  0
VERTEX
  8
LAYER_4
 10
88.2678
 20
188.6133
  0
SEQEND
  0
ENDBLK
  0
BLOCK
  8
LAYER_4
  2
AIGNBL04020048
 70
64
 10
0
 20
0
 30
0
  3
AIGNBL04020048
  0
POLYLINE
  8
LAYER_4
 40
0.1058
 41
0.1058
 66
1
 10
0
 20
0
 30
0
  0
VERTEX
  8
LAYER_4
 10
81.5785
 20
188.6133
  0
VERTEX
  8
LAYER_4
 10
81.4552
 20
188.7366
  0
SEQEND
  0
ENDBLK
  0
BLOCK
  8
LAYER_4
  2
AIGNBL04020049
 70
64
 10
0
 20
0
 30
0
  3
AIGNBL04020049
  0
POLYLINE
  8
LAYER_4
 40
0.1058
 41
0.1058
 66
1
 10
0
 20
0
 30
0
  0
VERTEX
  8
LAYER_4
 10
81.5785
 20
188.7366
  0
VERTEX
  8
LAYER_4
 10
81.5785
 20
188.6133
  0
SEQEND
  0
ENDBLK
  0
BLOCK
  8
LAYER_4
  2
AIGNBL0402004A
 70
64
 10
0
 20
0
 30
0
  3
AIGNBL0402004A
  0
POLYLINE
  8
LAYER_4
 40
0.1058
 41
0.1058
 66
1
 10
0
 20
0
 30
0
  0
VERTEX
  8
LAYER_4
 10
84.923
 20
188.6133
  0
VERTEX
  8
LAYER_4
 10
81.5785
 20
188.6133
  0
SEQEND
  0
ENDBLK
  0
BLOCK
  8
LAYER_4
  2
AIGNBL0402004B
 70
64
 10
0
 20
0
 30
0
  3
AIGNBL0402004B
  0
POLYLINE
  8
LAYER_4
 40
0.1058
 41
0.1058
 66
1
 10
0
 20
0
 30
0
  0
VERTEX
  8
LAYER_4
 10
141.6978
 20
202.7256
  0
VERTEX
  8
LAYER_4
 10
142.0826
 20
202.7256
  0
SEQEND
  0
ENDBLK
  0
BLOCK
  8
LAYER_4
  2
AIGNBL0402004C
 70
64
 10
0
 20
0
 30
0
  3
AIGNBL0402004C
  0
POLYLINE
  8
LAYER_4
 40
0.1058
 41
0.1058
 66
1
 10
0
 20
0
 30
0
  0
VERTEX
  8
LAYER_4
 10
135.7777
 20
202.7256
  0
VERTEX
  8
LAYER_4
 10
138.7381
 20
202.7256
  0
SEQEND
  0
ENDBLK
  0
BLOCK
  8
LAYER_4
  2
AIGNBL0402004D
 70
64
 10
0
 20
0
 30
0
  3
AIGNBL0402004D
  0
POLYLINE
  8
LAYER_4
 40
0.1058
 41
0.1058
 66
1
 10
0
 20
0
 30
0
  0
VERTEX
  8
LAYER_4
 10
138.7381
 20
202.7256
  0
VERTEX
  8
LAYER_4
 10
141.6978
 20
202.7256
  0
SEQEND
  0
ENDBLK
  0
BLOCK
  8
LAYER_4
  2
AIGNBL0402004E
 70
64
 10
0
 20
0
 30
0
  3
AIGNBL0402004E
  0
POLYLINE
  8
LAYER_4
 40
0.1058
 41
0.1058
 66
1
 10
0
 20
0
 30
0
  0
VERTEX
  8
LAYER_4
 10
138.7381
 20
202.8827
  0
VERTEX
  8
LAYER_4
 10
142.2397
 20
202.8827
  0
SEQEND
  0
ENDBLK
  0
BLOCK
  8
LAYER_4
  2
AIGNBL0402004F
 70
64
 10
0
 20
0
 30
0
  3
AIGNBL0402004F
  0
POLYLINE
  8
LAYER_4
 40
0.1058
 41
0.1058
 66
1
 10
0
 20
0
 30
0
  0
VERTEX
  8
LAYER_4
 10
142.2397
 20
203.4656
  0
VERTEX
  8
LAYER_4
 10
142.2397
 20
202.8827
  0
SEQEND
  0
ENDBLK
  0
BLOCK
  8
LAYER_4
  2
AIGNBL04020050
 70
64
 10
0
 20
0
 30
0
  3
AIGNBL04020050
  0
POLYLINE
  8
LAYER_4
 40
0.1058
 41
0.1058
 66
1
 10
0
 20
0
 30
0
  0
VERTEX
  8
LAYER_4
 10
142.0826
 20
203.4656
  0
VERTEX
  8
LAYER_4
 10
142.0826
 20
202.7256
  0
SEQEND
  0
ENDBLK
  0
BLOCK
  8
LAYER_4
  2
AIGNBL04020051
 70
64
 10
0
 20
0
 30
0
  3
AIGNBL04020051
  0
POLYLINE
  8
LAYER_4
 40
0.1058
 41
0.1058
 66
1
 10
0
 20
0
 30
0
  0
VERTEX
  8
LAYER_4
 10
142.0826
 20
202.7256
  0
VERTEX
  8
LAYER_4
 10
142.2397
 20
202.8827
  0
SEQEND
  0
ENDBLK
  0
BLOCK
  8
LAYER_4
  2
AIGNBL04020052
 70
64
 10
0
 20
0
 30
0
  3
AIGNBL04020052
  0
POLYLINE
  8
LAYER_4
 40
0.1058
 41
0.1058
 66
1
 10
0
 20
0
 30
0
  0
VERTEX
  8
LAYER_4
 10
135.2358
 20
202.8827
  0
VERTEX
  8
LAYER_4
 10
135.3929
 20
202.7256
  0
SEQEND
  0
ENDBLK
  0
BLOCK
  8
LAYER_4
  2
AIGNBL04020053
 70
64
 10
0
 20
0
 30
0
  3
AIGNBL04020053
  0
POLYLINE
  8
LAYER_4
 40
0.1058
 41
0.1058
 66
1
 10
0
 20
0
 30
0
  0
VERTEX
  8
LAYER_4
 10
135.3929
 20
202.7256
  0
VERTEX
  8
LAYER_4
 10
135.3929
 20
203.4656
  0
SEQEND
  0
ENDBLK
  0
BLOCK
  8
LAYER_4
  2
AIGNBL04020054
 70
64
 10
0
 20
0
 30
0
  3
AIGNBL04020054
  0
POLYLINE
  8
LAYER_4
 40
0.1058
 41
0.1058
 66
1
 10
0
 20
0
 30
0
  0
VERTEX
  8
LAYER_4
 10
135.2358
 20
202.8827
  0
VERTEX
  8
LAYER_4
 10
135.2358
 20
203.4656
  0
SEQEND
  0
ENDBLK
  0
BLOCK
  8
LAYER_4
  2
AIGNBL04020055
 70
64
 10
0
 20
0
 30
0
  3
AIGNBL04020055
  0
POLYLINE
  8
LAYER_4
 40
0.1058
 41
0.1058
 66
1
 10
0
 20
0
 30
0
  0
VERTEX
  8
LAYER_4
 10
135.2358
 20
202.8827
  0
VERTEX
  8
LAYER_4
 10
138.7381
 20
202.8827
  0
SEQEND
  0
ENDBLK
  0
BLOCK
  8
LAYER_4
  2
AIGNBL04020056
 70
64
 10
0
 20
0
 30
0
  3
AIGNBL04020056
  0
POLYLINE
  8
LAYER_4
 40
0.1058
 41
0.1058
 66
1
 10
0
 20
0
 30
0
  0
VERTEX
  8
LAYER_4
 10
135.3929
 20
202.7256
  0
VERTEX
  8
LAYER_4
 10
135.7777
 20
202.7256
  0
SEQEND
  0
ENDBLK
  0
BLOCK
  8
LAYER_4
  2
AIGNBL04020057
 70
64
 10
0
 20
0
 30
0
  3
AIGNBL04020057
  0
POLYLINE
  8
LAYER_4
 40
0.1058
 41
0.1058
 66
1
 10
0
 20
0
 30
0
  0
VERTEX
  8
LAYER_4
 10
135.7777
 20
195.2732
 42
0.1094977282
  0
VERTEX
  8
LAYER_4
 10
135.8598
 20
194.9028
  0
SEQEND
  0
ENDBLK
  0
BLOCK
  8
LAYER_4
  2
AIGNBL04020058
 70
64
 10
0
 20
0
 30
0
  3
AIGNBL04020058
  0
POLYLINE
  8
LAYER_4
 40
0.1058
 41
0.1058
 66
1
 10
0
 20
0
 30
0
  0
VERTEX
  8
LAYER_4
 10
135.9417
 20
194.533
 42
0.1090290625
  0
VERTEX
  8
LAYER_4
 10
135.8598
 20
194.9028
  0
SEQEND
  0
ENDBLK
  0
BLOCK
  8
LAYER_4
  2
AIGNBL04020059
 70
64
 10
0
 20
0
 30
0
  3
AIGNBL04020059
  0
POLYLINE
  8
LAYER_4
 40
0.1058
 41
0.1058
 66
1
 10
0
 20
0
 30
0
  0
VERTEX
  8
LAYER_4
 10
141.6168
 20
194.9028
 42
0.1104417654
  0
VERTEX
  8
LAYER_4
 10
141.5349
 20
194.533
  0
SEQEND
  0
ENDBLK
  0
BLOCK
  8
LAYER_4
  2
AIGNBL0402005A
 70
64
 10
0
 20
0
 30
0
  3
AIGNBL0402005A
  0
POLYLINE
  8
LAYER_4
 40
0.1058
 41
0.1058
 66
1
 10
0
 20
0
 30
0
  0
VERTEX
  8
LAYER_4
 10
141.6168
 20
194.9028
 42
0.1076045613
  0
VERTEX
  8
LAYER_4
 10
141.6978
 20
195.2732
  0
SEQEND
  0
ENDBLK
  0
BLOCK
  8
LAYER_4
  2
AIGNBL0402005B
 70
64
 10
0
 20
0
 30
0
  3
AIGNBL0402005B
  0
POLYLINE
  8
LAYER_4
 40
0.1058
 41
0.1058
 66
1
 10
0
 20
0
 30
0
  0
VERTEX
  8
LAYER_4
 10
74.4117
 20
194.9028
 42
0.1084763526
  0
VERTEX
  8
LAYER_4
 10
74.4928
 20
195.2732
  0
SEQEND
  0
ENDBLK
  0
BLOCK
  8
LAYER_4
  2
AIGNBL0402005C
 70
64
 10
0
 20
0
 30
0
  3
AIGNBL0402005C
  0
POLYLINE
  8
LAYER_4
 40
0.1058
 41
0.1058
 66
1
 10
0
 20
0
 30
0
  0
VERTEX
  8
LAYER_4
 10
74.4117
 20
194.9028
 42
0.1094183901
  0
VERTEX
  8
LAYER_4
 10
74.33
 20
194.533
  0
SEQEND
  0
ENDBLK
  0
BLOCK
  8
LAYER_4
  2
AIGNBL0402005D
 70
64
 10
0
 20
0
 30
0
  3
AIGNBL0402005D
  0
POLYLINE
  8
LAYER_4
 40
0.1058
 41
0.1058
 66
1
 10
0
 20
0
 30
0
  0
VERTEX
  8
LAYER_4
 10
74.33
 20
188.2257
 42
0.4142115403
  0
VERTEX
  8
LAYER_4
 10
78.2281
 20
184.3276
 42
0.4068374178
  0
VERTEX
  8
LAYER_4
 10
82.1249
 20
188.1268
  0
SEQEND
  0
ENDBLK
  0
BLOCK
  8
LAYER_4
  2
AIGNBL0402005E
 70
64
 10
0
 20
0
 30
0
  3
AIGNBL0402005E
  0
POLYLINE
  8
LAYER_4
 40
0.1058
 41
0.1058
 66
1
 10
0
 20
0
 30
0
  0
VERTEX
  8
LAYER_4
 10
68.7362
 20
188.2257
 42
0.414212732
  0
VERTEX
  8
LAYER_4
 10
78.2281
 20
178.7338
 42
0.4107926257
  0
VERTEX
  8
LAYER_4
 10
87.7194
 20
188.1144
  0
SEQEND
  0
ENDBLK
  0
BLOCK
  8
LAYER_4
  2
AIGNBL0402005F
 70
64
 10
0
 20
0
 30
0
  3
AIGNBL0402005F
  0
POLYLINE
  8
LAYER_4
 40
0.1058
 41
0.1058
 66
1
 10
0
 20
0
 30
0
  0
VERTEX
  8
LAYER_4
 10
68.7362
 20
194.533
 42
0.1087817141
  0
VERTEX
  8
LAYER_4
 10
68.6547
 20
194.9028
  0
SEQEND
  0
ENDBLK
  0
BLOCK
  8
LAYER_4
  2
AIGNBL04020060
 70
64
 10
0
 20
0
 30
0
  3
AIGNBL04020060
  0
POLYLINE
  8
LAYER_4
 40
0.1058
 41
0.1058
 66
1
 10
0
 20
0
 30
0
  0
VERTEX
  8
LAYER_4
 10
68.5733
 20
195.2732
 42
0.1087956746
  0
VERTEX
  8
LAYER_4
 10
68.6547
 20
194.9028
  0
SEQEND
  0
ENDBLK
  0
BLOCK
  8
LAYER_4
  2
AIGNBL04020061
 70
64
 10
0
 20
0
 30
0
  3
AIGNBL04020061
  0
POLYLINE
  8
LAYER_4
 40
0.1058
 41
0.1058
 66
1
 10
0
 20
0
 30
0
  0
VERTEX
  8
LAYER_4
 10
87.7898
 20
188.3123
 42
0.1215774427
  0
VERTEX
  8
LAYER_4
 10
87.882
 20
188.6133
  0
SEQEND
  0
ENDBLK
  0
BLOCK
  8
LAYER_4
  2
AIGNBL04020062
 70
64
 10
0
 20
0
 30
0
  3
AIGNBL04020062
  0
POLYLINE
  8
LAYER_4
 40
0.1058
 41
0.1058
 66
1
 10
0
 20
0
 30
0
  0
VERTEX
  8
LAYER_4
 10
87.7898
 20
188.3123
 42
0.1003140106
  0
VERTEX
  8
LAYER_4
 10
87.7194
 20
188.1144
  0
SEQEND
  0
ENDBLK
  0
BLOCK
  8
LAYER_4
  2
AIGNBL04020063
 70
64
 10
0
 20
0
 30
0
  3
AIGNBL04020063
  0
POLYLINE
  8
LAYER_4
 40
0.1058
 41
0.1058
 66
1
 10
0
 20
0
 30
0
  0
VERTEX
  8
LAYER_4
 10
82.1249
 20
188.1268
 42
0.09482374093
  0
VERTEX
  8
LAYER_4
 10
82.0565
 20
188.3123
  0
SEQEND
  0
ENDBLK
  0
BLOCK
  8
LAYER_4
  2
AIGNBL04020064
 70
64
 10
0
 20
0
 30
0
  3
AIGNBL04020064
  0
POLYLINE
  8
LAYER_4
 40
0.1058
 41
0.1058
 66
1
 10
0
 20
0
 30
0
  0
VERTEX
  8
LAYER_4
 10
81.964
 20
188.6133
 42
0.1210845173
  0
VERTEX
  8
LAYER_4
 10
82.0565
 20
188.3123
  0
SEQEND
  0
ENDBLK
  0
BLOCK
  8
LAYER_4
  2
AIGNBL04020066
 70
64
 10
0
 20
0
 30
0
  3
AIGNBL04020066
  0
POLYLINE
  8
LAYER_4
 40
0.1058
 41
0.1058
 66
1
 10
0
 20
0
 30
0
  0
VERTEX
  8
LAYER_4
 10
86.1308
 20
190.8509
  0
VERTEX
  8
LAYER_4
 10
83.7151
 20
190.8509
  0
SEQEND
  0
ENDBLK
  0
BLOCK
  8
LAYER_4
  2
AIGNBL04020067
 70
64
 10
0
 20
0
 30
0
  3
AIGNBL04020067
  0
POLYLINE
  8
LAYER_4
 40
0.1058
 41
0.1058
 66
1
 10
0
 20
0
 30
0
  0
VERTEX
  8
LAYER_4
 10
89.1515
 20
190.8509
  0
VERTEX
  8
LAYER_4
 10
86.1308
 20
190.8509
  0
SEQEND
  0
ENDBLK
  0
BLOCK
  8
LAYER_4
  2
AIGNBL04020068
 70
64
 10
0
 20
0
 30
0
  3
AIGNBL04020068
  0
POLYLINE
  8
LAYER_4
 40
0.1058
 41
0.1058
 66
1
 10
0
 20
0
 30
0
  0
VERTEX
  8
LAYER_4
 10
89.1515
 20
188.7366
  0
VERTEX
  8
LAYER_4
 10
89.1515
 20
190.8509
  0
SEQEND
  0
ENDBLK
  0
BLOCK
  8
LAYER_4
  2
AIGNBL04020069
 70
64
 10
0
 20
0
 30
0
  3
AIGNBL04020069
  0
POLYLINE
  8
LAYER_4
 40
0.1058
 41
0.1058
 66
1
 10
0
 20
0
 30
0
  0
VERTEX
  8
LAYER_4
 10
83.7151
 20
188.7366
  0
VERTEX
  8
LAYER_4
 10
86.1308
 20
188.7366
  0
SEQEND
  0
ENDBLK
  0
BLOCK
  8
LAYER_4
  2
AIGNBL0402006A
 70
64
 10
0
 20
0
 30
0
  3
AIGNBL0402006A
  0
POLYLINE
  8
LAYER_4
 40
0.1058
 41
0.1058
 66
1
 10
0
 20
0
 30
0
  0
VERTEX
  8
LAYER_4
 10
86.1308
 20
188.7366
  0
VERTEX
  8
LAYER_4
 10
89.1515
 20
188.7366
  0
SEQEND
  0
ENDBLK
  0
BLOCK
  8
LAYER_4
  2
AIGNBL0402006B
 70
64
 10
0
 20
0
 30
0
  3
AIGNBL0402006B
  0
POLYLINE
  8
LAYER_4
 40
0.1058
 41
0.1058
 66
1
 10
0
 20
0
 30
0
  0
VERTEX
  8
LAYER_4
 10
86.1308
 20
188.7366
  0
VERTEX
  8
LAYER_4
 10
86.1308
 20
190.8509
  0
SEQEND
  0
ENDBLK
  0
BLOCK
  8
LAYER_4
  2
AIGNBL0402006C
 70
64
 10
0
 20
0
 30
0
  3
AIGNBL0402006C
  0
POLYLINE
  8
LAYER_4
 40
0.1058
 41
0.1058
 66
1
 10
0
 20
0
 30
0
  0
VERTEX
  8
LAYER_4
 10
83.7151
 20
188.7366
  0
VERTEX
  8
LAYER_4
 10
86.1308
 20
190.8509
  0
SEQEND
  0
ENDBLK
  0
BLOCK
  8
LAYER_4
  2
AIGNBL0402006D
 70
64
 10
0
 20
0
 30
0
  3
AIGNBL0402006D
  0
POLYLINE
  8
LAYER_4
 40
0.1058
 41
0.1058
 66
1
 10
0
 20
0
 30
0
  0
VERTEX
  8
LAYER_4
 10
83.7151
 20
190.8509
  0
VERTEX
  8
LAYER_4
 10
86.1308
 20
188.7366
  0
SEQEND
  0
ENDBLK
  0
BLOCK
  8
LAYER_4
  2
AIGNBL0402006E
 70
64
 10
0
 20
0
 30
0
  3
AIGNBL0402006E
  0
POLYLINE
  8
LAYER_4
 40
0.1058
 41
0.1058
 66
1
 10
0
 20
0
 30
0
  0
VERTEX
  8
LAYER_4
 10
83.7151
 20
190.8509
  0
VERTEX
  8
LAYER_4
 10
83.7151
 20
188.7366
  0
SEQEND
  0
ENDBLK
  0
BLOCK
  8
LAYER_4
  2
AIGNBL0402006F
 70
64
 10
0
 20
0
 30
0
  3
AIGNBL0402006F
  0
POLYLINE
  8
LAYER_4
 40
0.1058
 41
0.1058
 66
1
 10
0
 20
0
 30
0
  0
VERTEX
  8
LAYER_4
 10
83.7151
 20
190.8509
  0
VERTEX
  8
LAYER_4
 10
80.6946
 20
190.8509
  0
SEQEND
  0
ENDBLK
  0
BLOCK
  8
LAYER_4
  2
AIGNBL04020070
 70
64
 10
0
 20
0
 30
0
  3
AIGNBL04020070
  0
POLYLINE
  8
LAYER_4
 40
0.1058
 41
0.1058
 66
1
 10
0
 20
0
 30
0
  0
VERTEX
  8
LAYER_4
 10
80.6946
 20
190.8509
  0
VERTEX
  8
LAYER_4
 10
80.6946
 20
188.7366
  0
SEQEND
  0
ENDBLK
  0
BLOCK
  8
LAYER_4
  2
AIGNBL04020071
 70
64
 10
0
 20
0
 30
0
  3
AIGNBL04020071
  0
POLYLINE
  8
LAYER_4
 40
0.1058
 41
0.1058
 66
1
 10
0
 20
0
 30
0
  0
VERTEX
  8
LAYER_4
 10
80.6946
 20
188.7366
  0
VERTEX
  8
LAYER_4
 10
83.7151
 20
188.7366
  0
SEQEND
  0
ENDBLK
  0
BLOCK
  8
LAYER_4
  2
AIGNBL04020072
 70
64
 10
0
 20
0
 30
0
  3
AIGNBL04020072
  0
POLYLINE
  8
LAYER_4
 40
0.1058
 41
0.1058
 66
1
 10
0
 20
0
 30
0
  0
VERTEX
  8
LAYER_4
 10
141.5393
 20
188.7366
  0
VERTEX
  8
LAYER_4
 10
142.7906
 20
188.7366
  0
SEQEND
  0
ENDBLK
  0
BLOCK
  8
LAYER_4
  2
AIGNBL04020073
 70
64
 10
0
 20
0
 30
0
  3
AIGNBL04020073
  0
POLYLINE
  8
LAYER_4
 40
0.1058
 41
0.1058
 66
1
 10
0
 20
0
 30
0
  0
VERTEX
  8
LAYER_4
 10
142.7906
 20
188.7366
  0
VERTEX
  8
LAYER_4
 10
142.7906
 20
190.8509
  0
SEQEND
  0
ENDBLK
  0
BLOCK
  8
LAYER_4
  2
AIGNBL04020074
 70
64
 10
0
 20
0
 30
0
  3
AIGNBL04020074
  0
POLYLINE
  8
LAYER_4
 40
0.1058
 41
0.1058
 66
1
 10
0
 20
0
 30
0
  0
VERTEX
  8
LAYER_4
 10
141.5393
 20
190.8509
  0
VERTEX
  8
LAYER_4
 10
142.7906
 20
190.8509
  0
SEQEND
  0
ENDBLK
  0
BLOCK
  8
LAYER_4
  2
AIGNBL04020075
 70
64
 10
0
 20
0
 30
0
  3
AIGNBL04020075
  0
POLYLINE
  8
LAYER_4
 40
0.1058
 41
0.1058
 66
1
 10
0
 20
0
 30
0
  0
VERTEX
  8
LAYER_4
 10
134.6853
 20
190.8509
  0
VERTEX
  8
LAYER_4
 10
135.9369
 20
190.8509
  0
SEQEND
  0
ENDBLK
  0
BLOCK
  8
LAYER_4
  2
AIGNBL04020076
 70
64
 10
0
 20
0
 30
0
  3
AIGNBL04020076
  0
POLYLINE
  8
LAYER_4
 40
0.1058
 41
0.1058
 66
1
 10
0
 20
0
 30
0
  0
VERTEX
  8
LAYER_4
 10
134.6853
 20
190.8509
  0
VERTEX
  8
LAYER_4
 10
134.6853
 20
188.7366
  0
SEQEND
  0
ENDBLK
  0
BLOCK
  8
LAYER_4
  2
AIGNBL04020077
 70
64
 10
0
 20
0
 30
0
  3
AIGNBL04020077
  0
POLYLINE
  8
LAYER_4
 40
0.1058
 41
0.1058
 66
1
 10
0
 20
0
 30
0
  0
VERTEX
  8
LAYER_4
 10
134.6853
 20
188.7366
  0
VERTEX
  8
LAYER_4
 10
135.9369
 20
188.7366
  0
SEQEND
  0
ENDBLK
  0
BLOCK
  8
LAYER_4
  2
AIGNBL04020079
 70
64
 10
0
 20
0
 30
0
  3
AIGNBL04020079
  0
POLYLINE
  8
LAYER_4
 40
0.1058
 41
0.1058
 66
1
 10
0
 20
0
 30
0
  0
VERTEX
  8
LAYER_4
 10
135.9369
 20
79.6957
  0
VERTEX
  8
LAYER_4
 10
135.9369
 20
198.0282
  0
SEQEND
  0
ENDBLK
  0
BLOCK
  8
LAYER_4
  2
AIGNBL0402007A
 70
64
 10
0
 20
0
 30
0
  3
AIGNBL0402007A
  0
POLYLINE
  8
LAYER_4
 40
0.1058
 41
0.1058
 66
1
 10
0
 20
0
 30
0
  0
VERTEX
  8
LAYER_4
 10
141.5393
 20
79.6957
  0
VERTEX
  8
LAYER_4
 10
141.5393
 20
198.0282
  0
SEQEND
  0
ENDBLK
  0
BLOCK
  8
LAYER_4
  2
AIGNBL0402007B
 70
64
 10
0
 20
0
 30
0
  3
AIGNBL0402007B
  0
POLYLINE
  8
LAYER_4
 40
0.1058
 41
0.1058
 66
1
 10
0
 20
0
 30
0
  0
VERTEX
  8
LAYER_4
 10
141.5393
 20
74.4106
  0
VERTEX
  8
LAYER_4
 10
141.5393
 20
76.8773
  0
SEQEND
  0
ENDBLK
  0
BLOCK
  8
LAYER_4
  2
AIGNBL0402007C
 70
64
 10
0
 20
0
 30
0
  3
AIGNBL0402007C
  0
POLYLINE
  8
LAYER_4
 40
0.1058
 41
0.1058
 66
1
 10
0
 20
0
 30
0
  0
VERTEX
  8
LAYER_4
 10
135.9369
 20
74.4106
  0
VERTEX
  8
LAYER_4
 10
141.5393
 20
74.4106
  0
SEQEND
  0
ENDBLK
  0
BLOCK
  8
LAYER_4
  2
AIGNBL0402007D
 70
64
 10
0
 20
0
 30
0
  3
AIGNBL0402007D
  0
POLYLINE
  8
LAYER_4
 40
0.1058
 41
0.1058
 66
1
 10
0
 20
0
 30
0
  0
VERTEX
  8
LAYER_4
 10
135.9369
 20
74.4106
  0
VERTEX
  8
LAYER_4
 10
135.9369
 20
76.8773
  0
SEQEND
  0
ENDBLK
  0
BLOCK
  8
LAYER_4
  2
AIGNBL0402007E
 70
64
 10
0
 20
0
 30
0
  3
AIGNBL0402007E
  0
POLYLINE
  8
LAYER_4
 40
0.1058
 41
0.1058
 66
1
 10
0
 20
0
 30
0
  0
VERTEX
  8
LAYER_4
 10
100.9863
 20
74.4106
  0
VERTEX
  8
LAYER_4
 10
101.1099
 20
74.4106
  0
SEQEND
  0
ENDBLK
  0
BLOCK
  8
LAYER_4
  2
AIGNBL0402007F
 70
64
 10
0
 20
0
 30
0
  3
AIGNBL0402007F
  0
POLYLINE
  8
LAYER_4
 40
0.1058
 41
0.1058
 66
1
 10
0
 20
0
 30
0
  0
VERTEX
  8
LAYER_4
 10
100.9863
 20
74.4106
  0
VERTEX
  8
LAYER_4
 10
95.516
 20
74.4106
  0
SEQEND
  0
ENDBLK
  0
BLOCK
  8
LAYER_4
  2
AIGNBL04020080
 70
64
 10
0
 20
0
 30
0
  3
AIGNBL04020080
  0
POLYLINE
  8
LAYER_4
 40
0.1058
 41
0.1058
 66
1
 10
0
 20
0
 30
0
  0
VERTEX
  8
LAYER_4
 10
95.516
 20
76.7929
  0
VERTEX
  8
LAYER_4
 10
95.516
 20
74.4106
  0
SEQEND
  0
ENDBLK
  0
BLOCK
  8
LAYER_4
  2
AIGNBL04020081
 70
64
 10
0
 20
0
 30
0
  3
AIGNBL04020081
  0
POLYLINE
  8
LAYER_4
 40
0.1058
 41
0.1058
 66
1
 10
0
 20
0
 30
0
  0
VERTEX
  8
LAYER_4
 10
101.1099
 20
76.7929
  0
VERTEX
  8
LAYER_4
 10
101.1099
 20
74.4106
  0
SEQEND
  0
ENDBLK
  0
BLOCK
  8
LAYER_4
  2
AIGNBL04020082
 70
64
 10
0
 20
0
 30
0
  3
AIGNBL04020082
  0
POLYLINE
  8
LAYER_4
 40
0.1058
 41
0.1058
 66
1
 10
0
 20
0
 30
0
  0
VERTEX
  8
LAYER_4
 10
87.7201
 20
191.0446
  0
VERTEX
  8
LAYER_4
 10
87.7201
 20
190.8509
  0
SEQEND
  0
ENDBLK
  0
BLOCK
  8
LAYER_4
  2
AIGNBL04020083
 70
64
 10
0
 20
0
 30
0
  3
AIGNBL04020083
  0
POLYLINE
  8
LAYER_4
 40
0.1058
 41
0.1058
 66
1
 10
0
 20
0
 30
0
  0
VERTEX
  8
LAYER_4
 10
82.1262
 20
191.0446
  0
VERTEX
  8
LAYER_4
 10
82.1262
 20
190.8509
  0
SEQEND
  0
ENDBLK
  0
BLOCK
  8
LAYER_4
  2
AIGNBL04020084
 70
64
 10
0
 20
0
 30
0
  3
AIGNBL04020084
  0
POLYLINE
  8
LAYER_4
 40
0.1058
 41
0.1058
 66
1
 10
0
 20
0
 30
0
  0
VERTEX
  8
LAYER_4
 10
101.1099
 20
191.0446
  0
VERTEX
  8
LAYER_4
 10
101.1099
 20
79.6124
  0
SEQEND
  0
ENDBLK
  0
BLOCK
  8
LAYER_4
  2
AIGNBL04020085
 70
64
 10
0
 20
0
 30
0
  3
AIGNBL04020085
  0
POLYLINE
  8
LAYER_4
 40
0.1058
 41
0.1058
 66
1
 10
0
 20
0
 30
0
  0
VERTEX
  8
LAYER_4
 10
95.516
 20
191.0446
  0
VERTEX
  8
LAYER_4
 10
95.516
 20
79.6124
  0
SEQEND
  0
ENDBLK
  0
BLOCK
  8
LAYER_4
  2
AIGNBL04020086
 70
64
 10
0
 20
0
 30
0
  3
AIGNBL04020086
  0
POLYLINE
  8
LAYER_4
 40
0.1058
 41
0.1058
 66
1
 10
0
 20
0
 30
0
  0
VERTEX
  8
LAYER_4
 10
141.5393
 20
198.0282
 42
0.4142096958
  0
VERTEX
  8
LAYER_4
 10
138.4233
 20
200.5149
 42
0.3501929405
  0
VERTEX
  8
LAYER_4
 10
135.9369
 20
198.0282
  0
SEQEND
  0
ENDBLK
  0
BLOCK
  8
LAYER_4
  2
AIGNBL04020087
 70
64
 10
0
 20
0
 30
0
  3
AIGNBL04020087
  0
POLYLINE
  8
LAYER_4
 40
0.1058
 41
0.1058
 66
1
 10
0
 20
0
 30
0
  0
VERTEX
  8
LAYER_4
 10
101.1099
 20
191.0446
 42
0.4142146278
  0
VERTEX
  8
LAYER_4
 10
91.6182
 20
200.5366
 42
0.414215508
  0
VERTEX
  8
LAYER_4
 10
82.1262
 20
191.0446
  0
SEQEND
  0
ENDBLK
  0
BLOCK
  8
LAYER_4
  2
AIGNBL04020088
 70
64
 10
0
 20
0
 30
0
  3
AIGNBL04020088
  0
POLYLINE
  8
LAYER_4
 40
0.1058
 41
0.1058
 66
1
 10
0
 20
0
 30
0
  0
VERTEX
  8
LAYER_4
 10
95.516
 20
191.0446
 42
0.4142161569
  0
VERTEX
  8
LAYER_4
 10
91.6182
 20
194.9428
 42
0.4142182996
  0
VERTEX
  8
LAYER_4
 10
87.7201
 20
191.0446
  0
SEQEND
  0
ENDBLK
  0
BLOCK
  8
LAYER_4
  2
AIGNBL0402008A
 70
64
 10
0
 20
0
 30
0
  3
AIGNBL0402008A
  0
POLYLINE
  8
LAYER_4
 40
0.1058
 41
0.1058
 66
1
 10
0
 20
0
 30
0
  0
VERTEX
  8
LAYER_4
 10
141.9968
 20
79.6957
  0
VERTEX
  8
LAYER_4
 10
135.4787
 20
79.6957
  0
SEQEND
  0
ENDBLK
  0
BLOCK
  8
LAYER_4
  2
AIGNBL0402008B
 70
64
 10
0
 20
0
 30
0
  3
AIGNBL0402008B
  0
POLYLINE
  8
LAYER_4
 40
0.1058
 41
0.1058
 66
1
 10
0
 20
0
 30
0
  0
VERTEX
  8
LAYER_4
 10
133.7169
 20
76.8773
  0
VERTEX
  8
LAYER_4
 10
133.7169
 20
77.9339
  0
SEQEND
  0
ENDBLK
  0
BLOCK
  8
LAYER_4
  2
AIGNBL0402008C
 70
64
 10
0
 20
0
 30
0
  3
AIGNBL0402008C
  0
POLYLINE
  8
LAYER_4
 40
0.1058
 41
0.1058
 66
1
 10
0
 20
0
 30
0
  0
VERTEX
  8
LAYER_4
 10
143.7593
 20
77.9339
  0
VERTEX
  8
LAYER_4
 10
143.7593
 20
76.8773
  0
SEQEND
  0
ENDBLK
  0
BLOCK
  8
LAYER_4
  2
AIGNBL0402008D
 70
64
 10
0
 20
0
 30
0
  3
AIGNBL0402008D
  0
POLYLINE
  8
LAYER_4
 40
0.1058
 41
0.1058
 66
1
 10
0
 20
0
 30
0
  0
VERTEX
  8
LAYER_4
 10
143.7593
 20
76.8773
  0
VERTEX
  8
LAYER_4
 10
133.7169
 20
76.8773
  0
SEQEND
  0
ENDBLK
  0
BLOCK
  8
LAYER_4
  2
AIGNBL0402008E
 70
64
 10
0
 20
0
 30
0
  3
AIGNBL0402008E
  0
POLYLINE
  8
LAYER_4
 40
0.1058
 41
0.1058
 66
1
 10
0
 20
0
 30
0
  0
VERTEX
  8
LAYER_4
 10
103.3346
 20
77.8505
  0
VERTEX
  8
LAYER_4
 10
103.3346
 20
76.7929
  0
SEQEND
  0
ENDBLK
  0
BLOCK
  8
LAYER_4
  2
AIGNBL0402008F
 70
64
 10
0
 20
0
 30
0
  3
AIGNBL0402008F
  0
POLYLINE
  8
LAYER_4
 40
0.1058
 41
0.1058
 66
1
 10
0
 20
0
 30
0
  0
VERTEX
  8
LAYER_4
 10
103.3346
 20
76.7929
  0
VERTEX
  8
LAYER_4
 10
93.2918
 20
76.7929
  0
SEQEND
  0
ENDBLK
  0
BLOCK
  8
LAYER_4
  2
AIGNBL04020090
 70
64
 10
0
 20
0
 30
0
  3
AIGNBL04020090
  0
POLYLINE
  8
LAYER_4
 40
0.1058
 41
0.1058
 66
1
 10
0
 20
0
 30
0
  0
VERTEX
  8
LAYER_4
 10
101.5728
 20
79.6124
  0
VERTEX
  8
LAYER_4
 10
95.054
 20
79.6124
  0
SEQEND
  0
ENDBLK
  0
BLOCK
  8
LAYER_4
  2
AIGNBL04020091
 70
64
 10
0
 20
0
 30
0
  3
AIGNBL04020091
  0
POLYLINE
  8
LAYER_4
 40
0.1058
 41
0.1058
 66
1
 10
0
 20
0
 30
0
  0
VERTEX
  8
LAYER_4
 10
93.2918
 20
76.7929
  0
VERTEX
  8
LAYER_4
 10
93.2918
 20
77.8505
  0
SEQEND
  0
ENDBLK
  0
BLOCK
  8
LAYER_4
  2
AIGNBL04020092
 70
64
 10
0
 20
0
 30
0
  3
AIGNBL04020092
  0
POLYLINE
  8
LAYER_4
 40
0.1058
 41
0.1058
 66
1
 10
0
 20
0
 30
0
  0
VERTEX
  8
LAYER_4
 10
135.4787
 20
79.6957
 42
0.4142093289
  0
VERTEX
  8
LAYER_4
 10
133.7169
 20
77.9339
  0
SEQEND
  0
ENDBLK
  0
BLOCK
  8
LAYER_4
  2
AIGNBL04020093
 70
64
 10
0
 20
0
 30
0
  3
AIGNBL04020093
  0
POLYLINE
  8
LAYER_4
 40
0.1058
 41
0.1058
 66
1
 10
0
 20
0
 30
0
  0
VERTEX
  8
LAYER_4
 10
143.7593
 20
77.9339
 42
0.4142184612
  0
VERTEX
  8
LAYER_4
 10
141.9968
 20
79.6957
  0
SEQEND
  0
ENDBLK
  0
BLOCK
  8
LAYER_4
  2
AIGNBL04020094
 70
64
 10
0
 20
0
 30
0
  3
AIGNBL04020094
  0
POLYLINE
  8
LAYER_4
 40
0.1058
 41
0.1058
 66
1
 10
0
 20
0
 30
0
  0
VERTEX
  8
LAYER_4
 10
103.3346
 20
77.8505
 42
0.4142198282
  0
VERTEX
  8
LAYER_4
 10
101.5728
 20
79.6124
  0
SEQEND
  0
ENDBLK
  0
BLOCK
  8
LAYER_4
  2
AIGNBL04020095
 70
64
 10
0
 20
0
 30
0
  3
AIGNBL04020095
  0
POLYLINE
  8
LAYER_4
 40
0.1058
 41
0.1058
 66
1
 10
0
 20
0
 30
0
  0
VERTEX
  8
LAYER_4
 10
95.054
 20
79.6124
 42
0.4142269331
  0
VERTEX
  8
LAYER_4
 10
93.2918
 20
77.8505
  0
SEQEND
  0
ENDBLK
  0
BLOCK
  8
LAYER_4
  2
AIGNBL040200A1
 70
64
 10
0
 20
0
 30
0
  3
AIGNBL040200A1
  0
POLYLINE
  8
LAYER_4
 40
0.1058
 41
0.1058
 66
1
 10
0
 20
0
 30
0
  0
VERTEX
  8
LAYER_4
 10
84.923
 20
167.5774
  0
VERTEX
  8
LAYER_4
 10
98.3134
 20
167.5774
  0
SEQEND
  0
ENDBLK
  0
BLOCK
  8
LAYER_4
  2
AIGNBL040200A2
 70
64
 10
0
 20
0
 30
0
  3
AIGNBL040200A2
  0
POLYLINE
  8
LAYER_4
 40
0.1058
 41
0.1058
 66
1
 10
0
 20
0
 30
0
  0
VERTEX
  8
LAYER_4
 10
84.923
 20
188.2257
  0
VERTEX
  8
LAYER_4
 10
84.923
 20
166.8728
  0
SEQEND
  0
ENDBLK
  0
BLOCK
  8
LAYER_4
  2
AIGNBL040200A3
 70
64
 10
0
 20
0
 30
0
  3
AIGNBL040200A3
  0
POLYLINE
  8
LAYER_4
 40
0.1058
 41
0.1058
 66
1
 10
0
 20
0
 30
0
  0
VERTEX
  8
LAYER_4
 10
98.3134
 20
167.0945
  0
VERTEX
  8
LAYER_4
 10
98.3134
 20
168.2822
  0
SEQEND
  0
ENDBLK
  0
BLOCK
  8
LAYER_4
  2
AIGNBL040200A4
 70
64
 10
0
 20
0
 30
0
  3
AIGNBL040200A4
  0
POLYLINE
  8
LAYER_4
 40
0.05
 41
0.05
 66
1
 10
0
 20
0
 30
0
 70
1
  0
VERTEX
  8
LAYER_4
 10
87.3897
 20
167.9023
  0
VERTEX
  8
LAYER_4
 10
87.3897
 20
167.2527
  0
VERTEX
  8
LAYER_4
 10
84.923
 20
167.5774
  0
SEQEND
  0
ENDBLK
  0
BLOCK
  8
LAYER_4
  2
AIGNBL040200A5
 70
64
 10
0
 20
0
 30
0
  3
AIGNBL040200A5
  0
POLYLINE
  8
LAYER_4
 40
0.05
 41
0.05
 66
1
 10
0
 20
0
 30
0
 70
1
  0
VERTEX
  8
LAYER_4
 10
95.8469
 20
167.2527
  0
VERTEX
  8
LAYER_4
 10
95.8469
 20
167.9023
  0
VERTEX
  8
LAYER_4
 10
98.3134
 20
167.5774
  0
SEQEND
  0
ENDBLK
  0
BLOCK
  8
LAYER_4
  2
AIGNBL040200A6
 70
64
 10
0
 20
0
 30
0
  3
AIGNBL040200A6
  0
TEXT
  8
LAYER_4
 10
89.4493
 20
168.1718
 11
89.4493
 21
168.1718
 40
4.2973
 41
0.5
  1
76
  0
ENDBLK
  0
BLOCK
  8
LAYER_4
  2
AIGNBL040200A8
 70
64
 10
0
 20
0
 30
0
  3
AIGNBL040200A8
  0
POLYLINE
  8
LAYER_4
 40
0.1058
 41
0.1058
 66
1
 10
0
 20
0
 30
0
  0
VERTEX
  8
LAYER_4
 10
131.0039
 20
109.2833
  0
VERTEX
  8
LAYER_4
 10
135.9369
 20
109.2833
  0
SEQEND
  0
ENDBLK
  0
BLOCK
  8
LAYER_4
  2
AIGNBL040200A9
 70
64
 10
0
 20
0
 30
0
  3
AIGNBL040200A9
  0
POLYLINE
  8
LAYER_4
 40
0.1058
 41
0.1058
 66
1
 10
0
 20
0
 30
0
  0
VERTEX
  8
LAYER_4
 10
135.9369
 20
109.2833
  0
VERTEX
  8
LAYER_4
 10
141.5393
 20
109.2833
  0
SEQEND
  0
ENDBLK
  0
BLOCK
  8
LAYER_4
  2
AIGNBL040200AA
 70
64
 10
0
 20
0
 30
0
  3
AIGNBL040200AA
  0
POLYLINE
  8
LAYER_4
 40
0.1058
 41
0.1058
 66
1
 10
0
 20
0
 30
0
  0
VERTEX
  8
LAYER_4
 10
141.5393
 20
109.2833
  0
VERTEX
  8
LAYER_4
 10
156.376
 20
109.2833
  0
SEQEND
  0
ENDBLK
  0
BLOCK
  8
LAYER_4
  2
AIGNBL040200AB
 70
64
 10
0
 20
0
 30
0
  3
AIGNBL040200AB
  0
POLYLINE
  8
LAYER_4
 40
0.05
 41
0.05
 66
1
 10
0
 20
0
 30
0
 70
1
  0
VERTEX
  8
LAYER_4
 10
133.4696
 20
108.9594
  0
VERTEX
  8
LAYER_4
 10
133.4696
 20
109.6088
  0
VERTEX
  8
LAYER_4
 10
135.9369
 20
109.2833
  0
SEQEND
  0
ENDBLK
  0
BLOCK
  8
LAYER_4
  2
AIGNBL040200AC
 70
64
 10
0
 20
0
 30
0
  3
AIGNBL040200AC
  0
POLYLINE
  8
LAYER_4
 40
0.05
 41
0.05
 66
1
 10
0
 20
0
 30
0
 70
1
  0
VERTEX
  8
LAYER_4
 10
144.006
 20
109.6088
  0
VERTEX
  8
LAYER_4
 10
144.006
 20
108.9594
  0
VERTEX
  8
LAYER_4
 10
141.5393
 20
109.2833
  0
SEQEND
  0
ENDBLK
  0
BLOCK
  8
LAYER_4
  2
AIGNBL040200AD
 70
64
 10
0
 20
0
 30
0
  3
AIGNBL040200AD
  0
TEXT
  8
LAYER_4
 10
148.1715
 20
110.7033
 11
148.1715
 21
110.7033
 40
4.2973
 41
0.5
  1
â│31.75
  0
ENDBLK
  0
BLOCK
  8
LAYER_4
  2
AIGNBL040200AF
 70
64
 10
0
 20
0
 30
0
  3
AIGNBL040200AF
  0
POLYLINE
  8
LAYER_4
 40
0.1058
 41
0.1058
 66
1
 10
0
 20
0
 30
0
  0
VERTEX
  8
LAYER_4
 10
55.5408
 20
191.1689
  0
VERTEX
  8
LAYER_4
 10
68.7362
 20
191.1689
  0
SEQEND
  0
ENDBLK
  0
BLOCK
  8
LAYER_4
  2
AIGNBL040200B0
 70
64
 10
0
 20
0
 30
0
  3
AIGNBL040200B0
  0
POLYLINE
  8
LAYER_4
 40
0.1058
 41
0.1058
 66
1
 10
0
 20
0
 30
0
  0
VERTEX
  8
LAYER_4
 10
68.7362
 20
191.1689
  0
VERTEX
  8
LAYER_4
 10
74.33
 20
191.1689
  0
SEQEND
  0
ENDBLK
  0
BLOCK
  8
LAYER_4
  2
AIGNBL040200B1
 70
64
 10
0
 20
0
 30
0
  3
AIGNBL040200B1
  0
POLYLINE
  8
LAYER_4
 40
0.1058
 41
0.1058
 66
1
 10
0
 20
0
 30
0
  0
VERTEX
  8
LAYER_4
 10
74.33
 20
191.1689
  0
VERTEX
  8
LAYER_4
 10
79.2632
 20
191.1689
  0
SEQEND
  0
ENDBLK
  0
BLOCK
  8
LAYER_4
  2
AIGNBL040200B2
 70
64
 10
0
 20
0
 30
0
  3
AIGNBL040200B2
  0
POLYLINE
  8
LAYER_4
 40
0.05
 41
0.05
 66
1
 10
0
 20
0
 30
0
 70
1
  0
VERTEX
  8
LAYER_4
 10
66.2697
 20
190.8442
  0
VERTEX
  8
LAYER_4
 10
66.2697
 20
191.4936
  0
VERTEX
  8
LAYER_4
 10
68.7362
 20
191.1689
  0
SEQEND
  0
ENDBLK
  0
BLOCK
  8
LAYER_4
  2
AIGNBL040200B3
 70
64
 10
0
 20
0
 30
0
  3
AIGNBL040200B3
  0
POLYLINE
  8
LAYER_4
 40
0.05
 41
0.05
 66
1
 10
0
 20
0
 30
0
 70
1
  0
VERTEX
  8
LAYER_4
 10
76.7967
 20
191.4936
  0
VERTEX
  8
LAYER_4
 10
76.7967
 20
190.8442
  0
VERTEX
  8
LAYER_4
 10
74.33
 20
191.1689
  0
SEQEND
  0
ENDBLK
  0
BLOCK
  8
LAYER_4
  2
AIGNBL040200B4
 70
64
 10
0
 20
0
 30
0
  3
AIGNBL040200B4
  0
TEXT
  8
LAYER_4
 10
55.5189
 20
192.5882
 11
55.5189
 21
192.5882
 40
4.2973
 41
0.5
  1
â│31.75
  0
ENDBLK
  0
BLOCK
  8
LAYER_4
  2
AIGNBL040200B6
 70
64
 10
0
 20
0
 30
0
  3
AIGNBL040200B6
  0
POLYLINE
  8
LAYER_4
 40
0.1058
 41
0.1058
 66
1
 10
0
 20
0
 30
0
  0
VERTEX
  8
LAYER_4
 10
71.5331
 20
167.5774
  0
VERTEX
  8
LAYER_4
 10
84.923
 20
167.5774
  0
SEQEND
  0
ENDBLK
  0
BLOCK
  8
LAYER_4
  2
AIGNBL040200B7
 70
64
 10
0
 20
0
 30
0
  3
AIGNBL040200B7
  0
POLYLINE
  8
LAYER_4
 40
0.1058
 41
0.1058
 66
1
 10
0
 20
0
 30
0
  0
VERTEX
  8
LAYER_4
 10
71.5331
 20
188.2257
  0
VERTEX
  8
LAYER_4
 10
71.5331
 20
166.8728
  0
SEQEND
  0
ENDBLK
  0
BLOCK
  8
LAYER_4
  2
AIGNBL040200B8
 70
64
 10
0
 20
0
 30
0
  3
AIGNBL040200B8
  0
POLYLINE
  8
LAYER_4
 40
0.1058
 41
0.1058
 66
1
 10
0
 20
0
 30
0
  0
VERTEX
  8
LAYER_4
 10
84.923
 20
188.2257
  0
VERTEX
  8
LAYER_4
 10
84.923
 20
166.8728
  0
SEQEND
  0
ENDBLK
  0
BLOCK
  8
LAYER_4
  2
AIGNBL040200B9
 70
64
 10
0
 20
0
 30
0
  3
AIGNBL040200B9
  0
POLYLINE
  8
LAYER_4
 40
0.05
 41
0.05
 66
1
 10
0
 20
0
 30
0
 70
1
  0
VERTEX
  8
LAYER_4
 10
73.9996
 20
167.9023
  0
VERTEX
  8
LAYER_4
 10
73.9996
 20
167.2527
  0
VERTEX
  8
LAYER_4
 10
71.5331
 20
167.5774
  0
SEQEND
  0
ENDBLK
  0
BLOCK
  8
LAYER_4
  2
AIGNBL040200BA
 70
64
 10
0
 20
0
 30
0
  3
AIGNBL040200BA
  0
POLYLINE
  8
LAYER_4
 40
0.05
 41
0.05
 66
1
 10
0
 20
0
 30
0
 70
1
  0
VERTEX
  8
LAYER_4
 10
82.4565
 20
167.2527
  0
VERTEX
  8
LAYER_4
 10
82.4565
 20
167.9023
  0
VERTEX
  8
LAYER_4
 10
84.923
 20
167.5774
  0
SEQEND
  0
ENDBLK
  0
BLOCK
  8
LAYER_4
  2
AIGNBL040200BB
 70
64
 10
0
 20
0
 30
0
  3
AIGNBL040200BB
  0
TEXT
  8
LAYER_4
 10
76.0596
 20
168.1718
 11
76.0596
 21
168.1718
 40
4.2973
 41
0.5
  1
76
  0
ENDBLK
  0
BLOCK
  8
LAYER_4
  2
AIGNBL040200BD
 70
64
 10
0
 20
0
 30
0
  3
AIGNBL040200BD
  0
POLYLINE
  8
LAYER_4
 40
0.1058
 41
0.1058
 66
1
 10
0
 20
0
 30
0
  0
VERTEX
  8
LAYER_4
 10
113.7956
 20
197.7395
  0
VERTEX
  8
LAYER_4
 10
113.7956
 20
74.4106
  0
SEQEND
  0
ENDBLK
  0
BLOCK
  8
LAYER_4
  2
AIGNBL040200BE
 70
64
 10
0
 20
0
 30
0
  3
AIGNBL040200BE
  0
POLYLINE
  8
LAYER_4
 40
0.1058
 41
0.1058
 66
1
 10
0
 20
0
 30
0
  0
VERTEX
  8
LAYER_4
 10
92.8045
 20
197.7395
  0
VERTEX
  8
LAYER_4
 10
114.5005
 20
197.7395
  0
SEQEND
  0
ENDBLK
  0
BLOCK
  8
LAYER_4
  2
AIGNBL040200BF
 70
64
 10
0
 20
0
 30
0
  3
AIGNBL040200BF
  0
POLYLINE
  8
LAYER_4
 40
0.1058
 41
0.1058
 66
1
 10
0
 20
0
 30
0
  0
VERTEX
  8
LAYER_4
 10
101.1099
 20
74.4106
  0
VERTEX
  8
LAYER_4
 10
114.5005
 20
74.4106
  0
SEQEND
  0
ENDBLK
  0
BLOCK
  8
LAYER_4
  2
AIGNBL040200C0
 70
64
 10
0
 20
0
 30
0
  3
AIGNBL040200C0
  0
POLYLINE
  8
LAYER_4
 40
0.05
 41
0.05
 66
1
 10
0
 20
0
 30
0
 70
1
  0
VERTEX
  8
LAYER_4
 10
114.1195
 20
195.2732
  0
VERTEX
  8
LAYER_4
 10
113.4711
 20
195.2732
  0
VERTEX
  8
LAYER_4
 10
113.7956
 20
197.7395
  0
SEQEND
  0
ENDBLK
  0
BLOCK
  8
LAYER_4
  2
AIGNBL040200C1
 70
64
 10
0
 20
0
 30
0
  3
AIGNBL040200C1
  0
POLYLINE
  8
LAYER_4
 40
0.05
 41
0.05
 66
1
 10
0
 20
0
 30
0
 70
1
  0
VERTEX
  8
LAYER_4
 10
113.4711
 20
76.8773
  0
VERTEX
  8
LAYER_4
 10
114.1195
 20
76.8773
  0
VERTEX
  8
LAYER_4
 10
113.7956
 20
74.4106
  0
SEQEND
  0
ENDBLK
  0
BLOCK
  8
LAYER_4
  2
AIGNBL040200C2
 70
64
 10
0
 20
0
 30
0
  3
AIGNBL040200C2
  0
TEXT
  8
LAYER_4
 10
113.1989
 20
135.9045
 11
113.1989
 21
135.9045
 40
4.2973
 41
0.5
 50
89.99999999
  1
700
  0
ENDBLK
  0
BLOCK
  8
LAYER_4
  2
AIGNBL040200C4
 70
64
 10
0
 20
0
 30
0
  3
AIGNBL040200C4
  0
POLYLINE
  8
LAYER_4
 40
0.1058
 41
0.1058
 66
1
 10
0
 20
0
 30
0
  0
VERTEX
  8
LAYER_4
 10
104.574
 20
197.7395
  0
VERTEX
  8
LAYER_4
 10
104.574
 20
181.5307
  0
SEQEND
  0
ENDBLK
  0
BLOCK
  8
LAYER_4
  2
AIGNBL040200C5
 70
64
 10
0
 20
0
 30
0
  3
AIGNBL040200C5
  0
POLYLINE
  8
LAYER_4
 40
0.1058
 41
0.1058
 66
1
 10
0
 20
0
 30
0
  0
VERTEX
  8
LAYER_4
 10
91.8676
 20
197.7395
  0
VERTEX
  8
LAYER_4
 10
105.2789
 20
197.7395
  0
SEQEND
  0
ENDBLK
  0
BLOCK
  8
LAYER_4
  2
AIGNBL040200C6
 70
64
 10
0
 20
0
 30
0
  3
AIGNBL040200C6
  0
POLYLINE
  8
LAYER_4
 40
0.1058
 41
0.1058
 66
1
 10
0
 20
0
 30
0
  0
VERTEX
  8
LAYER_4
 10
79.0282
 20
181.5307
  0
VERTEX
  8
LAYER_4
 10
105.2789
 20
181.5307
  0
SEQEND
  0
ENDBLK
  0
BLOCK
  8
LAYER_4
  2
AIGNBL040200C7
 70
64
 10
0
 20
0
 30
0
  3
AIGNBL040200C7
  0
POLYLINE
  8
LAYER_4
 40
0.05
 41
0.05
 66
1
 10
0
 20
0
 30
0
 70
1
  0
VERTEX
  8
LAYER_4
 10
104.8978
 20
195.2732
  0
VERTEX
  8
LAYER_4
 10
104.2494
 20
195.2732
  0
VERTEX
  8
LAYER_4
 10
104.574
 20
197.7395
  0
SEQEND
  0
ENDBLK
  0
BLOCK
  8
LAYER_4
  2
AIGNBL040200C8
 70
64
 10
0
 20
0
 30
0
  3
AIGNBL040200C8
  0
POLYLINE
  8
LAYER_4
 40
0.05
 41
0.05
 66
1
 10
0
 20
0
 30
0
 70
1
  0
VERTEX
  8
LAYER_4
 10
104.2494
 20
183.9974
  0
VERTEX
  8
LAYER_4
 10
104.8978
 20
183.9974
  0
VERTEX
  8
LAYER_4
 10
104.574
 20
181.5307
  0
SEQEND
  0
ENDBLK
  0
BLOCK
  8
LAYER_4
  2
AIGNBL040200C9
 70
64
 10
0
 20
0
 30
0
  3
AIGNBL040200C9
  0
TEXT
  8
LAYER_4
 10
105.2838
 20
187.9616
 11
105.2838
 21
187.9616
 40
4.2973
 41
0.5
  1
90
  0
ENDBLK
  0
BLOCK
  8
LAYER_4
  2
AIGNBL040200CB
 70
64
 10
0
 20
0
 30
0
  3
AIGNBL040200CB
  0
POLYLINE
  8
LAYER_4
 40
0.1058
 41
0.1058
 66
1
 10
0
 20
0
 30
0
  0
VERTEX
  8
LAYER_4
 10
54.6194
 20
213.2436
  0
VERTEX
  8
LAYER_4
 10
54.6194
 20
181.5307
  0
SEQEND
  0
ENDBLK
  0
BLOCK
  8
LAYER_4
  2
AIGNBL040200CC
 70
64
 10
0
 20
0
 30
0
  3
AIGNBL040200CC
  0
POLYLINE
  8
LAYER_4
 40
0.1058
 41
0.1058
 66
1
 10
0
 20
0
 30
0
  0
VERTEX
  8
LAYER_4
 10
76.971
 20
181.5307
  0
VERTEX
  8
LAYER_4
 10
53.9147
 20
181.5307
  0
SEQEND
  0
ENDBLK
  0
BLOCK
  8
LAYER_4
  2
AIGNBL040200CD
 70
64
 10
0
 20
0
 30
0
  3
AIGNBL040200CD
  0
POLYLINE
  8
LAYER_4
 40
0.1058
 41
0.1058
 66
1
 10
0
 20
0
 30
0
  0
VERTEX
  8
LAYER_4
 10
68.1857
 20
213.2436
  0
VERTEX
  8
LAYER_4
 10
53.9147
 20
213.2436
  0
SEQEND
  0
ENDBLK
  0
BLOCK
  8
LAYER_4
  2
AIGNBL040200CE
 70
64
 10
0
 20
0
 30
0
  3
AIGNBL040200CE
  0
POLYLINE
  8
LAYER_4
 40
0.05
 41
0.05
 66
1
 10
0
 20
0
 30
0
 70
1
  0
VERTEX
  8
LAYER_4
 10
54.9441
 20
210.7771
  0
VERTEX
  8
LAYER_4
 10
54.2947
 20
210.7771
  0
VERTEX
  8
LAYER_4
 10
54.6194
 20
213.2436
  0
SEQEND
  0
ENDBLK
  0
BLOCK
  8
LAYER_4
  2
AIGNBL040200CF
 70
64
 10
0
 20
0
 30
0
  3
AIGNBL040200CF
  0
POLYLINE
  8
LAYER_4
 40
0.05
 41
0.05
 66
1
 10
0
 20
0
 30
0
 70
1
  0
VERTEX
  8
LAYER_4
 10
54.2947
 20
183.9974
  0
VERTEX
  8
LAYER_4
 10
54.9441
 20
183.9974
  0
VERTEX
  8
LAYER_4
 10
54.6194
 20
181.5307
  0
SEQEND
  0
ENDBLK
  0
BLOCK
  8
LAYER_4
  2
AIGNBL040200D0
 70
64
 10
0
 20
0
 30
0
  3
AIGNBL040200D0
  0
TEXT
  8
LAYER_4
 10
54.0234
 20
191.1666
 11
54.0234
 21
191.1666
 40
4.2973
 41
0.5
 50
89.99999999
  1
1780215
  0
ENDBLK
  0
BLOCK
  8
LAYER_4
  2
AIGNBL040200D2
 70
64
 10
0
 20
0
 30
0
  3
AIGNBL040200D2
  0
POLYLINE
  8
LAYER_4
 40
0.1058
 41
0.1058
 66
1
 10
0
 20
0
 30
0
  0
VERTEX
  8
LAYER_4
 10
133.7169
 20
67.3637
  0
VERTEX
  8
LAYER_4
 10
143.7593
 20
67.3637
  0
SEQEND
  0
ENDBLK
  0
BLOCK
  8
LAYER_4
  2
AIGNBL040200D3
 70
64
 10
0
 20
0
 30
0
  3
AIGNBL040200D3
  0
POLYLINE
  8
LAYER_4
 40
0.1058
 41
0.1058
 66
1
 10
0
 20
0
 30
0
  0
VERTEX
  8
LAYER_4
 10
133.7169
 20
76.8773
  0
VERTEX
  8
LAYER_4
 10
133.7169
 20
66.6588
  0
SEQEND
  0
ENDBLK
  0
BLOCK
  8
LAYER_4
  2
AIGNBL040200D4
 70
64
 10
0
 20
0
 30
0
  3
AIGNBL040200D4
  0
POLYLINE
  8
LAYER_4
 40
0.1058
 41
0.1058
 66
1
 10
0
 20
0
 30
0
  0
VERTEX
  8
LAYER_4
 10
143.7593
 20
76.8773
  0
VERTEX
  8
LAYER_4
 10
143.7593
 20
66.6588
  0
SEQEND
  0
ENDBLK
  0
BLOCK
  8
LAYER_4
  2
AIGNBL040200D5
 70
64
 10
0
 20
0
 30
0
  3
AIGNBL040200D5
  0
POLYLINE
  8
LAYER_4
 40
0.05
 41
0.05
 66
1
 10
0
 20
0
 30
0
 70
1
  0
VERTEX
  8
LAYER_4
 10
136.1836
 20
67.6885
  0
VERTEX
  8
LAYER_4
 10
136.1836
 20
67.0388
  0
VERTEX
  8
LAYER_4
 10
133.7169
 20
67.3637
  0
SEQEND
  0
ENDBLK
  0
BLOCK
  8
LAYER_4
  2
AIGNBL040200D6
 70
64
 10
0
 20
0
 30
0
  3
AIGNBL040200D6
  0
POLYLINE
  8
LAYER_4
 40
0.05
 41
0.05
 66
1
 10
0
 20
0
 30
0
 70
1
  0
VERTEX
  8
LAYER_4
 10
141.2926
 20
67.0388
  0
VERTEX
  8
LAYER_4
 10
141.2926
 20
67.6885
  0
VERTEX
  8
LAYER_4
 10
143.7593
 20
67.3637
  0
SEQEND
  0
ENDBLK
  0
BLOCK
  8
LAYER_4
  2
AIGNBL040200D7
 70
64
 10
0
 20
0
 30
0
  3
AIGNBL040200D7
  0
TEXT
  8
LAYER_4
 10
135.6045
 20
68.4196
 11
135.6045
 21
68.4196
 40
4.2973
 41
0.5
  1
â│57
  0
ENDBLK
  0
BLOCK
  8
LAYER_4
  2
AIGNBL040200D9
 70
64
 10
0
 20
0
 30
0
  3
AIGNBL040200D9
  0
POLYLINE
  8
LAYER_4
 40
0.1058
 41
0.1058
 66
1
 10
0
 20
0
 30
0
  0
VERTEX
  8
LAYER_4
 10
151.1312
 20
79.6957
  0
VERTEX
  8
LAYER_4
 10
151.1312
 20
86.8309
  0
SEQEND
  0
ENDBLK
  0
BLOCK
  8
LAYER_4
  2
AIGNBL040200DA
 70
64
 10
0
 20
0
 30
0
  3
AIGNBL040200DA
  0
POLYLINE
  8
LAYER_4
 40
0.1058
 41
0.1058
 66
1
 10
0
 20
0
 30
0
  0
VERTEX
  8
LAYER_4
 10
151.1312
 20
76.8773
  0
VERTEX
  8
LAYER_4
 10
151.1312
 20
79.6957
  0
SEQEND
  0
ENDBLK
  0
BLOCK
  8
LAYER_4
  2
AIGNBL040200DB
 70
64
 10
0
 20
0
 30
0
  3
AIGNBL040200DB
  0
POLYLINE
  8
LAYER_4
 40
0.1058
 41
0.1058
 66
1
 10
0
 20
0
 30
0
  0
VERTEX
  8
LAYER_4
 10
151.1312
 20
71.9439
  0
VERTEX
  8
LAYER_4
 10
151.1312
 20
76.8773
  0
SEQEND
  0
ENDBLK
  0
BLOCK
  8
LAYER_4
  2
AIGNBL040200DC
 70
64
 10
0
 20
0
 30
0
  3
AIGNBL040200DC
  0
POLYLINE
  8
LAYER_4
 40
0.1058
 41
0.1058
 66
1
 10
0
 20
0
 30
0
  0
VERTEX
  8
LAYER_4
 10
143.7593
 20
76.8773
  0
VERTEX
  8
LAYER_4
 10
151.836
 20
76.8773
  0
SEQEND
  0
ENDBLK
  0
BLOCK
  8
LAYER_4
  2
AIGNBL040200DD
 70
64
 10
0
 20
0
 30
0
  3
AIGNBL040200DD
  0
POLYLINE
  8
LAYER_4
 40
0.1058
 41
0.1058
 66
1
 10
0
 20
0
 30
0
  0
VERTEX
  8
LAYER_4
 10
141.9968
 20
79.6957
  0
VERTEX
  8
LAYER_4
 10
151.836
 20
79.6957
  0
SEQEND
  0
ENDBLK
  0
BLOCK
  8
LAYER_4
  2
AIGNBL040200DE
 70
64
 10
0
 20
0
 30
0
  3
AIGNBL040200DE
  0
POLYLINE
  8
LAYER_4
 40
0.05
 41
0.05
 66
1
 10
0
 20
0
 30
0
 70
1
  0
VERTEX
  8
LAYER_4
 10
151.4557
 20
74.4106
  0
VERTEX
  8
LAYER_4
 10
150.8063
 20
74.4106
  0
VERTEX
  8
LAYER_4
 10
151.1312
 20
76.8773
  0
SEQEND
  0
ENDBLK
  0
BLOCK
  8
LAYER_4
  2
AIGNBL040200DF
 70
64
 10
0
 20
0
 30
0
  3
AIGNBL040200DF
  0
POLYLINE
  8
LAYER_4
 40
0.05
 41
0.05
 66
1
 10
0
 20
0
 30
0
 70
1
  0
VERTEX
  8
LAYER_4
 10
150.8063
 20
82.1631
  0
VERTEX
  8
LAYER_4
 10
151.4557
 20
82.1631
  0
VERTEX
  8
LAYER_4
 10
151.1312
 20
79.6957
  0
SEQEND
  0
ENDBLK
  0
BLOCK
  8
LAYER_4
  2
AIGNBL040200E0
 70
64
 10
0
 20
0
 30
0
  3
AIGNBL040200E0
  0
TEXT
  8
LAYER_4
 10
150.5352
 20
83.2373
 11
150.5352
 21
83.2373
 40
4.2973
 41
0.5
 50
89.99999999
  1
16
  0
ENDBLK
  0
BLOCK
  8
LAYER_5
  2
AIGNBL05020004
 70
64
 10
0
 20
0
 30
0
  3
AIGNBL05020004
  0
INSERT
  8
LAYER_5
  2
AIGNBL05030005
 10
0
 20
0
 30
0
  0
ENDBLK
  0
BLOCK
  8
LAYER_5
  2
AIGNBL0502000D
 70
64
 10
0
 20
0
 30
0
  3
AIGNBL0502000D
  0
INSERT
  8
LAYER_5
  2
AIGNBL0503000E
 10
0
 20
0
 30
0
  0
INSERT
  8
LAYER_5
  2
AIGNBL0503000F
 10
0
 20
0
 30
0
  0
INSERT
  8
LAYER_5
  2
AIGNBL05030010
 10
0
 20
0
 30
0
  0
INSERT
  8
LAYER_5
  2
AIGNBL05030011
 10
0
 20
0
 30
0
  0
INSERT
  8
LAYER_5
  2
AIGNBL05030012
 10
0
 20
0
 30
0
  0
INSERT
  8
LAYER_5
  2
AIGNBL05030013
 10
0
 20
0
 30
0
  0
INSERT
  8
LAYER_5
  2
AIGNBL05030014
 10
0
 20
0
 30
0
  0
INSERT
  8
LAYER_5
  2
AIGNBL05030015
 10
0
 20
0
 30
0
  0
INSERT
  8
LAYER_5
  2
AIGNBL05030016
 10
0
 20
0
 30
0
  0
INSERT
  8
LAYER_5
  2
AIGNBL05030017
 10
0
 20
0
 30
0
  0
INSERT
  8
LAYER_5
  2
AIGNBL05030018
 10
0
 20
0
 30
0
  0
INSERT
  8
LAYER_5
  2
AIGNBL05030019
 10
0
 20
0
 30
0
  0
INSERT
  8
LAYER_5
  2
AIGNBL0503001A
 10
0
 20
0
 30
0
  0
INSERT
  8
LAYER_5
  2
AIGNBL0503001B
 10
0
 20
0
 30
0
  0
INSERT
  8
LAYER_5
  2
AIGNBL0503001C
 10
0
 20
0
 30
0
  0
INSERT
  8
LAYER_5
  2
AIGNBL0503001D
 10
0
 20
0
 30
0
  0
INSERT
  8
LAYER_5
  2
AIGNBL0503001E
 10
0
 20
0
 30
0
  0
INSERT
  8
LAYER_5
  2
AIGNBL0503001F
 10
0
 20
0
 30
0
  0
INSERT
  8
LAYER_5
  2
AIGNBL05030020
 10
0
 20
0
 30
0
  0
INSERT
  8
LAYER_5
  2
AIGNBL05030021
 10
0
 20
0
 30
0
  0
INSERT
  8
LAYER_5
  2
AIGNBL05030022
 10
0
 20
0
 30
0
  0
INSERT
  8
LAYER_5
  2
AIGNBL05030023
 10
0
 20
0
 30
0
  0
INSERT
  8
LAYER_5
  2
AIGNBL05030024
 10
0
 20
0
 30
0
  0
ENDBLK
  0
BLOCK
  8
LAYER_3
  2
AIGNBL03010002
 70
64
 10
0
 20
0
 30
0
  3
AIGNBL03010002
  0
POLYLINE
  8
LAYER_3
  6
AIGENLINE001
 40
0.1058
 41
0.1058
 66
1
 10
0
 20
0
 30
0
 70
128
  0
VERTEX
  8
LAYER_3
 10
98.3134
 20
167.0945
  0
VERTEX
  8
LAYER_3
 10
98.3134
 20
73.3668
  0
SEQEND
  0
ENDBLK
  0
BLOCK
  8
LAYER_3
  2
AIGNBL03010003
 70
64
 10
0
 20
0
 30
0
  3
AIGNBL03010003
  0
POLYLINE
  8
LAYER_3
  6
AIGENLINE001
 40
0.1058
 41
0.1058
 66
1
 10
0
 20
0
 30
0
 70
128
  0
VERTEX
  8
LAYER_3
 10
71.5331
 20
188.2257
  0
VERTEX
  8
LAYER_3
 10
71.5331
 20
215.5005
  0
SEQEND
  0
ENDBLK
  0
BLOCK
  8
LAYER_3
  2
AIGNBL03010004
 70
64
 10
0
 20
0
 30
0
  3
AIGNBL03010004
  0
POLYLINE
  8
LAYER_3
  6
AIGENLINE001
 40
0.1058
 41
0.1058
 66
1
 10
0
 20
0
 30
0
 70
128
  0
VERTEX
  8
LAYER_3
 10
84.923
 20
191.0446
  0
VERTEX
  8
LAYER_3
 10
84.923
 20
188.2257
  0
SEQEND
  0
ENDBLK
  0
BLOCK
  8
LAYER_3
  2
AIGNBL03010005
 70
64
 10
0
 20
0
 30
0
  3
AIGNBL03010005
  0
POLYLINE
  8
LAYER_3
  6
AIGENLINE001
 40
0.1058
 41
0.1058
 66
1
 10
0
 20
0
 30
0
 70
128
  0
VERTEX
  8
LAYER_3
 10
98.3134
 20
191.0446
  0
VERTEX
  8
LAYER_3
 10
98.3134
 20
167.0945
  0
SEQEND
  0
ENDBLK
  0
BLOCK
  8
LAYER_3
  2
AIGNBL03010006
 70
64
 10
0
 20
0
 30
0
  3
AIGNBL03010006
  0
POLYLINE
  8
LAYER_3
  6
AIGENLINE001
 40
0.1058
 41
0.1058
 66
1
 10
0
 20
0
 30
0
 70
128
  0
VERTEX
  8
LAYER_3
 10
98.3134
 20
191.0446
 42
0.4142150727
  0
VERTEX
  8
LAYER_3
 10
91.6182
 20
197.7395
 42
0.4142163206
  0
VERTEX
  8
LAYER_3
 10
84.923
 20
191.0446
  0
SEQEND
  0
ENDBLK
  0
BLOCK
  8
LAYER_3
  2
AIGNBL03010007
 70
64
 10
0
 20
0
 30
0
  3
AIGNBL03010007
  0
POLYLINE
  8
LAYER_3
  6
AIGENLINE001
 40
0.1058
 41
0.1058
 66
1
 10
0
 20
0
 30
0
 70
128
  0
VERTEX
  8
LAYER_3
 10
71.5331
 20
188.2257
 42
0.414212385
  0
VERTEX
  8
LAYER_3
 10
78.2281
 20
181.5307
 42
0.4142140863
  0
VERTEX
  8
LAYER_3
 10
84.923
 20
188.2257
  0
SEQEND
  0
ENDBLK
  0
BLOCK
  8
LAYER_4
  2
AIGNBL04010002
 70
64
 10
0
 20
0
 30
0
  3
AIGNBL04010002
  0
INSERT
  8
LAYER_4
  2
AIGNBL04020003
 10
0
 20
0
 30
0
  0
INSERT
  8
LAYER_4
  2
AIGNBL04020004
 10
0
 20
0
 30
0
  0
INSERT
  8
LAYER_4
  2
AIGNBL04020005
 10
0
 20
0
 30
0
  0
INSERT
  8
LAYER_4
  2
AIGNBL04020006
 10
0
 20
0
 30
0
  0
INSERT
  8
LAYER_4
  2
AIGNBL04020007
 10
0
 20
0
 30
0
  0
INSERT
  8
LAYER_4
  2
AIGNBL04020008
 10
0
 20
0
 30
0
  0
INSERT
  8
LAYER_4
  2
AIGNBL04020009
 10
0
 20
0
 30
0
  0
INSERT
  8
LAYER_4
  2
AIGNBL0402000A
 10
0
 20
0
 30
0
  0
INSERT
  8
LAYER_4
  2
AIGNBL0402000B
 10
0
 20
0
 30
0
  0
INSERT
  8
LAYER_4
  2
AIGNBL0402000C
 10
0
 20
0
 30
0
  0
INSERT
  8
LAYER_4
  2
AIGNBL0402000D
 10
0
 20
0
 30
0
  0
INSERT
  8
LAYER_4
  2
AIGNBL0402000E
 10
0
 20
0
 30
0
  0
INSERT
  8
LAYER_4
  2
AIGNBL0402000F
 10
0
 20
0
 30
0
  0
INSERT
  8
LAYER_4
  2
AIGNBL04020010
 10
0
 20
0
 30
0
  0
INSERT
  8
LAYER_4
  2
AIGNBL04020011
 10
0
 20
0
 30
0
  0
INSERT
  8
LAYER_4
  2
AIGNBL04020012
 10
0
 20
0
 30
0
  0
ENDBLK
  0
BLOCK
  8
LAYER_4
  2
AIGNBL04010013
 70
64
 10
0
 20
0
 30
0
  3
AIGNBL04010013
  0
INSERT
  8
LAYER_4
  2
AIGNBL04020014
 10
0
 20
0
 30
0
  0
INSERT
  8
LAYER_4
  2
AIGNBL04020015
 10
0
 20
0
 30
0
  0
INSERT
  8
LAYER_4
  2
AIGNBL04020016
 10
0
 20
0
 30
0
  0
INSERT
  8
LAYER_4
  2
AIGNBL04020017
 10
0
 20
0
 30
0
  0
INSERT
  8
LAYER_4
  2
AIGNBL04020018
 10
0
 20
0
 30
0
  0
INSERT
  8
LAYER_4
  2
AIGNBL04020019
 10
0
 20
0
 30
0
  0
ENDBLK
  0
BLOCK
  8
LAYER_4
  2
AIGNBL0401001A
 70
64
 10
0
 20
0
 30
0
  3
AIGNBL0401001A
  0
INSERT
  8
LAYER_4
  2
AIGNBL0402001B
 10
0
 20
0
 30
0
  0
INSERT
  8
LAYER_4
  2
AIGNBL0402001C
 10
0
 20
0
 30
0
  0
INSERT
  8
LAYER_4
  2
AIGNBL0402001D
 10
0
 20
0
 30
0
  0
INSERT
  8
LAYER_4
  2
AIGNBL0402001E
 10
0
 20
0
 30
0
  0
ENDBLK
  0
BLOCK
  8
LAYER_4
  2
AIGNBL0401001F
 70
64
 10
0
 20
0
 30
0
  3
AIGNBL0401001F
  0
INSERT
  8
LAYER_4
  2
AIGNBL04020020
 10
0
 20
0
 30
0
  0
INSERT
  8
LAYER_4
  2
AIGNBL04020021
 10
0
 20
0
 30
0
  0
INSERT
  8
LAYER_4
  2
AIGNBL04020022
 10
0
 20
0
 30
0
  0
INSERT
  8
LAYER_4
  2
AIGNBL04020023
 10
0
 20
0
 30
0
  0
INSERT
  8
LAYER_4
  2
AIGNBL04020024
 10
0
 20
0
 30
0
  0
INSERT
  8
LAYER_4
  2
AIGNBL04020025
 10
0
 20
0
 30
0
  0
INSERT
  8
LAYER_4
  2
AIGNBL04020026
 10
0
 20
0
 30
0
  0
INSERT
  8
LAYER_4
  2
AIGNBL04020027
 10
0
 20
0
 30
0
  0
INSERT
  8
LAYER_4
  2
AIGNBL04020028
 10
0
 20
0
 30
0
  0
INSERT
  8
LAYER_4
  2
AIGNBL04020029
 10
0
 20
0
 30
0
  0
INSERT
  8
LAYER_4
  2
AIGNBL0402002A
 10
0
 20
0
 30
0
  0
INSERT
  8
LAYER_4
  2
AIGNBL0402002B
 10
0
 20
0
 30
0
  0
INSERT
  8
LAYER_4
  2
AIGNBL0402002C
 10
0
 20
0
 30
0
  0
INSERT
  8
LAYER_4
  2
AIGNBL0402002D
 10
0
 20
0
 30
0
  0
INSERT
  8
LAYER_4
  2
AIGNBL0402002E
 10
0
 20
0
 30
0
  0
INSERT
  8
LAYER_4
  2
AIGNBL0402002F
 10
0
 20
0
 30
0
  0
ENDBLK
  0
BLOCK
  8
LAYER_4
  2
AIGNBL04010030
 70
64
 10
0
 20
0
 30
0
  3
AIGNBL04010030
  0
INSERT
  8
LAYER_4
  2
AIGNBL04020031
 10
0
 20
0
 30
0
  0
INSERT
  8
LAYER_4
  2
AIGNBL04020032
 10
0
 20
0
 30
0
  0
INSERT
  8
LAYER_4
  2
AIGNBL04020033
 10
0
 20
0
 30
0
  0
INSERT
  8
LAYER_4
  2
AIGNBL04020034
 10
0
 20
0
 30
0
  0
INSERT
  8
LAYER_4
  2
AIGNBL04020035
 10
0
 20
0
 30
0
  0
INSERT
  8
LAYER_4
  2
AIGNBL04020036
 10
0
 20
0
 30
0
  0
INSERT
  8
LAYER_4
  2
AIGNBL04020037
 10
0
 20
0
 30
0
  0
INSERT
  8
LAYER_4
  2
AIGNBL04020038
 10
0
 20
0
 30
0
  0
INSERT
  8
LAYER_4
  2
AIGNBL04020039
 10
0
 20
0
 30
0
  0
INSERT
  8
LAYER_4
  2
AIGNBL0402003A
 10
0
 20
0
 30
0
  0
INSERT
  8
LAYER_4
  2
AIGNBL0402003B
 10
0
 20
0
 30
0
  0
INSERT
  8
LAYER_4
  2
AIGNBL0402003C
 10
0
 20
0
 30
0
  0
INSERT
  8
LAYER_4
  2
AIGNBL0402003D
 10
0
 20
0
 30
0
  0
INSERT
  8
LAYER_4
  2
AIGNBL0402003E
 10
0
 20
0
 30
0
  0
INSERT
  8
LAYER_4
  2
AIGNBL0402003F
 10
0
 20
0
 30
0
  0
INSERT
  8
LAYER_4
  2
AIGNBL04020040
 10
0
 20
0
 30
0
  0
INSERT
  8
LAYER_4
  2
AIGNBL04020041
 10
0
 20
0
 30
0
  0
INSERT
  8
LAYER_4
  2
AIGNBL04020042
 10
0
 20
0
 30
0
  0
INSERT
  8
LAYER_4
  2
AIGNBL04020043
 10
0
 20
0
 30
0
  0
INSERT
  8
LAYER_4
  2
AIGNBL04020044
 10
0
 20
0
 30
0
  0
INSERT
  8
LAYER_4
  2
AIGNBL04020045
 10
0
 20
0
 30
0
  0
INSERT
  8
LAYER_4
  2
AIGNBL04020046
 10
0
 20
0
 30
0
  0
INSERT
  8
LAYER_4
  2
AIGNBL04020047
 10
0
 20
0
 30
0
  0
INSERT
  8
LAYER_4
  2
AIGNBL04020048
 10
0
 20
0
 30
0
  0
INSERT
  8
LAYER_4
  2
AIGNBL04020049
 10
0
 20
0
 30
0
  0
INSERT
  8
LAYER_4
  2
AIGNBL0402004A
 10
0
 20
0
 30
0
  0
INSERT
  8
LAYER_4
  2
AIGNBL0402004B
 10
0
 20
0
 30
0
  0
INSERT
  8
LAYER_4
  2
AIGNBL0402004C
 10
0
 20
0
 30
0
  0
INSERT
  8
LAYER_4
  2
AIGNBL0402004D
 10
0
 20
0
 30
0
  0
INSERT
  8
LAYER_4
  2
AIGNBL0402004E
 10
0
 20
0
 30
0
  0
INSERT
  8
LAYER_4
  2
AIGNBL0402004F
 10
0
 20
0
 30
0
  0
INSERT
  8
LAYER_4
  2
AIGNBL04020050
 10
0
 20
0
 30
0
  0
INSERT
  8
LAYER_4
  2
AIGNBL04020051
 10
0
 20
0
 30
0
  0
INSERT
  8
LAYER_4
  2
AIGNBL04020052
 10
0
 20
0
 30
0
  0
INSERT
  8
LAYER_4
  2
AIGNBL04020053
 10
0
 20
0
 30
0
  0
INSERT
  8
LAYER_4
  2
AIGNBL04020054
 10
0
 20
0
 30
0
  0
INSERT
  8
LAYER_4
  2
AIGNBL04020055
 10
0
 20
0
 30
0
  0
INSERT
  8
LAYER_4
  2
AIGNBL04020056
 10
0
 20
0
 30
0
  0
INSERT
  8
LAYER_4
  2
AIGNBL04020057
 10
0
 20
0
 30
0
  0
INSERT
  8
LAYER_4
  2
AIGNBL04020058
 10
0
 20
0
 30
0
  0
INSERT
  8
LAYER_4
  2
AIGNBL04020059
 10
0
 20
0
 30
0
  0
INSERT
  8
LAYER_4
  2
AIGNBL0402005A
 10
0
 20
0
 30
0
  0
INSERT
  8
LAYER_4
  2
AIGNBL0402005B
 10
0
 20
0
 30
0
  0
INSERT
  8
LAYER_4
  2
AIGNBL0402005C
 10
0
 20
0
 30
0
  0
INSERT
  8
LAYER_4
  2
AIGNBL0402005D
 10
0
 20
0
 30
0
  0
INSERT
  8
LAYER_4
  2
AIGNBL0402005E
 10
0
 20
0
 30
0
  0
INSERT
  8
LAYER_4
  2
AIGNBL0402005F
 10
0
 20
0
 30
0
  0
INSERT
  8
LAYER_4
  2
AIGNBL04020060
 10
0
 20
0
 30
0
  0
INSERT
  8
LAYER_4
  2
AIGNBL04020061
 10
0
 20
0
 30
0
  0
INSERT
  8
LAYER_4
  2
AIGNBL04020062
 10
0
 20
0
 30
0
  0
INSERT
  8
LAYER_4
  2
AIGNBL04020063
 10
0
 20
0
 30
0
  0
INSERT
  8
LAYER_4
  2
AIGNBL04020064
 10
0
 20
0
 30
0
  0
ENDBLK
  0
BLOCK
  8
LAYER_4
  2
AIGNBL04010065
 70
64
 10
0
 20
0
 30
0
  3
AIGNBL04010065
  0
INSERT
  8
LAYER_4
  2
AIGNBL04020066
 10
0
 20
0
 30
0
  0
INSERT
  8
LAYER_4
  2
AIGNBL04020067
 10
0
 20
0
 30
0
  0
INSERT
  8
LAYER_4
  2
AIGNBL04020068
 10
0
 20
0
 30
0
  0
INSERT
  8
LAYER_4
  2
AIGNBL04020069
 10
0
 20
0
 30
0
  0
INSERT
  8
LAYER_4
  2
AIGNBL0402006A
 10
0
 20
0
 30
0
  0
INSERT
  8
LAYER_4
  2
AIGNBL0402006B
 10
0
 20
0
 30
0
  0
INSERT
  8
LAYER_4
  2
AIGNBL0402006C
 10
0
 20
0
 30
0
  0
INSERT
  8
LAYER_4
  2
AIGNBL0402006D
 10
0
 20
0
 30
0
  0
INSERT
  8
LAYER_4
  2
AIGNBL0402006E
 10
0
 20
0
 30
0
  0
INSERT
  8
LAYER_4
  2
AIGNBL0402006F
 10
0
 20
0
 30
0
  0
INSERT
  8
LAYER_4
  2
AIGNBL04020070
 10
0
 20
0
 30
0
  0
INSERT
  8
LAYER_4
  2
AIGNBL04020071
 10
0
 20
0
 30
0
  0
INSERT
  8
LAYER_4
  2
AIGNBL04020072
 10
0
 20
0
 30
0
  0
INSERT
  8
LAYER_4
  2
AIGNBL04020073
 10
0
 20
0
 30
0
  0
INSERT
  8
LAYER_4
  2
AIGNBL04020074
 10
0
 20
0
 30
0
  0
INSERT
  8
LAYER_4
  2
AIGNBL04020075
 10
0
 20
0
 30
0
  0
INSERT
  8
LAYER_4
  2
AIGNBL04020076
 10
0
 20
0
 30
0
  0
INSERT
  8
LAYER_4
  2
AIGNBL04020077
 10
0
 20
0
 30
0
  0
ENDBLK
  0
BLOCK
  8
LAYER_4
  2
AIGNBL04010078
 70
64
 10
0
 20
0
 30
0
  3
AIGNBL04010078
  0
INSERT
  8
LAYER_4
  2
AIGNBL04020079
 10
0
 20
0
 30
0
  0
INSERT
  8
LAYER_4
  2
AIGNBL0402007A
 10
0
 20
0
 30
0
  0
INSERT
  8
LAYER_4
  2
AIGNBL0402007B
 10
0
 20
0
 30
0
  0
INSERT
  8
LAYER_4
  2
AIGNBL0402007C
 10
0
 20
0
 30
0
  0
INSERT
  8
LAYER_4
  2
AIGNBL0402007D
 10
0
 20
0
 30
0
  0
INSERT
  8
LAYER_4
  2
AIGNBL0402007E
 10
0
 20
0
 30
0
  0
INSERT
  8
LAYER_4
  2
AIGNBL0402007F
 10
0
 20
0
 30
0
  0
INSERT
  8
LAYER_4
  2
AIGNBL04020080
 10
0
 20
0
 30
0
  0
INSERT
  8
LAYER_4
  2
AIGNBL04020081
 10
0
 20
0
 30
0
  0
INSERT
  8
LAYER_4
  2
AIGNBL04020082
 10
0
 20
0
 30
0
  0
INSERT
  8
LAYER_4
  2
AIGNBL04020083
 10
0
 20
0
 30
0
  0
INSERT
  8
LAYER_4
  2
AIGNBL04020084
 10
0
 20
0
 30
0
  0
INSERT
  8
LAYER_4
  2
AIGNBL04020085
 10
0
 20
0
 30
0
  0
INSERT
  8
LAYER_4
  2
AIGNBL04020086
 10
0
 20
0
 30
0
  0
INSERT
  8
LAYER_4
  2
AIGNBL04020087
 10
0
 20
0
 30
0
  0
INSERT
  8
LAYER_4
  2
AIGNBL04020088
 10
0
 20
0
 30
0
  0
ENDBLK
  0
BLOCK
  8
LAYER_4
  2
AIGNBL04010089
 70
64
 10
0
 20
0
 30
0
  3
AIGNBL04010089
  0
INSERT
  8
LAYER_4
  2
AIGNBL0402008A
 10
0
 20
0
 30
0
  0
INSERT
  8
LAYER_4
  2
AIGNBL0402008B
 10
0
 20
0
 30
0
  0
INSERT
  8
LAYER_4
  2
AIGNBL0402008C
 10
0
 20
0
 30
0
  0
INSERT
  8
LAYER_4
  2
AIGNBL0402008D
 10
0
 20
0
 30
0
  0
INSERT
  8
LAYER_4
  2
AIGNBL0402008E
 10
0
 20
0
 30
0
  0
INSERT
  8
LAYER_4
  2
AIGNBL0402008F
 10
0
 20
0
 30
0
  0
INSERT
  8
LAYER_4
  2
AIGNBL04020090
 10
0
 20
0
 30
0
  0
INSERT
  8
LAYER_4
  2
AIGNBL04020091
 10
0
 20
0
 30
0
  0
INSERT
  8
LAYER_4
  2
AIGNBL04020092
 10
0
 20
0
 30
0
  0
INSERT
  8
LAYER_4
  2
AIGNBL04020093
 10
0
 20
0
 30
0
  0
INSERT
  8
LAYER_4
  2
AIGNBL04020094
 10
0
 20
0
 30
0
  0
INSERT
  8
LAYER_4
  2
AIGNBL04020095
 10
0
 20
0
 30
0
  0
ENDBLK
  0
BLOCK
  8
LAYER_4
  2
AIGNBL04010096
 70
64
 10
0
 20
0
 30
0
  3
AIGNBL04010096
  0
POLYLINE
  8
LAYER_4
  6
AIGENLINE001
 40
0.1058
 41
0.1058
 66
1
 10
0
 20
0
 30
0
 70
128
  0
VERTEX
  8
LAYER_4
 10
138.7381
 20
215.5005
  0
VERTEX
  8
LAYER_4
 10
138.7381
 20
73.4418
  0
SEQEND
  0
ENDBLK
  0
BLOCK
  8
LAYER_4
  2
AIGNBL04010097
 70
64
 10
0
 20
0
 30
0
  3
AIGNBL04010097
  0
POLYLINE
  8
LAYER_4
 40
0.1058
 41
0.1058
 66
1
 10
0
 20
0
 30
0
  0
VERTEX
  8
LAYER_4
 10
92.8045
 20
197.7395
  0
VERTEX
  8
LAYER_4
 10
92.276
 20
197.7395
  0
SEQEND
  0
ENDBLK
  0
BLOCK
  8
LAYER_4
  2
AIGNBL04010098
 70
64
 10
0
 20
0
 30
0
  3
AIGNBL04010098
  0
POLYLINE
  8
LAYER_4
 40
0.1058
 41
0.1058
 66
1
 10
0
 20
0
 30
0
  0
VERTEX
  8
LAYER_4
 10
76.971
 20
181.5307
  0
VERTEX
  8
LAYER_4
 10
77.4995
 20
181.5307
  0
SEQEND
  0
ENDBLK
  0
BLOCK
  8
LAYER_4
  2
AIGNBL04010099
 70
64
 10
0
 20
0
 30
0
  3
AIGNBL04010099
  0
POLYLINE
  8
LAYER_4
 40
0.05
 41
0.05
 66
1
 10
0
 20
0
 30
0
 70
1
  0
VERTEX
  8
LAYER_4
 10
77.2044
 20
202.2481
  0
VERTEX
  8
LAYER_4
 10
76.8155
 20
201.7281
  0
VERTEX
  8
LAYER_4
 10
75.0349
 20
203.4656
  0
SEQEND
  0
ENDBLK
  0
BLOCK
  8
LAYER_4
  2
AIGNBL0401009A
 70
64
 10
0
 20
0
 30
0
  3
AIGNBL0401009A
  0
POLYLINE
  8
LAYER_4
 40
0.1058
 41
0.1058
 66
1
 10
0
 20
0
 30
0
  0
VERTEX
  8
LAYER_4
 10
75.0349
 20
203.4656
  0
VERTEX
  8
LAYER_4
 10
78.5115
 20
200.8651
  0
SEQEND
  0
POLYLINE
  8
LAYER_4
 40
0.1058
 41
0.1058
 66
1
 10
0
 20
0
 30
0
  0
VERTEX
  8
LAYER_4
 10
78.5115
 20
200.8651
  0
VERTEX
  8
LAYER_4
 10
91.3212
 20
200.8651
  0
SEQEND
  0
ENDBLK
  0
BLOCK
  8
LAYER_4
  2
AIGNBL0401009B
 70
64
 10
0
 20
0
 30
0
  3
AIGNBL0401009B
  0
POLYLINE
  8
LAYER_4
 40
0.05
 41
0.05
 66
1
 10
0
 20
0
 30
0
 70
1
  0
VERTEX
  8
LAYER_4
 10
75.778
 20
216.7404
  0
VERTEX
  8
LAYER_4
 10
76.3404
 20
216.4157
  0
VERTEX
  8
LAYER_4
 10
74.8259
 20
214.4419
  0
SEQEND
  0
ENDBLK
  0
BLOCK
  8
LAYER_4
  2
AIGNBL0401009C
 70
64
 10
0
 20
0
 30
0
  3
AIGNBL0401009C
  0
POLYLINE
  8
LAYER_4
 40
0.1058
 41
0.1058
 66
1
 10
0
 20
0
 30
0
  0
VERTEX
  8
LAYER_4
 10
74.8259
 20
214.4419
  0
VERTEX
  8
LAYER_4
 10
77.7057
 20
219.4299
  0
SEQEND
  0
POLYLINE
  8
LAYER_4
 40
0.1058
 41
0.1058
 66
1
 10
0
 20
0
 30
0
  0
VERTEX
  8
LAYER_4
 10
77.7057
 20
219.4299
  0
VERTEX
  8
LAYER_4
 10
87.2401
 20
219.4299
  0
SEQEND
  0
ENDBLK
  0
BLOCK
  8
LAYER_4
  2
AIGNBL0401009D
 70
64
 10
0
 20
0
 30
0
  3
AIGNBL0401009D
  0
TEXT
  8
LAYER_4
 10
78.8956
 20
201.6364
 11
78.8956
 21
201.6364
 40
4.2973
 41
0.5
  1
W40ÄR16
  0
ENDBLK
  0
BLOCK
  8
LAYER_4
  2
AIGNBL0401009E
 70
64
 10
0
 20
0
 30
0
  3
AIGNBL0401009E
  0
TEXT
  8
LAYER_4
 10
81.4071
 20
220.3778
 11
81.4071
 21
220.3778
 40
4.2973
 41
0.5
  1
1/4
  0
ENDBLK
  0
BLOCK
  8
LAYER_4
  2
AIGNBL0401009F
 70
64
 10
0
 20
0
 30
0
  3
AIGNBL0401009F
  0
TEXT
  8
LAYER_4
 10
77.9861
 20
220.2338
 11
77.9861
 21
220.2338
 40
4.2973
 41
0.5
  1
G1
  0
ENDBLK
  0
BLOCK
  8
LAYER_4
  2
AIGNBL040100A0
 70
64
 10
0
 20
0
 30
0
  3
AIGNBL040100A0
  0
INSERT
  8
LAYER_4
  2
AIGNBL040200A1
 10
0
 20
0
 30
0
  0
INSERT
  8
LAYER_4
  2
AIGNBL040200A2
 10
0
 20
0
 30
0
  0
INSERT
  8
LAYER_4
  2
AIGNBL040200A3
 10
0
 20
0
 30
0
  0
INSERT
  8
LAYER_4
  2
AIGNBL040200A4
 10
0
 20
0
 30
0
  0
INSERT
  8
LAYER_4
  2
AIGNBL040200A5
 10
0
 20
0
 30
0
  0
INSERT
  8
LAYER_4
  2
AIGNBL040200A6
 10
0
 20
0
 30
0
  0
ENDBLK
  0
BLOCK
  8
LAYER_4
  2
AIGNBL040100A7
 70
64
 10
0
 20
0
 30
0
  3
AIGNBL040100A7
  0
INSERT
  8
LAYER_4
  2
AIGNBL040200A8
 10
0
 20
0
 30
0
  0
INSERT
  8
LAYER_4
  2
AIGNBL040200A9
 10
0
 20
0
 30
0
  0
INSERT
  8
LAYER_4
  2
AIGNBL040200AA
 10
0
 20
0
 30
0
  0
INSERT
  8
LAYER_4
  2
AIGNBL040200AB
 10
0
 20
0
 30
0
  0
INSERT
  8
LAYER_4
  2
AIGNBL040200AC
 10
0
 20
0
 30
0
  0
INSERT
  8
LAYER_4
  2
AIGNBL040200AD
 10
0
 20
0
 30
0
  0
ENDBLK
  0
BLOCK
  8
LAYER_4
  2
AIGNBL040100AE
 70
64
 10
0
 20
0
 30
0
  3
AIGNBL040100AE
  0
INSERT
  8
LAYER_4
  2
AIGNBL040200AF
 10
0
 20
0
 30
0
  0
INSERT
  8
LAYER_4
  2
AIGNBL040200B0
 10
0
 20
0
 30
0
  0
INSERT
  8
LAYER_4
  2
AIGNBL040200B1
 10
0
 20
0
 30
0
  0
INSERT
  8
LAYER_4
  2
AIGNBL040200B2
 10
0
 20
0
 30
0
  0
INSERT
  8
LAYER_4
  2
AIGNBL040200B3
 10
0
 20
0
 30
0
  0
INSERT
  8
LAYER_4
  2
AIGNBL040200B4
 10
0
 20
0
 30
0
  0
ENDBLK
  0
BLOCK
  8
LAYER_4
  2
AIGNBL040100B5
 70
64
 10
0
 20
0
 30
0
  3
AIGNBL040100B5
  0
INSERT
  8
LAYER_4
  2
AIGNBL040200B6
 10
0
 20
0
 30
0
  0
INSERT
  8
LAYER_4
  2
AIGNBL040200B7
 10
0
 20
0
 30
0
  0
INSERT
  8
LAYER_4
  2
AIGNBL040200B8
 10
0
 20
0
 30
0
  0
INSERT
  8
LAYER_4
  2
AIGNBL040200B9
 10
0
 20
0
 30
0
  0
INSERT
  8
LAYER_4
  2
AIGNBL040200BA
 10
0
 20
0
 30
0
  0
INSERT
  8
LAYER_4
  2
AIGNBL040200BB
 10
0
 20
0
 30
0
  0
ENDBLK
  0
BLOCK
  8
LAYER_4
  2
AIGNBL040100BC
 70
64
 10
0
 20
0
 30
0
  3
AIGNBL040100BC
  0
INSERT
  8
LAYER_4
  2
AIGNBL040200BD
 10
0
 20
0
 30
0
  0
INSERT
  8
LAYER_4
  2
AIGNBL040200BE
 10
0
 20
0
 30
0
  0
INSERT
  8
LAYER_4
  2
AIGNBL040200BF
 10
0
 20
0
 30
0
  0
INSERT
  8
LAYER_4
  2
AIGNBL040200C0
 10
0
 20
0
 30
0
  0
INSERT
  8
LAYER_4
  2
AIGNBL040200C1
 10
0
 20
0
 30
0
  0
INSERT
  8
LAYER_4
  2
AIGNBL040200C2
 10
0
 20
0
 30
0
  0
ENDBLK
  0
BLOCK
  8
LAYER_4
  2
AIGNBL040100C3
 70
64
 10
0
 20
0
 30
0
  3
AIGNBL040100C3
  0
INSERT
  8
LAYER_4
  2
AIGNBL040200C4
 10
0
 20
0
 30
0
  0
INSERT
  8
LAYER_4
  2
AIGNBL040200C5
 10
0
 20
0
 30
0
  0
INSERT
  8
LAYER_4
  2
AIGNBL040200C6
 10
0
 20
0
 30
0
  0
INSERT
  8
LAYER_4
  2
AIGNBL040200C7
 10
0
 20
0
 30
0
  0
INSERT
  8
LAYER_4
  2
AIGNBL040200C8
 10
0
 20
0
 30
0
  0
INSERT
  8
LAYER_4
  2
AIGNBL040200C9
 10
0
 20
0
 30
0
  0
ENDBLK
  0
BLOCK
  8
LAYER_4
  2
AIGNBL040100CA
 70
64
 10
0
 20
0
 30
0
  3
AIGNBL040100CA
  0
INSERT
  8
LAYER_4
  2
AIGNBL040200CB
 10
0
 20
0
 30
0
  0
INSERT
  8
LAYER_4
  2
AIGNBL040200CC
 10
0
 20
0
 30
0
  0
INSERT
  8
LAYER_4
  2
AIGNBL040200CD
 10
0
 20
0
 30
0
  0
INSERT
  8
LAYER_4
  2
AIGNBL040200CE
 10
0
 20
0
 30
0
  0
INSERT
  8
LAYER_4
  2
AIGNBL040200CF
 10
0
 20
0
 30
0
  0
INSERT
  8
LAYER_4
  2
AIGNBL040200D0
 10
0
 20
0
 30
0
  0
ENDBLK
  0
BLOCK
  8
LAYER_4
  2
AIGNBL040100D1
 70
64
 10
0
 20
0
 30
0
  3
AIGNBL040100D1
  0
INSERT
  8
LAYER_4
  2
AIGNBL040200D2
 10
0
 20
0
 30
0
  0
INSERT
  8
LAYER_4
  2
AIGNBL040200D3
 10
0
 20
0
 30
0
  0
INSERT
  8
LAYER_4
  2
AIGNBL040200D4
 10
0
 20
0
 30
0
  0
INSERT
  8
LAYER_4
  2
AIGNBL040200D5
 10
0
 20
0
 30
0
  0
INSERT
  8
LAYER_4
  2
AIGNBL040200D6
 10
0
 20
0
 30
0
  0
INSERT
  8
LAYER_4
  2
AIGNBL040200D7
 10
0
 20
0
 30
0
  0
ENDBLK
  0
BLOCK
  8
LAYER_4
  2
AIGNBL040100D8
 70
64
 10
0
 20
0
 30
0
  3
AIGNBL040100D8
  0
INSERT
  8
LAYER_4
  2
AIGNBL040200D9
 10
0
 20
0
 30
0
  0
INSERT
  8
LAYER_4
  2
AIGNBL040200DA
 10
0
 20
0
 30
0
  0
INSERT
  8
LAYER_4
  2
AIGNBL040200DB
 10
0
 20
0
 30
0
  0
INSERT
  8
LAYER_4
  2
AIGNBL040200DC
 10
0
 20
0
 30
0
  0
INSERT
  8
LAYER_4
  2
AIGNBL040200DD
 10
0
 20
0
 30
0
  0
INSERT
  8
LAYER_4
  2
AIGNBL040200DE
 10
0
 20
0
 30
0
  0
INSERT
  8
LAYER_4
  2
AIGNBL040200DF
 10
0
 20
0
 30
0
  0
INSERT
  8
LAYER_4
  2
AIGNBL040200E0
 10
0
 20
0
 30
0
  0
ENDBLK
  0
BLOCK
  8
LAYER_5
  2
AIGNBL05010002
 70
64
 10
0
 20
0
 30
0
  3
AIGNBL05010002
  0
POLYLINE
  8
LAYER_5
 40
0.7056
 41
0.7056
 66
1
 10
0
 20
0
 30
0
 70
1
  0
VERTEX
  8
LAYER_5
 10
251.6749
 20
230.337
  0
VERTEX
  8
LAYER_5
 10
251.6749
 20
33.3285
  0
VERTEX
  8
LAYER_5
 10
-30.3177
 20
33.3285
  0
VERTEX
  8
LAYER_5
 10
-30.3177
 20
230.337
  0
SEQEND
  0
ENDBLK
  0
BLOCK
  8
LAYER_5
  2
AIGNBL05010003
 70
64
 10
0
 20
0
 30
0
  3
AIGNBL05010003
  0
INSERT
  8
LAYER_5
  2
AIGNBL05020004
 10
0
 20
0
 30
0
  0
INSERT
  8
LAYER_5
  2
AIGNBL0502000D
 10
0
 20
0
 30
0
  0
ENDBLK
  0
ENDSEC
  0
SECTION
  2
ENTITIES
  0
INSERT
  8
LAYER_3
  2
AIGNBL03010002
 10
0
 20
0
 30
0
  0
INSERT
  8
LAYER_3
  2
AIGNBL03010003
 10
0
 20
0
 30
0
  0
INSERT
  8
LAYER_3
  2
AIGNBL03010004
 10
0
 20
0
 30
0
  0
INSERT
  8
LAYER_3
  2
AIGNBL03010005
 10
0
 20
0
 30
0
  0
INSERT
  8
LAYER_3
  2
AIGNBL03010006
 10
0
 20
0
 30
0
  0
INSERT
  8
LAYER_3
  2
AIGNBL03010007
 10
0
 20
0
 30
0
  0
INSERT
  8
LAYER_4
  2
AIGNBL04010002
 10
0
 20
0
 30
0
  0
INSERT
  8
LAYER_4
  2
AIGNBL04010013
 10
0
 20
0
 30
0
  0
INSERT
  8
LAYER_4
  2
AIGNBL0401001A
 10
0
 20
0
 30
0
  0
INSERT
  8
LAYER_4
  2
AIGNBL0401001F
 10
0
 20
0
 30
0
  0
INSERT
  8
LAYER_4
  2
AIGNBL04010030
 10
0
 20
0
 30
0
  0
INSERT
  8
LAYER_4
  2
AIGNBL04010065
 10
0
 20
0
 30
0
  0
INSERT
  8
LAYER_4
  2
AIGNBL04010078
 10
0
 20
0
 30
0
  0
INSERT
  8
LAYER_4
  2
AIGNBL04010089
 10
0
 20
0
 30
0
  0
INSERT
  8
LAYER_4
  2
AIGNBL04010096
 10
0
 20
0
 30
0
  0
INSERT
  8
LAYER_4
  2
AIGNBL04010097
 10
0
 20
0
 30
0
  0
INSERT
  8
LAYER_4
  2
AIGNBL04010098
 10
0
 20
0
 30
0
  0
INSERT
  8
LAYER_4
  2
AIGNBL04010099
 10
0
 20
0
 30
0
  0
INSERT
  8
LAYER_4
  2
AIGNBL0401009A
 10
0
 20
0
 30
0
  0
INSERT
  8
LAYER_4
  2
AIGNBL0401009B
 10
0
 20
0
 30
0
  0
INSERT
  8
LAYER_4
  2
AIGNBL0401009C
 10
0
 20
0
 30
0
  0
INSERT
  8
LAYER_4
  2
AIGNBL0401009D
 10
0
 20
0
 30
0
  0
INSERT
  8
LAYER_4
  2
AIGNBL0401009E
 10
0
 20
0
 30
0
  0
INSERT
  8
LAYER_4
  2
AIGNBL0401009F
 10
0
 20
0
 30
0
  0
INSERT
  8
LAYER_4
  2
AIGNBL040100A0
 10
0
 20
0
 30
0
  0
INSERT
  8
LAYER_4
  2
AIGNBL040100A7
 10
0
 20
0
 30
0
  0
INSERT
  8
LAYER_4
  2
AIGNBL040100AE
 10
0
 20
0
 30
0
  0
INSERT
  8
LAYER_4
  2
AIGNBL040100B5
 10
0
 20
0
 30
0
  0
INSERT
  8
LAYER_4
  2
AIGNBL040100BC
 10
0
 20
0
 30
0
  0
INSERT
  8
LAYER_4
  2
AIGNBL040100C3
 10
0
 20
0
 30
0
  0
INSERT
  8
LAYER_4
  2
AIGNBL040100CA
 10
0
 20
0
 30
0
  0
INSERT
  8
LAYER_4
  2
AIGNBL040100D1
 10
0
 20
0
 30
0
  0
INSERT
  8
LAYER_4
  2
AIGNBL040100D8
 10
0
 20
0
 30
0
  0
TEXT
  8
LAYER_5
 10
-26.2556
 20
43.1712
 11
-26.2556
 21
43.1712
 40
3.2995
 41
0.5
  1
Ädùl
  0
POLYLINE
  8
LAYER_5
 40
0.3528
 41
0.3528
 66
1
 10
0
 20
0
 30
0
  0
VERTEX
  8
LAYER_5
 10
250.6748
 20
51.9507
  0
VERTEX
  8
LAYER_5
 10
-29.3178
 20
51.9507
  0
SEQEND
  0
INSERT
  8
LAYER_5
  2
AIGNBL05010002
 10
0
 20
0
 30
0
  0
POLYLINE
  8
LAYER_5
 40
0.3528
 41
0.3528
 66
1
 10
0
 20
0
 30
0
  0
VERTEX
  8
LAYER_5
 10
-29.3178
 20
229.3369
  0
VERTEX
  8
LAYER_5
 10
-29.3178
 20
34.3283
  0
VERTEX
  8
LAYER_5
 10
250.6748
 20
34.3283
  0
VERTEX
  8
LAYER_5
 10
250.6748
 20
229.3369
  0
VERTEX
  8
LAYER_5
 10
-29.3178
 20
229.3369
  0
SEQEND
  0
POLYLINE
  8
LAYER_5
 40
0.3528
 41
0.3528
 66
1
 10
0
 20
0
 30
0
  0
VERTEX
  8
LAYER_5
 10
250.6748
 20
60.4597
  0
VERTEX
  8
LAYER_5
 10
-29.3178
 20
60.4597
  0
SEQEND
  0
POLYLINE
  8
LAYER_5
 40
0.3528
 41
0.3528
 66
1
 10
0
 20
0
 30
0
  0
VERTEX
  8
LAYER_5
 10
250.6748
 20
43.4416
  0
VERTEX
  8
LAYER_5
 10
143.5341
 20
43.4416
  0
SEQEND
  0
TEXT
  8
LAYER_5
 10
188.1725
 20
45.7175
 11
188.1725
 21
45.7175
 40
3.7615
 41
0.5
  1
-
  0
TEXT
  8
LAYER_5
 10
182.8808
 20
49.4743
 11
182.8808
 21
49.4743
 40
2.1997
 41
0.5
  1
ÅkÄ┌
  0
POLYLINE
  8
LAYER_5
 40
0.3528
 41
0.3528
 66
1
 10
0
 20
0
 30
0
  0
VERTEX
  8
LAYER_5
 10
181.3526
 20
43.4416
  0
VERTEX
  8
LAYER_5
 10
181.3526
 20
51.9507
  0
SEQEND
  0
TEXT
  8
LAYER_5
 10
144.2327
 20
57.9834
 11
144.2327
 21
57.9834
 40
2.1997
 41
0.5
  1
òiöÈ
  0
TEXT
  8
LAYER_5
 10
-28.1609
 20
57.9834
 11
-28.1609
 21
57.9834
 40
2.1997
 41
0.5
  1
òiû╝
  0
TEXT
  8
LAYER_5
 10
144.2327
 20
49.4743
 11
144.2327
 21
49.4743
 40
2.1997
 41
0.5
  1
Ådù╩
  0
TEXT
  8
LAYER_5
 10
150.2547
 20
54.1514
 11
150.2547
 21
54.1514
 40
5.9385
 41
0.5
  1
AQ-STR-ÉF
  0
TEXT
  8
LAYER_5
 10
149.5454
 20
45.7175
 11
149.5454
 21
45.7175
 40
3.7615
 41
0.5
  1
-
  0
POLYLINE
  8
LAYER_5
 40
0.3528
 41
0.3528
 66
1
 10
0
 20
0
 30
0
  0
VERTEX
  8
LAYER_5
 10
143.5341
 20
34.9539
  0
VERTEX
  8
LAYER_5
 10
143.5341
 20
60.4597
  0
SEQEND
  0
TEXT
  8
LAYER_5
 10
-15.2256
 20
54.786
 11
-15.2256
 21
54.786
 40
4.1465
 41
0.5
  1
Sâgâëâbâv(ëóÅBÄdùlâ│32)
  0
TEXT
  8
LAYER_5
 10
-15.6835
 20
42.9042
 11
-15.6835
 21
42.9042
 40
3.1177
 41
0.5
  1
üªëóÅBÄdùlé╠é¢é▀üAÆPôãé┼ìæôÓÄdùlé╠örÉàïÓï´éãé═É┌æ%%pé┼é½é▄é╣é±üB
  0
TEXT
  8
LAYER_5
 10
237.263
 20
63.2582
 11
237.263
 21
63.2582
 40
2.9618
 41
0.5
  1
ÆPê╩üFmm
  0
TEXT
  8
LAYER_5
 10
176.0254
 20
39.5359
 11
176.0254
 21
39.5359
 40
3.3853
 41
0.5
  1
ü£TEL 0120-65-1232ü£FAX 06-6532-1580
  0
TEXT
  8
LAYER_5
 10
176.0254
 20
36.0212
 11
176.0254
 21
36.0212
 40
3.3853
 41
0.5
  1
hits@hiratatile.co.jp
  0
INSERT
  8
LAYER_5
  2
AIGNBL05010003
 10
0
 20
0
 30
0
  0
TEXT
  8
LAYER_5
 10
240.3591
 20
225.8432
 11
240.3591
 21
225.8432
 40
2.0732
 41
0.5
  1
170310RT
  0
ENDSEC
  0
EOF
