  0
SECTION
  2
HEADER
  9
$ACADVER
  1
AC1009
  9
$LUNITS
 70
2
  9
$LUPREC
 70
4
  9
$LTSCALE
 40
1.0
  9
$EXTMIN
 10
16.0764
 20
-7.7766
 30
0
  9
$EXTMAX
 10
206.0763
 20
269.2235
 30
0
  0
ENDSEC
  0
SECTION
  2
TABLES
  0
TABLE
  2
LTYPE
 70
256
  0
LTYPE
  2
AIGENLINE001
 70
64
  3
generate AI->DXF Converter
 72
65
 73
4
 40
14
 49
11
 49
-1
 49
1
 49
-1
  0
LTYPE
  2
AIGENLINE002
 70
64
  3
generate AI->DXF Converter
 72
65
 73
6
 40
13.0071
 49
10
 49
-1
 49
0.0035
 49
-1
 49
0.0035
 49
-1
  0
ENDTAB
  0
TABLE
  2
LAYER
 70
7
  0
LAYER
  2
LAYER_1
 70
64
 62
7
  6
CONTINUOUS
  0
LAYER
  2
LAYER_2
 70
64
 62
7
  6
CONTINUOUS
  0
LAYER
  2
LAYER_3
 70
64
 62
7
  6
CONTINUOUS
  0
LAYER
  2
LAYER_4
 70
64
 62
7
  6
CONTINUOUS
  0
LAYER
  2
LAYER_5
 70
64
 62
7
  6
CONTINUOUS
  0
LAYER
  2
LAYER_6
 70
64
 62
7
  6
CONTINUOUS
  0
LAYER
  2
LAYER_7
 70
64
 62
7
  6
CONTINUOUS
  0
ENDTAB
  0
TABLE
  2
STYLE
 70
6
  0
STYLE
  2
STANDARD
 70
0
 40
0
 50
0
 71
0
 41
0
 42
0
  3
TXT
  4
BIGFONT
  0
ENDTAB
  0
ENDSEC
  0
SECTION
  2
BLOCKS
  0
BLOCK
  8
LAYER_2
  2
AIGNBL02040091
 70
64
 10
0
 20
0
 30
0
  3
AIGNBL02040091
  0
POLYLINE
  8
LAYER_2
 40
0.2469
 41
0.2469
 66
1
 10
0
 20
0
 30
0
  0
VERTEX
  8
LAYER_2
 10
72.4083
 20
250.3418
  0
VERTEX
  8
LAYER_2
 10
72.4083
 20
245.9032
  0
SEQEND
  0
ENDBLK
  0
BLOCK
  8
LAYER_2
  2
AIGNBL02040093
 70
64
 10
0
 20
0
 30
0
  3
AIGNBL02040093
  0
POLYLINE
  8
LAYER_2
 40
0.2469
 41
0.2469
 66
1
 10
0
 20
0
 30
0
  0
VERTEX
  8
LAYER_2
 10
86.8199
 20
238.4216
  0
VERTEX
  8
LAYER_2
 10
88.1218
 20
238.6046
  0
SEQEND
  0
ENDBLK
  0
BLOCK
  8
LAYER_2
  2
AIGNBL02040094
 70
64
 10
0
 20
0
 30
0
  3
AIGNBL02040094
  0
POLYLINE
  8
LAYER_2
 40
0.2469
 41
0.2469
 66
1
 10
0
 20
0
 30
0
  0
VERTEX
  8
LAYER_2
 10
88.1218
 20
257.6404
  0
VERTEX
  8
LAYER_2
 10
86.8199
 20
257.8235
  0
SEQEND
  0
ENDBLK
  0
BLOCK
  8
LAYER_2
  2
AIGNBL02040095
 70
64
 10
0
 20
0
 30
0
  3
AIGNBL02040095
  0
POLYLINE
  8
LAYER_2
 40
0.2469
 41
0.2469
 66
1
 10
0
 20
0
 30
0
  0
VERTEX
  8
LAYER_2
 10
86.62
 20
257.6497
  0
VERTEX
  8
LAYER_2
 10
86.62
 20
238.5953
  0
SEQEND
  0
ENDBLK
  0
BLOCK
  8
LAYER_2
  2
AIGNBL02040096
 70
64
 10
0
 20
0
 30
0
  3
AIGNBL02040096
  0
POLYLINE
  8
LAYER_2
 40
0.2469
 41
0.2469
 66
1
 10
0
 20
0
 30
0
  0
VERTEX
  8
LAYER_2
 10
86.62
 20
190.8082
  0
VERTEX
  8
LAYER_2
 10
86.62
 20
207.7741
  0
SEQEND
  0
ENDBLK
  0
BLOCK
  8
LAYER_2
  2
AIGNBL02040097
 70
64
 10
0
 20
0
 30
0
  3
AIGNBL02040097
  0
POLYLINE
  8
LAYER_2
 40
0.2469
 41
0.2469
 66
1
 10
0
 20
0
 30
0
  0
VERTEX
  8
LAYER_2
 10
88.3602
 20
190.8511
  0
VERTEX
  8
LAYER_2
 10
86.8199
 20
190.6344
  0
SEQEND
  0
ENDBLK
  0
BLOCK
  8
LAYER_2
  2
AIGNBL02040098
 70
64
 10
0
 20
0
 30
0
  3
AIGNBL02040098
  0
POLYLINE
  8
LAYER_2
 40
0.2469
 41
0.2469
 66
1
 10
0
 20
0
 30
0
  0
VERTEX
  8
LAYER_2
 10
87.9479
 20
207.7894
  0
VERTEX
  8
LAYER_2
 10
86.8199
 20
207.9479
  0
SEQEND
  0
ENDBLK
  0
BLOCK
  8
LAYER_2
  2
AIGNBL02040099
 70
64
 10
0
 20
0
 30
0
  3
AIGNBL02040099
  0
POLYLINE
  8
LAYER_2
 40
0.2469
 41
0.2469
 66
1
 10
0
 20
0
 30
0
  0
VERTEX
  8
LAYER_2
 10
90.4797
 20
198.5016
  0
VERTEX
  8
LAYER_2
 10
90.4797
 20
195.6945
  0
SEQEND
  0
ENDBLK
  0
BLOCK
  8
LAYER_2
  2
AIGNBL0204009A
 70
64
 10
0
 20
0
 30
0
  3
AIGNBL0204009A
  0
POLYLINE
  8
LAYER_2
 40
0.2469
 41
0.2469
 66
1
 10
0
 20
0
 30
0
  0
VERTEX
  8
LAYER_2
 10
118.9402
 20
194.2004
  0
VERTEX
  8
LAYER_2
 10
122.4411
 20
197.7009
  0
SEQEND
  0
ENDBLK
  0
BLOCK
  8
LAYER_2
  2
AIGNBL0204009B
 70
64
 10
0
 20
0
 30
0
  3
AIGNBL0204009B
  0
POLYLINE
  8
LAYER_2
 40
0.2469
 41
0.2469
 66
1
 10
0
 20
0
 30
0
  0
VERTEX
  8
LAYER_2
 10
125.9927
 20
206.4157
  0
VERTEX
  8
LAYER_2
 10
124.7114
 20
201.6337
  0
SEQEND
  0
ENDBLK
  0
BLOCK
  8
LAYER_2
  2
AIGNBL0204009C
 70
64
 10
0
 20
0
 30
0
  3
AIGNBL0204009C
  0
POLYLINE
  8
LAYER_2
 40
0.2469
 41
0.2469
 66
1
 10
0
 20
0
 30
0
  0
VERTEX
  8
LAYER_2
 10
130.0599
 20
206.4157
  0
VERTEX
  8
LAYER_2
 10
131.3415
 20
201.6337
  0
SEQEND
  0
ENDBLK
  0
BLOCK
  8
LAYER_2
  2
AIGNBL0204009D
 70
64
 10
0
 20
0
 30
0
  3
AIGNBL0204009D
  0
POLYLINE
  8
LAYER_2
 40
0.2469
 41
0.2469
 66
1
 10
0
 20
0
 30
0
  0
VERTEX
  8
LAYER_2
 10
137.1124
 20
194.2004
  0
VERTEX
  8
LAYER_2
 10
133.6118
 20
197.7009
  0
SEQEND
  0
ENDBLK
  0
BLOCK
  8
LAYER_2
  2
AIGNBL0204009E
 70
64
 10
0
 20
0
 30
0
  3
AIGNBL0204009E
  0
POLYLINE
  8
LAYER_2
 40
0.2469
 41
0.2469
 66
1
 10
0
 20
0
 30
0
  0
VERTEX
  8
LAYER_2
 10
135.0787
 20
190.6783
  0
VERTEX
  8
LAYER_2
 10
130.297
 20
191.9593
  0
SEQEND
  0
ENDBLK
  0
BLOCK
  8
LAYER_2
  2
AIGNBL0204009F
 70
64
 10
0
 20
0
 30
0
  3
AIGNBL0204009F
  0
POLYLINE
  8
LAYER_2
 40
0.2469
 41
0.2469
 66
1
 10
0
 20
0
 30
0
  0
VERTEX
  8
LAYER_2
 10
120.7072
 20
190.6066
  0
VERTEX
  8
LAYER_2
 10
125.7556
 20
191.9593
  0
SEQEND
  0
ENDBLK
  0
BLOCK
  8
LAYER_2
  2
AIGNBL020400A0
 70
64
 10
0
 20
0
 30
0
  3
AIGNBL020400A0
  0
POLYLINE
  8
LAYER_2
 40
0.2469
 41
0.2469
 66
1
 10
0
 20
0
 30
0
  0
VERTEX
  8
LAYER_2
 10
89.9036
 20
240.3311
 42
0.03009651349
  0
VERTEX
  8
LAYER_2
 10
90.5929
 20
245.6661
  0
SEQEND
  0
ENDBLK
  0
BLOCK
  8
LAYER_2
  2
AIGNBL020400A1
 70
64
 10
0
 20
0
 30
0
  3
AIGNBL020400A1
  0
POLYLINE
  8
LAYER_2
 40
0.2469
 41
0.2469
 66
1
 10
0
 20
0
 30
0
  0
VERTEX
  8
LAYER_2
 10
90.4797
 20
198.5016
 42
0.03613730064
  0
VERTEX
  8
LAYER_2
 10
89.7298
 20
206.0629
  0
SEQEND
  0
ENDBLK
  0
BLOCK
  8
LAYER_2
  2
AIGNBL020400A2
 70
64
 10
0
 20
0
 30
0
  3
AIGNBL020400A2
  0
POLYLINE
  8
LAYER_2
 40
0.2469
 41
0.2469
 66
1
 10
0
 20
0
 30
0
  0
VERTEX
  8
LAYER_2
 10
90.5929
 20
250.5787
 42
0.03009845859
  0
VERTEX
  8
LAYER_2
 10
89.9036
 20
255.9141
  0
SEQEND
  0
ENDBLK
  0
BLOCK
  8
LAYER_2
  2
AIGNBL020400A3
 70
64
 10
0
 20
0
 30
0
  3
AIGNBL020400A3
  0
POLYLINE
  8
LAYER_2
 40
0.2469
 41
0.2469
 66
1
 10
0
 20
0
 30
0
  0
VERTEX
  8
LAYER_2
 10
90.143
 20
192.5853
 42
0.02975637536
  0
VERTEX
  8
LAYER_2
 10
90.4797
 20
195.6945
  0
SEQEND
  0
ENDBLK
  0
BLOCK
  8
LAYER_2
  2
AIGNBL020400A4
 70
64
 10
0
 20
0
 30
0
  3
AIGNBL020400A4
  0
POLYLINE
  8
LAYER_2
 40
0.2469
 41
0.2469
 66
1
 10
0
 20
0
 30
0
  0
VERTEX
  8
LAYER_2
 10
118.9402
 20
194.2004
 42
0.4142754934
  0
VERTEX
  8
LAYER_2
 10
118.9402
 20
191.2228
 42
0.2332815271
  0
VERTEX
  8
LAYER_2
 10
120.7051
 20
190.6244
  0
SEQEND
  0
ENDBLK
  0
BLOCK
  8
LAYER_2
  2
AIGNBL020400A5
 70
64
 10
0
 20
0
 30
0
  3
AIGNBL020400A5
  0
POLYLINE
  8
LAYER_2
 40
0.2469
 41
0.2469
 66
1
 10
0
 20
0
 30
0
  0
VERTEX
  8
LAYER_2
 10
130.0599
 20
206.4157
 42
0.4141777038
  0
VERTEX
  8
LAYER_2
 10
127.4816
 20
207.9043
 42
0.2679643871
  0
VERTEX
  8
LAYER_2
 10
125.9927
 20
206.4157
  0
SEQEND
  0
ENDBLK
  0
BLOCK
  8
LAYER_2
  2
AIGNBL020400A6
 70
64
 10
0
 20
0
 30
0
  3
AIGNBL020400A6
  0
POLYLINE
  8
LAYER_2
 40
0.2469
 41
0.2469
 66
1
 10
0
 20
0
 30
0
  0
VERTEX
  8
LAYER_2
 10
135.0787
 20
190.6783
 42
0.4142455424
  0
VERTEX
  8
LAYER_2
 10
137.6574
 20
192.1671
 42
0.2680383463
  0
VERTEX
  8
LAYER_2
 10
137.1124
 20
194.2004
  0
SEQEND
  0
ENDBLK
  0
BLOCK
  8
LAYER_2
  2
AIGNBL020400A7
 70
64
 10
0
 20
0
 30
0
  3
AIGNBL020400A7
  0
POLYLINE
  8
LAYER_2
 40
0.2469
 41
0.2469
 66
1
 10
0
 20
0
 30
0
  0
VERTEX
  8
LAYER_2
 10
86.62
 20
238.5953
 42
0.4143025572
  0
VERTEX
  8
LAYER_2
 10
86.7954
 20
238.4197
  0
VERTEX
  8
LAYER_2
 10
86.8199
 20
238.4216
  0
SEQEND
  0
ENDBLK
  0
BLOCK
  8
LAYER_2
  2
AIGNBL020400A8
 70
64
 10
0
 20
0
 30
0
  3
AIGNBL020400A8
  0
POLYLINE
  8
LAYER_2
 40
0.2469
 41
0.2469
 66
1
 10
0
 20
0
 30
0
  0
VERTEX
  8
LAYER_2
 10
88.1218
 20
238.6046
 42
0.3258388515
  0
VERTEX
  8
LAYER_2
 10
89.9036
 20
240.3311
  0
SEQEND
  0
ENDBLK
  0
BLOCK
  8
LAYER_2
  2
AIGNBL020400A9
 70
64
 10
0
 20
0
 30
0
  3
AIGNBL020400A9
  0
POLYLINE
  8
LAYER_2
 40
0.2469
 41
0.2469
 66
1
 10
0
 20
0
 30
0
  0
VERTEX
  8
LAYER_2
 10
89.9036
 20
255.9141
 42
0.3259372328
  0
VERTEX
  8
LAYER_2
 10
88.1218
 20
257.6404
  0
SEQEND
  0
ENDBLK
  0
BLOCK
  8
LAYER_2
  2
AIGNBL020400AA
 70
64
 10
0
 20
0
 30
0
  3
AIGNBL020400AA
  0
POLYLINE
  8
LAYER_2
 40
0.2469
 41
0.2469
 66
1
 10
0
 20
0
 30
0
  0
VERTEX
  8
LAYER_2
 10
86.8199
 20
257.8235
 42
0.3930362793
  0
VERTEX
  8
LAYER_2
 10
86.6216
 20
257.674
  0
VERTEX
  8
LAYER_2
 10
86.62
 20
257.6497
  0
SEQEND
  0
ENDBLK
  0
BLOCK
  8
LAYER_2
  2
AIGNBL020400AB
 70
64
 10
0
 20
0
 30
0
  3
AIGNBL020400AB
  0
POLYLINE
  8
LAYER_2
 40
0.2469
 41
0.2469
 66
1
 10
0
 20
0
 30
0
  0
VERTEX
  8
LAYER_2
 10
86.62
 20
190.8082
 42
0.4142888
  0
VERTEX
  8
LAYER_2
 10
86.7954
 20
190.633
  0
VERTEX
  8
LAYER_2
 10
86.8199
 20
190.6344
  0
SEQEND
  0
ENDBLK
  0
BLOCK
  8
LAYER_2
  2
AIGNBL020400AC
 70
64
 10
0
 20
0
 30
0
  3
AIGNBL020400AC
  0
POLYLINE
  8
LAYER_2
 40
0.2469
 41
0.2469
 66
1
 10
0
 20
0
 30
0
  0
VERTEX
  8
LAYER_2
 10
86.8199
 20
207.9479
 42
0.3932218795
  0
VERTEX
  8
LAYER_2
 10
86.6216
 20
207.7985
  0
VERTEX
  8
LAYER_2
 10
86.62
 20
207.7741
  0
SEQEND
  0
ENDBLK
  0
BLOCK
  8
LAYER_2
  2
AIGNBL020400AD
 70
64
 10
0
 20
0
 30
0
  3
AIGNBL020400AD
  0
POLYLINE
  8
LAYER_2
 40
0.2469
 41
0.2469
 66
1
 10
0
 20
0
 30
0
  0
VERTEX
  8
LAYER_2
 10
88.3602
 20
190.8511
 42
0.3268842697
  0
VERTEX
  8
LAYER_2
 10
90.143
 20
192.5853
  0
SEQEND
  0
ENDBLK
  0
BLOCK
  8
LAYER_2
  2
AIGNBL020400AE
 70
64
 10
0
 20
0
 30
0
  3
AIGNBL020400AE
  0
POLYLINE
  8
LAYER_2
 40
0.2469
 41
0.2469
 66
1
 10
0
 20
0
 30
0
  0
VERTEX
  8
LAYER_2
 10
89.7298
 20
206.0629
 42
0.3258447839
  0
VERTEX
  8
LAYER_2
 10
87.9479
 20
207.7894
  0
SEQEND
  0
ENDBLK
  0
BLOCK
  8
LAYER_2
  2
AIGNBL020400AF
 70
64
 10
0
 20
0
 30
0
  3
AIGNBL020400AF
  0
POLYLINE
  8
LAYER_2
 40
0.2469
 41
0.2469
 66
1
 10
0
 20
0
 30
0
  0
VERTEX
  8
LAYER_2
 10
122.4411
 20
197.7009
 42
0.1316062295
  0
VERTEX
  8
LAYER_2
 10
124.7114
 20
201.6337
  0
SEQEND
  0
ENDBLK
  0
BLOCK
  8
LAYER_2
  2
AIGNBL020400B0
 70
64
 10
0
 20
0
 30
0
  3
AIGNBL020400B0
  0
POLYLINE
  8
LAYER_2
 40
0.2469
 41
0.2469
 66
1
 10
0
 20
0
 30
0
  0
VERTEX
  8
LAYER_2
 10
131.3415
 20
201.6337
 42
0.1316607724
  0
VERTEX
  8
LAYER_2
 10
133.6118
 20
197.7009
  0
SEQEND
  0
ENDBLK
  0
BLOCK
  8
LAYER_2
  2
AIGNBL020400B1
 70
64
 10
0
 20
0
 30
0
  3
AIGNBL020400B1
  0
POLYLINE
  8
LAYER_2
 40
0.2469
 41
0.2469
 66
1
 10
0
 20
0
 30
0
  0
VERTEX
  8
LAYER_2
 10
130.297
 20
191.9593
 42
0.1316547314
  0
VERTEX
  8
LAYER_2
 10
125.7556
 20
191.9593
  0
SEQEND
  0
ENDBLK
  0
BLOCK
  8
LAYER_2
  2
AIGNBL020400B3
 70
64
 10
0
 20
0
 30
0
  3
AIGNBL020400B3
  0
POLYLINE
  8
LAYER_2
 40
0.2469
 41
0.2469
 66
1
 10
0
 20
0
 30
0
  0
VERTEX
  8
LAYER_2
 10
85.7677
 20
249.7894
  0
VERTEX
  8
LAYER_2
 10
86.62
 20
249.7894
  0
SEQEND
  0
ENDBLK
  0
BLOCK
  8
LAYER_2
  2
AIGNBL020400B4
 70
64
 10
0
 20
0
 30
0
  3
AIGNBL020400B4
  0
POLYLINE
  8
LAYER_2
 40
0.2469
 41
0.2469
 66
1
 10
0
 20
0
 30
0
  0
VERTEX
  8
LAYER_2
 10
85.567
 20
198.7648
  0
VERTEX
  8
LAYER_2
 10
86.62
 20
198.7648
  0
SEQEND
  0
ENDBLK
  0
BLOCK
  8
LAYER_2
  2
AIGNBL020400B5
 70
64
 10
0
 20
0
 30
0
  3
AIGNBL020400B5
  0
POLYLINE
  8
LAYER_2
 40
0.2469
 41
0.2469
 66
1
 10
0
 20
0
 30
0
  0
VERTEX
  8
LAYER_2
 10
86.62
 20
195.4313
  0
VERTEX
  8
LAYER_2
 10
85.567
 20
195.4313
  0
SEQEND
  0
ENDBLK
  0
BLOCK
  8
LAYER_2
  2
AIGNBL020400B6
 70
64
 10
0
 20
0
 30
0
  3
AIGNBL020400B6
  0
POLYLINE
  8
LAYER_2
 40
0.2469
 41
0.2469
 66
1
 10
0
 20
0
 30
0
  0
VERTEX
  8
LAYER_2
 10
86.62
 20
246.4559
  0
VERTEX
  8
LAYER_2
 10
85.7677
 20
246.4559
  0
SEQEND
  0
ENDBLK
  0
BLOCK
  8
LAYER_2
  2
AIGNBL020400B7
 70
64
 10
0
 20
0
 30
0
  3
AIGNBL020400B7
  0
POLYLINE
  8
LAYER_2
 40
0.2469
 41
0.2469
 66
1
 10
0
 20
0
 30
0
  0
VERTEX
  8
LAYER_2
 10
72.9347
 20
250.146
  0
VERTEX
  8
LAYER_2
 10
72.9347
 20
246.0992
  0
SEQEND
  0
ENDBLK
  0
BLOCK
  8
LAYER_2
  2
AIGNBL020400B9
 70
64
 10
0
 20
0
 30
0
  3
AIGNBL020400B9
  0
POLYLINE
  8
LAYER_2
 40
0.2469
 41
0.2469
 66
1
 10
0
 20
0
 30
0
  0
VERTEX
  8
LAYER_2
 10
85.7677
 20
250.228
  0
VERTEX
  8
LAYER_2
 10
85.7677
 20
246.017
  0
SEQEND
  0
ENDBLK
  0
BLOCK
  8
LAYER_2
  2
AIGNBL020400BA
 70
64
 10
0
 20
0
 30
0
  3
AIGNBL020400BA
  0
POLYLINE
  8
LAYER_2
 40
0.2469
 41
0.2469
 66
1
 10
0
 20
0
 30
0
  0
VERTEX
  8
LAYER_2
 10
83.3363
 20
243.5608
  0
VERTEX
  8
LAYER_2
 10
83.2282
 20
243.5608
  0
SEQEND
  0
ENDBLK
  0
BLOCK
  8
LAYER_2
  2
AIGNBL020400BB
 70
64
 10
0
 20
0
 30
0
  3
AIGNBL020400BB
  0
POLYLINE
  8
LAYER_2
 40
0.2469
 41
0.2469
 66
1
 10
0
 20
0
 30
0
  0
VERTEX
  8
LAYER_2
 10
83.4869
 20
248.1227
  0
VERTEX
  8
LAYER_2
 10
83.4869
 20
243.7362
  0
SEQEND
  0
ENDBLK
  0
BLOCK
  8
LAYER_2
  2
AIGNBL020400BC
 70
64
 10
0
 20
0
 30
0
  3
AIGNBL020400BC
  0
POLYLINE
  8
LAYER_2
 40
0.2469
 41
0.2469
 66
1
 10
0
 20
0
 30
0
  0
VERTEX
  8
LAYER_2
 10
83.2282
 20
243.5608
  0
VERTEX
  8
LAYER_2
 10
80.8552
 20
243.5608
  0
SEQEND
  0
ENDBLK
  0
BLOCK
  8
LAYER_2
  2
AIGNBL020400BD
 70
64
 10
0
 20
0
 30
0
  3
AIGNBL020400BD
  0
POLYLINE
  8
LAYER_2
 40
0.2469
 41
0.2469
 66
1
 10
0
 20
0
 30
0
  0
VERTEX
  8
LAYER_2
 10
83.4869
 20
252.5088
  0
VERTEX
  8
LAYER_2
 10
83.4869
 20
248.1227
  0
SEQEND
  0
ENDBLK
  0
BLOCK
  8
LAYER_2
  2
AIGNBL020400BE
 70
64
 10
0
 20
0
 30
0
  3
AIGNBL020400BE
  0
POLYLINE
  8
LAYER_2
 40
0.2469
 41
0.2469
 66
1
 10
0
 20
0
 30
0
  0
VERTEX
  8
LAYER_2
 10
83.2282
 20
252.6841
  0
VERTEX
  8
LAYER_2
 10
80.8552
 20
252.6841
  0
SEQEND
  0
ENDBLK
  0
BLOCK
  8
LAYER_2
  2
AIGNBL020400BF
 70
64
 10
0
 20
0
 30
0
  3
AIGNBL020400BF
  0
POLYLINE
  8
LAYER_2
 40
0.2469
 41
0.2469
 66
1
 10
0
 20
0
 30
0
  0
VERTEX
  8
LAYER_2
 10
80.8552
 20
243.5608
  0
VERTEX
  8
LAYER_2
 10
80.8552
 20
252.6841
  0
SEQEND
  0
ENDBLK
  0
BLOCK
  8
LAYER_2
  2
AIGNBL020400C0
 70
64
 10
0
 20
0
 30
0
  3
AIGNBL020400C0
  0
POLYLINE
  8
LAYER_2
 40
0.2469
 41
0.2469
 66
1
 10
0
 20
0
 30
0
  0
VERTEX
  8
LAYER_2
 10
85.567
 20
194.9927
  0
VERTEX
  8
LAYER_2
 10
85.567
 20
199.2033
  0
SEQEND
  0
ENDBLK
  0
BLOCK
  8
LAYER_2
  2
AIGNBL020400C1
 70
64
 10
0
 20
0
 30
0
  3
AIGNBL020400C1
  0
POLYLINE
  8
LAYER_2
 40
0.2469
 41
0.2469
 66
1
 10
0
 20
0
 30
0
  0
VERTEX
  8
LAYER_2
 10
80.6547
 20
201.6845
  0
VERTEX
  8
LAYER_2
 10
80.6547
 20
192.5116
  0
SEQEND
  0
ENDBLK
  0
BLOCK
  8
LAYER_2
  2
AIGNBL020400C2
 70
64
 10
0
 20
0
 30
0
  3
AIGNBL020400C2
  0
POLYLINE
  8
LAYER_2
 40
0.2469
 41
0.2469
 66
1
 10
0
 20
0
 30
0
  0
VERTEX
  8
LAYER_2
 10
83.1357
 20
198.7984
  0
VERTEX
  8
LAYER_2
 10
83.1357
 20
200.1421
  0
SEQEND
  0
ENDBLK
  0
BLOCK
  8
LAYER_2
  2
AIGNBL020400C3
 70
64
 10
0
 20
0
 30
0
  3
AIGNBL020400C3
  0
POLYLINE
  8
LAYER_2
 40
0.2469
 41
0.2469
 66
1
 10
0
 20
0
 30
0
  0
VERTEX
  8
LAYER_2
 10
83.1357
 20
194.0538
  0
VERTEX
  8
LAYER_2
 10
83.1357
 20
195.3977
  0
SEQEND
  0
ENDBLK
  0
BLOCK
  8
LAYER_2
  2
AIGNBL020400C4
 70
64
 10
0
 20
0
 30
0
  3
AIGNBL020400C4
  0
POLYLINE
  8
LAYER_2
 40
0.2469
 41
0.2469
 66
1
 10
0
 20
0
 30
0
  0
VERTEX
  8
LAYER_2
 10
83.3363
 20
243.5608
  0
VERTEX
  8
LAYER_2
 10
83.4869
 20
243.7362
  0
SEQEND
  0
ENDBLK
  0
BLOCK
  8
LAYER_2
  2
AIGNBL020400C5
 70
64
 10
0
 20
0
 30
0
  3
AIGNBL020400C5
  0
POLYLINE
  8
LAYER_2
 40
0.2469
 41
0.2469
 66
1
 10
0
 20
0
 30
0
  0
VERTEX
  8
LAYER_2
 10
85.7677
 20
246.017
 42
0.09659642745
  0
VERTEX
  8
LAYER_2
 10
83.4869
 20
243.7362
  0
SEQEND
  0
ENDBLK
  0
BLOCK
  8
LAYER_2
  2
AIGNBL020400C6
 70
64
 10
0
 20
0
 30
0
  3
AIGNBL020400C6
  0
POLYLINE
  8
LAYER_2
 40
0.2469
 41
0.2469
 66
1
 10
0
 20
0
 30
0
  0
VERTEX
  8
LAYER_2
 10
83.4869
 20
252.5088
  0
VERTEX
  8
LAYER_2
 10
83.3363
 20
252.6841
  0
SEQEND
  0
ENDBLK
  0
BLOCK
  8
LAYER_2
  2
AIGNBL020400C7
 70
64
 10
0
 20
0
 30
0
  3
AIGNBL020400C7
  0
POLYLINE
  8
LAYER_2
 40
0.2469
 41
0.2469
 66
1
 10
0
 20
0
 30
0
  0
VERTEX
  8
LAYER_2
 10
83.4869
 20
252.5088
 42
0.09662973138
  0
VERTEX
  8
LAYER_2
 10
85.7677
 20
250.228
  0
SEQEND
  0
ENDBLK
  0
BLOCK
  8
LAYER_2
  2
AIGNBL020400C8
 70
64
 10
0
 20
0
 30
0
  3
AIGNBL020400C8
  0
POLYLINE
  8
LAYER_2
 40
0.2469
 41
0.2469
 66
1
 10
0
 20
0
 30
0
  0
VERTEX
  8
LAYER_2
 10
80.6547
 20
192.5116
 42
0.4142903473
  0
VERTEX
  8
LAYER_2
 10
83.1357
 20
192.5364
  0
VERTEX
  8
LAYER_2
 10
83.2864
 20
192.7116
  0
SEQEND
  0
ENDBLK
  0
BLOCK
  8
LAYER_2
  2
AIGNBL020400C9
 70
64
 10
0
 20
0
 30
0
  3
AIGNBL020400C9
  0
POLYLINE
  8
LAYER_2
 40
0.2469
 41
0.2469
 66
1
 10
0
 20
0
 30
0
  0
VERTEX
  8
LAYER_2
 10
85.567
 20
194.9927
 42
0.09668367066
  0
VERTEX
  8
LAYER_2
 10
83.2864
 20
192.7116
  0
SEQEND
  0
ENDBLK
  0
BLOCK
  8
LAYER_2
  2
AIGNBL020400CA
 70
64
 10
0
 20
0
 30
0
  3
AIGNBL020400CA
  0
POLYLINE
  8
LAYER_2
 40
0.2469
 41
0.2469
 66
1
 10
0
 20
0
 30
0
  0
VERTEX
  8
LAYER_2
 10
83.2864
 20
201.4842
 42
0.09660854142
  0
VERTEX
  8
LAYER_2
 10
85.567
 20
199.2033
  0
SEQEND
  0
ENDBLK
  0
BLOCK
  8
LAYER_2
  2
AIGNBL020400CB
 70
64
 10
0
 20
0
 30
0
  3
AIGNBL020400CB
  0
POLYLINE
  8
LAYER_2
 40
0.2469
 41
0.2469
 66
1
 10
0
 20
0
 30
0
  0
VERTEX
  8
LAYER_2
 10
83.2864
 20
201.4842
 42
0.4142524436
  0
VERTEX
  8
LAYER_2
 10
80.83
 20
201.8351
  0
VERTEX
  8
LAYER_2
 10
80.6547
 20
201.6845
  0
SEQEND
  0
ENDBLK
  0
BLOCK
  8
LAYER_2
  2
AIGNBL020400CC
 70
64
 10
0
 20
0
 30
0
  3
AIGNBL020400CC
  0
POLYLINE
  8
LAYER_2
 40
0.2469
 41
0.2469
 66
1
 10
0
 20
0
 30
0
 70
1
  0
VERTEX
  8
LAYER_2
 10
83.1357
 20
193.1474
  0
VERTEX
  8
LAYER_2
 10
83.1308
 20
193.0492
  0
VERTEX
  8
LAYER_2
 10
83.1171
 20
192.9519
  0
VERTEX
  8
LAYER_2
 10
83.0935
 20
192.8554
  0
VERTEX
  8
LAYER_2
 10
83.0609
 20
192.762
  0
VERTEX
  8
LAYER_2
 10
83.0194
 20
192.6711
  0
VERTEX
  8
LAYER_2
 10
82.9694
 20
192.5841
  0
VERTEX
  8
LAYER_2
 10
82.9112
 20
192.5006
  0
VERTEX
  8
LAYER_2
 10
82.8456
 20
192.4232
  0
VERTEX
  8
LAYER_2
 10
82.7722
 20
192.3504
  0
VERTEX
  8
LAYER_2
 10
82.6926
 20
192.2842
  0
VERTEX
  8
LAYER_2
 10
82.6063
 20
192.2241
  0
VERTEX
  8
LAYER_2
 10
82.5155
 20
192.1716
  0
VERTEX
  8
LAYER_2
 10
82.4191
 20
192.1259
  0
VERTEX
  8
LAYER_2
 10
82.3194
 20
192.0884
  0
VERTEX
  8
LAYER_2
 10
82.216
 20
192.0589
  0
VERTEX
  8
LAYER_2
 10
82.1106
 20
192.0375
  0
VERTEX
  8
LAYER_2
 10
82.0033
 20
192.025
  0
VERTEX
  8
LAYER_2
 10
81.8951
 20
192.0207
  0
VERTEX
  8
LAYER_2
 10
81.7873
 20
192.025
  0
VERTEX
  8
LAYER_2
 10
81.6798
 20
192.0375
  0
VERTEX
  8
LAYER_2
 10
81.5743
 20
192.0589
  0
VERTEX
  8
LAYER_2
 10
81.4708
 20
192.0884
  0
VERTEX
  8
LAYER_2
 10
81.3713
 20
192.1259
  0
VERTEX
  8
LAYER_2
 10
81.275
 20
192.1716
  0
VERTEX
  8
LAYER_2
 10
81.184
 20
192.2241
  0
VERTEX
  8
LAYER_2
 10
81.0979
 20
192.2842
  0
VERTEX
  8
LAYER_2
 10
81.0183
 20
192.3504
  0
VERTEX
  8
LAYER_2
 10
80.9449
 20
192.4232
  0
VERTEX
  8
LAYER_2
 10
80.8791
 20
192.5006
  0
VERTEX
  8
LAYER_2
 10
80.8207
 20
192.5841
  0
VERTEX
  8
LAYER_2
 10
80.771
 20
192.6711
  0
VERTEX
  8
LAYER_2
 10
80.7294
 20
192.762
  0
VERTEX
  8
LAYER_2
 10
80.6969
 20
192.8554
  0
VERTEX
  8
LAYER_2
 10
80.6735
 20
192.9519
  0
VERTEX
  8
LAYER_2
 10
80.6593
 20
193.0492
  0
VERTEX
  8
LAYER_2
 10
80.6547
 20
193.1474
  0
VERTEX
  8
LAYER_2
 10
80.6593
 20
193.2459
  0
VERTEX
  8
LAYER_2
 10
80.6735
 20
193.3432
  0
VERTEX
  8
LAYER_2
 10
80.6969
 20
193.4394
  0
VERTEX
  8
LAYER_2
 10
80.7294
 20
193.5331
  0
VERTEX
  8
LAYER_2
 10
80.771
 20
193.624
  0
VERTEX
  8
LAYER_2
 10
80.8207
 20
193.7108
  0
VERTEX
  8
LAYER_2
 10
80.8791
 20
193.7942
  0
VERTEX
  8
LAYER_2
 10
80.9449
 20
193.8719
  0
VERTEX
  8
LAYER_2
 10
81.0183
 20
193.9448
  0
VERTEX
  8
LAYER_2
 10
81.0979
 20
194.0106
  0
VERTEX
  8
LAYER_2
 10
81.184
 20
194.0707
  0
VERTEX
  8
LAYER_2
 10
81.275
 20
194.1232
  0
VERTEX
  8
LAYER_2
 10
81.3713
 20
194.1689
  0
VERTEX
  8
LAYER_2
 10
81.4708
 20
194.2064
  0
VERTEX
  8
LAYER_2
 10
81.5743
 20
194.236
  0
VERTEX
  8
LAYER_2
 10
81.6798
 20
194.2572
  0
VERTEX
  8
LAYER_2
 10
81.7873
 20
194.2698
  0
VERTEX
  8
LAYER_2
 10
81.8951
 20
194.2744
  0
VERTEX
  8
LAYER_2
 10
82.0033
 20
194.2698
  0
VERTEX
  8
LAYER_2
 10
82.1106
 20
194.2572
  0
VERTEX
  8
LAYER_2
 10
82.216
 20
194.236
  0
VERTEX
  8
LAYER_2
 10
82.3194
 20
194.2064
  0
VERTEX
  8
LAYER_2
 10
82.4191
 20
194.1689
  0
VERTEX
  8
LAYER_2
 10
82.5155
 20
194.1232
  0
VERTEX
  8
LAYER_2
 10
82.6063
 20
194.0707
  0
VERTEX
  8
LAYER_2
 10
82.6926
 20
194.0106
  0
VERTEX
  8
LAYER_2
 10
82.7722
 20
193.9448
  0
VERTEX
  8
LAYER_2
 10
82.8456
 20
193.8719
  0
VERTEX
  8
LAYER_2
 10
82.9112
 20
193.7942
  0
VERTEX
  8
LAYER_2
 10
82.9694
 20
193.7108
  0
VERTEX
  8
LAYER_2
 10
83.0194
 20
193.624
  0
VERTEX
  8
LAYER_2
 10
83.0609
 20
193.5331
  0
VERTEX
  8
LAYER_2
 10
83.0935
 20
193.4394
  0
VERTEX
  8
LAYER_2
 10
83.1171
 20
193.3432
  0
VERTEX
  8
LAYER_2
 10
83.1308
 20
193.2459
  0
SEQEND
  0
ENDBLK
  0
BLOCK
  8
LAYER_2
  2
AIGNBL020400CD
 70
64
 10
0
 20
0
 30
0
  3
AIGNBL020400CD
  0
POLYLINE
  8
LAYER_2
 40
0.2469
 41
0.2469
 66
1
 10
0
 20
0
 30
0
 70
1
  0
VERTEX
  8
LAYER_2
 10
81.8951
 20
199.3518
  0
VERTEX
  8
LAYER_2
 10
81.7862
 20
199.3429
  0
VERTEX
  8
LAYER_2
 10
81.6798
 20
199.3175
  0
VERTEX
  8
LAYER_2
 10
81.5718
 20
199.2738
  0
VERTEX
  8
LAYER_2
 10
81.4708
 20
199.2157
  0
VERTEX
  8
LAYER_2
 10
81.3683
 20
199.1384
  0
VERTEX
  8
LAYER_2
 10
81.275
 20
199.0499
  0
VERTEX
  8
LAYER_2
 10
81.1813
 20
198.941
  0
VERTEX
  8
LAYER_2
 10
81.0979
 20
198.8244
  0
VERTEX
  8
LAYER_2
 10
81.0162
 20
198.6883
  0
VERTEX
  8
LAYER_2
 10
80.9449
 20
198.5467
  0
VERTEX
  8
LAYER_2
 10
80.8778
 20
198.3875
  0
VERTEX
  8
LAYER_2
 10
80.8207
 20
198.2248
  0
VERTEX
  8
LAYER_2
 10
80.7703
 20
198.0482
  0
VERTEX
  8
LAYER_2
 10
80.7294
 20
197.8687
  0
VERTEX
  8
LAYER_2
 10
80.6967
 20
197.6799
  0
VERTEX
  8
LAYER_2
 10
80.6735
 20
197.4894
  0
VERTEX
  8
LAYER_2
 10
80.6593
 20
197.2939
  0
VERTEX
  8
LAYER_2
 10
80.6547
 20
197.098
  0
VERTEX
  8
LAYER_2
 10
80.6593
 20
196.9022
  0
VERTEX
  8
LAYER_2
 10
80.6735
 20
196.7067
  0
VERTEX
  8
LAYER_2
 10
80.6967
 20
196.5163
  0
VERTEX
  8
LAYER_2
 10
80.7294
 20
196.3274
  0
VERTEX
  8
LAYER_2
 10
80.7703
 20
196.1479
  0
VERTEX
  8
LAYER_2
 10
80.8207
 20
195.9712
  0
VERTEX
  8
LAYER_2
 10
80.8778
 20
195.8082
  0
VERTEX
  8
LAYER_2
 10
80.9449
 20
195.6492
  0
VERTEX
  8
LAYER_2
 10
81.0162
 20
195.5078
  0
VERTEX
  8
LAYER_2
 10
81.0979
 20
195.3717
  0
VERTEX
  8
LAYER_2
 10
81.1813
 20
195.2547
  0
VERTEX
  8
LAYER_2
 10
81.275
 20
195.1464
  0
VERTEX
  8
LAYER_2
 10
81.3683
 20
195.0577
  0
VERTEX
  8
LAYER_2
 10
81.4708
 20
194.98
  0
VERTEX
  8
LAYER_2
 10
81.5718
 20
194.9221
  0
VERTEX
  8
LAYER_2
 10
81.6798
 20
194.8785
  0
VERTEX
  8
LAYER_2
 10
81.7862
 20
194.8532
  0
VERTEX
  8
LAYER_2
 10
81.8951
 20
194.8444
  0
VERTEX
  8
LAYER_2
 10
82.0043
 20
194.8532
  0
VERTEX
  8
LAYER_2
 10
82.1106
 20
194.8785
  0
VERTEX
  8
LAYER_2
 10
82.2184
 20
194.9221
  0
VERTEX
  8
LAYER_2
 10
82.3194
 20
194.98
  0
VERTEX
  8
LAYER_2
 10
82.4222
 20
195.0577
  0
VERTEX
  8
LAYER_2
 10
82.5155
 20
195.1464
  0
VERTEX
  8
LAYER_2
 10
82.6091
 20
195.2547
  0
VERTEX
  8
LAYER_2
 10
82.6926
 20
195.3717
  0
VERTEX
  8
LAYER_2
 10
82.7743
 20
195.5078
  0
VERTEX
  8
LAYER_2
 10
82.8456
 20
195.6492
  0
VERTEX
  8
LAYER_2
 10
82.9126
 20
195.8082
  0
VERTEX
  8
LAYER_2
 10
82.9694
 20
195.9712
  0
VERTEX
  8
LAYER_2
 10
83.0201
 20
196.1479
  0
VERTEX
  8
LAYER_2
 10
83.0609
 20
196.3274
  0
VERTEX
  8
LAYER_2
 10
83.0936
 20
196.5163
  0
VERTEX
  8
LAYER_2
 10
83.1171
 20
196.7067
  0
VERTEX
  8
LAYER_2
 10
83.131
 20
196.9022
  0
VERTEX
  8
LAYER_2
 10
83.1357
 20
197.098
  0
VERTEX
  8
LAYER_2
 10
83.131
 20
197.2939
  0
VERTEX
  8
LAYER_2
 10
83.1171
 20
197.4894
  0
VERTEX
  8
LAYER_2
 10
83.0936
 20
197.6799
  0
VERTEX
  8
LAYER_2
 10
83.0609
 20
197.8687
  0
VERTEX
  8
LAYER_2
 10
83.0201
 20
198.0482
  0
VERTEX
  8
LAYER_2
 10
82.9694
 20
198.2248
  0
VERTEX
  8
LAYER_2
 10
82.9126
 20
198.3875
  0
VERTEX
  8
LAYER_2
 10
82.8456
 20
198.5467
  0
VERTEX
  8
LAYER_2
 10
82.7743
 20
198.6883
  0
VERTEX
  8
LAYER_2
 10
82.6926
 20
198.8244
  0
VERTEX
  8
LAYER_2
 10
82.6091
 20
198.941
  0
VERTEX
  8
LAYER_2
 10
82.5155
 20
199.0499
  0
VERTEX
  8
LAYER_2
 10
82.4222
 20
199.1384
  0
VERTEX
  8
LAYER_2
 10
82.3194
 20
199.2157
  0
VERTEX
  8
LAYER_2
 10
82.2184
 20
199.2738
  0
VERTEX
  8
LAYER_2
 10
82.1106
 20
199.3175
  0
VERTEX
  8
LAYER_2
 10
82.0043
 20
199.3429
  0
SEQEND
  0
ENDBLK
  0
BLOCK
  8
LAYER_2
  2
AIGNBL020400CE
 70
64
 10
0
 20
0
 30
0
  3
AIGNBL020400CE
  0
POLYLINE
  8
LAYER_2
 40
0.2469
 41
0.2469
 66
1
 10
0
 20
0
 30
0
 70
1
  0
VERTEX
  8
LAYER_2
 10
83.1357
 20
201.0487
  0
VERTEX
  8
LAYER_2
 10
83.1308
 20
201.1469
  0
VERTEX
  8
LAYER_2
 10
83.1171
 20
201.2442
  0
VERTEX
  8
LAYER_2
 10
83.0935
 20
201.3403
  0
VERTEX
  8
LAYER_2
 10
83.0609
 20
201.434
  0
VERTEX
  8
LAYER_2
 10
83.0194
 20
201.525
  0
VERTEX
  8
LAYER_2
 10
82.9694
 20
201.6122
  0
VERTEX
  8
LAYER_2
 10
82.9112
 20
201.6952
  0
VERTEX
  8
LAYER_2
 10
82.8456
 20
201.7729
  0
VERTEX
  8
LAYER_2
 10
82.7722
 20
201.8457
  0
VERTEX
  8
LAYER_2
 10
82.6926
 20
201.9119
  0
VERTEX
  8
LAYER_2
 10
82.6063
 20
201.9718
  0
VERTEX
  8
LAYER_2
 10
82.5155
 20
202.0245
  0
VERTEX
  8
LAYER_2
 10
82.4191
 20
202.07
  0
VERTEX
  8
LAYER_2
 10
82.3194
 20
202.1074
  0
VERTEX
  8
LAYER_2
 10
82.216
 20
202.137
  0
VERTEX
  8
LAYER_2
 10
82.1106
 20
202.1584
  0
VERTEX
  8
LAYER_2
 10
82.0033
 20
202.1711
  0
VERTEX
  8
LAYER_2
 10
81.8951
 20
202.1754
  0
VERTEX
  8
LAYER_2
 10
81.7873
 20
202.1711
  0
VERTEX
  8
LAYER_2
 10
81.6798
 20
202.1584
  0
VERTEX
  8
LAYER_2
 10
81.5743
 20
202.137
  0
VERTEX
  8
LAYER_2
 10
81.4708
 20
202.1074
  0
VERTEX
  8
LAYER_2
 10
81.3713
 20
202.07
  0
VERTEX
  8
LAYER_2
 10
81.275
 20
202.0245
  0
VERTEX
  8
LAYER_2
 10
81.184
 20
201.9718
  0
VERTEX
  8
LAYER_2
 10
81.0979
 20
201.9119
  0
VERTEX
  8
LAYER_2
 10
81.0183
 20
201.8457
  0
VERTEX
  8
LAYER_2
 10
80.9449
 20
201.7729
  0
VERTEX
  8
LAYER_2
 10
80.8791
 20
201.6952
  0
VERTEX
  8
LAYER_2
 10
80.8207
 20
201.6122
  0
VERTEX
  8
LAYER_2
 10
80.771
 20
201.525
  0
VERTEX
  8
LAYER_2
 10
80.7294
 20
201.434
  0
VERTEX
  8
LAYER_2
 10
80.6969
 20
201.3403
  0
VERTEX
  8
LAYER_2
 10
80.6735
 20
201.2442
  0
VERTEX
  8
LAYER_2
 10
80.6593
 20
201.1469
  0
VERTEX
  8
LAYER_2
 10
80.6547
 20
201.0487
  0
VERTEX
  8
LAYER_2
 10
80.6593
 20
200.9502
  0
VERTEX
  8
LAYER_2
 10
80.6735
 20
200.8529
  0
VERTEX
  8
LAYER_2
 10
80.6969
 20
200.7567
  0
VERTEX
  8
LAYER_2
 10
80.7294
 20
200.663
  0
VERTEX
  8
LAYER_2
 10
80.771
 20
200.5721
  0
VERTEX
  8
LAYER_2
 10
80.8207
 20
200.4851
  0
VERTEX
  8
LAYER_2
 10
80.8791
 20
200.4019
  0
VERTEX
  8
LAYER_2
 10
80.9449
 20
200.3244
  0
VERTEX
  8
LAYER_2
 10
81.0183
 20
200.2515
  0
VERTEX
  8
LAYER_2
 10
81.0979
 20
200.1854
  0
VERTEX
  8
LAYER_2
 10
81.184
 20
200.1254
  0
VERTEX
  8
LAYER_2
 10
81.275
 20
200.0729
  0
VERTEX
  8
LAYER_2
 10
81.3713
 20
200.0272
  0
VERTEX
  8
LAYER_2
 10
81.4708
 20
199.9897
  0
VERTEX
  8
LAYER_2
 10
81.5743
 20
199.9601
  0
VERTEX
  8
LAYER_2
 10
81.6798
 20
199.9389
  0
VERTEX
  8
LAYER_2
 10
81.7873
 20
199.926
  0
VERTEX
  8
LAYER_2
 10
81.8951
 20
199.9216
  0
VERTEX
  8
LAYER_2
 10
82.0033
 20
199.926
  0
VERTEX
  8
LAYER_2
 10
82.1106
 20
199.9389
  0
VERTEX
  8
LAYER_2
 10
82.216
 20
199.9601
  0
VERTEX
  8
LAYER_2
 10
82.3194
 20
199.9897
  0
VERTEX
  8
LAYER_2
 10
82.4191
 20
200.0272
  0
VERTEX
  8
LAYER_2
 10
82.5155
 20
200.0729
  0
VERTEX
  8
LAYER_2
 10
82.6063
 20
200.1254
  0
VERTEX
  8
LAYER_2
 10
82.6926
 20
200.1854
  0
VERTEX
  8
LAYER_2
 10
82.7722
 20
200.2515
  0
VERTEX
  8
LAYER_2
 10
82.8456
 20
200.3244
  0
VERTEX
  8
LAYER_2
 10
82.9112
 20
200.4019
  0
VERTEX
  8
LAYER_2
 10
82.9694
 20
200.4851
  0
VERTEX
  8
LAYER_2
 10
83.0194
 20
200.5721
  0
VERTEX
  8
LAYER_2
 10
83.0609
 20
200.663
  0
VERTEX
  8
LAYER_2
 10
83.0935
 20
200.7567
  0
VERTEX
  8
LAYER_2
 10
83.1171
 20
200.8529
  0
VERTEX
  8
LAYER_2
 10
83.1308
 20
200.9502
  0
SEQEND
  0
ENDBLK
  0
BLOCK
  8
LAYER_2
  2
AIGNBL020400CF
 70
64
 10
0
 20
0
 30
0
  3
AIGNBL020400CF
  0
POLYLINE
  8
LAYER_2
 40
0.2469
 41
0.2469
 66
1
 10
0
 20
0
 30
0
  0
VERTEX
  8
LAYER_2
 10
82.2127
 20
248.4627
  0
VERTEX
  8
LAYER_2
 10
82.2236
 20
248.4644
  0
VERTEX
  8
LAYER_2
 10
82.2344
 20
248.4665
  0
VERTEX
  8
LAYER_2
 10
82.2455
 20
248.4687
  0
VERTEX
  8
LAYER_2
 10
82.2563
 20
248.4711
  0
VERTEX
  8
LAYER_2
 10
82.2668
 20
248.4736
  0
VERTEX
  8
LAYER_2
 10
82.2777
 20
248.4761
  0
VERTEX
  8
LAYER_2
 10
82.2871
 20
248.4785
  0
VERTEX
  8
LAYER_2
 10
82.2966
 20
248.4811
  0
VERTEX
  8
LAYER_2
 10
82.3083
 20
248.4847
  0
VERTEX
  8
LAYER_2
 10
82.32
 20
248.488
  0
VERTEX
  8
LAYER_2
 10
82.3305
 20
248.4915
  0
VERTEX
  8
LAYER_2
 10
82.3409
 20
248.4949
  0
VERTEX
  8
LAYER_2
 10
82.3514
 20
248.4985
  0
VERTEX
  8
LAYER_2
 10
82.3617
 20
248.5021
  0
VERTEX
  8
LAYER_2
 10
82.3721
 20
248.5061
  0
VERTEX
  8
LAYER_2
 10
82.3822
 20
248.5104
  0
VERTEX
  8
LAYER_2
 10
82.3926
 20
248.5144
  0
VERTEX
  8
LAYER_2
 10
82.4027
 20
248.5189
  0
VERTEX
  8
LAYER_2
 10
82.4146
 20
248.524
  0
VERTEX
  8
LAYER_2
 10
82.4265
 20
248.5294
  0
VERTEX
  8
LAYER_2
 10
82.4382
 20
248.5349
  0
VERTEX
  8
LAYER_2
 10
82.4499
 20
248.5406
  0
VERTEX
  8
LAYER_2
 10
82.4615
 20
248.5466
  0
VERTEX
  8
LAYER_2
 10
82.473
 20
248.5526
  0
VERTEX
  8
LAYER_2
 10
82.4806
 20
248.5566
  0
VERTEX
  8
LAYER_2
 10
82.4883
 20
248.5609
  0
VERTEX
  8
LAYER_2
 10
82.4959
 20
248.565
  0
VERTEX
  8
LAYER_2
 10
82.5035
 20
248.5693
  0
VERTEX
  8
LAYER_2
 10
82.5126
 20
248.5747
  0
VERTEX
  8
LAYER_2
 10
82.5219
 20
248.5802
  0
VERTEX
  8
LAYER_2
 10
82.5311
 20
248.5859
  0
VERTEX
  8
LAYER_2
 10
82.5402
 20
248.5917
  0
VERTEX
  8
LAYER_2
 10
82.551
 20
248.5986
  0
VERTEX
  8
LAYER_2
 10
82.5619
 20
248.6058
  0
VERTEX
  8
LAYER_2
 10
82.5727
 20
248.6131
  0
VERTEX
  8
LAYER_2
 10
82.5832
 20
248.6207
  0
VERTEX
  8
LAYER_2
 10
82.5939
 20
248.6282
  0
VERTEX
  8
LAYER_2
 10
82.6043
 20
248.6358
  0
VERTEX
  8
LAYER_2
 10
82.6161
 20
248.6449
  0
VERTEX
  8
LAYER_2
 10
82.6284
 20
248.6542
  0
VERTEX
  8
LAYER_2
 10
82.6401
 20
248.6637
  0
VERTEX
  8
LAYER_2
 10
82.6518
 20
248.6732
  0
VERTEX
  8
LAYER_2
 10
82.6633
 20
248.6828
  0
VERTEX
  8
LAYER_2
 10
82.6749
 20
248.6928
  0
VERTEX
  8
LAYER_2
 10
82.6863
 20
248.7028
  0
VERTEX
  8
LAYER_2
 10
82.6973
 20
248.7132
  0
VERTEX
  8
LAYER_2
 10
82.6993
 20
248.7149
  0
VERTEX
  8
LAYER_2
 10
82.7011
 20
248.7164
  0
VERTEX
  8
LAYER_2
 10
82.7123
 20
248.7276
  0
VERTEX
  8
LAYER_2
 10
82.7233
 20
248.7392
  0
VERTEX
  8
LAYER_2
 10
82.7343
 20
248.7504
  0
VERTEX
  8
LAYER_2
 10
82.7453
 20
248.7616
  0
VERTEX
  8
LAYER_2
 10
82.7564
 20
248.7728
  0
VERTEX
  8
LAYER_2
 10
82.7674
 20
248.784
  0
VERTEX
  8
LAYER_2
 10
82.7786
 20
248.7953
  0
VERTEX
  8
LAYER_2
 10
82.7896
 20
248.8065
  0
VERTEX
  8
LAYER_2
 10
82.8008
 20
248.8184
  0
VERTEX
  8
LAYER_2
 10
82.8118
 20
248.8306
  0
VERTEX
  8
LAYER_2
 10
82.8223
 20
248.8432
  0
VERTEX
  8
LAYER_2
 10
82.8327
 20
248.856
  0
VERTEX
  8
LAYER_2
 10
82.8428
 20
248.8689
  0
VERTEX
  8
LAYER_2
 10
82.8528
 20
248.882
  0
VERTEX
  8
LAYER_2
 10
82.8628
 20
248.8951
  0
VERTEX
  8
LAYER_2
 10
82.8728
 20
248.9081
  0
VERTEX
  8
LAYER_2
 10
82.8744
 20
248.9106
  0
VERTEX
  8
LAYER_2
 10
82.8761
 20
248.9126
  0
VERTEX
  8
LAYER_2
 10
82.884
 20
248.9238
  0
VERTEX
  8
LAYER_2
 10
82.8916
 20
248.9352
  0
VERTEX
  8
LAYER_2
 10
82.8992
 20
248.9464
  0
VERTEX
  8
LAYER_2
 10
82.9069
 20
248.9576
  0
VERTEX
  8
LAYER_2
 10
82.9147
 20
248.969
  0
VERTEX
  8
LAYER_2
 10
82.9224
 20
248.9803
  0
VERTEX
  8
LAYER_2
 10
82.93
 20
248.9915
  0
VERTEX
  8
LAYER_2
 10
82.9377
 20
249.0029
  0
VERTEX
  8
LAYER_2
 10
82.9455
 20
249.0143
  0
VERTEX
  8
LAYER_2
 10
82.9532
 20
249.0255
  0
VERTEX
  8
LAYER_2
 10
82.961
 20
249.0373
  0
VERTEX
  8
LAYER_2
 10
82.9686
 20
249.0492
  0
VERTEX
  8
LAYER_2
 10
82.9762
 20
249.0615
  0
VERTEX
  8
LAYER_2
 10
82.9834
 20
249.0737
  0
VERTEX
  8
LAYER_2
 10
82.9903
 20
249.0861
  0
VERTEX
  8
LAYER_2
 10
82.9973
 20
249.0985
  0
VERTEX
  8
LAYER_2
 10
83.0039
 20
249.1111
  0
VERTEX
  8
LAYER_2
 10
83.011
 20
249.1236
  0
VERTEX
  8
LAYER_2
 10
83.0175
 20
249.1362
  0
VERTEX
  8
LAYER_2
 10
83.0242
 20
249.1486
  0
VERTEX
  8
LAYER_2
 10
83.0254
 20
249.151
  0
VERTEX
  8
LAYER_2
 10
83.0265
 20
249.1531
  0
VERTEX
  8
LAYER_2
 10
83.033
 20
249.1665
  0
VERTEX
  8
LAYER_2
 10
83.0394
 20
249.1798
  0
VERTEX
  8
LAYER_2
 10
83.0457
 20
249.1931
  0
VERTEX
  8
LAYER_2
 10
83.052
 20
249.2063
  0
VERTEX
  8
LAYER_2
 10
83.0583
 20
249.2196
  0
VERTEX
  8
LAYER_2
 10
83.0647
 20
249.233
  0
VERTEX
  8
LAYER_2
 10
83.0711
 20
249.2463
  0
VERTEX
  8
LAYER_2
 10
83.0776
 20
249.2595
  0
VERTEX
  8
LAYER_2
 10
83.084
 20
249.2726
  0
VERTEX
  8
LAYER_2
 10
83.0904
 20
249.2861
  0
VERTEX
  8
LAYER_2
 10
83.0967
 20
249.2999
  0
VERTEX
  8
LAYER_2
 10
83.1029
 20
249.3136
  0
VERTEX
  8
LAYER_2
 10
83.1088
 20
249.3278
  0
VERTEX
  8
LAYER_2
 10
83.1147
 20
249.3417
  0
VERTEX
  8
LAYER_2
 10
83.1203
 20
249.356
  0
VERTEX
  8
LAYER_2
 10
83.1257
 20
249.3701
  0
VERTEX
  8
LAYER_2
 10
83.1312
 20
249.3844
  0
VERTEX
  8
LAYER_2
 10
83.1365
 20
249.3989
  0
VERTEX
  8
LAYER_2
 10
83.1417
 20
249.413
  0
VERTEX
  8
LAYER_2
 10
83.1469
 20
249.4275
  0
VERTEX
  8
LAYER_2
 10
83.1476
 20
249.4294
  0
VERTEX
  8
LAYER_2
 10
83.1484
 20
249.4315
  0
VERTEX
  8
LAYER_2
 10
83.1532
 20
249.4463
  0
VERTEX
  8
LAYER_2
 10
83.1581
 20
249.4611
  0
VERTEX
  8
LAYER_2
 10
83.1629
 20
249.4759
  0
VERTEX
  8
LAYER_2
 10
83.1677
 20
249.4909
  0
VERTEX
  8
LAYER_2
 10
83.1725
 20
249.5059
  0
VERTEX
  8
LAYER_2
 10
83.1774
 20
249.5207
  0
VERTEX
  8
LAYER_2
 10
83.1823
 20
249.5355
  0
VERTEX
  8
LAYER_2
 10
83.1872
 20
249.5505
  0
VERTEX
  8
LAYER_2
 10
83.1922
 20
249.5655
  0
VERTEX
  8
LAYER_2
 10
83.1968
 20
249.5803
  0
VERTEX
  8
LAYER_2
 10
83.2016
 20
249.5956
  0
VERTEX
  8
LAYER_2
 10
83.2063
 20
249.6111
  0
VERTEX
  8
LAYER_2
 10
83.2108
 20
249.6265
  0
VERTEX
  8
LAYER_2
 10
83.2149
 20
249.642
  0
VERTEX
  8
LAYER_2
 10
83.2189
 20
249.6576
  0
VERTEX
  8
LAYER_2
 10
83.2228
 20
249.6731
  0
VERTEX
  8
LAYER_2
 10
83.2264
 20
249.6888
  0
VERTEX
  8
LAYER_2
 10
83.2302
 20
249.7045
  0
VERTEX
  8
LAYER_2
 10
83.2339
 20
249.7202
  0
VERTEX
  8
LAYER_2
 10
83.2373
 20
249.7358
  0
VERTEX
  8
LAYER_2
 10
83.2378
 20
249.7372
  0
VERTEX
  8
LAYER_2
 10
83.238
 20
249.7386
  0
VERTEX
  8
LAYER_2
 10
83.2414
 20
249.7548
  0
VERTEX
  8
LAYER_2
 10
83.2445
 20
249.771
  0
VERTEX
  8
LAYER_2
 10
83.2476
 20
249.787
  0
VERTEX
  8
LAYER_2
 10
83.2509
 20
249.803
  0
VERTEX
  8
LAYER_2
 10
83.2538
 20
249.819
  0
VERTEX
  8
LAYER_2
 10
83.2573
 20
249.8351
  0
VERTEX
  8
LAYER_2
 10
83.2602
 20
249.8511
  0
VERTEX
  8
LAYER_2
 10
83.2635
 20
249.8673
  0
VERTEX
  8
LAYER_2
 10
83.2666
 20
249.8833
  0
VERTEX
  8
LAYER_2
 10
83.2697
 20
249.8993
  0
VERTEX
  8
LAYER_2
 10
83.273
 20
249.9157
  0
VERTEX
  8
LAYER_2
 10
83.2757
 20
249.932
  0
VERTEX
  8
LAYER_2
 10
83.2783
 20
249.9486
  0
VERTEX
  8
LAYER_2
 10
83.2809
 20
249.9651
  0
VERTEX
  8
LAYER_2
 10
83.2829
 20
249.9816
  0
VERTEX
  8
LAYER_2
 10
83.285
 20
249.9982
  0
VERTEX
  8
LAYER_2
 10
83.2871
 20
250.0149
  0
VERTEX
  8
LAYER_2
 10
83.289
 20
250.0312
  0
VERTEX
  8
LAYER_2
 10
83.2909
 20
250.0478
  0
VERTEX
  8
LAYER_2
 10
83.2929
 20
250.0643
  0
VERTEX
  8
LAYER_2
 10
83.2929
 20
250.0654
  0
VERTEX
  8
LAYER_2
 10
83.2929
 20
250.0659
  0
VERTEX
  8
LAYER_2
 10
83.2945
 20
250.0828
  0
VERTEX
  8
LAYER_2
 10
83.2957
 20
250.0995
  0
VERTEX
  8
LAYER_2
 10
83.2971
 20
250.1163
  0
VERTEX
  8
LAYER_2
 10
83.2986
 20
250.1331
  0
VERTEX
  8
LAYER_2
 10
83.2998
 20
250.1499
  0
VERTEX
  8
LAYER_2
 10
83.3014
 20
250.1665
  0
VERTEX
  8
LAYER_2
 10
83.3026
 20
250.1834
  0
VERTEX
  8
LAYER_2
 10
83.3041
 20
250.2001
  0
VERTEX
  8
LAYER_2
 10
83.3055
 20
250.2169
  0
VERTEX
  8
LAYER_2
 10
83.3067
 20
250.2336
  0
VERTEX
  8
LAYER_2
 10
83.3079
 20
250.2505
  0
VERTEX
  8
LAYER_2
 10
83.3091
 20
250.2674
  0
VERTEX
  8
LAYER_2
 10
83.3098
 20
250.2845
  0
VERTEX
  8
LAYER_2
 10
83.3103
 20
250.3013
  0
VERTEX
  8
LAYER_2
 10
83.311
 20
250.3184
  0
VERTEX
  8
LAYER_2
 10
83.3114
 20
250.3355
  0
VERTEX
  8
LAYER_2
 10
83.3115
 20
250.3523
  0
VERTEX
  8
LAYER_2
 10
83.3117
 20
250.3694
  0
VERTEX
  8
LAYER_2
 10
83.3117
 20
250.3863
  0
VERTEX
  8
LAYER_2
 10
83.3114
 20
250.4033
  0
VERTEX
  8
LAYER_2
 10
83.3114
 20
250.4204
  0
VERTEX
  8
LAYER_2
 10
83.311
 20
250.4374
  0
VERTEX
  8
LAYER_2
 10
83.3107
 20
250.4543
  0
VERTEX
  8
LAYER_2
 10
83.3103
 20
250.4712
  0
VERTEX
  8
LAYER_2
 10
83.3102
 20
250.4882
  0
VERTEX
  8
LAYER_2
 10
83.3095
 20
250.5053
  0
VERTEX
  8
LAYER_2
 10
83.3091
 20
250.5222
  0
VERTEX
  8
LAYER_2
 10
83.3083
 20
250.5392
  0
VERTEX
  8
LAYER_2
 10
83.3077
 20
250.5561
  0
VERTEX
  8
LAYER_2
 10
83.3067
 20
250.573
  0
VERTEX
  8
LAYER_2
 10
83.3059
 20
250.59
  0
VERTEX
  8
LAYER_2
 10
83.3048
 20
250.6066
  0
VERTEX
  8
LAYER_2
 10
83.3038
 20
250.6235
  0
VERTEX
  8
LAYER_2
 10
83.3024
 20
250.6402
  0
VERTEX
  8
LAYER_2
 10
83.301
 20
250.6571
  0
VERTEX
  8
LAYER_2
 10
83.2995
 20
250.6738
  0
VERTEX
  8
LAYER_2
 10
83.2981
 20
250.6906
  0
VERTEX
  8
LAYER_2
 10
83.2966
 20
250.7072
  0
VERTEX
  8
LAYER_2
 10
83.2947
 20
250.7241
  0
VERTEX
  8
LAYER_2
 10
83.2929
 20
250.7408
  0
VERTEX
  8
LAYER_2
 10
83.2929
 20
250.7415
  0
VERTEX
  8
LAYER_2
 10
83.2929
 20
250.7423
  0
VERTEX
  8
LAYER_2
 10
83.2907
 20
250.7589
  0
VERTEX
  8
LAYER_2
 10
83.2883
 20
250.7752
  0
VERTEX
  8
LAYER_2
 10
83.2859
 20
250.7919
  0
VERTEX
  8
LAYER_2
 10
83.2835
 20
250.8083
  0
VERTEX
  8
LAYER_2
 10
83.2814
 20
250.8248
  0
VERTEX
  8
LAYER_2
 10
83.279
 20
250.8414
  0
VERTEX
  8
LAYER_2
 10
83.2767
 20
250.8579
  0
VERTEX
  8
LAYER_2
 10
83.2745
 20
250.8743
  0
VERTEX
  8
LAYER_2
 10
83.2721
 20
250.891
  0
VERTEX
  8
LAYER_2
 10
83.2697
 20
250.9073
  0
VERTEX
  8
LAYER_2
 10
83.2673
 20
250.9235
  0
VERTEX
  8
LAYER_2
 10
83.2649
 20
250.9397
  0
VERTEX
  8
LAYER_2
 10
83.2619
 20
250.9559
  0
VERTEX
  8
LAYER_2
 10
83.2587
 20
250.9719
  0
VERTEX
  8
LAYER_2
 10
83.2557
 20
250.988
  0
VERTEX
  8
LAYER_2
 10
83.2525
 20
251.004
  0
VERTEX
  8
LAYER_2
 10
83.2488
 20
251.02
  0
VERTEX
  8
LAYER_2
 10
83.2452
 20
251.036
  0
VERTEX
  8
LAYER_2
 10
83.2416
 20
251.052
  0
VERTEX
  8
LAYER_2
 10
83.238
 20
251.0681
  0
VERTEX
  8
LAYER_2
 10
83.2378
 20
251.0694
  0
VERTEX
  8
LAYER_2
 10
83.2373
 20
251.0708
  0
VERTEX
  8
LAYER_2
 10
83.2333
 20
251.0865
  0
VERTEX
  8
LAYER_2
 10
83.2294
 20
251.102
  0
VERTEX
  8
LAYER_2
 10
83.2252
 20
251.1177
  0
VERTEX
  8
LAYER_2
 10
83.2213
 20
251.133
  0
VERTEX
  8
LAYER_2
 10
83.2171
 20
251.1488
  0
VERTEX
  8
LAYER_2
 10
83.2132
 20
251.1642
  0
VERTEX
  8
LAYER_2
 10
83.209
 20
251.1798
  0
VERTEX
  8
LAYER_2
 10
83.2049
 20
251.1953
  0
VERTEX
  8
LAYER_2
 10
83.201
 20
251.211
  0
VERTEX
  8
LAYER_2
 10
83.1968
 20
251.2264
  0
VERTEX
  8
LAYER_2
 10
83.1929
 20
251.2415
  0
VERTEX
  8
LAYER_2
 10
83.1885
 20
251.2567
  0
VERTEX
  8
LAYER_2
 10
83.1839
 20
251.2717
  0
VERTEX
  8
LAYER_2
 10
83.1792
 20
251.2866
  0
VERTEX
  8
LAYER_2
 10
83.1744
 20
251.3015
  0
VERTEX
  8
LAYER_2
 10
83.1693
 20
251.3163
  0
VERTEX
  8
LAYER_2
 10
83.1641
 20
251.3311
  0
VERTEX
  8
LAYER_2
 10
83.1589
 20
251.3459
  0
VERTEX
  8
LAYER_2
 10
83.1536
 20
251.3607
  0
VERTEX
  8
LAYER_2
 10
83.1484
 20
251.3754
  0
VERTEX
  8
LAYER_2
 10
83.1476
 20
251.3772
  0
VERTEX
  8
LAYER_2
 10
83.1469
 20
251.3793
  0
VERTEX
  8
LAYER_2
 10
83.1415
 20
251.3934
  0
VERTEX
  8
LAYER_2
 10
83.1357
 20
251.4074
  0
VERTEX
  8
LAYER_2
 10
83.13
 20
251.4217
  0
VERTEX
  8
LAYER_2
 10
83.1243
 20
251.4358
  0
VERTEX
  8
LAYER_2
 10
83.1186
 20
251.4501
  0
VERTEX
  8
LAYER_2
 10
83.1131
 20
251.4641
  0
VERTEX
  8
LAYER_2
 10
83.1072
 20
251.4782
  0
VERTEX
  8
LAYER_2
 10
83.1016
 20
251.4923
  0
VERTEX
  8
LAYER_2
 10
83.096
 20
251.5066
  0
VERTEX
  8
LAYER_2
 10
83.0904
 20
251.5207
  0
VERTEX
  8
LAYER_2
 10
83.0847
 20
251.5343
  0
VERTEX
  8
LAYER_2
 10
83.079
 20
251.5478
  0
VERTEX
  8
LAYER_2
 10
83.0728
 20
251.5612
  0
VERTEX
  8
LAYER_2
 10
83.0666
 20
251.5747
  0
VERTEX
  8
LAYER_2
 10
83.0602
 20
251.5879
  0
VERTEX
  8
LAYER_2
 10
83.0535
 20
251.6012
  0
VERTEX
  8
LAYER_2
 10
83.047
 20
251.6143
  0
VERTEX
  8
LAYER_2
 10
83.0402
 20
251.6274
  0
VERTEX
  8
LAYER_2
 10
83.0333
 20
251.6405
  0
VERTEX
  8
LAYER_2
 10
83.0265
 20
251.6535
  0
VERTEX
  8
LAYER_2
 10
83.0254
 20
251.6556
  0
VERTEX
  8
LAYER_2
 10
83.0242
 20
251.658
  0
VERTEX
  8
LAYER_2
 10
83.0173
 20
251.6704
  0
VERTEX
  8
LAYER_2
 10
83.0099
 20
251.6825
  0
VERTEX
  8
LAYER_2
 10
83.0027
 20
251.6949
  0
VERTEX
  8
LAYER_2
 10
82.9958
 20
251.7073
  0
VERTEX
  8
LAYER_2
 10
82.9886
 20
251.7197
  0
VERTEX
  8
LAYER_2
 10
82.9817
 20
251.7319
  0
VERTEX
  8
LAYER_2
 10
82.9743
 20
251.7442
  0
VERTEX
  8
LAYER_2
 10
82.9674
 20
251.7566
  0
VERTEX
  8
LAYER_2
 10
82.9603
 20
251.769
  0
VERTEX
  8
LAYER_2
 10
82.9532
 20
251.7814
  0
VERTEX
  8
LAYER_2
 10
82.9462
 20
251.7929
  0
VERTEX
  8
LAYER_2
 10
82.939
 20
251.8046
  0
VERTEX
  8
LAYER_2
 10
82.9317
 20
251.8162
  0
VERTEX
  8
LAYER_2
 10
82.924
 20
251.8275
  0
VERTEX
  8
LAYER_2
 10
82.9164
 20
251.8387
  0
VERTEX
  8
LAYER_2
 10
82.9085
 20
251.8499
  0
VERTEX
  8
LAYER_2
 10
82.9004
 20
251.8611
  0
VERTEX
  8
LAYER_2
 10
82.8924
 20
251.8721
  0
VERTEX
  8
LAYER_2
 10
82.8843
 20
251.8832
  0
VERTEX
  8
LAYER_2
 10
82.8761
 20
251.894
  0
VERTEX
  8
LAYER_2
 10
82.8744
 20
251.8963
  0
VERTEX
  8
LAYER_2
 10
82.8728
 20
251.8985
  0
VERTEX
  8
LAYER_2
 10
82.8625
 20
251.9112
  0
VERTEX
  8
LAYER_2
 10
82.852
 20
251.924
  0
VERTEX
  8
LAYER_2
 10
82.8415
 20
251.9367
  0
VERTEX
  8
LAYER_2
 10
82.8311
 20
251.9493
  0
VERTEX
  8
LAYER_2
 10
82.8208
 20
251.9621
  0
VERTEX
  8
LAYER_2
 10
82.8104
 20
251.9748
  0
VERTEX
  8
LAYER_2
 10
82.7999
 20
251.9874
  0
VERTEX
  8
LAYER_2
 10
82.7896
 20
252.0001
  0
VERTEX
  8
LAYER_2
 10
82.7794
 20
252.0122
  0
VERTEX
  8
LAYER_2
 10
82.7688
 20
252.0241
  0
VERTEX
  8
LAYER_2
 10
82.7579
 20
252.0354
  0
VERTEX
  8
LAYER_2
 10
82.7471
 20
252.0466
  0
VERTEX
  8
LAYER_2
 10
82.7357
 20
252.0577
  0
VERTEX
  8
LAYER_2
 10
82.7243
 20
252.0687
  0
VERTEX
  8
LAYER_2
 10
82.713
 20
252.0794
  0
VERTEX
  8
LAYER_2
 10
82.7011
 20
252.0902
  0
VERTEX
  8
LAYER_2
 10
82.6993
 20
252.0919
  0
VERTEX
  8
LAYER_2
 10
82.6973
 20
252.0935
  0
VERTEX
  8
LAYER_2
 10
82.6859
 20
252.1035
  0
VERTEX
  8
LAYER_2
 10
82.6742
 20
252.1128
  0
VERTEX
  8
LAYER_2
 10
82.6625
 20
252.1226
  0
VERTEX
  8
LAYER_2
 10
82.6508
 20
252.1322
  0
VERTEX
  8
LAYER_2
 10
82.6392
 20
252.1419
  0
VERTEX
  8
LAYER_2
 10
82.6275
 20
252.1515
  0
VERTEX
  8
LAYER_2
 10
82.616
 20
252.1612
  0
VERTEX
  8
LAYER_2
 10
82.6043
 20
252.1708
  0
VERTEX
  8
LAYER_2
 10
82.5941
 20
252.1788
  0
VERTEX
  8
LAYER_2
 10
82.5836
 20
252.1865
  0
VERTEX
  8
LAYER_2
 10
82.5729
 20
252.1941
  0
VERTEX
  8
LAYER_2
 10
82.5621
 20
252.2011
  0
VERTEX
  8
LAYER_2
 10
82.5512
 20
252.2082
  0
VERTEX
  8
LAYER_2
 10
82.5402
 20
252.2151
  0
VERTEX
  8
LAYER_2
 10
82.5311
 20
252.2208
  0
VERTEX
  8
LAYER_2
 10
82.5219
 20
252.2265
  0
VERTEX
  8
LAYER_2
 10
82.5126
 20
252.232
  0
VERTEX
  8
LAYER_2
 10
82.5035
 20
252.2373
  0
VERTEX
  8
LAYER_2
 10
82.4959
 20
252.2416
  0
VERTEX
  8
LAYER_2
 10
82.4883
 20
252.2458
  0
VERTEX
  8
LAYER_2
 10
82.4806
 20
252.2501
  0
VERTEX
  8
LAYER_2
 10
82.473
 20
252.2542
  0
VERTEX
  8
LAYER_2
 10
82.4615
 20
252.2602
  0
VERTEX
  8
LAYER_2
 10
82.4499
 20
252.2661
  0
VERTEX
  8
LAYER_2
 10
82.4382
 20
252.2718
  0
VERTEX
  8
LAYER_2
 10
82.4265
 20
252.2773
  0
VERTEX
  8
LAYER_2
 10
82.4146
 20
252.2826
  0
VERTEX
  8
LAYER_2
 10
82.4027
 20
252.2878
  0
VERTEX
  8
LAYER_2
 10
82.3914
 20
252.2926
  0
VERTEX
  8
LAYER_2
 10
82.38
 20
252.2973
  0
VERTEX
  8
LAYER_2
 10
82.3686
 20
252.3017
  0
VERTEX
  8
LAYER_2
 10
82.3572
 20
252.306
  0
VERTEX
  8
LAYER_2
 10
82.3454
 20
252.3102
  0
VERTEX
  8
LAYER_2
 10
82.334
 20
252.3141
  0
VERTEX
  8
LAYER_2
 10
82.3245
 20
252.3171
  0
VERTEX
  8
LAYER_2
 10
82.3154
 20
252.32
  0
VERTEX
  8
LAYER_2
 10
82.3059
 20
252.3229
  0
VERTEX
  8
LAYER_2
 10
82.2966
 20
252.3255
  0
VERTEX
  8
LAYER_2
 10
82.2883
 20
252.3278
  0
VERTEX
  8
LAYER_2
 10
82.2799
 20
252.3298
  0
VERTEX
  8
LAYER_2
 10
82.2716
 20
252.3319
  0
VERTEX
  8
LAYER_2
 10
82.2634
 20
252.3341
  0
VERTEX
  8
LAYER_2
 10
82.2515
 20
252.3367
  0
VERTEX
  8
LAYER_2
 10
82.2393
 20
252.3393
  0
VERTEX
  8
LAYER_2
 10
82.2272
 20
252.3417
  0
VERTEX
  8
LAYER_2
 10
82.2151
 20
252.3438
  0
VERTEX
  8
LAYER_2
 10
82.2031
 20
252.3457
  0
VERTEX
  8
LAYER_2
 10
82.191
 20
252.3474
  0
VERTEX
  8
LAYER_2
 10
82.179
 20
252.3491
  0
VERTEX
  8
LAYER_2
 10
82.1671
 20
252.3505
  0
VERTEX
  8
LAYER_2
 10
82.1552
 20
252.3515
  0
VERTEX
  8
LAYER_2
 10
82.1433
 20
252.3529
  0
VERTEX
  8
LAYER_2
 10
82.1311
 20
252.3538
  0
VERTEX
  8
LAYER_2
 10
82.1192
 20
252.3543
  0
VERTEX
  8
LAYER_2
 10
82.1102
 20
252.3546
  0
VERTEX
  8
LAYER_2
 10
82.1013
 20
252.355
  0
VERTEX
  8
LAYER_2
 10
82.0923
 20
252.3551
  0
VERTEX
  8
LAYER_2
 10
82.0834
 20
252.3551
  0
VERTEX
  8
LAYER_2
 10
82.0744
 20
252.3551
  0
VERTEX
  8
LAYER_2
 10
82.0654
 20
252.355
  0
VERTEX
  8
LAYER_2
 10
82.0565
 20
252.3546
  0
VERTEX
  8
LAYER_2
 10
82.0474
 20
252.3543
  0
VERTEX
  8
LAYER_2
 10
82.0355
 20
252.3538
  0
VERTEX
  8
LAYER_2
 10
82.0236
 20
252.3529
  0
VERTEX
  8
LAYER_2
 10
82.0115
 20
252.3515
  0
VERTEX
  8
LAYER_2
 10
81.9996
 20
252.3505
  0
VERTEX
  8
LAYER_2
 10
81.9876
 20
252.3491
  0
VERTEX
  8
LAYER_2
 10
81.9759
 20
252.3474
  0
VERTEX
  8
LAYER_2
 10
81.9636
 20
252.3457
  0
VERTEX
  8
LAYER_2
 10
81.9514
 20
252.3438
  0
SEQEND
  0
POLYLINE
  8
LAYER_2
 40
0.2469
 41
0.2469
 66
1
 10
0
 20
0
 30
0
  0
VERTEX
  8
LAYER_2
 10
81.9514
 20
252.3438
  0
VERTEX
  8
LAYER_2
 10
81.9394
 20
252.3417
  0
VERTEX
  8
LAYER_2
 10
81.9273
 20
252.3393
  0
VERTEX
  8
LAYER_2
 10
81.9154
 20
252.3367
  0
VERTEX
  8
LAYER_2
 10
81.9034
 20
252.3341
  0
VERTEX
  8
LAYER_2
 10
81.8949
 20
252.3319
  0
VERTEX
  8
LAYER_2
 10
81.8866
 20
252.3298
  0
VERTEX
  8
LAYER_2
 10
81.8784
 20
252.3278
  0
VERTEX
  8
LAYER_2
 10
81.8699
 20
252.3255
  0
VERTEX
  8
LAYER_2
 10
81.8606
 20
252.3229
  0
VERTEX
  8
LAYER_2
 10
81.8513
 20
252.32
  0
VERTEX
  8
LAYER_2
 10
81.8419
 20
252.3171
  0
VERTEX
  8
LAYER_2
 10
81.8329
 20
252.3141
  0
VERTEX
  8
LAYER_2
 10
81.821
 20
252.3102
  0
VERTEX
  8
LAYER_2
 10
81.8096
 20
252.306
  0
VERTEX
  8
LAYER_2
 10
81.7981
 20
252.3017
  0
VERTEX
  8
LAYER_2
 10
81.7866
 20
252.2973
  0
VERTEX
  8
LAYER_2
 10
81.7752
 20
252.2926
  0
VERTEX
  8
LAYER_2
 10
81.764
 20
252.2878
  0
VERTEX
  8
LAYER_2
 10
81.7521
 20
252.2826
  0
VERTEX
  8
LAYER_2
 10
81.7402
 20
252.2773
  0
VERTEX
  8
LAYER_2
 10
81.7285
 20
252.2718
  0
VERTEX
  8
LAYER_2
 10
81.7168
 20
252.2661
  0
VERTEX
  8
LAYER_2
 10
81.7051
 20
252.2602
  0
VERTEX
  8
LAYER_2
 10
81.6937
 20
252.2542
  0
VERTEX
  8
LAYER_2
 10
81.686
 20
252.2501
  0
VERTEX
  8
LAYER_2
 10
81.6784
 20
252.2458
  0
VERTEX
  8
LAYER_2
 10
81.6708
 20
252.2416
  0
VERTEX
  8
LAYER_2
 10
81.6632
 20
252.2373
  0
VERTEX
  8
LAYER_2
 10
81.6539
 20
252.232
  0
VERTEX
  8
LAYER_2
 10
81.6448
 20
252.2265
  0
VERTEX
  8
LAYER_2
 10
81.6355
 20
252.221
  0
VERTEX
  8
LAYER_2
 10
81.6264
 20
252.2151
  0
VERTEX
  8
LAYER_2
 10
81.6155
 20
252.208
  0
VERTEX
  8
LAYER_2
 10
81.6047
 20
252.201
  0
VERTEX
  8
LAYER_2
 10
81.5942
 20
252.1936
  0
VERTEX
  8
LAYER_2
 10
81.5835
 20
252.1862
  0
VERTEX
  8
LAYER_2
 10
81.573
 20
252.1784
  0
VERTEX
  8
LAYER_2
 10
81.5623
 20
252.1708
  0
VERTEX
  8
LAYER_2
 10
81.5502
 20
252.1619
  0
VERTEX
  8
LAYER_2
 10
81.5385
 20
252.1524
  0
VERTEX
  8
LAYER_2
 10
81.5265
 20
252.1431
  0
VERTEX
  8
LAYER_2
 10
81.5149
 20
252.1334
  0
VERTEX
  8
LAYER_2
 10
81.5032
 20
252.1238
  0
VERTEX
  8
LAYER_2
 10
81.4918
 20
252.1138
  0
VERTEX
  8
LAYER_2
 10
81.4805
 20
252.1038
  0
VERTEX
  8
LAYER_2
 10
81.4693
 20
252.0935
  0
VERTEX
  8
LAYER_2
 10
81.4676
 20
252.0919
  0
VERTEX
  8
LAYER_2
 10
81.4653
 20
252.0902
  0
VERTEX
  8
LAYER_2
 10
81.4541
 20
252.079
  0
VERTEX
  8
LAYER_2
 10
81.4433
 20
252.0675
  0
VERTEX
  8
LAYER_2
 10
81.4324
 20
252.0563
  0
VERTEX
  8
LAYER_2
 10
81.4212
 20
252.0453
  0
VERTEX
  8
LAYER_2
 10
81.4102
 20
252.0339
  0
VERTEX
  8
LAYER_2
 10
81.3992
 20
252.0227
  0
VERTEX
  8
LAYER_2
 10
81.3881
 20
252.0113
  0
VERTEX
  8
LAYER_2
 10
81.3771
 20
252.0001
  0
VERTEX
  8
LAYER_2
 10
81.3659
 20
251.9882
  0
VERTEX
  8
LAYER_2
 10
81.3549
 20
251.976
  0
VERTEX
  8
LAYER_2
 10
81.3442
 20
251.9636
  0
VERTEX
  8
LAYER_2
 10
81.3339
 20
251.9507
  0
VERTEX
  8
LAYER_2
 10
81.3235
 20
251.9379
  0
VERTEX
  8
LAYER_2
 10
81.3136
 20
251.9247
  0
VERTEX
  8
LAYER_2
 10
81.3037
 20
251.9116
  0
VERTEX
  8
LAYER_2
 10
81.2939
 20
251.8985
  0
VERTEX
  8
LAYER_2
 10
81.2922
 20
251.8963
  0
VERTEX
  8
LAYER_2
 10
81.2906
 20
251.894
  0
VERTEX
  8
LAYER_2
 10
81.2827
 20
251.8828
  0
VERTEX
  8
LAYER_2
 10
81.2753
 20
251.8716
  0
VERTEX
  8
LAYER_2
 10
81.2674
 20
251.8603
  0
VERTEX
  8
LAYER_2
 10
81.2598
 20
251.8491
  0
VERTEX
  8
LAYER_2
 10
81.2521
 20
251.8377
  0
VERTEX
  8
LAYER_2
 10
81.2445
 20
251.8263
  0
VERTEX
  8
LAYER_2
 10
81.2366
 20
251.8151
  0
VERTEX
  8
LAYER_2
 10
81.229
 20
251.8038
  0
VERTEX
  8
LAYER_2
 10
81.2212
 20
251.7926
  0
VERTEX
  8
LAYER_2
 10
81.2136
 20
251.7814
  0
VERTEX
  8
LAYER_2
 10
81.2057
 20
251.7693
  0
VERTEX
  8
LAYER_2
 10
81.1978
 20
251.7574
  0
VERTEX
  8
LAYER_2
 10
81.1906
 20
251.7452
  0
VERTEX
  8
LAYER_2
 10
81.1833
 20
251.733
  0
VERTEX
  8
LAYER_2
 10
81.1764
 20
251.7206
  0
VERTEX
  8
LAYER_2
 10
81.1696
 20
251.7082
  0
VERTEX
  8
LAYER_2
 10
81.1625
 20
251.6956
  0
VERTEX
  8
LAYER_2
 10
81.1559
 20
251.6832
  0
VERTEX
  8
LAYER_2
 10
81.1492
 20
251.6704
  0
VERTEX
  8
LAYER_2
 10
81.1425
 20
251.658
  0
VERTEX
  8
LAYER_2
 10
81.1413
 20
251.6556
  0
VERTEX
  8
LAYER_2
 10
81.1401
 20
251.6535
  0
VERTEX
  8
LAYER_2
 10
81.1337
 20
251.6401
  0
VERTEX
  8
LAYER_2
 10
81.1275
 20
251.6268
  0
VERTEX
  8
LAYER_2
 10
81.1211
 20
251.6136
  0
VERTEX
  8
LAYER_2
 10
81.1146
 20
251.6003
  0
VERTEX
  8
LAYER_2
 10
81.1081
 20
251.5871
  0
VERTEX
  8
LAYER_2
 10
81.1019
 20
251.5736
  0
VERTEX
  8
LAYER_2
 10
81.0955
 20
251.5605
  0
VERTEX
  8
LAYER_2
 10
81.0891
 20
251.5473
  0
VERTEX
  8
LAYER_2
 10
81.0827
 20
251.5342
  0
VERTEX
  8
LAYER_2
 10
81.0764
 20
251.5207
  0
VERTEX
  8
LAYER_2
 10
81.07
 20
251.507
  0
VERTEX
  8
LAYER_2
 10
81.0636
 20
251.493
  0
VERTEX
  8
LAYER_2
 10
81.0576
 20
251.4791
  0
VERTEX
  8
LAYER_2
 10
81.0519
 20
251.4649
  0
VERTEX
  8
LAYER_2
 10
81.0464
 20
251.4506
  0
VERTEX
  8
LAYER_2
 10
81.0409
 20
251.4365
  0
VERTEX
  8
LAYER_2
 10
81.0355
 20
251.4222
  0
VERTEX
  8
LAYER_2
 10
81.0302
 20
251.4077
  0
VERTEX
  8
LAYER_2
 10
81.025
 20
251.3936
  0
VERTEX
  8
LAYER_2
 10
81.0199
 20
251.3793
  0
VERTEX
  8
LAYER_2
 10
81.019
 20
251.3772
  0
VERTEX
  8
LAYER_2
 10
81.0183
 20
251.3754
  0
VERTEX
  8
LAYER_2
 10
81.0131
 20
251.3605
  0
VERTEX
  8
LAYER_2
 10
81.0087
 20
251.3456
  0
VERTEX
  8
LAYER_2
 10
81.0038
 20
251.3307
  0
VERTEX
  8
LAYER_2
 10
80.9988
 20
251.3159
  0
VERTEX
  8
LAYER_2
 10
80.994
 20
251.3008
  0
VERTEX
  8
LAYER_2
 10
80.9892
 20
251.286
  0
VERTEX
  8
LAYER_2
 10
80.9842
 20
251.2711
  0
VERTEX
  8
LAYER_2
 10
80.9794
 20
251.2562
  0
VERTEX
  8
LAYER_2
 10
80.9746
 20
251.2412
  0
VERTEX
  8
LAYER_2
 10
80.9697
 20
251.2264
  0
VERTEX
  8
LAYER_2
 10
80.9649
 20
251.211
  0
VERTEX
  8
LAYER_2
 10
80.9603
 20
251.1957
  0
VERTEX
  8
LAYER_2
 10
80.956
 20
251.1802
  0
VERTEX
  8
LAYER_2
 10
80.9518
 20
251.1647
  0
VERTEX
  8
LAYER_2
 10
80.9479
 20
251.149
  0
VERTEX
  8
LAYER_2
 10
80.9441
 20
251.1337
  0
VERTEX
  8
LAYER_2
 10
80.9401
 20
251.118
  0
VERTEX
  8
LAYER_2
 10
80.9365
 20
251.1022
  0
VERTEX
  8
LAYER_2
 10
80.9329
 20
251.0865
  0
VERTEX
  8
LAYER_2
 10
80.9293
 20
251.0708
  0
VERTEX
  8
LAYER_2
 10
80.9289
 20
251.0694
  0
VERTEX
  8
LAYER_2
 10
80.9286
 20
251.0681
  0
VERTEX
  8
LAYER_2
 10
80.9253
 20
251.052
  0
VERTEX
  8
LAYER_2
 10
80.9222
 20
251.0358
  0
VERTEX
  8
LAYER_2
 10
80.9191
 20
251.0196
  0
VERTEX
  8
LAYER_2
 10
80.916
 20
251.0036
  0
VERTEX
  8
LAYER_2
 10
80.9127
 20
250.9876
  0
VERTEX
  8
LAYER_2
 10
80.9096
 20
250.9716
  0
VERTEX
  8
LAYER_2
 10
80.9063
 20
250.9556
  0
VERTEX
  8
LAYER_2
 10
80.9032
 20
250.9395
  0
VERTEX
  8
LAYER_2
 10
80.9
 20
250.9235
  0
VERTEX
  8
LAYER_2
 10
80.8969
 20
250.9073
  0
VERTEX
  8
LAYER_2
 10
80.8938
 20
250.891
  0
VERTEX
  8
LAYER_2
 10
80.891
 20
250.8746
  0
VERTEX
  8
LAYER_2
 10
80.8884
 20
250.8581
  0
VERTEX
  8
LAYER_2
 10
80.886
 20
250.8417
  0
VERTEX
  8
LAYER_2
 10
80.8836
 20
250.825
  0
VERTEX
  8
LAYER_2
 10
80.8815
 20
250.8085
  0
VERTEX
  8
LAYER_2
 10
80.8796
 20
250.7919
  0
VERTEX
  8
LAYER_2
 10
80.8776
 20
250.7756
  0
VERTEX
  8
LAYER_2
 10
80.8757
 20
250.7589
  0
VERTEX
  8
LAYER_2
 10
80.874
 20
250.7423
  0
VERTEX
  8
LAYER_2
 10
80.874
 20
250.7416
  0
VERTEX
  8
LAYER_2
 10
80.8736
 20
250.7408
  0
VERTEX
  8
LAYER_2
 10
80.8721
 20
250.7241
  0
VERTEX
  8
LAYER_2
 10
80.8709
 20
250.7072
  0
VERTEX
  8
LAYER_2
 10
80.8697
 20
250.6905
  0
VERTEX
  8
LAYER_2
 10
80.8681
 20
250.6738
  0
VERTEX
  8
LAYER_2
 10
80.8667
 20
250.6569
  0
VERTEX
  8
LAYER_2
 10
80.8653
 20
250.6402
  0
VERTEX
  8
LAYER_2
 10
80.864
 20
250.6233
  0
VERTEX
  8
LAYER_2
 10
80.8628
 20
250.6066
  0
VERTEX
  8
LAYER_2
 10
80.8612
 20
250.59
  0
VERTEX
  8
LAYER_2
 10
80.8598
 20
250.573
  0
VERTEX
  8
LAYER_2
 10
80.8586
 20
250.5561
  0
VERTEX
  8
LAYER_2
 10
80.8576
 20
250.5392
  0
VERTEX
  8
LAYER_2
 10
80.8567
 20
250.5222
  0
VERTEX
  8
LAYER_2
 10
80.856
 20
250.5053
  0
VERTEX
  8
LAYER_2
 10
80.8557
 20
250.4884
  0
VERTEX
  8
LAYER_2
 10
80.8555
 20
250.4714
  0
VERTEX
  8
LAYER_2
 10
80.8552
 20
250.4543
  0
VERTEX
  8
LAYER_2
 10
80.8552
 20
250.4374
  0
VERTEX
  8
LAYER_2
 10
80.8552
 20
250.4204
  0
VERTEX
  8
LAYER_2
 10
80.8552
 20
250.4033
  0
VERTEX
  8
LAYER_2
 10
80.8555
 20
250.3863
  0
VERTEX
  8
LAYER_2
 10
80.8555
 20
250.3694
  0
VERTEX
  8
LAYER_2
 10
80.8557
 20
250.3523
  0
VERTEX
  8
LAYER_2
 10
80.856
 20
250.3355
  0
VERTEX
  8
LAYER_2
 10
80.8567
 20
250.3186
  0
VERTEX
  8
LAYER_2
 10
80.8569
 20
250.3015
  0
VERTEX
  8
LAYER_2
 10
80.8576
 20
250.2845
  0
VERTEX
  8
LAYER_2
 10
80.8581
 20
250.2674
  0
VERTEX
  8
LAYER_2
 10
80.8591
 20
250.2505
  0
VERTEX
  8
LAYER_2
 10
80.8598
 20
250.2336
  0
VERTEX
  8
LAYER_2
 10
80.8609
 20
250.2168
  0
VERTEX
  8
LAYER_2
 10
80.8617
 20
250.2001
  0
VERTEX
  8
LAYER_2
 10
80.8629
 20
250.1832
  0
VERTEX
  8
LAYER_2
 10
80.8643
 20
250.1665
  0
VERTEX
  8
LAYER_2
 10
80.8655
 20
250.1496
  0
VERTEX
  8
LAYER_2
 10
80.8669
 20
250.1331
  0
VERTEX
  8
LAYER_2
 10
80.8684
 20
250.116
  0
VERTEX
  8
LAYER_2
 10
80.8703
 20
250.0995
  0
VERTEX
  8
LAYER_2
 10
80.8719
 20
250.0826
  0
VERTEX
  8
LAYER_2
 10
80.8736
 20
250.0659
  0
VERTEX
  8
LAYER_2
 10
80.8738
 20
250.0654
  0
VERTEX
  8
LAYER_2
 10
80.874
 20
250.0647
  0
VERTEX
  8
LAYER_2
 10
80.876
 20
250.048
  0
VERTEX
  8
LAYER_2
 10
80.8784
 20
250.0314
  0
VERTEX
  8
LAYER_2
 10
80.8809
 20
250.0149
  0
VERTEX
  8
LAYER_2
 10
80.8829
 20
249.9983
  0
VERTEX
  8
LAYER_2
 10
80.8853
 20
249.9818
  0
VERTEX
  8
LAYER_2
 10
80.8876
 20
249.9653
  0
VERTEX
  8
LAYER_2
 10
80.89
 20
249.9489
  0
VERTEX
  8
LAYER_2
 10
80.8924
 20
249.9324
  0
VERTEX
  8
LAYER_2
 10
80.8945
 20
249.9157
  0
VERTEX
  8
LAYER_2
 10
80.8969
 20
249.8993
  0
VERTEX
  8
LAYER_2
 10
80.8993
 20
249.8831
  0
VERTEX
  8
LAYER_2
 10
80.902
 20
249.8671
  0
VERTEX
  8
LAYER_2
 10
80.9048
 20
249.8509
  0
VERTEX
  8
LAYER_2
 10
80.9077
 20
249.8347
  0
VERTEX
  8
LAYER_2
 10
80.911
 20
249.8187
  0
VERTEX
  8
LAYER_2
 10
80.9144
 20
249.8027
  0
VERTEX
  8
LAYER_2
 10
80.9177
 20
249.7866
  0
VERTEX
  8
LAYER_2
 10
80.9213
 20
249.7706
  0
VERTEX
  8
LAYER_2
 10
80.9249
 20
249.7546
  0
VERTEX
  8
LAYER_2
 10
80.9286
 20
249.7386
  0
VERTEX
  8
LAYER_2
 10
80.9289
 20
249.7372
  0
VERTEX
  8
LAYER_2
 10
80.9293
 20
249.7358
  0
VERTEX
  8
LAYER_2
 10
80.9332
 20
249.7202
  0
VERTEX
  8
LAYER_2
 10
80.9374
 20
249.7047
  0
VERTEX
  8
LAYER_2
 10
80.9415
 20
249.689
  0
VERTEX
  8
LAYER_2
 10
80.9454
 20
249.6736
  0
VERTEX
  8
LAYER_2
 10
80.9494
 20
249.658
  0
VERTEX
  8
LAYER_2
 10
80.9535
 20
249.6425
  0
VERTEX
  8
LAYER_2
 10
80.9577
 20
249.627
  0
VERTEX
  8
LAYER_2
 10
80.9616
 20
249.6113
  0
VERTEX
  8
LAYER_2
 10
80.9658
 20
249.5958
  0
VERTEX
  8
LAYER_2
 10
80.9697
 20
249.5803
  0
VERTEX
  8
LAYER_2
 10
80.9739
 20
249.5651
  0
VERTEX
  8
LAYER_2
 10
80.9782
 20
249.55
  0
VERTEX
  8
LAYER_2
 10
80.9827
 20
249.5352
  0
VERTEX
  8
LAYER_2
 10
80.9875
 20
249.52
  0
VERTEX
  8
LAYER_2
 10
80.9923
 20
249.5052
  0
VERTEX
  8
LAYER_2
 10
80.9973
 20
249.4905
  0
VERTEX
  8
LAYER_2
 10
81.0025
 20
249.4757
  0
VERTEX
  8
LAYER_2
 10
81.0078
 20
249.4609
  0
VERTEX
  8
LAYER_2
 10
81.013
 20
249.4461
  0
VERTEX
  8
LAYER_2
 10
81.0183
 20
249.4315
  0
VERTEX
  8
LAYER_2
 10
81.019
 20
249.4294
  0
VERTEX
  8
LAYER_2
 10
81.0199
 20
249.4275
  0
VERTEX
  8
LAYER_2
 10
81.0254
 20
249.4132
  0
VERTEX
  8
LAYER_2
 10
81.0311
 20
249.3992
  0
VERTEX
  8
LAYER_2
 10
81.0367
 20
249.385
  0
VERTEX
  8
LAYER_2
 10
81.0424
 20
249.3708
  0
VERTEX
  8
LAYER_2
 10
81.0479
 20
249.3567
  0
VERTEX
  8
LAYER_2
 10
81.0538
 20
249.3427
  0
VERTEX
  8
LAYER_2
 10
81.0595
 20
249.3285
  0
VERTEX
  8
LAYER_2
 10
81.065
 20
249.3143
  0
VERTEX
  8
LAYER_2
 10
81.0707
 20
249.3
  0
VERTEX
  8
LAYER_2
 10
81.0764
 20
249.2861
  0
VERTEX
  8
LAYER_2
 10
81.082
 20
249.2725
  0
VERTEX
  8
LAYER_2
 10
81.0879
 20
249.259
  0
VERTEX
  8
LAYER_2
 10
81.0939
 20
249.2454
  0
VERTEX
  8
LAYER_2
 10
81.1001
 20
249.232
  0
VERTEX
  8
LAYER_2
 10
81.1067
 20
249.2187
  0
VERTEX
  8
LAYER_2
 10
81.1131
 20
249.2056
  0
VERTEX
  8
LAYER_2
 10
81.1198
 20
249.1925
  0
VERTEX
  8
LAYER_2
 10
81.1265
 20
249.1793
  0
VERTEX
  8
LAYER_2
 10
81.1334
 20
249.1662
  0
VERTEX
  8
LAYER_2
 10
81.1401
 20
249.1531
  0
VERTEX
  8
LAYER_2
 10
81.1413
 20
249.151
  0
VERTEX
  8
LAYER_2
 10
81.1425
 20
249.1486
  0
VERTEX
  8
LAYER_2
 10
81.1496
 20
249.1362
  0
VERTEX
  8
LAYER_2
 10
81.1568
 20
249.1242
  0
VERTEX
  8
LAYER_2
 10
81.1637
 20
249.1118
  0
VERTEX
  8
LAYER_2
 10
81.1709
 20
249.0994
  0
VERTEX
  8
LAYER_2
 10
81.178
 20
249.0869
  0
VERTEX
  8
LAYER_2
 10
81.1852
 20
249.0747
  0
VERTEX
  8
LAYER_2
 10
81.1921
 20
249.0625
  0
VERTEX
  8
LAYER_2
 10
81.1994
 20
249.0501
  0
VERTEX
  8
LAYER_2
 10
81.2064
 20
249.0377
  0
VERTEX
  8
LAYER_2
 10
81.2136
 20
249.0255
  0
VERTEX
  8
LAYER_2
 10
81.2205
 20
249.0137
  0
VERTEX
  8
LAYER_2
 10
81.2276
 20
249.002
  0
VERTEX
  8
LAYER_2
 10
81.235
 20
248.9907
  0
VERTEX
  8
LAYER_2
 10
81.2426
 20
248.9791
  0
VERTEX
  8
LAYER_2
 10
81.2505
 20
248.9679
  0
VERTEX
  8
LAYER_2
 10
81.2583
 20
248.9567
  0
VERTEX
  8
LAYER_2
 10
81.2662
 20
248.9455
  0
VERTEX
  8
LAYER_2
 10
81.2743
 20
248.9345
  0
VERTEX
  8
LAYER_2
 10
81.2825
 20
248.9235
  0
VERTEX
  8
LAYER_2
 10
81.2906
 20
248.9126
  0
VERTEX
  8
LAYER_2
 10
81.2922
 20
248.9106
  0
VERTEX
  8
LAYER_2
 10
81.2939
 20
248.9081
  0
VERTEX
  8
LAYER_2
 10
81.3043
 20
248.8954
  0
VERTEX
  8
LAYER_2
 10
81.3148
 20
248.8827
  0
VERTEX
  8
LAYER_2
 10
81.3251
 20
248.8701
  0
VERTEX
  8
LAYER_2
 10
81.3354
 20
248.8573
  0
VERTEX
  8
LAYER_2
 10
81.3459
 20
248.8446
  0
VERTEX
  8
LAYER_2
 10
81.3563
 20
248.832
  0
VERTEX
  8
LAYER_2
 10
81.3666
 20
248.8193
  0
VERTEX
  8
LAYER_2
 10
81.3771
 20
248.8065
  0
VERTEX
  8
LAYER_2
 10
81.3875
 20
248.7945
  0
VERTEX
  8
LAYER_2
 10
81.3978
 20
248.7827
  0
VERTEX
  8
LAYER_2
 10
81.4085
 20
248.7714
  0
VERTEX
  8
LAYER_2
 10
81.4197
 20
248.76
  0
VERTEX
  8
LAYER_2
 10
81.4309
 20
248.749
  0
VERTEX
  8
LAYER_2
 10
81.4424
 20
248.7381
  0
VERTEX
  8
LAYER_2
 10
81.4539
 20
248.7273
  0
VERTEX
  8
LAYER_2
 10
81.4653
 20
248.7164
  0
VERTEX
  8
LAYER_2
 10
81.4676
 20
248.7149
  0
VERTEX
  8
LAYER_2
 10
81.4693
 20
248.7132
  0
VERTEX
  8
LAYER_2
 10
81.4808
 20
248.7032
  0
VERTEX
  8
LAYER_2
 10
81.4925
 20
248.6939
  0
VERTEX
  8
LAYER_2
 10
81.5042
 20
248.6842
  0
VERTEX
  8
LAYER_2
 10
81.5158
 20
248.6744
  0
VERTEX
  8
LAYER_2
 10
81.5275
 20
248.6648
  0
VERTEX
  8
LAYER_2
 10
81.539
 20
248.6551
  0
VERTEX
  8
LAYER_2
 10
81.5508
 20
248.6455
  0
VERTEX
  8
LAYER_2
 10
81.5623
 20
248.6358
  0
VERTEX
  8
LAYER_2
 10
81.5726
 20
248.6279
  0
VERTEX
  8
LAYER_2
 10
81.583
 20
248.6201
  0
VERTEX
  8
LAYER_2
 10
81.5938
 20
248.6127
  0
VERTEX
  8
LAYER_2
 10
81.6045
 20
248.6055
  0
VERTEX
  8
LAYER_2
 10
81.6155
 20
248.5984
  0
VERTEX
  8
LAYER_2
 10
81.6264
 20
248.5917
  0
VERTEX
  8
LAYER_2
 10
81.6355
 20
248.5859
  0
VERTEX
  8
LAYER_2
 10
81.6448
 20
248.5802
  0
VERTEX
  8
LAYER_2
 10
81.6539
 20
248.5747
  0
VERTEX
  8
LAYER_2
 10
81.6632
 20
248.5693
  0
VERTEX
  8
LAYER_2
 10
81.6708
 20
248.565
  0
VERTEX
  8
LAYER_2
 10
81.6784
 20
248.5609
  0
VERTEX
  8
LAYER_2
 10
81.686
 20
248.5566
  0
VERTEX
  8
LAYER_2
 10
81.6937
 20
248.5526
  0
VERTEX
  8
LAYER_2
 10
81.7051
 20
248.5466
  0
VERTEX
  8
LAYER_2
 10
81.7168
 20
248.5406
  0
VERTEX
  8
LAYER_2
 10
81.7285
 20
248.5349
  0
VERTEX
  8
LAYER_2
 10
81.7402
 20
248.5294
  0
VERTEX
  8
LAYER_2
 10
81.7521
 20
248.524
  0
VERTEX
  8
LAYER_2
 10
81.764
 20
248.5189
  0
VERTEX
  8
LAYER_2
 10
81.7752
 20
248.514
  0
VERTEX
  8
LAYER_2
 10
81.7866
 20
248.5094
  0
VERTEX
  8
LAYER_2
 10
81.7981
 20
248.5049
  0
VERTEX
  8
LAYER_2
 10
81.8096
 20
248.5006
  0
VERTEX
  8
LAYER_2
 10
81.821
 20
248.4965
  0
VERTEX
  8
LAYER_2
 10
81.8329
 20
248.4925
  0
VERTEX
  8
LAYER_2
 10
81.8419
 20
248.4896
  0
VERTEX
  8
LAYER_2
 10
81.8513
 20
248.4868
  0
VERTEX
  8
LAYER_2
 10
81.8606
 20
248.4839
  0
VERTEX
  8
LAYER_2
 10
81.8699
 20
248.4811
  0
VERTEX
  8
LAYER_2
 10
81.8784
 20
248.4789
  0
VERTEX
  8
LAYER_2
 10
81.8866
 20
248.4768
  0
VERTEX
  8
LAYER_2
 10
81.8949
 20
248.4748
  0
VERTEX
  8
LAYER_2
 10
81.9034
 20
248.4727
  0
VERTEX
  8
LAYER_2
 10
81.9154
 20
248.4699
  0
VERTEX
  8
LAYER_2
 10
81.9273
 20
248.4675
  0
VERTEX
  8
LAYER_2
 10
81.9394
 20
248.4651
  0
VERTEX
  8
LAYER_2
 10
81.9514
 20
248.4629
  0
VERTEX
  8
LAYER_2
 10
81.9636
 20
248.4611
  0
VERTEX
  8
LAYER_2
 10
81.9759
 20
248.4593
  0
VERTEX
  8
LAYER_2
 10
81.9876
 20
248.4575
  0
VERTEX
  8
LAYER_2
 10
81.9996
 20
248.4563
  0
VERTEX
  8
LAYER_2
 10
82.0115
 20
248.4551
  0
VERTEX
  8
LAYER_2
 10
82.0236
 20
248.4539
  0
VERTEX
  8
LAYER_2
 10
82.0355
 20
248.4531
  0
VERTEX
  8
LAYER_2
 10
82.0474
 20
248.4524
  0
VERTEX
  8
LAYER_2
 10
82.0565
 20
248.452
  0
VERTEX
  8
LAYER_2
 10
82.0654
 20
248.4517
  0
VERTEX
  8
LAYER_2
 10
82.0744
 20
248.4517
  0
VERTEX
  8
LAYER_2
 10
82.0834
 20
248.4517
  0
VERTEX
  8
LAYER_2
 10
82.0923
 20
248.4517
  0
VERTEX
  8
LAYER_2
 10
82.1013
 20
248.4517
  0
VERTEX
  8
LAYER_2
 10
82.1102
 20
248.452
  0
VERTEX
  8
LAYER_2
 10
82.1192
 20
248.4524
  0
VERTEX
  8
LAYER_2
 10
82.1311
 20
248.4531
  0
VERTEX
  8
LAYER_2
 10
82.1433
 20
248.4539
  0
VERTEX
  8
LAYER_2
 10
82.1552
 20
248.4551
  0
VERTEX
  8
LAYER_2
 10
82.1671
 20
248.4563
  0
VERTEX
  8
LAYER_2
 10
82.179
 20
248.4575
  0
VERTEX
  8
LAYER_2
 10
82.191
 20
248.4593
  0
VERTEX
  8
LAYER_2
 10
82.2019
 20
248.4608
  0
VERTEX
  8
LAYER_2
 10
82.2127
 20
248.4627
  0
SEQEND
  0
ENDBLK
  0
BLOCK
  8
LAYER_2
  2
AIGNBL020400D0
 70
64
 10
0
 20
0
 30
0
  3
AIGNBL020400D0
  0
POLYLINE
  8
LAYER_2
 40
0.2469
 41
0.2469
 66
1
 10
0
 20
0
 30
0
  0
VERTEX
  8
LAYER_2
 10
82.2127
 20
247.7823
  0
VERTEX
  8
LAYER_2
 10
82.2236
 20
247.7806
  0
VERTEX
  8
LAYER_2
 10
82.2344
 20
247.7783
  0
VERTEX
  8
LAYER_2
 10
82.2455
 20
247.7763
  0
VERTEX
  8
LAYER_2
 10
82.2563
 20
247.7739
  0
VERTEX
  8
LAYER_2
 10
82.2668
 20
247.7714
  0
VERTEX
  8
LAYER_2
 10
82.2777
 20
247.7687
  0
VERTEX
  8
LAYER_2
 10
82.2871
 20
247.7663
  0
VERTEX
  8
LAYER_2
 10
82.2966
 20
247.7637
  0
VERTEX
  8
LAYER_2
 10
82.3083
 20
247.7604
  0
VERTEX
  8
LAYER_2
 10
82.32
 20
247.757
  0
VERTEX
  8
LAYER_2
 10
82.3305
 20
247.7535
  0
VERTEX
  8
LAYER_2
 10
82.3409
 20
247.7499
  0
VERTEX
  8
LAYER_2
 10
82.3514
 20
247.7463
  0
VERTEX
  8
LAYER_2
 10
82.3617
 20
247.7427
  0
VERTEX
  8
LAYER_2
 10
82.3721
 20
247.7387
  0
VERTEX
  8
LAYER_2
 10
82.3822
 20
247.7347
  0
VERTEX
  8
LAYER_2
 10
82.3926
 20
247.7304
  0
VERTEX
  8
LAYER_2
 10
82.4027
 20
247.7261
  0
VERTEX
  8
LAYER_2
 10
82.4146
 20
247.721
  0
VERTEX
  8
LAYER_2
 10
82.4265
 20
247.7155
  0
VERTEX
  8
LAYER_2
 10
82.4382
 20
247.7101
  0
VERTEX
  8
LAYER_2
 10
82.4499
 20
247.7043
  0
VERTEX
  8
LAYER_2
 10
82.4615
 20
247.6984
  0
VERTEX
  8
LAYER_2
 10
82.473
 20
247.6925
  0
VERTEX
  8
LAYER_2
 10
82.4806
 20
247.6882
  0
VERTEX
  8
LAYER_2
 10
82.4883
 20
247.6841
  0
VERTEX
  8
LAYER_2
 10
82.4959
 20
247.6798
  0
VERTEX
  8
LAYER_2
 10
82.5035
 20
247.6757
  0
VERTEX
  8
LAYER_2
 10
82.5126
 20
247.6702
  0
VERTEX
  8
LAYER_2
 10
82.5219
 20
247.6648
  0
VERTEX
  8
LAYER_2
 10
82.5311
 20
247.6591
  0
VERTEX
  8
LAYER_2
 10
82.5402
 20
247.6534
  0
VERTEX
  8
LAYER_2
 10
82.551
 20
247.6462
  0
VERTEX
  8
LAYER_2
 10
82.5619
 20
247.6391
  0
VERTEX
  8
LAYER_2
 10
82.5727
 20
247.6317
  0
VERTEX
  8
LAYER_2
 10
82.5832
 20
247.6243
  0
VERTEX
  8
LAYER_2
 10
82.5939
 20
247.6169
  0
VERTEX
  8
LAYER_2
 10
82.6043
 20
247.6092
  0
VERTEX
  8
LAYER_2
 10
82.6161
 20
247.6
  0
VERTEX
  8
LAYER_2
 10
82.6284
 20
247.5907
  0
VERTEX
  8
LAYER_2
 10
82.6401
 20
247.5813
  0
VERTEX
  8
LAYER_2
 10
82.6518
 20
247.5716
  0
VERTEX
  8
LAYER_2
 10
82.6633
 20
247.562
  0
VERTEX
  8
LAYER_2
 10
82.6749
 20
247.552
  0
VERTEX
  8
LAYER_2
 10
82.6863
 20
247.542
  0
VERTEX
  8
LAYER_2
 10
82.6973
 20
247.5318
  0
VERTEX
  8
LAYER_2
 10
82.6993
 20
247.5303
  0
VERTEX
  8
LAYER_2
 10
82.7011
 20
247.5284
  0
VERTEX
  8
LAYER_2
 10
82.7123
 20
247.5172
  0
VERTEX
  8
LAYER_2
 10
82.7233
 20
247.506
  0
VERTEX
  8
LAYER_2
 10
82.7343
 20
247.4946
  0
VERTEX
  8
LAYER_2
 10
82.7453
 20
247.4834
  0
VERTEX
  8
LAYER_2
 10
82.7564
 20
247.4722
  0
VERTEX
  8
LAYER_2
 10
82.7674
 20
247.4609
  0
VERTEX
  8
LAYER_2
 10
82.7786
 20
247.4497
  0
VERTEX
  8
LAYER_2
 10
82.7896
 20
247.4385
  0
VERTEX
  8
LAYER_2
 10
82.8008
 20
247.4264
  0
VERTEX
  8
LAYER_2
 10
82.8118
 20
247.4142
  0
VERTEX
  8
LAYER_2
 10
82.8223
 20
247.4018
  0
VERTEX
  8
LAYER_2
 10
82.8327
 20
247.389
  0
VERTEX
  8
LAYER_2
 10
82.8428
 20
247.3761
  0
VERTEX
  8
LAYER_2
 10
82.8528
 20
247.3632
  0
VERTEX
  8
LAYER_2
 10
82.8628
 20
247.3498
  0
VERTEX
  8
LAYER_2
 10
82.8728
 20
247.3368
  0
VERTEX
  8
LAYER_2
 10
82.8744
 20
247.3346
  0
VERTEX
  8
LAYER_2
 10
82.8761
 20
247.3324
  0
VERTEX
  8
LAYER_2
 10
82.884
 20
247.3212
  0
VERTEX
  8
LAYER_2
 10
82.8916
 20
247.31
  0
VERTEX
  8
LAYER_2
 10
82.8992
 20
247.2984
  0
VERTEX
  8
LAYER_2
 10
82.9069
 20
247.2872
  0
VERTEX
  8
LAYER_2
 10
82.9147
 20
247.2759
  0
VERTEX
  8
LAYER_2
 10
82.9224
 20
247.2647
  0
VERTEX
  8
LAYER_2
 10
82.93
 20
247.2535
  0
VERTEX
  8
LAYER_2
 10
82.9377
 20
247.2421
  0
VERTEX
  8
LAYER_2
 10
82.9455
 20
247.2307
  0
VERTEX
  8
LAYER_2
 10
82.9532
 20
247.2195
  0
VERTEX
  8
LAYER_2
 10
82.961
 20
247.2076
  0
VERTEX
  8
LAYER_2
 10
82.9686
 20
247.1958
  0
VERTEX
  8
LAYER_2
 10
82.9762
 20
247.1835
  0
VERTEX
  8
LAYER_2
 10
82.9834
 20
247.1711
  0
VERTEX
  8
LAYER_2
 10
82.9903
 20
247.1587
  0
VERTEX
  8
LAYER_2
 10
82.9973
 20
247.1465
  0
VERTEX
  8
LAYER_2
 10
83.0039
 20
247.1339
  0
VERTEX
  8
LAYER_2
 10
83.011
 20
247.1214
  0
VERTEX
  8
LAYER_2
 10
83.0175
 20
247.1086
  0
VERTEX
  8
LAYER_2
 10
83.0242
 20
247.0962
  0
VERTEX
  8
LAYER_2
 10
83.0254
 20
247.0938
  0
VERTEX
  8
LAYER_2
 10
83.0265
 20
247.0917
  0
VERTEX
  8
LAYER_2
 10
83.033
 20
247.0785
  0
VERTEX
  8
LAYER_2
 10
83.0394
 20
247.0652
  0
VERTEX
  8
LAYER_2
 10
83.0457
 20
247.0518
  0
VERTEX
  8
LAYER_2
 10
83.052
 20
247.0385
  0
VERTEX
  8
LAYER_2
 10
83.0583
 20
247.0252
  0
VERTEX
  8
LAYER_2
 10
83.0647
 20
247.0121
  0
VERTEX
  8
LAYER_2
 10
83.0711
 20
246.9989
  0
VERTEX
  8
LAYER_2
 10
83.0776
 20
246.9856
  0
VERTEX
  8
LAYER_2
 10
83.084
 20
246.9723
  0
VERTEX
  8
LAYER_2
 10
83.0904
 20
246.9591
  0
VERTEX
  8
LAYER_2
 10
83.0967
 20
246.9451
  0
VERTEX
  8
LAYER_2
 10
83.1029
 20
246.9312
  0
VERTEX
  8
LAYER_2
 10
83.1088
 20
246.9174
  0
VERTEX
  8
LAYER_2
 10
83.1147
 20
246.9031
  0
VERTEX
  8
LAYER_2
 10
83.1203
 20
246.889
  0
VERTEX
  8
LAYER_2
 10
83.1257
 20
246.8747
  0
VERTEX
  8
LAYER_2
 10
83.1312
 20
246.8606
  0
VERTEX
  8
LAYER_2
 10
83.1365
 20
246.8463
  0
VERTEX
  8
LAYER_2
 10
83.1417
 20
246.8318
  0
VERTEX
  8
LAYER_2
 10
83.1469
 20
246.8177
  0
VERTEX
  8
LAYER_2
 10
83.1476
 20
246.8154
  0
VERTEX
  8
LAYER_2
 10
83.1484
 20
246.8135
  0
VERTEX
  8
LAYER_2
 10
83.1532
 20
246.7987
  0
VERTEX
  8
LAYER_2
 10
83.1581
 20
246.7837
  0
VERTEX
  8
LAYER_2
 10
83.1629
 20
246.7689
  0
VERTEX
  8
LAYER_2
 10
83.1677
 20
246.7541
  0
VERTEX
  8
LAYER_2
 10
83.1725
 20
246.7391
  0
VERTEX
  8
LAYER_2
 10
83.1774
 20
246.7243
  0
VERTEX
  8
LAYER_2
 10
83.1823
 20
246.7095
  0
VERTEX
  8
LAYER_2
 10
83.1872
 20
246.6947
  0
VERTEX
  8
LAYER_2
 10
83.1922
 20
246.6797
  0
VERTEX
  8
LAYER_2
 10
83.1968
 20
246.6647
  0
VERTEX
  8
LAYER_2
 10
83.2016
 20
246.6494
  0
VERTEX
  8
LAYER_2
 10
83.2063
 20
246.634
  0
VERTEX
  8
LAYER_2
 10
83.2108
 20
246.6185
  0
VERTEX
  8
LAYER_2
 10
83.2149
 20
246.603
  0
VERTEX
  8
LAYER_2
 10
83.2189
 20
246.5875
  0
VERTEX
  8
LAYER_2
 10
83.2228
 20
246.5719
  0
VERTEX
  8
LAYER_2
 10
83.2264
 20
246.5562
  0
VERTEX
  8
LAYER_2
 10
83.2302
 20
246.5405
  0
VERTEX
  8
LAYER_2
 10
83.2339
 20
246.5248
  0
VERTEX
  8
LAYER_2
 10
83.2373
 20
246.509
  0
VERTEX
  8
LAYER_2
 10
83.2378
 20
246.5076
  0
VERTEX
  8
LAYER_2
 10
83.238
 20
246.5062
  0
VERTEX
  8
LAYER_2
 10
83.2414
 20
246.4904
  0
VERTEX
  8
LAYER_2
 10
83.2445
 20
246.4742
  0
VERTEX
  8
LAYER_2
 10
83.2476
 20
246.4582
  0
VERTEX
  8
LAYER_2
 10
83.2509
 20
246.442
  0
VERTEX
  8
LAYER_2
 10
83.2538
 20
246.426
  0
VERTEX
  8
LAYER_2
 10
83.2573
 20
246.4099
  0
VERTEX
  8
LAYER_2
 10
83.2602
 20
246.3939
  0
VERTEX
  8
LAYER_2
 10
83.2635
 20
246.3779
  0
VERTEX
  8
LAYER_2
 10
83.2666
 20
246.3617
  0
VERTEX
  8
LAYER_2
 10
83.2697
 20
246.3457
  0
VERTEX
  8
LAYER_2
 10
83.273
 20
246.3292
  0
VERTEX
  8
LAYER_2
 10
83.2757
 20
246.313
  0
VERTEX
  8
LAYER_2
 10
83.2783
 20
246.2962
  0
VERTEX
  8
LAYER_2
 10
83.2809
 20
246.2799
  0
VERTEX
  8
LAYER_2
 10
83.2829
 20
246.2633
  0
VERTEX
  8
LAYER_2
 10
83.285
 20
246.2466
  0
VERTEX
  8
LAYER_2
 10
83.2871
 20
246.2303
  0
VERTEX
  8
LAYER_2
 10
83.289
 20
246.2137
  0
VERTEX
  8
LAYER_2
 10
83.2909
 20
246.1972
  0
VERTEX
  8
LAYER_2
 10
83.2929
 20
246.1805
  0
VERTEX
  8
LAYER_2
 10
83.2929
 20
246.1798
  0
VERTEX
  8
LAYER_2
 10
83.2929
 20
246.1789
  0
VERTEX
  8
LAYER_2
 10
83.2945
 20
246.1622
  0
VERTEX
  8
LAYER_2
 10
83.2957
 20
246.1455
  0
VERTEX
  8
LAYER_2
 10
83.2971
 20
246.1286
  0
VERTEX
  8
LAYER_2
 10
83.2986
 20
246.1119
  0
VERTEX
  8
LAYER_2
 10
83.2998
 20
246.0952
  0
VERTEX
  8
LAYER_2
 10
83.3014
 20
246.0783
  0
VERTEX
  8
LAYER_2
 10
83.3026
 20
246.0618
  0
VERTEX
  8
LAYER_2
 10
83.3041
 20
246.0448
  0
VERTEX
  8
LAYER_2
 10
83.3055
 20
246.0282
  0
VERTEX
  8
LAYER_2
 10
83.3067
 20
246.0113
  0
VERTEX
  8
LAYER_2
 10
83.3079
 20
245.9943
  0
VERTEX
  8
LAYER_2
 10
83.3091
 20
245.9774
  0
VERTEX
  8
LAYER_2
 10
83.3098
 20
245.9605
  0
VERTEX
  8
LAYER_2
 10
83.3103
 20
245.9436
  0
VERTEX
  8
LAYER_2
 10
83.311
 20
245.9266
  0
VERTEX
  8
LAYER_2
 10
83.3114
 20
245.9095
  0
VERTEX
  8
LAYER_2
 10
83.3115
 20
245.8925
  0
VERTEX
  8
LAYER_2
 10
83.3117
 20
245.8756
  0
VERTEX
  8
LAYER_2
 10
83.3117
 20
245.8587
  0
VERTEX
  8
LAYER_2
 10
83.3114
 20
245.8417
  0
VERTEX
  8
LAYER_2
 10
83.3114
 20
245.8246
  0
VERTEX
  8
LAYER_2
 10
83.311
 20
245.8076
  0
VERTEX
  8
LAYER_2
 10
83.3107
 20
245.7907
  0
VERTEX
  8
LAYER_2
 10
83.3103
 20
245.7738
  0
VERTEX
  8
LAYER_2
 10
83.3102
 20
245.7567
  0
VERTEX
  8
LAYER_2
 10
83.3095
 20
245.7397
  0
VERTEX
  8
LAYER_2
 10
83.3091
 20
245.7226
  0
VERTEX
  8
LAYER_2
 10
83.3083
 20
245.7058
  0
VERTEX
  8
LAYER_2
 10
83.3077
 20
245.6889
  0
VERTEX
  8
LAYER_2
 10
83.3067
 20
245.6718
  0
VERTEX
  8
LAYER_2
 10
83.3059
 20
245.6551
  0
VERTEX
  8
LAYER_2
 10
83.3048
 20
245.6384
  0
VERTEX
  8
LAYER_2
 10
83.3038
 20
245.6215
  0
VERTEX
  8
LAYER_2
 10
83.3024
 20
245.6048
  0
VERTEX
  8
LAYER_2
 10
83.301
 20
245.5879
  0
VERTEX
  8
LAYER_2
 10
83.2995
 20
245.5712
  0
VERTEX
  8
LAYER_2
 10
83.2981
 20
245.5545
  0
VERTEX
  8
LAYER_2
 10
83.2966
 20
245.5376
  0
VERTEX
  8
LAYER_2
 10
83.2947
 20
245.5211
  0
VERTEX
  8
LAYER_2
 10
83.2929
 20
245.5042
  0
VERTEX
  8
LAYER_2
 10
83.2929
 20
245.5035
  0
VERTEX
  8
LAYER_2
 10
83.2929
 20
245.5027
  0
VERTEX
  8
LAYER_2
 10
83.2907
 20
245.4861
  0
VERTEX
  8
LAYER_2
 10
83.2883
 20
245.4698
  0
VERTEX
  8
LAYER_2
 10
83.2859
 20
245.4531
  0
VERTEX
  8
LAYER_2
 10
83.2835
 20
245.4367
  0
VERTEX
  8
LAYER_2
 10
83.2814
 20
245.4202
  0
VERTEX
  8
LAYER_2
 10
83.279
 20
245.4035
  0
VERTEX
  8
LAYER_2
 10
83.2767
 20
245.3873
  0
VERTEX
  8
LAYER_2
 10
83.2745
 20
245.3706
  0
VERTEX
  8
LAYER_2
 10
83.2721
 20
245.3542
  0
VERTEX
  8
LAYER_2
 10
83.2697
 20
245.3377
  0
VERTEX
  8
LAYER_2
 10
83.2673
 20
245.3213
  0
VERTEX
  8
LAYER_2
 10
83.2649
 20
245.3053
  0
VERTEX
  8
LAYER_2
 10
83.2619
 20
245.2891
  0
VERTEX
  8
LAYER_2
 10
83.2587
 20
245.2729
  0
VERTEX
  8
LAYER_2
 10
83.2557
 20
245.2569
  0
VERTEX
  8
LAYER_2
 10
83.2525
 20
245.2408
  0
VERTEX
  8
LAYER_2
 10
83.2488
 20
245.2248
  0
VERTEX
  8
LAYER_2
 10
83.2452
 20
245.2088
  0
VERTEX
  8
LAYER_2
 10
83.2416
 20
245.193
  0
VERTEX
  8
LAYER_2
 10
83.238
 20
245.1769
  0
VERTEX
  8
LAYER_2
 10
83.2378
 20
245.1757
  0
VERTEX
  8
LAYER_2
 10
83.2373
 20
245.1742
  0
VERTEX
  8
LAYER_2
 10
83.2333
 20
245.1583
  0
VERTEX
  8
LAYER_2
 10
83.2294
 20
245.143
  0
VERTEX
  8
LAYER_2
 10
83.2252
 20
245.1273
  0
VERTEX
  8
LAYER_2
 10
83.2213
 20
245.1118
  0
VERTEX
  8
LAYER_2
 10
83.2171
 20
245.0963
  0
VERTEX
  8
LAYER_2
 10
83.2132
 20
245.0806
  0
VERTEX
  8
LAYER_2
 10
83.209
 20
245.0651
  0
VERTEX
  8
LAYER_2
 10
83.2049
 20
245.0496
  0
VERTEX
  8
LAYER_2
 10
83.201
 20
245.0341
  0
VERTEX
  8
LAYER_2
 10
83.1968
 20
245.0185
  0
VERTEX
  8
LAYER_2
 10
83.1929
 20
245.0033
  0
VERTEX
  8
LAYER_2
 10
83.1885
 20
244.9883
  0
VERTEX
  8
LAYER_2
 10
83.1839
 20
244.9735
  0
VERTEX
  8
LAYER_2
 10
83.1792
 20
244.9583
  0
VERTEX
  8
LAYER_2
 10
83.1744
 20
244.9435
  0
VERTEX
  8
LAYER_2
 10
83.1693
 20
244.9287
  0
VERTEX
  8
LAYER_2
 10
83.1641
 20
244.9139
  0
VERTEX
  8
LAYER_2
 10
83.1589
 20
244.8991
  0
VERTEX
  8
LAYER_2
 10
83.1536
 20
244.8843
  0
VERTEX
  8
LAYER_2
 10
83.1484
 20
244.8698
  0
VERTEX
  8
LAYER_2
 10
83.1476
 20
244.8677
  0
VERTEX
  8
LAYER_2
 10
83.1469
 20
244.8658
  0
VERTEX
  8
LAYER_2
 10
83.1415
 20
244.8517
  0
VERTEX
  8
LAYER_2
 10
83.1357
 20
244.8374
  0
VERTEX
  8
LAYER_2
 10
83.13
 20
244.8233
  0
VERTEX
  8
LAYER_2
 10
83.1243
 20
244.809
  0
VERTEX
  8
LAYER_2
 10
83.1186
 20
244.795
  0
VERTEX
  8
LAYER_2
 10
83.1131
 20
244.7809
  0
VERTEX
  8
LAYER_2
 10
83.1072
 20
244.7668
  0
VERTEX
  8
LAYER_2
 10
83.1016
 20
244.7525
  0
VERTEX
  8
LAYER_2
 10
83.096
 20
244.7384
  0
VERTEX
  8
LAYER_2
 10
83.0904
 20
244.7243
  0
VERTEX
  8
LAYER_2
 10
83.0847
 20
244.7106
  0
VERTEX
  8
LAYER_2
 10
83.079
 20
244.6972
  0
VERTEX
  8
LAYER_2
 10
83.0728
 20
244.6836
  0
VERTEX
  8
LAYER_2
 10
83.0666
 20
244.6703
  0
VERTEX
  8
LAYER_2
 10
83.0602
 20
244.6571
  0
VERTEX
  8
LAYER_2
 10
83.0535
 20
244.6438
  0
VERTEX
  8
LAYER_2
 10
83.047
 20
244.6307
  0
VERTEX
  8
LAYER_2
 10
83.0402
 20
244.6178
  0
VERTEX
  8
LAYER_2
 10
83.0333
 20
244.6045
  0
VERTEX
  8
LAYER_2
 10
83.0265
 20
244.5914
  0
VERTEX
  8
LAYER_2
 10
83.0254
 20
244.5894
  0
VERTEX
  8
LAYER_2
 10
83.0242
 20
244.587
  0
VERTEX
  8
LAYER_2
 10
83.0173
 20
244.5747
  0
VERTEX
  8
LAYER_2
 10
83.0099
 20
244.5625
  0
VERTEX
  8
LAYER_2
 10
83.0027
 20
244.5501
  0
VERTEX
  8
LAYER_2
 10
82.9958
 20
244.5377
  0
VERTEX
  8
LAYER_2
 10
82.9886
 20
244.5255
  0
VERTEX
  8
LAYER_2
 10
82.9817
 20
244.5132
  0
VERTEX
  8
LAYER_2
 10
82.9743
 20
244.5008
  0
VERTEX
  8
LAYER_2
 10
82.9674
 20
244.4884
  0
VERTEX
  8
LAYER_2
 10
82.9603
 20
244.476
  0
VERTEX
  8
LAYER_2
 10
82.9532
 20
244.4638
  0
VERTEX
  8
LAYER_2
 10
82.9462
 20
244.4521
  0
VERTEX
  8
LAYER_2
 10
82.939
 20
244.4404
  0
VERTEX
  8
LAYER_2
 10
82.9317
 20
244.4288
  0
VERTEX
  8
LAYER_2
 10
82.924
 20
244.4173
  0
VERTEX
  8
LAYER_2
 10
82.9164
 20
244.4061
  0
VERTEX
  8
LAYER_2
 10
82.9085
 20
244.3951
  0
VERTEX
  8
LAYER_2
 10
82.9004
 20
244.3839
  0
VERTEX
  8
LAYER_2
 10
82.8924
 20
244.3729
  0
VERTEX
  8
LAYER_2
 10
82.8843
 20
244.3617
  0
VERTEX
  8
LAYER_2
 10
82.8761
 20
244.3508
  0
VERTEX
  8
LAYER_2
 10
82.8744
 20
244.3487
  0
VERTEX
  8
LAYER_2
 10
82.8728
 20
244.3465
  0
VERTEX
  8
LAYER_2
 10
82.8625
 20
244.3336
  0
VERTEX
  8
LAYER_2
 10
82.852
 20
244.321
  0
VERTEX
  8
LAYER_2
 10
82.8415
 20
244.3083
  0
VERTEX
  8
LAYER_2
 10
82.8311
 20
244.2955
  0
VERTEX
  8
LAYER_2
 10
82.8208
 20
244.2829
  0
VERTEX
  8
LAYER_2
 10
82.8104
 20
244.2702
  0
VERTEX
  8
LAYER_2
 10
82.7999
 20
244.2574
  0
VERTEX
  8
LAYER_2
 10
82.7896
 20
244.2449
  0
VERTEX
  8
LAYER_2
 10
82.7794
 20
244.2328
  0
VERTEX
  8
LAYER_2
 10
82.7688
 20
244.2211
  0
VERTEX
  8
LAYER_2
 10
82.7579
 20
244.2096
  0
VERTEX
  8
LAYER_2
 10
82.7471
 20
244.1982
  0
VERTEX
  8
LAYER_2
 10
82.7357
 20
244.1872
  0
VERTEX
  8
LAYER_2
 10
82.7243
 20
244.1763
  0
VERTEX
  8
LAYER_2
 10
82.713
 20
244.1656
  0
VERTEX
  8
LAYER_2
 10
82.7011
 20
244.155
  0
VERTEX
  8
LAYER_2
 10
82.6993
 20
244.1532
  0
VERTEX
  8
LAYER_2
 10
82.6973
 20
244.1513
  0
VERTEX
  8
LAYER_2
 10
82.6859
 20
244.1415
  0
VERTEX
  8
LAYER_2
 10
82.6742
 20
244.132
  0
VERTEX
  8
LAYER_2
 10
82.6625
 20
244.1224
  0
VERTEX
  8
LAYER_2
 10
82.6508
 20
244.1127
  0
VERTEX
  8
LAYER_2
 10
82.6392
 20
244.1031
  0
VERTEX
  8
LAYER_2
 10
82.6275
 20
244.0933
  0
VERTEX
  8
LAYER_2
 10
82.616
 20
244.0836
  0
VERTEX
  8
LAYER_2
 10
82.6043
 20
244.074
  0
VERTEX
  8
LAYER_2
 10
82.5941
 20
244.0662
  0
VERTEX
  8
LAYER_2
 10
82.5836
 20
244.0583
  0
VERTEX
  8
LAYER_2
 10
82.5729
 20
244.0509
  0
VERTEX
  8
LAYER_2
 10
82.5621
 20
244.0438
  0
VERTEX
  8
LAYER_2
 10
82.5512
 20
244.0368
  0
VERTEX
  8
LAYER_2
 10
82.5402
 20
244.0299
  0
VERTEX
  8
LAYER_2
 10
82.5311
 20
244.0242
  0
VERTEX
  8
LAYER_2
 10
82.5219
 20
244.0185
  0
VERTEX
  8
LAYER_2
 10
82.5126
 20
244.013
  0
VERTEX
  8
LAYER_2
 10
82.5035
 20
244.0075
  0
VERTEX
  8
LAYER_2
 10
82.4959
 20
244.0034
  0
VERTEX
  8
LAYER_2
 10
82.4883
 20
243.9991
  0
VERTEX
  8
LAYER_2
 10
82.4806
 20
243.9949
  0
VERTEX
  8
LAYER_2
 10
82.473
 20
243.9908
  0
VERTEX
  8
LAYER_2
 10
82.4615
 20
243.9849
  0
VERTEX
  8
LAYER_2
 10
82.4499
 20
243.9789
  0
VERTEX
  8
LAYER_2
 10
82.4382
 20
243.9732
  0
VERTEX
  8
LAYER_2
 10
82.4265
 20
243.9677
  0
VERTEX
  8
LAYER_2
 10
82.4146
 20
243.9622
  0
VERTEX
  8
LAYER_2
 10
82.4027
 20
243.957
  0
VERTEX
  8
LAYER_2
 10
82.3914
 20
243.9522
  0
VERTEX
  8
LAYER_2
 10
82.38
 20
243.9477
  0
VERTEX
  8
LAYER_2
 10
82.3686
 20
243.9431
  0
VERTEX
  8
LAYER_2
 10
82.3572
 20
243.9389
  0
VERTEX
  8
LAYER_2
 10
82.3454
 20
243.9346
  0
VERTEX
  8
LAYER_2
 10
82.334
 20
243.9308
  0
VERTEX
  8
LAYER_2
 10
82.3245
 20
243.9277
  0
VERTEX
  8
LAYER_2
 10
82.3154
 20
243.925
  0
VERTEX
  8
LAYER_2
 10
82.3059
 20
243.9222
  0
VERTEX
  8
LAYER_2
 10
82.2966
 20
243.9197
  0
VERTEX
  8
LAYER_2
 10
82.2883
 20
243.9172
  0
VERTEX
  8
LAYER_2
 10
82.2799
 20
243.915
  0
VERTEX
  8
LAYER_2
 10
82.2716
 20
243.9129
  0
VERTEX
  8
LAYER_2
 10
82.2634
 20
243.911
  0
VERTEX
  8
LAYER_2
 10
82.2515
 20
243.9085
  0
VERTEX
  8
LAYER_2
 10
82.2393
 20
243.9057
  0
VERTEX
  8
LAYER_2
 10
82.2272
 20
243.9035
  0
VERTEX
  8
LAYER_2
 10
82.2151
 20
243.9012
  0
VERTEX
  8
LAYER_2
 10
82.2031
 20
243.8993
  0
VERTEX
  8
LAYER_2
 10
82.191
 20
243.8976
  0
VERTEX
  8
LAYER_2
 10
82.179
 20
243.8959
  0
VERTEX
  8
LAYER_2
 10
82.1671
 20
243.8945
  0
VERTEX
  8
LAYER_2
 10
82.1552
 20
243.8933
  0
VERTEX
  8
LAYER_2
 10
82.1433
 20
243.8923
  0
VERTEX
  8
LAYER_2
 10
82.1311
 20
243.8914
  0
VERTEX
  8
LAYER_2
 10
82.1192
 20
243.8905
  0
VERTEX
  8
LAYER_2
 10
82.1102
 20
243.8904
  0
VERTEX
  8
LAYER_2
 10
82.1013
 20
243.89
  0
VERTEX
  8
LAYER_2
 10
82.0923
 20
243.89
  0
VERTEX
  8
LAYER_2
 10
82.0834
 20
243.8899
  0
VERTEX
  8
LAYER_2
 10
82.0744
 20
243.89
  0
VERTEX
  8
LAYER_2
 10
82.0654
 20
243.89
  0
VERTEX
  8
LAYER_2
 10
82.0565
 20
243.8904
  0
VERTEX
  8
LAYER_2
 10
82.0474
 20
243.8905
  0
VERTEX
  8
LAYER_2
 10
82.0355
 20
243.8914
  0
VERTEX
  8
LAYER_2
 10
82.0236
 20
243.8923
  0
VERTEX
  8
LAYER_2
 10
82.0115
 20
243.8933
  0
VERTEX
  8
LAYER_2
 10
81.9996
 20
243.8945
  0
VERTEX
  8
LAYER_2
 10
81.9876
 20
243.8959
  0
VERTEX
  8
LAYER_2
 10
81.9759
 20
243.8976
  0
VERTEX
  8
LAYER_2
 10
81.9636
 20
243.8993
  0
VERTEX
  8
LAYER_2
 10
81.9514
 20
243.9012
  0
SEQEND
  0
POLYLINE
  8
LAYER_2
 40
0.2469
 41
0.2469
 66
1
 10
0
 20
0
 30
0
  0
VERTEX
  8
LAYER_2
 10
81.9514
 20
243.9012
  0
VERTEX
  8
LAYER_2
 10
81.9394
 20
243.9035
  0
VERTEX
  8
LAYER_2
 10
81.9273
 20
243.9057
  0
VERTEX
  8
LAYER_2
 10
81.9154
 20
243.9085
  0
VERTEX
  8
LAYER_2
 10
81.9034
 20
243.911
  0
VERTEX
  8
LAYER_2
 10
81.8949
 20
243.9129
  0
VERTEX
  8
LAYER_2
 10
81.8866
 20
243.915
  0
VERTEX
  8
LAYER_2
 10
81.8784
 20
243.9172
  0
VERTEX
  8
LAYER_2
 10
81.8699
 20
243.9197
  0
VERTEX
  8
LAYER_2
 10
81.8606
 20
243.9222
  0
VERTEX
  8
LAYER_2
 10
81.8513
 20
243.925
  0
VERTEX
  8
LAYER_2
 10
81.8419
 20
243.9277
  0
VERTEX
  8
LAYER_2
 10
81.8329
 20
243.9308
  0
VERTEX
  8
LAYER_2
 10
81.821
 20
243.9346
  0
VERTEX
  8
LAYER_2
 10
81.8096
 20
243.9389
  0
VERTEX
  8
LAYER_2
 10
81.7981
 20
243.9431
  0
VERTEX
  8
LAYER_2
 10
81.7866
 20
243.9477
  0
VERTEX
  8
LAYER_2
 10
81.7752
 20
243.9522
  0
VERTEX
  8
LAYER_2
 10
81.764
 20
243.957
  0
VERTEX
  8
LAYER_2
 10
81.7521
 20
243.9622
  0
VERTEX
  8
LAYER_2
 10
81.7402
 20
243.9677
  0
VERTEX
  8
LAYER_2
 10
81.7285
 20
243.9732
  0
VERTEX
  8
LAYER_2
 10
81.7168
 20
243.9789
  0
VERTEX
  8
LAYER_2
 10
81.7051
 20
243.9849
  0
VERTEX
  8
LAYER_2
 10
81.6937
 20
243.9908
  0
VERTEX
  8
LAYER_2
 10
81.686
 20
243.9949
  0
VERTEX
  8
LAYER_2
 10
81.6784
 20
243.9991
  0
VERTEX
  8
LAYER_2
 10
81.6708
 20
244.0034
  0
VERTEX
  8
LAYER_2
 10
81.6632
 20
244.0075
  0
VERTEX
  8
LAYER_2
 10
81.6539
 20
244.013
  0
VERTEX
  8
LAYER_2
 10
81.6448
 20
244.0184
  0
VERTEX
  8
LAYER_2
 10
81.6355
 20
244.0242
  0
VERTEX
  8
LAYER_2
 10
81.6264
 20
244.0299
  0
VERTEX
  8
LAYER_2
 10
81.6155
 20
244.0368
  0
VERTEX
  8
LAYER_2
 10
81.6047
 20
244.044
  0
VERTEX
  8
LAYER_2
 10
81.5942
 20
244.0514
  0
VERTEX
  8
LAYER_2
 10
81.5835
 20
244.0588
  0
VERTEX
  8
LAYER_2
 10
81.573
 20
244.0664
  0
VERTEX
  8
LAYER_2
 10
81.5623
 20
244.074
  0
VERTEX
  8
LAYER_2
 10
81.5502
 20
244.0833
  0
VERTEX
  8
LAYER_2
 10
81.5385
 20
244.0924
  0
VERTEX
  8
LAYER_2
 10
81.5265
 20
244.1019
  0
VERTEX
  8
LAYER_2
 10
81.5149
 20
244.1115
  0
VERTEX
  8
LAYER_2
 10
81.5032
 20
244.1214
  0
VERTEX
  8
LAYER_2
 10
81.4918
 20
244.1312
  0
VERTEX
  8
LAYER_2
 10
81.4805
 20
244.1412
  0
VERTEX
  8
LAYER_2
 10
81.4693
 20
244.1513
  0
VERTEX
  8
LAYER_2
 10
81.4676
 20
244.1532
  0
VERTEX
  8
LAYER_2
 10
81.4653
 20
244.155
  0
VERTEX
  8
LAYER_2
 10
81.4541
 20
244.166
  0
VERTEX
  8
LAYER_2
 10
81.4433
 20
244.1773
  0
VERTEX
  8
LAYER_2
 10
81.4324
 20
244.1885
  0
VERTEX
  8
LAYER_2
 10
81.4212
 20
244.1997
  0
VERTEX
  8
LAYER_2
 10
81.4102
 20
244.2111
  0
VERTEX
  8
LAYER_2
 10
81.3992
 20
244.2225
  0
VERTEX
  8
LAYER_2
 10
81.3881
 20
244.2337
  0
VERTEX
  8
LAYER_2
 10
81.3771
 20
244.2449
  0
VERTEX
  8
LAYER_2
 10
81.3659
 20
244.2569
  0
VERTEX
  8
LAYER_2
 10
81.3549
 20
244.269
  0
VERTEX
  8
LAYER_2
 10
81.3442
 20
244.2816
  0
VERTEX
  8
LAYER_2
 10
81.3339
 20
244.2943
  0
VERTEX
  8
LAYER_2
 10
81.3235
 20
244.3072
  0
VERTEX
  8
LAYER_2
 10
81.3136
 20
244.3201
  0
VERTEX
  8
LAYER_2
 10
81.3037
 20
244.3334
  0
VERTEX
  8
LAYER_2
 10
81.2939
 20
244.3465
  0
VERTEX
  8
LAYER_2
 10
81.2922
 20
244.3487
  0
VERTEX
  8
LAYER_2
 10
81.2906
 20
244.3508
  0
VERTEX
  8
LAYER_2
 10
81.2827
 20
244.362
  0
VERTEX
  8
LAYER_2
 10
81.2753
 20
244.3734
  0
VERTEX
  8
LAYER_2
 10
81.2674
 20
244.3847
  0
VERTEX
  8
LAYER_2
 10
81.2598
 20
244.3959
  0
VERTEX
  8
LAYER_2
 10
81.2521
 20
244.4075
  0
VERTEX
  8
LAYER_2
 10
81.2445
 20
244.4185
  0
VERTEX
  8
LAYER_2
 10
81.2366
 20
244.4299
  0
VERTEX
  8
LAYER_2
 10
81.229
 20
244.4412
  0
VERTEX
  8
LAYER_2
 10
81.2212
 20
244.4524
  0
VERTEX
  8
LAYER_2
 10
81.2136
 20
244.4638
  0
VERTEX
  8
LAYER_2
 10
81.2057
 20
244.4757
  0
VERTEX
  8
LAYER_2
 10
81.1978
 20
244.4876
  0
VERTEX
  8
LAYER_2
 10
81.1906
 20
244.4998
  0
VERTEX
  8
LAYER_2
 10
81.1833
 20
244.5119
  0
VERTEX
  8
LAYER_2
 10
81.1764
 20
244.5243
  0
VERTEX
  8
LAYER_2
 10
81.1696
 20
244.5367
  0
VERTEX
  8
LAYER_2
 10
81.1625
 20
244.5494
  0
VERTEX
  8
LAYER_2
 10
81.1559
 20
244.5618
  0
VERTEX
  8
LAYER_2
 10
81.1492
 20
244.5746
  0
VERTEX
  8
LAYER_2
 10
81.1425
 20
244.587
  0
VERTEX
  8
LAYER_2
 10
81.1413
 20
244.5894
  0
VERTEX
  8
LAYER_2
 10
81.1401
 20
244.5914
  0
VERTEX
  8
LAYER_2
 10
81.1337
 20
244.6047
  0
VERTEX
  8
LAYER_2
 10
81.1275
 20
244.618
  0
VERTEX
  8
LAYER_2
 10
81.1211
 20
244.6314
  0
VERTEX
  8
LAYER_2
 10
81.1146
 20
244.6447
  0
VERTEX
  8
LAYER_2
 10
81.1081
 20
244.6579
  0
VERTEX
  8
LAYER_2
 10
81.1019
 20
244.6712
  0
VERTEX
  8
LAYER_2
 10
81.0955
 20
244.6845
  0
VERTEX
  8
LAYER_2
 10
81.0891
 20
244.6979
  0
VERTEX
  8
LAYER_2
 10
81.0827
 20
244.711
  0
VERTEX
  8
LAYER_2
 10
81.0764
 20
244.7243
  0
VERTEX
  8
LAYER_2
 10
81.07
 20
244.738
  0
VERTEX
  8
LAYER_2
 10
81.0636
 20
244.752
  0
VERTEX
  8
LAYER_2
 10
81.0576
 20
244.7661
  0
VERTEX
  8
LAYER_2
 10
81.0519
 20
244.7801
  0
VERTEX
  8
LAYER_2
 10
81.0464
 20
244.7942
  0
VERTEX
  8
LAYER_2
 10
81.0409
 20
244.8085
  0
VERTEX
  8
LAYER_2
 10
81.0355
 20
244.8228
  0
VERTEX
  8
LAYER_2
 10
81.0302
 20
244.8371
  0
VERTEX
  8
LAYER_2
 10
81.025
 20
244.8514
  0
VERTEX
  8
LAYER_2
 10
81.0199
 20
244.8658
  0
VERTEX
  8
LAYER_2
 10
81.019
 20
244.8677
  0
VERTEX
  8
LAYER_2
 10
81.0183
 20
244.8698
  0
VERTEX
  8
LAYER_2
 10
81.0131
 20
244.8846
  0
VERTEX
  8
LAYER_2
 10
81.0087
 20
244.8994
  0
VERTEX
  8
LAYER_2
 10
81.0038
 20
244.9144
  0
VERTEX
  8
LAYER_2
 10
80.9988
 20
244.9294
  0
VERTEX
  8
LAYER_2
 10
80.994
 20
244.9442
  0
VERTEX
  8
LAYER_2
 10
80.9892
 20
244.959
  0
VERTEX
  8
LAYER_2
 10
80.9842
 20
244.9737
  0
VERTEX
  8
LAYER_2
 10
80.9794
 20
244.9887
  0
VERTEX
  8
LAYER_2
 10
80.9746
 20
245.0036
  0
VERTEX
  8
LAYER_2
 10
80.9697
 20
245.0185
  0
VERTEX
  8
LAYER_2
 10
80.9649
 20
245.034
  0
VERTEX
  8
LAYER_2
 10
80.9603
 20
245.0493
  0
VERTEX
  8
LAYER_2
 10
80.956
 20
245.0648
  0
VERTEX
  8
LAYER_2
 10
80.9518
 20
245.0801
  0
VERTEX
  8
LAYER_2
 10
80.9479
 20
245.0958
  0
VERTEX
  8
LAYER_2
 10
80.9441
 20
245.1115
  0
VERTEX
  8
LAYER_2
 10
80.9401
 20
245.127
  0
VERTEX
  8
LAYER_2
 10
80.9365
 20
245.1427
  0
VERTEX
  8
LAYER_2
 10
80.9329
 20
245.1583
  0
VERTEX
  8
LAYER_2
 10
80.9293
 20
245.1742
  0
VERTEX
  8
LAYER_2
 10
80.9289
 20
245.1757
  0
VERTEX
  8
LAYER_2
 10
80.9286
 20
245.1769
  0
VERTEX
  8
LAYER_2
 10
80.9253
 20
245.193
  0
VERTEX
  8
LAYER_2
 10
80.9222
 20
245.2091
  0
VERTEX
  8
LAYER_2
 10
80.9191
 20
245.2252
  0
VERTEX
  8
LAYER_2
 10
80.916
 20
245.2412
  0
VERTEX
  8
LAYER_2
 10
80.9127
 20
245.2572
  0
VERTEX
  8
LAYER_2
 10
80.9096
 20
245.2732
  0
VERTEX
  8
LAYER_2
 10
80.9063
 20
245.2894
  0
VERTEX
  8
LAYER_2
 10
80.9032
 20
245.3054
  0
VERTEX
  8
LAYER_2
 10
80.9
 20
245.3216
  0
VERTEX
  8
LAYER_2
 10
80.8969
 20
245.3377
  0
VERTEX
  8
LAYER_2
 10
80.8938
 20
245.354
  0
VERTEX
  8
LAYER_2
 10
80.891
 20
245.3704
  0
VERTEX
  8
LAYER_2
 10
80.8884
 20
245.3869
  0
VERTEX
  8
LAYER_2
 10
80.886
 20
245.4035
  0
VERTEX
  8
LAYER_2
 10
80.8836
 20
245.4198
  0
VERTEX
  8
LAYER_2
 10
80.8815
 20
245.4365
  0
VERTEX
  8
LAYER_2
 10
80.8796
 20
245.4531
  0
VERTEX
  8
LAYER_2
 10
80.8776
 20
245.4696
  0
VERTEX
  8
LAYER_2
 10
80.8757
 20
245.486
  0
VERTEX
  8
LAYER_2
 10
80.874
 20
245.5027
  0
VERTEX
  8
LAYER_2
 10
80.874
 20
245.5035
  0
VERTEX
  8
LAYER_2
 10
80.8736
 20
245.5042
  0
VERTEX
  8
LAYER_2
 10
80.8721
 20
245.5211
  0
VERTEX
  8
LAYER_2
 10
80.8709
 20
245.5376
  0
VERTEX
  8
LAYER_2
 10
80.8697
 20
245.5547
  0
VERTEX
  8
LAYER_2
 10
80.8681
 20
245.5712
  0
VERTEX
  8
LAYER_2
 10
80.8667
 20
245.5881
  0
VERTEX
  8
LAYER_2
 10
80.8653
 20
245.6048
  0
VERTEX
  8
LAYER_2
 10
80.864
 20
245.6217
  0
VERTEX
  8
LAYER_2
 10
80.8628
 20
245.6384
  0
VERTEX
  8
LAYER_2
 10
80.8612
 20
245.6553
  0
VERTEX
  8
LAYER_2
 10
80.8598
 20
245.6718
  0
VERTEX
  8
LAYER_2
 10
80.8586
 20
245.6889
  0
VERTEX
  8
LAYER_2
 10
80.8576
 20
245.7058
  0
VERTEX
  8
LAYER_2
 10
80.8567
 20
245.7226
  0
VERTEX
  8
LAYER_2
 10
80.856
 20
245.7395
  0
VERTEX
  8
LAYER_2
 10
80.8557
 20
245.7567
  0
VERTEX
  8
LAYER_2
 10
80.8555
 20
245.7738
  0
VERTEX
  8
LAYER_2
 10
80.8552
 20
245.7907
  0
VERTEX
  8
LAYER_2
 10
80.8552
 20
245.8076
  0
VERTEX
  8
LAYER_2
 10
80.8552
 20
245.8246
  0
VERTEX
  8
LAYER_2
 10
80.8552
 20
245.8417
  0
VERTEX
  8
LAYER_2
 10
80.8555
 20
245.8587
  0
VERTEX
  8
LAYER_2
 10
80.8555
 20
245.8756
  0
VERTEX
  8
LAYER_2
 10
80.8557
 20
245.8925
  0
VERTEX
  8
LAYER_2
 10
80.856
 20
245.9094
  0
VERTEX
  8
LAYER_2
 10
80.8567
 20
245.9264
  0
VERTEX
  8
LAYER_2
 10
80.8569
 20
245.9436
  0
VERTEX
  8
LAYER_2
 10
80.8576
 20
245.9605
  0
VERTEX
  8
LAYER_2
 10
80.8581
 20
245.9774
  0
VERTEX
  8
LAYER_2
 10
80.8591
 20
245.9943
  0
VERTEX
  8
LAYER_2
 10
80.8598
 20
246.0113
  0
VERTEX
  8
LAYER_2
 10
80.8609
 20
246.0282
  0
VERTEX
  8
LAYER_2
 10
80.8617
 20
246.0448
  0
VERTEX
  8
LAYER_2
 10
80.8629
 20
246.0618
  0
VERTEX
  8
LAYER_2
 10
80.8643
 20
246.0785
  0
VERTEX
  8
LAYER_2
 10
80.8655
 20
246.0952
  0
VERTEX
  8
LAYER_2
 10
80.8669
 20
246.1119
  0
VERTEX
  8
LAYER_2
 10
80.8684
 20
246.1288
  0
VERTEX
  8
LAYER_2
 10
80.8703
 20
246.1455
  0
VERTEX
  8
LAYER_2
 10
80.8719
 20
246.1624
  0
VERTEX
  8
LAYER_2
 10
80.8736
 20
246.1789
  0
VERTEX
  8
LAYER_2
 10
80.8738
 20
246.1796
  0
VERTEX
  8
LAYER_2
 10
80.874
 20
246.1805
  0
VERTEX
  8
LAYER_2
 10
80.876
 20
246.1972
  0
VERTEX
  8
LAYER_2
 10
80.8784
 20
246.2134
  0
VERTEX
  8
LAYER_2
 10
80.8809
 20
246.2301
  0
VERTEX
  8
LAYER_2
 10
80.8829
 20
246.2465
  0
VERTEX
  8
LAYER_2
 10
80.8853
 20
246.263
  0
VERTEX
  8
LAYER_2
 10
80.8876
 20
246.2797
  0
VERTEX
  8
LAYER_2
 10
80.89
 20
246.2961
  0
VERTEX
  8
LAYER_2
 10
80.8924
 20
246.3126
  0
VERTEX
  8
LAYER_2
 10
80.8945
 20
246.3292
  0
VERTEX
  8
LAYER_2
 10
80.8969
 20
246.3457
  0
VERTEX
  8
LAYER_2
 10
80.8993
 20
246.3619
  0
VERTEX
  8
LAYER_2
 10
80.902
 20
246.3781
  0
VERTEX
  8
LAYER_2
 10
80.9048
 20
246.3943
  0
VERTEX
  8
LAYER_2
 10
80.9077
 20
246.4103
  0
VERTEX
  8
LAYER_2
 10
80.911
 20
246.4263
  0
VERTEX
  8
LAYER_2
 10
80.9144
 20
246.4423
  0
VERTEX
  8
LAYER_2
 10
80.9177
 20
246.4583
  0
VERTEX
  8
LAYER_2
 10
80.9213
 20
246.4744
  0
VERTEX
  8
LAYER_2
 10
80.9249
 20
246.4904
  0
VERTEX
  8
LAYER_2
 10
80.9286
 20
246.5062
  0
VERTEX
  8
LAYER_2
 10
80.9289
 20
246.5076
  0
VERTEX
  8
LAYER_2
 10
80.9293
 20
246.5088
  0
VERTEX
  8
LAYER_2
 10
80.9332
 20
246.5248
  0
VERTEX
  8
LAYER_2
 10
80.9374
 20
246.5403
  0
VERTEX
  8
LAYER_2
 10
80.9415
 20
246.5558
  0
VERTEX
  8
LAYER_2
 10
80.9454
 20
246.5713
  0
VERTEX
  8
LAYER_2
 10
80.9494
 20
246.587
  0
VERTEX
  8
LAYER_2
 10
80.9535
 20
246.6023
  0
VERTEX
  8
LAYER_2
 10
80.9577
 20
246.6182
  0
VERTEX
  8
LAYER_2
 10
80.9616
 20
246.6335
  0
VERTEX
  8
LAYER_2
 10
80.9658
 20
246.6492
  0
VERTEX
  8
LAYER_2
 10
80.9697
 20
246.6647
  0
VERTEX
  8
LAYER_2
 10
80.9739
 20
246.6799
  0
VERTEX
  8
LAYER_2
 10
80.9782
 20
246.6948
  0
VERTEX
  8
LAYER_2
 10
80.9827
 20
246.7098
  0
VERTEX
  8
LAYER_2
 10
80.9875
 20
246.7248
  0
VERTEX
  8
LAYER_2
 10
80.9923
 20
246.7396
  0
VERTEX
  8
LAYER_2
 10
80.9973
 20
246.7544
  0
VERTEX
  8
LAYER_2
 10
81.0025
 20
246.7693
  0
VERTEX
  8
LAYER_2
 10
81.0078
 20
246.7841
  0
VERTEX
  8
LAYER_2
 10
81.013
 20
246.7989
  0
VERTEX
  8
LAYER_2
 10
81.0183
 20
246.8135
  0
VERTEX
  8
LAYER_2
 10
81.019
 20
246.8154
  0
VERTEX
  8
LAYER_2
 10
81.0199
 20
246.8177
  0
VERTEX
  8
LAYER_2
 10
81.0254
 20
246.8318
  0
VERTEX
  8
LAYER_2
 10
81.0311
 20
246.8457
  0
VERTEX
  8
LAYER_2
 10
81.0367
 20
246.8599
  0
VERTEX
  8
LAYER_2
 10
81.0424
 20
246.8742
  0
VERTEX
  8
LAYER_2
 10
81.0479
 20
246.8883
  0
VERTEX
  8
LAYER_2
 10
81.0538
 20
246.9024
  0
VERTEX
  8
LAYER_2
 10
81.0595
 20
246.9164
  0
VERTEX
  8
LAYER_2
 10
81.065
 20
246.9307
  0
VERTEX
  8
LAYER_2
 10
81.0707
 20
246.9448
  0
VERTEX
  8
LAYER_2
 10
81.0764
 20
246.9591
  0
VERTEX
  8
LAYER_2
 10
81.082
 20
246.9727
  0
VERTEX
  8
LAYER_2
 10
81.0879
 20
246.9861
  0
VERTEX
  8
LAYER_2
 10
81.0939
 20
246.9996
  0
VERTEX
  8
LAYER_2
 10
81.1001
 20
247.0128
  0
VERTEX
  8
LAYER_2
 10
81.1067
 20
247.0261
  0
VERTEX
  8
LAYER_2
 10
81.1131
 20
247.0395
  0
VERTEX
  8
LAYER_2
 10
81.1198
 20
247.0524
  0
VERTEX
  8
LAYER_2
 10
81.1265
 20
247.0655
  0
VERTEX
  8
LAYER_2
 10
81.1334
 20
247.0788
  0
VERTEX
  8
LAYER_2
 10
81.1401
 20
247.0917
  0
VERTEX
  8
LAYER_2
 10
81.1413
 20
247.0938
  0
VERTEX
  8
LAYER_2
 10
81.1425
 20
247.0962
  0
VERTEX
  8
LAYER_2
 10
81.1496
 20
247.1086
  0
VERTEX
  8
LAYER_2
 10
81.1568
 20
247.1208
  0
VERTEX
  8
LAYER_2
 10
81.1637
 20
247.1331
  0
VERTEX
  8
LAYER_2
 10
81.1709
 20
247.1455
  0
VERTEX
  8
LAYER_2
 10
81.178
 20
247.1579
  0
VERTEX
  8
LAYER_2
 10
81.1852
 20
247.1701
  0
VERTEX
  8
LAYER_2
 10
81.1921
 20
247.1823
  0
VERTEX
  8
LAYER_2
 10
81.1994
 20
247.1947
  0
VERTEX
  8
LAYER_2
 10
81.2064
 20
247.2071
  0
VERTEX
  8
LAYER_2
 10
81.2136
 20
247.2195
  0
VERTEX
  8
LAYER_2
 10
81.2205
 20
247.2314
  0
VERTEX
  8
LAYER_2
 10
81.2276
 20
247.2428
  0
VERTEX
  8
LAYER_2
 10
81.235
 20
247.2543
  0
VERTEX
  8
LAYER_2
 10
81.2426
 20
247.2659
  0
VERTEX
  8
LAYER_2
 10
81.2505
 20
247.2769
  0
VERTEX
  8
LAYER_2
 10
81.2583
 20
247.2883
  0
VERTEX
  8
LAYER_2
 10
81.2662
 20
247.2993
  0
VERTEX
  8
LAYER_2
 10
81.2743
 20
247.3105
  0
VERTEX
  8
LAYER_2
 10
81.2825
 20
247.3213
  0
VERTEX
  8
LAYER_2
 10
81.2906
 20
247.3324
  0
VERTEX
  8
LAYER_2
 10
81.2922
 20
247.3346
  0
VERTEX
  8
LAYER_2
 10
81.2939
 20
247.3368
  0
VERTEX
  8
LAYER_2
 10
81.3043
 20
247.3496
  0
VERTEX
  8
LAYER_2
 10
81.3148
 20
247.3622
  0
VERTEX
  8
LAYER_2
 10
81.3251
 20
247.3749
  0
VERTEX
  8
LAYER_2
 10
81.3354
 20
247.3877
  0
VERTEX
  8
LAYER_2
 10
81.3459
 20
247.4002
  0
VERTEX
  8
LAYER_2
 10
81.3563
 20
247.413
  0
VERTEX
  8
LAYER_2
 10
81.3666
 20
247.4257
  0
VERTEX
  8
LAYER_2
 10
81.3771
 20
247.4385
  0
VERTEX
  8
LAYER_2
 10
81.3875
 20
247.4505
  0
VERTEX
  8
LAYER_2
 10
81.3978
 20
247.4622
  0
VERTEX
  8
LAYER_2
 10
81.4085
 20
247.4738
  0
VERTEX
  8
LAYER_2
 10
81.4197
 20
247.485
  0
VERTEX
  8
LAYER_2
 10
81.4309
 20
247.4962
  0
VERTEX
  8
LAYER_2
 10
81.4424
 20
247.507
  0
VERTEX
  8
LAYER_2
 10
81.4539
 20
247.5175
  0
VERTEX
  8
LAYER_2
 10
81.4653
 20
247.5284
  0
VERTEX
  8
LAYER_2
 10
81.4676
 20
247.5303
  0
VERTEX
  8
LAYER_2
 10
81.4693
 20
247.5318
  0
VERTEX
  8
LAYER_2
 10
81.4808
 20
247.5418
  0
VERTEX
  8
LAYER_2
 10
81.4925
 20
247.5513
  0
VERTEX
  8
LAYER_2
 10
81.5042
 20
247.5608
  0
VERTEX
  8
LAYER_2
 10
81.5158
 20
247.5704
  0
VERTEX
  8
LAYER_2
 10
81.5275
 20
247.5801
  0
VERTEX
  8
LAYER_2
 10
81.539
 20
247.5897
  0
VERTEX
  8
LAYER_2
 10
81.5508
 20
247.5995
  0
VERTEX
  8
LAYER_2
 10
81.5623
 20
247.6092
  0
VERTEX
  8
LAYER_2
 10
81.5726
 20
247.6171
  0
VERTEX
  8
LAYER_2
 10
81.583
 20
247.6249
  0
VERTEX
  8
LAYER_2
 10
81.5938
 20
247.6324
  0
VERTEX
  8
LAYER_2
 10
81.6045
 20
247.6395
  0
VERTEX
  8
LAYER_2
 10
81.6155
 20
247.6466
  0
VERTEX
  8
LAYER_2
 10
81.6264
 20
247.6534
  0
VERTEX
  8
LAYER_2
 10
81.6355
 20
247.659
  0
VERTEX
  8
LAYER_2
 10
81.6448
 20
247.6648
  0
VERTEX
  8
LAYER_2
 10
81.6539
 20
247.6702
  0
VERTEX
  8
LAYER_2
 10
81.6632
 20
247.6757
  0
VERTEX
  8
LAYER_2
 10
81.6708
 20
247.68
  0
VERTEX
  8
LAYER_2
 10
81.6784
 20
247.6841
  0
VERTEX
  8
LAYER_2
 10
81.686
 20
247.6882
  0
VERTEX
  8
LAYER_2
 10
81.6937
 20
247.6925
  0
VERTEX
  8
LAYER_2
 10
81.7051
 20
247.6984
  0
VERTEX
  8
LAYER_2
 10
81.7168
 20
247.7043
  0
VERTEX
  8
LAYER_2
 10
81.7285
 20
247.7101
  0
VERTEX
  8
LAYER_2
 10
81.7402
 20
247.7155
  0
VERTEX
  8
LAYER_2
 10
81.7521
 20
247.721
  0
VERTEX
  8
LAYER_2
 10
81.764
 20
247.7261
  0
VERTEX
  8
LAYER_2
 10
81.7752
 20
247.731
  0
VERTEX
  8
LAYER_2
 10
81.7866
 20
247.7354
  0
VERTEX
  8
LAYER_2
 10
81.7981
 20
247.7399
  0
VERTEX
  8
LAYER_2
 10
81.8096
 20
247.7442
  0
VERTEX
  8
LAYER_2
 10
81.821
 20
247.7485
  0
VERTEX
  8
LAYER_2
 10
81.8329
 20
247.7523
  0
VERTEX
  8
LAYER_2
 10
81.8419
 20
247.7554
  0
VERTEX
  8
LAYER_2
 10
81.8513
 20
247.7583
  0
VERTEX
  8
LAYER_2
 10
81.8606
 20
247.7611
  0
VERTEX
  8
LAYER_2
 10
81.8699
 20
247.7637
  0
VERTEX
  8
LAYER_2
 10
81.8784
 20
247.7659
  0
VERTEX
  8
LAYER_2
 10
81.8866
 20
247.7682
  0
VERTEX
  8
LAYER_2
 10
81.8949
 20
247.7702
  0
VERTEX
  8
LAYER_2
 10
81.9034
 20
247.7723
  0
VERTEX
  8
LAYER_2
 10
81.9154
 20
247.7751
  0
VERTEX
  8
LAYER_2
 10
81.9273
 20
247.7775
  0
VERTEX
  8
LAYER_2
 10
81.9394
 20
247.7799
  0
VERTEX
  8
LAYER_2
 10
81.9514
 20
247.7819
  0
VERTEX
  8
LAYER_2
 10
81.9636
 20
247.784
  0
VERTEX
  8
LAYER_2
 10
81.9759
 20
247.7857
  0
VERTEX
  8
LAYER_2
 10
81.9876
 20
247.7875
  0
VERTEX
  8
LAYER_2
 10
81.9996
 20
247.7887
  0
VERTEX
  8
LAYER_2
 10
82.0115
 20
247.79
  0
VERTEX
  8
LAYER_2
 10
82.0236
 20
247.7911
  0
VERTEX
  8
LAYER_2
 10
82.0355
 20
247.7919
  0
VERTEX
  8
LAYER_2
 10
82.0474
 20
247.7926
  0
VERTEX
  8
LAYER_2
 10
82.0565
 20
247.793
  0
VERTEX
  8
LAYER_2
 10
82.0654
 20
247.7931
  0
VERTEX
  8
LAYER_2
 10
82.0744
 20
247.7933
  0
VERTEX
  8
LAYER_2
 10
82.0834
 20
247.7935
  0
VERTEX
  8
LAYER_2
 10
82.0923
 20
247.7933
  0
VERTEX
  8
LAYER_2
 10
82.1013
 20
247.7931
  0
VERTEX
  8
LAYER_2
 10
82.1102
 20
247.793
  0
VERTEX
  8
LAYER_2
 10
82.1192
 20
247.7926
  0
VERTEX
  8
LAYER_2
 10
82.1311
 20
247.7919
  0
VERTEX
  8
LAYER_2
 10
82.1433
 20
247.7911
  0
VERTEX
  8
LAYER_2
 10
82.1552
 20
247.79
  0
VERTEX
  8
LAYER_2
 10
82.1671
 20
247.7887
  0
VERTEX
  8
LAYER_2
 10
82.179
 20
247.7875
  0
VERTEX
  8
LAYER_2
 10
82.191
 20
247.7857
  0
VERTEX
  8
LAYER_2
 10
82.2019
 20
247.7842
  0
VERTEX
  8
LAYER_2
 10
82.2127
 20
247.7823
  0
SEQEND
  0
ENDBLK
  0
BLOCK
  8
LAYER_2
  2
AIGNBL020400D2
 70
64
 10
0
 20
0
 30
0
  3
AIGNBL020400D2
  0
POLYLINE
  8
LAYER_2
 40
0.2469
 41
0.2469
 66
1
 10
0
 20
0
 30
0
  0
VERTEX
  8
LAYER_2
 10
91.5327
 20
245.6661
  0
VERTEX
  8
LAYER_2
 10
90.4797
 20
245.6661
  0
SEQEND
  0
ENDBLK
  0
BLOCK
  8
LAYER_2
  2
AIGNBL020400D3
 70
64
 10
0
 20
0
 30
0
  3
AIGNBL020400D3
  0
POLYLINE
  8
LAYER_2
 40
0.2469
 41
0.2469
 66
1
 10
0
 20
0
 30
0
  0
VERTEX
  8
LAYER_2
 10
90.4797
 20
246.017
  0
VERTEX
  8
LAYER_2
 10
91.5327
 20
246.017
  0
SEQEND
  0
ENDBLK
  0
BLOCK
  8
LAYER_2
  2
AIGNBL020400D4
 70
64
 10
0
 20
0
 30
0
  3
AIGNBL020400D4
  0
POLYLINE
  8
LAYER_2
 40
0.2469
 41
0.2469
 66
1
 10
0
 20
0
 30
0
  0
VERTEX
  8
LAYER_2
 10
91.5327
 20
245.6661
  0
VERTEX
  8
LAYER_2
 10
91.5327
 20
250.5787
  0
SEQEND
  0
ENDBLK
  0
BLOCK
  8
LAYER_2
  2
AIGNBL020400D5
 70
64
 10
0
 20
0
 30
0
  3
AIGNBL020400D5
  0
POLYLINE
  8
LAYER_2
 40
0.2469
 41
0.2469
 66
1
 10
0
 20
0
 30
0
  0
VERTEX
  8
LAYER_2
 10
90.4797
 20
246.3681
  0
VERTEX
  8
LAYER_2
 10
91.5327
 20
246.3681
  0
SEQEND
  0
ENDBLK
  0
BLOCK
  8
LAYER_2
  2
AIGNBL020400D6
 70
64
 10
0
 20
0
 30
0
  3
AIGNBL020400D6
  0
POLYLINE
  8
LAYER_2
 40
0.2469
 41
0.2469
 66
1
 10
0
 20
0
 30
0
  0
VERTEX
  8
LAYER_2
 10
90.4797
 20
250.5787
  0
VERTEX
  8
LAYER_2
 10
90.4797
 20
245.6661
  0
SEQEND
  0
ENDBLK
  0
BLOCK
  8
LAYER_2
  2
AIGNBL020400D7
 70
64
 10
0
 20
0
 30
0
  3
AIGNBL020400D7
  0
POLYLINE
  8
LAYER_2
 40
0.2469
 41
0.2469
 66
1
 10
0
 20
0
 30
0
  0
VERTEX
  8
LAYER_2
 10
90.5381
 20
246.719
  0
VERTEX
  8
LAYER_2
 10
91.4659
 20
246.719
  0
SEQEND
  0
ENDBLK
  0
BLOCK
  8
LAYER_2
  2
AIGNBL020400D8
 70
64
 10
0
 20
0
 30
0
  3
AIGNBL020400D8
  0
POLYLINE
  8
LAYER_2
 40
0.2469
 41
0.2469
 66
1
 10
0
 20
0
 30
0
  0
VERTEX
  8
LAYER_2
 10
90.6064
 20
247.0698
  0
VERTEX
  8
LAYER_2
 10
91.4259
 20
247.0698
  0
SEQEND
  0
ENDBLK
  0
BLOCK
  8
LAYER_2
  2
AIGNBL020400D9
 70
64
 10
0
 20
0
 30
0
  3
AIGNBL020400D9
  0
POLYLINE
  8
LAYER_2
 40
0.2469
 41
0.2469
 66
1
 10
0
 20
0
 30
0
  0
VERTEX
  8
LAYER_2
 10
90.7316
 20
247.4209
  0
VERTEX
  8
LAYER_2
 10
91.352
 20
247.4209
  0
SEQEND
  0
ENDBLK
  0
BLOCK
  8
LAYER_2
  2
AIGNBL020400DA
 70
64
 10
0
 20
0
 30
0
  3
AIGNBL020400DA
  0
POLYLINE
  8
LAYER_2
 40
0.2469
 41
0.2469
 66
1
 10
0
 20
0
 30
0
  0
VERTEX
  8
LAYER_2
 10
90.8227
 20
247.7718
  0
VERTEX
  8
LAYER_2
 10
91.2668
 20
247.7718
  0
SEQEND
  0
ENDBLK
  0
BLOCK
  8
LAYER_2
  2
AIGNBL020400DB
 70
64
 10
0
 20
0
 30
0
  3
AIGNBL020400DB
  0
POLYLINE
  8
LAYER_2
 40
0.2469
 41
0.2469
 66
1
 10
0
 20
0
 30
0
  0
VERTEX
  8
LAYER_2
 10
91.2668
 20
248.4736
  0
VERTEX
  8
LAYER_2
 10
90.8227
 20
248.4736
  0
SEQEND
  0
ENDBLK
  0
BLOCK
  8
LAYER_2
  2
AIGNBL020400DC
 70
64
 10
0
 20
0
 30
0
  3
AIGNBL020400DC
  0
POLYLINE
  8
LAYER_2
 40
0.2469
 41
0.2469
 66
1
 10
0
 20
0
 30
0
  0
VERTEX
  8
LAYER_2
 10
91.352
 20
248.8244
  0
VERTEX
  8
LAYER_2
 10
90.7316
 20
248.8244
  0
SEQEND
  0
ENDBLK
  0
BLOCK
  8
LAYER_2
  2
AIGNBL020400DD
 70
64
 10
0
 20
0
 30
0
  3
AIGNBL020400DD
  0
POLYLINE
  8
LAYER_2
 40
0.2469
 41
0.2469
 66
1
 10
0
 20
0
 30
0
  0
VERTEX
  8
LAYER_2
 10
91.4259
 20
249.1753
  0
VERTEX
  8
LAYER_2
 10
90.6064
 20
249.1753
  0
SEQEND
  0
ENDBLK
  0
BLOCK
  8
LAYER_2
  2
AIGNBL020400DE
 70
64
 10
0
 20
0
 30
0
  3
AIGNBL020400DE
  0
POLYLINE
  8
LAYER_2
 40
0.2469
 41
0.2469
 66
1
 10
0
 20
0
 30
0
  0
VERTEX
  8
LAYER_2
 10
91.4659
 20
249.5262
  0
VERTEX
  8
LAYER_2
 10
90.5381
 20
249.5262
  0
SEQEND
  0
ENDBLK
  0
BLOCK
  8
LAYER_2
  2
AIGNBL020400DF
 70
64
 10
0
 20
0
 30
0
  3
AIGNBL020400DF
  0
POLYLINE
  8
LAYER_2
 40
0.2469
 41
0.2469
 66
1
 10
0
 20
0
 30
0
  0
VERTEX
  8
LAYER_2
 10
91.5327
 20
249.8771
  0
VERTEX
  8
LAYER_2
 10
90.4797
 20
249.8771
  0
SEQEND
  0
ENDBLK
  0
BLOCK
  8
LAYER_2
  2
AIGNBL020400E0
 70
64
 10
0
 20
0
 30
0
  3
AIGNBL020400E0
  0
POLYLINE
  8
LAYER_2
 40
0.2469
 41
0.2469
 66
1
 10
0
 20
0
 30
0
  0
VERTEX
  8
LAYER_2
 10
91.5327
 20
250.228
  0
VERTEX
  8
LAYER_2
 10
90.4797
 20
250.228
  0
SEQEND
  0
ENDBLK
  0
BLOCK
  8
LAYER_2
  2
AIGNBL020400E1
 70
64
 10
0
 20
0
 30
0
  3
AIGNBL020400E1
  0
POLYLINE
  8
LAYER_2
 40
0.2469
 41
0.2469
 66
1
 10
0
 20
0
 30
0
  0
VERTEX
  8
LAYER_2
 10
90.4797
 20
250.5787
  0
VERTEX
  8
LAYER_2
 10
91.5327
 20
250.5787
  0
SEQEND
  0
ENDBLK
  0
BLOCK
  8
LAYER_2
  2
AIGNBL020400E2
 70
64
 10
0
 20
0
 30
0
  3
AIGNBL020400E2
  0
POLYLINE
  8
LAYER_2
 40
0.2469
 41
0.2469
 66
1
 10
0
 20
0
 30
0
  0
VERTEX
  8
LAYER_2
 10
91.5327
 20
250.5787
  0
VERTEX
  8
LAYER_2
 10
91.627
 20
250.228
  0
SEQEND
  0
ENDBLK
  0
BLOCK
  8
LAYER_2
  2
AIGNBL020400E3
 70
64
 10
0
 20
0
 30
0
  3
AIGNBL020400E3
  0
POLYLINE
  8
LAYER_2
 40
0.2469
 41
0.2469
 66
1
 10
0
 20
0
 30
0
  0
VERTEX
  8
LAYER_2
 10
91.627
 20
246.017
  0
VERTEX
  8
LAYER_2
 10
91.5327
 20
245.6661
  0
SEQEND
  0
ENDBLK
  0
BLOCK
  8
LAYER_2
  2
AIGNBL020400E4
 70
64
 10
0
 20
0
 30
0
  3
AIGNBL020400E4
  0
POLYLINE
  8
LAYER_2
 40
0.2469
 41
0.2469
 66
1
 10
0
 20
0
 30
0
  0
VERTEX
  8
LAYER_2
 10
91.2668
 20
197.4489
  0
VERTEX
  8
LAYER_2
 10
90.8227
 20
197.4489
  0
SEQEND
  0
ENDBLK
  0
BLOCK
  8
LAYER_2
  2
AIGNBL020400E5
 70
64
 10
0
 20
0
 30
0
  3
AIGNBL020400E5
  0
POLYLINE
  8
LAYER_2
 40
0.2469
 41
0.2469
 66
1
 10
0
 20
0
 30
0
  0
VERTEX
  8
LAYER_2
 10
91.352
 20
197.7998
  0
VERTEX
  8
LAYER_2
 10
90.7316
 20
197.7998
  0
SEQEND
  0
ENDBLK
  0
BLOCK
  8
LAYER_2
  2
AIGNBL020400E6
 70
64
 10
0
 20
0
 30
0
  3
AIGNBL020400E6
  0
POLYLINE
  8
LAYER_2
 40
0.2469
 41
0.2469
 66
1
 10
0
 20
0
 30
0
  0
VERTEX
  8
LAYER_2
 10
91.4259
 20
198.1507
  0
VERTEX
  8
LAYER_2
 10
90.6064
 20
198.1507
  0
SEQEND
  0
ENDBLK
  0
BLOCK
  8
LAYER_2
  2
AIGNBL020400E7
 70
64
 10
0
 20
0
 30
0
  3
AIGNBL020400E7
  0
POLYLINE
  8
LAYER_2
 40
0.2469
 41
0.2469
 66
1
 10
0
 20
0
 30
0
  0
VERTEX
  8
LAYER_2
 10
91.4659
 20
198.5016
  0
VERTEX
  8
LAYER_2
 10
90.5381
 20
198.5016
  0
SEQEND
  0
ENDBLK
  0
BLOCK
  8
LAYER_2
  2
AIGNBL020400E8
 70
64
 10
0
 20
0
 30
0
  3
AIGNBL020400E8
  0
POLYLINE
  8
LAYER_2
 40
0.2469
 41
0.2469
 66
1
 10
0
 20
0
 30
0
  0
VERTEX
  8
LAYER_2
 10
91.5327
 20
198.8525
  0
VERTEX
  8
LAYER_2
 10
90.4797
 20
198.8525
  0
SEQEND
  0
ENDBLK
  0
BLOCK
  8
LAYER_2
  2
AIGNBL020400E9
 70
64
 10
0
 20
0
 30
0
  3
AIGNBL020400E9
  0
POLYLINE
  8
LAYER_2
 40
0.2469
 41
0.2469
 66
1
 10
0
 20
0
 30
0
  0
VERTEX
  8
LAYER_2
 10
91.5327
 20
199.2033
  0
VERTEX
  8
LAYER_2
 10
90.4797
 20
199.2033
  0
SEQEND
  0
ENDBLK
  0
BLOCK
  8
LAYER_2
  2
AIGNBL020400EA
 70
64
 10
0
 20
0
 30
0
  3
AIGNBL020400EA
  0
POLYLINE
  8
LAYER_2
 40
0.2469
 41
0.2469
 66
1
 10
0
 20
0
 30
0
  0
VERTEX
  8
LAYER_2
 10
91.5327
 20
199.5544
  0
VERTEX
  8
LAYER_2
 10
91.627
 20
199.2033
  0
SEQEND
  0
ENDBLK
  0
BLOCK
  8
LAYER_2
  2
AIGNBL020400EB
 70
64
 10
0
 20
0
 30
0
  3
AIGNBL020400EB
  0
POLYLINE
  8
LAYER_2
 40
0.2469
 41
0.2469
 66
1
 10
0
 20
0
 30
0
  0
VERTEX
  8
LAYER_2
 10
90.4797
 20
199.5544
  0
VERTEX
  8
LAYER_2
 10
90.4797
 20
194.6417
  0
SEQEND
  0
ENDBLK
  0
BLOCK
  8
LAYER_2
  2
AIGNBL020400EC
 70
64
 10
0
 20
0
 30
0
  3
AIGNBL020400EC
  0
POLYLINE
  8
LAYER_2
 40
0.2469
 41
0.2469
 66
1
 10
0
 20
0
 30
0
  0
VERTEX
  8
LAYER_2
 10
90.4797
 20
199.5544
  0
VERTEX
  8
LAYER_2
 10
91.5327
 20
199.5544
  0
SEQEND
  0
ENDBLK
  0
BLOCK
  8
LAYER_2
  2
AIGNBL020400ED
 70
64
 10
0
 20
0
 30
0
  3
AIGNBL020400ED
  0
POLYLINE
  8
LAYER_2
 40
0.2469
 41
0.2469
 66
1
 10
0
 20
0
 30
0
  0
VERTEX
  8
LAYER_2
 10
91.5327
 20
194.6417
  0
VERTEX
  8
LAYER_2
 10
90.4797
 20
194.6417
  0
SEQEND
  0
ENDBLK
  0
BLOCK
  8
LAYER_2
  2
AIGNBL020400EE
 70
64
 10
0
 20
0
 30
0
  3
AIGNBL020400EE
  0
POLYLINE
  8
LAYER_2
 40
0.2469
 41
0.2469
 66
1
 10
0
 20
0
 30
0
  0
VERTEX
  8
LAYER_2
 10
91.627
 20
194.9927
  0
VERTEX
  8
LAYER_2
 10
91.5327
 20
194.6417
  0
SEQEND
  0
ENDBLK
  0
BLOCK
  8
LAYER_2
  2
AIGNBL020400EF
 70
64
 10
0
 20
0
 30
0
  3
AIGNBL020400EF
  0
POLYLINE
  8
LAYER_2
 40
0.2469
 41
0.2469
 66
1
 10
0
 20
0
 30
0
  0
VERTEX
  8
LAYER_2
 10
91.5327
 20
194.6417
  0
VERTEX
  8
LAYER_2
 10
91.5327
 20
199.5544
  0
SEQEND
  0
ENDBLK
  0
BLOCK
  8
LAYER_2
  2
AIGNBL020400F0
 70
64
 10
0
 20
0
 30
0
  3
AIGNBL020400F0
  0
POLYLINE
  8
LAYER_2
 40
0.2469
 41
0.2469
 66
1
 10
0
 20
0
 30
0
  0
VERTEX
  8
LAYER_2
 10
90.4797
 20
194.9927
  0
VERTEX
  8
LAYER_2
 10
91.5327
 20
194.9927
  0
SEQEND
  0
ENDBLK
  0
BLOCK
  8
LAYER_2
  2
AIGNBL020400F1
 70
64
 10
0
 20
0
 30
0
  3
AIGNBL020400F1
  0
POLYLINE
  8
LAYER_2
 40
0.2469
 41
0.2469
 66
1
 10
0
 20
0
 30
0
  0
VERTEX
  8
LAYER_2
 10
90.4797
 20
195.3435
  0
VERTEX
  8
LAYER_2
 10
91.5327
 20
195.3435
  0
SEQEND
  0
ENDBLK
  0
BLOCK
  8
LAYER_2
  2
AIGNBL020400F2
 70
64
 10
0
 20
0
 30
0
  3
AIGNBL020400F2
  0
POLYLINE
  8
LAYER_2
 40
0.2469
 41
0.2469
 66
1
 10
0
 20
0
 30
0
  0
VERTEX
  8
LAYER_2
 10
90.5381
 20
195.6945
  0
VERTEX
  8
LAYER_2
 10
91.4659
 20
195.6945
  0
SEQEND
  0
ENDBLK
  0
BLOCK
  8
LAYER_2
  2
AIGNBL020400F3
 70
64
 10
0
 20
0
 30
0
  3
AIGNBL020400F3
  0
POLYLINE
  8
LAYER_2
 40
0.2469
 41
0.2469
 66
1
 10
0
 20
0
 30
0
  0
VERTEX
  8
LAYER_2
 10
90.6064
 20
196.0454
  0
VERTEX
  8
LAYER_2
 10
91.4259
 20
196.0454
  0
SEQEND
  0
ENDBLK
  0
BLOCK
  8
LAYER_2
  2
AIGNBL020400F4
 70
64
 10
0
 20
0
 30
0
  3
AIGNBL020400F4
  0
POLYLINE
  8
LAYER_2
 40
0.2469
 41
0.2469
 66
1
 10
0
 20
0
 30
0
  0
VERTEX
  8
LAYER_2
 10
90.7316
 20
196.3963
  0
VERTEX
  8
LAYER_2
 10
91.352
 20
196.3963
  0
SEQEND
  0
ENDBLK
  0
BLOCK
  8
LAYER_2
  2
AIGNBL020400F5
 70
64
 10
0
 20
0
 30
0
  3
AIGNBL020400F5
  0
POLYLINE
  8
LAYER_2
 40
0.2469
 41
0.2469
 66
1
 10
0
 20
0
 30
0
  0
VERTEX
  8
LAYER_2
 10
90.8227
 20
196.7472
  0
VERTEX
  8
LAYER_2
 10
91.2668
 20
196.7472
  0
SEQEND
  0
ENDBLK
  0
BLOCK
  8
LAYER_2
  2
AIGNBL020400F6
 70
64
 10
0
 20
0
 30
0
  3
AIGNBL020400F6
  0
POLYLINE
  8
LAYER_2
 40
0.2469
 41
0.2469
 66
1
 10
0
 20
0
 30
0
  0
VERTEX
  8
LAYER_2
 10
91.6483
 20
246.1049
 42
0.05808144274
  0
VERTEX
  8
LAYER_2
 10
91.8836
 20
248.1227
  0
SEQEND
  0
ENDBLK
  0
BLOCK
  8
LAYER_2
  2
AIGNBL020400F7
 70
64
 10
0
 20
0
 30
0
  3
AIGNBL020400F7
  0
POLYLINE
  8
LAYER_2
 40
0.2469
 41
0.2469
 66
1
 10
0
 20
0
 30
0
  0
VERTEX
  8
LAYER_2
 10
91.627
 20
246.017
  0
VERTEX
  8
LAYER_2
 10
91.6483
 20
246.1049
  0
SEQEND
  0
ENDBLK
  0
BLOCK
  8
LAYER_2
  2
AIGNBL020400F8
 70
64
 10
0
 20
0
 30
0
  3
AIGNBL020400F8
  0
POLYLINE
  8
LAYER_2
 40
0.2469
 41
0.2469
 66
1
 10
0
 20
0
 30
0
  0
VERTEX
  8
LAYER_2
 10
91.8836
 20
248.1227
 42
0.05806599554
  0
VERTEX
  8
LAYER_2
 10
91.6483
 20
250.1403
  0
SEQEND
  0
ENDBLK
  0
BLOCK
  8
LAYER_2
  2
AIGNBL020400F9
 70
64
 10
0
 20
0
 30
0
  3
AIGNBL020400F9
  0
POLYLINE
  8
LAYER_2
 40
0.2469
 41
0.2469
 66
1
 10
0
 20
0
 30
0
  0
VERTEX
  8
LAYER_2
 10
91.6483
 20
250.1403
  0
VERTEX
  8
LAYER_2
 10
91.627
 20
250.228
  0
SEQEND
  0
ENDBLK
  0
BLOCK
  8
LAYER_2
  2
AIGNBL020400FA
 70
64
 10
0
 20
0
 30
0
  3
AIGNBL020400FA
  0
POLYLINE
  8
LAYER_2
 40
0.2469
 41
0.2469
 66
1
 10
0
 20
0
 30
0
  0
VERTEX
  8
LAYER_2
 10
91.8836
 20
197.098
 42
0.05806883863
  0
VERTEX
  8
LAYER_2
 10
91.6483
 20
199.1157
  0
SEQEND
  0
ENDBLK
  0
BLOCK
  8
LAYER_2
  2
AIGNBL020400FB
 70
64
 10
0
 20
0
 30
0
  3
AIGNBL020400FB
  0
POLYLINE
  8
LAYER_2
 40
0.2469
 41
0.2469
 66
1
 10
0
 20
0
 30
0
  0
VERTEX
  8
LAYER_2
 10
91.6483
 20
199.1157
  0
VERTEX
  8
LAYER_2
 10
91.627
 20
199.2033
  0
SEQEND
  0
ENDBLK
  0
BLOCK
  8
LAYER_2
  2
AIGNBL020400FC
 70
64
 10
0
 20
0
 30
0
  3
AIGNBL020400FC
  0
POLYLINE
  8
LAYER_2
 40
0.2469
 41
0.2469
 66
1
 10
0
 20
0
 30
0
  0
VERTEX
  8
LAYER_2
 10
91.627
 20
194.9927
  0
VERTEX
  8
LAYER_2
 10
91.6483
 20
195.0804
  0
SEQEND
  0
ENDBLK
  0
BLOCK
  8
LAYER_2
  2
AIGNBL020400FD
 70
64
 10
0
 20
0
 30
0
  3
AIGNBL020400FD
  0
POLYLINE
  8
LAYER_2
 40
0.2469
 41
0.2469
 66
1
 10
0
 20
0
 30
0
  0
VERTEX
  8
LAYER_2
 10
91.6483
 20
195.0804
 42
0.05806598484
  0
VERTEX
  8
LAYER_2
 10
91.8836
 20
197.098
  0
SEQEND
  0
ENDBLK
  0
BLOCK
  8
LAYER_2
  2
AIGNBL020400FE
 70
64
 10
0
 20
0
 30
0
  3
AIGNBL020400FE
  0
POLYLINE
  8
LAYER_2
 40
0.2469
 41
0.2469
 66
1
 10
0
 20
0
 30
0
 70
1
  0
VERTEX
  8
LAYER_2
 10
130.4826
 20
197.098
 42
0.4142184299
  0
VERTEX
  8
LAYER_2
 10
128.0263
 20
199.5544
 42
0.4142198738
  0
VERTEX
  8
LAYER_2
 10
125.5699
 20
197.098
 42
0.4142086951
  0
VERTEX
  8
LAYER_2
 10
128.0263
 20
194.6417
 42
0.414207251
  0
SEQEND
  0
ENDBLK
  0
BLOCK
  8
LAYER_7
  2
AIGNBL07040006
 70
64
 10
0
 20
0
 30
0
  3
AIGNBL07040006
  0
POLYLINE
  8
LAYER_7
 40
0.05
 41
0.05
 66
1
 10
0
 20
0
 30
0
 70
1
  0
VERTEX
  8
LAYER_7
 10
129.5759
 20
-1.9017
  0
VERTEX
  8
LAYER_7
 10
129.1615
 20
-2.9063
  0
VERTEX
  8
LAYER_7
 10
128.6292
 20
-2.9063
  0
VERTEX
  8
LAYER_7
 10
129.9848
 20
0.2856
  0
VERTEX
  8
LAYER_7
 10
130.6063
 20
0.2856
  0
VERTEX
  8
LAYER_7
 10
131.9682
 20
-2.9063
  0
VERTEX
  8
LAYER_7
 10
131.417
 20
-2.9063
  0
VERTEX
  8
LAYER_7
 10
130.9908
 20
-1.9017
  0
SEQEND
  0
POLYLINE
  8
LAYER_7
 40
0.05
 41
0.05
 66
1
 10
0
 20
0
 30
0
 70
1
  0
VERTEX
  8
LAYER_7
 10
130.8843
 20
-1.5806
  0
VERTEX
  8
LAYER_7
 10
130.4937
 20
-0.6611
 42
-0.02231634433
  0
VERTEX
  8
LAYER_7
 10
130.2863
 20
-0.0789
  0
VERTEX
  8
LAYER_7
 10
130.2746
 20
-0.0789
  0
VERTEX
  8
LAYER_7
 10
130.073
 20
-0.6573
  0
VERTEX
  8
LAYER_7
 10
129.6827
 20
-1.5806
  0
SEQEND
  0
ENDBLK
  0
BLOCK
  8
LAYER_7
  2
AIGNBL07040007
 70
64
 10
0
 20
0
 30
0
  3
AIGNBL07040007
  0
POLYLINE
  8
LAYER_7
 40
0.05
 41
0.05
 66
1
 10
0
 20
0
 30
0
 70
1
  0
VERTEX
  8
LAYER_7
 10
135.6682
 20
-3.3752
 42
-0.01547641901
  0
VERTEX
  8
LAYER_7
 10
134.1406
 20
-3.0055
 42
0.09489436555
  0
VERTEX
  8
LAYER_7
 10
133.8978
 20
-2.9586
 42
-0.100373793
  0
VERTEX
  8
LAYER_7
 10
133.0335
 20
-2.7616
 42
-0.1097040442
  0
VERTEX
  8
LAYER_7
 10
132.4708
 20
-2.3298
 42
-0.1713304141
  0
VERTEX
  8
LAYER_7
 10
132.1403
 20
-1.3917
 42
-0.006481434724
  0
VERTEX
  8
LAYER_7
 10
132.1397
 20
-1.3439
 42
-0.1157034776
  0
VERTEX
  8
LAYER_7
 10
132.3143
 20
-0.5737
 42
-0.1679073219
  0
VERTEX
  8
LAYER_7
 10
133.0508
 20
0.1353
 42
-0.1003512093
  0
VERTEX
  8
LAYER_7
 10
133.8492
 20
0.3333
 42
-0.01509702754
  0
VERTEX
  8
LAYER_7
 10
133.9987
 20
0.3376
 42
-0.1039813645
  0
VERTEX
  8
LAYER_7
 10
134.8741
 20
0.1618
 42
-0.1145898629
  0
VERTEX
  8
LAYER_7
 10
135.4471
 20
-0.2739
 42
-0.1701856296
  0
VERTEX
  8
LAYER_7
 10
135.7859
 20
-1.2334
 42
-0.006054360336
  0
VERTEX
  8
LAYER_7
 10
135.7864
 20
-1.2774
 42
-0.1147423235
  0
VERTEX
  8
LAYER_7
 10
135.6161
 20
-2.0449
 42
-0.1769022546
  0
VERTEX
  8
LAYER_7
 10
134.889
 20
-2.7221
 42
-0.03554750027
  0
VERTEX
  8
LAYER_7
 10
134.6498
 20
-2.8071
  0
VERTEX
  8
LAYER_7
 10
134.6498
 20
-2.826
 42
0.01550615466
  0
VERTEX
  8
LAYER_7
 10
135.8163
 20
-3.0296
  0
SEQEND
  0
POLYLINE
  8
LAYER_7
 40
0.05
 41
0.05
 66
1
 10
0
 20
0
 30
0
 70
1
  0
VERTEX
  8
LAYER_7
 10
135.242
 20
-1.2957
 42
0.1259362341
  0
VERTEX
  8
LAYER_7
 10
135.0661
 20
-0.6047
 42
0.276679865
  0
VERTEX
  8
LAYER_7
 10
133.9805
 20
0.0014
 42
0.1289955121
  0
VERTEX
  8
LAYER_7
 10
133.2944
 20
-0.169
 42
0.1986420642
  0
VERTEX
  8
LAYER_7
 10
132.7484
 20
-0.8931
 42
0.0720917222
  0
VERTEX
  8
LAYER_7
 10
132.6903
 20
-1.3336
 42
0.1266906031
  0
VERTEX
  8
LAYER_7
 10
132.8535
 20
-1.9998
 42
0.2778283058
  0
VERTEX
  8
LAYER_7
 10
133.957
 20
-2.6228
 42
0.1289619697
  0
VERTEX
  8
LAYER_7
 10
134.6333
 20
-2.4541
 42
0.197407087
  0
VERTEX
  8
LAYER_7
 10
135.1812
 20
-1.7353
 42
0.07132386385
  0
SEQEND
  0
ENDBLK
  0
BLOCK
  8
LAYER_7
  2
AIGNBL07040008
 70
64
 10
0
 20
0
 30
0
  3
AIGNBL07040008
  0
POLYLINE
  8
LAYER_7
 40
0.05
 41
0.05
 66
1
 10
0
 20
0
 30
0
 70
1
  0
VERTEX
  8
LAYER_7
 10
136.9115
 20
0.2856
  0
VERTEX
  8
LAYER_7
 10
136.9115
 20
-1.604
 42
0.138981145
  0
VERTEX
  8
LAYER_7
 10
137.0775
 20
-2.2603
 42
0.2426831429
  0
VERTEX
  8
LAYER_7
 10
137.7307
 20
-2.6183
 42
0.02279944991
  0
VERTEX
  8
LAYER_7
 10
137.841
 20
-2.6228
 42
0.1446978164
  0
VERTEX
  8
LAYER_7
 10
138.4458
 20
-2.4624
 42
0.1656419574
  0
VERTEX
  8
LAYER_7
 10
138.7434
 20
-2.0609
 42
0.08654413867
  0
VERTEX
  8
LAYER_7
 10
138.8119
 20
-1.604
  0
VERTEX
  8
LAYER_7
 10
138.8119
 20
0.2856
  0
VERTEX
  8
LAYER_7
 10
139.3328
 20
0.2856
  0
VERTEX
  8
LAYER_7
 10
139.3328
 20
-1.5758
 42
-0.1213960252
  0
VERTEX
  8
LAYER_7
 10
139.1651
 20
-2.3157
 42
-0.2016266738
  0
VERTEX
  8
LAYER_7
 10
138.4576
 20
-2.87
 42
-0.07892314617
  0
VERTEX
  8
LAYER_7
 10
137.8231
 20
-2.9586
 42
-0.1140673463
  0
VERTEX
  8
LAYER_7
 10
137.0107
 20
-2.7878
 42
-0.2086854916
  0
VERTEX
  8
LAYER_7
 10
136.4579
 20
-2.1056
 42
-0.07376116688
  0
VERTEX
  8
LAYER_7
 10
136.3906
 20
-1.5944
  0
VERTEX
  8
LAYER_7
 10
136.3906
 20
0.2856
  0
SEQEND
  0
ENDBLK
  0
BLOCK
  8
LAYER_7
  2
AIGNBL07040009
 70
64
 10
0
 20
0
 30
0
  3
AIGNBL07040009
  0
POLYLINE
  8
LAYER_7
 40
0.05
 41
0.05
 66
1
 10
0
 20
0
 30
0
 70
1
  0
VERTEX
  8
LAYER_7
 10
140.8131
 20
-1.9017
  0
VERTEX
  8
LAYER_7
 10
140.3983
 20
-2.9063
  0
VERTEX
  8
LAYER_7
 10
139.8661
 20
-2.9063
  0
VERTEX
  8
LAYER_7
 10
141.2217
 20
0.2856
  0
VERTEX
  8
LAYER_7
 10
141.8428
 20
0.2856
  0
VERTEX
  8
LAYER_7
 10
143.2047
 20
-2.9063
  0
VERTEX
  8
LAYER_7
 10
142.6542
 20
-2.9063
  0
VERTEX
  8
LAYER_7
 10
142.228
 20
-1.9017
  0
SEQEND
  0
POLYLINE
  8
LAYER_7
 40
0.05
 41
0.05
 66
1
 10
0
 20
0
 30
0
 70
1
  0
VERTEX
  8
LAYER_7
 10
142.1212
 20
-1.5806
  0
VERTEX
  8
LAYER_7
 10
141.7302
 20
-0.6611
 42
-0.02125651819
  0
VERTEX
  8
LAYER_7
 10
141.5228
 20
-0.0789
  0
VERTEX
  8
LAYER_7
 10
141.5111
 20
-0.0789
 42
-0.02103918769
  0
VERTEX
  8
LAYER_7
 10
141.3099
 20
-0.6573
  0
VERTEX
  8
LAYER_7
 10
140.9192
 20
-1.5806
  0
SEQEND
  0
ENDBLK
  0
BLOCK
  8
LAYER_7
  2
AIGNBL0704000A
 70
64
 10
0
 20
0
 30
0
  3
AIGNBL0704000A
  0
POLYLINE
  8
LAYER_7
 40
0.05
 41
0.05
 66
1
 10
0
 20
0
 30
0
 70
1
  0
VERTEX
  8
LAYER_7
 10
144.0866
 20
0.2477
 42
-0.03323004622
  0
VERTEX
  8
LAYER_7
 10
145.0757
 20
0.3097
 42
-0.09650604132
  0
VERTEX
  8
LAYER_7
 10
146.0056
 20
0.1514
 42
-0.05239648876
  0
VERTEX
  8
LAYER_7
 10
146.1943
 20
0.0444
 42
-0.2475475663
  0
VERTEX
  8
LAYER_7
 10
146.5433
 20
-0.6236
 42
-0.1633493674
  0
VERTEX
  8
LAYER_7
 10
146.3723
 20
-1.1652
 42
-0.05697336531
  0
VERTEX
  8
LAYER_7
 10
146.2357
 20
-1.3053
 42
-0.1301814771
  0
VERTEX
  8
LAYER_7
 10
145.5827
 20
-1.6002
 42
-0.05286501804
  0
VERTEX
  8
LAYER_7
 10
145.0161
 20
-1.6561
 42
-0.0589106892
  0
VERTEX
  8
LAYER_7
 10
144.602
 20
-1.6275
  0
VERTEX
  8
LAYER_7
 10
144.602
 20
-2.9063
  0
VERTEX
  8
LAYER_7
 10
144.0866
 20
-2.9063
  0
SEQEND
  0
POLYLINE
  8
LAYER_7
 40
0.05
 41
0.05
 66
1
 10
0
 20
0
 30
0
 70
1
  0
VERTEX
  8
LAYER_7
 10
144.602
 20
-1.2912
 42
0.04848394292
  0
VERTEX
  8
LAYER_7
 10
145.0278
 20
-1.3246
 42
0.1267241775
  0
VERTEX
  8
LAYER_7
 10
145.737
 20
-1.1646
 42
0.1801713856
  0
VERTEX
  8
LAYER_7
 10
146.0018
 20
-0.8343
 42
0.07354410889
  0
VERTEX
  8
LAYER_7
 10
146.029
 20
-0.6425
 42
0.3108550011
  0
VERTEX
  8
LAYER_7
 10
145.6717
 20
-0.1192
 42
0.1110538748
  0
VERTEX
  8
LAYER_7
 10
145.0878
 20
-0.0176
 42
0.05507706355
  0
VERTEX
  8
LAYER_7
 10
144.602
 20
-0.0506
  0
SEQEND
  0
ENDBLK
  0
BLOCK
  8
LAYER_7
  2
AIGNBL0704000B
 70
64
 10
0
 20
0
 30
0
  3
AIGNBL0704000B
  0
POLYLINE
  8
LAYER_7
 40
0.05
 41
0.05
 66
1
 10
0
 20
0
 30
0
 70
1
  0
VERTEX
  8
LAYER_7
 10
147.859
 20
0.03
 42
-0.3245339907
  0
VERTEX
  8
LAYER_7
 10
147.6969
 20
-0.1954
 42
-0.09620347437
  0
VERTEX
  8
LAYER_7
 10
147.5269
 20
-0.226
 42
-0.2676237393
  0
VERTEX
  8
LAYER_7
 10
147.2363
 20
-0.0702
 42
-0.1146413536
  0
VERTEX
  8
LAYER_7
 10
147.2131
 20
0.03
 42
-0.3124013774
  0
VERTEX
  8
LAYER_7
 10
147.3861
 20
0.2622
 42
-0.09436570029
  0
VERTEX
  8
LAYER_7
 10
147.5386
 20
0.2901
 42
-0.2690720095
  0
VERTEX
  8
LAYER_7
 10
147.8351
 20
0.1355
 42
-0.1137202002
  0
SEQEND
  0
POLYLINE
  8
LAYER_7
 40
0.05
 41
0.05
 66
1
 10
0
 20
0
 30
0
 70
1
  0
VERTEX
  8
LAYER_7
 10
147.2778
 20
-2.9063
  0
VERTEX
  8
LAYER_7
 10
147.2778
 20
-0.6143
  0
VERTEX
  8
LAYER_7
 10
147.7987
 20
-0.6143
  0
VERTEX
  8
LAYER_7
 10
147.7987
 20
-2.9063
  0
SEQEND
  0
ENDBLK
  0
BLOCK
  8
LAYER_7
  2
AIGNBL0704000C
 70
64
 10
0
 20
0
 30
0
  3
AIGNBL0704000C
  0
POLYLINE
  8
LAYER_7
 40
0.05
 41
0.05
 66
1
 10
0
 20
0
 30
0
 70
1
  0
VERTEX
  8
LAYER_7
 10
149.3852
 20
-1.9017
  0
VERTEX
  8
LAYER_7
 10
148.9714
 20
-2.9063
  0
VERTEX
  8
LAYER_7
 10
148.4381
 20
-2.9063
  0
VERTEX
  8
LAYER_7
 10
149.7941
 20
0.2856
  0
VERTEX
  8
LAYER_7
 10
150.416
 20
0.2856
  0
VERTEX
  8
LAYER_7
 10
151.7778
 20
-2.9063
  0
VERTEX
  8
LAYER_7
 10
151.2269
 20
-2.9063
  0
VERTEX
  8
LAYER_7
 10
150.8008
 20
-1.9017
  0
SEQEND
  0
POLYLINE
  8
LAYER_7
 40
0.05
 41
0.05
 66
1
 10
0
 20
0
 30
0
 70
1
  0
VERTEX
  8
LAYER_7
 10
150.694
 20
-1.5806
  0
VERTEX
  8
LAYER_7
 10
150.3033
 20
-0.6611
 42
-0.02374663041
  0
VERTEX
  8
LAYER_7
 10
150.0966
 20
-0.0789
  0
VERTEX
  8
LAYER_7
 10
150.0842
 20
-0.0789
  0
VERTEX
  8
LAYER_7
 10
149.883
 20
-0.6573
  0
VERTEX
  8
LAYER_7
 10
149.4923
 20
-1.5806
  0
SEQEND
  0
ENDBLK
  0
BLOCK
  8
LAYER_2
  2
AIGNBL02030004
 70
64
 10
0
 20
0
 30
0
  3
AIGNBL02030004
  0
POLYLINE
  8
LAYER_2
 40
0.2469
 41
0.2469
 66
1
 10
0
 20
0
 30
0
  0
VERTEX
  8
LAYER_2
 10
79.8094
 20
243.9117
  0
VERTEX
  8
LAYER_2
 10
80.3036
 20
243.9117
  0
SEQEND
  0
ENDBLK
  0
BLOCK
  8
LAYER_2
  2
AIGNBL02030005
 70
64
 10
0
 20
0
 30
0
  3
AIGNBL02030005
  0
POLYLINE
  8
LAYER_2
 40
0.2469
 41
0.2469
 66
1
 10
0
 20
0
 30
0
  0
VERTEX
  8
LAYER_2
 10
80.3036
 20
243.9117
  0
VERTEX
  8
LAYER_2
 10
80.8552
 20
243.9117
  0
SEQEND
  0
ENDBLK
  0
BLOCK
  8
LAYER_2
  2
AIGNBL02030006
 70
64
 10
0
 20
0
 30
0
  3
AIGNBL02030006
  0
POLYLINE
  8
LAYER_2
 40
0.2469
 41
0.2469
 66
1
 10
0
 20
0
 30
0
  0
VERTEX
  8
LAYER_2
 10
79.8094
 20
243.9117
  0
VERTEX
  8
LAYER_2
 10
80.3036
 20
244.197
  0
SEQEND
  0
ENDBLK
  0
BLOCK
  8
LAYER_2
  2
AIGNBL02030007
 70
64
 10
0
 20
0
 30
0
  3
AIGNBL02030007
  0
POLYLINE
  8
LAYER_2
 40
0.2469
 41
0.2469
 66
1
 10
0
 20
0
 30
0
  0
VERTEX
  8
LAYER_2
 10
80.8552
 20
244.197
  0
VERTEX
  8
LAYER_2
 10
80.3036
 20
244.197
  0
SEQEND
  0
ENDBLK
  0
BLOCK
  8
LAYER_2
  2
AIGNBL02030008
 70
64
 10
0
 20
0
 30
0
  3
AIGNBL02030008
  0
POLYLINE
  8
LAYER_2
 40
0.2469
 41
0.2469
 66
1
 10
0
 20
0
 30
0
  0
VERTEX
  8
LAYER_2
 10
69.2483
 20
243.5608
  0
VERTEX
  8
LAYER_2
 10
74.5157
 20
243.5608
  0
SEQEND
  0
ENDBLK
  0
BLOCK
  8
LAYER_2
  2
AIGNBL02030009
 70
64
 10
0
 20
0
 30
0
  3
AIGNBL02030009
  0
POLYLINE
  8
LAYER_2
 40
0.2469
 41
0.2469
 66
1
 10
0
 20
0
 30
0
  0
VERTEX
  8
LAYER_2
 10
74.5157
 20
243.5608
  0
VERTEX
  8
LAYER_2
 10
74.7184
 20
243.9117
  0
SEQEND
  0
ENDBLK
  0
BLOCK
  8
LAYER_2
  2
AIGNBL0203000A
 70
64
 10
0
 20
0
 30
0
  3
AIGNBL0203000A
  0
POLYLINE
  8
LAYER_2
 40
0.2469
 41
0.2469
 66
1
 10
0
 20
0
 30
0
  0
VERTEX
  8
LAYER_2
 10
79.8094
 20
243.9117
  0
VERTEX
  8
LAYER_2
 10
73.1101
 20
243.9117
  0
SEQEND
  0
ENDBLK
  0
BLOCK
  8
LAYER_2
  2
AIGNBL0203000B
 70
64
 10
0
 20
0
 30
0
  3
AIGNBL0203000B
  0
POLYLINE
  8
LAYER_2
 40
0.2469
 41
0.2469
 66
1
 10
0
 20
0
 30
0
  0
VERTEX
  8
LAYER_2
 10
72.0574
 20
245.8484
  0
VERTEX
  8
LAYER_2
 10
72.0574
 20
250.3966
  0
SEQEND
  0
ENDBLK
  0
BLOCK
  8
LAYER_2
  2
AIGNBL0203000C
 70
64
 10
0
 20
0
 30
0
  3
AIGNBL0203000C
  0
POLYLINE
  8
LAYER_2
 40
0.2469
 41
0.2469
 66
1
 10
0
 20
0
 30
0
  0
VERTEX
  8
LAYER_2
 10
80.8552
 20
252.3333
  0
VERTEX
  8
LAYER_2
 10
80.3036
 20
252.3333
  0
SEQEND
  0
ENDBLK
  0
BLOCK
  8
LAYER_2
  2
AIGNBL0203000D
 70
64
 10
0
 20
0
 30
0
  3
AIGNBL0203000D
  0
POLYLINE
  8
LAYER_2
 40
0.2469
 41
0.2469
 66
1
 10
0
 20
0
 30
0
  0
VERTEX
  8
LAYER_2
 10
80.3036
 20
252.0482
  0
VERTEX
  8
LAYER_2
 10
80.8552
 20
252.0482
  0
SEQEND
  0
ENDBLK
  0
BLOCK
  8
LAYER_2
  2
AIGNBL0203000E
 70
64
 10
0
 20
0
 30
0
  3
AIGNBL0203000E
  0
POLYLINE
  8
LAYER_2
 40
0.2469
 41
0.2469
 66
1
 10
0
 20
0
 30
0
  0
VERTEX
  8
LAYER_2
 10
80.3036
 20
252.3333
  0
VERTEX
  8
LAYER_2
 10
80.3036
 20
252.0482
  0
SEQEND
  0
ENDBLK
  0
BLOCK
  8
LAYER_2
  2
AIGNBL0203000F
 70
64
 10
0
 20
0
 30
0
  3
AIGNBL0203000F
  0
POLYLINE
  8
LAYER_2
 40
0.2469
 41
0.2469
 66
1
 10
0
 20
0
 30
0
  0
VERTEX
  8
LAYER_2
 10
80.3036
 20
252.3333
  0
VERTEX
  8
LAYER_2
 10
79.8094
 20
252.3333
  0
SEQEND
  0
ENDBLK
  0
BLOCK
  8
LAYER_2
  2
AIGNBL02030010
 70
64
 10
0
 20
0
 30
0
  3
AIGNBL02030010
  0
POLYLINE
  8
LAYER_2
 40
0.2469
 41
0.2469
 66
1
 10
0
 20
0
 30
0
  0
VERTEX
  8
LAYER_2
 10
80.3036
 20
252.0482
  0
VERTEX
  8
LAYER_2
 10
79.8094
 20
252.3333
  0
SEQEND
  0
ENDBLK
  0
BLOCK
  8
LAYER_2
  2
AIGNBL02030011
 70
64
 10
0
 20
0
 30
0
  3
AIGNBL02030011
  0
POLYLINE
  8
LAYER_2
 40
0.2469
 41
0.2469
 66
1
 10
0
 20
0
 30
0
  0
VERTEX
  8
LAYER_2
 10
80.3036
 20
244.197
  0
VERTEX
  8
LAYER_2
 10
80.3036
 20
252.0482
  0
SEQEND
  0
ENDBLK
  0
BLOCK
  8
LAYER_2
  2
AIGNBL02030012
 70
64
 10
0
 20
0
 30
0
  3
AIGNBL02030012
  0
POLYLINE
  8
LAYER_2
 40
0.2469
 41
0.2469
 66
1
 10
0
 20
0
 30
0
  0
VERTEX
  8
LAYER_2
 10
74.7184
 20
252.3333
  0
VERTEX
  8
LAYER_2
 10
74.5157
 20
252.6843
  0
SEQEND
  0
ENDBLK
  0
BLOCK
  8
LAYER_2
  2
AIGNBL02030013
 70
64
 10
0
 20
0
 30
0
  3
AIGNBL02030013
  0
POLYLINE
  8
LAYER_2
 40
0.2469
 41
0.2469
 66
1
 10
0
 20
0
 30
0
  0
VERTEX
  8
LAYER_2
 10
79.8094
 20
252.3333
  0
VERTEX
  8
LAYER_2
 10
73.1144
 20
252.3333
  0
SEQEND
  0
ENDBLK
  0
BLOCK
  8
LAYER_2
  2
AIGNBL02030014
 70
64
 10
0
 20
0
 30
0
  3
AIGNBL02030014
  0
POLYLINE
  8
LAYER_2
 40
0.2469
 41
0.2469
 66
1
 10
0
 20
0
 30
0
  0
VERTEX
  8
LAYER_2
 10
74.5157
 20
252.6843
  0
VERTEX
  8
LAYER_2
 10
69.2483
 20
252.6843
  0
SEQEND
  0
ENDBLK
  0
BLOCK
  8
LAYER_2
  2
AIGNBL02030015
 70
64
 10
0
 20
0
 30
0
  3
AIGNBL02030015
  0
POLYLINE
  8
LAYER_2
 40
0.2469
 41
0.2469
 66
1
 10
0
 20
0
 30
0
  0
VERTEX
  8
LAYER_2
 10
69.2483
 20
252.6843
  0
VERTEX
  8
LAYER_2
 10
66.6147
 20
248.1227
  0
SEQEND
  0
ENDBLK
  0
BLOCK
  8
LAYER_2
  2
AIGNBL02030016
 70
64
 10
0
 20
0
 30
0
  3
AIGNBL02030016
  0
POLYLINE
  8
LAYER_2
 40
0.2469
 41
0.2469
 66
1
 10
0
 20
0
 30
0
  0
VERTEX
  8
LAYER_2
 10
66.6147
 20
248.1227
  0
VERTEX
  8
LAYER_2
 10
69.2483
 20
243.5608
  0
SEQEND
  0
ENDBLK
  0
BLOCK
  8
LAYER_2
  2
AIGNBL02030017
 70
64
 10
0
 20
0
 30
0
  3
AIGNBL02030017
  0
POLYLINE
  8
LAYER_2
 40
0.2469
 41
0.2469
 66
1
 10
0
 20
0
 30
0
  0
VERTEX
  8
LAYER_2
 10
129.1904
 20
207.6251
  0
VERTEX
  8
LAYER_2
 10
131.3029
 20
207.6251
  0
SEQEND
  0
ENDBLK
  0
BLOCK
  8
LAYER_2
  2
AIGNBL02030018
 70
64
 10
0
 20
0
 30
0
  3
AIGNBL02030018
  0
POLYLINE
  8
LAYER_2
 40
0.2469
 41
0.2469
 66
1
 10
0
 20
0
 30
0
  0
VERTEX
  8
LAYER_2
 10
129.6448
 20
207.2173
  0
VERTEX
  8
LAYER_2
 10
131.7108
 20
207.2173
  0
SEQEND
  0
ENDBLK
  0
BLOCK
  8
LAYER_2
  2
AIGNBL02030019
 70
64
 10
0
 20
0
 30
0
  3
AIGNBL02030019
  0
POLYLINE
  8
LAYER_2
 40
0.2469
 41
0.2469
 66
1
 10
0
 20
0
 30
0
  0
VERTEX
  8
LAYER_2
 10
125.4704
 20
204.4668
  0
VERTEX
  8
LAYER_2
 10
124.7497
 20
204.4668
  0
SEQEND
  0
ENDBLK
  0
BLOCK
  8
LAYER_2
  2
AIGNBL0203001A
 70
64
 10
0
 20
0
 30
0
  3
AIGNBL0203001A
  0
POLYLINE
  8
LAYER_2
 40
0.2469
 41
0.2469
 66
1
 10
0
 20
0
 30
0
  0
VERTEX
  8
LAYER_2
 10
123.6403
 20
191.3925
  0
VERTEX
  8
LAYER_2
 10
123.6403
 20
188.8806
  0
SEQEND
  0
ENDBLK
  0
BLOCK
  8
LAYER_2
  2
AIGNBL0203001B
 70
64
 10
0
 20
0
 30
0
  3
AIGNBL0203001B
  0
POLYLINE
  8
LAYER_2
 40
0.2469
 41
0.2469
 66
1
 10
0
 20
0
 30
0
  0
VERTEX
  8
LAYER_2
 10
80.6547
 20
201.309
  0
VERTEX
  8
LAYER_2
 10
80.1283
 20
201.309
  0
SEQEND
  0
ENDBLK
  0
BLOCK
  8
LAYER_2
  2
AIGNBL0203001C
 70
64
 10
0
 20
0
 30
0
  3
AIGNBL0203001C
  0
POLYLINE
  8
LAYER_2
 40
0.2469
 41
0.2469
 66
1
 10
0
 20
0
 30
0
  0
VERTEX
  8
LAYER_2
 10
80.6547
 20
193.1725
  0
VERTEX
  8
LAYER_2
 10
80.1283
 20
193.1725
  0
SEQEND
  0
ENDBLK
  0
BLOCK
  8
LAYER_2
  2
AIGNBL0203001D
 70
64
 10
0
 20
0
 30
0
  3
AIGNBL0203001D
  0
POLYLINE
  8
LAYER_2
  6
AIGENLINE002
 40
0.2469
 41
0.2469
 62
2
 66
1
 10
0
 20
0
 30
0
 70
128
  0
VERTEX
  8
LAYER_2
 10
133.4654
 20
197.098
  0
VERTEX
  8
LAYER_2
 10
122.5872
 20
197.098
  0
SEQEND
  0
ENDBLK
  0
BLOCK
  8
LAYER_2
  2
AIGNBL0203001E
 70
64
 10
0
 20
0
 30
0
  3
AIGNBL0203001E
  0
POLYLINE
  8
LAYER_2
  6
AIGENLINE001
 40
0.2469
 41
0.2469
 66
1
 10
0
 20
0
 30
0
 70
128
  0
VERTEX
  8
LAYER_2
 10
128.0263
 20
187.2728
  0
VERTEX
  8
LAYER_2
 10
128.0263
 20
185.61
  0
SEQEND
  0
ENDBLK
  0
BLOCK
  8
LAYER_2
  2
AIGNBL0203001F
 70
64
 10
0
 20
0
 30
0
  3
AIGNBL0203001F
  0
POLYLINE
  8
LAYER_2
 40
0.2469
 41
0.2469
 66
1
 10
0
 20
0
 30
0
  0
VERTEX
  8
LAYER_2
 10
128.0263
 20
187.2728
  0
VERTEX
  8
LAYER_2
 10
128.0263
 20
185.61
  0
SEQEND
  0
ENDBLK
  0
BLOCK
  8
LAYER_2
  2
AIGNBL02030020
 70
64
 10
0
 20
0
 30
0
  3
AIGNBL02030020
  0
POLYLINE
  8
LAYER_2
 40
0.2469
 41
0.2469
 66
1
 10
0
 20
0
 30
0
  0
VERTEX
  8
LAYER_2
 10
123.4646
 20
185.61
  0
VERTEX
  8
LAYER_2
 10
123.4646
 20
184.9043
  0
SEQEND
  0
ENDBLK
  0
BLOCK
  8
LAYER_2
  2
AIGNBL02030021
 70
64
 10
0
 20
0
 30
0
  3
AIGNBL02030021
  0
POLYLINE
  8
LAYER_2
  6
AIGENLINE002
 40
0.2469
 41
0.2469
 62
2
 66
1
 10
0
 20
0
 30
0
 70
128
  0
VERTEX
  8
LAYER_2
 10
128.0263
 20
185.61
  0
VERTEX
  8
LAYER_2
 10
128.0263
 20
183.7636
  0
SEQEND
  0
ENDBLK
  0
BLOCK
  8
LAYER_2
  2
AIGNBL02030022
 70
64
 10
0
 20
0
 30
0
  3
AIGNBL02030022
  0
POLYLINE
  8
LAYER_2
 40
0.2469
 41
0.2469
 66
1
 10
0
 20
0
 30
0
  0
VERTEX
  8
LAYER_2
 10
123.4646
 20
188.116
  0
VERTEX
  8
LAYER_2
 10
123.4646
 20
185.61
  0
SEQEND
  0
ENDBLK
  0
BLOCK
  8
LAYER_2
  2
AIGNBL02030023
 70
64
 10
0
 20
0
 30
0
  3
AIGNBL02030023
  0
POLYLINE
  8
LAYER_2
 40
0.2469
 41
0.2469
 66
1
 10
0
 20
0
 30
0
  0
VERTEX
  8
LAYER_2
 10
132.5879
 20
184.9043
  0
VERTEX
  8
LAYER_2
 10
132.5001
 20
184.8163
  0
SEQEND
  0
ENDBLK
  0
BLOCK
  8
LAYER_2
  2
AIGNBL02030024
 70
64
 10
0
 20
0
 30
0
  3
AIGNBL02030024
  0
POLYLINE
  8
LAYER_2
 40
0.2469
 41
0.2469
 66
1
 10
0
 20
0
 30
0
  0
VERTEX
  8
LAYER_2
 10
132.5879
 20
188.116
  0
VERTEX
  8
LAYER_2
 10
132.5879
 20
184.9043
  0
SEQEND
  0
ENDBLK
  0
BLOCK
  8
LAYER_2
  2
AIGNBL02030025
 70
64
 10
0
 20
0
 30
0
  3
AIGNBL02030025
  0
POLYLINE
  8
LAYER_2
 40
0.2469
 41
0.2469
 66
1
 10
0
 20
0
 30
0
  0
VERTEX
  8
LAYER_2
 10
132.4129
 20
188.8806
  0
VERTEX
  8
LAYER_2
 10
132.4129
 20
191.3925
  0
SEQEND
  0
ENDBLK
  0
BLOCK
  8
LAYER_2
  2
AIGNBL02030026
 70
64
 10
0
 20
0
 30
0
  3
AIGNBL02030026
  0
POLYLINE
  8
LAYER_2
 40
0.2469
 41
0.2469
 66
1
 10
0
 20
0
 30
0
  0
VERTEX
  8
LAYER_2
 10
124.3421
 20
203.7607
  0
VERTEX
  8
LAYER_2
 10
124.3421
 20
203.2389
  0
SEQEND
  0
ENDBLK
  0
BLOCK
  8
LAYER_2
  2
AIGNBL02030027
 70
64
 10
0
 20
0
 30
0
  3
AIGNBL02030027
  0
POLYLINE
  8
LAYER_2
 40
0.2469
 41
0.2469
 66
1
 10
0
 20
0
 30
0
  0
VERTEX
  8
LAYER_2
 10
132.5001
 20
184.8163
  0
VERTEX
  8
LAYER_2
 10
124.3497
 20
184.8163
  0
SEQEND
  0
ENDBLK
  0
BLOCK
  8
LAYER_2
  2
AIGNBL02030028
 70
64
 10
0
 20
0
 30
0
  3
AIGNBL02030028
  0
POLYLINE
  8
LAYER_2
 40
0.2469
 41
0.2469
 66
1
 10
0
 20
0
 30
0
  0
VERTEX
  8
LAYER_2
 10
131.7108
 20
203.7607
  0
VERTEX
  8
LAYER_2
 10
131.7108
 20
203.2389
  0
SEQEND
  0
ENDBLK
  0
BLOCK
  8
LAYER_2
  2
AIGNBL02030029
 70
64
 10
0
 20
0
 30
0
  3
AIGNBL02030029
  0
POLYLINE
  8
LAYER_2
 40
0.2469
 41
0.2469
 66
1
 10
0
 20
0
 30
0
  0
VERTEX
  8
LAYER_2
 10
124.7497
 20
204.4668
  0
VERTEX
  8
LAYER_2
 10
124.7497
 20
207.2173
  0
SEQEND
  0
ENDBLK
  0
BLOCK
  8
LAYER_2
  2
AIGNBL0203002A
 70
64
 10
0
 20
0
 30
0
  3
AIGNBL0203002A
  0
POLYLINE
  8
LAYER_2
 40
0.2469
 41
0.2469
 66
1
 10
0
 20
0
 30
0
  0
VERTEX
  8
LAYER_2
 10
124.3421
 20
204.4668
  0
VERTEX
  8
LAYER_2
 10
124.7497
 20
204.4668
  0
SEQEND
  0
ENDBLK
  0
BLOCK
  8
LAYER_2
  2
AIGNBL0203002B
 70
64
 10
0
 20
0
 30
0
  3
AIGNBL0203002B
  0
POLYLINE
  8
LAYER_2
 40
0.2469
 41
0.2469
 66
1
 10
0
 20
0
 30
0
  0
VERTEX
  8
LAYER_2
 10
124.3421
 20
203.7607
  0
VERTEX
  8
LAYER_2
 10
124.7497
 20
204.4668
  0
SEQEND
  0
ENDBLK
  0
BLOCK
  8
LAYER_2
  2
AIGNBL0203002C
 70
64
 10
0
 20
0
 30
0
  3
AIGNBL0203002C
  0
POLYLINE
  8
LAYER_2
 40
0.2469
 41
0.2469
 66
1
 10
0
 20
0
 30
0
  0
VERTEX
  8
LAYER_2
 10
124.7497
 20
204.4668
  0
VERTEX
  8
LAYER_2
 10
124.7497
 20
207.2173
  0
SEQEND
  0
ENDBLK
  0
BLOCK
  8
LAYER_2
  2
AIGNBL0203002D
 70
64
 10
0
 20
0
 30
0
  3
AIGNBL0203002D
  0
POLYLINE
  8
LAYER_2
 40
0.2469
 41
0.2469
 66
1
 10
0
 20
0
 30
0
  0
VERTEX
  8
LAYER_2
 10
131.3029
 20
204.4668
  0
VERTEX
  8
LAYER_2
 10
131.7108
 20
203.7607
  0
SEQEND
  0
ENDBLK
  0
BLOCK
  8
LAYER_2
  2
AIGNBL0203002E
 70
64
 10
0
 20
0
 30
0
  3
AIGNBL0203002E
  0
POLYLINE
  8
LAYER_2
 40
0.2469
 41
0.2469
 66
1
 10
0
 20
0
 30
0
  0
VERTEX
  8
LAYER_2
 10
131.7108
 20
204.4668
  0
VERTEX
  8
LAYER_2
 10
131.7108
 20
203.7607
  0
SEQEND
  0
ENDBLK
  0
BLOCK
  8
LAYER_2
  2
AIGNBL0203002F
 70
64
 10
0
 20
0
 30
0
  3
AIGNBL0203002F
  0
POLYLINE
  8
LAYER_2
 40
0.2469
 41
0.2469
 66
1
 10
0
 20
0
 30
0
  0
VERTEX
  8
LAYER_2
 10
131.3029
 20
204.4668
  0
VERTEX
  8
LAYER_2
 10
131.7108
 20
204.4668
  0
SEQEND
  0
ENDBLK
  0
BLOCK
  8
LAYER_2
  2
AIGNBL02030030
 70
64
 10
0
 20
0
 30
0
  3
AIGNBL02030030
  0
POLYLINE
  8
LAYER_2
 40
0.2469
 41
0.2469
 66
1
 10
0
 20
0
 30
0
  0
VERTEX
  8
LAYER_2
 10
124.7497
 20
207.6251
  0
VERTEX
  8
LAYER_2
 10
124.3421
 20
207.2173
  0
SEQEND
  0
ENDBLK
  0
BLOCK
  8
LAYER_2
  2
AIGNBL02030031
 70
64
 10
0
 20
0
 30
0
  3
AIGNBL02030031
  0
POLYLINE
  8
LAYER_2
 40
0.2469
 41
0.2469
 66
1
 10
0
 20
0
 30
0
  0
VERTEX
  8
LAYER_2
 10
124.3421
 20
207.2173
  0
VERTEX
  8
LAYER_2
 10
124.3421
 20
204.4668
  0
SEQEND
  0
ENDBLK
  0
BLOCK
  8
LAYER_2
  2
AIGNBL02030032
 70
64
 10
0
 20
0
 30
0
  3
AIGNBL02030032
  0
POLYLINE
  8
LAYER_2
 40
0.2469
 41
0.2469
 66
1
 10
0
 20
0
 30
0
  0
VERTEX
  8
LAYER_2
 10
131.3029
 20
207.6251
  0
VERTEX
  8
LAYER_2
 10
131.7108
 20
207.2173
  0
SEQEND
  0
ENDBLK
  0
BLOCK
  8
LAYER_2
  2
AIGNBL02030033
 70
64
 10
0
 20
0
 30
0
  3
AIGNBL02030033
  0
POLYLINE
  8
LAYER_2
 40
0.2469
 41
0.2469
 66
1
 10
0
 20
0
 30
0
  0
VERTEX
  8
LAYER_2
 10
131.7108
 20
207.2173
  0
VERTEX
  8
LAYER_2
 10
131.7108
 20
204.4668
  0
SEQEND
  0
ENDBLK
  0
BLOCK
  8
LAYER_2
  2
AIGNBL02030034
 70
64
 10
0
 20
0
 30
0
  3
AIGNBL02030034
  0
POLYLINE
  8
LAYER_2
 40
0.2469
 41
0.2469
 66
1
 10
0
 20
0
 30
0
  0
VERTEX
  8
LAYER_2
 10
131.3029
 20
207.6251
  0
VERTEX
  8
LAYER_2
 10
131.3029
 20
204.4668
  0
SEQEND
  0
ENDBLK
  0
BLOCK
  8
LAYER_2
  2
AIGNBL02030035
 70
64
 10
0
 20
0
 30
0
  3
AIGNBL02030035
  0
POLYLINE
  8
LAYER_2
 40
0.2469
 41
0.2469
 66
1
 10
0
 20
0
 30
0
  0
VERTEX
  8
LAYER_2
 10
124.7497
 20
207.2173
  0
VERTEX
  8
LAYER_2
 10
124.7497
 20
207.6251
  0
SEQEND
  0
ENDBLK
  0
BLOCK
  8
LAYER_2
  2
AIGNBL02030036
 70
64
 10
0
 20
0
 30
0
  3
AIGNBL02030036
  0
POLYLINE
  8
LAYER_2
 40
0.2469
 41
0.2469
 66
1
 10
0
 20
0
 30
0
  0
VERTEX
  8
LAYER_2
 10
124.7497
 20
207.2173
  0
VERTEX
  8
LAYER_2
 10
124.7497
 20
207.6251
  0
SEQEND
  0
ENDBLK
  0
BLOCK
  8
LAYER_2
  2
AIGNBL02030037
 70
64
 10
0
 20
0
 30
0
  3
AIGNBL02030037
  0
POLYLINE
  8
LAYER_2
 40
0.2469
 41
0.2469
 66
1
 10
0
 20
0
 30
0
  0
VERTEX
  8
LAYER_2
 10
124.3421
 20
204.4668
  0
VERTEX
  8
LAYER_2
 10
124.3421
 20
203.7607
  0
SEQEND
  0
ENDBLK
  0
BLOCK
  8
LAYER_2
  2
AIGNBL02030038
 70
64
 10
0
 20
0
 30
0
  3
AIGNBL02030038
  0
POLYLINE
  8
LAYER_2
 40
0.2469
 41
0.2469
 66
1
 10
0
 20
0
 30
0
  0
VERTEX
  8
LAYER_2
 10
124.7497
 20
207.6251
  0
VERTEX
  8
LAYER_2
 10
126.8625
 20
207.6251
  0
SEQEND
  0
ENDBLK
  0
BLOCK
  8
LAYER_2
  2
AIGNBL02030039
 70
64
 10
0
 20
0
 30
0
  3
AIGNBL02030039
  0
POLYLINE
  8
LAYER_2
 40
0.2469
 41
0.2469
 66
1
 10
0
 20
0
 30
0
  0
VERTEX
  8
LAYER_2
 10
123.5521
 20
184.8163
  0
VERTEX
  8
LAYER_2
 10
123.4646
 20
184.9043
  0
SEQEND
  0
ENDBLK
  0
BLOCK
  8
LAYER_2
  2
AIGNBL0203003A
 70
64
 10
0
 20
0
 30
0
  3
AIGNBL0203003A
  0
POLYLINE
  8
LAYER_2
 40
0.2469
 41
0.2469
 66
1
 10
0
 20
0
 30
0
  0
VERTEX
  8
LAYER_2
 10
123.5521
 20
184.8163
  0
VERTEX
  8
LAYER_2
 10
124.3497
 20
184.8163
  0
SEQEND
  0
ENDBLK
  0
BLOCK
  8
LAYER_2
  2
AIGNBL0203003B
 70
64
 10
0
 20
0
 30
0
  3
AIGNBL0203003B
  0
POLYLINE
  8
LAYER_2
  6
AIGENLINE002
 40
0.2469
 41
0.2469
 62
2
 66
1
 10
0
 20
0
 30
0
 70
128
  0
VERTEX
  8
LAYER_2
 10
128.0263
 20
208.6777
  0
VERTEX
  8
LAYER_2
 10
128.0263
 20
187.2728
  0
SEQEND
  0
ENDBLK
  0
BLOCK
  8
LAYER_2
  2
AIGNBL0203003C
 70
64
 10
0
 20
0
 30
0
  3
AIGNBL0203003C
  0
POLYLINE
  8
LAYER_2
 40
0.2469
 41
0.2469
 66
1
 10
0
 20
0
 30
0
  0
VERTEX
  8
LAYER_2
 10
131.3029
 20
204.4668
  0
VERTEX
  8
LAYER_2
 10
130.5822
 20
204.4668
  0
SEQEND
  0
ENDBLK
  0
BLOCK
  8
LAYER_2
  2
AIGNBL0203003D
 70
64
 10
0
 20
0
 30
0
  3
AIGNBL0203003D
  0
POLYLINE
  8
LAYER_2
 40
0.2469
 41
0.2469
 66
1
 10
0
 20
0
 30
0
  0
VERTEX
  8
LAYER_2
 10
124.3421
 20
207.2173
  0
VERTEX
  8
LAYER_2
 10
126.4081
 20
207.2173
  0
SEQEND
  0
ENDBLK
  0
BLOCK
  8
LAYER_2
  2
AIGNBL0203003E
 70
64
 10
0
 20
0
 30
0
  3
AIGNBL0203003E
  0
POLYLINE
  8
LAYER_2
 40
0.2469
 41
0.2469
 66
1
 10
0
 20
0
 30
0
  0
VERTEX
  8
LAYER_2
 10
69.2483
 20
185.61
  0
VERTEX
  8
LAYER_2
 10
69.2483
 20
187.2728
  0
SEQEND
  0
ENDBLK
  0
BLOCK
  8
LAYER_2
  2
AIGNBL0203003F
 70
64
 10
0
 20
0
 30
0
  3
AIGNBL0203003F
  0
POLYLINE
  8
LAYER_2
 40
0.2469
 41
0.2469
 66
1
 10
0
 20
0
 30
0
  0
VERTEX
  8
LAYER_2
 10
74.5157
 20
185.61
  0
VERTEX
  8
LAYER_2
 10
74.5157
 20
187.2728
  0
SEQEND
  0
ENDBLK
  0
BLOCK
  8
LAYER_2
  2
AIGNBL02030040
 70
64
 10
0
 20
0
 30
0
  3
AIGNBL02030040
  0
POLYLINE
  8
LAYER_2
 40
0.2469
 41
0.2469
 66
1
 10
0
 20
0
 30
0
  0
VERTEX
  8
LAYER_2
 10
79.4585
 20
200.9581
  0
VERTEX
  8
LAYER_2
 10
79.4585
 20
193.1846
  0
SEQEND
  0
ENDBLK
  0
BLOCK
  8
LAYER_2
  2
AIGNBL02030041
 70
64
 10
0
 20
0
 30
0
  3
AIGNBL02030041
  0
POLYLINE
  8
LAYER_2
 40
0.2469
 41
0.2469
 66
1
 10
0
 20
0
 30
0
  0
VERTEX
  8
LAYER_2
 10
80.1283
 20
201.0237
  0
VERTEX
  8
LAYER_2
 10
80.1283
 20
193.1725
  0
SEQEND
  0
ENDBLK
  0
BLOCK
  8
LAYER_2
  2
AIGNBL02030042
 70
64
 10
0
 20
0
 30
0
  3
AIGNBL02030042
  0
POLYLINE
  8
LAYER_2
 40
0.2469
 41
0.2469
 66
1
 10
0
 20
0
 30
0
  0
VERTEX
  8
LAYER_2
 10
68.1974
 20
207.2173
  0
VERTEX
  8
LAYER_2
 10
75.5666
 20
207.2173
  0
SEQEND
  0
ENDBLK
  0
BLOCK
  8
LAYER_2
  2
AIGNBL02030043
 70
64
 10
0
 20
0
 30
0
  3
AIGNBL02030043
  0
POLYLINE
  8
LAYER_2
 40
0.2469
 41
0.2469
 66
1
 10
0
 20
0
 30
0
  0
VERTEX
  8
LAYER_2
 10
75.1589
 20
204.4668
  0
VERTEX
  8
LAYER_2
 10
68.6053
 20
204.4668
  0
SEQEND
  0
ENDBLK
  0
BLOCK
  8
LAYER_2
  2
AIGNBL02030044
 70
64
 10
0
 20
0
 30
0
  3
AIGNBL02030044
  0
POLYLINE
  8
LAYER_2
  6
AIGENLINE002
 40
0.2469
 41
0.2469
 62
2
 66
1
 10
0
 20
0
 30
0
 70
128
  0
VERTEX
  8
LAYER_2
 10
71.8821
 20
208.6777
  0
VERTEX
  8
LAYER_2
 10
71.8821
 20
183.7636
  0
SEQEND
  0
ENDBLK
  0
BLOCK
  8
LAYER_2
  2
AIGNBL02030045
 70
64
 10
0
 20
0
 30
0
  3
AIGNBL02030045
  0
POLYLINE
  8
LAYER_2
  6
AIGENLINE002
 40
0.2469
 41
0.2469
 62
2
 66
1
 10
0
 20
0
 30
0
 70
128
  0
VERTEX
  8
LAYER_2
 10
83.2864
 20
197.098
  0
VERTEX
  8
LAYER_2
 10
66.4431
 20
197.098
  0
SEQEND
  0
ENDBLK
  0
BLOCK
  8
LAYER_2
  2
AIGNBL02030046
 70
64
 10
0
 20
0
 30
0
  3
AIGNBL02030046
  0
POLYLINE
  8
LAYER_2
 40
0.2469
 41
0.2469
 66
1
 10
0
 20
0
 30
0
  0
VERTEX
  8
LAYER_2
 10
66.6147
 20
185.61
  0
VERTEX
  8
LAYER_2
 10
66.6147
 20
187.2728
  0
SEQEND
  0
ENDBLK
  0
BLOCK
  8
LAYER_2
  2
AIGNBL02030047
 70
64
 10
0
 20
0
 30
0
  3
AIGNBL02030047
  0
POLYLINE
  8
LAYER_2
 40
0.2469
 41
0.2469
 66
1
 10
0
 20
0
 30
0
  0
VERTEX
  8
LAYER_2
 10
66.982
 20
187.6401
  0
VERTEX
  8
LAYER_2
 10
66.6147
 20
187.2728
  0
SEQEND
  0
ENDBLK
  0
BLOCK
  8
LAYER_2
  2
AIGNBL02030048
 70
64
 10
0
 20
0
 30
0
  3
AIGNBL02030048
  0
POLYLINE
  8
LAYER_2
 40
0.2469
 41
0.2469
 66
1
 10
0
 20
0
 30
0
  0
VERTEX
  8
LAYER_2
 10
66.6147
 20
185.61
  0
VERTEX
  8
LAYER_2
 10
66.6147
 20
187.2728
  0
SEQEND
  0
ENDBLK
  0
BLOCK
  8
LAYER_2
  2
AIGNBL02030049
 70
64
 10
0
 20
0
 30
0
  3
AIGNBL02030049
  0
POLYLINE
  8
LAYER_2
 40
0.2469
 41
0.2469
 66
1
 10
0
 20
0
 30
0
  0
VERTEX
  8
LAYER_2
 10
79.4585
 20
192.7116
  0
VERTEX
  8
LAYER_2
 10
78.0228
 20
192.7116
  0
SEQEND
  0
ENDBLK
  0
BLOCK
  8
LAYER_2
  2
AIGNBL0203004A
 70
64
 10
0
 20
0
 30
0
  3
AIGNBL0203004A
  0
POLYLINE
  8
LAYER_2
 40
0.2469
 41
0.2469
 66
1
 10
0
 20
0
 30
0
  0
VERTEX
  8
LAYER_2
 10
79.6342
 20
192.8871
  0
VERTEX
  8
LAYER_2
 10
79.4585
 20
192.7116
  0
SEQEND
  0
ENDBLK
  0
BLOCK
  8
LAYER_2
  2
AIGNBL0203004B
 70
64
 10
0
 20
0
 30
0
  3
AIGNBL0203004B
  0
POLYLINE
  8
LAYER_2
 40
0.2469
 41
0.2469
 66
1
 10
0
 20
0
 30
0
  0
VERTEX
  8
LAYER_2
 10
79.4585
 20
201.4842
  0
VERTEX
  8
LAYER_2
 10
77.321
 20
201.4842
  0
SEQEND
  0
ENDBLK
  0
BLOCK
  8
LAYER_2
  2
AIGNBL0203004C
 70
64
 10
0
 20
0
 30
0
  3
AIGNBL0203004C
  0
POLYLINE
  8
LAYER_2
 40
0.2469
 41
0.2469
 66
1
 10
0
 20
0
 30
0
  0
VERTEX
  8
LAYER_2
 10
79.6342
 20
201.309
  0
VERTEX
  8
LAYER_2
 10
79.4585
 20
201.4842
  0
SEQEND
  0
ENDBLK
  0
BLOCK
  8
LAYER_2
  2
AIGNBL0203004D
 70
64
 10
0
 20
0
 30
0
  3
AIGNBL0203004D
  0
POLYLINE
  8
LAYER_2
 40
0.2469
 41
0.2469
 66
1
 10
0
 20
0
 30
0
  0
VERTEX
  8
LAYER_2
 10
77.1495
 20
187.2728
  0
VERTEX
  8
LAYER_2
 10
76.782
 20
187.6401
  0
SEQEND
  0
ENDBLK
  0
BLOCK
  8
LAYER_2
  2
AIGNBL0203004E
 70
64
 10
0
 20
0
 30
0
  3
AIGNBL0203004E
  0
POLYLINE
  8
LAYER_2
 40
0.2469
 41
0.2469
 66
1
 10
0
 20
0
 30
0
  0
VERTEX
  8
LAYER_2
 10
67.4081
 20
184.8163
  0
VERTEX
  8
LAYER_2
 10
68.2055
 20
184.8163
  0
SEQEND
  0
ENDBLK
  0
BLOCK
  8
LAYER_2
  2
AIGNBL0203004F
 70
64
 10
0
 20
0
 30
0
  3
AIGNBL0203004F
  0
POLYLINE
  8
LAYER_2
 40
0.2469
 41
0.2469
 66
1
 10
0
 20
0
 30
0
  0
VERTEX
  8
LAYER_2
 10
67.4081
 20
184.8163
  0
VERTEX
  8
LAYER_2
 10
66.6147
 20
185.61
  0
SEQEND
  0
ENDBLK
  0
BLOCK
  8
LAYER_2
  2
AIGNBL02030050
 70
64
 10
0
 20
0
 30
0
  3
AIGNBL02030050
  0
POLYLINE
  8
LAYER_2
 40
0.2469
 41
0.2469
 66
1
 10
0
 20
0
 30
0
  0
VERTEX
  8
LAYER_2
 10
76.3559
 20
184.8163
  0
VERTEX
  8
LAYER_2
 10
75.5587
 20
184.8163
  0
SEQEND
  0
ENDBLK
  0
BLOCK
  8
LAYER_2
  2
AIGNBL02030051
 70
64
 10
0
 20
0
 30
0
  3
AIGNBL02030051
  0
POLYLINE
  8
LAYER_2
 40
0.2469
 41
0.2469
 66
1
 10
0
 20
0
 30
0
  0
VERTEX
  8
LAYER_2
 10
77.1495
 20
185.61
  0
VERTEX
  8
LAYER_2
 10
76.3559
 20
184.8163
  0
SEQEND
  0
ENDBLK
  0
BLOCK
  8
LAYER_2
  2
AIGNBL02030052
 70
64
 10
0
 20
0
 30
0
  3
AIGNBL02030052
  0
POLYLINE
  8
LAYER_2
 40
0.2469
 41
0.2469
 66
1
 10
0
 20
0
 30
0
  0
VERTEX
  8
LAYER_2
 10
75.5587
 20
184.8163
  0
VERTEX
  8
LAYER_2
 10
76.3559
 20
184.8163
  0
SEQEND
  0
ENDBLK
  0
BLOCK
  8
LAYER_2
  2
AIGNBL02030053
 70
64
 10
0
 20
0
 30
0
  3
AIGNBL02030053
  0
POLYLINE
  8
LAYER_2
 40
0.2469
 41
0.2469
 66
1
 10
0
 20
0
 30
0
  0
VERTEX
  8
LAYER_2
 10
68.6053
 20
207.6251
  0
VERTEX
  8
LAYER_2
 10
75.1589
 20
207.6251
  0
SEQEND
  0
ENDBLK
  0
BLOCK
  8
LAYER_2
  2
AIGNBL02030054
 70
64
 10
0
 20
0
 30
0
  3
AIGNBL02030054
  0
POLYLINE
  8
LAYER_2
 40
0.2469
 41
0.2469
 66
1
 10
0
 20
0
 30
0
  0
VERTEX
  8
LAYER_2
 10
68.1974
 20
204.4668
  0
VERTEX
  8
LAYER_2
 10
68.1974
 20
203.7607
  0
SEQEND
  0
ENDBLK
  0
BLOCK
  8
LAYER_2
  2
AIGNBL02030055
 70
64
 10
0
 20
0
 30
0
  3
AIGNBL02030055
  0
POLYLINE
  8
LAYER_2
 40
0.2469
 41
0.2469
 66
1
 10
0
 20
0
 30
0
  0
VERTEX
  8
LAYER_2
 10
80.1283
 20
201.0237
  0
VERTEX
  8
LAYER_2
 10
80.6547
 20
201.0237
  0
SEQEND
  0
ENDBLK
  0
BLOCK
  8
LAYER_2
  2
AIGNBL02030056
 70
64
 10
0
 20
0
 30
0
  3
AIGNBL02030056
  0
POLYLINE
  8
LAYER_2
 40
0.2469
 41
0.2469
 66
1
 10
0
 20
0
 30
0
  0
VERTEX
  8
LAYER_2
 10
68.6053
 20
207.2173
  0
VERTEX
  8
LAYER_2
 10
68.6053
 20
207.6251
  0
SEQEND
  0
ENDBLK
  0
BLOCK
  8
LAYER_2
  2
AIGNBL02030057
 70
64
 10
0
 20
0
 30
0
  3
AIGNBL02030057
  0
POLYLINE
  8
LAYER_2
 40
0.2469
 41
0.2469
 66
1
 10
0
 20
0
 30
0
  0
VERTEX
  8
LAYER_2
 10
68.6053
 20
207.2173
  0
VERTEX
  8
LAYER_2
 10
68.6053
 20
207.6251
  0
SEQEND
  0
ENDBLK
  0
BLOCK
  8
LAYER_2
  2
AIGNBL02030058
 70
64
 10
0
 20
0
 30
0
  3
AIGNBL02030058
  0
POLYLINE
  8
LAYER_2
 40
0.2469
 41
0.2469
 66
1
 10
0
 20
0
 30
0
  0
VERTEX
  8
LAYER_2
 10
75.1589
 20
207.6251
  0
VERTEX
  8
LAYER_2
 10
75.1589
 20
204.4668
  0
SEQEND
  0
ENDBLK
  0
BLOCK
  8
LAYER_2
  2
AIGNBL02030059
 70
64
 10
0
 20
0
 30
0
  3
AIGNBL02030059
  0
POLYLINE
  8
LAYER_2
 40
0.2469
 41
0.2469
 66
1
 10
0
 20
0
 30
0
  0
VERTEX
  8
LAYER_2
 10
75.5666
 20
207.2173
  0
VERTEX
  8
LAYER_2
 10
75.5666
 20
204.4668
  0
SEQEND
  0
ENDBLK
  0
BLOCK
  8
LAYER_2
  2
AIGNBL0203005A
 70
64
 10
0
 20
0
 30
0
  3
AIGNBL0203005A
  0
POLYLINE
  8
LAYER_2
 40
0.2469
 41
0.2469
 66
1
 10
0
 20
0
 30
0
  0
VERTEX
  8
LAYER_2
 10
75.1589
 20
207.6251
  0
VERTEX
  8
LAYER_2
 10
75.5666
 20
207.2173
  0
SEQEND
  0
ENDBLK
  0
BLOCK
  8
LAYER_2
  2
AIGNBL0203005B
 70
64
 10
0
 20
0
 30
0
  3
AIGNBL0203005B
  0
POLYLINE
  8
LAYER_2
 40
0.2469
 41
0.2469
 66
1
 10
0
 20
0
 30
0
  0
VERTEX
  8
LAYER_2
 10
68.1974
 20
207.2173
  0
VERTEX
  8
LAYER_2
 10
68.1974
 20
204.4668
  0
SEQEND
  0
ENDBLK
  0
BLOCK
  8
LAYER_2
  2
AIGNBL0203005C
 70
64
 10
0
 20
0
 30
0
  3
AIGNBL0203005C
  0
POLYLINE
  8
LAYER_2
 40
0.2469
 41
0.2469
 66
1
 10
0
 20
0
 30
0
  0
VERTEX
  8
LAYER_2
 10
68.6053
 20
207.6251
  0
VERTEX
  8
LAYER_2
 10
68.1974
 20
207.2173
  0
SEQEND
  0
ENDBLK
  0
BLOCK
  8
LAYER_2
  2
AIGNBL0203005D
 70
64
 10
0
 20
0
 30
0
  3
AIGNBL0203005D
  0
POLYLINE
  8
LAYER_2
 40
0.2469
 41
0.2469
 66
1
 10
0
 20
0
 30
0
  0
VERTEX
  8
LAYER_2
 10
80.1283
 20
201.309
  0
VERTEX
  8
LAYER_2
 10
80.1283
 20
201.0237
  0
SEQEND
  0
ENDBLK
  0
BLOCK
  8
LAYER_2
  2
AIGNBL0203005E
 70
64
 10
0
 20
0
 30
0
  3
AIGNBL0203005E
  0
POLYLINE
  8
LAYER_2
 40
0.2469
 41
0.2469
 66
1
 10
0
 20
0
 30
0
  0
VERTEX
  8
LAYER_2
 10
80.1283
 20
201.309
  0
VERTEX
  8
LAYER_2
 10
79.6342
 20
201.309
  0
SEQEND
  0
ENDBLK
  0
BLOCK
  8
LAYER_2
  2
AIGNBL0203005F
 70
64
 10
0
 20
0
 30
0
  3
AIGNBL0203005F
  0
POLYLINE
  8
LAYER_2
 40
0.2469
 41
0.2469
 66
1
 10
0
 20
0
 30
0
  0
VERTEX
  8
LAYER_2
 10
80.1283
 20
201.0237
  0
VERTEX
  8
LAYER_2
 10
79.6342
 20
201.309
  0
SEQEND
  0
ENDBLK
  0
BLOCK
  8
LAYER_2
  2
AIGNBL02030060
 70
64
 10
0
 20
0
 30
0
  3
AIGNBL02030060
  0
POLYLINE
  8
LAYER_2
 40
0.2469
 41
0.2469
 66
1
 10
0
 20
0
 30
0
  0
VERTEX
  8
LAYER_2
 10
75.1589
 20
204.4668
  0
VERTEX
  8
LAYER_2
 10
75.5666
 20
204.4668
  0
SEQEND
  0
ENDBLK
  0
BLOCK
  8
LAYER_2
  2
AIGNBL02030061
 70
64
 10
0
 20
0
 30
0
  3
AIGNBL02030061
  0
POLYLINE
  8
LAYER_2
 40
0.2469
 41
0.2469
 66
1
 10
0
 20
0
 30
0
  0
VERTEX
  8
LAYER_2
 10
75.5666
 20
204.4668
  0
VERTEX
  8
LAYER_2
 10
75.5666
 20
203.7607
  0
SEQEND
  0
ENDBLK
  0
BLOCK
  8
LAYER_2
  2
AIGNBL02030062
 70
64
 10
0
 20
0
 30
0
  3
AIGNBL02030062
  0
POLYLINE
  8
LAYER_2
 40
0.2469
 41
0.2469
 66
1
 10
0
 20
0
 30
0
  0
VERTEX
  8
LAYER_2
 10
75.1589
 20
204.4668
  0
VERTEX
  8
LAYER_2
 10
75.5666
 20
203.7607
  0
SEQEND
  0
ENDBLK
  0
BLOCK
  8
LAYER_2
  2
AIGNBL02030063
 70
64
 10
0
 20
0
 30
0
  3
AIGNBL02030063
  0
POLYLINE
  8
LAYER_2
 40
0.2469
 41
0.2469
 66
1
 10
0
 20
0
 30
0
  0
VERTEX
  8
LAYER_2
 10
68.6053
 20
204.4668
  0
VERTEX
  8
LAYER_2
 10
68.6053
 20
207.2173
  0
SEQEND
  0
ENDBLK
  0
BLOCK
  8
LAYER_2
  2
AIGNBL02030064
 70
64
 10
0
 20
0
 30
0
  3
AIGNBL02030064
  0
POLYLINE
  8
LAYER_2
 40
0.2469
 41
0.2469
 66
1
 10
0
 20
0
 30
0
  0
VERTEX
  8
LAYER_2
 10
68.1974
 20
203.7607
  0
VERTEX
  8
LAYER_2
 10
68.6053
 20
204.4668
  0
SEQEND
  0
ENDBLK
  0
BLOCK
  8
LAYER_2
  2
AIGNBL02030065
 70
64
 10
0
 20
0
 30
0
  3
AIGNBL02030065
  0
POLYLINE
  8
LAYER_2
 40
0.2469
 41
0.2469
 66
1
 10
0
 20
0
 30
0
  0
VERTEX
  8
LAYER_2
 10
68.1974
 20
204.4668
  0
VERTEX
  8
LAYER_2
 10
68.6053
 20
204.4668
  0
SEQEND
  0
ENDBLK
  0
BLOCK
  8
LAYER_2
  2
AIGNBL02030066
 70
64
 10
0
 20
0
 30
0
  3
AIGNBL02030066
  0
POLYLINE
  8
LAYER_2
 40
0.2469
 41
0.2469
 66
1
 10
0
 20
0
 30
0
  0
VERTEX
  8
LAYER_2
 10
68.6053
 20
204.4668
  0
VERTEX
  8
LAYER_2
 10
68.6053
 20
207.2173
  0
SEQEND
  0
ENDBLK
  0
BLOCK
  8
LAYER_2
  2
AIGNBL02030067
 70
64
 10
0
 20
0
 30
0
  3
AIGNBL02030067
  0
POLYLINE
  8
LAYER_2
 40
0.2469
 41
0.2469
 66
1
 10
0
 20
0
 30
0
  0
VERTEX
  8
LAYER_2
 10
79.6342
 20
192.8871
  0
VERTEX
  8
LAYER_2
 10
80.1283
 20
193.1725
  0
SEQEND
  0
ENDBLK
  0
BLOCK
  8
LAYER_2
  2
AIGNBL02030068
 70
64
 10
0
 20
0
 30
0
  3
AIGNBL02030068
  0
POLYLINE
  8
LAYER_2
 40
0.2469
 41
0.2469
 66
1
 10
0
 20
0
 30
0
  0
VERTEX
  8
LAYER_2
 10
79.6342
 20
192.8871
  0
VERTEX
  8
LAYER_2
 10
80.1283
 20
192.8871
  0
SEQEND
  0
ENDBLK
  0
BLOCK
  8
LAYER_2
  2
AIGNBL02030069
 70
64
 10
0
 20
0
 30
0
  3
AIGNBL02030069
  0
POLYLINE
  8
LAYER_2
 40
0.2469
 41
0.2469
 66
1
 10
0
 20
0
 30
0
  0
VERTEX
  8
LAYER_2
 10
80.1283
 20
193.1725
  0
VERTEX
  8
LAYER_2
 10
80.1283
 20
192.8871
  0
SEQEND
  0
ENDBLK
  0
BLOCK
  8
LAYER_2
  2
AIGNBL0203006A
 70
64
 10
0
 20
0
 30
0
  3
AIGNBL0203006A
  0
POLYLINE
  8
LAYER_2
 40
0.2469
 41
0.2469
 66
1
 10
0
 20
0
 30
0
  0
VERTEX
  8
LAYER_2
 10
80.1283
 20
192.8871
  0
VERTEX
  8
LAYER_2
 10
80.6547
 20
192.8871
  0
SEQEND
  0
ENDBLK
  0
BLOCK
  8
LAYER_2
  2
AIGNBL0203006B
 70
64
 10
0
 20
0
 30
0
  3
AIGNBL0203006B
  0
POLYLINE
  8
LAYER_2
 40
0.2469
 41
0.2469
 66
1
 10
0
 20
0
 30
0
  0
VERTEX
  8
LAYER_2
 10
77.1495
 20
187.2728
  0
VERTEX
  8
LAYER_2
 10
77.1495
 20
185.61
  0
SEQEND
  0
ENDBLK
  0
BLOCK
  8
LAYER_2
  2
AIGNBL0203006C
 70
64
 10
0
 20
0
 30
0
  3
AIGNBL0203006C
  0
POLYLINE
  8
LAYER_2
 40
0.2469
 41
0.2469
 66
1
 10
0
 20
0
 30
0
  0
VERTEX
  8
LAYER_2
 10
75.5666
 20
203.7607
  0
VERTEX
  8
LAYER_2
 10
75.5666
 20
203.2389
  0
SEQEND
  0
ENDBLK
  0
BLOCK
  8
LAYER_2
  2
AIGNBL0203006D
 70
64
 10
0
 20
0
 30
0
  3
AIGNBL0203006D
  0
POLYLINE
  8
LAYER_2
 40
0.2469
 41
0.2469
 66
1
 10
0
 20
0
 30
0
  0
VERTEX
  8
LAYER_2
 10
67.4958
 20
197.098
  0
VERTEX
  8
LAYER_2
 10
67.4958
 20
188.8806
  0
SEQEND
  0
ENDBLK
  0
BLOCK
  8
LAYER_2
  2
AIGNBL0203006E
 70
64
 10
0
 20
0
 30
0
  3
AIGNBL0203006E
  0
POLYLINE
  8
LAYER_2
 40
0.2469
 41
0.2469
 66
1
 10
0
 20
0
 30
0
  0
VERTEX
  8
LAYER_2
 10
76.2684
 20
190.9572
  0
VERTEX
  8
LAYER_2
 10
76.2684
 20
188.8806
  0
SEQEND
  0
ENDBLK
  0
BLOCK
  8
LAYER_2
  2
AIGNBL0203006F
 70
64
 10
0
 20
0
 30
0
  3
AIGNBL0203006F
  0
POLYLINE
  8
LAYER_2
 40
0.2469
 41
0.2469
 66
1
 10
0
 20
0
 30
0
  0
VERTEX
  8
LAYER_2
 10
75.5587
 20
184.8163
  0
VERTEX
  8
LAYER_2
 10
68.2055
 20
184.8163
  0
SEQEND
  0
ENDBLK
  0
BLOCK
  8
LAYER_2
  2
AIGNBL02030070
 70
64
 10
0
 20
0
 30
0
  3
AIGNBL02030070
  0
POLYLINE
  8
LAYER_2
 40
0.2469
 41
0.2469
 66
1
 10
0
 20
0
 30
0
  0
VERTEX
  8
LAYER_2
 10
68.1974
 20
203.7607
  0
VERTEX
  8
LAYER_2
 10
68.1974
 20
203.2389
  0
SEQEND
  0
ENDBLK
  0
BLOCK
  8
LAYER_2
  2
AIGNBL02030071
 70
64
 10
0
 20
0
 30
0
  3
AIGNBL02030071
  0
POLYLINE
  8
LAYER_2
 40
0.2469
 41
0.2469
 66
1
 10
0
 20
0
 30
0
  0
VERTEX
  8
LAYER_2
 10
72.0574
 20
245.8484
 42
0.03889171319
  0
VERTEX
  8
LAYER_2
 10
72.4083
 20
245.9032
  0
SEQEND
  0
ENDBLK
  0
BLOCK
  8
LAYER_2
  2
AIGNBL02030072
 70
64
 10
0
 20
0
 30
0
  3
AIGNBL02030072
  0
POLYLINE
  8
LAYER_2
 40
0.2469
 41
0.2469
 66
1
 10
0
 20
0
 30
0
  0
VERTEX
  8
LAYER_2
 10
72.9347
 20
250.146
 42
0.06181786411
  0
VERTEX
  8
LAYER_2
 10
72.4083
 20
250.3418
  0
SEQEND
  0
ENDBLK
  0
BLOCK
  8
LAYER_2
  2
AIGNBL02030073
 70
64
 10
0
 20
0
 30
0
  3
AIGNBL02030073
  0
POLYLINE
  8
LAYER_2
 40
0.2469
 41
0.2469
 66
1
 10
0
 20
0
 30
0
  0
VERTEX
  8
LAYER_2
 10
72.4083
 20
250.3418
 42
0.03906582646
  0
VERTEX
  8
LAYER_2
 10
72.0574
 20
250.3966
  0
SEQEND
  0
ENDBLK
  0
BLOCK
  8
LAYER_2
  2
AIGNBL02030074
 70
64
 10
0
 20
0
 30
0
  3
AIGNBL02030074
  0
POLYLINE
  8
LAYER_2
 40
0.2469
 41
0.2469
 66
1
 10
0
 20
0
 30
0
  0
VERTEX
  8
LAYER_2
 10
72.4083
 20
245.9032
 42
0.4142699042
  0
VERTEX
  8
LAYER_2
 10
74.1014
 20
248.6487
 42
0.2178900603
  0
VERTEX
  8
LAYER_2
 10
72.9347
 20
250.146
  0
SEQEND
  0
ENDBLK
  0
BLOCK
  8
LAYER_2
  2
AIGNBL02030075
 70
64
 10
0
 20
0
 30
0
  3
AIGNBL02030075
  0
POLYLINE
  8
LAYER_2
 40
0.2469
 41
0.2469
 66
1
 10
0
 20
0
 30
0
  0
VERTEX
  8
LAYER_2
 10
72.0574
 20
250.3966
 42
0.4142043633
  0
VERTEX
  8
LAYER_2
 10
69.608
 20
248.2979
 42
0.4142279444
  0
VERTEX
  8
LAYER_2
 10
71.7066
 20
245.8484
 42
0.03892498571
  0
VERTEX
  8
LAYER_2
 10
72.0574
 20
245.8484
  0
SEQEND
  0
ENDBLK
  0
BLOCK
  8
LAYER_2
  2
AIGNBL02030076
 70
64
 10
0
 20
0
 30
0
  3
AIGNBL02030076
  0
POLYLINE
  8
LAYER_2
 40
0.2469
 41
0.2469
 66
1
 10
0
 20
0
 30
0
  0
VERTEX
  8
LAYER_2
 10
73.1101
 20
252.3333
 42
0.4142376561
  0
VERTEX
  8
LAYER_2
 10
67.6713
 20
249.3507
 42
0.4142346538
  0
VERTEX
  8
LAYER_2
 10
70.6539
 20
243.9117
 42
0.1428426131
  0
VERTEX
  8
LAYER_2
 10
73.1101
 20
243.9117
  0
SEQEND
  0
ENDBLK
  0
BLOCK
  8
LAYER_2
  2
AIGNBL02030077
 70
64
 10
0
 20
0
 30
0
  3
AIGNBL02030077
  0
POLYLINE
  8
LAYER_2
 40
0.2469
 41
0.2469
 66
1
 10
0
 20
0
 30
0
  0
VERTEX
  8
LAYER_2
 10
124.0472
 20
200.6606
 42
0.01882169132
  0
VERTEX
  8
LAYER_2
 10
123.8236
 20
199.4981
  0
SEQEND
  0
ENDBLK
  0
BLOCK
  8
LAYER_2
  2
AIGNBL02030078
 70
64
 10
0
 20
0
 30
0
  3
AIGNBL02030078
  0
POLYLINE
  8
LAYER_2
 40
0.2469
 41
0.2469
 66
1
 10
0
 20
0
 30
0
  0
VERTEX
  8
LAYER_2
 10
131.7108
 20
203.2389
 42
0.05692440445
  0
VERTEX
  8
LAYER_2
 10
132.0057
 20
200.6606
  0
SEQEND
  0
ENDBLK
  0
BLOCK
  8
LAYER_2
  2
AIGNBL02030079
 70
64
 10
0
 20
0
 30
0
  3
AIGNBL02030079
  0
POLYLINE
  8
LAYER_2
 40
0.2469
 41
0.2469
 66
1
 10
0
 20
0
 30
0
  0
VERTEX
  8
LAYER_2
 10
132.2293
 20
199.4981
 42
0.01868910565
  0
VERTEX
  8
LAYER_2
 10
132.0057
 20
200.6606
  0
SEQEND
  0
ENDBLK
  0
BLOCK
  8
LAYER_2
  2
AIGNBL0203007A
 70
64
 10
0
 20
0
 30
0
  3
AIGNBL0203007A
  0
POLYLINE
  8
LAYER_2
 40
0.2469
 41
0.2469
 66
1
 10
0
 20
0
 30
0
  0
VERTEX
  8
LAYER_2
 10
124.0472
 20
200.6606
 42
0.05702156387
  0
VERTEX
  8
LAYER_2
 10
124.3421
 20
203.2389
  0
SEQEND
  0
ENDBLK
  0
BLOCK
  8
LAYER_2
  2
AIGNBL0203007B
 70
64
 10
0
 20
0
 30
0
  3
AIGNBL0203007B
  0
POLYLINE
  8
LAYER_2
 40
0.2469
 41
0.2469
 66
1
 10
0
 20
0
 30
0
  0
VERTEX
  8
LAYER_2
 10
67.903
 20
200.6606
 42
0.05692454305
  0
VERTEX
  8
LAYER_2
 10
68.1974
 20
203.2389
  0
SEQEND
  0
ENDBLK
  0
BLOCK
  8
LAYER_2
  2
AIGNBL0203007C
 70
64
 10
0
 20
0
 30
0
  3
AIGNBL0203007C
  0
POLYLINE
  8
LAYER_2
 40
0.2469
 41
0.2469
 66
1
 10
0
 20
0
 30
0
  0
VERTEX
  8
LAYER_2
 10
67.903
 20
200.6606
 42
0.05697702952
  0
VERTEX
  8
LAYER_2
 10
67.4958
 20
197.098
  0
SEQEND
  0
ENDBLK
  0
BLOCK
  8
LAYER_2
  2
AIGNBL0203007D
 70
64
 10
0
 20
0
 30
0
  3
AIGNBL0203007D
  0
POLYLINE
  8
LAYER_2
 40
0.2469
 41
0.2469
 66
1
 10
0
 20
0
 30
0
 70
1
  0
VERTEX
  8
LAYER_2
 10
75.5666
 20
248.1227
 42
0.4142101182
  0
VERTEX
  8
LAYER_2
 10
71.8821
 20
251.807
 42
0.4142117762
  0
VERTEX
  8
LAYER_2
 10
68.1974
 20
248.1227
 42
0.4142170067
  0
VERTEX
  8
LAYER_2
 10
71.8821
 20
244.4381
 42
0.4142153487
  0
SEQEND
  0
ENDBLK
  0
BLOCK
  8
LAYER_2
  2
AIGNBL0203007E
 70
64
 10
0
 20
0
 30
0
  3
AIGNBL0203007E
  0
POLYLINE
  8
LAYER_2
 40
0.2469
 41
0.2469
 66
1
 10
0
 20
0
 30
0
 70
1
  0
VERTEX
  8
LAYER_2
 10
75.1594
 20
248.1227
 42
0.4142096903
  0
VERTEX
  8
LAYER_2
 10
71.8821
 20
251.4
 42
0.4142115542
  0
VERTEX
  8
LAYER_2
 10
68.6046
 20
248.1227
 42
0.4142174345
  0
VERTEX
  8
LAYER_2
 10
71.8821
 20
244.845
 42
0.4142155708
  0
SEQEND
  0
ENDBLK
  0
BLOCK
  8
LAYER_2
  2
AIGNBL0203007F
 70
64
 10
0
 20
0
 30
0
  3
AIGNBL0203007F
  0
POLYLINE
  8
LAYER_2
 40
0.2469
 41
0.2469
 66
1
 10
0
 20
0
 30
0
  0
VERTEX
  8
LAYER_2
 10
128.0263
 20
185.61
  0
VERTEX
  8
LAYER_2
 10
128.2082
 20
185.5081
  0
VERTEX
  8
LAYER_2
 10
128.3929
 20
185.4118
  0
VERTEX
  8
LAYER_2
 10
128.4955
 20
185.361
  0
VERTEX
  8
LAYER_2
 10
128.5992
 20
185.3124
  0
VERTEX
  8
LAYER_2
 10
128.7132
 20
185.2616
  0
VERTEX
  8
LAYER_2
 10
128.8287
 20
185.2132
  0
VERTEX
  8
LAYER_2
 10
128.9613
 20
185.1618
  0
VERTEX
  8
LAYER_2
 10
129.0953
 20
185.1139
  0
VERTEX
  8
LAYER_2
 10
129.2627
 20
185.0612
  0
VERTEX
  8
LAYER_2
 10
129.4319
 20
185.0149
  0
VERTEX
  8
LAYER_2
 10
129.7275
 20
184.9529
  0
VERTEX
  8
LAYER_2
 10
130.0272
 20
184.9158
  0
VERTEX
  8
LAYER_2
 10
130.3073
 20
184.9043
  0
VERTEX
  8
LAYER_2
 10
130.5874
 20
184.9158
  0
VERTEX
  8
LAYER_2
 10
130.8868
 20
184.9529
  0
VERTEX
  8
LAYER_2
 10
131.1823
 20
185.0149
  0
VERTEX
  8
LAYER_2
 10
131.3518
 20
185.0612
  0
VERTEX
  8
LAYER_2
 10
131.5193
 20
185.1139
  0
VERTEX
  8
LAYER_2
 10
131.6529
 20
185.1618
  0
VERTEX
  8
LAYER_2
 10
131.7856
 20
185.2132
  0
VERTEX
  8
LAYER_2
 10
131.901
 20
185.2616
  0
VERTEX
  8
LAYER_2
 10
132.0154
 20
185.3124
  0
VERTEX
  8
LAYER_2
 10
132.1191
 20
185.361
  0
VERTEX
  8
LAYER_2
 10
132.2214
 20
185.4118
  0
VERTEX
  8
LAYER_2
 10
132.406
 20
185.5081
  0
VERTEX
  8
LAYER_2
 10
132.5879
 20
185.61
  0
SEQEND
  0
ENDBLK
  0
BLOCK
  8
LAYER_2
  2
AIGNBL02030080
 70
64
 10
0
 20
0
 30
0
  3
AIGNBL02030080
  0
POLYLINE
  8
LAYER_2
 40
0.2469
 41
0.2469
 66
1
 10
0
 20
0
 30
0
  0
VERTEX
  8
LAYER_2
 10
128.0263
 20
187.2728
  0
VERTEX
  8
LAYER_2
 10
128.2082
 20
187.3746
  0
VERTEX
  8
LAYER_2
 10
128.3929
 20
187.4711
  0
VERTEX
  8
LAYER_2
 10
128.4955
 20
187.5219
  0
VERTEX
  8
LAYER_2
 10
128.5992
 20
187.5703
  0
VERTEX
  8
LAYER_2
 10
128.7132
 20
187.6213
  0
VERTEX
  8
LAYER_2
 10
128.8287
 20
187.6693
  0
VERTEX
  8
LAYER_2
 10
128.9613
 20
187.721
  0
VERTEX
  8
LAYER_2
 10
129.0953
 20
187.7687
  0
VERTEX
  8
LAYER_2
 10
129.2627
 20
187.8216
  0
VERTEX
  8
LAYER_2
 10
129.4319
 20
187.8679
  0
VERTEX
  8
LAYER_2
 10
129.7275
 20
187.9296
  0
VERTEX
  8
LAYER_2
 10
130.0272
 20
187.967
  0
VERTEX
  8
LAYER_2
 10
130.3073
 20
187.9785
  0
VERTEX
  8
LAYER_2
 10
130.5874
 20
187.967
  0
VERTEX
  8
LAYER_2
 10
130.8868
 20
187.9296
  0
VERTEX
  8
LAYER_2
 10
131.1823
 20
187.8679
  0
VERTEX
  8
LAYER_2
 10
131.3518
 20
187.8216
  0
VERTEX
  8
LAYER_2
 10
131.5193
 20
187.7687
  0
VERTEX
  8
LAYER_2
 10
131.6529
 20
187.721
  0
VERTEX
  8
LAYER_2
 10
131.7856
 20
187.6693
  0
VERTEX
  8
LAYER_2
 10
131.901
 20
187.6213
  0
VERTEX
  8
LAYER_2
 10
132.0154
 20
187.5703
  0
VERTEX
  8
LAYER_2
 10
132.1191
 20
187.5219
  0
VERTEX
  8
LAYER_2
 10
132.2214
 20
187.4711
  0
VERTEX
  8
LAYER_2
 10
132.406
 20
187.3746
  0
VERTEX
  8
LAYER_2
 10
132.5879
 20
187.2728
  0
SEQEND
  0
ENDBLK
  0
BLOCK
  8
LAYER_2
  2
AIGNBL02030081
 70
64
 10
0
 20
0
 30
0
  3
AIGNBL02030081
  0
POLYLINE
  8
LAYER_2
 40
0.2469
 41
0.2469
 66
1
 10
0
 20
0
 30
0
  0
VERTEX
  8
LAYER_2
 10
128.0263
 20
187.2728
  0
VERTEX
  8
LAYER_2
 10
127.8447
 20
187.3746
  0
VERTEX
  8
LAYER_2
 10
127.6597
 20
187.4711
  0
VERTEX
  8
LAYER_2
 10
127.5571
 20
187.5219
  0
VERTEX
  8
LAYER_2
 10
127.4537
 20
187.5703
  0
VERTEX
  8
LAYER_2
 10
127.3393
 20
187.6213
  0
VERTEX
  8
LAYER_2
 10
127.2239
 20
187.6693
  0
VERTEX
  8
LAYER_2
 10
127.0916
 20
187.721
  0
VERTEX
  8
LAYER_2
 10
126.9573
 20
187.7687
  0
VERTEX
  8
LAYER_2
 10
126.7902
 20
187.8216
  0
VERTEX
  8
LAYER_2
 10
126.6207
 20
187.8679
  0
VERTEX
  8
LAYER_2
 10
126.3251
 20
187.9296
  0
VERTEX
  8
LAYER_2
 10
126.0257
 20
187.967
  0
VERTEX
  8
LAYER_2
 10
125.7456
 20
187.9785
  0
VERTEX
  8
LAYER_2
 10
125.4656
 20
187.967
  0
VERTEX
  8
LAYER_2
 10
125.1658
 20
187.9296
  0
VERTEX
  8
LAYER_2
 10
124.8702
 20
187.8679
  0
VERTEX
  8
LAYER_2
 10
124.7011
 20
187.8216
  0
VERTEX
  8
LAYER_2
 10
124.5337
 20
187.7687
  0
VERTEX
  8
LAYER_2
 10
124.3993
 20
187.721
  0
VERTEX
  8
LAYER_2
 10
124.267
 20
187.6693
  0
VERTEX
  8
LAYER_2
 10
124.1516
 20
187.6213
  0
VERTEX
  8
LAYER_2
 10
124.0372
 20
187.5703
  0
VERTEX
  8
LAYER_2
 10
123.9339
 20
187.5219
  0
VERTEX
  8
LAYER_2
 10
123.8312
 20
187.4711
  0
VERTEX
  8
LAYER_2
 10
123.6465
 20
187.3746
  0
VERTEX
  8
LAYER_2
 10
123.4646
 20
187.2728
  0
SEQEND
  0
ENDBLK
  0
BLOCK
  8
LAYER_2
  2
AIGNBL02030082
 70
64
 10
0
 20
0
 30
0
  3
AIGNBL02030082
  0
POLYLINE
  8
LAYER_2
 40
0.2469
 41
0.2469
 66
1
 10
0
 20
0
 30
0
  0
VERTEX
  8
LAYER_2
 10
128.0263
 20
185.61
  0
VERTEX
  8
LAYER_2
 10
127.8447
 20
185.5081
  0
VERTEX
  8
LAYER_2
 10
127.6597
 20
185.4118
  0
VERTEX
  8
LAYER_2
 10
127.5571
 20
185.361
  0
VERTEX
  8
LAYER_2
 10
127.4537
 20
185.3124
  0
VERTEX
  8
LAYER_2
 10
127.3393
 20
185.2616
  0
VERTEX
  8
LAYER_2
 10
127.2239
 20
185.2132
  0
VERTEX
  8
LAYER_2
 10
127.0916
 20
185.1618
  0
VERTEX
  8
LAYER_2
 10
126.9573
 20
185.1139
  0
VERTEX
  8
LAYER_2
 10
126.7902
 20
185.0612
  0
VERTEX
  8
LAYER_2
 10
126.6207
 20
185.0149
  0
VERTEX
  8
LAYER_2
 10
126.3251
 20
184.9529
  0
VERTEX
  8
LAYER_2
 10
126.0257
 20
184.9158
  0
VERTEX
  8
LAYER_2
 10
125.7456
 20
184.9043
  0
VERTEX
  8
LAYER_2
 10
125.4656
 20
184.9158
  0
VERTEX
  8
LAYER_2
 10
125.1658
 20
184.9529
  0
VERTEX
  8
LAYER_2
 10
124.8702
 20
185.0149
  0
VERTEX
  8
LAYER_2
 10
124.7011
 20
185.0612
  0
VERTEX
  8
LAYER_2
 10
124.5337
 20
185.1139
  0
VERTEX
  8
LAYER_2
 10
124.3993
 20
185.1618
  0
VERTEX
  8
LAYER_2
 10
124.267
 20
185.2132
  0
VERTEX
  8
LAYER_2
 10
124.1516
 20
185.2616
  0
VERTEX
  8
LAYER_2
 10
124.0372
 20
185.3124
  0
VERTEX
  8
LAYER_2
 10
123.9339
 20
185.361
  0
VERTEX
  8
LAYER_2
 10
123.8312
 20
185.4118
  0
VERTEX
  8
LAYER_2
 10
123.6465
 20
185.5081
  0
VERTEX
  8
LAYER_2
 10
123.4646
 20
185.61
  0
SEQEND
  0
ENDBLK
  0
BLOCK
  8
LAYER_2
  2
AIGNBL02030083
 70
64
 10
0
 20
0
 30
0
  3
AIGNBL02030083
  0
POLYLINE
  8
LAYER_2
 40
0.2469
 41
0.2469
 66
1
 10
0
 20
0
 30
0
  0
VERTEX
  8
LAYER_2
 10
66.6147
 20
187.2728
  0
VERTEX
  8
LAYER_2
 10
66.7188
 20
187.3737
  0
VERTEX
  8
LAYER_2
 10
66.8262
 20
187.4711
  0
VERTEX
  8
LAYER_2
 10
66.8852
 20
187.5215
  0
VERTEX
  8
LAYER_2
 10
66.9454
 20
187.5703
  0
VERTEX
  8
LAYER_2
 10
67.0109
 20
187.6209
  0
VERTEX
  8
LAYER_2
 10
67.0779
 20
187.6693
  0
VERTEX
  8
LAYER_2
 10
67.1539
 20
187.7207
  0
VERTEX
  8
LAYER_2
 10
67.2319
 20
187.7687
  0
VERTEX
  8
LAYER_2
 10
67.3273
 20
187.8214
  0
VERTEX
  8
LAYER_2
 10
67.4262
 20
187.8679
  0
VERTEX
  8
LAYER_2
 10
67.5947
 20
187.9289
  0
VERTEX
  8
LAYER_2
 10
67.7699
 20
187.967
  0
VERTEX
  8
LAYER_2
 10
67.9316
 20
187.9782
  0
VERTEX
  8
LAYER_2
 10
68.0932
 20
187.967
  0
VERTEX
  8
LAYER_2
 10
68.2682
 20
187.9289
  0
VERTEX
  8
LAYER_2
 10
68.4368
 20
187.8679
  0
VERTEX
  8
LAYER_2
 10
68.5357
 20
187.8214
  0
VERTEX
  8
LAYER_2
 10
68.6311
 20
187.7687
  0
VERTEX
  8
LAYER_2
 10
68.7092
 20
187.7207
  0
VERTEX
  8
LAYER_2
 10
68.7849
 20
187.6693
  0
VERTEX
  8
LAYER_2
 10
68.8521
 20
187.6209
  0
VERTEX
  8
LAYER_2
 10
68.9178
 20
187.5703
  0
VERTEX
  8
LAYER_2
 10
68.9779
 20
187.5215
  0
VERTEX
  8
LAYER_2
 10
69.0368
 20
187.4711
  0
VERTEX
  8
LAYER_2
 10
69.1443
 20
187.3737
  0
VERTEX
  8
LAYER_2
 10
69.2483
 20
187.2728
  0
SEQEND
  0
ENDBLK
  0
BLOCK
  8
LAYER_2
  2
AIGNBL02030084
 70
64
 10
0
 20
0
 30
0
  3
AIGNBL02030084
  0
POLYLINE
  8
LAYER_2
 40
0.2469
 41
0.2469
 66
1
 10
0
 20
0
 30
0
  0
VERTEX
  8
LAYER_2
 10
74.5157
 20
187.2728
  0
VERTEX
  8
LAYER_2
 10
74.3054
 20
187.3746
  0
VERTEX
  8
LAYER_2
 10
74.0926
 20
187.4711
  0
VERTEX
  8
LAYER_2
 10
73.9738
 20
187.5219
  0
VERTEX
  8
LAYER_2
 10
73.8544
 20
187.5703
  0
VERTEX
  8
LAYER_2
 10
73.7225
 20
187.6213
  0
VERTEX
  8
LAYER_2
 10
73.5893
 20
187.6693
  0
VERTEX
  8
LAYER_2
 10
73.4358
 20
187.721
  0
VERTEX
  8
LAYER_2
 10
73.2815
 20
187.7687
  0
VERTEX
  8
LAYER_2
 10
73.088
 20
187.8216
  0
VERTEX
  8
LAYER_2
 10
72.8929
 20
187.8679
  0
VERTEX
  8
LAYER_2
 10
72.551
 20
187.9298
  0
VERTEX
  8
LAYER_2
 10
72.2056
 20
187.967
  0
VERTEX
  8
LAYER_2
 10
71.8821
 20
187.9785
  0
VERTEX
  8
LAYER_2
 10
71.5584
 20
187.967
  0
VERTEX
  8
LAYER_2
 10
71.2132
 20
187.9298
  0
VERTEX
  8
LAYER_2
 10
70.8713
 20
187.8679
  0
VERTEX
  8
LAYER_2
 10
70.676
 20
187.8216
  0
VERTEX
  8
LAYER_2
 10
70.4827
 20
187.7687
  0
VERTEX
  8
LAYER_2
 10
70.3282
 20
187.721
  0
VERTEX
  8
LAYER_2
 10
70.1749
 20
187.6693
  0
VERTEX
  8
LAYER_2
 10
70.0415
 20
187.6213
  0
VERTEX
  8
LAYER_2
 10
69.9096
 20
187.5703
  0
VERTEX
  8
LAYER_2
 10
69.7902
 20
187.5219
  0
VERTEX
  8
LAYER_2
 10
69.6717
 20
187.4711
  0
VERTEX
  8
LAYER_2
 10
69.4586
 20
187.3746
  0
VERTEX
  8
LAYER_2
 10
69.2483
 20
187.2728
  0
SEQEND
  0
ENDBLK
  0
BLOCK
  8
LAYER_2
  2
AIGNBL02030085
 70
64
 10
0
 20
0
 30
0
  3
AIGNBL02030085
  0
POLYLINE
  8
LAYER_2
 40
0.2469
 41
0.2469
 66
1
 10
0
 20
0
 30
0
  0
VERTEX
  8
LAYER_2
 10
77.1495
 20
187.2728
  0
VERTEX
  8
LAYER_2
 10
77.0454
 20
187.3737
  0
VERTEX
  8
LAYER_2
 10
76.9378
 20
187.4711
  0
VERTEX
  8
LAYER_2
 10
76.8789
 20
187.5215
  0
VERTEX
  8
LAYER_2
 10
76.8187
 20
187.5703
  0
VERTEX
  8
LAYER_2
 10
76.7535
 20
187.6209
  0
VERTEX
  8
LAYER_2
 10
76.6863
 20
187.6693
  0
VERTEX
  8
LAYER_2
 10
76.6103
 20
187.7207
  0
VERTEX
  8
LAYER_2
 10
76.5323
 20
187.7687
  0
VERTEX
  8
LAYER_2
 10
76.4367
 20
187.8214
  0
VERTEX
  8
LAYER_2
 10
76.338
 20
187.8679
  0
VERTEX
  8
LAYER_2
 10
76.1695
 20
187.9289
  0
VERTEX
  8
LAYER_2
 10
75.9943
 20
187.967
  0
VERTEX
  8
LAYER_2
 10
75.8326
 20
187.9782
  0
VERTEX
  8
LAYER_2
 10
75.6708
 20
187.967
  0
VERTEX
  8
LAYER_2
 10
75.4958
 20
187.9289
  0
VERTEX
  8
LAYER_2
 10
75.3272
 20
187.8679
  0
VERTEX
  8
LAYER_2
 10
75.2285
 20
187.8214
  0
VERTEX
  8
LAYER_2
 10
75.1329
 20
187.7687
  0
VERTEX
  8
LAYER_2
 10
75.0549
 20
187.7207
  0
VERTEX
  8
LAYER_2
 10
74.9791
 20
187.6693
  0
VERTEX
  8
LAYER_2
 10
74.9119
 20
187.6209
  0
VERTEX
  8
LAYER_2
 10
74.8464
 20
187.5703
  0
VERTEX
  8
LAYER_2
 10
74.7863
 20
187.5215
  0
VERTEX
  8
LAYER_2
 10
74.7272
 20
187.4711
  0
VERTEX
  8
LAYER_2
 10
74.6201
 20
187.3737
  0
VERTEX
  8
LAYER_2
 10
74.5157
 20
187.2728
  0
SEQEND
  0
ENDBLK
  0
BLOCK
  8
LAYER_2
  2
AIGNBL02030086
 70
64
 10
0
 20
0
 30
0
  3
AIGNBL02030086
  0
POLYLINE
  8
LAYER_2
 40
0.2469
 41
0.2469
 66
1
 10
0
 20
0
 30
0
  0
VERTEX
  8
LAYER_2
 10
66.6147
 20
185.61
  0
VERTEX
  8
LAYER_2
 10
66.7188
 20
185.5091
  0
VERTEX
  8
LAYER_2
 10
66.8262
 20
185.4118
  0
VERTEX
  8
LAYER_2
 10
66.8852
 20
185.3613
  0
VERTEX
  8
LAYER_2
 10
66.9454
 20
185.3124
  0
VERTEX
  8
LAYER_2
 10
67.0109
 20
185.2617
  0
VERTEX
  8
LAYER_2
 10
67.0779
 20
185.2132
  0
VERTEX
  8
LAYER_2
 10
67.1539
 20
185.1622
  0
VERTEX
  8
LAYER_2
 10
67.2319
 20
185.1139
  0
VERTEX
  8
LAYER_2
 10
67.3273
 20
185.0614
  0
VERTEX
  8
LAYER_2
 10
67.4262
 20
185.0149
  0
VERTEX
  8
LAYER_2
 10
67.5947
 20
184.9536
  0
VERTEX
  8
LAYER_2
 10
67.7699
 20
184.9158
  0
VERTEX
  8
LAYER_2
 10
67.9316
 20
184.9043
  0
VERTEX
  8
LAYER_2
 10
68.0932
 20
184.9158
  0
VERTEX
  8
LAYER_2
 10
68.2682
 20
184.9536
  0
VERTEX
  8
LAYER_2
 10
68.4368
 20
185.0149
  0
VERTEX
  8
LAYER_2
 10
68.5357
 20
185.0614
  0
VERTEX
  8
LAYER_2
 10
68.6311
 20
185.1139
  0
VERTEX
  8
LAYER_2
 10
68.7092
 20
185.1622
  0
VERTEX
  8
LAYER_2
 10
68.7849
 20
185.2132
  0
VERTEX
  8
LAYER_2
 10
68.8521
 20
185.2617
  0
VERTEX
  8
LAYER_2
 10
68.9178
 20
185.3124
  0
VERTEX
  8
LAYER_2
 10
68.9779
 20
185.3613
  0
VERTEX
  8
LAYER_2
 10
69.0368
 20
185.4118
  0
VERTEX
  8
LAYER_2
 10
69.1443
 20
185.5091
  0
VERTEX
  8
LAYER_2
 10
69.2483
 20
185.61
  0
SEQEND
  0
ENDBLK
  0
BLOCK
  8
LAYER_2
  2
AIGNBL02030087
 70
64
 10
0
 20
0
 30
0
  3
AIGNBL02030087
  0
POLYLINE
  8
LAYER_2
 40
0.2469
 41
0.2469
 66
1
 10
0
 20
0
 30
0
  0
VERTEX
  8
LAYER_2
 10
74.5157
 20
185.61
  0
VERTEX
  8
LAYER_2
 10
74.3054
 20
185.5079
  0
VERTEX
  8
LAYER_2
 10
74.0926
 20
185.4118
  0
VERTEX
  8
LAYER_2
 10
73.9738
 20
185.361
  0
VERTEX
  8
LAYER_2
 10
73.8544
 20
185.3124
  0
VERTEX
  8
LAYER_2
 10
73.7225
 20
185.2616
  0
VERTEX
  8
LAYER_2
 10
73.5893
 20
185.2132
  0
VERTEX
  8
LAYER_2
 10
73.4358
 20
185.1615
  0
VERTEX
  8
LAYER_2
 10
73.2815
 20
185.1139
  0
VERTEX
  8
LAYER_2
 10
73.088
 20
185.0609
  0
VERTEX
  8
LAYER_2
 10
72.8929
 20
185.0149
  0
VERTEX
  8
LAYER_2
 10
72.551
 20
184.9529
  0
VERTEX
  8
LAYER_2
 10
72.2056
 20
184.9158
  0
VERTEX
  8
LAYER_2
 10
71.8821
 20
184.9043
  0
VERTEX
  8
LAYER_2
 10
71.5584
 20
184.9158
  0
VERTEX
  8
LAYER_2
 10
71.2132
 20
184.9529
  0
VERTEX
  8
LAYER_2
 10
70.8713
 20
185.0149
  0
VERTEX
  8
LAYER_2
 10
70.676
 20
185.0609
  0
VERTEX
  8
LAYER_2
 10
70.4827
 20
185.1139
  0
VERTEX
  8
LAYER_2
 10
70.3282
 20
185.1615
  0
VERTEX
  8
LAYER_2
 10
70.1749
 20
185.2132
  0
VERTEX
  8
LAYER_2
 10
70.0415
 20
185.2616
  0
VERTEX
  8
LAYER_2
 10
69.9096
 20
185.3124
  0
VERTEX
  8
LAYER_2
 10
69.7902
 20
185.361
  0
VERTEX
  8
LAYER_2
 10
69.6717
 20
185.4118
  0
VERTEX
  8
LAYER_2
 10
69.4586
 20
185.5079
  0
VERTEX
  8
LAYER_2
 10
69.2483
 20
185.61
  0
SEQEND
  0
ENDBLK
  0
BLOCK
  8
LAYER_2
  2
AIGNBL02030088
 70
64
 10
0
 20
0
 30
0
  3
AIGNBL02030088
  0
POLYLINE
  8
LAYER_2
 40
0.2469
 41
0.2469
 66
1
 10
0
 20
0
 30
0
  0
VERTEX
  8
LAYER_2
 10
77.1495
 20
185.61
  0
VERTEX
  8
LAYER_2
 10
77.0454
 20
185.5091
  0
VERTEX
  8
LAYER_2
 10
76.9378
 20
185.4118
  0
VERTEX
  8
LAYER_2
 10
76.8789
 20
185.3613
  0
VERTEX
  8
LAYER_2
 10
76.8187
 20
185.3124
  0
VERTEX
  8
LAYER_2
 10
76.7535
 20
185.2617
  0
VERTEX
  8
LAYER_2
 10
76.6863
 20
185.2132
  0
VERTEX
  8
LAYER_2
 10
76.6103
 20
185.1622
  0
VERTEX
  8
LAYER_2
 10
76.5323
 20
185.1139
  0
VERTEX
  8
LAYER_2
 10
76.4367
 20
185.0614
  0
VERTEX
  8
LAYER_2
 10
76.338
 20
185.0149
  0
VERTEX
  8
LAYER_2
 10
76.1695
 20
184.9536
  0
VERTEX
  8
LAYER_2
 10
75.9943
 20
184.9158
  0
VERTEX
  8
LAYER_2
 10
75.8326
 20
184.9043
  0
VERTEX
  8
LAYER_2
 10
75.6708
 20
184.9158
  0
VERTEX
  8
LAYER_2
 10
75.4958
 20
184.9536
  0
VERTEX
  8
LAYER_2
 10
75.3272
 20
185.0149
  0
VERTEX
  8
LAYER_2
 10
75.2285
 20
185.0614
  0
VERTEX
  8
LAYER_2
 10
75.1329
 20
185.1139
  0
VERTEX
  8
LAYER_2
 10
75.0549
 20
185.1622
  0
VERTEX
  8
LAYER_2
 10
74.9791
 20
185.2132
  0
VERTEX
  8
LAYER_2
 10
74.9119
 20
185.2617
  0
VERTEX
  8
LAYER_2
 10
74.8464
 20
185.3124
  0
VERTEX
  8
LAYER_2
 10
74.7863
 20
185.3613
  0
VERTEX
  8
LAYER_2
 10
74.7272
 20
185.4118
  0
VERTEX
  8
LAYER_2
 10
74.6201
 20
185.5091
  0
VERTEX
  8
LAYER_2
 10
74.5157
 20
185.61
  0
SEQEND
  0
ENDBLK
  0
BLOCK
  8
LAYER_2
  2
AIGNBL02030089
 70
64
 10
0
 20
0
 30
0
  3
AIGNBL02030089
  0
POLYLINE
  8
LAYER_2
 40
0.2469
 41
0.2469
 66
1
 10
0
 20
0
 30
0
  0
VERTEX
  8
LAYER_2
 10
132.4129
 20
188.8806
 42
0.1132557183
  0
VERTEX
  8
LAYER_2
 10
132.5879
 20
188.116
  0
SEQEND
  0
ENDBLK
  0
BLOCK
  8
LAYER_2
  2
AIGNBL0203008A
 70
64
 10
0
 20
0
 30
0
  3
AIGNBL0203008A
  0
POLYLINE
  8
LAYER_2
 40
0.2469
 41
0.2469
 66
1
 10
0
 20
0
 30
0
  0
VERTEX
  8
LAYER_2
 10
123.4646
 20
188.116
 42
0.1132612522
  0
VERTEX
  8
LAYER_2
 10
123.6403
 20
188.8806
  0
SEQEND
  0
ENDBLK
  0
BLOCK
  8
LAYER_2
  2
AIGNBL0203008B
 70
64
 10
0
 20
0
 30
0
  3
AIGNBL0203008B
  0
POLYLINE
  8
LAYER_2
 40
0.2469
 41
0.2469
 66
1
 10
0
 20
0
 30
0
  0
VERTEX
  8
LAYER_2
 10
75.5666
 20
203.2389
 42
0.4142029373
  0
VERTEX
  8
LAYER_2
 10
77.321
 20
201.4842
  0
SEQEND
  0
ENDBLK
  0
BLOCK
  8
LAYER_2
  2
AIGNBL0203008C
 70
64
 10
0
 20
0
 30
0
  3
AIGNBL0203008C
  0
POLYLINE
  8
LAYER_2
 40
0.2469
 41
0.2469
 66
1
 10
0
 20
0
 30
0
  0
VERTEX
  8
LAYER_2
 10
66.982
 20
187.6401
 42
0.198966293
  0
VERTEX
  8
LAYER_2
 10
67.4958
 20
188.8806
  0
SEQEND
  0
ENDBLK
  0
BLOCK
  8
LAYER_2
  2
AIGNBL0203008D
 70
64
 10
0
 20
0
 30
0
  3
AIGNBL0203008D
  0
POLYLINE
  8
LAYER_2
 40
0.2469
 41
0.2469
 66
1
 10
0
 20
0
 30
0
  0
VERTEX
  8
LAYER_2
 10
76.2684
 20
188.8806
 42
0.1988295113
  0
VERTEX
  8
LAYER_2
 10
76.782
 20
187.6401
  0
SEQEND
  0
ENDBLK
  0
BLOCK
  8
LAYER_2
  2
AIGNBL0203008E
 70
64
 10
0
 20
0
 30
0
  3
AIGNBL0203008E
  0
POLYLINE
  8
LAYER_2
 40
0.2469
 41
0.2469
 66
1
 10
0
 20
0
 30
0
  0
VERTEX
  8
LAYER_2
 10
78.0228
 20
192.7116
 42
0.4142075772
  0
VERTEX
  8
LAYER_2
 10
76.2684
 20
190.9572
  0
SEQEND
  0
ENDBLK
  0
BLOCK
  8
LAYER_2
  2
AIGNBL02030090
 70
64
 10
0
 20
0
 30
0
  3
AIGNBL02030090
  0
INSERT
  8
LAYER_2
  2
AIGNBL02040091
 10
0
 20
0
 30
0
  0
ENDBLK
  0
BLOCK
  8
LAYER_2
  2
AIGNBL02030092
 70
64
 10
0
 20
0
 30
0
  3
AIGNBL02030092
  0
INSERT
  8
LAYER_2
  2
AIGNBL02040093
 10
0
 20
0
 30
0
  0
INSERT
  8
LAYER_2
  2
AIGNBL02040094
 10
0
 20
0
 30
0
  0
INSERT
  8
LAYER_2
  2
AIGNBL02040095
 10
0
 20
0
 30
0
  0
INSERT
  8
LAYER_2
  2
AIGNBL02040096
 10
0
 20
0
 30
0
  0
INSERT
  8
LAYER_2
  2
AIGNBL02040097
 10
0
 20
0
 30
0
  0
INSERT
  8
LAYER_2
  2
AIGNBL02040098
 10
0
 20
0
 30
0
  0
INSERT
  8
LAYER_2
  2
AIGNBL02040099
 10
0
 20
0
 30
0
  0
INSERT
  8
LAYER_2
  2
AIGNBL0204009A
 10
0
 20
0
 30
0
  0
INSERT
  8
LAYER_2
  2
AIGNBL0204009B
 10
0
 20
0
 30
0
  0
INSERT
  8
LAYER_2
  2
AIGNBL0204009C
 10
0
 20
0
 30
0
  0
INSERT
  8
LAYER_2
  2
AIGNBL0204009D
 10
0
 20
0
 30
0
  0
INSERT
  8
LAYER_2
  2
AIGNBL0204009E
 10
0
 20
0
 30
0
  0
INSERT
  8
LAYER_2
  2
AIGNBL0204009F
 10
0
 20
0
 30
0
  0
INSERT
  8
LAYER_2
  2
AIGNBL020400A0
 10
0
 20
0
 30
0
  0
INSERT
  8
LAYER_2
  2
AIGNBL020400A1
 10
0
 20
0
 30
0
  0
INSERT
  8
LAYER_2
  2
AIGNBL020400A2
 10
0
 20
0
 30
0
  0
INSERT
  8
LAYER_2
  2
AIGNBL020400A3
 10
0
 20
0
 30
0
  0
INSERT
  8
LAYER_2
  2
AIGNBL020400A4
 10
0
 20
0
 30
0
  0
INSERT
  8
LAYER_2
  2
AIGNBL020400A5
 10
0
 20
0
 30
0
  0
INSERT
  8
LAYER_2
  2
AIGNBL020400A6
 10
0
 20
0
 30
0
  0
INSERT
  8
LAYER_2
  2
AIGNBL020400A7
 10
0
 20
0
 30
0
  0
INSERT
  8
LAYER_2
  2
AIGNBL020400A8
 10
0
 20
0
 30
0
  0
INSERT
  8
LAYER_2
  2
AIGNBL020400A9
 10
0
 20
0
 30
0
  0
INSERT
  8
LAYER_2
  2
AIGNBL020400AA
 10
0
 20
0
 30
0
  0
INSERT
  8
LAYER_2
  2
AIGNBL020400AB
 10
0
 20
0
 30
0
  0
INSERT
  8
LAYER_2
  2
AIGNBL020400AC
 10
0
 20
0
 30
0
  0
INSERT
  8
LAYER_2
  2
AIGNBL020400AD
 10
0
 20
0
 30
0
  0
INSERT
  8
LAYER_2
  2
AIGNBL020400AE
 10
0
 20
0
 30
0
  0
INSERT
  8
LAYER_2
  2
AIGNBL020400AF
 10
0
 20
0
 30
0
  0
INSERT
  8
LAYER_2
  2
AIGNBL020400B0
 10
0
 20
0
 30
0
  0
INSERT
  8
LAYER_2
  2
AIGNBL020400B1
 10
0
 20
0
 30
0
  0
ENDBLK
  0
BLOCK
  8
LAYER_2
  2
AIGNBL020300B2
 70
64
 10
0
 20
0
 30
0
  3
AIGNBL020300B2
  0
INSERT
  8
LAYER_2
  2
AIGNBL020400B3
 10
0
 20
0
 30
0
  0
INSERT
  8
LAYER_2
  2
AIGNBL020400B4
 10
0
 20
0
 30
0
  0
INSERT
  8
LAYER_2
  2
AIGNBL020400B5
 10
0
 20
0
 30
0
  0
INSERT
  8
LAYER_2
  2
AIGNBL020400B6
 10
0
 20
0
 30
0
  0
INSERT
  8
LAYER_2
  2
AIGNBL020400B7
 10
0
 20
0
 30
0
  0
ENDBLK
  0
BLOCK
  8
LAYER_2
  2
AIGNBL020300B8
 70
64
 10
0
 20
0
 30
0
  3
AIGNBL020300B8
  0
INSERT
  8
LAYER_2
  2
AIGNBL020400B9
 10
0
 20
0
 30
0
  0
INSERT
  8
LAYER_2
  2
AIGNBL020400BA
 10
0
 20
0
 30
0
  0
INSERT
  8
LAYER_2
  2
AIGNBL020400BB
 10
0
 20
0
 30
0
  0
INSERT
  8
LAYER_2
  2
AIGNBL020400BC
 10
0
 20
0
 30
0
  0
INSERT
  8
LAYER_2
  2
AIGNBL020400BD
 10
0
 20
0
 30
0
  0
INSERT
  8
LAYER_2
  2
AIGNBL020400BE
 10
0
 20
0
 30
0
  0
INSERT
  8
LAYER_2
  2
AIGNBL020400BF
 10
0
 20
0
 30
0
  0
INSERT
  8
LAYER_2
  2
AIGNBL020400C0
 10
0
 20
0
 30
0
  0
INSERT
  8
LAYER_2
  2
AIGNBL020400C1
 10
0
 20
0
 30
0
  0
INSERT
  8
LAYER_2
  2
AIGNBL020400C2
 10
0
 20
0
 30
0
  0
INSERT
  8
LAYER_2
  2
AIGNBL020400C3
 10
0
 20
0
 30
0
  0
INSERT
  8
LAYER_2
  2
AIGNBL020400C4
 10
0
 20
0
 30
0
  0
INSERT
  8
LAYER_2
  2
AIGNBL020400C5
 10
0
 20
0
 30
0
  0
INSERT
  8
LAYER_2
  2
AIGNBL020400C6
 10
0
 20
0
 30
0
  0
INSERT
  8
LAYER_2
  2
AIGNBL020400C7
 10
0
 20
0
 30
0
  0
INSERT
  8
LAYER_2
  2
AIGNBL020400C8
 10
0
 20
0
 30
0
  0
INSERT
  8
LAYER_2
  2
AIGNBL020400C9
 10
0
 20
0
 30
0
  0
INSERT
  8
LAYER_2
  2
AIGNBL020400CA
 10
0
 20
0
 30
0
  0
INSERT
  8
LAYER_2
  2
AIGNBL020400CB
 10
0
 20
0
 30
0
  0
INSERT
  8
LAYER_2
  2
AIGNBL020400CC
 10
0
 20
0
 30
0
  0
INSERT
  8
LAYER_2
  2
AIGNBL020400CD
 10
0
 20
0
 30
0
  0
INSERT
  8
LAYER_2
  2
AIGNBL020400CE
 10
0
 20
0
 30
0
  0
INSERT
  8
LAYER_2
  2
AIGNBL020400CF
 10
0
 20
0
 30
0
  0
INSERT
  8
LAYER_2
  2
AIGNBL020400D0
 10
0
 20
0
 30
0
  0
ENDBLK
  0
BLOCK
  8
LAYER_2
  2
AIGNBL020300D1
 70
64
 10
0
 20
0
 30
0
  3
AIGNBL020300D1
  0
INSERT
  8
LAYER_2
  2
AIGNBL020400D2
 10
0
 20
0
 30
0
  0
INSERT
  8
LAYER_2
  2
AIGNBL020400D3
 10
0
 20
0
 30
0
  0
INSERT
  8
LAYER_2
  2
AIGNBL020400D4
 10
0
 20
0
 30
0
  0
INSERT
  8
LAYER_2
  2
AIGNBL020400D5
 10
0
 20
0
 30
0
  0
INSERT
  8
LAYER_2
  2
AIGNBL020400D6
 10
0
 20
0
 30
0
  0
INSERT
  8
LAYER_2
  2
AIGNBL020400D7
 10
0
 20
0
 30
0
  0
INSERT
  8
LAYER_2
  2
AIGNBL020400D8
 10
0
 20
0
 30
0
  0
INSERT
  8
LAYER_2
  2
AIGNBL020400D9
 10
0
 20
0
 30
0
  0
INSERT
  8
LAYER_2
  2
AIGNBL020400DA
 10
0
 20
0
 30
0
  0
INSERT
  8
LAYER_2
  2
AIGNBL020400DB
 10
0
 20
0
 30
0
  0
INSERT
  8
LAYER_2
  2
AIGNBL020400DC
 10
0
 20
0
 30
0
  0
INSERT
  8
LAYER_2
  2
AIGNBL020400DD
 10
0
 20
0
 30
0
  0
INSERT
  8
LAYER_2
  2
AIGNBL020400DE
 10
0
 20
0
 30
0
  0
INSERT
  8
LAYER_2
  2
AIGNBL020400DF
 10
0
 20
0
 30
0
  0
INSERT
  8
LAYER_2
  2
AIGNBL020400E0
 10
0
 20
0
 30
0
  0
INSERT
  8
LAYER_2
  2
AIGNBL020400E1
 10
0
 20
0
 30
0
  0
INSERT
  8
LAYER_2
  2
AIGNBL020400E2
 10
0
 20
0
 30
0
  0
INSERT
  8
LAYER_2
  2
AIGNBL020400E3
 10
0
 20
0
 30
0
  0
INSERT
  8
LAYER_2
  2
AIGNBL020400E4
 10
0
 20
0
 30
0
  0
INSERT
  8
LAYER_2
  2
AIGNBL020400E5
 10
0
 20
0
 30
0
  0
INSERT
  8
LAYER_2
  2
AIGNBL020400E6
 10
0
 20
0
 30
0
  0
INSERT
  8
LAYER_2
  2
AIGNBL020400E7
 10
0
 20
0
 30
0
  0
INSERT
  8
LAYER_2
  2
AIGNBL020400E8
 10
0
 20
0
 30
0
  0
INSERT
  8
LAYER_2
  2
AIGNBL020400E9
 10
0
 20
0
 30
0
  0
INSERT
  8
LAYER_2
  2
AIGNBL020400EA
 10
0
 20
0
 30
0
  0
INSERT
  8
LAYER_2
  2
AIGNBL020400EB
 10
0
 20
0
 30
0
  0
INSERT
  8
LAYER_2
  2
AIGNBL020400EC
 10
0
 20
0
 30
0
  0
INSERT
  8
LAYER_2
  2
AIGNBL020400ED
 10
0
 20
0
 30
0
  0
INSERT
  8
LAYER_2
  2
AIGNBL020400EE
 10
0
 20
0
 30
0
  0
INSERT
  8
LAYER_2
  2
AIGNBL020400EF
 10
0
 20
0
 30
0
  0
INSERT
  8
LAYER_2
  2
AIGNBL020400F0
 10
0
 20
0
 30
0
  0
INSERT
  8
LAYER_2
  2
AIGNBL020400F1
 10
0
 20
0
 30
0
  0
INSERT
  8
LAYER_2
  2
AIGNBL020400F2
 10
0
 20
0
 30
0
  0
INSERT
  8
LAYER_2
  2
AIGNBL020400F3
 10
0
 20
0
 30
0
  0
INSERT
  8
LAYER_2
  2
AIGNBL020400F4
 10
0
 20
0
 30
0
  0
INSERT
  8
LAYER_2
  2
AIGNBL020400F5
 10
0
 20
0
 30
0
  0
INSERT
  8
LAYER_2
  2
AIGNBL020400F6
 10
0
 20
0
 30
0
  0
INSERT
  8
LAYER_2
  2
AIGNBL020400F7
 10
0
 20
0
 30
0
  0
INSERT
  8
LAYER_2
  2
AIGNBL020400F8
 10
0
 20
0
 30
0
  0
INSERT
  8
LAYER_2
  2
AIGNBL020400F9
 10
0
 20
0
 30
0
  0
INSERT
  8
LAYER_2
  2
AIGNBL020400FA
 10
0
 20
0
 30
0
  0
INSERT
  8
LAYER_2
  2
AIGNBL020400FB
 10
0
 20
0
 30
0
  0
INSERT
  8
LAYER_2
  2
AIGNBL020400FC
 10
0
 20
0
 30
0
  0
INSERT
  8
LAYER_2
  2
AIGNBL020400FD
 10
0
 20
0
 30
0
  0
INSERT
  8
LAYER_2
  2
AIGNBL020400FE
 10
0
 20
0
 30
0
  0
ENDBLK
  0
BLOCK
  8
LAYER_7
  2
AIGNBL07030005
 70
64
 10
0
 20
0
 30
0
  3
AIGNBL07030005
  0
INSERT
  8
LAYER_7
  2
AIGNBL07040006
 10
0
 20
0
 30
0
  0
INSERT
  8
LAYER_7
  2
AIGNBL07040007
 10
0
 20
0
 30
0
  0
INSERT
  8
LAYER_7
  2
AIGNBL07040008
 10
0
 20
0
 30
0
  0
INSERT
  8
LAYER_7
  2
AIGNBL07040009
 10
0
 20
0
 30
0
  0
INSERT
  8
LAYER_7
  2
AIGNBL0704000A
 10
0
 20
0
 30
0
  0
INSERT
  8
LAYER_7
  2
AIGNBL0704000B
 10
0
 20
0
 30
0
  0
INSERT
  8
LAYER_7
  2
AIGNBL0704000C
 10
0
 20
0
 30
0
  0
ENDBLK
  0
BLOCK
  8
LAYER_7
  2
AIGNBL0703000E
 70
64
 10
0
 20
0
 30
0
  3
AIGNBL0703000E
  0
POLYLINE
  8
LAYER_7
 40
0.05
 41
0.05
 66
1
 10
0
 20
0
 30
0
 70
1
  0
VERTEX
  8
LAYER_7
 10
128.7222
 20
-4.5162
  0
VERTEX
  8
LAYER_7
 10
129.1914
 20
-4.5162
  0
VERTEX
  8
LAYER_7
 10
129.1914
 20
-4.5958
  0
VERTEX
  8
LAYER_7
 10
128.6333
 20
-4.5958
  0
VERTEX
  8
LAYER_7
 10
128.6333
 20
-3.72
  0
VERTEX
  8
LAYER_7
 10
129.1763
 20
-3.72
  0
VERTEX
  8
LAYER_7
 10
129.1763
 20
-3.7989
  0
VERTEX
  8
LAYER_7
 10
128.7222
 20
-3.7989
  0
VERTEX
  8
LAYER_7
 10
128.7222
 20
-4.0993
  0
VERTEX
  8
LAYER_7
 10
129.1466
 20
-4.0993
  0
VERTEX
  8
LAYER_7
 10
129.1466
 20
-4.1786
  0
VERTEX
  8
LAYER_7
 10
128.7222
 20
-4.1786
  0
SEQEND
  0
ENDBLK
  0
BLOCK
  8
LAYER_7
  2
AIGNBL0703000F
 70
64
 10
0
 20
0
 30
0
  3
AIGNBL0703000F
  0
POLYLINE
  8
LAYER_7
 40
0.05
 41
0.05
 66
1
 10
0
 20
0
 30
0
 70
1
  0
VERTEX
  8
LAYER_7
 10
130.1574
 20
-4.4655
  0
VERTEX
  8
LAYER_7
 10
130.1595
 20
-4.4655
  0
VERTEX
  8
LAYER_7
 10
130.1595
 20
-3.72
  0
VERTEX
  8
LAYER_7
 10
130.2487
 20
-3.72
  0
VERTEX
  8
LAYER_7
 10
130.2487
 20
-4.5958
  0
VERTEX
  8
LAYER_7
 10
130.1378
 20
-4.5958
  0
VERTEX
  8
LAYER_7
 10
129.6283
 20
-3.8423
  0
VERTEX
  8
LAYER_7
 10
129.6252
 20
-3.8423
  0
VERTEX
  8
LAYER_7
 10
129.6252
 20
-4.5958
  0
VERTEX
  8
LAYER_7
 10
129.5366
 20
-4.5958
  0
VERTEX
  8
LAYER_7
 10
129.5366
 20
-3.72
  0
VERTEX
  8
LAYER_7
 10
129.6476
 20
-3.72
  0
SEQEND
  0
ENDBLK
  0
BLOCK
  8
LAYER_7
  2
AIGNBL07030010
 70
64
 10
0
 20
0
 30
0
  3
AIGNBL07030010
  0
POLYLINE
  8
LAYER_7
 40
0.05
 41
0.05
 66
1
 10
0
 20
0
 30
0
 70
1
  0
VERTEX
  8
LAYER_7
 10
130.6497
 20
-4.4159
 42
0.1576719028
  0
VERTEX
  8
LAYER_7
 10
130.6959
 20
-4.5034
 42
0.1888509688
  0
VERTEX
  8
LAYER_7
 10
130.7917
 20
-4.5386
  0
VERTEX
  8
LAYER_7
 10
130.8675
 20
-4.522
  0
VERTEX
  8
LAYER_7
 10
130.915
 20
-4.4769
  0
VERTEX
  8
LAYER_7
 10
130.9395
 20
-4.4118
  0
VERTEX
  8
LAYER_7
 10
130.9467
 20
-4.336
  0
VERTEX
  8
LAYER_7
 10
130.9467
 20
-3.72
  0
VERTEX
  8
LAYER_7
 10
131.0356
 20
-3.72
  0
VERTEX
  8
LAYER_7
 10
131.0356
 20
-4.3432
  0
VERTEX
  8
LAYER_7
 10
131.0259
 20
-4.4345
  0
VERTEX
  8
LAYER_7
 10
130.9908
 20
-4.5238
 42
-0.1134018777
  0
VERTEX
  8
LAYER_7
 10
130.9191
 20
-4.5913
 42
-0.1226010698
  0
VERTEX
  8
LAYER_7
 10
130.8013
 20
-4.6178
 42
-0.1818698991
  0
VERTEX
  8
LAYER_7
 10
130.6449
 20
-4.5668
 42
-0.1775350534
  0
VERTEX
  8
LAYER_7
 10
130.5667
 20
-4.4387
  0
SEQEND
  0
ENDBLK
  0
BLOCK
  8
LAYER_7
  2
AIGNBL07030011
 70
64
 10
0
 20
0
 30
0
  3
AIGNBL07030011
  0
POLYLINE
  8
LAYER_7
 40
0.05
 41
0.05
 66
1
 10
0
 20
0
 30
0
 70
1
  0
VERTEX
  8
LAYER_7
 10
132.2972
 20
-4.1575
 42
-0.1021274882
  0
VERTEX
  8
LAYER_7
 10
132.2624
 20
-4.3419
 42
-0.09952766962
  0
VERTEX
  8
LAYER_7
 10
132.167
 20
-4.4872
 42
-0.09570319659
  0
VERTEX
  8
LAYER_7
 10
132.0219
 20
-4.583
 42
-0.09730113973
  0
VERTEX
  8
LAYER_7
 10
131.8407
 20
-4.6178
 42
-0.1005044879
  0
VERTEX
  8
LAYER_7
 10
131.6595
 20
-4.583
 42
-0.1000956886
  0
VERTEX
  8
LAYER_7
 10
131.5148
 20
-4.4872
 42
-0.09687374103
  0
VERTEX
  8
LAYER_7
 10
131.4187
 20
-4.3419
 42
-0.09598276585
  0
VERTEX
  8
LAYER_7
 10
131.3842
 20
-4.1575
 42
-0.1007319707
  0
VERTEX
  8
LAYER_7
 10
131.4187
 20
-3.9732
 42
-0.09980706139
  0
VERTEX
  8
LAYER_7
 10
131.5148
 20
-3.8278
 42
-0.09759632467
  0
VERTEX
  8
LAYER_7
 10
131.6595
 20
-3.7321
 42
-0.09730113973
  0
VERTEX
  8
LAYER_7
 10
131.8407
 20
-3.6973
 42
-0.1005044879
  0
VERTEX
  8
LAYER_7
 10
132.0219
 20
-3.7321
 42
-0.09857025753
  0
VERTEX
  8
LAYER_7
 10
132.167
 20
-3.8278
 42
-0.09607437688
  0
VERTEX
  8
LAYER_7
 10
132.2624
 20
-3.9732
 42
-0.09699716326
  0
SEQEND
  0
POLYLINE
  8
LAYER_7
 40
0.05
 41
0.05
 66
1
 10
0
 20
0
 30
0
 70
1
  0
VERTEX
  8
LAYER_7
 10
132.2031
 20
-4.1582
 42
0.0856281229
  0
VERTEX
  8
LAYER_7
 10
132.1787
 20
-4.0125
 42
0.09671154951
  0
VERTEX
  8
LAYER_7
 10
132.1067
 20
-3.8909
 42
0.1026314629
  0
VERTEX
  8
LAYER_7
 10
131.9923
 20
-3.8079
 42
0.1067618795
  0
VERTEX
  8
LAYER_7
 10
131.8407
 20
-3.7765
 42
0.1143436986
  0
VERTEX
  8
LAYER_7
 10
131.6891
 20
-3.8079
 42
0.1065055988
  0
VERTEX
  8
LAYER_7
 10
131.5751
 20
-3.8909
 42
0.09706696705
  0
VERTEX
  8
LAYER_7
 10
131.5031
 20
-4.0125
 42
0.08453032616
  0
VERTEX
  8
LAYER_7
 10
131.4783
 20
-4.1582
 42
0.08539697836
  0
VERTEX
  8
LAYER_7
 10
131.5031
 20
-4.304
 42
0.1012181166
  0
VERTEX
  8
LAYER_7
 10
131.5751
 20
-4.4252
 42
0.09889595573
  0
VERTEX
  8
LAYER_7
 10
131.6891
 20
-4.5076
 42
0.105851816
  0
VERTEX
  8
LAYER_7
 10
131.8407
 20
-4.5386
 42
0.1147284683
  0
VERTEX
  8
LAYER_7
 10
131.9923
 20
-4.5076
 42
0.1060927675
  0
VERTEX
  8
LAYER_7
 10
132.1067
 20
-4.4252
 42
0.09368815098
  0
VERTEX
  8
LAYER_7
 10
132.1787
 20
-4.304
 42
0.0834821187
  0
SEQEND
  0
ENDBLK
  0
BLOCK
  8
LAYER_7
  2
AIGNBL07030012
 70
64
 10
0
 20
0
 30
0
  3
AIGNBL07030012
  0
POLYLINE
  8
LAYER_7
 40
0.05
 41
0.05
 66
1
 10
0
 20
0
 30
0
 70
1
  0
VERTEX
  8
LAYER_7
 10
132.9538
 20
-4.5958
  0
VERTEX
  8
LAYER_7
 10
132.8649
 20
-4.5958
  0
VERTEX
  8
LAYER_7
 10
132.8649
 20
-4.2182
  0
VERTEX
  8
LAYER_7
 10
132.5373
 20
-3.72
  0
VERTEX
  8
LAYER_7
 10
132.6486
 20
-3.72
  0
VERTEX
  8
LAYER_7
 10
132.9121
 20
-4.1438
  0
VERTEX
  8
LAYER_7
 10
133.1777
 20
-3.72
  0
VERTEX
  8
LAYER_7
 10
133.2814
 20
-3.72
  0
VERTEX
  8
LAYER_7
 10
132.9538
 20
-4.2182
  0
SEQEND
  0
ENDBLK
  0
BLOCK
  8
LAYER_7
  2
AIGNBL07030013
 70
64
 10
0
 20
0
 30
0
  3
AIGNBL07030013
  0
POLYLINE
  8
LAYER_7
 40
0.05
 41
0.05
 66
1
 10
0
 20
0
 30
0
 70
1
  0
VERTEX
  8
LAYER_7
 10
134.0487
 20
-3.72
  0
VERTEX
  8
LAYER_7
 10
134.3095
 20
-3.72
  0
VERTEX
  8
LAYER_7
 10
134.4097
 20
-3.7303
  0
VERTEX
  8
LAYER_7
 10
134.5003
 20
-3.7662
 42
-0.1147500987
  0
VERTEX
  8
LAYER_7
 10
134.5665
 20
-3.8351
 42
-0.1209575962
  0
VERTEX
  8
LAYER_7
 10
134.5916
 20
-3.9436
 42
-0.179677182
  0
VERTEX
  8
LAYER_7
 10
134.5492
 20
-4.0642
 42
-0.1667916725
  0
VERTEX
  8
LAYER_7
 10
134.4362
 20
-4.1317
  0
VERTEX
  8
LAYER_7
 10
134.4362
 20
-4.1338
 42
-0.1720976719
  0
VERTEX
  8
LAYER_7
 10
134.5775
 20
-4.2003
 42
-0.1997018961
  0
VERTEX
  8
LAYER_7
 10
134.6336
 20
-4.3532
 42
-0.1266512869
  0
VERTEX
  8
LAYER_7
 10
134.6106
 20
-4.4524
 42
-0.1160438033
  0
VERTEX
  8
LAYER_7
 10
134.5458
 20
-4.5293
 42
-0.08593783818
  0
VERTEX
  8
LAYER_7
 10
134.4435
 20
-4.5782
 42
-0.06488316042
  0
VERTEX
  8
LAYER_7
 10
134.3081
 20
-4.5958
  0
VERTEX
  8
LAYER_7
 10
134.0487
 20
-4.5958
  0
SEQEND
  0
POLYLINE
  8
LAYER_7
 40
0.05
 41
0.05
 66
1
 10
0
 20
0
 30
0
 70
1
  0
VERTEX
  8
LAYER_7
 10
134.1375
 20
-4.1031
  0
VERTEX
  8
LAYER_7
 10
134.317
 20
-4.1031
  0
VERTEX
  8
LAYER_7
 10
134.3822
 20
-4.0955
  0
VERTEX
  8
LAYER_7
 10
134.4418
 20
-4.0707
  0
VERTEX
  8
LAYER_7
 10
134.4858
 20
-4.0228
 42
0.1131003852
  0
VERTEX
  8
LAYER_7
 10
134.5024
 20
-3.9498
  0
VERTEX
  8
LAYER_7
 10
134.4858
 20
-3.8788
  0
VERTEX
  8
LAYER_7
 10
134.4407
 20
-3.8309
  0
VERTEX
  8
LAYER_7
 10
134.3739
 20
-3.8044
  0
VERTEX
  8
LAYER_7
 10
134.2922
 20
-3.7965
  0
VERTEX
  8
LAYER_7
 10
134.1375
 20
-3.7965
  0
SEQEND
  0
POLYLINE
  8
LAYER_7
 40
0.05
 41
0.05
 66
1
 10
0
 20
0
 30
0
 70
1
  0
VERTEX
  8
LAYER_7
 10
134.1375
 20
-4.5189
  0
VERTEX
  8
LAYER_7
 10
134.3036
 20
-4.5189
  0
VERTEX
  8
LAYER_7
 10
134.3956
 20
-4.5093
  0
VERTEX
  8
LAYER_7
 10
134.4724
 20
-4.48
  0
VERTEX
  8
LAYER_7
 10
134.5244
 20
-4.4266
 42
0.1281406861
  0
VERTEX
  8
LAYER_7
 10
134.5444
 20
-4.3481
 42
0.2512555223
  0
VERTEX
  8
LAYER_7
 10
134.4858
 20
-4.2189
 42
0.1507360226
  0
VERTEX
  8
LAYER_7
 10
134.3194
 20
-4.1761
  0
VERTEX
  8
LAYER_7
 10
134.1375
 20
-4.1761
  0
SEQEND
  0
ENDBLK
  0
BLOCK
  8
LAYER_7
  2
AIGNBL07030014
 70
64
 10
0
 20
0
 30
0
  3
AIGNBL07030014
  0
POLYLINE
  8
LAYER_7
 40
0.05
 41
0.05
 66
1
 10
0
 20
0
 30
0
 70
1
  0
VERTEX
  8
LAYER_7
 10
134.9999
 20
-4.5958
  0
VERTEX
  8
LAYER_7
 10
134.902
 20
-4.5958
  0
VERTEX
  8
LAYER_7
 10
135.2806
 20
-3.72
  0
VERTEX
  8
LAYER_7
 10
135.3674
 20
-3.72
  0
VERTEX
  8
LAYER_7
 10
135.7433
 20
-4.5958
  0
VERTEX
  8
LAYER_7
 10
135.6441
 20
-4.5958
  0
VERTEX
  8
LAYER_7
 10
135.5476
 20
-4.3656
  0
VERTEX
  8
LAYER_7
 10
135.0949
 20
-4.3656
  0
SEQEND
  0
POLYLINE
  8
LAYER_7
 40
0.05
 41
0.05
 66
1
 10
0
 20
0
 30
0
 70
1
  0
VERTEX
  8
LAYER_7
 10
135.128
 20
-4.2836
  0
VERTEX
  8
LAYER_7
 10
135.5142
 20
-4.2836
  0
VERTEX
  8
LAYER_7
 10
135.3213
 20
-3.8185
  0
SEQEND
  0
ENDBLK
  0
BLOCK
  8
LAYER_7
  2
AIGNBL07030015
 70
64
 10
0
 20
0
 30
0
  3
AIGNBL07030015
  0
POLYLINE
  8
LAYER_7
 40
0.05
 41
0.05
 66
1
 10
0
 20
0
 30
0
 70
1
  0
VERTEX
  8
LAYER_7
 10
136.3235
 20
-4.5958
  0
VERTEX
  8
LAYER_7
 10
136.2342
 20
-4.5958
  0
VERTEX
  8
LAYER_7
 10
136.2342
 20
-3.7989
  0
VERTEX
  8
LAYER_7
 10
135.9407
 20
-3.7989
  0
VERTEX
  8
LAYER_7
 10
135.9407
 20
-3.72
  0
VERTEX
  8
LAYER_7
 10
136.6163
 20
-3.72
  0
VERTEX
  8
LAYER_7
 10
136.6163
 20
-3.7989
  0
VERTEX
  8
LAYER_7
 10
136.3235
 20
-3.7989
  0
SEQEND
  0
ENDBLK
  0
BLOCK
  8
LAYER_7
  2
AIGNBL07030016
 70
64
 10
0
 20
0
 30
0
  3
AIGNBL07030016
  0
POLYLINE
  8
LAYER_7
 40
0.05
 41
0.05
 66
1
 10
0
 20
0
 30
0
 70
1
  0
VERTEX
  8
LAYER_7
 10
136.9181
 20
-3.72
  0
VERTEX
  8
LAYER_7
 10
137.007
 20
-3.72
  0
VERTEX
  8
LAYER_7
 10
137.007
 20
-4.0993
  0
VERTEX
  8
LAYER_7
 10
137.4848
 20
-4.0993
  0
VERTEX
  8
LAYER_7
 10
137.4848
 20
-3.72
  0
VERTEX
  8
LAYER_7
 10
137.5737
 20
-3.72
  0
VERTEX
  8
LAYER_7
 10
137.5737
 20
-4.5958
  0
VERTEX
  8
LAYER_7
 10
137.4848
 20
-4.5958
  0
VERTEX
  8
LAYER_7
 10
137.4848
 20
-4.181
  0
VERTEX
  8
LAYER_7
 10
137.007
 20
-4.181
  0
VERTEX
  8
LAYER_7
 10
137.007
 20
-4.5958
  0
VERTEX
  8
LAYER_7
 10
136.9181
 20
-4.5958
  0
SEQEND
  0
ENDBLK
  0
BLOCK
  8
LAYER_7
  2
AIGNBL07030017
 70
64
 10
0
 20
0
 30
0
  3
AIGNBL07030017
  0
POLYLINE
  8
LAYER_7
 40
0.05
 41
0.05
 66
1
 10
0
 20
0
 30
0
 70
1
  0
VERTEX
  8
LAYER_7
 10
138.0656
 20
-4.5958
  0
VERTEX
  8
LAYER_7
 10
137.9768
 20
-4.5958
  0
VERTEX
  8
LAYER_7
 10
137.9768
 20
-3.72
  0
VERTEX
  8
LAYER_7
 10
138.2341
 20
-3.72
  0
VERTEX
  8
LAYER_7
 10
138.3533
 20
-3.7321
  0
VERTEX
  8
LAYER_7
 10
138.4487
 20
-3.7724
 42
-0.1287326038
  0
VERTEX
  8
LAYER_7
 10
138.5111
 20
-3.8447
 42
-0.1051781119
  0
VERTEX
  8
LAYER_7
 10
138.5331
 20
-3.9536
  0
VERTEX
  8
LAYER_7
 10
138.5163
 20
-4.0414
  0
VERTEX
  8
LAYER_7
 10
138.4694
 20
-4.11
  0
VERTEX
  8
LAYER_7
 10
138.3988
 20
-4.1565
  0
VERTEX
  8
LAYER_7
 10
138.3096
 20
-4.1786
  0
VERTEX
  8
LAYER_7
 10
138.5655
 20
-4.5958
  0
VERTEX
  8
LAYER_7
 10
138.4567
 20
-4.5958
  0
VERTEX
  8
LAYER_7
 10
138.2145
 20
-4.1861
  0
VERTEX
  8
LAYER_7
 10
138.0656
 20
-4.1861
  0
SEQEND
  0
POLYLINE
  8
LAYER_7
 40
0.05
 41
0.05
 66
1
 10
0
 20
0
 30
0
 70
1
  0
VERTEX
  8
LAYER_7
 10
138.0656
 20
-4.1093
  0
VERTEX
  8
LAYER_7
 10
138.2207
 20
-4.1093
 42
0.1560036385
  0
VERTEX
  8
LAYER_7
 10
138.3864
 20
-4.0707
 42
0.256718439
  0
VERTEX
  8
LAYER_7
 10
138.4446
 20
-3.9536
  0
VERTEX
  8
LAYER_7
 10
138.4281
 20
-3.8809
  0
VERTEX
  8
LAYER_7
 10
138.3836
 20
-3.8323
  0
VERTEX
  8
LAYER_7
 10
138.3147
 20
-3.8051
  0
VERTEX
  8
LAYER_7
 10
138.2245
 20
-3.7965
  0
VERTEX
  8
LAYER_7
 10
138.0656
 20
-3.7965
  0
SEQEND
  0
ENDBLK
  0
BLOCK
  8
LAYER_7
  2
AIGNBL07030018
 70
64
 10
0
 20
0
 30
0
  3
AIGNBL07030018
  0
POLYLINE
  8
LAYER_7
 40
0.05
 41
0.05
 66
1
 10
0
 20
0
 30
0
 70
1
  0
VERTEX
  8
LAYER_7
 10
139.7541
 20
-4.1575
 42
-0.09900850835
  0
VERTEX
  8
LAYER_7
 10
139.7196
 20
-4.3419
 42
-0.1000740523
  0
VERTEX
  8
LAYER_7
 10
139.6235
 20
-4.4872
 42
-0.09817592867
  0
VERTEX
  8
LAYER_7
 10
139.4792
 20
-4.583
 42
-0.09703887645
  0
VERTEX
  8
LAYER_7
 10
139.2976
 20
-4.6178
 42
-0.1005044879
  0
VERTEX
  8
LAYER_7
 10
139.1164
 20
-4.583
 42
-0.1014225475
  0
VERTEX
  8
LAYER_7
 10
138.9721
 20
-4.4872
 42
-0.1004968111
  0
VERTEX
  8
LAYER_7
 10
138.8763
 20
-4.3419
 42
-0.09598276585
  0
VERTEX
  8
LAYER_7
 10
138.8418
 20
-4.1575
 42
-0.1007319707
  0
VERTEX
  8
LAYER_7
 10
138.8763
 20
-3.9732
 42
-0.1012197328
  0
VERTEX
  8
LAYER_7
 10
138.9721
 20
-3.8278
 42
-0.09799567145
  0
VERTEX
  8
LAYER_7
 10
139.1164
 20
-3.7321
 42
-0.09730113973
  0
VERTEX
  8
LAYER_7
 10
139.2976
 20
-3.6973
 42
-0.1004491736
  0
VERTEX
  8
LAYER_7
 10
139.4792
 20
-3.7321
 42
-0.1027665873
  0
VERTEX
  8
LAYER_7
 10
139.6235
 20
-3.8278
 42
-0.09593168267
  0
VERTEX
  8
LAYER_7
 10
139.7196
 20
-3.9732
 42
-0.09519358797
  0
SEQEND
  0
POLYLINE
  8
LAYER_7
 40
0.05
 41
0.05
 66
1
 10
0
 20
0
 30
0
 70
1
  0
VERTEX
  8
LAYER_7
 10
139.66
 20
-4.1582
 42
0.09064614394
  0
VERTEX
  8
LAYER_7
 10
139.6352
 20
-4.0125
 42
0.09846723294
  0
VERTEX
  8
LAYER_7
 10
139.5636
 20
-3.8909
 42
0.1021717911
  0
VERTEX
  8
LAYER_7
 10
139.4492
 20
-3.8079
 42
0.1068382496
  0
VERTEX
  8
LAYER_7
 10
139.2976
 20
-3.7765
 42
0.1151780108
  0
VERTEX
  8
LAYER_7
 10
139.1464
 20
-3.8079
 42
0.1058591997
  0
VERTEX
  8
LAYER_7
 10
139.0317
 20
-3.8909
 42
0.09552005071
  0
VERTEX
  8
LAYER_7
 10
138.96
 20
-4.0125
 42
0.08419268652
  0
VERTEX
  8
LAYER_7
 10
138.9355
 20
-4.1582
 42
0.08886818036
  0
VERTEX
  8
LAYER_7
 10
138.96
 20
-4.304
 42
0.09765150327
  0
VERTEX
  8
LAYER_7
 10
139.0317
 20
-4.4252
 42
0.09894762084
  0
VERTEX
  8
LAYER_7
 10
139.1464
 20
-4.5076
 42
0.1060048418
  0
VERTEX
  8
LAYER_7
 10
139.2976
 20
-4.5386
 42
0.1155402185
  0
VERTEX
  8
LAYER_7
 10
139.4492
 20
-4.5076
 42
0.1034816397
  0
VERTEX
  8
LAYER_7
 10
139.5636
 20
-4.4252
 42
0.09853996684
  0
VERTEX
  8
LAYER_7
 10
139.6352
 20
-4.304
 42
0.08559935114
  0
SEQEND
  0
ENDBLK
  0
BLOCK
  8
LAYER_7
  2
AIGNBL07030019
 70
64
 10
0
 20
0
 30
0
  3
AIGNBL07030019
  0
POLYLINE
  8
LAYER_7
 40
0.05
 41
0.05
 66
1
 10
0
 20
0
 30
0
 70
1
  0
VERTEX
  8
LAYER_7
 10
140.9764
 20
-4.1575
 42
-0.1003658645
  0
VERTEX
  8
LAYER_7
 10
140.9416
 20
-4.3419
 42
-0.09796464032
  0
VERTEX
  8
LAYER_7
 10
140.8462
 20
-4.4872
 42
-0.09626167578
  0
VERTEX
  8
LAYER_7
 10
140.7011
 20
-4.583
 42
-0.09730113973
  0
VERTEX
  8
LAYER_7
 10
140.5199
 20
-4.6178
 42
-0.1010483144
  0
VERTEX
  8
LAYER_7
 10
140.3387
 20
-4.583
 42
-0.1015483086
  0
VERTEX
  8
LAYER_7
 10
140.194
 20
-4.4872
 42
-0.09687374103
  0
VERTEX
  8
LAYER_7
 10
140.0979
 20
-4.3419
 42
-0.09586276905
  0
VERTEX
  8
LAYER_7
 10
140.0635
 20
-4.1575
 42
-0.1009359332
  0
VERTEX
  8
LAYER_7
 10
140.0979
 20
-3.9732
 42
-0.09980706139
  0
VERTEX
  8
LAYER_7
 10
140.194
 20
-3.8278
 42
-0.09831412768
  0
VERTEX
  8
LAYER_7
 10
140.3387
 20
-3.7321
 42
-0.09743363976
  0
VERTEX
  8
LAYER_7
 10
140.5199
 20
-3.6973
 42
-0.1005044879
  0
VERTEX
  8
LAYER_7
 10
140.7011
 20
-3.7321
 42
-0.09857025753
  0
VERTEX
  8
LAYER_7
 10
140.8462
 20
-3.8278
 42
-0.09549044941
  0
VERTEX
  8
LAYER_7
 10
140.9416
 20
-3.9732
 42
-0.09626911005
  0
SEQEND
  0
POLYLINE
  8
LAYER_7
 40
0.05
 41
0.05
 66
1
 10
0
 20
0
 30
0
 70
1
  0
VERTEX
  8
LAYER_7
 10
140.8824
 20
-4.1582
 42
0.08716589771
  0
VERTEX
  8
LAYER_7
 10
140.8576
 20
-4.0125
 42
0.0974662867
  0
VERTEX
  8
LAYER_7
 10
140.7859
 20
-3.8909
 42
0.1021717911
  0
VERTEX
  8
LAYER_7
 10
140.6715
 20
-3.8079
 42
0.1064686014
  0
VERTEX
  8
LAYER_7
 10
140.5199
 20
-3.7765
 42
0.1153411493
  0
VERTEX
  8
LAYER_7
 10
140.3683
 20
-3.8079
 42
0.105328119
  0
VERTEX
  8
LAYER_7
 10
140.254
 20
-3.8909
 42
0.09840570806
  0
VERTEX
  8
LAYER_7
 10
140.1823
 20
-4.0125
 42
0.0849084194
  0
VERTEX
  8
LAYER_7
 10
140.1575
 20
-4.1582
 42
0.08802482071
  0
VERTEX
  8
LAYER_7
 10
140.1823
 20
-4.304
 42
0.1001537592
  0
VERTEX
  8
LAYER_7
 10
140.254
 20
-4.4252
 42
0.09914809706
  0
VERTEX
  8
LAYER_7
 10
140.3683
 20
-4.5076
 42
0.1058799299
  0
VERTEX
  8
LAYER_7
 10
140.5199
 20
-4.5386
 42
0.1144668818
  0
VERTEX
  8
LAYER_7
 10
140.6715
 20
-4.5076
 42
0.1034816397
  0
VERTEX
  8
LAYER_7
 10
140.7859
 20
-4.4252
 42
0.0931574303
  0
VERTEX
  8
LAYER_7
 10
140.8576
 20
-4.304
 42
0.08489455374
  0
SEQEND
  0
ENDBLK
  0
BLOCK
  8
LAYER_7
  2
AIGNBL0703001A
 70
64
 10
0
 20
0
 30
0
  3
AIGNBL0703001A
  0
POLYLINE
  8
LAYER_7
 40
0.05
 41
0.05
 66
1
 10
0
 20
0
 30
0
 70
1
  0
VERTEX
  8
LAYER_7
 10
141.7653
 20
-4.4445
  0
VERTEX
  8
LAYER_7
 10
141.7667
 20
-4.4445
  0
VERTEX
  8
LAYER_7
 10
142.0595
 20
-3.72
  0
VERTEX
  8
LAYER_7
 10
142.196
 20
-3.72
  0
VERTEX
  8
LAYER_7
 10
142.196
 20
-4.5958
  0
VERTEX
  8
LAYER_7
 10
142.1067
 20
-4.5958
  0
VERTEX
  8
LAYER_7
 10
142.1067
 20
-3.8351
  0
VERTEX
  8
LAYER_7
 10
142.1043
 20
-3.8351
  0
VERTEX
  8
LAYER_7
 10
141.7877
 20
-4.5958
  0
VERTEX
  8
LAYER_7
 10
141.7409
 20
-4.5958
  0
VERTEX
  8
LAYER_7
 10
141.4239
 20
-3.8351
  0
VERTEX
  8
LAYER_7
 10
141.4215
 20
-3.8351
  0
VERTEX
  8
LAYER_7
 10
141.4215
 20
-4.5958
  0
VERTEX
  8
LAYER_7
 10
141.3326
 20
-4.5958
  0
VERTEX
  8
LAYER_7
 10
141.3326
 20
-3.72
  0
VERTEX
  8
LAYER_7
 10
141.4687
 20
-3.72
  0
SEQEND
  0
ENDBLK
  0
BLOCK
  8
LAYER_7
  2
AIGNBL0703001B
 70
64
 10
0
 20
0
 30
0
  3
AIGNBL0703001B
  0
POLYLINE
  8
LAYER_7
 40
0.05
 41
0.05
 66
1
 10
0
 20
0
 30
0
 70
1
  0
VERTEX
  8
LAYER_7
 10
143.1678
 20
-4.5162
  0
VERTEX
  8
LAYER_7
 10
143.6367
 20
-4.5162
  0
VERTEX
  8
LAYER_7
 10
143.6367
 20
-4.5958
  0
VERTEX
  8
LAYER_7
 10
143.0786
 20
-4.5958
  0
VERTEX
  8
LAYER_7
 10
143.0786
 20
-3.72
  0
VERTEX
  8
LAYER_7
 10
143.6219
 20
-3.72
  0
VERTEX
  8
LAYER_7
 10
143.6219
 20
-3.7989
  0
VERTEX
  8
LAYER_7
 10
143.1678
 20
-3.7989
  0
VERTEX
  8
LAYER_7
 10
143.1678
 20
-4.0993
  0
VERTEX
  8
LAYER_7
 10
143.5919
 20
-4.0993
  0
VERTEX
  8
LAYER_7
 10
143.5919
 20
-4.1786
  0
VERTEX
  8
LAYER_7
 10
143.1678
 20
-4.1786
  0
SEQEND
  0
ENDBLK
  0
BLOCK
  8
LAYER_7
  2
AIGNBL0703001C
 70
64
 10
0
 20
0
 30
0
  3
AIGNBL0703001C
  0
POLYLINE
  8
LAYER_7
 40
0.05
 41
0.05
 66
1
 10
0
 20
0
 30
0
 70
1
  0
VERTEX
  8
LAYER_7
 10
144.2685
 20
-4.0735
  0
VERTEX
  8
LAYER_7
 10
144.5076
 20
-3.72
  0
VERTEX
  8
LAYER_7
 10
144.6134
 20
-3.72
  0
VERTEX
  8
LAYER_7
 10
144.3233
 20
-4.1365
  0
VERTEX
  8
LAYER_7
 10
144.6447
 20
-4.5958
  0
VERTEX
  8
LAYER_7
 10
144.5335
 20
-4.5958
  0
VERTEX
  8
LAYER_7
 10
144.2661
 20
-4.2009
  0
VERTEX
  8
LAYER_7
 10
144.0002
 20
-4.5958
  0
VERTEX
  8
LAYER_7
 10
143.8889
 20
-4.5958
  0
VERTEX
  8
LAYER_7
 10
144.2107
 20
-4.1355
  0
VERTEX
  8
LAYER_7
 10
143.9175
 20
-3.72
  0
VERTEX
  8
LAYER_7
 10
144.0288
 20
-3.72
  0
SEQEND
  0
ENDBLK
  0
BLOCK
  8
LAYER_7
  2
AIGNBL0703001D
 70
64
 10
0
 20
0
 30
0
  3
AIGNBL0703001D
  0
POLYLINE
  8
LAYER_7
 40
0.05
 41
0.05
 66
1
 10
0
 20
0
 30
0
 70
1
  0
VERTEX
  8
LAYER_7
 10
144.9551
 20
-3.72
  0
VERTEX
  8
LAYER_7
 10
145.2029
 20
-3.72
  0
VERTEX
  8
LAYER_7
 10
145.3241
 20
-3.7338
  0
VERTEX
  8
LAYER_7
 10
145.4171
 20
-3.7775
 42
-0.1196760771
  0
VERTEX
  8
LAYER_7
 10
145.4774
 20
-3.8502
 42
-0.1008071579
  0
VERTEX
  8
LAYER_7
 10
145.4981
 20
-3.9536
 42
-0.1234224821
  0
VERTEX
  8
LAYER_7
 10
145.4767
 20
-4.0569
 42
-0.1135718983
  0
VERTEX
  8
LAYER_7
 10
145.4161
 20
-4.13
 42
-0.08414869483
  0
VERTEX
  8
LAYER_7
 10
145.3221
 20
-4.1737
  0
VERTEX
  8
LAYER_7
 10
145.2001
 20
-4.1885
  0
VERTEX
  8
LAYER_7
 10
145.0444
 20
-4.1885
  0
VERTEX
  8
LAYER_7
 10
145.0444
 20
-4.5958
  0
VERTEX
  8
LAYER_7
 10
144.9551
 20
-4.5958
  0
SEQEND
  0
POLYLINE
  8
LAYER_7
 40
0.05
 41
0.05
 66
1
 10
0
 20
0
 30
0
 70
1
  0
VERTEX
  8
LAYER_7
 10
145.0444
 20
-4.1131
  0
VERTEX
  8
LAYER_7
 10
145.1949
 20
-4.1131
 42
0.1719973382
  0
VERTEX
  8
LAYER_7
 10
145.3548
 20
-4.0724
 42
0.2424570955
  0
VERTEX
  8
LAYER_7
 10
145.4092
 20
-3.9536
 42
0.2603006677
  0
VERTEX
  8
LAYER_7
 10
145.3531
 20
-3.834
 42
0.1395217604
  0
VERTEX
  8
LAYER_7
 10
145.1949
 20
-3.7965
  0
VERTEX
  8
LAYER_7
 10
145.0444
 20
-3.7965
  0
SEQEND
  0
ENDBLK
  0
BLOCK
  8
LAYER_7
  2
AIGNBL0703001E
 70
64
 10
0
 20
0
 30
0
  3
AIGNBL0703001E
  0
POLYLINE
  8
LAYER_7
 40
0.05
 41
0.05
 66
1
 10
0
 20
0
 30
0
 70
1
  0
VERTEX
  8
LAYER_7
 10
145.9322
 20
-4.5162
  0
VERTEX
  8
LAYER_7
 10
146.4011
 20
-4.5162
  0
VERTEX
  8
LAYER_7
 10
146.4011
 20
-4.5958
  0
VERTEX
  8
LAYER_7
 10
145.8433
 20
-4.5958
  0
VERTEX
  8
LAYER_7
 10
145.8433
 20
-3.72
  0
VERTEX
  8
LAYER_7
 10
146.3862
 20
-3.72
  0
VERTEX
  8
LAYER_7
 10
146.3862
 20
-3.7989
  0
VERTEX
  8
LAYER_7
 10
145.9322
 20
-3.7989
  0
VERTEX
  8
LAYER_7
 10
145.9322
 20
-4.0993
  0
VERTEX
  8
LAYER_7
 10
146.3566
 20
-4.0993
  0
VERTEX
  8
LAYER_7
 10
146.3566
 20
-4.1786
  0
VERTEX
  8
LAYER_7
 10
145.9322
 20
-4.1786
  0
SEQEND
  0
ENDBLK
  0
BLOCK
  8
LAYER_7
  2
AIGNBL0703001F
 70
64
 10
0
 20
0
 30
0
  3
AIGNBL0703001F
  0
POLYLINE
  8
LAYER_7
 40
0.05
 41
0.05
 66
1
 10
0
 20
0
 30
0
 70
1
  0
VERTEX
  8
LAYER_7
 10
146.8351
 20
-4.5958
  0
VERTEX
  8
LAYER_7
 10
146.7463
 20
-4.5958
  0
VERTEX
  8
LAYER_7
 10
146.7463
 20
-3.72
  0
VERTEX
  8
LAYER_7
 10
147.0036
 20
-3.72
  0
VERTEX
  8
LAYER_7
 10
147.1228
 20
-3.7321
  0
VERTEX
  8
LAYER_7
 10
147.2182
 20
-3.7724
 42
-0.1251490281
  0
VERTEX
  8
LAYER_7
 10
147.2806
 20
-3.8447
 42
-0.1051781119
  0
VERTEX
  8
LAYER_7
 10
147.3026
 20
-3.9536
  0
VERTEX
  8
LAYER_7
 10
147.2858
 20
-4.0414
  0
VERTEX
  8
LAYER_7
 10
147.2386
 20
-4.11
  0
VERTEX
  8
LAYER_7
 10
147.1679
 20
-4.1565
  0
VERTEX
  8
LAYER_7
 10
147.0791
 20
-4.1786
  0
VERTEX
  8
LAYER_7
 10
147.335
 20
-4.5958
  0
VERTEX
  8
LAYER_7
 10
147.2262
 20
-4.5958
  0
VERTEX
  8
LAYER_7
 10
146.9836
 20
-4.1861
  0
VERTEX
  8
LAYER_7
 10
146.8351
 20
-4.1861
  0
SEQEND
  0
POLYLINE
  8
LAYER_7
 40
0.05
 41
0.05
 66
1
 10
0
 20
0
 30
0
 70
1
  0
VERTEX
  8
LAYER_7
 10
146.8351
 20
-4.1093
  0
VERTEX
  8
LAYER_7
 10
146.9898
 20
-4.1093
 42
0.1569755974
  0
VERTEX
  8
LAYER_7
 10
147.1559
 20
-4.0707
 42
0.2567768408
  0
VERTEX
  8
LAYER_7
 10
147.2138
 20
-3.9536
  0
VERTEX
  8
LAYER_7
 10
147.1979
 20
-3.8809
  0
VERTEX
  8
LAYER_7
 10
147.1531
 20
-3.8323
  0
VERTEX
  8
LAYER_7
 10
147.0839
 20
-3.8051
  0
VERTEX
  8
LAYER_7
 10
146.9936
 20
-3.7965
  0
VERTEX
  8
LAYER_7
 10
146.8351
 20
-3.7965
  0
SEQEND
  0
ENDBLK
  0
BLOCK
  8
LAYER_7
  2
AIGNBL07030020
 70
64
 10
0
 20
0
 30
0
  3
AIGNBL07030020
  0
POLYLINE
  8
LAYER_7
 40
0.05
 41
0.05
 66
1
 10
0
 20
0
 30
0
 70
1
  0
VERTEX
  8
LAYER_7
 10
147.7467
 20
-4.5958
  0
VERTEX
  8
LAYER_7
 10
147.6582
 20
-4.5958
  0
VERTEX
  8
LAYER_7
 10
147.6582
 20
-3.72
  0
VERTEX
  8
LAYER_7
 10
147.7467
 20
-3.72
  0
SEQEND
  0
ENDBLK
  0
BLOCK
  8
LAYER_7
  2
AIGNBL07030021
 70
64
 10
0
 20
0
 30
0
  3
AIGNBL07030021
  0
POLYLINE
  8
LAYER_7
 40
0.05
 41
0.05
 66
1
 10
0
 20
0
 30
0
 70
1
  0
VERTEX
  8
LAYER_7
 10
148.239
 20
-4.5162
  0
VERTEX
  8
LAYER_7
 10
148.7079
 20
-4.5162
  0
VERTEX
  8
LAYER_7
 10
148.7079
 20
-4.5958
  0
VERTEX
  8
LAYER_7
 10
148.1501
 20
-4.5958
  0
VERTEX
  8
LAYER_7
 10
148.1501
 20
-3.72
  0
VERTEX
  8
LAYER_7
 10
148.6931
 20
-3.72
  0
VERTEX
  8
LAYER_7
 10
148.6931
 20
-3.7989
  0
VERTEX
  8
LAYER_7
 10
148.239
 20
-3.7989
  0
VERTEX
  8
LAYER_7
 10
148.239
 20
-4.0993
  0
VERTEX
  8
LAYER_7
 10
148.6634
 20
-4.0993
  0
VERTEX
  8
LAYER_7
 10
148.6634
 20
-4.1786
  0
VERTEX
  8
LAYER_7
 10
148.239
 20
-4.1786
  0
SEQEND
  0
ENDBLK
  0
BLOCK
  8
LAYER_7
  2
AIGNBL07030022
 70
64
 10
0
 20
0
 30
0
  3
AIGNBL07030022
  0
POLYLINE
  8
LAYER_7
 40
0.05
 41
0.05
 66
1
 10
0
 20
0
 30
0
 70
1
  0
VERTEX
  8
LAYER_7
 10
149.6739
 20
-4.4655
  0
VERTEX
  8
LAYER_7
 10
149.6763
 20
-4.4655
  0
VERTEX
  8
LAYER_7
 10
149.6763
 20
-3.72
  0
VERTEX
  8
LAYER_7
 10
149.7655
 20
-3.72
  0
VERTEX
  8
LAYER_7
 10
149.7655
 20
-4.5958
  0
VERTEX
  8
LAYER_7
 10
149.6543
 20
-4.5958
  0
VERTEX
  8
LAYER_7
 10
149.1447
 20
-3.8423
  0
VERTEX
  8
LAYER_7
 10
149.142
 20
-3.8423
  0
VERTEX
  8
LAYER_7
 10
149.142
 20
-4.5958
  0
VERTEX
  8
LAYER_7
 10
149.0531
 20
-4.5958
  0
VERTEX
  8
LAYER_7
 10
149.0531
 20
-3.72
  0
VERTEX
  8
LAYER_7
 10
149.1644
 20
-3.72
  0
SEQEND
  0
ENDBLK
  0
BLOCK
  8
LAYER_7
  2
AIGNBL07030023
 70
64
 10
0
 20
0
 30
0
  3
AIGNBL07030023
  0
POLYLINE
  8
LAYER_7
 40
0.05
 41
0.05
 66
1
 10
0
 20
0
 30
0
 70
1
  0
VERTEX
  8
LAYER_7
 10
150.9062
 20
-4.4535
  0
VERTEX
  8
LAYER_7
 10
150.8521
 20
-4.5165
  0
VERTEX
  8
LAYER_7
 10
150.7791
 20
-4.5689
  0
VERTEX
  8
LAYER_7
 10
150.6874
 20
-4.6047
  0
VERTEX
  8
LAYER_7
 10
150.5782
 20
-4.6178
 42
-0.1002604889
  0
VERTEX
  8
LAYER_7
 10
150.395
 20
-4.583
 42
-0.103618762
  0
VERTEX
  8
LAYER_7
 10
150.2506
 20
-4.4872
 42
-0.1002861858
  0
VERTEX
  8
LAYER_7
 10
150.1559
 20
-4.3419
 42
-0.09550230428
  0
VERTEX
  8
LAYER_7
 10
150.1218
 20
-4.1575
 42
-0.1026723447
  0
VERTEX
  8
LAYER_7
 10
150.1566
 20
-3.9732
 42
-0.09988408448
  0
VERTEX
  8
LAYER_7
 10
150.252
 20
-3.8278
 42
-0.09706305567
  0
VERTEX
  8
LAYER_7
 10
150.3967
 20
-3.7321
 42
-0.09710431873
  0
VERTEX
  8
LAYER_7
 10
150.5782
 20
-3.6973
  0
VERTEX
  8
LAYER_7
 10
150.6726
 20
-3.7076
  0
VERTEX
  8
LAYER_7
 10
150.7601
 20
-3.7359
  0
VERTEX
  8
LAYER_7
 10
150.8342
 20
-3.7796
  0
VERTEX
  8
LAYER_7
 10
150.89
 20
-3.8371
  0
VERTEX
  8
LAYER_7
 10
150.8159
 20
-3.8919
  0
VERTEX
  8
LAYER_7
 10
150.7791
 20
-3.8495
  0
VERTEX
  8
LAYER_7
 10
150.7253
 20
-3.8123
  0
VERTEX
  8
LAYER_7
 10
150.6578
 20
-3.7865
  0
VERTEX
  8
LAYER_7
 10
150.5793
 20
-3.7765
 42
0.1136496813
  0
VERTEX
  8
LAYER_7
 10
150.4266
 20
-3.8075
 42
0.1041503417
  0
VERTEX
  8
LAYER_7
 10
150.3123
 20
-3.8905
 42
0.09633029683
  0
VERTEX
  8
LAYER_7
 10
150.2403
 20
-4.0122
 42
0.08390004266
  0
VERTEX
  8
LAYER_7
 10
150.2158
 20
-4.1575
 42
0.09237333632
  0
VERTEX
  8
LAYER_7
 10
150.2413
 20
-4.3029
 42
0.09906074874
  0
VERTEX
  8
LAYER_7
 10
150.3137
 20
-4.4245
 42
0.1041975764
  0
VERTEX
  8
LAYER_7
 10
150.428
 20
-4.5076
 42
0.1062091033
  0
VERTEX
  8
LAYER_7
 10
150.5793
 20
-4.5386
 42
0.1114210768
  0
VERTEX
  8
LAYER_7
 10
150.7226
 20
-4.5076
 42
0.1364138409
  0
VERTEX
  8
LAYER_7
 10
150.8366
 20
-4.4087
  0
SEQEND
  0
ENDBLK
  0
BLOCK
  8
LAYER_7
  2
AIGNBL07030024
 70
64
 10
0
 20
0
 30
0
  3
AIGNBL07030024
  0
POLYLINE
  8
LAYER_7
 40
0.05
 41
0.05
 66
1
 10
0
 20
0
 30
0
 70
1
  0
VERTEX
  8
LAYER_7
 10
151.3189
 20
-4.5162
  0
VERTEX
  8
LAYER_7
 10
151.7878
 20
-4.5162
  0
VERTEX
  8
LAYER_7
 10
151.7878
 20
-4.5958
  0
VERTEX
  8
LAYER_7
 10
151.23
 20
-4.5958
  0
VERTEX
  8
LAYER_7
 10
151.23
 20
-3.72
  0
VERTEX
  8
LAYER_7
 10
151.773
 20
-3.72
  0
VERTEX
  8
LAYER_7
 10
151.773
 20
-3.7989
  0
VERTEX
  8
LAYER_7
 10
151.3189
 20
-3.7989
  0
VERTEX
  8
LAYER_7
 10
151.3189
 20
-4.0993
  0
VERTEX
  8
LAYER_7
 10
151.7434
 20
-4.0993
  0
VERTEX
  8
LAYER_7
 10
151.7434
 20
-4.1786
  0
VERTEX
  8
LAYER_7
 10
151.3189
 20
-4.1786
  0
SEQEND
  0
ENDBLK
  0
BLOCK
  8
LAYER_1
  2
AIGNBL01020003
 70
64
 10
0
 20
0
 30
0
  3
AIGNBL01020003
  0
POLYLINE
  8
LAYER_1
 40
0.2469
 41
0.2469
 66
1
 10
0
 20
0
 30
0
  0
VERTEX
  8
LAYER_1
 10
117.4995
 20
47.9464
  0
VERTEX
  8
LAYER_1
 10
117.4995
 20
47.245
  0
SEQEND
  0
ENDBLK
  0
BLOCK
  8
LAYER_1
  2
AIGNBL01020004
 70
64
 10
0
 20
0
 30
0
  3
AIGNBL01020004
  0
POLYLINE
  8
LAYER_1
 40
0.2469
 41
0.2469
 66
1
 10
0
 20
0
 30
0
  0
VERTEX
  8
LAYER_1
 10
138.5535
 20
47.245
  0
VERTEX
  8
LAYER_1
 10
138.5535
 20
47.9464
  0
SEQEND
  0
ENDBLK
  0
BLOCK
  8
LAYER_1
  2
AIGNBL01020005
 70
64
 10
0
 20
0
 30
0
  3
AIGNBL01020005
  0
POLYLINE
  8
LAYER_1
 40
0.2469
 41
0.2469
 66
1
 10
0
 20
0
 30
0
  0
VERTEX
  8
LAYER_1
 10
138.5535
 20
47.245
  0
VERTEX
  8
LAYER_1
 10
117.4995
 20
47.245
  0
SEQEND
  0
ENDBLK
  0
BLOCK
  8
LAYER_1
  2
AIGNBL01020006
 70
64
 10
0
 20
0
 30
0
  3
AIGNBL01020006
  0
POLYLINE
  8
LAYER_1
 40
0.2469
 41
0.2469
 66
1
 10
0
 20
0
 30
0
  0
VERTEX
  8
LAYER_1
 10
132.3089
 20
52.8591
  0
VERTEX
  8
LAYER_1
 10
123.7437
 20
52.8591
  0
SEQEND
  0
ENDBLK
  0
BLOCK
  8
LAYER_1
  2
AIGNBL01020007
 70
64
 10
0
 20
0
 30
0
  3
AIGNBL01020007
  0
POLYLINE
  8
LAYER_1
 40
0.2469
 41
0.2469
 66
1
 10
0
 20
0
 30
0
  0
VERTEX
  8
LAYER_1
 10
76.1645
 20
52.8591
  0
VERTEX
  8
LAYER_1
 10
67.5997
 20
52.8591
  0
SEQEND
  0
ENDBLK
  0
BLOCK
  8
LAYER_1
  2
AIGNBL01020008
 70
64
 10
0
 20
0
 30
0
  3
AIGNBL01020008
  0
POLYLINE
  8
LAYER_1
 40
0.2469
 41
0.2469
 66
1
 10
0
 20
0
 30
0
  0
VERTEX
  8
LAYER_1
 10
82.4093
 20
47.245
  0
VERTEX
  8
LAYER_1
 10
61.3551
 20
47.245
  0
SEQEND
  0
ENDBLK
  0
BLOCK
  8
LAYER_1
  2
AIGNBL01020009
 70
64
 10
0
 20
0
 30
0
  3
AIGNBL01020009
  0
POLYLINE
  8
LAYER_1
 40
0.2469
 41
0.2469
 66
1
 10
0
 20
0
 30
0
  0
VERTEX
  8
LAYER_1
 10
82.4093
 20
47.245
  0
VERTEX
  8
LAYER_1
 10
82.4093
 20
47.9464
  0
SEQEND
  0
ENDBLK
  0
BLOCK
  8
LAYER_1
  2
AIGNBL0102000A
 70
64
 10
0
 20
0
 30
0
  3
AIGNBL0102000A
  0
POLYLINE
  8
LAYER_1
 40
0.2469
 41
0.2469
 66
1
 10
0
 20
0
 30
0
  0
VERTEX
  8
LAYER_1
 10
61.3551
 20
47.9464
  0
VERTEX
  8
LAYER_1
 10
61.3551
 20
47.245
  0
SEQEND
  0
ENDBLK
  0
BLOCK
  8
LAYER_1
  2
AIGNBL0102000B
 70
64
 10
0
 20
0
 30
0
  3
AIGNBL0102000B
  0
POLYLINE
  8
LAYER_1
 40
0.2469
 41
0.2469
 66
1
 10
0
 20
0
 30
0
  0
VERTEX
  8
LAYER_1
 10
123.7437
 20
52.8591
 42
0.1031793724
  0
VERTEX
  8
LAYER_1
 10
120.238
 20
52.1281
  0
SEQEND
  0
ENDBLK
  0
BLOCK
  8
LAYER_1
  2
AIGNBL0102000C
 70
64
 10
0
 20
0
 30
0
  3
AIGNBL0102000C
  0
POLYLINE
  8
LAYER_1
 40
0.2469
 41
0.2469
 66
1
 10
0
 20
0
 30
0
  0
VERTEX
  8
LAYER_1
 10
120.238
 20
52.1281
 42
0.2983205155
  0
VERTEX
  8
LAYER_1
 10
117.4995
 20
47.9464
  0
SEQEND
  0
ENDBLK
  0
BLOCK
  8
LAYER_1
  2
AIGNBL0102000D
 70
64
 10
0
 20
0
 30
0
  3
AIGNBL0102000D
  0
POLYLINE
  8
LAYER_1
 40
0.2469
 41
0.2469
 66
1
 10
0
 20
0
 30
0
  0
VERTEX
  8
LAYER_1
 10
138.5535
 20
47.9464
 42
0.2982961551
  0
VERTEX
  8
LAYER_1
 10
135.815
 20
52.1281
  0
SEQEND
  0
ENDBLK
  0
BLOCK
  8
LAYER_1
  2
AIGNBL0102000E
 70
64
 10
0
 20
0
 30
0
  3
AIGNBL0102000E
  0
POLYLINE
  8
LAYER_1
 40
0.2469
 41
0.2469
 66
1
 10
0
 20
0
 30
0
  0
VERTEX
  8
LAYER_1
 10
135.815
 20
52.1281
 42
0.1031519739
  0
VERTEX
  8
LAYER_1
 10
132.3089
 20
52.8591
  0
SEQEND
  0
ENDBLK
  0
BLOCK
  8
LAYER_1
  2
AIGNBL0102000F
 70
64
 10
0
 20
0
 30
0
  3
AIGNBL0102000F
  0
POLYLINE
  8
LAYER_1
 40
0.2469
 41
0.2469
 66
1
 10
0
 20
0
 30
0
  0
VERTEX
  8
LAYER_1
 10
79.6704
 20
52.1281
 42
0.1031801322
  0
VERTEX
  8
LAYER_1
 10
76.1645
 20
52.8591
  0
SEQEND
  0
ENDBLK
  0
BLOCK
  8
LAYER_1
  2
AIGNBL01020010
 70
64
 10
0
 20
0
 30
0
  3
AIGNBL01020010
  0
POLYLINE
  8
LAYER_1
 40
0.2469
 41
0.2469
 66
1
 10
0
 20
0
 30
0
  0
VERTEX
  8
LAYER_1
 10
82.4093
 20
47.9464
 42
0.2983299419
  0
VERTEX
  8
LAYER_1
 10
79.6704
 20
52.1281
  0
SEQEND
  0
ENDBLK
  0
BLOCK
  8
LAYER_1
  2
AIGNBL01020011
 70
64
 10
0
 20
0
 30
0
  3
AIGNBL01020011
  0
POLYLINE
  8
LAYER_1
 40
0.2469
 41
0.2469
 66
1
 10
0
 20
0
 30
0
  0
VERTEX
  8
LAYER_1
 10
64.0936
 20
52.1281
 42
0.2983089066
  0
VERTEX
  8
LAYER_1
 10
61.3551
 20
47.9464
  0
SEQEND
  0
ENDBLK
  0
BLOCK
  8
LAYER_1
  2
AIGNBL01020012
 70
64
 10
0
 20
0
 30
0
  3
AIGNBL01020012
  0
POLYLINE
  8
LAYER_1
 40
0.2469
 41
0.2469
 66
1
 10
0
 20
0
 30
0
  0
VERTEX
  8
LAYER_1
 10
67.5997
 20
52.8591
 42
0.1031664956
  0
VERTEX
  8
LAYER_1
 10
64.0936
 20
52.1281
  0
SEQEND
  0
ENDBLK
  0
BLOCK
  8
LAYER_1
  2
AIGNBL0102001D
 70
64
 10
0
 20
0
 30
0
  3
AIGNBL0102001D
  0
POLYLINE
  8
LAYER_1
 40
0.2469
 41
0.2469
 66
1
 10
0
 20
0
 30
0
  0
VERTEX
  8
LAYER_1
 10
91.8836
 20
174.2893
  0
VERTEX
  8
LAYER_1
 10
71.8821
 20
174.2893
  0
SEQEND
  0
ENDBLK
  0
BLOCK
  8
LAYER_1
  2
AIGNBL0102001E
 70
64
 10
0
 20
0
 30
0
  3
AIGNBL0102001E
  0
POLYLINE
  8
LAYER_1
 40
0.2469
 41
0.2469
 66
1
 10
0
 20
0
 30
0
  0
VERTEX
  8
LAYER_1
 10
114.7368
 20
174.2893
  0
VERTEX
  8
LAYER_1
 10
91.8836
 20
174.2893
  0
SEQEND
  0
ENDBLK
  0
BLOCK
  8
LAYER_1
  2
AIGNBL0102001F
 70
64
 10
0
 20
0
 30
0
  3
AIGNBL0102001F
  0
POLYLINE
  8
LAYER_1
 40
0.2469
 41
0.2469
 66
1
 10
0
 20
0
 30
0
  0
VERTEX
  8
LAYER_1
 10
71.8821
 20
186.571
  0
VERTEX
  8
LAYER_1
 10
71.8821
 20
173.2366
  0
SEQEND
  0
ENDBLK
  0
BLOCK
  8
LAYER_1
  2
AIGNBL01020020
 70
64
 10
0
 20
0
 30
0
  3
AIGNBL01020020
  0
POLYLINE
  8
LAYER_1
 40
0.2469
 41
0.2469
 66
1
 10
0
 20
0
 30
0
  0
VERTEX
  8
LAYER_1
 10
91.8836
 20
197.098
  0
VERTEX
  8
LAYER_1
 10
91.8836
 20
173.2366
  0
SEQEND
  0
ENDBLK
  0
BLOCK
  8
LAYER_1
  2
AIGNBL01020021
 70
64
 10
0
 20
0
 30
0
  3
AIGNBL01020021
  0
POLYLINE
  8
LAYER_1
 40
0.05
 41
0.05
 66
1
 10
0
 20
0
 30
0
 70
1
  0
VERTEX
  8
LAYER_1
 10
88.1991
 20
173.8042
  0
VERTEX
  8
LAYER_1
 10
88.1991
 20
174.7743
  0
VERTEX
  8
LAYER_1
 10
91.8836
 20
174.2893
  0
SEQEND
  0
ENDBLK
  0
BLOCK
  8
LAYER_1
  2
AIGNBL01020022
 70
64
 10
0
 20
0
 30
0
  3
AIGNBL01020022
  0
POLYLINE
  8
LAYER_1
 40
0.05
 41
0.05
 66
1
 10
0
 20
0
 30
0
 70
1
  0
VERTEX
  8
LAYER_1
 10
75.5666
 20
174.7743
  0
VERTEX
  8
LAYER_1
 10
75.5666
 20
173.8042
  0
VERTEX
  8
LAYER_1
 10
71.8821
 20
174.2893
  0
SEQEND
  0
ENDBLK
  0
BLOCK
  8
LAYER_1
  2
AIGNBL01020023
 70
64
 10
0
 20
0
 30
0
  3
AIGNBL01020023
  0
TEXT
  8
LAYER_1
 10
94.3694
 20
175.1776
 11
94.3694
 21
175.1776
 40
6.4192
 41
0.5
  1
57リフト5
  0
ENDBLK
  0
BLOCK
  8
LAYER_2
  2
AIGNBL02020003
 70
64
 10
0
 20
0
 30
0
  3
AIGNBL02020003
  0
INSERT
  8
LAYER_2
  2
AIGNBL02030004
 10
0
 20
0
 30
0
  0
INSERT
  8
LAYER_2
  2
AIGNBL02030005
 10
0
 20
0
 30
0
  0
INSERT
  8
LAYER_2
  2
AIGNBL02030006
 10
0
 20
0
 30
0
  0
INSERT
  8
LAYER_2
  2
AIGNBL02030007
 10
0
 20
0
 30
0
  0
INSERT
  8
LAYER_2
  2
AIGNBL02030008
 10
0
 20
0
 30
0
  0
INSERT
  8
LAYER_2
  2
AIGNBL02030009
 10
0
 20
0
 30
0
  0
INSERT
  8
LAYER_2
  2
AIGNBL0203000A
 10
0
 20
0
 30
0
  0
INSERT
  8
LAYER_2
  2
AIGNBL0203000B
 10
0
 20
0
 30
0
  0
INSERT
  8
LAYER_2
  2
AIGNBL0203000C
 10
0
 20
0
 30
0
  0
INSERT
  8
LAYER_2
  2
AIGNBL0203000D
 10
0
 20
0
 30
0
  0
INSERT
  8
LAYER_2
  2
AIGNBL0203000E
 10
0
 20
0
 30
0
  0
INSERT
  8
LAYER_2
  2
AIGNBL0203000F
 10
0
 20
0
 30
0
  0
INSERT
  8
LAYER_2
  2
AIGNBL02030010
 10
0
 20
0
 30
0
  0
INSERT
  8
LAYER_2
  2
AIGNBL02030011
 10
0
 20
0
 30
0
  0
INSERT
  8
LAYER_2
  2
AIGNBL02030012
 10
0
 20
0
 30
0
  0
INSERT
  8
LAYER_2
  2
AIGNBL02030013
 10
0
 20
0
 30
0
  0
INSERT
  8
LAYER_2
  2
AIGNBL02030014
 10
0
 20
0
 30
0
  0
INSERT
  8
LAYER_2
  2
AIGNBL02030015
 10
0
 20
0
 30
0
  0
INSERT
  8
LAYER_2
  2
AIGNBL02030016
 10
0
 20
0
 30
0
  0
INSERT
  8
LAYER_2
  2
AIGNBL02030017
 10
0
 20
0
 30
0
  0
INSERT
  8
LAYER_2
  2
AIGNBL02030018
 10
0
 20
0
 30
0
  0
INSERT
  8
LAYER_2
  2
AIGNBL02030019
 10
0
 20
0
 30
0
  0
INSERT
  8
LAYER_2
  2
AIGNBL0203001A
 10
0
 20
0
 30
0
  0
INSERT
  8
LAYER_2
  2
AIGNBL0203001B
 10
0
 20
0
 30
0
  0
INSERT
  8
LAYER_2
  2
AIGNBL0203001C
 10
0
 20
0
 30
0
  0
INSERT
  8
LAYER_2
  2
AIGNBL0203001D
 10
0
 20
0
 30
0
  0
INSERT
  8
LAYER_2
  2
AIGNBL0203001E
 10
0
 20
0
 30
0
  0
INSERT
  8
LAYER_2
  2
AIGNBL0203001F
 10
0
 20
0
 30
0
  0
INSERT
  8
LAYER_2
  2
AIGNBL02030020
 10
0
 20
0
 30
0
  0
INSERT
  8
LAYER_2
  2
AIGNBL02030021
 10
0
 20
0
 30
0
  0
INSERT
  8
LAYER_2
  2
AIGNBL02030022
 10
0
 20
0
 30
0
  0
INSERT
  8
LAYER_2
  2
AIGNBL02030023
 10
0
 20
0
 30
0
  0
INSERT
  8
LAYER_2
  2
AIGNBL02030024
 10
0
 20
0
 30
0
  0
INSERT
  8
LAYER_2
  2
AIGNBL02030025
 10
0
 20
0
 30
0
  0
INSERT
  8
LAYER_2
  2
AIGNBL02030026
 10
0
 20
0
 30
0
  0
INSERT
  8
LAYER_2
  2
AIGNBL02030027
 10
0
 20
0
 30
0
  0
INSERT
  8
LAYER_2
  2
AIGNBL02030028
 10
0
 20
0
 30
0
  0
INSERT
  8
LAYER_2
  2
AIGNBL02030029
 10
0
 20
0
 30
0
  0
INSERT
  8
LAYER_2
  2
AIGNBL0203002A
 10
0
 20
0
 30
0
  0
INSERT
  8
LAYER_2
  2
AIGNBL0203002B
 10
0
 20
0
 30
0
  0
INSERT
  8
LAYER_2
  2
AIGNBL0203002C
 10
0
 20
0
 30
0
  0
INSERT
  8
LAYER_2
  2
AIGNBL0203002D
 10
0
 20
0
 30
0
  0
INSERT
  8
LAYER_2
  2
AIGNBL0203002E
 10
0
 20
0
 30
0
  0
INSERT
  8
LAYER_2
  2
AIGNBL0203002F
 10
0
 20
0
 30
0
  0
INSERT
  8
LAYER_2
  2
AIGNBL02030030
 10
0
 20
0
 30
0
  0
INSERT
  8
LAYER_2
  2
AIGNBL02030031
 10
0
 20
0
 30
0
  0
INSERT
  8
LAYER_2
  2
AIGNBL02030032
 10
0
 20
0
 30
0
  0
INSERT
  8
LAYER_2
  2
AIGNBL02030033
 10
0
 20
0
 30
0
  0
INSERT
  8
LAYER_2
  2
AIGNBL02030034
 10
0
 20
0
 30
0
  0
INSERT
  8
LAYER_2
  2
AIGNBL02030035
 10
0
 20
0
 30
0
  0
INSERT
  8
LAYER_2
  2
AIGNBL02030036
 10
0
 20
0
 30
0
  0
INSERT
  8
LAYER_2
  2
AIGNBL02030037
 10
0
 20
0
 30
0
  0
INSERT
  8
LAYER_2
  2
AIGNBL02030038
 10
0
 20
0
 30
0
  0
INSERT
  8
LAYER_2
  2
AIGNBL02030039
 10
0
 20
0
 30
0
  0
INSERT
  8
LAYER_2
  2
AIGNBL0203003A
 10
0
 20
0
 30
0
  0
INSERT
  8
LAYER_2
  2
AIGNBL0203003B
 10
0
 20
0
 30
0
  0
INSERT
  8
LAYER_2
  2
AIGNBL0203003C
 10
0
 20
0
 30
0
  0
INSERT
  8
LAYER_2
  2
AIGNBL0203003D
 10
0
 20
0
 30
0
  0
INSERT
  8
LAYER_2
  2
AIGNBL0203003E
 10
0
 20
0
 30
0
  0
INSERT
  8
LAYER_2
  2
AIGNBL0203003F
 10
0
 20
0
 30
0
  0
INSERT
  8
LAYER_2
  2
AIGNBL02030040
 10
0
 20
0
 30
0
  0
INSERT
  8
LAYER_2
  2
AIGNBL02030041
 10
0
 20
0
 30
0
  0
INSERT
  8
LAYER_2
  2
AIGNBL02030042
 10
0
 20
0
 30
0
  0
INSERT
  8
LAYER_2
  2
AIGNBL02030043
 10
0
 20
0
 30
0
  0
INSERT
  8
LAYER_2
  2
AIGNBL02030044
 10
0
 20
0
 30
0
  0
INSERT
  8
LAYER_2
  2
AIGNBL02030045
 10
0
 20
0
 30
0
  0
INSERT
  8
LAYER_2
  2
AIGNBL02030046
 10
0
 20
0
 30
0
  0
INSERT
  8
LAYER_2
  2
AIGNBL02030047
 10
0
 20
0
 30
0
  0
INSERT
  8
LAYER_2
  2
AIGNBL02030048
 10
0
 20
0
 30
0
  0
INSERT
  8
LAYER_2
  2
AIGNBL02030049
 10
0
 20
0
 30
0
  0
INSERT
  8
LAYER_2
  2
AIGNBL0203004A
 10
0
 20
0
 30
0
  0
INSERT
  8
LAYER_2
  2
AIGNBL0203004B
 10
0
 20
0
 30
0
  0
INSERT
  8
LAYER_2
  2
AIGNBL0203004C
 10
0
 20
0
 30
0
  0
INSERT
  8
LAYER_2
  2
AIGNBL0203004D
 10
0
 20
0
 30
0
  0
INSERT
  8
LAYER_2
  2
AIGNBL0203004E
 10
0
 20
0
 30
0
  0
INSERT
  8
LAYER_2
  2
AIGNBL0203004F
 10
0
 20
0
 30
0
  0
INSERT
  8
LAYER_2
  2
AIGNBL02030050
 10
0
 20
0
 30
0
  0
INSERT
  8
LAYER_2
  2
AIGNBL02030051
 10
0
 20
0
 30
0
  0
INSERT
  8
LAYER_2
  2
AIGNBL02030052
 10
0
 20
0
 30
0
  0
INSERT
  8
LAYER_2
  2
AIGNBL02030053
 10
0
 20
0
 30
0
  0
INSERT
  8
LAYER_2
  2
AIGNBL02030054
 10
0
 20
0
 30
0
  0
INSERT
  8
LAYER_2
  2
AIGNBL02030055
 10
0
 20
0
 30
0
  0
INSERT
  8
LAYER_2
  2
AIGNBL02030056
 10
0
 20
0
 30
0
  0
INSERT
  8
LAYER_2
  2
AIGNBL02030057
 10
0
 20
0
 30
0
  0
INSERT
  8
LAYER_2
  2
AIGNBL02030058
 10
0
 20
0
 30
0
  0
INSERT
  8
LAYER_2
  2
AIGNBL02030059
 10
0
 20
0
 30
0
  0
INSERT
  8
LAYER_2
  2
AIGNBL0203005A
 10
0
 20
0
 30
0
  0
INSERT
  8
LAYER_2
  2
AIGNBL0203005B
 10
0
 20
0
 30
0
  0
INSERT
  8
LAYER_2
  2
AIGNBL0203005C
 10
0
 20
0
 30
0
  0
INSERT
  8
LAYER_2
  2
AIGNBL0203005D
 10
0
 20
0
 30
0
  0
INSERT
  8
LAYER_2
  2
AIGNBL0203005E
 10
0
 20
0
 30
0
  0
INSERT
  8
LAYER_2
  2
AIGNBL0203005F
 10
0
 20
0
 30
0
  0
INSERT
  8
LAYER_2
  2
AIGNBL02030060
 10
0
 20
0
 30
0
  0
INSERT
  8
LAYER_2
  2
AIGNBL02030061
 10
0
 20
0
 30
0
  0
INSERT
  8
LAYER_2
  2
AIGNBL02030062
 10
0
 20
0
 30
0
  0
INSERT
  8
LAYER_2
  2
AIGNBL02030063
 10
0
 20
0
 30
0
  0
INSERT
  8
LAYER_2
  2
AIGNBL02030064
 10
0
 20
0
 30
0
  0
INSERT
  8
LAYER_2
  2
AIGNBL02030065
 10
0
 20
0
 30
0
  0
INSERT
  8
LAYER_2
  2
AIGNBL02030066
 10
0
 20
0
 30
0
  0
INSERT
  8
LAYER_2
  2
AIGNBL02030067
 10
0
 20
0
 30
0
  0
INSERT
  8
LAYER_2
  2
AIGNBL02030068
 10
0
 20
0
 30
0
  0
INSERT
  8
LAYER_2
  2
AIGNBL02030069
 10
0
 20
0
 30
0
  0
INSERT
  8
LAYER_2
  2
AIGNBL0203006A
 10
0
 20
0
 30
0
  0
INSERT
  8
LAYER_2
  2
AIGNBL0203006B
 10
0
 20
0
 30
0
  0
INSERT
  8
LAYER_2
  2
AIGNBL0203006C
 10
0
 20
0
 30
0
  0
INSERT
  8
LAYER_2
  2
AIGNBL0203006D
 10
0
 20
0
 30
0
  0
INSERT
  8
LAYER_2
  2
AIGNBL0203006E
 10
0
 20
0
 30
0
  0
INSERT
  8
LAYER_2
  2
AIGNBL0203006F
 10
0
 20
0
 30
0
  0
INSERT
  8
LAYER_2
  2
AIGNBL02030070
 10
0
 20
0
 30
0
  0
INSERT
  8
LAYER_2
  2
AIGNBL02030071
 10
0
 20
0
 30
0
  0
INSERT
  8
LAYER_2
  2
AIGNBL02030072
 10
0
 20
0
 30
0
  0
INSERT
  8
LAYER_2
  2
AIGNBL02030073
 10
0
 20
0
 30
0
  0
INSERT
  8
LAYER_2
  2
AIGNBL02030074
 10
0
 20
0
 30
0
  0
INSERT
  8
LAYER_2
  2
AIGNBL02030075
 10
0
 20
0
 30
0
  0
INSERT
  8
LAYER_2
  2
AIGNBL02030076
 10
0
 20
0
 30
0
  0
INSERT
  8
LAYER_2
  2
AIGNBL02030077
 10
0
 20
0
 30
0
  0
INSERT
  8
LAYER_2
  2
AIGNBL02030078
 10
0
 20
0
 30
0
  0
INSERT
  8
LAYER_2
  2
AIGNBL02030079
 10
0
 20
0
 30
0
  0
INSERT
  8
LAYER_2
  2
AIGNBL0203007A
 10
0
 20
0
 30
0
  0
INSERT
  8
LAYER_2
  2
AIGNBL0203007B
 10
0
 20
0
 30
0
  0
INSERT
  8
LAYER_2
  2
AIGNBL0203007C
 10
0
 20
0
 30
0
  0
INSERT
  8
LAYER_2
  2
AIGNBL0203007D
 10
0
 20
0
 30
0
  0
INSERT
  8
LAYER_2
  2
AIGNBL0203007E
 10
0
 20
0
 30
0
  0
INSERT
  8
LAYER_2
  2
AIGNBL0203007F
 10
0
 20
0
 30
0
  0
INSERT
  8
LAYER_2
  2
AIGNBL02030080
 10
0
 20
0
 30
0
  0
INSERT
  8
LAYER_2
  2
AIGNBL02030081
 10
0
 20
0
 30
0
  0
INSERT
  8
LAYER_2
  2
AIGNBL02030082
 10
0
 20
0
 30
0
  0
INSERT
  8
LAYER_2
  2
AIGNBL02030083
 10
0
 20
0
 30
0
  0
INSERT
  8
LAYER_2
  2
AIGNBL02030084
 10
0
 20
0
 30
0
  0
INSERT
  8
LAYER_2
  2
AIGNBL02030085
 10
0
 20
0
 30
0
  0
INSERT
  8
LAYER_2
  2
AIGNBL02030086
 10
0
 20
0
 30
0
  0
INSERT
  8
LAYER_2
  2
AIGNBL02030087
 10
0
 20
0
 30
0
  0
INSERT
  8
LAYER_2
  2
AIGNBL02030088
 10
0
 20
0
 30
0
  0
INSERT
  8
LAYER_2
  2
AIGNBL02030089
 10
0
 20
0
 30
0
  0
INSERT
  8
LAYER_2
  2
AIGNBL0203008A
 10
0
 20
0
 30
0
  0
INSERT
  8
LAYER_2
  2
AIGNBL0203008B
 10
0
 20
0
 30
0
  0
INSERT
  8
LAYER_2
  2
AIGNBL0203008C
 10
0
 20
0
 30
0
  0
INSERT
  8
LAYER_2
  2
AIGNBL0203008D
 10
0
 20
0
 30
0
  0
INSERT
  8
LAYER_2
  2
AIGNBL0203008E
 10
0
 20
0
 30
0
  0
ENDBLK
  0
BLOCK
  8
LAYER_2
  2
AIGNBL0202008F
 70
64
 10
0
 20
0
 30
0
  3
AIGNBL0202008F
  0
INSERT
  8
LAYER_2
  2
AIGNBL02030090
 10
0
 20
0
 30
0
  0
INSERT
  8
LAYER_2
  2
AIGNBL02030092
 10
0
 20
0
 30
0
  0
INSERT
  8
LAYER_2
  2
AIGNBL020300B2
 10
0
 20
0
 30
0
  0
INSERT
  8
LAYER_2
  2
AIGNBL020300B8
 10
0
 20
0
 30
0
  0
INSERT
  8
LAYER_2
  2
AIGNBL020300D1
 10
0
 20
0
 30
0
  0
ENDBLK
  0
BLOCK
  8
LAYER_2
  2
AIGNBL02020100
 70
64
 10
0
 20
0
 30
0
  3
AIGNBL02020100
  0
POLYLINE
  8
LAYER_2
 40
0.2469
 41
0.2469
 66
1
 10
0
 20
0
 30
0
  0
VERTEX
  8
LAYER_2
 10
80.8552
 20
252.5381
 42
0.414212492
  0
VERTEX
  8
LAYER_2
 10
67.4667
 20
257.0956
 42
0.41422174
  0
VERTEX
  8
LAYER_2
 10
62.9088
 20
243.7071
 42
0.4142139036
  0
VERTEX
  8
LAYER_2
 10
76.2975
 20
239.1492
 42
0.1655302836
  0
VERTEX
  8
LAYER_2
 10
80.8552
 20
243.7071
  0
SEQEND
  0
ENDBLK
  0
BLOCK
  8
LAYER_2
  2
AIGNBL02020102
 70
64
 10
0
 20
0
 30
0
  3
AIGNBL02020102
  0
POLYLINE
  8
LAYER_2
 40
0.2469
 41
0.2469
 66
1
 10
0
 20
0
 30
0
  0
VERTEX
  8
LAYER_2
 10
75.4393
 20
184.8163
  0
VERTEX
  8
LAYER_2
 10
75.477
 20
183.062
  0
SEQEND
  0
ENDBLK
  0
BLOCK
  8
LAYER_2
  2
AIGNBL02020103
 70
64
 10
0
 20
0
 30
0
  3
AIGNBL02020103
  0
POLYLINE
  8
LAYER_2
 40
0.2469
 41
0.2469
 66
1
 10
0
 20
0
 30
0
  0
VERTEX
  8
LAYER_2
 10
75.0264
 20
184.8163
  0
VERTEX
  8
LAYER_2
 10
75.0691
 20
183.062
  0
SEQEND
  0
ENDBLK
  0
BLOCK
  8
LAYER_2
  2
AIGNBL02020104
 70
64
 10
0
 20
0
 30
0
  3
AIGNBL02020104
  0
POLYLINE
  8
LAYER_2
 40
0.2469
 41
0.2469
 66
1
 10
0
 20
0
 30
0
  0
VERTEX
  8
LAYER_2
 10
131.5837
 20
184.8163
  0
VERTEX
  8
LAYER_2
 10
131.6213
 20
183.062
  0
SEQEND
  0
ENDBLK
  0
BLOCK
  8
LAYER_2
  2
AIGNBL02020105
 70
64
 10
0
 20
0
 30
0
  3
AIGNBL02020105
  0
POLYLINE
  8
LAYER_2
 40
0.2469
 41
0.2469
 66
1
 10
0
 20
0
 30
0
  0
VERTEX
  8
LAYER_2
 10
131.171
 20
184.8163
  0
VERTEX
  8
LAYER_2
 10
131.2137
 20
183.062
  0
SEQEND
  0
ENDBLK
  0
BLOCK
  8
LAYER_2
  2
AIGNBL02020106
 70
64
 10
0
 20
0
 30
0
  3
AIGNBL02020106
  0
POLYLINE
  8
LAYER_2
 40
0.2469
 41
0.2469
 66
1
 10
0
 20
0
 30
0
  0
VERTEX
  8
LAYER_2
 10
75.3804
 20
41.0028
  0
VERTEX
  8
LAYER_2
 10
68.3836
 20
41.0028
  0
SEQEND
  0
ENDBLK
  0
BLOCK
  8
LAYER_2
  2
AIGNBL02020107
 70
64
 10
0
 20
0
 30
0
  3
AIGNBL02020107
  0
POLYLINE
  8
LAYER_2
 40
0.2469
 41
0.2469
 66
1
 10
0
 20
0
 30
0
  0
VERTEX
  8
LAYER_2
 10
131.5244
 20
41.0028
  0
VERTEX
  8
LAYER_2
 10
124.5281
 20
41.0028
  0
SEQEND
  0
ENDBLK
  0
BLOCK
  8
LAYER_2
  2
AIGNBL02020108
 70
64
 10
0
 20
0
 30
0
  3
AIGNBL02020108
  0
POLYLINE
  8
LAYER_2
 40
0.2469
 41
0.2469
 66
1
 10
0
 20
0
 30
0
  0
VERTEX
  8
LAYER_2
 10
124.412
 20
52.8591
  0
VERTEX
  8
LAYER_2
 10
124.412
 20
163.4114
  0
SEQEND
  0
ENDBLK
  0
BLOCK
  8
LAYER_2
  2
AIGNBL02020109
 70
64
 10
0
 20
0
 30
0
  3
AIGNBL02020109
  0
POLYLINE
  8
LAYER_2
 40
0.2469
 41
0.2469
 66
1
 10
0
 20
0
 30
0
  0
VERTEX
  8
LAYER_2
 10
131.6405
 20
47.2436
  0
VERTEX
  8
LAYER_2
 10
131.6405
 20
46.2483
  0
SEQEND
  0
ENDBLK
  0
BLOCK
  8
LAYER_2
  2
AIGNBL0202010A
 70
64
 10
0
 20
0
 30
0
  3
AIGNBL0202010A
  0
POLYLINE
  8
LAYER_2
 40
0.2469
 41
0.2469
 66
1
 10
0
 20
0
 30
0
  0
VERTEX
  8
LAYER_2
 10
75.4965
 20
47.2436
  0
VERTEX
  8
LAYER_2
 10
75.4965
 20
46.2483
  0
SEQEND
  0
ENDBLK
  0
BLOCK
  8
LAYER_2
  2
AIGNBL0202010B
 70
64
 10
0
 20
0
 30
0
  3
AIGNBL0202010B
  0
POLYLINE
  8
LAYER_2
 40
0.2469
 41
0.2469
 66
1
 10
0
 20
0
 30
0
  0
VERTEX
  8
LAYER_2
 10
68.2677
 20
52.8591
  0
VERTEX
  8
LAYER_2
 10
68.2677
 20
163.4114
  0
SEQEND
  0
ENDBLK
  0
BLOCK
  8
LAYER_2
  2
AIGNBL0202010C
 70
64
 10
0
 20
0
 30
0
  3
AIGNBL0202010C
  0
POLYLINE
  8
LAYER_2
  6
AIGENLINE002
 40
0.2469
 41
0.2469
 62
2
 66
1
 10
0
 20
0
 30
0
 70
128
  0
VERTEX
  8
LAYER_2
 10
128.0263
 20
189.0272
  0
VERTEX
  8
LAYER_2
 10
128.0263
 20
39.5442
  0
SEQEND
  0
ENDBLK
  0
BLOCK
  8
LAYER_2
  2
AIGNBL0202010D
 70
64
 10
0
 20
0
 30
0
  3
AIGNBL0202010D
  0
POLYLINE
  8
LAYER_2
 40
0.2469
 41
0.2469
 66
1
 10
0
 20
0
 30
0
  0
VERTEX
  8
LAYER_2
 10
131.6405
 20
164.8673
  0
VERTEX
  8
LAYER_2
 10
131.6405
 20
52.8591
  0
SEQEND
  0
ENDBLK
  0
BLOCK
  8
LAYER_2
  2
AIGNBL0202010E
 70
64
 10
0
 20
0
 30
0
  3
AIGNBL0202010E
  0
POLYLINE
  8
LAYER_2
 40
0.2469
 41
0.2469
 66
1
 10
0
 20
0
 30
0
  0
VERTEX
  8
LAYER_2
 10
131.6405
 20
182.322
  0
VERTEX
  8
LAYER_2
 10
131.6405
 20
164.8673
  0
SEQEND
  0
ENDBLK
  0
BLOCK
  8
LAYER_2
  2
AIGNBL0202010F
 70
64
 10
0
 20
0
 30
0
  3
AIGNBL0202010F
  0
POLYLINE
  8
LAYER_2
 40
0.2469
 41
0.2469
 66
1
 10
0
 20
0
 30
0
  0
VERTEX
  8
LAYER_2
 10
131.6213
 20
183.062
  0
VERTEX
  8
LAYER_2
 10
131.6405
 20
182.322
  0
SEQEND
  0
ENDBLK
  0
BLOCK
  8
LAYER_2
  2
AIGNBL02020110
 70
64
 10
0
 20
0
 30
0
  3
AIGNBL02020110
  0
POLYLINE
  8
LAYER_2
 40
0.2469
 41
0.2469
 66
1
 10
0
 20
0
 30
0
  0
VERTEX
  8
LAYER_2
 10
131.6405
 20
182.322
  0
VERTEX
  8
LAYER_2
 10
131.2137
 20
183.062
  0
SEQEND
  0
ENDBLK
  0
BLOCK
  8
LAYER_2
  2
AIGNBL02020111
 70
64
 10
0
 20
0
 30
0
  3
AIGNBL02020111
  0
POLYLINE
  8
LAYER_2
 40
0.2469
 41
0.2469
 66
1
 10
0
 20
0
 30
0
  0
VERTEX
  8
LAYER_2
 10
131.2137
 20
45.5083
  0
VERTEX
  8
LAYER_2
 10
131.6405
 20
46.2483
  0
SEQEND
  0
ENDBLK
  0
BLOCK
  8
LAYER_2
  2
AIGNBL02020112
 70
64
 10
0
 20
0
 30
0
  3
AIGNBL02020112
  0
POLYLINE
  8
LAYER_2
 40
0.2469
 41
0.2469
 66
1
 10
0
 20
0
 30
0
  0
VERTEX
  8
LAYER_2
 10
131.2137
 20
45.5083
  0
VERTEX
  8
LAYER_2
 10
131.0942
 20
40.5956
  0
SEQEND
  0
ENDBLK
  0
BLOCK
  8
LAYER_2
  2
AIGNBL02020113
 70
64
 10
0
 20
0
 30
0
  3
AIGNBL02020113
  0
POLYLINE
  8
LAYER_2
 40
0.2469
 41
0.2469
 66
1
 10
0
 20
0
 30
0
  0
VERTEX
  8
LAYER_2
 10
131.6405
 20
46.2483
  0
VERTEX
  8
LAYER_2
 10
131.6213
 20
45.5083
  0
SEQEND
  0
ENDBLK
  0
BLOCK
  8
LAYER_2
  2
AIGNBL02020114
 70
64
 10
0
 20
0
 30
0
  3
AIGNBL02020114
  0
POLYLINE
  8
LAYER_2
 40
0.2469
 41
0.2469
 66
1
 10
0
 20
0
 30
0
  0
VERTEX
  8
LAYER_2
 10
131.5244
 20
41.0028
  0
VERTEX
  8
LAYER_2
 10
131.0952
 20
40.5956
  0
SEQEND
  0
ENDBLK
  0
BLOCK
  8
LAYER_2
  2
AIGNBL02020115
 70
64
 10
0
 20
0
 30
0
  3
AIGNBL02020115
  0
POLYLINE
  8
LAYER_2
 40
0.2469
 41
0.2469
 66
1
 10
0
 20
0
 30
0
  0
VERTEX
  8
LAYER_2
 10
131.6213
 20
45.5083
  0
VERTEX
  8
LAYER_2
 10
131.5244
 20
41.0028
  0
SEQEND
  0
ENDBLK
  0
BLOCK
  8
LAYER_2
  2
AIGNBL02020116
 70
64
 10
0
 20
0
 30
0
  3
AIGNBL02020116
  0
POLYLINE
  8
LAYER_2
 40
0.2469
 41
0.2469
 66
1
 10
0
 20
0
 30
0
  0
VERTEX
  8
LAYER_2
 10
131.0091
 20
40.5956
  0
VERTEX
  8
LAYER_2
 10
131.0942
 20
40.5956
  0
SEQEND
  0
ENDBLK
  0
BLOCK
  8
LAYER_2
  2
AIGNBL02020117
 70
64
 10
0
 20
0
 30
0
  3
AIGNBL02020117
  0
POLYLINE
  8
LAYER_2
 40
0.2469
 41
0.2469
 66
1
 10
0
 20
0
 30
0
  0
VERTEX
  8
LAYER_2
 10
131.0942
 20
40.5956
  0
VERTEX
  8
LAYER_2
 10
131.0952
 20
40.5956
  0
SEQEND
  0
ENDBLK
  0
BLOCK
  8
LAYER_2
  2
AIGNBL02020118
 70
64
 10
0
 20
0
 30
0
  3
AIGNBL02020118
  0
POLYLINE
  8
LAYER_2
 40
0.2469
 41
0.2469
 66
1
 10
0
 20
0
 30
0
  0
VERTEX
  8
LAYER_2
 10
125.0439
 20
40.5956
  0
VERTEX
  8
LAYER_2
 10
131.0091
 20
40.5956
  0
SEQEND
  0
ENDBLK
  0
BLOCK
  8
LAYER_2
  2
AIGNBL02020119
 70
64
 10
0
 20
0
 30
0
  3
AIGNBL02020119
  0
POLYLINE
  8
LAYER_2
 40
0.2469
 41
0.2469
 66
1
 10
0
 20
0
 30
0
  0
VERTEX
  8
LAYER_2
 10
124.412
 20
46.2483
  0
VERTEX
  8
LAYER_2
 10
124.412
 20
47.2436
  0
SEQEND
  0
ENDBLK
  0
BLOCK
  8
LAYER_2
  2
AIGNBL0202011A
 70
64
 10
0
 20
0
 30
0
  3
AIGNBL0202011A
  0
POLYLINE
  8
LAYER_2
 40
0.2469
 41
0.2469
 66
1
 10
0
 20
0
 30
0
  0
VERTEX
  8
LAYER_2
 10
124.9577
 20
40.5956
  0
VERTEX
  8
LAYER_2
 10
124.9584
 20
40.5956
  0
SEQEND
  0
ENDBLK
  0
BLOCK
  8
LAYER_2
  2
AIGNBL0202011B
 70
64
 10
0
 20
0
 30
0
  3
AIGNBL0202011B
  0
POLYLINE
  8
LAYER_2
 40
0.2469
 41
0.2469
 66
1
 10
0
 20
0
 30
0
  0
VERTEX
  8
LAYER_2
 10
124.9584
 20
40.5956
  0
VERTEX
  8
LAYER_2
 10
125.0439
 20
40.5956
  0
SEQEND
  0
ENDBLK
  0
BLOCK
  8
LAYER_2
  2
AIGNBL0202011C
 70
64
 10
0
 20
0
 30
0
  3
AIGNBL0202011C
  0
POLYLINE
  8
LAYER_2
 40
0.2469
 41
0.2469
 66
1
 10
0
 20
0
 30
0
  0
VERTEX
  8
LAYER_2
 10
124.5281
 20
41.0028
  0
VERTEX
  8
LAYER_2
 10
124.4313
 20
45.5083
  0
SEQEND
  0
ENDBLK
  0
BLOCK
  8
LAYER_2
  2
AIGNBL0202011D
 70
64
 10
0
 20
0
 30
0
  3
AIGNBL0202011D
  0
POLYLINE
  8
LAYER_2
 40
0.2469
 41
0.2469
 66
1
 10
0
 20
0
 30
0
  0
VERTEX
  8
LAYER_2
 10
124.4313
 20
45.5083
  0
VERTEX
  8
LAYER_2
 10
131.6213
 20
45.5083
  0
SEQEND
  0
ENDBLK
  0
BLOCK
  8
LAYER_2
  2
AIGNBL0202011E
 70
64
 10
0
 20
0
 30
0
  3
AIGNBL0202011E
  0
POLYLINE
  8
LAYER_2
 40
0.2469
 41
0.2469
 66
1
 10
0
 20
0
 30
0
  0
VERTEX
  8
LAYER_2
 10
124.9577
 20
40.5956
  0
VERTEX
  8
LAYER_2
 10
124.5281
 20
41.0028
  0
SEQEND
  0
ENDBLK
  0
BLOCK
  8
LAYER_2
  2
AIGNBL0202011F
 70
64
 10
0
 20
0
 30
0
  3
AIGNBL0202011F
  0
POLYLINE
  8
LAYER_2
 40
0.2469
 41
0.2469
 66
1
 10
0
 20
0
 30
0
  0
VERTEX
  8
LAYER_2
 10
124.4313
 20
45.5083
  0
VERTEX
  8
LAYER_2
 10
124.412
 20
46.2483
  0
SEQEND
  0
ENDBLK
  0
BLOCK
  8
LAYER_2
  2
AIGNBL02020120
 70
64
 10
0
 20
0
 30
0
  3
AIGNBL02020120
  0
POLYLINE
  8
LAYER_2
 40
0.2469
 41
0.2469
 66
1
 10
0
 20
0
 30
0
  0
VERTEX
  8
LAYER_2
 10
124.9584
 20
40.5956
  0
VERTEX
  8
LAYER_2
 10
124.8396
 20
45.5083
  0
SEQEND
  0
ENDBLK
  0
BLOCK
  8
LAYER_2
  2
AIGNBL02020121
 70
64
 10
0
 20
0
 30
0
  3
AIGNBL02020121
  0
POLYLINE
  8
LAYER_2
 40
0.2469
 41
0.2469
 66
1
 10
0
 20
0
 30
0
  0
VERTEX
  8
LAYER_2
 10
124.412
 20
46.2483
  0
VERTEX
  8
LAYER_2
 10
124.8396
 20
45.5083
  0
SEQEND
  0
ENDBLK
  0
BLOCK
  8
LAYER_2
  2
AIGNBL02020122
 70
64
 10
0
 20
0
 30
0
  3
AIGNBL02020122
  0
POLYLINE
  8
LAYER_2
 40
0.2469
 41
0.2469
 66
1
 10
0
 20
0
 30
0
  0
VERTEX
  8
LAYER_2
 10
124.8396
 20
183.062
  0
VERTEX
  8
LAYER_2
 10
124.412
 20
182.322
  0
SEQEND
  0
ENDBLK
  0
BLOCK
  8
LAYER_2
  2
AIGNBL02020123
 70
64
 10
0
 20
0
 30
0
  3
AIGNBL02020123
  0
POLYLINE
  8
LAYER_2
 40
0.2469
 41
0.2469
 66
1
 10
0
 20
0
 30
0
  0
VERTEX
  8
LAYER_2
 10
124.8396
 20
183.062
  0
VERTEX
  8
LAYER_2
 10
124.8816
 20
184.8163
  0
SEQEND
  0
ENDBLK
  0
BLOCK
  8
LAYER_2
  2
AIGNBL02020124
 70
64
 10
0
 20
0
 30
0
  3
AIGNBL02020124
  0
POLYLINE
  8
LAYER_2
 40
0.2469
 41
0.2469
 66
1
 10
0
 20
0
 30
0
  0
VERTEX
  8
LAYER_2
 10
124.412
 20
182.322
  0
VERTEX
  8
LAYER_2
 10
124.4313
 20
183.062
  0
SEQEND
  0
ENDBLK
  0
BLOCK
  8
LAYER_2
  2
AIGNBL02020125
 70
64
 10
0
 20
0
 30
0
  3
AIGNBL02020125
  0
POLYLINE
  8
LAYER_2
 40
0.2469
 41
0.2469
 66
1
 10
0
 20
0
 30
0
  0
VERTEX
  8
LAYER_2
 10
131.6213
 20
183.062
  0
VERTEX
  8
LAYER_2
 10
124.4313
 20
183.062
  0
SEQEND
  0
ENDBLK
  0
BLOCK
  8
LAYER_2
  2
AIGNBL02020126
 70
64
 10
0
 20
0
 30
0
  3
AIGNBL02020126
  0
POLYLINE
  8
LAYER_2
 40
0.2469
 41
0.2469
 66
1
 10
0
 20
0
 30
0
  0
VERTEX
  8
LAYER_2
 10
124.4313
 20
183.062
  0
VERTEX
  8
LAYER_2
 10
124.4692
 20
184.8163
  0
SEQEND
  0
ENDBLK
  0
BLOCK
  8
LAYER_2
  2
AIGNBL02020127
 70
64
 10
0
 20
0
 30
0
  3
AIGNBL02020127
  0
POLYLINE
  8
LAYER_2
 40
0.2469
 41
0.2469
 66
1
 10
0
 20
0
 30
0
  0
VERTEX
  8
LAYER_2
 10
124.412
 20
163.4114
  0
VERTEX
  8
LAYER_2
 10
124.412
 20
182.322
  0
SEQEND
  0
ENDBLK
  0
BLOCK
  8
LAYER_2
  2
AIGNBL02020128
 70
64
 10
0
 20
0
 30
0
  3
AIGNBL02020128
  0
POLYLINE
  8
LAYER_2
 40
0.2469
 41
0.2469
 66
1
 10
0
 20
0
 30
0
  0
VERTEX
  8
LAYER_2
 10
68.2677
 20
163.4114
  0
VERTEX
  8
LAYER_2
 10
68.2677
 20
182.322
  0
SEQEND
  0
ENDBLK
  0
BLOCK
  8
LAYER_2
  2
AIGNBL02020129
 70
64
 10
0
 20
0
 30
0
  3
AIGNBL02020129
  0
POLYLINE
  8
LAYER_2
 40
0.2469
 41
0.2469
 66
1
 10
0
 20
0
 30
0
  0
VERTEX
  8
LAYER_2
 10
68.2871
 20
183.062
  0
VERTEX
  8
LAYER_2
 10
68.3247
 20
184.8163
  0
SEQEND
  0
ENDBLK
  0
BLOCK
  8
LAYER_2
  2
AIGNBL0202012A
 70
64
 10
0
 20
0
 30
0
  3
AIGNBL0202012A
  0
POLYLINE
  8
LAYER_2
 40
0.2469
 41
0.2469
 66
1
 10
0
 20
0
 30
0
  0
VERTEX
  8
LAYER_2
 10
75.477
 20
183.062
  0
VERTEX
  8
LAYER_2
 10
68.2871
 20
183.062
  0
SEQEND
  0
ENDBLK
  0
BLOCK
  8
LAYER_2
  2
AIGNBL0202012B
 70
64
 10
0
 20
0
 30
0
  3
AIGNBL0202012B
  0
POLYLINE
  8
LAYER_2
 40
0.2469
 41
0.2469
 66
1
 10
0
 20
0
 30
0
  0
VERTEX
  8
LAYER_2
 10
68.2677
 20
182.322
  0
VERTEX
  8
LAYER_2
 10
68.2871
 20
183.062
  0
SEQEND
  0
ENDBLK
  0
BLOCK
  8
LAYER_2
  2
AIGNBL0202012C
 70
64
 10
0
 20
0
 30
0
  3
AIGNBL0202012C
  0
POLYLINE
  8
LAYER_2
 40
0.2469
 41
0.2469
 66
1
 10
0
 20
0
 30
0
  0
VERTEX
  8
LAYER_2
 10
68.6949
 20
183.062
  0
VERTEX
  8
LAYER_2
 10
68.7376
 20
184.8163
  0
SEQEND
  0
ENDBLK
  0
BLOCK
  8
LAYER_2
  2
AIGNBL0202012D
 70
64
 10
0
 20
0
 30
0
  3
AIGNBL0202012D
  0
POLYLINE
  8
LAYER_2
 40
0.2469
 41
0.2469
 66
1
 10
0
 20
0
 30
0
  0
VERTEX
  8
LAYER_2
 10
68.6949
 20
183.062
  0
VERTEX
  8
LAYER_2
 10
68.2677
 20
182.322
  0
SEQEND
  0
ENDBLK
  0
BLOCK
  8
LAYER_2
  2
AIGNBL0202012E
 70
64
 10
0
 20
0
 30
0
  3
AIGNBL0202012E
  0
POLYLINE
  8
LAYER_2
 40
0.2469
 41
0.2469
 66
1
 10
0
 20
0
 30
0
  0
VERTEX
  8
LAYER_2
 10
68.2677
 20
46.2483
  0
VERTEX
  8
LAYER_2
 10
68.6949
 20
45.5083
  0
SEQEND
  0
ENDBLK
  0
BLOCK
  8
LAYER_2
  2
AIGNBL0202012F
 70
64
 10
0
 20
0
 30
0
  3
AIGNBL0202012F
  0
POLYLINE
  8
LAYER_2
 40
0.2469
 41
0.2469
 66
1
 10
0
 20
0
 30
0
  0
VERTEX
  8
LAYER_2
 10
68.8141
 20
40.5956
  0
VERTEX
  8
LAYER_2
 10
68.6949
 20
45.5083
  0
SEQEND
  0
ENDBLK
  0
BLOCK
  8
LAYER_2
  2
AIGNBL02020130
 70
64
 10
0
 20
0
 30
0
  3
AIGNBL02020130
  0
POLYLINE
  8
LAYER_2
 40
0.2469
 41
0.2469
 66
1
 10
0
 20
0
 30
0
  0
VERTEX
  8
LAYER_2
 10
68.2871
 20
45.5083
  0
VERTEX
  8
LAYER_2
 10
68.2677
 20
46.2483
  0
SEQEND
  0
ENDBLK
  0
BLOCK
  8
LAYER_2
  2
AIGNBL02020131
 70
64
 10
0
 20
0
 30
0
  3
AIGNBL02020131
  0
POLYLINE
  8
LAYER_2
 40
0.2469
 41
0.2469
 66
1
 10
0
 20
0
 30
0
  0
VERTEX
  8
LAYER_2
 10
68.8134
 20
40.5956
  0
VERTEX
  8
LAYER_2
 10
68.3836
 20
41.0028
  0
SEQEND
  0
ENDBLK
  0
BLOCK
  8
LAYER_2
  2
AIGNBL02020132
 70
64
 10
0
 20
0
 30
0
  3
AIGNBL02020132
  0
POLYLINE
  8
LAYER_2
 40
0.2469
 41
0.2469
 66
1
 10
0
 20
0
 30
0
  0
VERTEX
  8
LAYER_2
 10
68.2871
 20
45.5083
  0
VERTEX
  8
LAYER_2
 10
75.477
 20
45.5083
  0
SEQEND
  0
ENDBLK
  0
BLOCK
  8
LAYER_2
  2
AIGNBL02020133
 70
64
 10
0
 20
0
 30
0
  3
AIGNBL02020133
  0
POLYLINE
  8
LAYER_2
 40
0.2469
 41
0.2469
 66
1
 10
0
 20
0
 30
0
  0
VERTEX
  8
LAYER_2
 10
68.3836
 20
41.0028
  0
VERTEX
  8
LAYER_2
 10
68.2871
 20
45.5083
  0
SEQEND
  0
ENDBLK
  0
BLOCK
  8
LAYER_2
  2
AIGNBL02020134
 70
64
 10
0
 20
0
 30
0
  3
AIGNBL02020134
  0
POLYLINE
  8
LAYER_2
 40
0.2469
 41
0.2469
 66
1
 10
0
 20
0
 30
0
  0
VERTEX
  8
LAYER_2
 10
68.8141
 20
40.5956
  0
VERTEX
  8
LAYER_2
 10
68.8993
 20
40.5956
  0
SEQEND
  0
ENDBLK
  0
BLOCK
  8
LAYER_2
  2
AIGNBL02020135
 70
64
 10
0
 20
0
 30
0
  3
AIGNBL02020135
  0
POLYLINE
  8
LAYER_2
 40
0.2469
 41
0.2469
 66
1
 10
0
 20
0
 30
0
  0
VERTEX
  8
LAYER_2
 10
68.8134
 20
40.5956
  0
VERTEX
  8
LAYER_2
 10
68.8141
 20
40.5956
  0
SEQEND
  0
ENDBLK
  0
BLOCK
  8
LAYER_2
  2
AIGNBL02020136
 70
64
 10
0
 20
0
 30
0
  3
AIGNBL02020136
  0
POLYLINE
  8
LAYER_2
 40
0.2469
 41
0.2469
 66
1
 10
0
 20
0
 30
0
  0
VERTEX
  8
LAYER_2
 10
68.2677
 20
46.2483
  0
VERTEX
  8
LAYER_2
 10
68.2677
 20
47.2436
  0
SEQEND
  0
ENDBLK
  0
BLOCK
  8
LAYER_2
  2
AIGNBL02020137
 70
64
 10
0
 20
0
 30
0
  3
AIGNBL02020137
  0
POLYLINE
  8
LAYER_2
 40
0.2469
 41
0.2469
 66
1
 10
0
 20
0
 30
0
  0
VERTEX
  8
LAYER_2
 10
68.8993
 20
40.5956
  0
VERTEX
  8
LAYER_2
 10
74.8649
 20
40.5956
  0
SEQEND
  0
ENDBLK
  0
BLOCK
  8
LAYER_2
  2
AIGNBL02020138
 70
64
 10
0
 20
0
 30
0
  3
AIGNBL02020138
  0
POLYLINE
  8
LAYER_2
 40
0.2469
 41
0.2469
 66
1
 10
0
 20
0
 30
0
  0
VERTEX
  8
LAYER_2
 10
74.9501
 20
40.5956
  0
VERTEX
  8
LAYER_2
 10
74.9506
 20
40.5956
  0
SEQEND
  0
ENDBLK
  0
BLOCK
  8
LAYER_2
  2
AIGNBL02020139
 70
64
 10
0
 20
0
 30
0
  3
AIGNBL02020139
  0
POLYLINE
  8
LAYER_2
 40
0.2469
 41
0.2469
 66
1
 10
0
 20
0
 30
0
  0
VERTEX
  8
LAYER_2
 10
74.8649
 20
40.5956
  0
VERTEX
  8
LAYER_2
 10
74.9501
 20
40.5956
  0
SEQEND
  0
ENDBLK
  0
BLOCK
  8
LAYER_2
  2
AIGNBL0202013A
 70
64
 10
0
 20
0
 30
0
  3
AIGNBL0202013A
  0
POLYLINE
  8
LAYER_2
 40
0.2469
 41
0.2469
 66
1
 10
0
 20
0
 30
0
  0
VERTEX
  8
LAYER_2
 10
75.477
 20
45.5083
  0
VERTEX
  8
LAYER_2
 10
75.3804
 20
41.0028
  0
SEQEND
  0
ENDBLK
  0
BLOCK
  8
LAYER_2
  2
AIGNBL0202013B
 70
64
 10
0
 20
0
 30
0
  3
AIGNBL0202013B
  0
POLYLINE
  8
LAYER_2
 40
0.2469
 41
0.2469
 66
1
 10
0
 20
0
 30
0
  0
VERTEX
  8
LAYER_2
 10
75.3804
 20
41.0028
  0
VERTEX
  8
LAYER_2
 10
74.9506
 20
40.5956
  0
SEQEND
  0
ENDBLK
  0
BLOCK
  8
LAYER_2
  2
AIGNBL0202013C
 70
64
 10
0
 20
0
 30
0
  3
AIGNBL0202013C
  0
POLYLINE
  8
LAYER_2
 40
0.2469
 41
0.2469
 66
1
 10
0
 20
0
 30
0
  0
VERTEX
  8
LAYER_2
 10
75.4965
 20
46.2483
  0
VERTEX
  8
LAYER_2
 10
75.477
 20
45.5083
  0
SEQEND
  0
ENDBLK
  0
BLOCK
  8
LAYER_2
  2
AIGNBL0202013D
 70
64
 10
0
 20
0
 30
0
  3
AIGNBL0202013D
  0
POLYLINE
  8
LAYER_2
 40
0.2469
 41
0.2469
 66
1
 10
0
 20
0
 30
0
  0
VERTEX
  8
LAYER_2
 10
75.0691
 20
45.5083
  0
VERTEX
  8
LAYER_2
 10
74.9501
 20
40.5956
  0
SEQEND
  0
ENDBLK
  0
BLOCK
  8
LAYER_2
  2
AIGNBL0202013E
 70
64
 10
0
 20
0
 30
0
  3
AIGNBL0202013E
  0
POLYLINE
  8
LAYER_2
 40
0.2469
 41
0.2469
 66
1
 10
0
 20
0
 30
0
  0
VERTEX
  8
LAYER_2
 10
75.0691
 20
45.5083
  0
VERTEX
  8
LAYER_2
 10
75.4965
 20
46.2483
  0
SEQEND
  0
ENDBLK
  0
BLOCK
  8
LAYER_2
  2
AIGNBL0202013F
 70
64
 10
0
 20
0
 30
0
  3
AIGNBL0202013F
  0
POLYLINE
  8
LAYER_2
 40
0.2469
 41
0.2469
 66
1
 10
0
 20
0
 30
0
  0
VERTEX
  8
LAYER_2
 10
75.4965
 20
182.322
  0
VERTEX
  8
LAYER_2
 10
75.0691
 20
183.062
  0
SEQEND
  0
ENDBLK
  0
BLOCK
  8
LAYER_2
  2
AIGNBL02020140
 70
64
 10
0
 20
0
 30
0
  3
AIGNBL02020140
  0
POLYLINE
  8
LAYER_2
 40
0.2469
 41
0.2469
 66
1
 10
0
 20
0
 30
0
  0
VERTEX
  8
LAYER_2
 10
75.477
 20
183.062
  0
VERTEX
  8
LAYER_2
 10
75.4965
 20
182.322
  0
SEQEND
  0
ENDBLK
  0
BLOCK
  8
LAYER_2
  2
AIGNBL02020141
 70
64
 10
0
 20
0
 30
0
  3
AIGNBL02020141
  0
POLYLINE
  8
LAYER_2
 40
0.2469
 41
0.2469
 66
1
 10
0
 20
0
 30
0
  0
VERTEX
  8
LAYER_2
 10
75.4965
 20
182.322
  0
VERTEX
  8
LAYER_2
 10
75.4965
 20
163.4114
  0
SEQEND
  0
ENDBLK
  0
BLOCK
  8
LAYER_2
  2
AIGNBL02020142
 70
64
 10
0
 20
0
 30
0
  3
AIGNBL02020142
  0
POLYLINE
  8
LAYER_2
 40
0.2469
 41
0.2469
 66
1
 10
0
 20
0
 30
0
  0
VERTEX
  8
LAYER_2
 10
75.4965
 20
163.4114
  0
VERTEX
  8
LAYER_2
 10
75.4965
 20
52.8591
  0
SEQEND
  0
ENDBLK
  0
BLOCK
  8
LAYER_2
  2
AIGNBL02020143
 70
64
 10
0
 20
0
 30
0
  3
AIGNBL02020143
  0
POLYLINE
  8
LAYER_2
  6
AIGENLINE002
 40
0.2469
 41
0.2469
 62
2
 66
1
 10
0
 20
0
 30
0
 70
128
  0
VERTEX
  8
LAYER_2
 10
71.8821
 20
189.0272
  0
VERTEX
  8
LAYER_2
 10
71.8821
 20
39.5442
  0
SEQEND
  0
ENDBLK
  0
BLOCK
  8
LAYER_2
  2
AIGNBL02020158
 70
64
 10
0
 20
0
 30
0
  3
AIGNBL02020158
  0
POLYLINE
  8
LAYER_2
 40
0.2469
 41
0.2469
 66
1
 10
0
 20
0
 30
0
  0
VERTEX
  8
LAYER_2
 10
138.7164
 20
174.2893
  0
VERTEX
  8
LAYER_2
 10
147.314
 20
174.2893
  0
SEQEND
  0
ENDBLK
  0
BLOCK
  8
LAYER_2
  2
AIGNBL02020159
 70
64
 10
0
 20
0
 30
0
  3
AIGNBL02020159
  0
POLYLINE
  8
LAYER_2
 40
0.2469
 41
0.2469
 66
1
 10
0
 20
0
 30
0
  0
VERTEX
  8
LAYER_2
 10
129.5931
 20
174.2893
  0
VERTEX
  8
LAYER_2
 10
138.7164
 20
174.2893
  0
SEQEND
  0
ENDBLK
  0
BLOCK
  8
LAYER_2
  2
AIGNBL0202015A
 70
64
 10
0
 20
0
 30
0
  3
AIGNBL0202015A
  0
POLYLINE
  8
LAYER_2
 40
0.2469
 41
0.2469
 66
1
 10
0
 20
0
 30
0
  0
VERTEX
  8
LAYER_2
 10
122.2244
 20
174.2893
  0
VERTEX
  8
LAYER_2
 10
129.5931
 20
174.2893
  0
SEQEND
  0
ENDBLK
  0
BLOCK
  8
LAYER_2
  2
AIGNBL0202015B
 70
64
 10
0
 20
0
 30
0
  3
AIGNBL0202015B
  0
POLYLINE
  8
LAYER_2
 40
0.2469
 41
0.2469
 66
1
 10
0
 20
0
 30
0
  0
VERTEX
  8
LAYER_2
 10
123.4646
 20
184.9043
  0
VERTEX
  8
LAYER_2
 10
130.1195
 20
173.3779
  0
SEQEND
  0
ENDBLK
  0
BLOCK
  8
LAYER_2
  2
AIGNBL0202015C
 70
64
 10
0
 20
0
 30
0
  3
AIGNBL0202015C
  0
POLYLINE
  8
LAYER_2
 40
0.2469
 41
0.2469
 66
1
 10
0
 20
0
 30
0
  0
VERTEX
  8
LAYER_2
 10
132.5879
 20
184.9043
  0
VERTEX
  8
LAYER_2
 10
139.2432
 20
173.3779
  0
SEQEND
  0
ENDBLK
  0
BLOCK
  8
LAYER_2
  2
AIGNBL0202015D
 70
64
 10
0
 20
0
 30
0
  3
AIGNBL0202015D
  0
POLYLINE
  8
LAYER_2
 40
0.05
 41
0.05
 66
1
 10
0
 20
0
 30
0
 70
1
  0
VERTEX
  8
LAYER_2
 10
125.9086
 20
173.8042
  0
VERTEX
  8
LAYER_2
 10
125.9086
 20
174.7743
  0
VERTEX
  8
LAYER_2
 10
129.5931
 20
174.2893
  0
SEQEND
  0
ENDBLK
  0
BLOCK
  8
LAYER_2
  2
AIGNBL0202015E
 70
64
 10
0
 20
0
 30
0
  3
AIGNBL0202015E
  0
POLYLINE
  8
LAYER_2
 40
0.05
 41
0.05
 66
1
 10
0
 20
0
 30
0
 70
1
  0
VERTEX
  8
LAYER_2
 10
142.401
 20
174.7743
  0
VERTEX
  8
LAYER_2
 10
142.401
 20
173.8042
  0
VERTEX
  8
LAYER_2
 10
138.7164
 20
174.2893
  0
SEQEND
  0
ENDBLK
  0
BLOCK
  8
LAYER_2
  2
AIGNBL0202015F
 70
64
 10
0
 20
0
 30
0
  3
AIGNBL0202015F
  0
TEXT
  8
LAYER_2
 10
141.3109
 20
175.1776
 11
141.3109
 21
175.1776
 40
6.4192
 41
0.5
  1
26
  0
ENDBLK
  0
BLOCK
  8
LAYER_2
  2
AIGNBL02020161
 70
64
 10
0
 20
0
 30
0
  3
AIGNBL02020161
  0
POLYLINE
  8
LAYER_2
 40
0.2469
 41
0.2469
 66
1
 10
0
 20
0
 30
0
  0
VERTEX
  8
LAYER_2
 10
106.9723
 20
52.8591
  0
VERTEX
  8
LAYER_2
 10
106.9723
 20
60.2282
  0
SEQEND
  0
ENDBLK
  0
BLOCK
  8
LAYER_2
  2
AIGNBL02020162
 70
64
 10
0
 20
0
 30
0
  3
AIGNBL02020162
  0
POLYLINE
  8
LAYER_2
 40
0.2469
 41
0.2469
 66
1
 10
0
 20
0
 30
0
  0
VERTEX
  8
LAYER_2
 10
106.9723
 20
47.245
  0
VERTEX
  8
LAYER_2
 10
106.9723
 20
52.8591
  0
SEQEND
  0
ENDBLK
  0
BLOCK
  8
LAYER_2
  2
AIGNBL02020163
 70
64
 10
0
 20
0
 30
0
  3
AIGNBL02020163
  0
POLYLINE
  8
LAYER_2
 40
0.2469
 41
0.2469
 66
1
 10
0
 20
0
 30
0
  0
VERTEX
  8
LAYER_2
 10
106.9723
 20
39.8759
  0
VERTEX
  8
LAYER_2
 10
106.9723
 20
47.245
  0
SEQEND
  0
ENDBLK
  0
BLOCK
  8
LAYER_2
  2
AIGNBL02020164
 70
64
 10
0
 20
0
 30
0
  3
AIGNBL02020164
  0
POLYLINE
  8
LAYER_2
 40
0.2469
 41
0.2469
 66
1
 10
0
 20
0
 30
0
  0
VERTEX
  8
LAYER_2
 10
117.4995
 20
47.245
  0
VERTEX
  8
LAYER_2
 10
105.9196
 20
47.245
  0
SEQEND
  0
ENDBLK
  0
BLOCK
  8
LAYER_2
  2
AIGNBL02020165
 70
64
 10
0
 20
0
 30
0
  3
AIGNBL02020165
  0
POLYLINE
  8
LAYER_2
 40
0.2469
 41
0.2469
 66
1
 10
0
 20
0
 30
0
  0
VERTEX
  8
LAYER_2
 10
123.7437
 20
52.8591
  0
VERTEX
  8
LAYER_2
 10
105.9196
 20
52.8591
  0
SEQEND
  0
ENDBLK
  0
BLOCK
  8
LAYER_2
  2
AIGNBL02020166
 70
64
 10
0
 20
0
 30
0
  3
AIGNBL02020166
  0
POLYLINE
  8
LAYER_2
 40
0.05
 41
0.05
 66
1
 10
0
 20
0
 30
0
 70
1
  0
VERTEX
  8
LAYER_2
 10
107.4574
 20
43.5605
  0
VERTEX
  8
LAYER_2
 10
106.4872
 20
43.5605
  0
VERTEX
  8
LAYER_2
 10
106.9723
 20
47.245
  0
SEQEND
  0
ENDBLK
  0
BLOCK
  8
LAYER_2
  2
AIGNBL02020167
 70
64
 10
0
 20
0
 30
0
  3
AIGNBL02020167
  0
POLYLINE
  8
LAYER_2
 40
0.05
 41
0.05
 66
1
 10
0
 20
0
 30
0
 70
1
  0
VERTEX
  8
LAYER_2
 10
106.4872
 20
56.5437
  0
VERTEX
  8
LAYER_2
 10
107.4574
 20
56.5437
  0
VERTEX
  8
LAYER_2
 10
106.9723
 20
52.8591
  0
SEQEND
  0
ENDBLK
  0
BLOCK
  8
LAYER_2
  2
AIGNBL02020168
 70
64
 10
0
 20
0
 30
0
  3
AIGNBL02020168
  0
TEXT
  8
LAYER_2
 10
106.0535
 20
46.8943
 11
106.0535
 21
46.8943
 40
6.4192
 41
0.5
 50
89.99999999
  1
16
  0
ENDBLK
  0
BLOCK
  8
LAYER_2
  2
AIGNBL0202016A
 70
64
 10
0
 20
0
 30
0
  3
AIGNBL0202016A
  0
POLYLINE
  8
LAYER_2
 40
0.2469
 41
0.2469
 66
1
 10
0
 20
0
 30
0
  0
VERTEX
  8
LAYER_2
 10
149.0803
 20
207.6251
  0
VERTEX
  8
LAYER_2
 10
149.0803
 20
197.098
  0
SEQEND
  0
ENDBLK
  0
BLOCK
  8
LAYER_2
  2
AIGNBL0202016B
 70
64
 10
0
 20
0
 30
0
  3
AIGNBL0202016B
  0
POLYLINE
  8
LAYER_2
 40
0.2469
 41
0.2469
 66
1
 10
0
 20
0
 30
0
  0
VERTEX
  8
LAYER_2
 10
136.3204
 20
197.098
  0
VERTEX
  8
LAYER_2
 10
150.1331
 20
197.098
  0
SEQEND
  0
ENDBLK
  0
BLOCK
  8
LAYER_2
  2
AIGNBL0202016C
 70
64
 10
0
 20
0
 30
0
  3
AIGNBL0202016C
  0
POLYLINE
  8
LAYER_2
 40
0.2469
 41
0.2469
 66
1
 10
0
 20
0
 30
0
  0
VERTEX
  8
LAYER_2
 10
131.3029
 20
207.6251
  0
VERTEX
  8
LAYER_2
 10
150.1331
 20
207.6251
  0
SEQEND
  0
ENDBLK
  0
BLOCK
  8
LAYER_2
  2
AIGNBL0202016D
 70
64
 10
0
 20
0
 30
0
  3
AIGNBL0202016D
  0
POLYLINE
  8
LAYER_2
 40
0.05
 41
0.05
 66
1
 10
0
 20
0
 30
0
 70
1
  0
VERTEX
  8
LAYER_2
 10
149.5654
 20
203.9407
  0
VERTEX
  8
LAYER_2
 10
148.5952
 20
203.9407
  0
VERTEX
  8
LAYER_2
 10
149.0803
 20
207.6251
  0
SEQEND
  0
ENDBLK
  0
BLOCK
  8
LAYER_2
  2
AIGNBL0202016E
 70
64
 10
0
 20
0
 30
0
  3
AIGNBL0202016E
  0
POLYLINE
  8
LAYER_2
 40
0.05
 41
0.05
 66
1
 10
0
 20
0
 30
0
 70
1
  0
VERTEX
  8
LAYER_2
 10
148.5952
 20
200.7824
  0
VERTEX
  8
LAYER_2
 10
149.5654
 20
200.7824
  0
VERTEX
  8
LAYER_2
 10
149.0803
 20
197.098
  0
SEQEND
  0
ENDBLK
  0
BLOCK
  8
LAYER_2
  2
AIGNBL0202016F
 70
64
 10
0
 20
0
 30
0
  3
AIGNBL0202016F
  0
TEXT
  8
LAYER_2
 10
148.1612
 20
199.1251
 11
148.1612
 21
199.1251
 40
6.4192
 41
0.5
 50
89.99999999
  1
30
  0
ENDBLK
  0
BLOCK
  8
LAYER_2
  2
AIGNBL02020171
 70
64
 10
0
 20
0
 30
0
  3
AIGNBL02020171
  0
POLYLINE
  8
LAYER_2
 40
0.2469
 41
0.2469
 66
1
 10
0
 20
0
 30
0
  0
VERTEX
  8
LAYER_2
 10
149.0803
 20
197.098
  0
VERTEX
  8
LAYER_2
 10
149.0803
 20
40.5956
  0
SEQEND
  0
ENDBLK
  0
BLOCK
  8
LAYER_2
  2
AIGNBL02020172
 70
64
 10
0
 20
0
 30
0
  3
AIGNBL02020172
  0
POLYLINE
  8
LAYER_2
 40
0.2469
 41
0.2469
 66
1
 10
0
 20
0
 30
0
  0
VERTEX
  8
LAYER_2
 10
136.3204
 20
197.098
  0
VERTEX
  8
LAYER_2
 10
150.1331
 20
197.098
  0
SEQEND
  0
ENDBLK
  0
BLOCK
  8
LAYER_2
  2
AIGNBL02020173
 70
64
 10
0
 20
0
 30
0
  3
AIGNBL02020173
  0
POLYLINE
  8
LAYER_2
 40
0.2469
 41
0.2469
 66
1
 10
0
 20
0
 30
0
  0
VERTEX
  8
LAYER_2
 10
131.0942
 20
40.5956
  0
VERTEX
  8
LAYER_2
 10
150.1331
 20
40.5956
  0
SEQEND
  0
ENDBLK
  0
BLOCK
  8
LAYER_2
  2
AIGNBL02020174
 70
64
 10
0
 20
0
 30
0
  3
AIGNBL02020174
  0
POLYLINE
  8
LAYER_2
 40
0.05
 41
0.05
 66
1
 10
0
 20
0
 30
0
 70
1
  0
VERTEX
  8
LAYER_2
 10
149.5654
 20
193.4137
  0
VERTEX
  8
LAYER_2
 10
148.5952
 20
193.4137
  0
VERTEX
  8
LAYER_2
 10
149.0803
 20
197.098
  0
SEQEND
  0
ENDBLK
  0
BLOCK
  8
LAYER_2
  2
AIGNBL02020175
 70
64
 10
0
 20
0
 30
0
  3
AIGNBL02020175
  0
POLYLINE
  8
LAYER_2
 40
0.05
 41
0.05
 66
1
 10
0
 20
0
 30
0
 70
1
  0
VERTEX
  8
LAYER_2
 10
148.5952
 20
44.2802
  0
VERTEX
  8
LAYER_2
 10
149.5654
 20
44.2802
  0
VERTEX
  8
LAYER_2
 10
149.0803
 20
40.5956
  0
SEQEND
  0
ENDBLK
  0
BLOCK
  8
LAYER_2
  2
AIGNBL02020176
 70
64
 10
0
 20
0
 30
0
  3
AIGNBL02020176
  0
TEXT
  8
LAYER_2
 10
148.1612
 20
113.9524
 11
148.1612
 21
113.9524
 40
6.4192
 41
0.5
 50
89.99999999
  1
446
  0
ENDBLK
  0
BLOCK
  8
LAYER_2
  2
AIGNBL02020178
 70
64
 10
0
 20
0
 30
0
  3
AIGNBL02020178
  0
POLYLINE
  8
LAYER_2
 40
0.2469
 41
0.2469
 66
1
 10
0
 20
0
 30
0
  0
VERTEX
  8
LAYER_2
 10
117.4995
 20
30.0688
  0
VERTEX
  8
LAYER_2
 10
138.5535
 20
30.0688
  0
SEQEND
  0
ENDBLK
  0
BLOCK
  8
LAYER_2
  2
AIGNBL02020179
 70
64
 10
0
 20
0
 30
0
  3
AIGNBL02020179
  0
POLYLINE
  8
LAYER_2
 40
0.2469
 41
0.2469
 66
1
 10
0
 20
0
 30
0
  0
VERTEX
  8
LAYER_2
 10
117.4995
 20
47.245
  0
VERTEX
  8
LAYER_2
 10
117.4995
 20
29.016
  0
SEQEND
  0
ENDBLK
  0
BLOCK
  8
LAYER_2
  2
AIGNBL0202017A
 70
64
 10
0
 20
0
 30
0
  3
AIGNBL0202017A
  0
POLYLINE
  8
LAYER_2
 40
0.2469
 41
0.2469
 66
1
 10
0
 20
0
 30
0
  0
VERTEX
  8
LAYER_2
 10
138.5535
 20
47.245
  0
VERTEX
  8
LAYER_2
 10
138.5535
 20
29.016
  0
SEQEND
  0
ENDBLK
  0
BLOCK
  8
LAYER_2
  2
AIGNBL0202017B
 70
64
 10
0
 20
0
 30
0
  3
AIGNBL0202017B
  0
POLYLINE
  8
LAYER_2
 40
0.05
 41
0.05
 66
1
 10
0
 20
0
 30
0
 70
1
  0
VERTEX
  8
LAYER_2
 10
121.1836
 20
30.5539
  0
VERTEX
  8
LAYER_2
 10
121.1836
 20
29.5837
  0
VERTEX
  8
LAYER_2
 10
117.4995
 20
30.0688
  0
SEQEND
  0
ENDBLK
  0
BLOCK
  8
LAYER_2
  2
AIGNBL0202017C
 70
64
 10
0
 20
0
 30
0
  3
AIGNBL0202017C
  0
POLYLINE
  8
LAYER_2
 40
0.05
 41
0.05
 66
1
 10
0
 20
0
 30
0
 70
1
  0
VERTEX
  8
LAYER_2
 10
134.8689
 20
29.5837
  0
VERTEX
  8
LAYER_2
 10
134.8689
 20
30.5539
  0
VERTEX
  8
LAYER_2
 10
138.5535
 20
30.0688
  0
SEQEND
  0
ENDBLK
  0
BLOCK
  8
LAYER_2
  2
AIGNBL0202017D
 70
64
 10
0
 20
0
 30
0
  3
AIGNBL0202017D
  0
TEXT
  8
LAYER_2
 10
126.6706
 20
31.483
 11
126.6706
 21
31.483
 40
6.4192
 41
0.5
  1
60
  0
ENDBLK
  0
BLOCK
  8
LAYER_7
  2
AIGNBL07020004
 70
64
 10
0
 20
0
 30
0
  3
AIGNBL07020004
  0
INSERT
  8
LAYER_7
  2
AIGNBL07030005
 10
0
 20
0
 30
0
  0
ENDBLK
  0
BLOCK
  8
LAYER_7
  2
AIGNBL0702000D
 70
64
 10
0
 20
0
 30
0
  3
AIGNBL0702000D
  0
INSERT
  8
LAYER_7
  2
AIGNBL0703000E
 10
0
 20
0
 30
0
  0
INSERT
  8
LAYER_7
  2
AIGNBL0703000F
 10
0
 20
0
 30
0
  0
INSERT
  8
LAYER_7
  2
AIGNBL07030010
 10
0
 20
0
 30
0
  0
INSERT
  8
LAYER_7
  2
AIGNBL07030011
 10
0
 20
0
 30
0
  0
INSERT
  8
LAYER_7
  2
AIGNBL07030012
 10
0
 20
0
 30
0
  0
INSERT
  8
LAYER_7
  2
AIGNBL07030013
 10
0
 20
0
 30
0
  0
INSERT
  8
LAYER_7
  2
AIGNBL07030014
 10
0
 20
0
 30
0
  0
INSERT
  8
LAYER_7
  2
AIGNBL07030015
 10
0
 20
0
 30
0
  0
INSERT
  8
LAYER_7
  2
AIGNBL07030016
 10
0
 20
0
 30
0
  0
INSERT
  8
LAYER_7
  2
AIGNBL07030017
 10
0
 20
0
 30
0
  0
INSERT
  8
LAYER_7
  2
AIGNBL07030018
 10
0
 20
0
 30
0
  0
INSERT
  8
LAYER_7
  2
AIGNBL07030019
 10
0
 20
0
 30
0
  0
INSERT
  8
LAYER_7
  2
AIGNBL0703001A
 10
0
 20
0
 30
0
  0
INSERT
  8
LAYER_7
  2
AIGNBL0703001B
 10
0
 20
0
 30
0
  0
INSERT
  8
LAYER_7
  2
AIGNBL0703001C
 10
0
 20
0
 30
0
  0
INSERT
  8
LAYER_7
  2
AIGNBL0703001D
 10
0
 20
0
 30
0
  0
INSERT
  8
LAYER_7
  2
AIGNBL0703001E
 10
0
 20
0
 30
0
  0
INSERT
  8
LAYER_7
  2
AIGNBL0703001F
 10
0
 20
0
 30
0
  0
INSERT
  8
LAYER_7
  2
AIGNBL07030020
 10
0
 20
0
 30
0
  0
INSERT
  8
LAYER_7
  2
AIGNBL07030021
 10
0
 20
0
 30
0
  0
INSERT
  8
LAYER_7
  2
AIGNBL07030022
 10
0
 20
0
 30
0
  0
INSERT
  8
LAYER_7
  2
AIGNBL07030023
 10
0
 20
0
 30
0
  0
INSERT
  8
LAYER_7
  2
AIGNBL07030024
 10
0
 20
0
 30
0
  0
ENDBLK
  0
BLOCK
  8
LAYER_1
  2
AIGNBL01010002
 70
64
 10
0
 20
0
 30
0
  3
AIGNBL01010002
  0
INSERT
  8
LAYER_1
  2
AIGNBL01020003
 10
0
 20
0
 30
0
  0
INSERT
  8
LAYER_1
  2
AIGNBL01020004
 10
0
 20
0
 30
0
  0
INSERT
  8
LAYER_1
  2
AIGNBL01020005
 10
0
 20
0
 30
0
  0
INSERT
  8
LAYER_1
  2
AIGNBL01020006
 10
0
 20
0
 30
0
  0
INSERT
  8
LAYER_1
  2
AIGNBL01020007
 10
0
 20
0
 30
0
  0
INSERT
  8
LAYER_1
  2
AIGNBL01020008
 10
0
 20
0
 30
0
  0
INSERT
  8
LAYER_1
  2
AIGNBL01020009
 10
0
 20
0
 30
0
  0
INSERT
  8
LAYER_1
  2
AIGNBL0102000A
 10
0
 20
0
 30
0
  0
INSERT
  8
LAYER_1
  2
AIGNBL0102000B
 10
0
 20
0
 30
0
  0
INSERT
  8
LAYER_1
  2
AIGNBL0102000C
 10
0
 20
0
 30
0
  0
INSERT
  8
LAYER_1
  2
AIGNBL0102000D
 10
0
 20
0
 30
0
  0
INSERT
  8
LAYER_1
  2
AIGNBL0102000E
 10
0
 20
0
 30
0
  0
INSERT
  8
LAYER_1
  2
AIGNBL0102000F
 10
0
 20
0
 30
0
  0
INSERT
  8
LAYER_1
  2
AIGNBL01020010
 10
0
 20
0
 30
0
  0
INSERT
  8
LAYER_1
  2
AIGNBL01020011
 10
0
 20
0
 30
0
  0
INSERT
  8
LAYER_1
  2
AIGNBL01020012
 10
0
 20
0
 30
0
  0
ENDBLK
  0
BLOCK
  8
LAYER_1
  2
AIGNBL01010013
 70
64
 10
0
 20
0
 30
0
  3
AIGNBL01010013
  0
POLYLINE
  8
LAYER_1
  6
AIGENLINE001
 40
0.2469
 41
0.2469
 66
1
 10
0
 20
0
 30
0
 70
128
  0
VERTEX
  8
LAYER_1
 10
128.0263
 20
209.7305
  0
VERTEX
  8
LAYER_1
 10
128.0263
 20
37.4375
  0
SEQEND
  0
ENDBLK
  0
BLOCK
  8
LAYER_1
  2
AIGNBL01010014
 70
64
 10
0
 20
0
 30
0
  3
AIGNBL01010014
  0
POLYLINE
  8
LAYER_1
 40
0.2469
 41
0.2469
 66
1
 10
0
 20
0
 30
0
  0
VERTEX
  8
LAYER_1
 10
82.8201
 20
211.7306
  0
VERTEX
  8
LAYER_1
 10
83.5219
 20
212.4325
  0
SEQEND
  0
ENDBLK
  0
BLOCK
  8
LAYER_1
  2
AIGNBL01010015
 70
64
 10
0
 20
0
 30
0
  3
AIGNBL01010015
  0
POLYLINE
  8
LAYER_1
 40
0.2469
 41
0.2469
 66
1
 10
0
 20
0
 30
0
  0
VERTEX
  8
LAYER_1
 10
83.5219
 20
212.4325
  0
VERTEX
  8
LAYER_1
 10
84.2238
 20
211.7306
  0
SEQEND
  0
ENDBLK
  0
BLOCK
  8
LAYER_1
  2
AIGNBL01010016
 70
64
 10
0
 20
0
 30
0
  3
AIGNBL01010016
  0
POLYLINE
  8
LAYER_1
 40
0.2469
 41
0.2469
 66
1
 10
0
 20
0
 30
0
  0
VERTEX
  8
LAYER_1
 10
84.2238
 20
211.7306
  0
VERTEX
  8
LAYER_1
 10
83.8729
 20
211.7306
  0
SEQEND
  0
ENDBLK
  0
BLOCK
  8
LAYER_1
  2
AIGNBL01010017
 70
64
 10
0
 20
0
 30
0
  3
AIGNBL01010017
  0
POLYLINE
  8
LAYER_1
 40
0.2469
 41
0.2469
 66
1
 10
0
 20
0
 30
0
  0
VERTEX
  8
LAYER_1
 10
83.8729
 20
211.7306
  0
VERTEX
  8
LAYER_1
 10
83.8729
 20
210.3269
  0
SEQEND
  0
ENDBLK
  0
BLOCK
  8
LAYER_1
  2
AIGNBL01010018
 70
64
 10
0
 20
0
 30
0
  3
AIGNBL01010018
  0
POLYLINE
  8
LAYER_1
 40
0.2469
 41
0.2469
 66
1
 10
0
 20
0
 30
0
  0
VERTEX
  8
LAYER_1
 10
83.8729
 20
210.3269
  0
VERTEX
  8
LAYER_1
 10
83.171
 20
210.3269
  0
SEQEND
  0
ENDBLK
  0
BLOCK
  8
LAYER_1
  2
AIGNBL01010019
 70
64
 10
0
 20
0
 30
0
  3
AIGNBL01010019
  0
POLYLINE
  8
LAYER_1
 40
0.2469
 41
0.2469
 66
1
 10
0
 20
0
 30
0
  0
VERTEX
  8
LAYER_1
 10
83.171
 20
210.3269
  0
VERTEX
  8
LAYER_1
 10
83.171
 20
211.7306
  0
SEQEND
  0
ENDBLK
  0
BLOCK
  8
LAYER_1
  2
AIGNBL0101001A
 70
64
 10
0
 20
0
 30
0
  3
AIGNBL0101001A
  0
POLYLINE
  8
LAYER_1
 40
0.2469
 41
0.2469
 66
1
 10
0
 20
0
 30
0
  0
VERTEX
  8
LAYER_1
 10
83.171
 20
211.7306
  0
VERTEX
  8
LAYER_1
 10
82.8201
 20
211.7306
  0
SEQEND
  0
ENDBLK
  0
BLOCK
  8
LAYER_1
  2
AIGNBL0101001B
 70
64
 10
0
 20
0
 30
0
  3
AIGNBL0101001B
  0
TEXT
  8
LAYER_1
 10
79.4032
 20
36.5714
 11
79.4032
 21
36.5714
 40
6.4192
 41
0.5
  1
R1/2
  0
ENDBLK
  0
BLOCK
  8
LAYER_1
  2
AIGNBL0101001C
 70
64
 10
0
 20
0
 30
0
  3
AIGNBL0101001C
  0
INSERT
  8
LAYER_1
  2
AIGNBL0102001D
 10
0
 20
0
 30
0
  0
INSERT
  8
LAYER_1
  2
AIGNBL0102001E
 10
0
 20
0
 30
0
  0
INSERT
  8
LAYER_1
  2
AIGNBL0102001F
 10
0
 20
0
 30
0
  0
INSERT
  8
LAYER_1
  2
AIGNBL01020020
 10
0
 20
0
 30
0
  0
INSERT
  8
LAYER_1
  2
AIGNBL01020021
 10
0
 20
0
 30
0
  0
INSERT
  8
LAYER_1
  2
AIGNBL01020022
 10
0
 20
0
 30
0
  0
INSERT
  8
LAYER_1
  2
AIGNBL01020023
 10
0
 20
0
 30
0
  0
ENDBLK
  0
BLOCK
  8
LAYER_2
  2
AIGNBL02010002
 70
64
 10
0
 20
0
 30
0
  3
AIGNBL02010002
  0
INSERT
  8
LAYER_2
  2
AIGNBL02020003
 10
0
 20
0
 30
0
  0
INSERT
  8
LAYER_2
  2
AIGNBL0202008F
 10
0
 20
0
 30
0
  0
ENDBLK
  0
BLOCK
  8
LAYER_2
  2
AIGNBL020100FF
 70
64
 10
0
 20
0
 30
0
  3
AIGNBL020100FF
  0
INSERT
  8
LAYER_2
  2
AIGNBL02020100
 10
0
 20
0
 30
0
  0
ENDBLK
  0
BLOCK
  8
LAYER_2
  2
AIGNBL02010101
 70
64
 10
0
 20
0
 30
0
  3
AIGNBL02010101
  0
INSERT
  8
LAYER_2
  2
AIGNBL02020102
 10
0
 20
0
 30
0
  0
INSERT
  8
LAYER_2
  2
AIGNBL02020103
 10
0
 20
0
 30
0
  0
INSERT
  8
LAYER_2
  2
AIGNBL02020104
 10
0
 20
0
 30
0
  0
INSERT
  8
LAYER_2
  2
AIGNBL02020105
 10
0
 20
0
 30
0
  0
INSERT
  8
LAYER_2
  2
AIGNBL02020106
 10
0
 20
0
 30
0
  0
INSERT
  8
LAYER_2
  2
AIGNBL02020107
 10
0
 20
0
 30
0
  0
INSERT
  8
LAYER_2
  2
AIGNBL02020108
 10
0
 20
0
 30
0
  0
INSERT
  8
LAYER_2
  2
AIGNBL02020109
 10
0
 20
0
 30
0
  0
INSERT
  8
LAYER_2
  2
AIGNBL0202010A
 10
0
 20
0
 30
0
  0
INSERT
  8
LAYER_2
  2
AIGNBL0202010B
 10
0
 20
0
 30
0
  0
INSERT
  8
LAYER_2
  2
AIGNBL0202010C
 10
0
 20
0
 30
0
  0
INSERT
  8
LAYER_2
  2
AIGNBL0202010D
 10
0
 20
0
 30
0
  0
INSERT
  8
LAYER_2
  2
AIGNBL0202010E
 10
0
 20
0
 30
0
  0
INSERT
  8
LAYER_2
  2
AIGNBL0202010F
 10
0
 20
0
 30
0
  0
INSERT
  8
LAYER_2
  2
AIGNBL02020110
 10
0
 20
0
 30
0
  0
INSERT
  8
LAYER_2
  2
AIGNBL02020111
 10
0
 20
0
 30
0
  0
INSERT
  8
LAYER_2
  2
AIGNBL02020112
 10
0
 20
0
 30
0
  0
INSERT
  8
LAYER_2
  2
AIGNBL02020113
 10
0
 20
0
 30
0
  0
INSERT
  8
LAYER_2
  2
AIGNBL02020114
 10
0
 20
0
 30
0
  0
INSERT
  8
LAYER_2
  2
AIGNBL02020115
 10
0
 20
0
 30
0
  0
INSERT
  8
LAYER_2
  2
AIGNBL02020116
 10
0
 20
0
 30
0
  0
INSERT
  8
LAYER_2
  2
AIGNBL02020117
 10
0
 20
0
 30
0
  0
INSERT
  8
LAYER_2
  2
AIGNBL02020118
 10
0
 20
0
 30
0
  0
INSERT
  8
LAYER_2
  2
AIGNBL02020119
 10
0
 20
0
 30
0
  0
INSERT
  8
LAYER_2
  2
AIGNBL0202011A
 10
0
 20
0
 30
0
  0
INSERT
  8
LAYER_2
  2
AIGNBL0202011B
 10
0
 20
0
 30
0
  0
INSERT
  8
LAYER_2
  2
AIGNBL0202011C
 10
0
 20
0
 30
0
  0
INSERT
  8
LAYER_2
  2
AIGNBL0202011D
 10
0
 20
0
 30
0
  0
INSERT
  8
LAYER_2
  2
AIGNBL0202011E
 10
0
 20
0
 30
0
  0
INSERT
  8
LAYER_2
  2
AIGNBL0202011F
 10
0
 20
0
 30
0
  0
INSERT
  8
LAYER_2
  2
AIGNBL02020120
 10
0
 20
0
 30
0
  0
INSERT
  8
LAYER_2
  2
AIGNBL02020121
 10
0
 20
0
 30
0
  0
INSERT
  8
LAYER_2
  2
AIGNBL02020122
 10
0
 20
0
 30
0
  0
INSERT
  8
LAYER_2
  2
AIGNBL02020123
 10
0
 20
0
 30
0
  0
INSERT
  8
LAYER_2
  2
AIGNBL02020124
 10
0
 20
0
 30
0
  0
INSERT
  8
LAYER_2
  2
AIGNBL02020125
 10
0
 20
0
 30
0
  0
INSERT
  8
LAYER_2
  2
AIGNBL02020126
 10
0
 20
0
 30
0
  0
INSERT
  8
LAYER_2
  2
AIGNBL02020127
 10
0
 20
0
 30
0
  0
INSERT
  8
LAYER_2
  2
AIGNBL02020128
 10
0
 20
0
 30
0
  0
INSERT
  8
LAYER_2
  2
AIGNBL02020129
 10
0
 20
0
 30
0
  0
INSERT
  8
LAYER_2
  2
AIGNBL0202012A
 10
0
 20
0
 30
0
  0
INSERT
  8
LAYER_2
  2
AIGNBL0202012B
 10
0
 20
0
 30
0
  0
INSERT
  8
LAYER_2
  2
AIGNBL0202012C
 10
0
 20
0
 30
0
  0
INSERT
  8
LAYER_2
  2
AIGNBL0202012D
 10
0
 20
0
 30
0
  0
INSERT
  8
LAYER_2
  2
AIGNBL0202012E
 10
0
 20
0
 30
0
  0
INSERT
  8
LAYER_2
  2
AIGNBL0202012F
 10
0
 20
0
 30
0
  0
INSERT
  8
LAYER_2
  2
AIGNBL02020130
 10
0
 20
0
 30
0
  0
INSERT
  8
LAYER_2
  2
AIGNBL02020131
 10
0
 20
0
 30
0
  0
INSERT
  8
LAYER_2
  2
AIGNBL02020132
 10
0
 20
0
 30
0
  0
INSERT
  8
LAYER_2
  2
AIGNBL02020133
 10
0
 20
0
 30
0
  0
INSERT
  8
LAYER_2
  2
AIGNBL02020134
 10
0
 20
0
 30
0
  0
INSERT
  8
LAYER_2
  2
AIGNBL02020135
 10
0
 20
0
 30
0
  0
INSERT
  8
LAYER_2
  2
AIGNBL02020136
 10
0
 20
0
 30
0
  0
INSERT
  8
LAYER_2
  2
AIGNBL02020137
 10
0
 20
0
 30
0
  0
INSERT
  8
LAYER_2
  2
AIGNBL02020138
 10
0
 20
0
 30
0
  0
INSERT
  8
LAYER_2
  2
AIGNBL02020139
 10
0
 20
0
 30
0
  0
INSERT
  8
LAYER_2
  2
AIGNBL0202013A
 10
0
 20
0
 30
0
  0
INSERT
  8
LAYER_2
  2
AIGNBL0202013B
 10
0
 20
0
 30
0
  0
INSERT
  8
LAYER_2
  2
AIGNBL0202013C
 10
0
 20
0
 30
0
  0
INSERT
  8
LAYER_2
  2
AIGNBL0202013D
 10
0
 20
0
 30
0
  0
INSERT
  8
LAYER_2
  2
AIGNBL0202013E
 10
0
 20
0
 30
0
  0
INSERT
  8
LAYER_2
  2
AIGNBL0202013F
 10
0
 20
0
 30
0
  0
INSERT
  8
LAYER_2
  2
AIGNBL02020140
 10
0
 20
0
 30
0
  0
INSERT
  8
LAYER_2
  2
AIGNBL02020141
 10
0
 20
0
 30
0
  0
INSERT
  8
LAYER_2
  2
AIGNBL02020142
 10
0
 20
0
 30
0
  0
INSERT
  8
LAYER_2
  2
AIGNBL02020143
 10
0
 20
0
 30
0
  0
ENDBLK
  0
BLOCK
  8
LAYER_2
  2
AIGNBL02010144
 70
64
 10
0
 20
0
 30
0
  3
AIGNBL02010144
  0
POLYLINE
  8
LAYER_2
  6
AIGENLINE001
 40
0.2469
 41
0.2469
 66
1
 10
0
 20
0
 30
0
 70
128
  0
VERTEX
  8
LAYER_2
 10
136.3204
 20
197.098
  0
VERTEX
  8
LAYER_2
 10
119.7326
 20
197.098
  0
SEQEND
  0
ENDBLK
  0
BLOCK
  8
LAYER_2
  2
AIGNBL02010145
 70
64
 10
0
 20
0
 30
0
  3
AIGNBL02010145
  0
POLYLINE
  8
LAYER_2
  6
AIGENLINE001
 40
0.2469
 41
0.2469
 66
1
 10
0
 20
0
 30
0
 70
128
  0
VERTEX
  8
LAYER_2
 10
94.6891
 20
248.1227
  0
VERTEX
  8
LAYER_2
 10
59.776
 20
248.1227
  0
SEQEND
  0
ENDBLK
  0
BLOCK
  8
LAYER_2
  2
AIGNBL02010146
 70
64
 10
0
 20
0
 30
0
  3
AIGNBL02010146
  0
POLYLINE
  8
LAYER_2
  6
AIGENLINE001
 40
0.2469
 41
0.2469
 66
1
 10
0
 20
0
 30
0
 70
128
  0
VERTEX
  8
LAYER_2
 10
71.8821
 20
236.0164
  0
VERTEX
  8
LAYER_2
 10
71.8821
 20
260.2287
  0
SEQEND
  0
ENDBLK
  0
BLOCK
  8
LAYER_2
  2
AIGNBL02010147
 70
64
 10
0
 20
0
 30
0
  3
AIGNBL02010147
  0
POLYLINE
  8
LAYER_2
  6
AIGENLINE001
 40
0.2469
 41
0.2469
 66
1
 10
0
 20
0
 30
0
 70
128
  0
VERTEX
  8
LAYER_2
 10
80.304
 20
197.098
  0
VERTEX
  8
LAYER_2
 10
93.1738
 20
197.098
  0
SEQEND
  0
ENDBLK
  0
BLOCK
  8
LAYER_2
  2
AIGNBL02010148
 70
64
 10
0
 20
0
 30
0
  3
AIGNBL02010148
  0
POLYLINE
  8
LAYER_2
  6
AIGENLINE001
 40
0.2469
 41
0.2469
 66
1
 10
0
 20
0
 30
0
 70
128
  0
VERTEX
  8
LAYER_2
 10
66.4113
 20
197.098
  0
VERTEX
  8
LAYER_2
 10
71.8821
 20
197.098
  0
SEQEND
  0
ENDBLK
  0
BLOCK
  8
LAYER_2
  2
AIGNBL02010149
 70
64
 10
0
 20
0
 30
0
  3
AIGNBL02010149
  0
POLYLINE
  8
LAYER_2
  6
AIGENLINE001
 40
0.2469
 41
0.2469
 66
1
 10
0
 20
0
 30
0
 70
128
  0
VERTEX
  8
LAYER_2
 10
71.8821
 20
38.8424
  0
VERTEX
  8
LAYER_2
 10
71.8821
 20
186.571
  0
SEQEND
  0
ENDBLK
  0
BLOCK
  8
LAYER_2
  2
AIGNBL0201014A
 70
64
 10
0
 20
0
 30
0
  3
AIGNBL0201014A
  0
POLYLINE
  8
LAYER_2
  6
AIGENLINE001
 40
0.2469
 41
0.2469
 66
1
 10
0
 20
0
 30
0
 70
128
  0
VERTEX
  8
LAYER_2
 10
117.6941
 20
191.1329
  0
VERTEX
  8
LAYER_2
 10
131.0652
 20
198.8525
  0
SEQEND
  0
ENDBLK
  0
BLOCK
  8
LAYER_2
  2
AIGNBL0201014B
 70
64
 10
0
 20
0
 30
0
  3
AIGNBL0201014B
  0
POLYLINE
  8
LAYER_2
  6
AIGENLINE001
 40
0.2469
 41
0.2469
 66
1
 10
0
 20
0
 30
0
 70
128
  0
VERTEX
  8
LAYER_2
 10
124.9874
 20
198.8525
  0
VERTEX
  8
LAYER_2
 10
138.3585
 20
191.1329
  0
SEQEND
  0
ENDBLK
  0
BLOCK
  8
LAYER_2
  2
AIGNBL0201014C
 70
64
 10
0
 20
0
 30
0
  3
AIGNBL0201014C
  0
POLYLINE
  8
LAYER_2
  6
AIGENLINE001
 40
0.2469
 41
0.2469
 66
1
 10
0
 20
0
 30
0
 70
128
  0
VERTEX
  8
LAYER_2
 10
71.8821
 20
186.571
  0
VERTEX
  8
LAYER_2
 10
71.8821
 20
197.098
  0
SEQEND
  0
ENDBLK
  0
BLOCK
  8
LAYER_2
  2
AIGNBL0201014D
 70
64
 10
0
 20
0
 30
0
  3
AIGNBL0201014D
  0
POLYLINE
  8
LAYER_2
  6
AIGENLINE001
 40
0.2469
 41
0.2469
 66
1
 10
0
 20
0
 30
0
 70
128
  0
VERTEX
  8
LAYER_2
 10
71.8821
 20
197.098
  0
VERTEX
  8
LAYER_2
 10
80.304
 20
197.098
  0
SEQEND
  0
ENDBLK
  0
BLOCK
  8
LAYER_2
  2
AIGNBL0201014E
 70
64
 10
0
 20
0
 30
0
  3
AIGNBL0201014E
  0
POLYLINE
  8
LAYER_2
  6
AIGENLINE001
 40
0.2469
 41
0.2469
 66
1
 10
0
 20
0
 30
0
 70
128
  0
VERTEX
  8
LAYER_2
 10
71.8821
 20
197.098
  0
VERTEX
  8
LAYER_2
 10
71.8821
 20
208.6777
  0
SEQEND
  0
ENDBLK
  0
BLOCK
  8
LAYER_2
  2
AIGNBL0201014F
 70
64
 10
0
 20
0
 30
0
  3
AIGNBL0201014F
  0
POLYLINE
  8
LAYER_2
 40
0.05
 41
0.05
 66
1
 10
0
 20
0
 30
0
 70
1
  0
VERTEX
  8
LAYER_2
 10
65.9353
 20
208.4374
  0
VERTEX
  8
LAYER_2
 10
66.7756
 20
208.9225
  0
VERTEX
  8
LAYER_2
 10
68.1974
 20
205.4889
  0
SEQEND
  0
ENDBLK
  0
BLOCK
  8
LAYER_2
  2
AIGNBL02010150
 70
64
 10
0
 20
0
 30
0
  3
AIGNBL02010150
  0
POLYLINE
  8
LAYER_2
 40
0.2469
 41
0.2469
 66
1
 10
0
 20
0
 30
0
  0
VERTEX
  8
LAYER_2
 10
68.1974
 20
205.4889
  0
VERTEX
  8
LAYER_2
 10
65.5817
 20
210.0196
  0
SEQEND
  0
POLYLINE
  8
LAYER_2
 40
0.2469
 41
0.2469
 66
1
 10
0
 20
0
 30
0
  0
VERTEX
  8
LAYER_2
 10
65.5817
 20
210.0196
  0
VERTEX
  8
LAYER_2
 10
49.5987
 20
210.0196
  0
SEQEND
  0
ENDBLK
  0
BLOCK
  8
LAYER_2
  2
AIGNBL02010151
 70
64
 10
0
 20
0
 30
0
  3
AIGNBL02010151
  0
POLYLINE
  8
LAYER_2
 40
0.05
 41
0.05
 66
1
 10
0
 20
0
 30
0
 70
1
  0
VERTEX
  8
LAYER_2
 10
77.6802
 20
39.8012
  0
VERTEX
  8
LAYER_2
 10
76.8401
 20
39.3161
  0
VERTEX
  8
LAYER_2
 10
75.4178
 20
42.7495
  0
SEQEND
  0
ENDBLK
  0
BLOCK
  8
LAYER_2
  2
AIGNBL02010152
 70
64
 10
0
 20
0
 30
0
  3
AIGNBL02010152
  0
POLYLINE
  8
LAYER_2
 40
0.2469
 41
0.2469
 66
1
 10
0
 20
0
 30
0
  0
VERTEX
  8
LAYER_2
 10
75.4178
 20
42.7495
  0
VERTEX
  8
LAYER_2
 10
79.8029
 20
35.1548
  0
SEQEND
  0
POLYLINE
  8
LAYER_2
 40
0.2469
 41
0.2469
 66
1
 10
0
 20
0
 30
0
  0
VERTEX
  8
LAYER_2
 10
79.8029
 20
35.1548
  0
VERTEX
  8
LAYER_2
 10
91.2749
 20
35.1548
  0
SEQEND
  0
ENDBLK
  0
BLOCK
  8
LAYER_2
  2
AIGNBL02010153
 70
64
 10
0
 20
0
 30
0
  3
AIGNBL02010153
  0
POLYLINE
  8
LAYER_2
 40
0.2469
 41
0.2469
 66
1
 10
0
 20
0
 30
0
 70
1
  0
VERTEX
  8
LAYER_2
 10
75.167
 20
197.098
 42
0.414241771
  0
VERTEX
  8
LAYER_2
 10
74.2459
 20
198.0193
 42
0.4142151635
  0
VERTEX
  8
LAYER_2
 10
73.3247
 20
197.098
 42
0.4141853572
  0
VERTEX
  8
LAYER_2
 10
74.2459
 20
196.1768
 42
0.4142119586
  0
SEQEND
  0
ENDBLK
  0
BLOCK
  8
LAYER_2
  2
AIGNBL02010154
 70
64
 10
0
 20
0
 30
0
  3
AIGNBL02010154
  0
POLYLINE
  8
LAYER_2
 40
0.05
 41
0.05
 66
1
 10
0
 20
0
 30
0
 70
1
  0
VERTEX
  8
LAYER_2
 10
75.167
 20
197.098
 42
0.414241771
  0
VERTEX
  8
LAYER_2
 10
74.2459
 20
198.0193
 42
0.4142151635
  0
VERTEX
  8
LAYER_2
 10
73.3247
 20
197.098
 42
0.4141853572
  0
VERTEX
  8
LAYER_2
 10
74.2459
 20
196.1768
 42
0.4142119586
  0
SEQEND
  0
ENDBLK
  0
BLOCK
  8
LAYER_2
  2
AIGNBL02010155
 70
64
 10
0
 20
0
 30
0
  3
AIGNBL02010155
  0
POLYLINE
  8
LAYER_2
 40
0.2469
 41
0.2469
 66
1
 10
0
 20
0
 30
0
  0
VERTEX
  8
LAYER_2
 10
74.2459
 20
197.098
  0
VERTEX
  8
LAYER_2
 10
81.2758
 20
209.2744
  0
SEQEND
  0
POLYLINE
  8
LAYER_2
 40
0.2469
 41
0.2469
 66
1
 10
0
 20
0
 30
0
  0
VERTEX
  8
LAYER_2
 10
81.2758
 20
209.2744
  0
VERTEX
  8
LAYER_2
 10
85.7677
 20
209.2744
  0
SEQEND
  0
ENDBLK
  0
BLOCK
  8
LAYER_2
  2
AIGNBL02010156
 70
64
 10
0
 20
0
 30
0
  3
AIGNBL02010156
  0
TEXT
  8
LAYER_2
 10
49.6948
 20
211.4365
 11
49.6948
 21
211.4365
 40
6.4192
 41
0.5
  1
PJ1/2
  0
ENDBLK
  0
BLOCK
  8
LAYER_2
  2
AIGNBL02010157
 70
64
 10
0
 20
0
 30
0
  3
AIGNBL02010157
  0
INSERT
  8
LAYER_2
  2
AIGNBL02020158
 10
0
 20
0
 30
0
  0
INSERT
  8
LAYER_2
  2
AIGNBL02020159
 10
0
 20
0
 30
0
  0
INSERT
  8
LAYER_2
  2
AIGNBL0202015A
 10
0
 20
0
 30
0
  0
INSERT
  8
LAYER_2
  2
AIGNBL0202015B
 10
0
 20
0
 30
0
  0
INSERT
  8
LAYER_2
  2
AIGNBL0202015C
 10
0
 20
0
 30
0
  0
INSERT
  8
LAYER_2
  2
AIGNBL0202015D
 10
0
 20
0
 30
0
  0
INSERT
  8
LAYER_2
  2
AIGNBL0202015E
 10
0
 20
0
 30
0
  0
INSERT
  8
LAYER_2
  2
AIGNBL0202015F
 10
0
 20
0
 30
0
  0
ENDBLK
  0
BLOCK
  8
LAYER_2
  2
AIGNBL02010160
 70
64
 10
0
 20
0
 30
0
  3
AIGNBL02010160
  0
INSERT
  8
LAYER_2
  2
AIGNBL02020161
 10
0
 20
0
 30
0
  0
INSERT
  8
LAYER_2
  2
AIGNBL02020162
 10
0
 20
0
 30
0
  0
INSERT
  8
LAYER_2
  2
AIGNBL02020163
 10
0
 20
0
 30
0
  0
INSERT
  8
LAYER_2
  2
AIGNBL02020164
 10
0
 20
0
 30
0
  0
INSERT
  8
LAYER_2
  2
AIGNBL02020165
 10
0
 20
0
 30
0
  0
INSERT
  8
LAYER_2
  2
AIGNBL02020166
 10
0
 20
0
 30
0
  0
INSERT
  8
LAYER_2
  2
AIGNBL02020167
 10
0
 20
0
 30
0
  0
INSERT
  8
LAYER_2
  2
AIGNBL02020168
 10
0
 20
0
 30
0
  0
ENDBLK
  0
BLOCK
  8
LAYER_2
  2
AIGNBL02010169
 70
64
 10
0
 20
0
 30
0
  3
AIGNBL02010169
  0
INSERT
  8
LAYER_2
  2
AIGNBL0202016A
 10
0
 20
0
 30
0
  0
INSERT
  8
LAYER_2
  2
AIGNBL0202016B
 10
0
 20
0
 30
0
  0
INSERT
  8
LAYER_2
  2
AIGNBL0202016C
 10
0
 20
0
 30
0
  0
INSERT
  8
LAYER_2
  2
AIGNBL0202016D
 10
0
 20
0
 30
0
  0
INSERT
  8
LAYER_2
  2
AIGNBL0202016E
 10
0
 20
0
 30
0
  0
INSERT
  8
LAYER_2
  2
AIGNBL0202016F
 10
0
 20
0
 30
0
  0
ENDBLK
  0
BLOCK
  8
LAYER_2
  2
AIGNBL02010170
 70
64
 10
0
 20
0
 30
0
  3
AIGNBL02010170
  0
INSERT
  8
LAYER_2
  2
AIGNBL02020171
 10
0
 20
0
 30
0
  0
INSERT
  8
LAYER_2
  2
AIGNBL02020172
 10
0
 20
0
 30
0
  0
INSERT
  8
LAYER_2
  2
AIGNBL02020173
 10
0
 20
0
 30
0
  0
INSERT
  8
LAYER_2
  2
AIGNBL02020174
 10
0
 20
0
 30
0
  0
INSERT
  8
LAYER_2
  2
AIGNBL02020175
 10
0
 20
0
 30
0
  0
INSERT
  8
LAYER_2
  2
AIGNBL02020176
 10
0
 20
0
 30
0
  0
ENDBLK
  0
BLOCK
  8
LAYER_2
  2
AIGNBL02010177
 70
64
 10
0
 20
0
 30
0
  3
AIGNBL02010177
  0
INSERT
  8
LAYER_2
  2
AIGNBL02020178
 10
0
 20
0
 30
0
  0
INSERT
  8
LAYER_2
  2
AIGNBL02020179
 10
0
 20
0
 30
0
  0
INSERT
  8
LAYER_2
  2
AIGNBL0202017A
 10
0
 20
0
 30
0
  0
INSERT
  8
LAYER_2
  2
AIGNBL0202017B
 10
0
 20
0
 30
0
  0
INSERT
  8
LAYER_2
  2
AIGNBL0202017C
 10
0
 20
0
 30
0
  0
INSERT
  8
LAYER_2
  2
AIGNBL0202017D
 10
0
 20
0
 30
0
  0
ENDBLK
  0
BLOCK
  8
LAYER_7
  2
AIGNBL07010002
 70
64
 10
0
 20
0
 30
0
  3
AIGNBL07010002
  0
POLYLINE
  8
LAYER_7
 40
0.7056
 41
0.7056
 66
1
 10
0
 20
0
 30
0
 70
1
  0
VERTEX
  8
LAYER_7
 10
206.0763
 20
269.2235
  0
VERTEX
  8
LAYER_7
 10
206.0763
 20
-7.7766
  0
VERTEX
  8
LAYER_7
 10
16.0764
 20
-7.7766
  0
VERTEX
  8
LAYER_7
 10
16.0764
 20
269.2235
  0
SEQEND
  0
ENDBLK
  0
BLOCK
  8
LAYER_7
  2
AIGNBL07010003
 70
64
 10
0
 20
0
 30
0
  3
AIGNBL07010003
  0
INSERT
  8
LAYER_7
  2
AIGNBL07020004
 10
0
 20
0
 30
0
  0
INSERT
  8
LAYER_7
  2
AIGNBL0702000D
 10
0
 20
0
 30
0
  0
ENDBLK
  0
ENDSEC
  0
SECTION
  2
ENTITIES
  0
INSERT
  8
LAYER_1
  2
AIGNBL01010002
 10
0
 20
0
 30
0
  0
INSERT
  8
LAYER_1
  2
AIGNBL01010013
 10
0
 20
0
 30
0
  0
INSERT
  8
LAYER_1
  2
AIGNBL01010014
 10
0
 20
0
 30
0
  0
INSERT
  8
LAYER_1
  2
AIGNBL01010015
 10
0
 20
0
 30
0
  0
INSERT
  8
LAYER_1
  2
AIGNBL01010016
 10
0
 20
0
 30
0
  0
INSERT
  8
LAYER_1
  2
AIGNBL01010017
 10
0
 20
0
 30
0
  0
INSERT
  8
LAYER_1
  2
AIGNBL01010018
 10
0
 20
0
 30
0
  0
INSERT
  8
LAYER_1
  2
AIGNBL01010019
 10
0
 20
0
 30
0
  0
INSERT
  8
LAYER_1
  2
AIGNBL0101001A
 10
0
 20
0
 30
0
  0
INSERT
  8
LAYER_1
  2
AIGNBL0101001B
 10
0
 20
0
 30
0
  0
INSERT
  8
LAYER_1
  2
AIGNBL0101001C
 10
0
 20
0
 30
0
  0
INSERT
  8
LAYER_2
  2
AIGNBL02010002
 10
0
 20
0
 30
0
  0
INSERT
  8
LAYER_2
  2
AIGNBL020100FF
 10
0
 20
0
 30
0
  0
INSERT
  8
LAYER_2
  2
AIGNBL02010101
 10
0
 20
0
 30
0
  0
INSERT
  8
LAYER_2
  2
AIGNBL02010144
 10
0
 20
0
 30
0
  0
INSERT
  8
LAYER_2
  2
AIGNBL02010145
 10
0
 20
0
 30
0
  0
INSERT
  8
LAYER_2
  2
AIGNBL02010146
 10
0
 20
0
 30
0
  0
INSERT
  8
LAYER_2
  2
AIGNBL02010147
 10
0
 20
0
 30
0
  0
INSERT
  8
LAYER_2
  2
AIGNBL02010148
 10
0
 20
0
 30
0
  0
INSERT
  8
LAYER_2
  2
AIGNBL02010149
 10
0
 20
0
 30
0
  0
INSERT
  8
LAYER_2
  2
AIGNBL0201014A
 10
0
 20
0
 30
0
  0
INSERT
  8
LAYER_2
  2
AIGNBL0201014B
 10
0
 20
0
 30
0
  0
INSERT
  8
LAYER_2
  2
AIGNBL0201014C
 10
0
 20
0
 30
0
  0
INSERT
  8
LAYER_2
  2
AIGNBL0201014D
 10
0
 20
0
 30
0
  0
INSERT
  8
LAYER_2
  2
AIGNBL0201014E
 10
0
 20
0
 30
0
  0
INSERT
  8
LAYER_2
  2
AIGNBL0201014F
 10
0
 20
0
 30
0
  0
INSERT
  8
LAYER_2
  2
AIGNBL02010150
 10
0
 20
0
 30
0
  0
INSERT
  8
LAYER_2
  2
AIGNBL02010151
 10
0
 20
0
 30
0
  0
INSERT
  8
LAYER_2
  2
AIGNBL02010152
 10
0
 20
0
 30
0
  0
INSERT
  8
LAYER_2
  2
AIGNBL02010153
 10
0
 20
0
 30
0
  0
INSERT
  8
LAYER_2
  2
AIGNBL02010154
 10
0
 20
0
 30
0
  0
INSERT
  8
LAYER_2
  2
AIGNBL02010155
 10
0
 20
0
 30
0
  0
INSERT
  8
LAYER_2
  2
AIGNBL02010156
 10
0
 20
0
 30
0
  0
INSERT
  8
LAYER_2
  2
AIGNBL02010157
 10
0
 20
0
 30
0
  0
INSERT
  8
LAYER_2
  2
AIGNBL02010160
 10
0
 20
0
 30
0
  0
INSERT
  8
LAYER_2
  2
AIGNBL02010169
 10
0
 20
0
 30
0
  0
INSERT
  8
LAYER_2
  2
AIGNBL02010170
 10
0
 20
0
 30
0
  0
INSERT
  8
LAYER_2
  2
AIGNBL02010177
 10
0
 20
0
 30
0
  0
TEXT
  8
LAYER_7
 10
18.4399
 20
5.4632
 11
18.4399
 21
5.4632
 40
3.2995
 41
0.5
  1
仕様
  0
POLYLINE
  8
LAYER_7
 40
0.3528
 41
0.3528
 66
1
 10
0
 20
0
 30
0
  0
VERTEX
  8
LAYER_7
 10
205.0762
 20
10.8455
  0
VERTEX
  8
LAYER_7
 10
17.0763
 20
10.8455
  0
SEQEND
  0
INSERT
  8
LAYER_7
  2
AIGNBL07010002
 10
0
 20
0
 30
0
  0
POLYLINE
  8
LAYER_7
 40
0.3528
 41
0.3528
 66
1
 10
0
 20
0
 30
0
  0
VERTEX
  8
LAYER_7
 10
17.0763
 20
268.2234
  0
VERTEX
  8
LAYER_7
 10
17.0763
 20
-6.7768
  0
VERTEX
  8
LAYER_7
 10
205.0762
 20
-6.7768
  0
VERTEX
  8
LAYER_7
 10
205.0762
 20
268.2234
  0
VERTEX
  8
LAYER_7
 10
17.0763
 20
268.2234
  0
SEQEND
  0
POLYLINE
  8
LAYER_7
 40
0.3528
 41
0.3528
 66
1
 10
0
 20
0
 30
0
  0
VERTEX
  8
LAYER_7
 10
205.0762
 20
19.3545
  0
VERTEX
  8
LAYER_7
 10
17.0763
 20
19.3545
  0
SEQEND
  0
POLYLINE
  8
LAYER_7
 40
0.3528
 41
0.3528
 66
1
 10
0
 20
0
 30
0
  0
VERTEX
  8
LAYER_7
 10
205.0762
 20
2.3365
  0
VERTEX
  8
LAYER_7
 10
127.3025
 20
2.3365
  0
SEQEND
  0
TEXT
  8
LAYER_7
 10
157.5084
 20
4.6123
 11
157.5084
 21
4.6123
 40
3.7615
 41
0.5
  1
-
  0
TEXT
  8
LAYER_7
 10
152.2167
 20
8.3692
 11
152.2167
 21
8.3692
 40
2.1997
 41
0.5
  1
縮尺
  0
POLYLINE
  8
LAYER_7
 40
0.3528
 41
0.3528
 66
1
 10
0
 20
0
 30
0
  0
VERTEX
  8
LAYER_7
 10
150.6885
 20
2.3365
  0
VERTEX
  8
LAYER_7
 10
150.6885
 20
10.8455
  0
SEQEND
  0
TEXT
  8
LAYER_7
 10
128.0011
 20
16.8782
 11
128.0011
 21
16.8782
 40
2.1997
 41
0.5
  1
品番
  0
TEXT
  8
LAYER_7
 10
18.2332
 20
16.8782
 11
18.2332
 21
16.8782
 40
2.1997
 41
0.5
  1
品名
  0
TEXT
  8
LAYER_7
 10
128.0011
 20
8.3692
 11
128.0011
 21
8.3692
 40
2.1997
 41
0.5
  1
重量
  0
TEXT
  8
LAYER_7
 10
135.5345
 20
13.0462
 11
135.5345
 21
13.0462
 40
5.9385
 41
0.5
  1
AQ-V21JS
  0
TEXT
  8
LAYER_7
 10
133.3138
 20
4.6123
 11
133.3138
 21
4.6123
 40
3.7615
 41
0.5
  1
-
  0
POLYLINE
  8
LAYER_7
 40
0.3528
 41
0.3528
 66
1
 10
0
 20
0
 30
0
  0
VERTEX
  8
LAYER_7
 10
127.3025
 20
-6.1512
  0
VERTEX
  8
LAYER_7
 10
127.3025
 20
19.3545
  0
SEQEND
  0
TEXT
  8
LAYER_7
 10
24.4426
 20
13.7859
 11
24.4426
 21
13.7859
 40
3.6373
 41
0.5
  1
ストレート形止水栓
  0
TEXT
  8
LAYER_7
 10
29.012
 20
6.2546
 11
29.012
 21
6.2546
 40
3.258
 41
0.5
  1
●クロム●へリューズナシ●JIS
  0
TEXT
  8
LAYER_7
 10
191.6644
 20
22.153
 11
191.6644
 21
22.153
 40
2.9618
 41
0.5
  1
単位：mm
  0
TEXT
  8
LAYER_7
 10
192.6442
 20
263.5136
 11
192.6442
 21
263.5136
 40
2.0732
 41
0.5
  1
170310RT
  0
TEXT
  8
LAYER_7
 10
154.3861
 20
-1.5679
 11
154.3861
 21
-1.5679
 40
2.8694
 41
0.5
  1
●TEL 0120-65-1232●FAX 06-6532-1580
  0
TEXT
  8
LAYER_7
 10
154.3861
 20
-4.5472
 11
154.3861
 21
-4.5472
 40
2.8694
 41
0.5
  1
hits@hiratatile.co.jp
  0
INSERT
  8
LAYER_7
  2
AIGNBL07010003
 10
0
 20
0
 30
0
  0
ENDSEC
  0
EOF
