  0
SECTION
  2
HEADER
  9
$ACADVER
  1
AC1009
  9
$LUNITS
 70
2
  9
$LUPREC
 70
4
  9
$LTSCALE
 40
1.0
  9
$EXTMIN
 10
16.0764
 20
-7.7766
 30
0
  9
$EXTMAX
 10
206.0763
 20
269.2235
 30
0
  0
ENDSEC
  0
SECTION
  2
TABLES
  0
TABLE
  2
LTYPE
 70
256
  0
LTYPE
  2
AIGENLINE001
 70
64
  3
generate AI->DXF Converter
 72
65
 73
4
 40
14
 49
11
 49
-1
 49
1
 49
-1
  0
LTYPE
  2
AIGENLINE002
 70
64
  3
generate AI->DXF Converter
 72
65
 73
6
 40
13.0071
 49
10
 49
-1
 49
0.0035
 49
-1
 49
0.0035
 49
-1
  0
ENDTAB
  0
TABLE
  2
LAYER
 70
7
  0
LAYER
  2
LAYER_1
 70
64
 62
7
  6
CONTINUOUS
  0
LAYER
  2
LAYER_2
 70
64
 62
7
  6
CONTINUOUS
  0
LAYER
  2
LAYER_3
 70
64
 62
7
  6
CONTINUOUS
  0
LAYER
  2
LAYER_4
 70
64
 62
7
  6
CONTINUOUS
  0
LAYER
  2
LAYER_5
 70
64
 62
7
  6
CONTINUOUS
  0
LAYER
  2
LAYER_6
 70
64
 62
7
  6
CONTINUOUS
  0
LAYER
  2
LAYER_7
 70
64
 62
7
  6
CONTINUOUS
  0
ENDTAB
  0
TABLE
  2
STYLE
 70
6
  0
STYLE
  2
STANDARD
 70
0
 40
0
 50
0
 71
0
 41
0
 42
0
  3
TXT
  4
BIGFONT
  0
ENDTAB
  0
ENDSEC
  0
SECTION
  2
BLOCKS
  0
BLOCK
  8
LAYER_7
  2
AIGNBL07040006
 70
64
 10
0
 20
0
 30
0
  3
AIGNBL07040006
  0
POLYLINE
  8
LAYER_7
 40
0.05
 41
0.05
 66
1
 10
0
 20
0
 30
0
 70
1
  0
VERTEX
  8
LAYER_7
 10
129.5759
 20
-1.9017
  0
VERTEX
  8
LAYER_7
 10
129.1615
 20
-2.9063
  0
VERTEX
  8
LAYER_7
 10
128.6292
 20
-2.9063
  0
VERTEX
  8
LAYER_7
 10
129.9848
 20
0.2856
  0
VERTEX
  8
LAYER_7
 10
130.6063
 20
0.2856
  0
VERTEX
  8
LAYER_7
 10
131.9682
 20
-2.9063
  0
VERTEX
  8
LAYER_7
 10
131.417
 20
-2.9063
  0
VERTEX
  8
LAYER_7
 10
130.9908
 20
-1.9017
  0
SEQEND
  0
POLYLINE
  8
LAYER_7
 40
0.05
 41
0.05
 66
1
 10
0
 20
0
 30
0
 70
1
  0
VERTEX
  8
LAYER_7
 10
130.8843
 20
-1.5806
  0
VERTEX
  8
LAYER_7
 10
130.4937
 20
-0.6611
 42
-0.02231634433
  0
VERTEX
  8
LAYER_7
 10
130.2863
 20
-0.0789
  0
VERTEX
  8
LAYER_7
 10
130.2746
 20
-0.0789
  0
VERTEX
  8
LAYER_7
 10
130.073
 20
-0.6573
  0
VERTEX
  8
LAYER_7
 10
129.6827
 20
-1.5806
  0
SEQEND
  0
ENDBLK
  0
BLOCK
  8
LAYER_7
  2
AIGNBL07040007
 70
64
 10
0
 20
0
 30
0
  3
AIGNBL07040007
  0
POLYLINE
  8
LAYER_7
 40
0.05
 41
0.05
 66
1
 10
0
 20
0
 30
0
 70
1
  0
VERTEX
  8
LAYER_7
 10
135.6682
 20
-3.3752
 42
-0.01547641901
  0
VERTEX
  8
LAYER_7
 10
134.1406
 20
-3.0055
 42
0.09489436555
  0
VERTEX
  8
LAYER_7
 10
133.8978
 20
-2.9586
 42
-0.100373793
  0
VERTEX
  8
LAYER_7
 10
133.0335
 20
-2.7616
 42
-0.1097040442
  0
VERTEX
  8
LAYER_7
 10
132.4708
 20
-2.3298
 42
-0.1713304141
  0
VERTEX
  8
LAYER_7
 10
132.1403
 20
-1.3917
 42
-0.006481434724
  0
VERTEX
  8
LAYER_7
 10
132.1397
 20
-1.3439
 42
-0.1157034776
  0
VERTEX
  8
LAYER_7
 10
132.3143
 20
-0.5737
 42
-0.1679073219
  0
VERTEX
  8
LAYER_7
 10
133.0508
 20
0.1353
 42
-0.1003512093
  0
VERTEX
  8
LAYER_7
 10
133.8492
 20
0.3333
 42
-0.01509702754
  0
VERTEX
  8
LAYER_7
 10
133.9987
 20
0.3376
 42
-0.1039813645
  0
VERTEX
  8
LAYER_7
 10
134.8741
 20
0.1618
 42
-0.1145898629
  0
VERTEX
  8
LAYER_7
 10
135.4471
 20
-0.2739
 42
-0.1701856296
  0
VERTEX
  8
LAYER_7
 10
135.7859
 20
-1.2334
 42
-0.006054360336
  0
VERTEX
  8
LAYER_7
 10
135.7864
 20
-1.2774
 42
-0.1147423235
  0
VERTEX
  8
LAYER_7
 10
135.6161
 20
-2.0449
 42
-0.1769022546
  0
VERTEX
  8
LAYER_7
 10
134.889
 20
-2.7221
 42
-0.03554750027
  0
VERTEX
  8
LAYER_7
 10
134.6498
 20
-2.8071
  0
VERTEX
  8
LAYER_7
 10
134.6498
 20
-2.826
 42
0.01550615466
  0
VERTEX
  8
LAYER_7
 10
135.8163
 20
-3.0296
  0
SEQEND
  0
POLYLINE
  8
LAYER_7
 40
0.05
 41
0.05
 66
1
 10
0
 20
0
 30
0
 70
1
  0
VERTEX
  8
LAYER_7
 10
135.242
 20
-1.2957
 42
0.1259362341
  0
VERTEX
  8
LAYER_7
 10
135.0661
 20
-0.6047
 42
0.276679865
  0
VERTEX
  8
LAYER_7
 10
133.9805
 20
0.0014
 42
0.1289955121
  0
VERTEX
  8
LAYER_7
 10
133.2944
 20
-0.169
 42
0.1986420642
  0
VERTEX
  8
LAYER_7
 10
132.7484
 20
-0.8931
 42
0.0720917222
  0
VERTEX
  8
LAYER_7
 10
132.6903
 20
-1.3336
 42
0.1266906031
  0
VERTEX
  8
LAYER_7
 10
132.8535
 20
-1.9998
 42
0.2778283058
  0
VERTEX
  8
LAYER_7
 10
133.957
 20
-2.6228
 42
0.1289619697
  0
VERTEX
  8
LAYER_7
 10
134.6333
 20
-2.4541
 42
0.197407087
  0
VERTEX
  8
LAYER_7
 10
135.1812
 20
-1.7353
 42
0.07132386385
  0
SEQEND
  0
ENDBLK
  0
BLOCK
  8
LAYER_7
  2
AIGNBL07040008
 70
64
 10
0
 20
0
 30
0
  3
AIGNBL07040008
  0
POLYLINE
  8
LAYER_7
 40
0.05
 41
0.05
 66
1
 10
0
 20
0
 30
0
 70
1
  0
VERTEX
  8
LAYER_7
 10
136.9115
 20
0.2856
  0
VERTEX
  8
LAYER_7
 10
136.9115
 20
-1.604
 42
0.138981145
  0
VERTEX
  8
LAYER_7
 10
137.0775
 20
-2.2603
 42
0.2426831429
  0
VERTEX
  8
LAYER_7
 10
137.7307
 20
-2.6183
 42
0.02279944991
  0
VERTEX
  8
LAYER_7
 10
137.841
 20
-2.6228
 42
0.1446978164
  0
VERTEX
  8
LAYER_7
 10
138.4458
 20
-2.4624
 42
0.1656419574
  0
VERTEX
  8
LAYER_7
 10
138.7434
 20
-2.0609
 42
0.08654413867
  0
VERTEX
  8
LAYER_7
 10
138.8119
 20
-1.604
  0
VERTEX
  8
LAYER_7
 10
138.8119
 20
0.2856
  0
VERTEX
  8
LAYER_7
 10
139.3328
 20
0.2856
  0
VERTEX
  8
LAYER_7
 10
139.3328
 20
-1.5758
 42
-0.1213960252
  0
VERTEX
  8
LAYER_7
 10
139.1651
 20
-2.3157
 42
-0.2016266738
  0
VERTEX
  8
LAYER_7
 10
138.4576
 20
-2.87
 42
-0.07892314617
  0
VERTEX
  8
LAYER_7
 10
137.8231
 20
-2.9586
 42
-0.1140673463
  0
VERTEX
  8
LAYER_7
 10
137.0107
 20
-2.7878
 42
-0.2086854916
  0
VERTEX
  8
LAYER_7
 10
136.4579
 20
-2.1056
 42
-0.07376116688
  0
VERTEX
  8
LAYER_7
 10
136.3906
 20
-1.5944
  0
VERTEX
  8
LAYER_7
 10
136.3906
 20
0.2856
  0
SEQEND
  0
ENDBLK
  0
BLOCK
  8
LAYER_7
  2
AIGNBL07040009
 70
64
 10
0
 20
0
 30
0
  3
AIGNBL07040009
  0
POLYLINE
  8
LAYER_7
 40
0.05
 41
0.05
 66
1
 10
0
 20
0
 30
0
 70
1
  0
VERTEX
  8
LAYER_7
 10
140.8131
 20
-1.9017
  0
VERTEX
  8
LAYER_7
 10
140.3983
 20
-2.9063
  0
VERTEX
  8
LAYER_7
 10
139.8661
 20
-2.9063
  0
VERTEX
  8
LAYER_7
 10
141.2217
 20
0.2856
  0
VERTEX
  8
LAYER_7
 10
141.8428
 20
0.2856
  0
VERTEX
  8
LAYER_7
 10
143.2047
 20
-2.9063
  0
VERTEX
  8
LAYER_7
 10
142.6542
 20
-2.9063
  0
VERTEX
  8
LAYER_7
 10
142.228
 20
-1.9017
  0
SEQEND
  0
POLYLINE
  8
LAYER_7
 40
0.05
 41
0.05
 66
1
 10
0
 20
0
 30
0
 70
1
  0
VERTEX
  8
LAYER_7
 10
142.1212
 20
-1.5806
  0
VERTEX
  8
LAYER_7
 10
141.7302
 20
-0.6611
 42
-0.02125651819
  0
VERTEX
  8
LAYER_7
 10
141.5228
 20
-0.0789
  0
VERTEX
  8
LAYER_7
 10
141.5111
 20
-0.0789
 42
-0.02103918769
  0
VERTEX
  8
LAYER_7
 10
141.3099
 20
-0.6573
  0
VERTEX
  8
LAYER_7
 10
140.9192
 20
-1.5806
  0
SEQEND
  0
ENDBLK
  0
BLOCK
  8
LAYER_7
  2
AIGNBL0704000A
 70
64
 10
0
 20
0
 30
0
  3
AIGNBL0704000A
  0
POLYLINE
  8
LAYER_7
 40
0.05
 41
0.05
 66
1
 10
0
 20
0
 30
0
 70
1
  0
VERTEX
  8
LAYER_7
 10
144.0866
 20
0.2477
 42
-0.03323004622
  0
VERTEX
  8
LAYER_7
 10
145.0757
 20
0.3097
 42
-0.09650604132
  0
VERTEX
  8
LAYER_7
 10
146.0056
 20
0.1514
 42
-0.05239648876
  0
VERTEX
  8
LAYER_7
 10
146.1943
 20
0.0444
 42
-0.2475475663
  0
VERTEX
  8
LAYER_7
 10
146.5433
 20
-0.6236
 42
-0.1633493674
  0
VERTEX
  8
LAYER_7
 10
146.3723
 20
-1.1652
 42
-0.05697336531
  0
VERTEX
  8
LAYER_7
 10
146.2357
 20
-1.3053
 42
-0.1301814771
  0
VERTEX
  8
LAYER_7
 10
145.5827
 20
-1.6002
 42
-0.05286501804
  0
VERTEX
  8
LAYER_7
 10
145.0161
 20
-1.6561
 42
-0.0589106892
  0
VERTEX
  8
LAYER_7
 10
144.602
 20
-1.6275
  0
VERTEX
  8
LAYER_7
 10
144.602
 20
-2.9063
  0
VERTEX
  8
LAYER_7
 10
144.0866
 20
-2.9063
  0
SEQEND
  0
POLYLINE
  8
LAYER_7
 40
0.05
 41
0.05
 66
1
 10
0
 20
0
 30
0
 70
1
  0
VERTEX
  8
LAYER_7
 10
144.602
 20
-1.2912
 42
0.04848394292
  0
VERTEX
  8
LAYER_7
 10
145.0278
 20
-1.3246
 42
0.1267241775
  0
VERTEX
  8
LAYER_7
 10
145.737
 20
-1.1646
 42
0.1801713856
  0
VERTEX
  8
LAYER_7
 10
146.0018
 20
-0.8343
 42
0.07354410889
  0
VERTEX
  8
LAYER_7
 10
146.029
 20
-0.6425
 42
0.3108550011
  0
VERTEX
  8
LAYER_7
 10
145.6717
 20
-0.1192
 42
0.1110538748
  0
VERTEX
  8
LAYER_7
 10
145.0878
 20
-0.0176
 42
0.05507706355
  0
VERTEX
  8
LAYER_7
 10
144.602
 20
-0.0506
  0
SEQEND
  0
ENDBLK
  0
BLOCK
  8
LAYER_7
  2
AIGNBL0704000B
 70
64
 10
0
 20
0
 30
0
  3
AIGNBL0704000B
  0
POLYLINE
  8
LAYER_7
 40
0.05
 41
0.05
 66
1
 10
0
 20
0
 30
0
 70
1
  0
VERTEX
  8
LAYER_7
 10
147.859
 20
0.03
 42
-0.3245339907
  0
VERTEX
  8
LAYER_7
 10
147.6969
 20
-0.1954
 42
-0.09620347437
  0
VERTEX
  8
LAYER_7
 10
147.5269
 20
-0.226
 42
-0.2676237393
  0
VERTEX
  8
LAYER_7
 10
147.2363
 20
-0.0702
 42
-0.1146413536
  0
VERTEX
  8
LAYER_7
 10
147.2131
 20
0.03
 42
-0.3124013774
  0
VERTEX
  8
LAYER_7
 10
147.3861
 20
0.2622
 42
-0.09436570029
  0
VERTEX
  8
LAYER_7
 10
147.5386
 20
0.2901
 42
-0.2690720095
  0
VERTEX
  8
LAYER_7
 10
147.8351
 20
0.1355
 42
-0.1137202002
  0
SEQEND
  0
POLYLINE
  8
LAYER_7
 40
0.05
 41
0.05
 66
1
 10
0
 20
0
 30
0
 70
1
  0
VERTEX
  8
LAYER_7
 10
147.2778
 20
-2.9063
  0
VERTEX
  8
LAYER_7
 10
147.2778
 20
-0.6143
  0
VERTEX
  8
LAYER_7
 10
147.7987
 20
-0.6143
  0
VERTEX
  8
LAYER_7
 10
147.7987
 20
-2.9063
  0
SEQEND
  0
ENDBLK
  0
BLOCK
  8
LAYER_7
  2
AIGNBL0704000C
 70
64
 10
0
 20
0
 30
0
  3
AIGNBL0704000C
  0
POLYLINE
  8
LAYER_7
 40
0.05
 41
0.05
 66
1
 10
0
 20
0
 30
0
 70
1
  0
VERTEX
  8
LAYER_7
 10
149.3852
 20
-1.9017
  0
VERTEX
  8
LAYER_7
 10
148.9714
 20
-2.9063
  0
VERTEX
  8
LAYER_7
 10
148.4381
 20
-2.9063
  0
VERTEX
  8
LAYER_7
 10
149.7941
 20
0.2856
  0
VERTEX
  8
LAYER_7
 10
150.416
 20
0.2856
  0
VERTEX
  8
LAYER_7
 10
151.7778
 20
-2.9063
  0
VERTEX
  8
LAYER_7
 10
151.2269
 20
-2.9063
  0
VERTEX
  8
LAYER_7
 10
150.8008
 20
-1.9017
  0
SEQEND
  0
POLYLINE
  8
LAYER_7
 40
0.05
 41
0.05
 66
1
 10
0
 20
0
 30
0
 70
1
  0
VERTEX
  8
LAYER_7
 10
150.694
 20
-1.5806
  0
VERTEX
  8
LAYER_7
 10
150.3033
 20
-0.6611
 42
-0.02374663041
  0
VERTEX
  8
LAYER_7
 10
150.0966
 20
-0.0789
  0
VERTEX
  8
LAYER_7
 10
150.0842
 20
-0.0789
  0
VERTEX
  8
LAYER_7
 10
149.883
 20
-0.6573
  0
VERTEX
  8
LAYER_7
 10
149.4923
 20
-1.5806
  0
SEQEND
  0
ENDBLK
  0
BLOCK
  8
LAYER_7
  2
AIGNBL07030005
 70
64
 10
0
 20
0
 30
0
  3
AIGNBL07030005
  0
INSERT
  8
LAYER_7
  2
AIGNBL07040006
 10
0
 20
0
 30
0
  0
INSERT
  8
LAYER_7
  2
AIGNBL07040007
 10
0
 20
0
 30
0
  0
INSERT
  8
LAYER_7
  2
AIGNBL07040008
 10
0
 20
0
 30
0
  0
INSERT
  8
LAYER_7
  2
AIGNBL07040009
 10
0
 20
0
 30
0
  0
INSERT
  8
LAYER_7
  2
AIGNBL0704000A
 10
0
 20
0
 30
0
  0
INSERT
  8
LAYER_7
  2
AIGNBL0704000B
 10
0
 20
0
 30
0
  0
INSERT
  8
LAYER_7
  2
AIGNBL0704000C
 10
0
 20
0
 30
0
  0
ENDBLK
  0
BLOCK
  8
LAYER_7
  2
AIGNBL0703000E
 70
64
 10
0
 20
0
 30
0
  3
AIGNBL0703000E
  0
POLYLINE
  8
LAYER_7
 40
0.05
 41
0.05
 66
1
 10
0
 20
0
 30
0
 70
1
  0
VERTEX
  8
LAYER_7
 10
128.7222
 20
-4.5162
  0
VERTEX
  8
LAYER_7
 10
129.1914
 20
-4.5162
  0
VERTEX
  8
LAYER_7
 10
129.1914
 20
-4.5958
  0
VERTEX
  8
LAYER_7
 10
128.6333
 20
-4.5958
  0
VERTEX
  8
LAYER_7
 10
128.6333
 20
-3.72
  0
VERTEX
  8
LAYER_7
 10
129.1763
 20
-3.72
  0
VERTEX
  8
LAYER_7
 10
129.1763
 20
-3.7989
  0
VERTEX
  8
LAYER_7
 10
128.7222
 20
-3.7989
  0
VERTEX
  8
LAYER_7
 10
128.7222
 20
-4.0993
  0
VERTEX
  8
LAYER_7
 10
129.1466
 20
-4.0993
  0
VERTEX
  8
LAYER_7
 10
129.1466
 20
-4.1786
  0
VERTEX
  8
LAYER_7
 10
128.7222
 20
-4.1786
  0
SEQEND
  0
ENDBLK
  0
BLOCK
  8
LAYER_7
  2
AIGNBL0703000F
 70
64
 10
0
 20
0
 30
0
  3
AIGNBL0703000F
  0
POLYLINE
  8
LAYER_7
 40
0.05
 41
0.05
 66
1
 10
0
 20
0
 30
0
 70
1
  0
VERTEX
  8
LAYER_7
 10
130.1574
 20
-4.4655
  0
VERTEX
  8
LAYER_7
 10
130.1595
 20
-4.4655
  0
VERTEX
  8
LAYER_7
 10
130.1595
 20
-3.72
  0
VERTEX
  8
LAYER_7
 10
130.2487
 20
-3.72
  0
VERTEX
  8
LAYER_7
 10
130.2487
 20
-4.5958
  0
VERTEX
  8
LAYER_7
 10
130.1378
 20
-4.5958
  0
VERTEX
  8
LAYER_7
 10
129.6283
 20
-3.8423
  0
VERTEX
  8
LAYER_7
 10
129.6252
 20
-3.8423
  0
VERTEX
  8
LAYER_7
 10
129.6252
 20
-4.5958
  0
VERTEX
  8
LAYER_7
 10
129.5366
 20
-4.5958
  0
VERTEX
  8
LAYER_7
 10
129.5366
 20
-3.72
  0
VERTEX
  8
LAYER_7
 10
129.6476
 20
-3.72
  0
SEQEND
  0
ENDBLK
  0
BLOCK
  8
LAYER_7
  2
AIGNBL07030010
 70
64
 10
0
 20
0
 30
0
  3
AIGNBL07030010
  0
POLYLINE
  8
LAYER_7
 40
0.05
 41
0.05
 66
1
 10
0
 20
0
 30
0
 70
1
  0
VERTEX
  8
LAYER_7
 10
130.6497
 20
-4.4159
 42
0.1576719028
  0
VERTEX
  8
LAYER_7
 10
130.6959
 20
-4.5034
 42
0.1888509688
  0
VERTEX
  8
LAYER_7
 10
130.7917
 20
-4.5386
  0
VERTEX
  8
LAYER_7
 10
130.8675
 20
-4.522
  0
VERTEX
  8
LAYER_7
 10
130.915
 20
-4.4769
  0
VERTEX
  8
LAYER_7
 10
130.9395
 20
-4.4118
  0
VERTEX
  8
LAYER_7
 10
130.9467
 20
-4.336
  0
VERTEX
  8
LAYER_7
 10
130.9467
 20
-3.72
  0
VERTEX
  8
LAYER_7
 10
131.0356
 20
-3.72
  0
VERTEX
  8
LAYER_7
 10
131.0356
 20
-4.3432
  0
VERTEX
  8
LAYER_7
 10
131.0259
 20
-4.4345
  0
VERTEX
  8
LAYER_7
 10
130.9908
 20
-4.5238
 42
-0.1134018777
  0
VERTEX
  8
LAYER_7
 10
130.9191
 20
-4.5913
 42
-0.1226010698
  0
VERTEX
  8
LAYER_7
 10
130.8013
 20
-4.6178
 42
-0.1818698991
  0
VERTEX
  8
LAYER_7
 10
130.6449
 20
-4.5668
 42
-0.1775350534
  0
VERTEX
  8
LAYER_7
 10
130.5667
 20
-4.4387
  0
SEQEND
  0
ENDBLK
  0
BLOCK
  8
LAYER_7
  2
AIGNBL07030011
 70
64
 10
0
 20
0
 30
0
  3
AIGNBL07030011
  0
POLYLINE
  8
LAYER_7
 40
0.05
 41
0.05
 66
1
 10
0
 20
0
 30
0
 70
1
  0
VERTEX
  8
LAYER_7
 10
132.2972
 20
-4.1575
 42
-0.1021274882
  0
VERTEX
  8
LAYER_7
 10
132.2624
 20
-4.3419
 42
-0.09952766962
  0
VERTEX
  8
LAYER_7
 10
132.167
 20
-4.4872
 42
-0.09570319659
  0
VERTEX
  8
LAYER_7
 10
132.0219
 20
-4.583
 42
-0.09730113973
  0
VERTEX
  8
LAYER_7
 10
131.8407
 20
-4.6178
 42
-0.1005044879
  0
VERTEX
  8
LAYER_7
 10
131.6595
 20
-4.583
 42
-0.1000956886
  0
VERTEX
  8
LAYER_7
 10
131.5148
 20
-4.4872
 42
-0.09687374103
  0
VERTEX
  8
LAYER_7
 10
131.4187
 20
-4.3419
 42
-0.09598276585
  0
VERTEX
  8
LAYER_7
 10
131.3842
 20
-4.1575
 42
-0.1007319707
  0
VERTEX
  8
LAYER_7
 10
131.4187
 20
-3.9732
 42
-0.09980706139
  0
VERTEX
  8
LAYER_7
 10
131.5148
 20
-3.8278
 42
-0.09759632467
  0
VERTEX
  8
LAYER_7
 10
131.6595
 20
-3.7321
 42
-0.09730113973
  0
VERTEX
  8
LAYER_7
 10
131.8407
 20
-3.6973
 42
-0.1005044879
  0
VERTEX
  8
LAYER_7
 10
132.0219
 20
-3.7321
 42
-0.09857025753
  0
VERTEX
  8
LAYER_7
 10
132.167
 20
-3.8278
 42
-0.09607437688
  0
VERTEX
  8
LAYER_7
 10
132.2624
 20
-3.9732
 42
-0.09699716326
  0
SEQEND
  0
POLYLINE
  8
LAYER_7
 40
0.05
 41
0.05
 66
1
 10
0
 20
0
 30
0
 70
1
  0
VERTEX
  8
LAYER_7
 10
132.2031
 20
-4.1582
 42
0.0856281229
  0
VERTEX
  8
LAYER_7
 10
132.1787
 20
-4.0125
 42
0.09671154951
  0
VERTEX
  8
LAYER_7
 10
132.1067
 20
-3.8909
 42
0.1026314629
  0
VERTEX
  8
LAYER_7
 10
131.9923
 20
-3.8079
 42
0.1067618795
  0
VERTEX
  8
LAYER_7
 10
131.8407
 20
-3.7765
 42
0.1143436986
  0
VERTEX
  8
LAYER_7
 10
131.6891
 20
-3.8079
 42
0.1065055988
  0
VERTEX
  8
LAYER_7
 10
131.5751
 20
-3.8909
 42
0.09706696705
  0
VERTEX
  8
LAYER_7
 10
131.5031
 20
-4.0125
 42
0.08453032616
  0
VERTEX
  8
LAYER_7
 10
131.4783
 20
-4.1582
 42
0.08539697836
  0
VERTEX
  8
LAYER_7
 10
131.5031
 20
-4.304
 42
0.1012181166
  0
VERTEX
  8
LAYER_7
 10
131.5751
 20
-4.4252
 42
0.09889595573
  0
VERTEX
  8
LAYER_7
 10
131.6891
 20
-4.5076
 42
0.105851816
  0
VERTEX
  8
LAYER_7
 10
131.8407
 20
-4.5386
 42
0.1147284683
  0
VERTEX
  8
LAYER_7
 10
131.9923
 20
-4.5076
 42
0.1060927675
  0
VERTEX
  8
LAYER_7
 10
132.1067
 20
-4.4252
 42
0.09368815098
  0
VERTEX
  8
LAYER_7
 10
132.1787
 20
-4.304
 42
0.0834821187
  0
SEQEND
  0
ENDBLK
  0
BLOCK
  8
LAYER_7
  2
AIGNBL07030012
 70
64
 10
0
 20
0
 30
0
  3
AIGNBL07030012
  0
POLYLINE
  8
LAYER_7
 40
0.05
 41
0.05
 66
1
 10
0
 20
0
 30
0
 70
1
  0
VERTEX
  8
LAYER_7
 10
132.9538
 20
-4.5958
  0
VERTEX
  8
LAYER_7
 10
132.8649
 20
-4.5958
  0
VERTEX
  8
LAYER_7
 10
132.8649
 20
-4.2182
  0
VERTEX
  8
LAYER_7
 10
132.5373
 20
-3.72
  0
VERTEX
  8
LAYER_7
 10
132.6486
 20
-3.72
  0
VERTEX
  8
LAYER_7
 10
132.9121
 20
-4.1438
  0
VERTEX
  8
LAYER_7
 10
133.1777
 20
-3.72
  0
VERTEX
  8
LAYER_7
 10
133.2814
 20
-3.72
  0
VERTEX
  8
LAYER_7
 10
132.9538
 20
-4.2182
  0
SEQEND
  0
ENDBLK
  0
BLOCK
  8
LAYER_7
  2
AIGNBL07030013
 70
64
 10
0
 20
0
 30
0
  3
AIGNBL07030013
  0
POLYLINE
  8
LAYER_7
 40
0.05
 41
0.05
 66
1
 10
0
 20
0
 30
0
 70
1
  0
VERTEX
  8
LAYER_7
 10
134.0487
 20
-3.72
  0
VERTEX
  8
LAYER_7
 10
134.3095
 20
-3.72
  0
VERTEX
  8
LAYER_7
 10
134.4097
 20
-3.7303
  0
VERTEX
  8
LAYER_7
 10
134.5003
 20
-3.7662
 42
-0.1147500987
  0
VERTEX
  8
LAYER_7
 10
134.5665
 20
-3.8351
 42
-0.1209575962
  0
VERTEX
  8
LAYER_7
 10
134.5916
 20
-3.9436
 42
-0.179677182
  0
VERTEX
  8
LAYER_7
 10
134.5492
 20
-4.0642
 42
-0.1667916725
  0
VERTEX
  8
LAYER_7
 10
134.4362
 20
-4.1317
  0
VERTEX
  8
LAYER_7
 10
134.4362
 20
-4.1338
 42
-0.1720976719
  0
VERTEX
  8
LAYER_7
 10
134.5775
 20
-4.2003
 42
-0.1997018961
  0
VERTEX
  8
LAYER_7
 10
134.6336
 20
-4.3532
 42
-0.1266512869
  0
VERTEX
  8
LAYER_7
 10
134.6106
 20
-4.4524
 42
-0.1160438033
  0
VERTEX
  8
LAYER_7
 10
134.5458
 20
-4.5293
 42
-0.08593783818
  0
VERTEX
  8
LAYER_7
 10
134.4435
 20
-4.5782
 42
-0.06488316042
  0
VERTEX
  8
LAYER_7
 10
134.3081
 20
-4.5958
  0
VERTEX
  8
LAYER_7
 10
134.0487
 20
-4.5958
  0
SEQEND
  0
POLYLINE
  8
LAYER_7
 40
0.05
 41
0.05
 66
1
 10
0
 20
0
 30
0
 70
1
  0
VERTEX
  8
LAYER_7
 10
134.1375
 20
-4.1031
  0
VERTEX
  8
LAYER_7
 10
134.317
 20
-4.1031
  0
VERTEX
  8
LAYER_7
 10
134.3822
 20
-4.0955
  0
VERTEX
  8
LAYER_7
 10
134.4418
 20
-4.0707
  0
VERTEX
  8
LAYER_7
 10
134.4858
 20
-4.0228
 42
0.1131003852
  0
VERTEX
  8
LAYER_7
 10
134.5024
 20
-3.9498
  0
VERTEX
  8
LAYER_7
 10
134.4858
 20
-3.8788
  0
VERTEX
  8
LAYER_7
 10
134.4407
 20
-3.8309
  0
VERTEX
  8
LAYER_7
 10
134.3739
 20
-3.8044
  0
VERTEX
  8
LAYER_7
 10
134.2922
 20
-3.7965
  0
VERTEX
  8
LAYER_7
 10
134.1375
 20
-3.7965
  0
SEQEND
  0
POLYLINE
  8
LAYER_7
 40
0.05
 41
0.05
 66
1
 10
0
 20
0
 30
0
 70
1
  0
VERTEX
  8
LAYER_7
 10
134.1375
 20
-4.5189
  0
VERTEX
  8
LAYER_7
 10
134.3036
 20
-4.5189
  0
VERTEX
  8
LAYER_7
 10
134.3956
 20
-4.5093
  0
VERTEX
  8
LAYER_7
 10
134.4724
 20
-4.48
  0
VERTEX
  8
LAYER_7
 10
134.5244
 20
-4.4266
 42
0.1281406861
  0
VERTEX
  8
LAYER_7
 10
134.5444
 20
-4.3481
 42
0.2512555223
  0
VERTEX
  8
LAYER_7
 10
134.4858
 20
-4.2189
 42
0.1507360226
  0
VERTEX
  8
LAYER_7
 10
134.3194
 20
-4.1761
  0
VERTEX
  8
LAYER_7
 10
134.1375
 20
-4.1761
  0
SEQEND
  0
ENDBLK
  0
BLOCK
  8
LAYER_7
  2
AIGNBL07030014
 70
64
 10
0
 20
0
 30
0
  3
AIGNBL07030014
  0
POLYLINE
  8
LAYER_7
 40
0.05
 41
0.05
 66
1
 10
0
 20
0
 30
0
 70
1
  0
VERTEX
  8
LAYER_7
 10
134.9999
 20
-4.5958
  0
VERTEX
  8
LAYER_7
 10
134.902
 20
-4.5958
  0
VERTEX
  8
LAYER_7
 10
135.2806
 20
-3.72
  0
VERTEX
  8
LAYER_7
 10
135.3674
 20
-3.72
  0
VERTEX
  8
LAYER_7
 10
135.7433
 20
-4.5958
  0
VERTEX
  8
LAYER_7
 10
135.6441
 20
-4.5958
  0
VERTEX
  8
LAYER_7
 10
135.5476
 20
-4.3656
  0
VERTEX
  8
LAYER_7
 10
135.0949
 20
-4.3656
  0
SEQEND
  0
POLYLINE
  8
LAYER_7
 40
0.05
 41
0.05
 66
1
 10
0
 20
0
 30
0
 70
1
  0
VERTEX
  8
LAYER_7
 10
135.128
 20
-4.2836
  0
VERTEX
  8
LAYER_7
 10
135.5142
 20
-4.2836
  0
VERTEX
  8
LAYER_7
 10
135.3213
 20
-3.8185
  0
SEQEND
  0
ENDBLK
  0
BLOCK
  8
LAYER_7
  2
AIGNBL07030015
 70
64
 10
0
 20
0
 30
0
  3
AIGNBL07030015
  0
POLYLINE
  8
LAYER_7
 40
0.05
 41
0.05
 66
1
 10
0
 20
0
 30
0
 70
1
  0
VERTEX
  8
LAYER_7
 10
136.3235
 20
-4.5958
  0
VERTEX
  8
LAYER_7
 10
136.2342
 20
-4.5958
  0
VERTEX
  8
LAYER_7
 10
136.2342
 20
-3.7989
  0
VERTEX
  8
LAYER_7
 10
135.9407
 20
-3.7989
  0
VERTEX
  8
LAYER_7
 10
135.9407
 20
-3.72
  0
VERTEX
  8
LAYER_7
 10
136.6163
 20
-3.72
  0
VERTEX
  8
LAYER_7
 10
136.6163
 20
-3.7989
  0
VERTEX
  8
LAYER_7
 10
136.3235
 20
-3.7989
  0
SEQEND
  0
ENDBLK
  0
BLOCK
  8
LAYER_7
  2
AIGNBL07030016
 70
64
 10
0
 20
0
 30
0
  3
AIGNBL07030016
  0
POLYLINE
  8
LAYER_7
 40
0.05
 41
0.05
 66
1
 10
0
 20
0
 30
0
 70
1
  0
VERTEX
  8
LAYER_7
 10
136.9181
 20
-3.72
  0
VERTEX
  8
LAYER_7
 10
137.007
 20
-3.72
  0
VERTEX
  8
LAYER_7
 10
137.007
 20
-4.0993
  0
VERTEX
  8
LAYER_7
 10
137.4848
 20
-4.0993
  0
VERTEX
  8
LAYER_7
 10
137.4848
 20
-3.72
  0
VERTEX
  8
LAYER_7
 10
137.5737
 20
-3.72
  0
VERTEX
  8
LAYER_7
 10
137.5737
 20
-4.5958
  0
VERTEX
  8
LAYER_7
 10
137.4848
 20
-4.5958
  0
VERTEX
  8
LAYER_7
 10
137.4848
 20
-4.181
  0
VERTEX
  8
LAYER_7
 10
137.007
 20
-4.181
  0
VERTEX
  8
LAYER_7
 10
137.007
 20
-4.5958
  0
VERTEX
  8
LAYER_7
 10
136.9181
 20
-4.5958
  0
SEQEND
  0
ENDBLK
  0
BLOCK
  8
LAYER_7
  2
AIGNBL07030017
 70
64
 10
0
 20
0
 30
0
  3
AIGNBL07030017
  0
POLYLINE
  8
LAYER_7
 40
0.05
 41
0.05
 66
1
 10
0
 20
0
 30
0
 70
1
  0
VERTEX
  8
LAYER_7
 10
138.0656
 20
-4.5958
  0
VERTEX
  8
LAYER_7
 10
137.9768
 20
-4.5958
  0
VERTEX
  8
LAYER_7
 10
137.9768
 20
-3.72
  0
VERTEX
  8
LAYER_7
 10
138.2341
 20
-3.72
  0
VERTEX
  8
LAYER_7
 10
138.3533
 20
-3.7321
  0
VERTEX
  8
LAYER_7
 10
138.4487
 20
-3.7724
 42
-0.1287326038
  0
VERTEX
  8
LAYER_7
 10
138.5111
 20
-3.8447
 42
-0.1051781119
  0
VERTEX
  8
LAYER_7
 10
138.5331
 20
-3.9536
  0
VERTEX
  8
LAYER_7
 10
138.5163
 20
-4.0414
  0
VERTEX
  8
LAYER_7
 10
138.4694
 20
-4.11
  0
VERTEX
  8
LAYER_7
 10
138.3988
 20
-4.1565
  0
VERTEX
  8
LAYER_7
 10
138.3096
 20
-4.1786
  0
VERTEX
  8
LAYER_7
 10
138.5655
 20
-4.5958
  0
VERTEX
  8
LAYER_7
 10
138.4567
 20
-4.5958
  0
VERTEX
  8
LAYER_7
 10
138.2145
 20
-4.1861
  0
VERTEX
  8
LAYER_7
 10
138.0656
 20
-4.1861
  0
SEQEND
  0
POLYLINE
  8
LAYER_7
 40
0.05
 41
0.05
 66
1
 10
0
 20
0
 30
0
 70
1
  0
VERTEX
  8
LAYER_7
 10
138.0656
 20
-4.1093
  0
VERTEX
  8
LAYER_7
 10
138.2207
 20
-4.1093
 42
0.1560036385
  0
VERTEX
  8
LAYER_7
 10
138.3864
 20
-4.0707
 42
0.256718439
  0
VERTEX
  8
LAYER_7
 10
138.4446
 20
-3.9536
  0
VERTEX
  8
LAYER_7
 10
138.4281
 20
-3.8809
  0
VERTEX
  8
LAYER_7
 10
138.3836
 20
-3.8323
  0
VERTEX
  8
LAYER_7
 10
138.3147
 20
-3.8051
  0
VERTEX
  8
LAYER_7
 10
138.2245
 20
-3.7965
  0
VERTEX
  8
LAYER_7
 10
138.0656
 20
-3.7965
  0
SEQEND
  0
ENDBLK
  0
BLOCK
  8
LAYER_7
  2
AIGNBL07030018
 70
64
 10
0
 20
0
 30
0
  3
AIGNBL07030018
  0
POLYLINE
  8
LAYER_7
 40
0.05
 41
0.05
 66
1
 10
0
 20
0
 30
0
 70
1
  0
VERTEX
  8
LAYER_7
 10
139.7541
 20
-4.1575
 42
-0.09900850835
  0
VERTEX
  8
LAYER_7
 10
139.7196
 20
-4.3419
 42
-0.1000740523
  0
VERTEX
  8
LAYER_7
 10
139.6235
 20
-4.4872
 42
-0.09817592867
  0
VERTEX
  8
LAYER_7
 10
139.4792
 20
-4.583
 42
-0.09703887645
  0
VERTEX
  8
LAYER_7
 10
139.2976
 20
-4.6178
 42
-0.1005044879
  0
VERTEX
  8
LAYER_7
 10
139.1164
 20
-4.583
 42
-0.1014225475
  0
VERTEX
  8
LAYER_7
 10
138.9721
 20
-4.4872
 42
-0.1004968111
  0
VERTEX
  8
LAYER_7
 10
138.8763
 20
-4.3419
 42
-0.09598276585
  0
VERTEX
  8
LAYER_7
 10
138.8418
 20
-4.1575
 42
-0.1007319707
  0
VERTEX
  8
LAYER_7
 10
138.8763
 20
-3.9732
 42
-0.1012197328
  0
VERTEX
  8
LAYER_7
 10
138.9721
 20
-3.8278
 42
-0.09799567145
  0
VERTEX
  8
LAYER_7
 10
139.1164
 20
-3.7321
 42
-0.09730113973
  0
VERTEX
  8
LAYER_7
 10
139.2976
 20
-3.6973
 42
-0.1004491736
  0
VERTEX
  8
LAYER_7
 10
139.4792
 20
-3.7321
 42
-0.1027665873
  0
VERTEX
  8
LAYER_7
 10
139.6235
 20
-3.8278
 42
-0.09593168267
  0
VERTEX
  8
LAYER_7
 10
139.7196
 20
-3.9732
 42
-0.09519358797
  0
SEQEND
  0
POLYLINE
  8
LAYER_7
 40
0.05
 41
0.05
 66
1
 10
0
 20
0
 30
0
 70
1
  0
VERTEX
  8
LAYER_7
 10
139.66
 20
-4.1582
 42
0.09064614394
  0
VERTEX
  8
LAYER_7
 10
139.6352
 20
-4.0125
 42
0.09846723294
  0
VERTEX
  8
LAYER_7
 10
139.5636
 20
-3.8909
 42
0.1021717911
  0
VERTEX
  8
LAYER_7
 10
139.4492
 20
-3.8079
 42
0.1068382496
  0
VERTEX
  8
LAYER_7
 10
139.2976
 20
-3.7765
 42
0.1151780108
  0
VERTEX
  8
LAYER_7
 10
139.1464
 20
-3.8079
 42
0.1058591997
  0
VERTEX
  8
LAYER_7
 10
139.0317
 20
-3.8909
 42
0.09552005071
  0
VERTEX
  8
LAYER_7
 10
138.96
 20
-4.0125
 42
0.08419268652
  0
VERTEX
  8
LAYER_7
 10
138.9355
 20
-4.1582
 42
0.08886818036
  0
VERTEX
  8
LAYER_7
 10
138.96
 20
-4.304
 42
0.09765150327
  0
VERTEX
  8
LAYER_7
 10
139.0317
 20
-4.4252
 42
0.09894762084
  0
VERTEX
  8
LAYER_7
 10
139.1464
 20
-4.5076
 42
0.1060048418
  0
VERTEX
  8
LAYER_7
 10
139.2976
 20
-4.5386
 42
0.1155402185
  0
VERTEX
  8
LAYER_7
 10
139.4492
 20
-4.5076
 42
0.1034816397
  0
VERTEX
  8
LAYER_7
 10
139.5636
 20
-4.4252
 42
0.09853996684
  0
VERTEX
  8
LAYER_7
 10
139.6352
 20
-4.304
 42
0.08559935114
  0
SEQEND
  0
ENDBLK
  0
BLOCK
  8
LAYER_7
  2
AIGNBL07030019
 70
64
 10
0
 20
0
 30
0
  3
AIGNBL07030019
  0
POLYLINE
  8
LAYER_7
 40
0.05
 41
0.05
 66
1
 10
0
 20
0
 30
0
 70
1
  0
VERTEX
  8
LAYER_7
 10
140.9764
 20
-4.1575
 42
-0.1003658645
  0
VERTEX
  8
LAYER_7
 10
140.9416
 20
-4.3419
 42
-0.09796464032
  0
VERTEX
  8
LAYER_7
 10
140.8462
 20
-4.4872
 42
-0.09626167578
  0
VERTEX
  8
LAYER_7
 10
140.7011
 20
-4.583
 42
-0.09730113973
  0
VERTEX
  8
LAYER_7
 10
140.5199
 20
-4.6178
 42
-0.1010483144
  0
VERTEX
  8
LAYER_7
 10
140.3387
 20
-4.583
 42
-0.1015483086
  0
VERTEX
  8
LAYER_7
 10
140.194
 20
-4.4872
 42
-0.09687374103
  0
VERTEX
  8
LAYER_7
 10
140.0979
 20
-4.3419
 42
-0.09586276905
  0
VERTEX
  8
LAYER_7
 10
140.0635
 20
-4.1575
 42
-0.1009359332
  0
VERTEX
  8
LAYER_7
 10
140.0979
 20
-3.9732
 42
-0.09980706139
  0
VERTEX
  8
LAYER_7
 10
140.194
 20
-3.8278
 42
-0.09831412768
  0
VERTEX
  8
LAYER_7
 10
140.3387
 20
-3.7321
 42
-0.09743363976
  0
VERTEX
  8
LAYER_7
 10
140.5199
 20
-3.6973
 42
-0.1005044879
  0
VERTEX
  8
LAYER_7
 10
140.7011
 20
-3.7321
 42
-0.09857025753
  0
VERTEX
  8
LAYER_7
 10
140.8462
 20
-3.8278
 42
-0.09549044941
  0
VERTEX
  8
LAYER_7
 10
140.9416
 20
-3.9732
 42
-0.09626911005
  0
SEQEND
  0
POLYLINE
  8
LAYER_7
 40
0.05
 41
0.05
 66
1
 10
0
 20
0
 30
0
 70
1
  0
VERTEX
  8
LAYER_7
 10
140.8824
 20
-4.1582
 42
0.08716589771
  0
VERTEX
  8
LAYER_7
 10
140.8576
 20
-4.0125
 42
0.0974662867
  0
VERTEX
  8
LAYER_7
 10
140.7859
 20
-3.8909
 42
0.1021717911
  0
VERTEX
  8
LAYER_7
 10
140.6715
 20
-3.8079
 42
0.1064686014
  0
VERTEX
  8
LAYER_7
 10
140.5199
 20
-3.7765
 42
0.1153411493
  0
VERTEX
  8
LAYER_7
 10
140.3683
 20
-3.8079
 42
0.105328119
  0
VERTEX
  8
LAYER_7
 10
140.254
 20
-3.8909
 42
0.09840570806
  0
VERTEX
  8
LAYER_7
 10
140.1823
 20
-4.0125
 42
0.0849084194
  0
VERTEX
  8
LAYER_7
 10
140.1575
 20
-4.1582
 42
0.08802482071
  0
VERTEX
  8
LAYER_7
 10
140.1823
 20
-4.304
 42
0.1001537592
  0
VERTEX
  8
LAYER_7
 10
140.254
 20
-4.4252
 42
0.09914809706
  0
VERTEX
  8
LAYER_7
 10
140.3683
 20
-4.5076
 42
0.1058799299
  0
VERTEX
  8
LAYER_7
 10
140.5199
 20
-4.5386
 42
0.1144668818
  0
VERTEX
  8
LAYER_7
 10
140.6715
 20
-4.5076
 42
0.1034816397
  0
VERTEX
  8
LAYER_7
 10
140.7859
 20
-4.4252
 42
0.0931574303
  0
VERTEX
  8
LAYER_7
 10
140.8576
 20
-4.304
 42
0.08489455374
  0
SEQEND
  0
ENDBLK
  0
BLOCK
  8
LAYER_7
  2
AIGNBL0703001A
 70
64
 10
0
 20
0
 30
0
  3
AIGNBL0703001A
  0
POLYLINE
  8
LAYER_7
 40
0.05
 41
0.05
 66
1
 10
0
 20
0
 30
0
 70
1
  0
VERTEX
  8
LAYER_7
 10
141.7653
 20
-4.4445
  0
VERTEX
  8
LAYER_7
 10
141.7667
 20
-4.4445
  0
VERTEX
  8
LAYER_7
 10
142.0595
 20
-3.72
  0
VERTEX
  8
LAYER_7
 10
142.196
 20
-3.72
  0
VERTEX
  8
LAYER_7
 10
142.196
 20
-4.5958
  0
VERTEX
  8
LAYER_7
 10
142.1067
 20
-4.5958
  0
VERTEX
  8
LAYER_7
 10
142.1067
 20
-3.8351
  0
VERTEX
  8
LAYER_7
 10
142.1043
 20
-3.8351
  0
VERTEX
  8
LAYER_7
 10
141.7877
 20
-4.5958
  0
VERTEX
  8
LAYER_7
 10
141.7409
 20
-4.5958
  0
VERTEX
  8
LAYER_7
 10
141.4239
 20
-3.8351
  0
VERTEX
  8
LAYER_7
 10
141.4215
 20
-3.8351
  0
VERTEX
  8
LAYER_7
 10
141.4215
 20
-4.5958
  0
VERTEX
  8
LAYER_7
 10
141.3326
 20
-4.5958
  0
VERTEX
  8
LAYER_7
 10
141.3326
 20
-3.72
  0
VERTEX
  8
LAYER_7
 10
141.4687
 20
-3.72
  0
SEQEND
  0
ENDBLK
  0
BLOCK
  8
LAYER_7
  2
AIGNBL0703001B
 70
64
 10
0
 20
0
 30
0
  3
AIGNBL0703001B
  0
POLYLINE
  8
LAYER_7
 40
0.05
 41
0.05
 66
1
 10
0
 20
0
 30
0
 70
1
  0
VERTEX
  8
LAYER_7
 10
143.1678
 20
-4.5162
  0
VERTEX
  8
LAYER_7
 10
143.6367
 20
-4.5162
  0
VERTEX
  8
LAYER_7
 10
143.6367
 20
-4.5958
  0
VERTEX
  8
LAYER_7
 10
143.0786
 20
-4.5958
  0
VERTEX
  8
LAYER_7
 10
143.0786
 20
-3.72
  0
VERTEX
  8
LAYER_7
 10
143.6219
 20
-3.72
  0
VERTEX
  8
LAYER_7
 10
143.6219
 20
-3.7989
  0
VERTEX
  8
LAYER_7
 10
143.1678
 20
-3.7989
  0
VERTEX
  8
LAYER_7
 10
143.1678
 20
-4.0993
  0
VERTEX
  8
LAYER_7
 10
143.5919
 20
-4.0993
  0
VERTEX
  8
LAYER_7
 10
143.5919
 20
-4.1786
  0
VERTEX
  8
LAYER_7
 10
143.1678
 20
-4.1786
  0
SEQEND
  0
ENDBLK
  0
BLOCK
  8
LAYER_7
  2
AIGNBL0703001C
 70
64
 10
0
 20
0
 30
0
  3
AIGNBL0703001C
  0
POLYLINE
  8
LAYER_7
 40
0.05
 41
0.05
 66
1
 10
0
 20
0
 30
0
 70
1
  0
VERTEX
  8
LAYER_7
 10
144.2685
 20
-4.0735
  0
VERTEX
  8
LAYER_7
 10
144.5076
 20
-3.72
  0
VERTEX
  8
LAYER_7
 10
144.6134
 20
-3.72
  0
VERTEX
  8
LAYER_7
 10
144.3233
 20
-4.1365
  0
VERTEX
  8
LAYER_7
 10
144.6447
 20
-4.5958
  0
VERTEX
  8
LAYER_7
 10
144.5335
 20
-4.5958
  0
VERTEX
  8
LAYER_7
 10
144.2661
 20
-4.2009
  0
VERTEX
  8
LAYER_7
 10
144.0002
 20
-4.5958
  0
VERTEX
  8
LAYER_7
 10
143.8889
 20
-4.5958
  0
VERTEX
  8
LAYER_7
 10
144.2107
 20
-4.1355
  0
VERTEX
  8
LAYER_7
 10
143.9175
 20
-3.72
  0
VERTEX
  8
LAYER_7
 10
144.0288
 20
-3.72
  0
SEQEND
  0
ENDBLK
  0
BLOCK
  8
LAYER_7
  2
AIGNBL0703001D
 70
64
 10
0
 20
0
 30
0
  3
AIGNBL0703001D
  0
POLYLINE
  8
LAYER_7
 40
0.05
 41
0.05
 66
1
 10
0
 20
0
 30
0
 70
1
  0
VERTEX
  8
LAYER_7
 10
144.9551
 20
-3.72
  0
VERTEX
  8
LAYER_7
 10
145.2029
 20
-3.72
  0
VERTEX
  8
LAYER_7
 10
145.3241
 20
-3.7338
  0
VERTEX
  8
LAYER_7
 10
145.4171
 20
-3.7775
 42
-0.1196760771
  0
VERTEX
  8
LAYER_7
 10
145.4774
 20
-3.8502
 42
-0.1008071579
  0
VERTEX
  8
LAYER_7
 10
145.4981
 20
-3.9536
 42
-0.1234224821
  0
VERTEX
  8
LAYER_7
 10
145.4767
 20
-4.0569
 42
-0.1135718983
  0
VERTEX
  8
LAYER_7
 10
145.4161
 20
-4.13
 42
-0.08414869483
  0
VERTEX
  8
LAYER_7
 10
145.3221
 20
-4.1737
  0
VERTEX
  8
LAYER_7
 10
145.2001
 20
-4.1885
  0
VERTEX
  8
LAYER_7
 10
145.0444
 20
-4.1885
  0
VERTEX
  8
LAYER_7
 10
145.0444
 20
-4.5958
  0
VERTEX
  8
LAYER_7
 10
144.9551
 20
-4.5958
  0
SEQEND
  0
POLYLINE
  8
LAYER_7
 40
0.05
 41
0.05
 66
1
 10
0
 20
0
 30
0
 70
1
  0
VERTEX
  8
LAYER_7
 10
145.0444
 20
-4.1131
  0
VERTEX
  8
LAYER_7
 10
145.1949
 20
-4.1131
 42
0.1719973382
  0
VERTEX
  8
LAYER_7
 10
145.3548
 20
-4.0724
 42
0.2424570955
  0
VERTEX
  8
LAYER_7
 10
145.4092
 20
-3.9536
 42
0.2603006677
  0
VERTEX
  8
LAYER_7
 10
145.3531
 20
-3.834
 42
0.1395217604
  0
VERTEX
  8
LAYER_7
 10
145.1949
 20
-3.7965
  0
VERTEX
  8
LAYER_7
 10
145.0444
 20
-3.7965
  0
SEQEND
  0
ENDBLK
  0
BLOCK
  8
LAYER_7
  2
AIGNBL0703001E
 70
64
 10
0
 20
0
 30
0
  3
AIGNBL0703001E
  0
POLYLINE
  8
LAYER_7
 40
0.05
 41
0.05
 66
1
 10
0
 20
0
 30
0
 70
1
  0
VERTEX
  8
LAYER_7
 10
145.9322
 20
-4.5162
  0
VERTEX
  8
LAYER_7
 10
146.4011
 20
-4.5162
  0
VERTEX
  8
LAYER_7
 10
146.4011
 20
-4.5958
  0
VERTEX
  8
LAYER_7
 10
145.8433
 20
-4.5958
  0
VERTEX
  8
LAYER_7
 10
145.8433
 20
-3.72
  0
VERTEX
  8
LAYER_7
 10
146.3862
 20
-3.72
  0
VERTEX
  8
LAYER_7
 10
146.3862
 20
-3.7989
  0
VERTEX
  8
LAYER_7
 10
145.9322
 20
-3.7989
  0
VERTEX
  8
LAYER_7
 10
145.9322
 20
-4.0993
  0
VERTEX
  8
LAYER_7
 10
146.3566
 20
-4.0993
  0
VERTEX
  8
LAYER_7
 10
146.3566
 20
-4.1786
  0
VERTEX
  8
LAYER_7
 10
145.9322
 20
-4.1786
  0
SEQEND
  0
ENDBLK
  0
BLOCK
  8
LAYER_7
  2
AIGNBL0703001F
 70
64
 10
0
 20
0
 30
0
  3
AIGNBL0703001F
  0
POLYLINE
  8
LAYER_7
 40
0.05
 41
0.05
 66
1
 10
0
 20
0
 30
0
 70
1
  0
VERTEX
  8
LAYER_7
 10
146.8351
 20
-4.5958
  0
VERTEX
  8
LAYER_7
 10
146.7463
 20
-4.5958
  0
VERTEX
  8
LAYER_7
 10
146.7463
 20
-3.72
  0
VERTEX
  8
LAYER_7
 10
147.0036
 20
-3.72
  0
VERTEX
  8
LAYER_7
 10
147.1228
 20
-3.7321
  0
VERTEX
  8
LAYER_7
 10
147.2182
 20
-3.7724
 42
-0.1251490281
  0
VERTEX
  8
LAYER_7
 10
147.2806
 20
-3.8447
 42
-0.1051781119
  0
VERTEX
  8
LAYER_7
 10
147.3026
 20
-3.9536
  0
VERTEX
  8
LAYER_7
 10
147.2858
 20
-4.0414
  0
VERTEX
  8
LAYER_7
 10
147.2386
 20
-4.11
  0
VERTEX
  8
LAYER_7
 10
147.1679
 20
-4.1565
  0
VERTEX
  8
LAYER_7
 10
147.0791
 20
-4.1786
  0
VERTEX
  8
LAYER_7
 10
147.335
 20
-4.5958
  0
VERTEX
  8
LAYER_7
 10
147.2262
 20
-4.5958
  0
VERTEX
  8
LAYER_7
 10
146.9836
 20
-4.1861
  0
VERTEX
  8
LAYER_7
 10
146.8351
 20
-4.1861
  0
SEQEND
  0
POLYLINE
  8
LAYER_7
 40
0.05
 41
0.05
 66
1
 10
0
 20
0
 30
0
 70
1
  0
VERTEX
  8
LAYER_7
 10
146.8351
 20
-4.1093
  0
VERTEX
  8
LAYER_7
 10
146.9898
 20
-4.1093
 42
0.1569755974
  0
VERTEX
  8
LAYER_7
 10
147.1559
 20
-4.0707
 42
0.2567768408
  0
VERTEX
  8
LAYER_7
 10
147.2138
 20
-3.9536
  0
VERTEX
  8
LAYER_7
 10
147.1979
 20
-3.8809
  0
VERTEX
  8
LAYER_7
 10
147.1531
 20
-3.8323
  0
VERTEX
  8
LAYER_7
 10
147.0839
 20
-3.8051
  0
VERTEX
  8
LAYER_7
 10
146.9936
 20
-3.7965
  0
VERTEX
  8
LAYER_7
 10
146.8351
 20
-3.7965
  0
SEQEND
  0
ENDBLK
  0
BLOCK
  8
LAYER_7
  2
AIGNBL07030020
 70
64
 10
0
 20
0
 30
0
  3
AIGNBL07030020
  0
POLYLINE
  8
LAYER_7
 40
0.05
 41
0.05
 66
1
 10
0
 20
0
 30
0
 70
1
  0
VERTEX
  8
LAYER_7
 10
147.7467
 20
-4.5958
  0
VERTEX
  8
LAYER_7
 10
147.6582
 20
-4.5958
  0
VERTEX
  8
LAYER_7
 10
147.6582
 20
-3.72
  0
VERTEX
  8
LAYER_7
 10
147.7467
 20
-3.72
  0
SEQEND
  0
ENDBLK
  0
BLOCK
  8
LAYER_7
  2
AIGNBL07030021
 70
64
 10
0
 20
0
 30
0
  3
AIGNBL07030021
  0
POLYLINE
  8
LAYER_7
 40
0.05
 41
0.05
 66
1
 10
0
 20
0
 30
0
 70
1
  0
VERTEX
  8
LAYER_7
 10
148.239
 20
-4.5162
  0
VERTEX
  8
LAYER_7
 10
148.7079
 20
-4.5162
  0
VERTEX
  8
LAYER_7
 10
148.7079
 20
-4.5958
  0
VERTEX
  8
LAYER_7
 10
148.1501
 20
-4.5958
  0
VERTEX
  8
LAYER_7
 10
148.1501
 20
-3.72
  0
VERTEX
  8
LAYER_7
 10
148.6931
 20
-3.72
  0
VERTEX
  8
LAYER_7
 10
148.6931
 20
-3.7989
  0
VERTEX
  8
LAYER_7
 10
148.239
 20
-3.7989
  0
VERTEX
  8
LAYER_7
 10
148.239
 20
-4.0993
  0
VERTEX
  8
LAYER_7
 10
148.6634
 20
-4.0993
  0
VERTEX
  8
LAYER_7
 10
148.6634
 20
-4.1786
  0
VERTEX
  8
LAYER_7
 10
148.239
 20
-4.1786
  0
SEQEND
  0
ENDBLK
  0
BLOCK
  8
LAYER_7
  2
AIGNBL07030022
 70
64
 10
0
 20
0
 30
0
  3
AIGNBL07030022
  0
POLYLINE
  8
LAYER_7
 40
0.05
 41
0.05
 66
1
 10
0
 20
0
 30
0
 70
1
  0
VERTEX
  8
LAYER_7
 10
149.6739
 20
-4.4655
  0
VERTEX
  8
LAYER_7
 10
149.6763
 20
-4.4655
  0
VERTEX
  8
LAYER_7
 10
149.6763
 20
-3.72
  0
VERTEX
  8
LAYER_7
 10
149.7655
 20
-3.72
  0
VERTEX
  8
LAYER_7
 10
149.7655
 20
-4.5958
  0
VERTEX
  8
LAYER_7
 10
149.6543
 20
-4.5958
  0
VERTEX
  8
LAYER_7
 10
149.1447
 20
-3.8423
  0
VERTEX
  8
LAYER_7
 10
149.142
 20
-3.8423
  0
VERTEX
  8
LAYER_7
 10
149.142
 20
-4.5958
  0
VERTEX
  8
LAYER_7
 10
149.0531
 20
-4.5958
  0
VERTEX
  8
LAYER_7
 10
149.0531
 20
-3.72
  0
VERTEX
  8
LAYER_7
 10
149.1644
 20
-3.72
  0
SEQEND
  0
ENDBLK
  0
BLOCK
  8
LAYER_7
  2
AIGNBL07030023
 70
64
 10
0
 20
0
 30
0
  3
AIGNBL07030023
  0
POLYLINE
  8
LAYER_7
 40
0.05
 41
0.05
 66
1
 10
0
 20
0
 30
0
 70
1
  0
VERTEX
  8
LAYER_7
 10
150.9062
 20
-4.4535
  0
VERTEX
  8
LAYER_7
 10
150.8521
 20
-4.5165
  0
VERTEX
  8
LAYER_7
 10
150.7791
 20
-4.5689
  0
VERTEX
  8
LAYER_7
 10
150.6874
 20
-4.6047
  0
VERTEX
  8
LAYER_7
 10
150.5782
 20
-4.6178
 42
-0.1002604889
  0
VERTEX
  8
LAYER_7
 10
150.395
 20
-4.583
 42
-0.103618762
  0
VERTEX
  8
LAYER_7
 10
150.2506
 20
-4.4872
 42
-0.1002861858
  0
VERTEX
  8
LAYER_7
 10
150.1559
 20
-4.3419
 42
-0.09550230428
  0
VERTEX
  8
LAYER_7
 10
150.1218
 20
-4.1575
 42
-0.1026723447
  0
VERTEX
  8
LAYER_7
 10
150.1566
 20
-3.9732
 42
-0.09988408448
  0
VERTEX
  8
LAYER_7
 10
150.252
 20
-3.8278
 42
-0.09706305567
  0
VERTEX
  8
LAYER_7
 10
150.3967
 20
-3.7321
 42
-0.09710431873
  0
VERTEX
  8
LAYER_7
 10
150.5782
 20
-3.6973
  0
VERTEX
  8
LAYER_7
 10
150.6726
 20
-3.7076
  0
VERTEX
  8
LAYER_7
 10
150.7601
 20
-3.7359
  0
VERTEX
  8
LAYER_7
 10
150.8342
 20
-3.7796
  0
VERTEX
  8
LAYER_7
 10
150.89
 20
-3.8371
  0
VERTEX
  8
LAYER_7
 10
150.8159
 20
-3.8919
  0
VERTEX
  8
LAYER_7
 10
150.7791
 20
-3.8495
  0
VERTEX
  8
LAYER_7
 10
150.7253
 20
-3.8123
  0
VERTEX
  8
LAYER_7
 10
150.6578
 20
-3.7865
  0
VERTEX
  8
LAYER_7
 10
150.5793
 20
-3.7765
 42
0.1136496813
  0
VERTEX
  8
LAYER_7
 10
150.4266
 20
-3.8075
 42
0.1041503417
  0
VERTEX
  8
LAYER_7
 10
150.3123
 20
-3.8905
 42
0.09633029683
  0
VERTEX
  8
LAYER_7
 10
150.2403
 20
-4.0122
 42
0.08390004266
  0
VERTEX
  8
LAYER_7
 10
150.2158
 20
-4.1575
 42
0.09237333632
  0
VERTEX
  8
LAYER_7
 10
150.2413
 20
-4.3029
 42
0.09906074874
  0
VERTEX
  8
LAYER_7
 10
150.3137
 20
-4.4245
 42
0.1041975764
  0
VERTEX
  8
LAYER_7
 10
150.428
 20
-4.5076
 42
0.1062091033
  0
VERTEX
  8
LAYER_7
 10
150.5793
 20
-4.5386
 42
0.1114210768
  0
VERTEX
  8
LAYER_7
 10
150.7226
 20
-4.5076
 42
0.1364138409
  0
VERTEX
  8
LAYER_7
 10
150.8366
 20
-4.4087
  0
SEQEND
  0
ENDBLK
  0
BLOCK
  8
LAYER_7
  2
AIGNBL07030024
 70
64
 10
0
 20
0
 30
0
  3
AIGNBL07030024
  0
POLYLINE
  8
LAYER_7
 40
0.05
 41
0.05
 66
1
 10
0
 20
0
 30
0
 70
1
  0
VERTEX
  8
LAYER_7
 10
151.3189
 20
-4.5162
  0
VERTEX
  8
LAYER_7
 10
151.7878
 20
-4.5162
  0
VERTEX
  8
LAYER_7
 10
151.7878
 20
-4.5958
  0
VERTEX
  8
LAYER_7
 10
151.23
 20
-4.5958
  0
VERTEX
  8
LAYER_7
 10
151.23
 20
-3.72
  0
VERTEX
  8
LAYER_7
 10
151.773
 20
-3.72
  0
VERTEX
  8
LAYER_7
 10
151.773
 20
-3.7989
  0
VERTEX
  8
LAYER_7
 10
151.3189
 20
-3.7989
  0
VERTEX
  8
LAYER_7
 10
151.3189
 20
-4.0993
  0
VERTEX
  8
LAYER_7
 10
151.7434
 20
-4.0993
  0
VERTEX
  8
LAYER_7
 10
151.7434
 20
-4.1786
  0
VERTEX
  8
LAYER_7
 10
151.3189
 20
-4.1786
  0
SEQEND
  0
ENDBLK
  0
BLOCK
  8
LAYER_1
  2
AIGNBL01020003
 70
64
 10
0
 20
0
 30
0
  3
AIGNBL01020003
  0
POLYLINE
  8
LAYER_1
 40
0.2469
 41
0.2469
 66
1
 10
0
 20
0
 30
0
  0
VERTEX
  8
LAYER_1
 10
111.7582
 20
87.6425
  0
VERTEX
  8
LAYER_1
 10
111.7582
 20
81.6426
  0
SEQEND
  0
ENDBLK
  0
BLOCK
  8
LAYER_1
  2
AIGNBL01020004
 70
64
 10
0
 20
0
 30
0
  3
AIGNBL01020004
  0
POLYLINE
  8
LAYER_1
 40
0.2469
 41
0.2469
 66
1
 10
0
 20
0
 30
0
  0
VERTEX
  8
LAYER_1
 10
115.2233
 20
88.9799
  0
VERTEX
  8
LAYER_1
 10
115.2233
 20
80.3048
  0
SEQEND
  0
ENDBLK
  0
BLOCK
  8
LAYER_1
  2
AIGNBL01020005
 70
64
 10
0
 20
0
 30
0
  3
AIGNBL01020005
  0
POLYLINE
  8
LAYER_1
 40
0.2469
 41
0.2469
 66
1
 10
0
 20
0
 30
0
  0
VERTEX
  8
LAYER_1
 10
118.7586
 20
78.1072
  0
VERTEX
  8
LAYER_1
 10
118.7586
 20
91.1779
  0
SEQEND
  0
ENDBLK
  0
BLOCK
  8
LAYER_1
  2
AIGNBL01020006
 70
64
 10
0
 20
0
 30
0
  3
AIGNBL01020006
  0
POLYLINE
  8
LAYER_1
 40
0.2469
 41
0.2469
 66
1
 10
0
 20
0
 30
0
  0
VERTEX
  8
LAYER_1
 10
57.1516
 20
148.9666
  0
VERTEX
  8
LAYER_1
 10
51.1516
 20
148.9666
  0
SEQEND
  0
ENDBLK
  0
BLOCK
  8
LAYER_1
  2
AIGNBL01020007
 70
64
 10
0
 20
0
 30
0
  3
AIGNBL01020007
  0
POLYLINE
  8
LAYER_1
 40
0.2469
 41
0.2469
 66
1
 10
0
 20
0
 30
0
  0
VERTEX
  8
LAYER_1
 10
47.6517
 20
152.431
  0
VERTEX
  8
LAYER_1
 10
47.6517
 20
152.585
  0
SEQEND
  0
ENDBLK
  0
BLOCK
  8
LAYER_1
  2
AIGNBL01020008
 70
64
 10
0
 20
0
 30
0
  3
AIGNBL01020008
  0
POLYLINE
  8
LAYER_1
 40
0.2469
 41
0.2469
 66
1
 10
0
 20
0
 30
0
  0
VERTEX
  8
LAYER_1
 10
60.6518
 20
152.431
  0
VERTEX
  8
LAYER_1
 10
60.6518
 20
152.585
  0
SEQEND
  0
ENDBLK
  0
BLOCK
  8
LAYER_1
  2
AIGNBL01020009
 70
64
 10
0
 20
0
 30
0
  3
AIGNBL01020009
  0
POLYLINE
  8
LAYER_1
 40
0.2469
 41
0.2469
 66
1
 10
0
 20
0
 30
0
  0
VERTEX
  8
LAYER_1
 10
54.1516
 20
152.2164
  0
VERTEX
  8
LAYER_1
 10
47.9018
 20
152.2164
  0
SEQEND
  0
ENDBLK
  0
BLOCK
  8
LAYER_1
  2
AIGNBL0102000A
 70
64
 10
0
 20
0
 30
0
  3
AIGNBL0102000A
  0
POLYLINE
  8
LAYER_1
 40
0.2469
 41
0.2469
 66
1
 10
0
 20
0
 30
0
  0
VERTEX
  8
LAYER_1
 10
60.4017
 20
152.2164
  0
VERTEX
  8
LAYER_1
 10
54.1516
 20
152.2164
  0
SEQEND
  0
ENDBLK
  0
BLOCK
  8
LAYER_1
  2
AIGNBL0102000B
 70
64
 10
0
 20
0
 30
0
  3
AIGNBL0102000B
  0
POLYLINE
  8
LAYER_1
 40
0.2469
 41
0.2469
 66
1
 10
0
 20
0
 30
0
  0
VERTEX
  8
LAYER_1
 10
60.6518
 20
152.585
  0
VERTEX
  8
LAYER_1
 10
60.6518
 20
155.9664
  0
SEQEND
  0
ENDBLK
  0
BLOCK
  8
LAYER_1
  2
AIGNBL0102000C
 70
64
 10
0
 20
0
 30
0
  3
AIGNBL0102000C
  0
POLYLINE
  8
LAYER_1
 40
0.2469
 41
0.2469
 66
1
 10
0
 20
0
 30
0
  0
VERTEX
  8
LAYER_1
 10
47.6517
 20
155.9664
  0
VERTEX
  8
LAYER_1
 10
55.675
 20
155.9664
  0
SEQEND
  0
ENDBLK
  0
BLOCK
  8
LAYER_1
  2
AIGNBL0102000D
 70
64
 10
0
 20
0
 30
0
  3
AIGNBL0102000D
  0
POLYLINE
  8
LAYER_1
 40
0.2469
 41
0.2469
 66
1
 10
0
 20
0
 30
0
  0
VERTEX
  8
LAYER_1
 10
47.6517
 20
152.585
  0
VERTEX
  8
LAYER_1
 10
47.6517
 20
155.9664
  0
SEQEND
  0
ENDBLK
  0
BLOCK
  8
LAYER_1
  2
AIGNBL0102000E
 70
64
 10
0
 20
0
 30
0
  3
AIGNBL0102000E
  0
POLYLINE
  8
LAYER_1
 40
0.2469
 41
0.2469
 66
1
 10
0
 20
0
 30
0
  0
VERTEX
  8
LAYER_1
 10
55.675
 20
155.9664
  0
VERTEX
  8
LAYER_1
 10
60.6518
 20
155.9664
  0
SEQEND
  0
ENDBLK
  0
BLOCK
  8
LAYER_1
  2
AIGNBL0102000F
 70
64
 10
0
 20
0
 30
0
  3
AIGNBL0102000F
  0
POLYLINE
  8
LAYER_1
 40
0.2469
 41
0.2469
 66
1
 10
0
 20
0
 30
0
  0
VERTEX
  8
LAYER_1
 10
115.0083
 20
78.3925
 42
0.09661798497
  0
VERTEX
  8
LAYER_1
 10
111.7582
 20
81.6426
  0
SEQEND
  0
ENDBLK
  0
BLOCK
  8
LAYER_1
  2
AIGNBL01020010
 70
64
 10
0
 20
0
 30
0
  3
AIGNBL01020010
  0
POLYLINE
  8
LAYER_1
 40
0.2469
 41
0.2469
 66
1
 10
0
 20
0
 30
0
  0
VERTEX
  8
LAYER_1
 10
115.0083
 20
78.3925
 42
0.4142133873
  0
VERTEX
  8
LAYER_1
 10
118.5085
 20
77.8922
 42
0.03344956048
  0
VERTEX
  8
LAYER_1
 10
118.7586
 20
78.1072
  0
SEQEND
  0
ENDBLK
  0
BLOCK
  8
LAYER_1
  2
AIGNBL01020011
 70
64
 10
0
 20
0
 30
0
  3
AIGNBL01020011
  0
POLYLINE
  8
LAYER_1
 40
0.2469
 41
0.2469
 66
1
 10
0
 20
0
 30
0
  0
VERTEX
  8
LAYER_1
 10
118.7586
 20
91.1779
 42
0.4142618499
  0
VERTEX
  8
LAYER_1
 10
115.2233
 20
91.1424
 42
0.0331296617
  0
VERTEX
  8
LAYER_1
 10
115.0083
 20
90.8923
  0
SEQEND
  0
ENDBLK
  0
BLOCK
  8
LAYER_1
  2
AIGNBL01020012
 70
64
 10
0
 20
0
 30
0
  3
AIGNBL01020012
  0
POLYLINE
  8
LAYER_1
 40
0.2469
 41
0.2469
 66
1
 10
0
 20
0
 30
0
  0
VERTEX
  8
LAYER_1
 10
111.7582
 20
87.6425
 42
0.09666537148
  0
VERTEX
  8
LAYER_1
 10
115.0083
 20
90.8923
  0
SEQEND
  0
ENDBLK
  0
BLOCK
  8
LAYER_1
  2
AIGNBL01020013
 70
64
 10
0
 20
0
 30
0
  3
AIGNBL01020013
  0
POLYLINE
  8
LAYER_1
 40
0.2469
 41
0.2469
 66
1
 10
0
 20
0
 30
0
  0
VERTEX
  8
LAYER_1
 10
60.4017
 20
152.2164
 42
0.09663428689
  0
VERTEX
  8
LAYER_1
 10
57.1516
 20
148.9666
  0
SEQEND
  0
ENDBLK
  0
BLOCK
  8
LAYER_1
  2
AIGNBL01020014
 70
64
 10
0
 20
0
 30
0
  3
AIGNBL01020014
  0
POLYLINE
  8
LAYER_1
 40
0.2469
 41
0.2469
 66
1
 10
0
 20
0
 30
0
  0
VERTEX
  8
LAYER_1
 10
51.1516
 20
148.9666
 42
0.09668124787
  0
VERTEX
  8
LAYER_1
 10
47.9018
 20
152.2164
  0
SEQEND
  0
ENDBLK
  0
BLOCK
  8
LAYER_1
  2
AIGNBL01020015
 70
64
 10
0
 20
0
 30
0
  3
AIGNBL01020015
  0
POLYLINE
  8
LAYER_1
 40
0.2469
 41
0.2469
 66
1
 10
0
 20
0
 30
0
  0
VERTEX
  8
LAYER_1
 10
47.6517
 20
152.431
 42
0.0319399577
  0
VERTEX
  8
LAYER_1
 10
47.9018
 20
152.2164
  0
SEQEND
  0
ENDBLK
  0
BLOCK
  8
LAYER_1
  2
AIGNBL01020016
 70
64
 10
0
 20
0
 30
0
  3
AIGNBL01020016
  0
POLYLINE
  8
LAYER_1
 40
0.2469
 41
0.2469
 66
1
 10
0
 20
0
 30
0
  0
VERTEX
  8
LAYER_1
 10
60.4017
 20
152.2164
 42
0.03234931953
  0
VERTEX
  8
LAYER_1
 10
60.6518
 20
152.431
  0
SEQEND
  0
ENDBLK
  0
BLOCK
  8
LAYER_1
  2
AIGNBL01020017
 70
64
 10
0
 20
0
 30
0
  3
AIGNBL01020017
  0
POLYLINE
  8
LAYER_1
 40
0.2469
 41
0.2469
 66
1
 10
0
 20
0
 30
0
  0
VERTEX
  8
LAYER_1
 10
54.6363
 20
154.0319
  0
VERTEX
  8
LAYER_1
 10
54.639
 20
154.0164
  0
VERTEX
  8
LAYER_1
 10
54.6421
 20
154.0009
  0
VERTEX
  8
LAYER_1
 10
54.6452
 20
153.9854
  0
VERTEX
  8
LAYER_1
 10
54.6483
 20
153.9703
  0
VERTEX
  8
LAYER_1
 10
54.6518
 20
153.9551
  0
VERTEX
  8
LAYER_1
 10
54.6559
 20
153.9396
  0
VERTEX
  8
LAYER_1
 10
54.6594
 20
153.9262
  0
VERTEX
  8
LAYER_1
 10
54.6628
 20
153.9127
  0
VERTEX
  8
LAYER_1
 10
54.6676
 20
153.8959
  0
VERTEX
  8
LAYER_1
 10
54.6728
 20
153.8793
  0
VERTEX
  8
LAYER_1
 10
54.6773
 20
153.8645
  0
VERTEX
  8
LAYER_1
 10
54.6825
 20
153.8497
  0
VERTEX
  8
LAYER_1
 10
54.6876
 20
153.8345
  0
VERTEX
  8
LAYER_1
 10
54.6931
 20
153.8201
  0
VERTEX
  8
LAYER_1
 10
54.6986
 20
153.8053
  0
VERTEX
  8
LAYER_1
 10
54.7042
 20
153.7904
  0
VERTEX
  8
LAYER_1
 10
54.7104
 20
153.776
  0
VERTEX
  8
LAYER_1
 10
54.7166
 20
153.7615
  0
VERTEX
  8
LAYER_1
 10
54.7238
 20
153.7446
  0
VERTEX
  8
LAYER_1
 10
54.7317
 20
153.7277
  0
VERTEX
  8
LAYER_1
 10
54.7393
 20
153.7109
  0
VERTEX
  8
LAYER_1
 10
54.7476
 20
153.6943
  0
VERTEX
  8
LAYER_1
 10
54.7558
 20
153.6778
  0
VERTEX
  8
LAYER_1
 10
54.7644
 20
153.6612
  0
VERTEX
  8
LAYER_1
 10
54.7703
 20
153.6506
  0
VERTEX
  8
LAYER_1
 10
54.7762
 20
153.6395
  0
VERTEX
  8
LAYER_1
 10
54.7824
 20
153.6289
  0
VERTEX
  8
LAYER_1
 10
54.7882
 20
153.6182
  0
VERTEX
  8
LAYER_1
 10
54.7961
 20
153.6047
  0
VERTEX
  8
LAYER_1
 10
54.8041
 20
153.5917
  0
VERTEX
  8
LAYER_1
 10
54.812
 20
153.5786
  0
VERTEX
  8
LAYER_1
 10
54.8199
 20
153.5655
  0
VERTEX
  8
LAYER_1
 10
54.8302
 20
153.55
  0
VERTEX
  8
LAYER_1
 10
54.8406
 20
153.5348
  0
VERTEX
  8
LAYER_1
 10
54.8509
 20
153.5193
  0
VERTEX
  8
LAYER_1
 10
54.8616
 20
153.5042
  0
VERTEX
  8
LAYER_1
 10
54.8723
 20
153.4893
  0
VERTEX
  8
LAYER_1
 10
54.8833
 20
153.4742
  0
VERTEX
  8
LAYER_1
 10
54.8964
 20
153.457
  0
VERTEX
  8
LAYER_1
 10
54.9095
 20
153.4401
  0
VERTEX
  8
LAYER_1
 10
54.9229
 20
153.4232
  0
VERTEX
  8
LAYER_1
 10
54.9367
 20
153.4067
  0
VERTEX
  8
LAYER_1
 10
54.9505
 20
153.3901
  0
VERTEX
  8
LAYER_1
 10
54.9646
 20
153.3736
  0
VERTEX
  8
LAYER_1
 10
54.9787
 20
153.3577
  0
VERTEX
  8
LAYER_1
 10
54.9932
 20
153.3415
  0
VERTEX
  8
LAYER_1
 10
54.9956
 20
153.3388
  0
VERTEX
  8
LAYER_1
 10
54.9984
 20
153.336
  0
VERTEX
  8
LAYER_1
 10
55.0142
 20
153.3202
  0
VERTEX
  8
LAYER_1
 10
55.0304
 20
153.3047
  0
VERTEX
  8
LAYER_1
 10
55.0463
 20
153.2888
  0
VERTEX
  8
LAYER_1
 10
55.0624
 20
153.273
  0
VERTEX
  8
LAYER_1
 10
55.0783
 20
153.2575
  0
VERTEX
  8
LAYER_1
 10
55.0945
 20
153.2416
  0
VERTEX
  8
LAYER_1
 10
55.1103
 20
153.2261
  0
VERTEX
  8
LAYER_1
 10
55.1265
 20
153.2103
  0
VERTEX
  8
LAYER_1
 10
55.1434
 20
153.1941
  0
VERTEX
  8
LAYER_1
 10
55.161
 20
153.1786
  0
VERTEX
  8
LAYER_1
 10
55.1789
 20
153.1634
  0
VERTEX
  8
LAYER_1
 10
55.1968
 20
153.1486
  0
VERTEX
  8
LAYER_1
 10
55.2154
 20
153.1341
  0
VERTEX
  8
LAYER_1
 10
55.234
 20
153.12
  0
VERTEX
  8
LAYER_1
 10
55.2526
 20
153.1059
  0
VERTEX
  8
LAYER_1
 10
55.2712
 20
153.0918
  0
VERTEX
  8
LAYER_1
 10
55.2743
 20
153.0894
  0
VERTEX
  8
LAYER_1
 10
55.2774
 20
153.087
  0
VERTEX
  8
LAYER_1
 10
55.2936
 20
153.0759
  0
VERTEX
  8
LAYER_1
 10
55.3098
 20
153.0649
  0
VERTEX
  8
LAYER_1
 10
55.3256
 20
153.0539
  0
VERTEX
  8
LAYER_1
 10
55.3418
 20
153.0429
  0
VERTEX
  8
LAYER_1
 10
55.358
 20
153.0318
  0
VERTEX
  8
LAYER_1
 10
55.3739
 20
153.0212
  0
VERTEX
  8
LAYER_1
 10
55.3901
 20
153.0101
  0
VERTEX
  8
LAYER_1
 10
55.4063
 20
152.9991
  0
VERTEX
  8
LAYER_1
 10
55.4221
 20
152.9881
  0
VERTEX
  8
LAYER_1
 10
55.4383
 20
152.9771
  0
VERTEX
  8
LAYER_1
 10
55.4552
 20
152.966
  0
VERTEX
  8
LAYER_1
 10
55.4724
 20
152.955
  0
VERTEX
  8
LAYER_1
 10
55.4896
 20
152.9443
  0
VERTEX
  8
LAYER_1
 10
55.5072
 20
152.934
  0
VERTEX
  8
LAYER_1
 10
55.5248
 20
152.9243
  0
VERTEX
  8
LAYER_1
 10
55.5427
 20
152.9144
  0
VERTEX
  8
LAYER_1
 10
55.5603
 20
152.9047
  0
VERTEX
  8
LAYER_1
 10
55.5782
 20
152.8951
  0
VERTEX
  8
LAYER_1
 10
55.5961
 20
152.8854
  0
VERTEX
  8
LAYER_1
 10
55.614
 20
152.8761
  0
VERTEX
  8
LAYER_1
 10
55.6171
 20
152.8744
  0
VERTEX
  8
LAYER_1
 10
55.6205
 20
152.8727
  0
VERTEX
  8
LAYER_1
 10
55.6392
 20
152.8634
  0
VERTEX
  8
LAYER_1
 10
55.6584
 20
152.8544
  0
VERTEX
  8
LAYER_1
 10
55.677
 20
152.8455
  0
VERTEX
  8
LAYER_1
 10
55.6963
 20
152.8361
  0
VERTEX
  8
LAYER_1
 10
55.7149
 20
152.8272
  0
VERTEX
  8
LAYER_1
 10
55.7339
 20
152.8182
  0
VERTEX
  8
LAYER_1
 10
55.7528
 20
152.8089
  0
VERTEX
  8
LAYER_1
 10
55.7718
 20
152.8
  0
VERTEX
  8
LAYER_1
 10
55.7907
 20
152.7907
  0
VERTEX
  8
LAYER_1
 10
55.8097
 20
152.7817
  0
VERTEX
  8
LAYER_1
 10
55.8293
 20
152.7728
  0
VERTEX
  8
LAYER_1
 10
55.8493
 20
152.7638
  0
VERTEX
  8
LAYER_1
 10
55.8693
 20
152.7552
  0
VERTEX
  8
LAYER_1
 10
55.8893
 20
152.7469
  0
VERTEX
  8
LAYER_1
 10
55.9092
 20
152.739
  0
VERTEX
  8
LAYER_1
 10
55.9296
 20
152.7311
  0
VERTEX
  8
LAYER_1
 10
55.9499
 20
152.7235
  0
VERTEX
  8
LAYER_1
 10
55.9706
 20
152.7159
  0
VERTEX
  8
LAYER_1
 10
55.9909
 20
152.7087
  0
VERTEX
  8
LAYER_1
 10
56.0112
 20
152.7011
  0
VERTEX
  8
LAYER_1
 10
56.014
 20
152.7001
  0
VERTEX
  8
LAYER_1
 10
56.0167
 20
152.699
  0
VERTEX
  8
LAYER_1
 10
56.0381
 20
152.6918
  0
VERTEX
  8
LAYER_1
 10
56.0591
 20
152.6853
  0
VERTEX
  8
LAYER_1
 10
56.0805
 20
152.6784
  0
VERTEX
  8
LAYER_1
 10
56.1015
 20
152.6715
  0
VERTEX
  8
LAYER_1
 10
56.1228
 20
152.6646
  0
VERTEX
  8
LAYER_1
 10
56.1442
 20
152.6577
  0
VERTEX
  8
LAYER_1
 10
56.1652
 20
152.6505
  0
VERTEX
  8
LAYER_1
 10
56.1866
 20
152.6436
  0
VERTEX
  8
LAYER_1
 10
56.2076
 20
152.6367
  0
VERTEX
  8
LAYER_1
 10
56.229
 20
152.6298
  0
VERTEX
  8
LAYER_1
 10
56.2507
 20
152.6229
  0
VERTEX
  8
LAYER_1
 10
56.2727
 20
152.6164
  0
VERTEX
  8
LAYER_1
 10
56.2948
 20
152.6102
  0
VERTEX
  8
LAYER_1
 10
56.3168
 20
152.6043
  0
VERTEX
  8
LAYER_1
 10
56.3392
 20
152.5984
  0
VERTEX
  8
LAYER_1
 10
56.3612
 20
152.5929
  0
VERTEX
  8
LAYER_1
 10
56.3836
 20
152.5878
  0
VERTEX
  8
LAYER_1
 10
56.406
 20
152.5826
  0
VERTEX
  8
LAYER_1
 10
56.4281
 20
152.5774
  0
VERTEX
  8
LAYER_1
 10
56.4505
 20
152.5723
  0
VERTEX
  8
LAYER_1
 10
56.4525
 20
152.5716
  0
VERTEX
  8
LAYER_1
 10
56.4546
 20
152.5712
  0
VERTEX
  8
LAYER_1
 10
56.4777
 20
152.5664
  0
VERTEX
  8
LAYER_1
 10
56.5004
 20
152.5619
  0
VERTEX
  8
LAYER_1
 10
56.5232
 20
152.5578
  0
VERTEX
  8
LAYER_1
 10
56.5462
 20
152.553
  0
VERTEX
  8
LAYER_1
 10
56.5693
 20
152.5485
  0
VERTEX
  8
LAYER_1
 10
56.5921
 20
152.544
  0
VERTEX
  8
LAYER_1
 10
56.6148
 20
152.5395
  0
VERTEX
  8
LAYER_1
 10
56.6379
 20
152.535
  0
VERTEX
  8
LAYER_1
 10
56.6606
 20
152.5306
  0
VERTEX
  8
LAYER_1
 10
56.6837
 20
152.5261
  0
VERTEX
  8
LAYER_1
 10
56.7068
 20
152.5216
  0
VERTEX
  8
LAYER_1
 10
56.7302
 20
152.5175
  0
VERTEX
  8
LAYER_1
 10
56.7536
 20
152.5137
  0
VERTEX
  8
LAYER_1
 10
56.7774
 20
152.5102
  0
VERTEX
  8
LAYER_1
 10
56.8008
 20
152.5071
  0
VERTEX
  8
LAYER_1
 10
56.8243
 20
152.504
  0
VERTEX
  8
LAYER_1
 10
56.848
 20
152.5013
  0
VERTEX
  8
LAYER_1
 10
56.8715
 20
152.4985
  0
VERTEX
  8
LAYER_1
 10
56.8952
 20
152.4958
  0
VERTEX
  8
LAYER_1
 10
56.9187
 20
152.493
  0
VERTEX
  8
LAYER_1
 10
56.92
 20
152.493
  0
VERTEX
  8
LAYER_1
 10
56.9211
 20
152.493
  0
VERTEX
  8
LAYER_1
 10
56.9448
 20
152.491
  0
VERTEX
  8
LAYER_1
 10
56.969
 20
152.4889
  0
VERTEX
  8
LAYER_1
 10
56.9927
 20
152.4872
  0
VERTEX
  8
LAYER_1
 10
57.0165
 20
152.4851
  0
VERTEX
  8
LAYER_1
 10
57.0406
 20
152.483
  0
VERTEX
  8
LAYER_1
 10
57.0644
 20
152.4813
  0
VERTEX
  8
LAYER_1
 10
57.0882
 20
152.4792
  0
VERTEX
  8
LAYER_1
 10
57.1123
 20
152.4772
  0
VERTEX
  8
LAYER_1
 10
57.136
 20
152.4751
  0
VERTEX
  8
LAYER_1
 10
57.1598
 20
152.473
  0
VERTEX
  8
LAYER_1
 10
57.1839
 20
152.4717
  0
VERTEX
  8
LAYER_1
 10
57.208
 20
152.4699
  0
VERTEX
  8
LAYER_1
 10
57.2322
 20
152.4689
  0
VERTEX
  8
LAYER_1
 10
57.2566
 20
152.4679
  0
VERTEX
  8
LAYER_1
 10
57.2807
 20
152.4672
  0
VERTEX
  8
LAYER_1
 10
57.3049
 20
152.4668
  0
VERTEX
  8
LAYER_1
 10
57.3293
 20
152.4665
  0
VERTEX
  8
LAYER_1
 10
57.3534
 20
152.4665
  0
VERTEX
  8
LAYER_1
 10
57.3775
 20
152.4665
  0
VERTEX
  8
LAYER_1
 10
57.4017
 20
152.4668
  0
VERTEX
  8
LAYER_1
 10
57.4258
 20
152.4668
  0
VERTEX
  8
LAYER_1
 10
57.4502
 20
152.4672
  0
VERTEX
  8
LAYER_1
 10
57.4744
 20
152.4675
  0
VERTEX
  8
LAYER_1
 10
57.4985
 20
152.4679
  0
VERTEX
  8
LAYER_1
 10
57.5229
 20
152.4686
  0
VERTEX
  8
LAYER_1
 10
57.547
 20
152.4692
  0
VERTEX
  8
LAYER_1
 10
57.5712
 20
152.4699
  0
VERTEX
  8
LAYER_1
 10
57.5953
 20
152.471
  0
VERTEX
  8
LAYER_1
 10
57.6194
 20
152.472
  0
VERTEX
  8
LAYER_1
 10
57.6435
 20
152.473
  0
VERTEX
  8
LAYER_1
 10
57.6676
 20
152.4744
  0
VERTEX
  8
LAYER_1
 10
57.6914
 20
152.4761
  0
VERTEX
  8
LAYER_1
 10
57.7152
 20
152.4779
  0
VERTEX
  8
LAYER_1
 10
57.7393
 20
152.4796
  0
VERTEX
  8
LAYER_1
 10
57.7631
 20
152.4813
  0
VERTEX
  8
LAYER_1
 10
57.7872
 20
152.4834
  0
VERTEX
  8
LAYER_1
 10
57.8109
 20
152.4854
  0
VERTEX
  8
LAYER_1
 10
57.8347
 20
152.4878
  0
VERTEX
  8
LAYER_1
 10
57.8585
 20
152.4903
  0
VERTEX
  8
LAYER_1
 10
57.8826
 20
152.493
  0
VERTEX
  8
LAYER_1
 10
57.8836
 20
152.493
  0
VERTEX
  8
LAYER_1
 10
57.8847
 20
152.493
  0
VERTEX
  8
LAYER_1
 10
57.9081
 20
152.4965
  0
VERTEX
  8
LAYER_1
 10
57.9319
 20
152.4999
  0
VERTEX
  8
LAYER_1
 10
57.9553
 20
152.503
  0
VERTEX
  8
LAYER_1
 10
57.9787
 20
152.5061
  0
VERTEX
  8
LAYER_1
 10
58.0025
 20
152.5096
  0
VERTEX
  8
LAYER_1
 10
58.0259
 20
152.513
  0
VERTEX
  8
LAYER_1
 10
58.0493
 20
152.5161
  0
VERTEX
  8
LAYER_1
 10
58.0728
 20
152.5192
  0
VERTEX
  8
LAYER_1
 10
58.0965
 20
152.5226
  0
VERTEX
  8
LAYER_1
 10
58.12
 20
152.5261
  0
VERTEX
  8
LAYER_1
 10
58.143
 20
152.5295
  0
VERTEX
  8
LAYER_1
 10
58.1661
 20
152.533
  0
VERTEX
  8
LAYER_1
 10
58.1892
 20
152.5371
  0
VERTEX
  8
LAYER_1
 10
58.212
 20
152.5416
  0
VERTEX
  8
LAYER_1
 10
58.2347
 20
152.5461
  0
VERTEX
  8
LAYER_1
 10
58.2578
 20
152.5509
  0
VERTEX
  8
LAYER_1
 10
58.2805
 20
152.5557
  0
VERTEX
  8
LAYER_1
 10
58.3032
 20
152.5609
  0
VERTEX
  8
LAYER_1
 10
58.326
 20
152.5661
  0
VERTEX
  8
LAYER_1
 10
58.3487
 20
152.5712
  0
VERTEX
  8
LAYER_1
 10
58.3508
 20
152.5716
  0
VERTEX
  8
LAYER_1
 10
58.3529
 20
152.5723
  0
VERTEX
  8
LAYER_1
 10
58.3752
 20
152.5778
  0
VERTEX
  8
LAYER_1
 10
58.3973
 20
152.5836
  0
VERTEX
  8
LAYER_1
 10
58.4193
 20
152.5895
  0
VERTEX
  8
LAYER_1
 10
58.4417
 20
152.595
  0
VERTEX
  8
LAYER_1
 10
58.4638
 20
152.6008
  0
VERTEX
  8
LAYER_1
 10
58.4858
 20
152.6067
  0
VERTEX
  8
LAYER_1
 10
58.5082
 20
152.6126
  0
VERTEX
  8
LAYER_1
 10
58.5303
 20
152.6184
  0
VERTEX
  8
LAYER_1
 10
58.5523
 20
152.6239
  0
VERTEX
  8
LAYER_1
 10
58.5747
 20
152.6298
  0
VERTEX
  8
LAYER_1
 10
58.5961
 20
152.6356
  0
VERTEX
  8
LAYER_1
 10
58.6178
 20
152.6418
  0
VERTEX
  8
LAYER_1
 10
58.6391
 20
152.6484
  0
VERTEX
  8
LAYER_1
 10
58.6602
 20
152.6549
  0
VERTEX
  8
LAYER_1
 10
58.6815
 20
152.6618
  0
VERTEX
  8
LAYER_1
 10
58.7025
 20
152.6691
  0
VERTEX
  8
LAYER_1
 10
58.7235
 20
152.6763
  0
VERTEX
  8
LAYER_1
 10
58.7446
 20
152.6839
  0
VERTEX
  8
LAYER_1
 10
58.7656
 20
152.6915
  0
VERTEX
  8
LAYER_1
 10
58.7866
 20
152.699
  0
VERTEX
  8
LAYER_1
 10
58.7893
 20
152.7001
  0
VERTEX
  8
LAYER_1
 10
58.7921
 20
152.7011
  0
VERTEX
  8
LAYER_1
 10
58.8124
 20
152.709
  0
VERTEX
  8
LAYER_1
 10
58.8328
 20
152.7169
  0
VERTEX
  8
LAYER_1
 10
58.8527
 20
152.7252
  0
VERTEX
  8
LAYER_1
 10
58.8727
 20
152.7335
  0
VERTEX
  8
LAYER_1
 10
58.893
 20
152.7414
  0
VERTEX
  8
LAYER_1
 10
58.9134
 20
152.7493
  0
VERTEX
  8
LAYER_1
 10
58.9334
 20
152.7576
  0
VERTEX
  8
LAYER_1
 10
58.9537
 20
152.7655
  0
VERTEX
  8
LAYER_1
 10
58.9737
 20
152.7734
  0
VERTEX
  8
LAYER_1
 10
58.994
 20
152.7817
  0
VERTEX
  8
LAYER_1
 10
59.0133
 20
152.7896
  0
VERTEX
  8
LAYER_1
 10
59.0326
 20
152.7983
  0
VERTEX
  8
LAYER_1
 10
59.0519
 20
152.8065
  0
VERTEX
  8
LAYER_1
 10
59.0705
 20
152.8155
  0
VERTEX
  8
LAYER_1
 10
59.0898
 20
152.8248
  0
VERTEX
  8
LAYER_1
 10
59.1084
 20
152.8341
  0
VERTEX
  8
LAYER_1
 10
59.127
 20
152.8437
  0
VERTEX
  8
LAYER_1
 10
59.1459
 20
152.853
  0
VERTEX
  8
LAYER_1
 10
59.1645
 20
152.863
  0
VERTEX
  8
LAYER_1
 10
59.1828
 20
152.8727
  0
VERTEX
  8
LAYER_1
 10
59.1862
 20
152.8744
  0
VERTEX
  8
LAYER_1
 10
59.1893
 20
152.8761
  0
VERTEX
  8
LAYER_1
 10
59.2069
 20
152.8858
  0
VERTEX
  8
LAYER_1
 10
59.2245
 20
152.8961
  0
VERTEX
  8
LAYER_1
 10
59.242
 20
152.9064
  0
VERTEX
  8
LAYER_1
 10
59.2596
 20
152.9164
  0
VERTEX
  8
LAYER_1
 10
59.2772
 20
152.9264
  0
VERTEX
  8
LAYER_1
 10
59.2947
 20
152.9367
  0
VERTEX
  8
LAYER_1
 10
59.3123
 20
152.9467
  0
VERTEX
  8
LAYER_1
 10
59.3299
 20
152.9567
  0
VERTEX
  8
LAYER_1
 10
59.3475
 20
152.9671
  0
VERTEX
  8
LAYER_1
 10
59.365
 20
152.9771
  0
VERTEX
  8
LAYER_1
 10
59.3819
 20
152.987
  0
VERTEX
  8
LAYER_1
 10
59.3984
 20
152.9974
  0
VERTEX
  8
LAYER_1
 10
59.415
 20
153.0077
  0
VERTEX
  8
LAYER_1
 10
59.4308
 20
153.0187
  0
VERTEX
  8
LAYER_1
 10
59.447
 20
153.0298
  0
VERTEX
  8
LAYER_1
 10
59.4632
 20
153.0408
  0
VERTEX
  8
LAYER_1
 10
59.4791
 20
153.0522
  0
VERTEX
  8
LAYER_1
 10
59.4946
 20
153.0639
  0
VERTEX
  8
LAYER_1
 10
59.5104
 20
153.0752
  0
VERTEX
  8
LAYER_1
 10
59.5259
 20
153.087
  0
VERTEX
  8
LAYER_1
 10
59.529
 20
153.0894
  0
VERTEX
  8
LAYER_1
 10
59.5321
 20
153.0918
  0
VERTEX
  8
LAYER_1
 10
59.5504
 20
153.1062
  0
VERTEX
  8
LAYER_1
 10
59.5686
 20
153.1214
  0
VERTEX
  8
LAYER_1
 10
59.5865
 20
153.1362
  0
VERTEX
  8
LAYER_1
 10
59.6045
 20
153.151
  0
VERTEX
  8
LAYER_1
 10
59.6227
 20
153.1658
  0
VERTEX
  8
LAYER_1
 10
59.641
 20
153.1807
  0
VERTEX
  8
LAYER_1
 10
59.6589
 20
153.1955
  0
VERTEX
  8
LAYER_1
 10
59.6771
 20
153.2103
  0
VERTEX
  8
LAYER_1
 10
59.694
 20
153.2248
  0
VERTEX
  8
LAYER_1
 10
59.7109
 20
153.2399
  0
VERTEX
  8
LAYER_1
 10
59.7271
 20
153.2551
  0
VERTEX
  8
LAYER_1
 10
59.7433
 20
153.2709
  0
VERTEX
  8
LAYER_1
 10
59.7591
 20
153.2868
  0
VERTEX
  8
LAYER_1
 10
59.7746
 20
153.3033
  0
VERTEX
  8
LAYER_1
 10
59.7898
 20
153.3195
  0
VERTEX
  8
LAYER_1
 10
59.8053
 20
153.336
  0
VERTEX
  8
LAYER_1
 10
59.8077
 20
153.3388
  0
VERTEX
  8
LAYER_1
 10
59.8101
 20
153.3415
  0
VERTEX
  8
LAYER_1
 10
59.8243
 20
153.3581
  0
VERTEX
  8
LAYER_1
 10
59.8377
 20
153.3746
  0
VERTEX
  8
LAYER_1
 10
59.8515
 20
153.3915
  0
VERTEX
  8
LAYER_1
 10
59.8653
 20
153.408
  0
VERTEX
  8
LAYER_1
 10
59.879
 20
153.4246
  0
VERTEX
  8
LAYER_1
 10
59.8928
 20
153.4411
  0
VERTEX
  8
LAYER_1
 10
59.9066
 20
153.4576
  0
VERTEX
  8
LAYER_1
 10
59.92
 20
153.4742
  0
VERTEX
  8
LAYER_1
 10
59.9317
 20
153.4887
  0
VERTEX
  8
LAYER_1
 10
59.9428
 20
153.5038
  0
VERTEX
  8
LAYER_1
 10
59.9531
 20
153.519
  0
VERTEX
  8
LAYER_1
 10
59.9634
 20
153.5341
  0
VERTEX
  8
LAYER_1
 10
59.9734
 20
153.55
  0
VERTEX
  8
LAYER_1
 10
59.9834
 20
153.5655
  0
VERTEX
  8
LAYER_1
 10
59.9913
 20
153.5786
  0
VERTEX
  8
LAYER_1
 10
59.9993
 20
153.5917
  0
VERTEX
  8
LAYER_1
 10
60.0075
 20
153.6047
  0
VERTEX
  8
LAYER_1
 10
60.0151
 20
153.6182
  0
VERTEX
  8
LAYER_1
 10
60.0213
 20
153.6289
  0
VERTEX
  8
LAYER_1
 10
60.0272
 20
153.6395
  0
VERTEX
  8
LAYER_1
 10
60.033
 20
153.6506
  0
VERTEX
  8
LAYER_1
 10
60.0389
 20
153.6612
  0
VERTEX
  8
LAYER_1
 10
60.0475
 20
153.6778
  0
VERTEX
  8
LAYER_1
 10
60.0558
 20
153.6943
  0
VERTEX
  8
LAYER_1
 10
60.064
 20
153.7109
  0
VERTEX
  8
LAYER_1
 10
60.072
 20
153.7277
  0
VERTEX
  8
LAYER_1
 10
60.0795
 20
153.7446
  0
VERTEX
  8
LAYER_1
 10
60.0871
 20
153.7615
  0
VERTEX
  8
LAYER_1
 10
60.0937
 20
153.7777
  0
VERTEX
  8
LAYER_1
 10
60.1006
 20
153.7939
  0
VERTEX
  8
LAYER_1
 10
60.1068
 20
153.8101
  0
VERTEX
  8
LAYER_1
 10
60.113
 20
153.8263
  0
VERTEX
  8
LAYER_1
 10
60.1188
 20
153.8428
  0
VERTEX
  8
LAYER_1
 10
60.1243
 20
153.8593
  0
VERTEX
  8
LAYER_1
 10
60.1288
 20
153.8728
  0
VERTEX
  8
LAYER_1
 10
60.1329
 20
153.8859
  0
VERTEX
  8
LAYER_1
 10
60.1367
 20
153.8993
  0
VERTEX
  8
LAYER_1
 10
60.1405
 20
153.9127
  0
VERTEX
  8
LAYER_1
 10
60.144
 20
153.9245
  0
VERTEX
  8
LAYER_1
 10
60.1467
 20
153.9365
  0
VERTEX
  8
LAYER_1
 10
60.1498
 20
153.9482
  0
VERTEX
  8
LAYER_1
 10
60.1526
 20
153.9599
  0
VERTEX
  8
LAYER_1
 10
60.1564
 20
153.9772
  0
VERTEX
  8
LAYER_1
 10
60.1602
 20
153.9944
  0
VERTEX
  8
LAYER_1
 10
60.1636
 20
154.0116
  0
VERTEX
  8
LAYER_1
 10
60.1667
 20
154.0288
  0
VERTEX
  8
LAYER_1
 10
60.1695
 20
154.0461
  0
VERTEX
  8
LAYER_1
 10
60.1719
 20
154.0633
  0
VERTEX
  8
LAYER_1
 10
60.1743
 20
154.0802
  0
VERTEX
  8
LAYER_1
 10
60.1763
 20
154.0971
  0
VERTEX
  8
LAYER_1
 10
60.1781
 20
154.1143
  0
VERTEX
  8
LAYER_1
 10
60.1794
 20
154.1312
  0
VERTEX
  8
LAYER_1
 10
60.1805
 20
154.1484
  0
VERTEX
  8
LAYER_1
 10
60.1815
 20
154.1653
  0
VERTEX
  8
LAYER_1
 10
60.1822
 20
154.1784
  0
VERTEX
  8
LAYER_1
 10
60.1825
 20
154.1911
  0
VERTEX
  8
LAYER_1
 10
60.1825
 20
154.2039
  0
VERTEX
  8
LAYER_1
 10
60.1829
 20
154.2166
  0
VERTEX
  8
LAYER_1
 10
60.1825
 20
154.2293
  0
VERTEX
  8
LAYER_1
 10
60.1825
 20
154.2421
  0
VERTEX
  8
LAYER_1
 10
60.1822
 20
154.2548
  0
VERTEX
  8
LAYER_1
 10
60.1815
 20
154.2676
  0
VERTEX
  8
LAYER_1
 10
60.1805
 20
154.2848
  0
VERTEX
  8
LAYER_1
 10
60.1794
 20
154.3017
  0
VERTEX
  8
LAYER_1
 10
60.1781
 20
154.3189
  0
VERTEX
  8
LAYER_1
 10
60.1763
 20
154.3358
  0
VERTEX
  8
LAYER_1
 10
60.1743
 20
154.353
  0
VERTEX
  8
LAYER_1
 10
60.1719
 20
154.3699
  0
VERTEX
  8
LAYER_1
 10
60.1695
 20
154.3871
  0
VERTEX
  8
LAYER_1
 10
60.1667
 20
154.4044
  0
SEQEND
  0
POLYLINE
  8
LAYER_1
 40
0.2469
 41
0.2469
 66
1
 10
0
 20
0
 30
0
  0
VERTEX
  8
LAYER_1
 10
60.1667
 20
154.4044
  0
VERTEX
  8
LAYER_1
 10
60.1636
 20
154.4216
  0
VERTEX
  8
LAYER_1
 10
60.1602
 20
154.4388
  0
VERTEX
  8
LAYER_1
 10
60.1564
 20
154.456
  0
VERTEX
  8
LAYER_1
 10
60.1526
 20
154.4733
  0
VERTEX
  8
LAYER_1
 10
60.1498
 20
154.485
  0
VERTEX
  8
LAYER_1
 10
60.1467
 20
154.4967
  0
VERTEX
  8
LAYER_1
 10
60.144
 20
154.5087
  0
VERTEX
  8
LAYER_1
 10
60.1405
 20
154.5205
  0
VERTEX
  8
LAYER_1
 10
60.1367
 20
154.5339
  0
VERTEX
  8
LAYER_1
 10
60.1329
 20
154.547
  0
VERTEX
  8
LAYER_1
 10
60.1288
 20
154.5604
  0
VERTEX
  8
LAYER_1
 10
60.1243
 20
154.5735
  0
VERTEX
  8
LAYER_1
 10
60.1188
 20
154.59
  0
VERTEX
  8
LAYER_1
 10
60.113
 20
154.6066
  0
VERTEX
  8
LAYER_1
 10
60.1068
 20
154.6231
  0
VERTEX
  8
LAYER_1
 10
60.1006
 20
154.6393
  0
VERTEX
  8
LAYER_1
 10
60.0937
 20
154.6555
  0
VERTEX
  8
LAYER_1
 10
60.0871
 20
154.6717
  0
VERTEX
  8
LAYER_1
 10
60.0795
 20
154.6886
  0
VERTEX
  8
LAYER_1
 10
60.072
 20
154.7055
  0
VERTEX
  8
LAYER_1
 10
60.064
 20
154.722
  0
VERTEX
  8
LAYER_1
 10
60.0558
 20
154.7389
  0
VERTEX
  8
LAYER_1
 10
60.0475
 20
154.7554
  0
VERTEX
  8
LAYER_1
 10
60.0389
 20
154.7716
  0
VERTEX
  8
LAYER_1
 10
60.033
 20
154.7826
  0
VERTEX
  8
LAYER_1
 10
60.0272
 20
154.7937
  0
VERTEX
  8
LAYER_1
 10
60.0213
 20
154.8043
  0
VERTEX
  8
LAYER_1
 10
60.0151
 20
154.815
  0
VERTEX
  8
LAYER_1
 10
60.0075
 20
154.8281
  0
VERTEX
  8
LAYER_1
 10
59.9996
 20
154.8415
  0
VERTEX
  8
LAYER_1
 10
59.9917
 20
154.8546
  0
VERTEX
  8
LAYER_1
 10
59.9834
 20
154.8674
  0
VERTEX
  8
LAYER_1
 10
59.9734
 20
154.8832
  0
VERTEX
  8
LAYER_1
 10
59.9631
 20
154.8984
  0
VERTEX
  8
LAYER_1
 10
59.9528
 20
154.9139
  0
VERTEX
  8
LAYER_1
 10
59.9421
 20
154.9287
  0
VERTEX
  8
LAYER_1
 10
59.9311
 20
154.9439
  0
VERTEX
  8
LAYER_1
 10
59.92
 20
154.959
  0
VERTEX
  8
LAYER_1
 10
59.9073
 20
154.9759
  0
VERTEX
  8
LAYER_1
 10
59.8938
 20
154.9931
  0
VERTEX
  8
LAYER_1
 10
59.8808
 20
155.01
  0
VERTEX
  8
LAYER_1
 10
59.867
 20
155.0265
  0
VERTEX
  8
LAYER_1
 10
59.8532
 20
155.0431
  0
VERTEX
  8
LAYER_1
 10
59.8391
 20
155.0593
  0
VERTEX
  8
LAYER_1
 10
59.8246
 20
155.0755
  0
VERTEX
  8
LAYER_1
 10
59.8101
 20
155.0913
  0
VERTEX
  8
LAYER_1
 10
59.8077
 20
155.0941
  0
VERTEX
  8
LAYER_1
 10
59.8053
 20
155.0968
  0
VERTEX
  8
LAYER_1
 10
59.7895
 20
155.113
  0
VERTEX
  8
LAYER_1
 10
59.7733
 20
155.1285
  0
VERTEX
  8
LAYER_1
 10
59.7571
 20
155.1444
  0
VERTEX
  8
LAYER_1
 10
59.7412
 20
155.1599
  0
VERTEX
  8
LAYER_1
 10
59.725
 20
155.1757
  0
VERTEX
  8
LAYER_1
 10
59.7092
 20
155.1912
  0
VERTEX
  8
LAYER_1
 10
59.693
 20
155.2071
  0
VERTEX
  8
LAYER_1
 10
59.6771
 20
155.2229
  0
VERTEX
  8
LAYER_1
 10
59.6599
 20
155.2388
  0
VERTEX
  8
LAYER_1
 10
59.6427
 20
155.2546
  0
VERTEX
  8
LAYER_1
 10
59.6248
 20
155.2698
  0
VERTEX
  8
LAYER_1
 10
59.6065
 20
155.2842
  0
VERTEX
  8
LAYER_1
 10
59.5883
 20
155.299
  0
VERTEX
  8
LAYER_1
 10
59.5697
 20
155.3132
  0
VERTEX
  8
LAYER_1
 10
59.5507
 20
155.3273
  0
VERTEX
  8
LAYER_1
 10
59.5321
 20
155.3414
  0
VERTEX
  8
LAYER_1
 10
59.529
 20
155.3438
  0
VERTEX
  8
LAYER_1
 10
59.5259
 20
155.3462
  0
VERTEX
  8
LAYER_1
 10
59.5101
 20
155.3573
  0
VERTEX
  8
LAYER_1
 10
59.4939
 20
155.3683
  0
VERTEX
  8
LAYER_1
 10
59.4777
 20
155.379
  0
VERTEX
  8
LAYER_1
 10
59.4618
 20
155.39
  0
VERTEX
  8
LAYER_1
 10
59.4456
 20
155.401
  0
VERTEX
  8
LAYER_1
 10
59.4294
 20
155.412
  0
VERTEX
  8
LAYER_1
 10
59.4133
 20
155.4231
  0
VERTEX
  8
LAYER_1
 10
59.3971
 20
155.4341
  0
VERTEX
  8
LAYER_1
 10
59.3812
 20
155.4451
  0
VERTEX
  8
LAYER_1
 10
59.365
 20
155.4558
  0
VERTEX
  8
LAYER_1
 10
59.3481
 20
155.4672
  0
VERTEX
  8
LAYER_1
 10
59.3309
 20
155.4782
  0
VERTEX
  8
LAYER_1
 10
59.3137
 20
155.4885
  0
VERTEX
  8
LAYER_1
 10
59.2965
 20
155.4989
  0
VERTEX
  8
LAYER_1
 10
59.2786
 20
155.5089
  0
VERTEX
  8
LAYER_1
 10
59.261
 20
155.5188
  0
VERTEX
  8
LAYER_1
 10
59.2431
 20
155.5285
  0
VERTEX
  8
LAYER_1
 10
59.2252
 20
155.5381
  0
VERTEX
  8
LAYER_1
 10
59.2072
 20
155.5474
  0
VERTEX
  8
LAYER_1
 10
59.1893
 20
155.5571
  0
VERTEX
  8
LAYER_1
 10
59.1862
 20
155.5588
  0
VERTEX
  8
LAYER_1
 10
59.1828
 20
155.5605
  0
VERTEX
  8
LAYER_1
 10
59.1642
 20
155.5698
  0
VERTEX
  8
LAYER_1
 10
59.1452
 20
155.5788
  0
VERTEX
  8
LAYER_1
 10
59.1263
 20
155.5877
  0
VERTEX
  8
LAYER_1
 10
59.1073
 20
155.597
  0
VERTEX
  8
LAYER_1
 10
59.0884
 20
155.606
  0
VERTEX
  8
LAYER_1
 10
59.0694
 20
155.615
  0
VERTEX
  8
LAYER_1
 10
59.0505
 20
155.6239
  0
VERTEX
  8
LAYER_1
 10
59.0319
 20
155.6332
  0
VERTEX
  8
LAYER_1
 10
59.0126
 20
155.6425
  0
VERTEX
  8
LAYER_1
 10
58.994
 20
155.6515
  0
VERTEX
  8
LAYER_1
 10
58.974
 20
155.6604
  0
VERTEX
  8
LAYER_1
 10
58.9544
 20
155.6694
  0
VERTEX
  8
LAYER_1
 10
58.9344
 20
155.678
  0
VERTEX
  8
LAYER_1
 10
58.9144
 20
155.6863
  0
VERTEX
  8
LAYER_1
 10
58.8941
 20
155.6942
  0
VERTEX
  8
LAYER_1
 10
58.8738
 20
155.7018
  0
VERTEX
  8
LAYER_1
 10
58.8534
 20
155.7097
  0
VERTEX
  8
LAYER_1
 10
58.8331
 20
155.7173
  0
VERTEX
  8
LAYER_1
 10
58.8128
 20
155.7245
  0
VERTEX
  8
LAYER_1
 10
58.7921
 20
155.7321
  0
VERTEX
  8
LAYER_1
 10
58.7893
 20
155.7331
  0
VERTEX
  8
LAYER_1
 10
58.7866
 20
155.7342
  0
VERTEX
  8
LAYER_1
 10
58.7656
 20
155.7411
  0
VERTEX
  8
LAYER_1
 10
58.7442
 20
155.7479
  0
VERTEX
  8
LAYER_1
 10
58.7232
 20
155.7548
  0
VERTEX
  8
LAYER_1
 10
58.7018
 20
155.7617
  0
VERTEX
  8
LAYER_1
 10
58.6805
 20
155.7686
  0
VERTEX
  8
LAYER_1
 10
58.6595
 20
155.7755
  0
VERTEX
  8
LAYER_1
 10
58.6381
 20
155.7824
  0
VERTEX
  8
LAYER_1
 10
58.6171
 20
155.7893
  0
VERTEX
  8
LAYER_1
 10
58.5957
 20
155.7965
  0
VERTEX
  8
LAYER_1
 10
58.5747
 20
155.8031
  0
VERTEX
  8
LAYER_1
 10
58.5527
 20
155.81
  0
VERTEX
  8
LAYER_1
 10
58.531
 20
155.8168
  0
VERTEX
  8
LAYER_1
 10
58.5089
 20
155.823
  0
VERTEX
  8
LAYER_1
 10
58.4865
 20
155.8289
  0
VERTEX
  8
LAYER_1
 10
58.4645
 20
155.8348
  0
VERTEX
  8
LAYER_1
 10
58.4421
 20
155.8403
  0
VERTEX
  8
LAYER_1
 10
58.42
 20
155.8454
  0
VERTEX
  8
LAYER_1
 10
58.3976
 20
155.8506
  0
VERTEX
  8
LAYER_1
 10
58.3752
 20
155.8558
  0
VERTEX
  8
LAYER_1
 10
58.3529
 20
155.8609
  0
VERTEX
  8
LAYER_1
 10
58.3508
 20
155.8613
  0
VERTEX
  8
LAYER_1
 10
58.3487
 20
155.862
  0
VERTEX
  8
LAYER_1
 10
58.326
 20
155.8665
  0
VERTEX
  8
LAYER_1
 10
58.3029
 20
155.8709
  0
VERTEX
  8
LAYER_1
 10
58.2802
 20
155.8754
  0
VERTEX
  8
LAYER_1
 10
58.2574
 20
155.8802
  0
VERTEX
  8
LAYER_1
 10
58.2343
 20
155.8844
  0
VERTEX
  8
LAYER_1
 10
58.2116
 20
155.8892
  0
VERTEX
  8
LAYER_1
 10
58.1885
 20
155.8937
  0
VERTEX
  8
LAYER_1
 10
58.1658
 20
155.8981
  0
VERTEX
  8
LAYER_1
 10
58.143
 20
155.9026
  0
VERTEX
  8
LAYER_1
 10
58.12
 20
155.9071
  0
VERTEX
  8
LAYER_1
 10
58.0965
 20
155.9116
  0
VERTEX
  8
LAYER_1
 10
58.0731
 20
155.9154
  0
VERTEX
  8
LAYER_1
 10
58.0497
 20
155.9195
  0
VERTEX
  8
LAYER_1
 10
58.0263
 20
155.923
  0
VERTEX
  8
LAYER_1
 10
58.0025
 20
155.9261
  0
VERTEX
  8
LAYER_1
 10
57.9791
 20
155.9292
  0
VERTEX
  8
LAYER_1
 10
57.9556
 20
155.9319
  0
VERTEX
  8
LAYER_1
 10
57.9319
 20
155.9347
  0
VERTEX
  8
LAYER_1
 10
57.9081
 20
155.9374
  0
VERTEX
  8
LAYER_1
 10
57.8847
 20
155.9398
  0
VERTEX
  8
LAYER_1
 10
57.8836
 20
155.9402
  0
VERTEX
  8
LAYER_1
 10
57.8826
 20
155.9402
  0
VERTEX
  8
LAYER_1
 10
57.8585
 20
155.9422
  0
VERTEX
  8
LAYER_1
 10
57.8347
 20
155.9443
  0
VERTEX
  8
LAYER_1
 10
57.8109
 20
155.946
  0
VERTEX
  8
LAYER_1
 10
57.7868
 20
155.9481
  0
VERTEX
  8
LAYER_1
 10
57.7631
 20
155.9502
  0
VERTEX
  8
LAYER_1
 10
57.7393
 20
155.9519
  0
VERTEX
  8
LAYER_1
 10
57.7152
 20
155.954
  0
VERTEX
  8
LAYER_1
 10
57.6914
 20
155.956
  0
VERTEX
  8
LAYER_1
 10
57.6676
 20
155.9581
  0
VERTEX
  8
LAYER_1
 10
57.6435
 20
155.9598
  0
VERTEX
  8
LAYER_1
 10
57.6194
 20
155.9615
  0
VERTEX
  8
LAYER_1
 10
57.5953
 20
155.9629
  0
VERTEX
  8
LAYER_1
 10
57.5712
 20
155.9643
  0
VERTEX
  8
LAYER_1
 10
57.547
 20
155.965
  0
VERTEX
  8
LAYER_1
 10
57.5229
 20
155.9657
  0
VERTEX
  8
LAYER_1
 10
57.4985
 20
155.9664
  0
VERTEX
  8
LAYER_1
 10
57.4744
 20
155.9664
  0
VERTEX
  8
LAYER_1
 10
57.4502
 20
155.9667
  0
VERTEX
  8
LAYER_1
 10
57.4258
 20
155.9667
  0
VERTEX
  8
LAYER_1
 10
57.4017
 20
155.9664
  0
VERTEX
  8
LAYER_1
 10
57.3775
 20
155.9664
  0
VERTEX
  8
LAYER_1
 10
57.3534
 20
155.966
  0
VERTEX
  8
LAYER_1
 10
57.3293
 20
155.9657
  0
VERTEX
  8
LAYER_1
 10
57.3049
 20
155.965
  0
VERTEX
  8
LAYER_1
 10
57.2807
 20
155.9646
  0
VERTEX
  8
LAYER_1
 10
57.2566
 20
155.964
  0
VERTEX
  8
LAYER_1
 10
57.2325
 20
155.9629
  0
VERTEX
  8
LAYER_1
 10
57.208
 20
155.9622
  0
VERTEX
  8
LAYER_1
 10
57.1839
 20
155.9612
  0
VERTEX
  8
LAYER_1
 10
57.1598
 20
155.9598
  0
VERTEX
  8
LAYER_1
 10
57.136
 20
155.9584
  0
VERTEX
  8
LAYER_1
 10
57.1119
 20
155.9571
  0
VERTEX
  8
LAYER_1
 10
57.0882
 20
155.9553
  0
VERTEX
  8
LAYER_1
 10
57.064
 20
155.9536
  0
VERTEX
  8
LAYER_1
 10
57.0403
 20
155.9519
  0
VERTEX
  8
LAYER_1
 10
57.0165
 20
155.9498
  0
VERTEX
  8
LAYER_1
 10
56.9924
 20
155.9474
  0
VERTEX
  8
LAYER_1
 10
56.9686
 20
155.945
  0
VERTEX
  8
LAYER_1
 10
56.9448
 20
155.9426
  0
VERTEX
  8
LAYER_1
 10
56.9211
 20
155.9402
  0
VERTEX
  8
LAYER_1
 10
56.92
 20
155.9402
  0
VERTEX
  8
LAYER_1
 10
56.9187
 20
155.9398
  0
VERTEX
  8
LAYER_1
 10
56.8952
 20
155.9367
  0
VERTEX
  8
LAYER_1
 10
56.8718
 20
155.9333
  0
VERTEX
  8
LAYER_1
 10
56.8484
 20
155.9302
  0
VERTEX
  8
LAYER_1
 10
56.8246
 20
155.9267
  0
VERTEX
  8
LAYER_1
 10
56.8012
 20
155.9236
  0
VERTEX
  8
LAYER_1
 10
56.7778
 20
155.9202
  0
VERTEX
  8
LAYER_1
 10
56.754
 20
155.9171
  0
VERTEX
  8
LAYER_1
 10
56.7306
 20
155.9137
  0
VERTEX
  8
LAYER_1
 10
56.7071
 20
155.9106
  0
VERTEX
  8
LAYER_1
 10
56.6837
 20
155.9071
  0
VERTEX
  8
LAYER_1
 10
56.6603
 20
155.9037
  0
VERTEX
  8
LAYER_1
 10
56.6375
 20
155.8999
  0
VERTEX
  8
LAYER_1
 10
56.6145
 20
155.8961
  0
VERTEX
  8
LAYER_1
 10
56.5914
 20
155.8916
  0
VERTEX
  8
LAYER_1
 10
56.5686
 20
155.8871
  0
VERTEX
  8
LAYER_1
 10
56.5459
 20
155.8823
  0
VERTEX
  8
LAYER_1
 10
56.5232
 20
155.8775
  0
VERTEX
  8
LAYER_1
 10
56.5004
 20
155.8723
  0
VERTEX
  8
LAYER_1
 10
56.4773
 20
155.8671
  0
VERTEX
  8
LAYER_1
 10
56.4546
 20
155.862
  0
VERTEX
  8
LAYER_1
 10
56.4525
 20
155.8613
  0
VERTEX
  8
LAYER_1
 10
56.4505
 20
155.8609
  0
VERTEX
  8
LAYER_1
 10
56.4284
 20
155.8554
  0
VERTEX
  8
LAYER_1
 10
56.406
 20
155.8496
  0
VERTEX
  8
LAYER_1
 10
56.384
 20
155.8437
  0
VERTEX
  8
LAYER_1
 10
56.3619
 20
155.8379
  0
VERTEX
  8
LAYER_1
 10
56.3399
 20
155.832
  0
VERTEX
  8
LAYER_1
 10
56.3175
 20
155.8265
  0
VERTEX
  8
LAYER_1
 10
56.2954
 20
155.8206
  0
VERTEX
  8
LAYER_1
 10
56.2731
 20
155.8148
  0
VERTEX
  8
LAYER_1
 10
56.251
 20
155.8093
  0
VERTEX
  8
LAYER_1
 10
56.229
 20
155.8031
  0
VERTEX
  8
LAYER_1
 10
56.2072
 20
155.7976
  0
VERTEX
  8
LAYER_1
 10
56.1859
 20
155.7914
  0
VERTEX
  8
LAYER_1
 10
56.1645
 20
155.7848
  0
VERTEX
  8
LAYER_1
 10
56.1432
 20
155.7783
  0
VERTEX
  8
LAYER_1
 10
56.1222
 20
155.771
  0
VERTEX
  8
LAYER_1
 10
56.1008
 20
155.7638
  0
VERTEX
  8
LAYER_1
 10
56.0798
 20
155.7566
  0
VERTEX
  8
LAYER_1
 10
56.0588
 20
155.7493
  0
VERTEX
  8
LAYER_1
 10
56.0378
 20
155.7417
  0
VERTEX
  8
LAYER_1
 10
56.0167
 20
155.7342
  0
VERTEX
  8
LAYER_1
 10
56.014
 20
155.7331
  0
VERTEX
  8
LAYER_1
 10
56.0112
 20
155.7321
  0
VERTEX
  8
LAYER_1
 10
55.9909
 20
155.7242
  0
VERTEX
  8
LAYER_1
 10
55.9709
 20
155.7159
  0
VERTEX
  8
LAYER_1
 10
55.9506
 20
155.708
  0
VERTEX
  8
LAYER_1
 10
55.9306
 20
155.6997
  0
VERTEX
  8
LAYER_1
 10
55.9103
 20
155.6918
  0
VERTEX
  8
LAYER_1
 10
55.8903
 20
155.6839
  0
VERTEX
  8
LAYER_1
 10
55.87
 20
155.6756
  0
VERTEX
  8
LAYER_1
 10
55.85
 20
155.6673
  0
VERTEX
  8
LAYER_1
 10
55.8297
 20
155.6594
  0
VERTEX
  8
LAYER_1
 10
55.8097
 20
155.6515
  0
VERTEX
  8
LAYER_1
 10
55.79
 20
155.6432
  0
VERTEX
  8
LAYER_1
 10
55.7711
 20
155.6349
  0
VERTEX
  8
LAYER_1
 10
55.7518
 20
155.6263
  0
VERTEX
  8
LAYER_1
 10
55.7329
 20
155.6177
  0
VERTEX
  8
LAYER_1
 10
55.7139
 20
155.6084
  0
VERTEX
  8
LAYER_1
 10
55.695
 20
155.5991
  0
VERTEX
  8
LAYER_1
 10
55.6764
 20
155.5895
  0
VERTEX
  8
LAYER_1
 10
55.6578
 20
155.5798
  0
VERTEX
  8
LAYER_1
 10
55.6392
 20
155.5702
  0
VERTEX
  8
LAYER_1
 10
55.6205
 20
155.5605
  0
VERTEX
  8
LAYER_1
 10
55.6171
 20
155.5588
  0
VERTEX
  8
LAYER_1
 10
55.614
 20
155.5571
  0
VERTEX
  8
LAYER_1
 10
55.5964
 20
155.5471
  0
VERTEX
  8
LAYER_1
 10
55.5789
 20
155.5371
  0
VERTEX
  8
LAYER_1
 10
55.5613
 20
155.5268
  0
VERTEX
  8
LAYER_1
 10
55.5437
 20
155.5168
  0
VERTEX
  8
LAYER_1
 10
55.5262
 20
155.5064
  0
VERTEX
  8
LAYER_1
 10
55.5086
 20
155.4965
  0
VERTEX
  8
LAYER_1
 10
55.491
 20
155.4861
  0
VERTEX
  8
LAYER_1
 10
55.4734
 20
155.4761
  0
VERTEX
  8
LAYER_1
 10
55.4559
 20
155.4661
  0
VERTEX
  8
LAYER_1
 10
55.4383
 20
155.4558
  0
VERTEX
  8
LAYER_1
 10
55.4218
 20
155.4462
  0
VERTEX
  8
LAYER_1
 10
55.4049
 20
155.4358
  0
VERTEX
  8
LAYER_1
 10
55.3887
 20
155.4255
  0
VERTEX
  8
LAYER_1
 10
55.3725
 20
155.4145
  0
VERTEX
  8
LAYER_1
 10
55.3563
 20
155.4034
  0
VERTEX
  8
LAYER_1
 10
55.3405
 20
155.3924
  0
VERTEX
  8
LAYER_1
 10
55.3246
 20
155.3807
  0
VERTEX
  8
LAYER_1
 10
55.3088
 20
155.3693
  0
VERTEX
  8
LAYER_1
 10
55.2933
 20
155.3576
  0
VERTEX
  8
LAYER_1
 10
55.2774
 20
155.3462
  0
VERTEX
  8
LAYER_1
 10
55.2743
 20
155.3438
  0
VERTEX
  8
LAYER_1
 10
55.2712
 20
155.3414
  0
VERTEX
  8
LAYER_1
 10
55.253
 20
155.327
  0
VERTEX
  8
LAYER_1
 10
55.235
 20
155.3118
  0
VERTEX
  8
LAYER_1
 10
55.2171
 20
155.297
  0
VERTEX
  8
LAYER_1
 10
55.1989
 20
155.2822
  0
VERTEX
  8
LAYER_1
 10
55.181
 20
155.2674
  0
VERTEX
  8
LAYER_1
 10
55.1627
 20
155.2525
  0
VERTEX
  8
LAYER_1
 10
55.1444
 20
155.2377
  0
VERTEX
  8
LAYER_1
 10
55.1265
 20
155.2229
  0
VERTEX
  8
LAYER_1
 10
55.1093
 20
155.2084
  0
VERTEX
  8
LAYER_1
 10
55.0928
 20
155.1933
  0
VERTEX
  8
LAYER_1
 10
55.0762
 20
155.1781
  0
VERTEX
  8
LAYER_1
 10
55.0604
 20
155.1623
  0
VERTEX
  8
LAYER_1
 10
55.0445
 20
155.1461
  0
VERTEX
  8
LAYER_1
 10
55.0287
 20
155.1299
  0
VERTEX
  8
LAYER_1
 10
55.0135
 20
155.1134
  0
VERTEX
  8
LAYER_1
 10
54.9984
 20
155.0968
  0
VERTEX
  8
LAYER_1
 10
54.9956
 20
155.0941
  0
VERTEX
  8
LAYER_1
 10
54.9932
 20
155.0913
  0
VERTEX
  8
LAYER_1
 10
54.9791
 20
155.0751
  0
VERTEX
  8
LAYER_1
 10
54.9656
 20
155.0582
  0
VERTEX
  8
LAYER_1
 10
54.9522
 20
155.0417
  0
VERTEX
  8
LAYER_1
 10
54.9384
 20
155.0252
  0
VERTEX
  8
LAYER_1
 10
54.9246
 20
155.0086
  0
VERTEX
  8
LAYER_1
 10
54.9109
 20
154.9921
  0
VERTEX
  8
LAYER_1
 10
54.8971
 20
154.9756
  0
VERTEX
  8
LAYER_1
 10
54.8833
 20
154.959
  0
VERTEX
  8
LAYER_1
 10
54.8719
 20
154.9442
  0
VERTEX
  8
LAYER_1
 10
54.8609
 20
154.9294
  0
VERTEX
  8
LAYER_1
 10
54.8502
 20
154.9142
  0
VERTEX
  8
LAYER_1
 10
54.8399
 20
154.8987
  0
VERTEX
  8
LAYER_1
 10
54.8299
 20
154.8832
  0
VERTEX
  8
LAYER_1
 10
54.8199
 20
154.8674
  0
VERTEX
  8
LAYER_1
 10
54.812
 20
154.8546
  0
VERTEX
  8
LAYER_1
 10
54.8041
 20
154.8415
  0
VERTEX
  8
LAYER_1
 10
54.7961
 20
154.8281
  0
VERTEX
  8
LAYER_1
 10
54.7882
 20
154.815
  0
VERTEX
  8
LAYER_1
 10
54.7824
 20
154.8043
  0
VERTEX
  8
LAYER_1
 10
54.7762
 20
154.7937
  0
VERTEX
  8
LAYER_1
 10
54.7703
 20
154.7826
  0
VERTEX
  8
LAYER_1
 10
54.7644
 20
154.7716
  0
VERTEX
  8
LAYER_1
 10
54.7558
 20
154.7554
  0
VERTEX
  8
LAYER_1
 10
54.7476
 20
154.7389
  0
VERTEX
  8
LAYER_1
 10
54.7393
 20
154.722
  0
VERTEX
  8
LAYER_1
 10
54.7317
 20
154.7055
  0
VERTEX
  8
LAYER_1
 10
54.7238
 20
154.6886
  0
VERTEX
  8
LAYER_1
 10
54.7166
 20
154.6717
  0
VERTEX
  8
LAYER_1
 10
54.7097
 20
154.6555
  0
VERTEX
  8
LAYER_1
 10
54.7031
 20
154.6393
  0
VERTEX
  8
LAYER_1
 10
54.6966
 20
154.6231
  0
VERTEX
  8
LAYER_1
 10
54.6907
 20
154.6066
  0
VERTEX
  8
LAYER_1
 10
54.6849
 20
154.59
  0
VERTEX
  8
LAYER_1
 10
54.679
 20
154.5735
  0
VERTEX
  8
LAYER_1
 10
54.6749
 20
154.5604
  0
VERTEX
  8
LAYER_1
 10
54.6707
 20
154.547
  0
VERTEX
  8
LAYER_1
 10
54.6666
 20
154.5339
  0
VERTEX
  8
LAYER_1
 10
54.6628
 20
154.5205
  0
VERTEX
  8
LAYER_1
 10
54.6597
 20
154.5087
  0
VERTEX
  8
LAYER_1
 10
54.6566
 20
154.4967
  0
VERTEX
  8
LAYER_1
 10
54.6539
 20
154.485
  0
VERTEX
  8
LAYER_1
 10
54.6508
 20
154.4733
  0
VERTEX
  8
LAYER_1
 10
54.647
 20
154.456
  0
VERTEX
  8
LAYER_1
 10
54.6435
 20
154.4388
  0
VERTEX
  8
LAYER_1
 10
54.6401
 20
154.4216
  0
VERTEX
  8
LAYER_1
 10
54.637
 20
154.4044
  0
VERTEX
  8
LAYER_1
 10
54.6339
 20
154.3871
  0
VERTEX
  8
LAYER_1
 10
54.6315
 20
154.3699
  0
VERTEX
  8
LAYER_1
 10
54.6291
 20
154.353
  0
VERTEX
  8
LAYER_1
 10
54.6273
 20
154.3358
  0
VERTEX
  8
LAYER_1
 10
54.6256
 20
154.3189
  0
VERTEX
  8
LAYER_1
 10
54.6242
 20
154.3017
  0
VERTEX
  8
LAYER_1
 10
54.6229
 20
154.2848
  0
VERTEX
  8
LAYER_1
 10
54.6218
 20
154.2676
  0
VERTEX
  8
LAYER_1
 10
54.6215
 20
154.2548
  0
VERTEX
  8
LAYER_1
 10
54.6208
 20
154.2421
  0
VERTEX
  8
LAYER_1
 10
54.6208
 20
154.2293
  0
VERTEX
  8
LAYER_1
 10
54.6208
 20
154.2166
  0
VERTEX
  8
LAYER_1
 10
54.6208
 20
154.2039
  0
VERTEX
  8
LAYER_1
 10
54.6208
 20
154.1911
  0
VERTEX
  8
LAYER_1
 10
54.6215
 20
154.1784
  0
VERTEX
  8
LAYER_1
 10
54.6218
 20
154.1653
  0
VERTEX
  8
LAYER_1
 10
54.6229
 20
154.1484
  0
VERTEX
  8
LAYER_1
 10
54.6242
 20
154.1312
  0
VERTEX
  8
LAYER_1
 10
54.6256
 20
154.1143
  0
VERTEX
  8
LAYER_1
 10
54.6273
 20
154.0971
  0
VERTEX
  8
LAYER_1
 10
54.6291
 20
154.0802
  0
VERTEX
  8
LAYER_1
 10
54.6315
 20
154.0633
  0
VERTEX
  8
LAYER_1
 10
54.6339
 20
154.0474
  0
VERTEX
  8
LAYER_1
 10
54.6363
 20
154.0319
  0
SEQEND
  0
ENDBLK
  0
BLOCK
  8
LAYER_1
  2
AIGNBL01020018
 70
64
 10
0
 20
0
 30
0
  3
AIGNBL01020018
  0
POLYLINE
  8
LAYER_1
 40
0.2469
 41
0.2469
 66
1
 10
0
 20
0
 30
0
  0
VERTEX
  8
LAYER_1
 10
53.6672
 20
154.0319
  0
VERTEX
  8
LAYER_1
 10
53.6644
 20
154.0164
  0
VERTEX
  8
LAYER_1
 10
53.6617
 20
154.0009
  0
VERTEX
  8
LAYER_1
 10
53.6582
 20
153.9854
  0
VERTEX
  8
LAYER_1
 10
53.6551
 20
153.9703
  0
VERTEX
  8
LAYER_1
 10
53.6513
 20
153.9551
  0
VERTEX
  8
LAYER_1
 10
53.6479
 20
153.9396
  0
VERTEX
  8
LAYER_1
 10
53.6444
 20
153.9262
  0
VERTEX
  8
LAYER_1
 10
53.6407
 20
153.9127
  0
VERTEX
  8
LAYER_1
 10
53.6358
 20
153.8959
  0
VERTEX
  8
LAYER_1
 10
53.6307
 20
153.8793
  0
VERTEX
  8
LAYER_1
 10
53.6258
 20
153.8645
  0
VERTEX
  8
LAYER_1
 10
53.621
 20
153.8497
  0
VERTEX
  8
LAYER_1
 10
53.6158
 20
153.8345
  0
VERTEX
  8
LAYER_1
 10
53.6107
 20
153.8201
  0
VERTEX
  8
LAYER_1
 10
53.6052
 20
153.8053
  0
VERTEX
  8
LAYER_1
 10
53.599
 20
153.7904
  0
VERTEX
  8
LAYER_1
 10
53.5931
 20
153.776
  0
VERTEX
  8
LAYER_1
 10
53.5873
 20
153.7615
  0
VERTEX
  8
LAYER_1
 10
53.5797
 20
153.7446
  0
VERTEX
  8
LAYER_1
 10
53.5721
 20
153.7277
  0
VERTEX
  8
LAYER_1
 10
53.5638
 20
153.7109
  0
VERTEX
  8
LAYER_1
 10
53.5559
 20
153.6943
  0
VERTEX
  8
LAYER_1
 10
53.5476
 20
153.6778
  0
VERTEX
  8
LAYER_1
 10
53.539
 20
153.6612
  0
VERTEX
  8
LAYER_1
 10
53.5332
 20
153.6506
  0
VERTEX
  8
LAYER_1
 10
53.5273
 20
153.6395
  0
VERTEX
  8
LAYER_1
 10
53.5211
 20
153.6289
  0
VERTEX
  8
LAYER_1
 10
53.5149
 20
153.6182
  0
VERTEX
  8
LAYER_1
 10
53.5073
 20
153.6047
  0
VERTEX
  8
LAYER_1
 10
53.4994
 20
153.5917
  0
VERTEX
  8
LAYER_1
 10
53.4915
 20
153.5786
  0
VERTEX
  8
LAYER_1
 10
53.4832
 20
153.5655
  0
VERTEX
  8
LAYER_1
 10
53.4732
 20
153.55
  0
VERTEX
  8
LAYER_1
 10
53.4632
 20
153.5348
  0
VERTEX
  8
LAYER_1
 10
53.4526
 20
153.5193
  0
VERTEX
  8
LAYER_1
 10
53.4419
 20
153.5042
  0
VERTEX
  8
LAYER_1
 10
53.4312
 20
153.4893
  0
VERTEX
  8
LAYER_1
 10
53.4202
 20
153.4742
  0
VERTEX
  8
LAYER_1
 10
53.4074
 20
153.457
  0
VERTEX
  8
LAYER_1
 10
53.394
 20
153.4401
  0
VERTEX
  8
LAYER_1
 10
53.3805
 20
153.4232
  0
VERTEX
  8
LAYER_1
 10
53.3668
 20
153.4067
  0
VERTEX
  8
LAYER_1
 10
53.353
 20
153.3901
  0
VERTEX
  8
LAYER_1
 10
53.3389
 20
153.3736
  0
VERTEX
  8
LAYER_1
 10
53.3247
 20
153.3577
  0
VERTEX
  8
LAYER_1
 10
53.3103
 20
153.3415
  0
VERTEX
  8
LAYER_1
 10
53.3075
 20
153.3388
  0
VERTEX
  8
LAYER_1
 10
53.3051
 20
153.336
  0
VERTEX
  8
LAYER_1
 10
53.2896
 20
153.3202
  0
VERTEX
  8
LAYER_1
 10
53.2731
 20
153.3047
  0
VERTEX
  8
LAYER_1
 10
53.2572
 20
153.2888
  0
VERTEX
  8
LAYER_1
 10
53.241
 20
153.273
  0
VERTEX
  8
LAYER_1
 10
53.2252
 20
153.2575
  0
VERTEX
  8
LAYER_1
 10
53.209
 20
153.2416
  0
VERTEX
  8
LAYER_1
 10
53.1931
 20
153.2261
  0
VERTEX
  8
LAYER_1
 10
53.1769
 20
153.2103
  0
VERTEX
  8
LAYER_1
 10
53.1601
 20
153.1941
  0
VERTEX
  8
LAYER_1
 10
53.1425
 20
153.1786
  0
VERTEX
  8
LAYER_1
 10
53.1249
 20
153.1634
  0
VERTEX
  8
LAYER_1
 10
53.1067
 20
153.1486
  0
VERTEX
  8
LAYER_1
 10
53.0881
 20
153.1341
  0
VERTEX
  8
LAYER_1
 10
53.0698
 20
153.12
  0
VERTEX
  8
LAYER_1
 10
53.0509
 20
153.1059
  0
VERTEX
  8
LAYER_1
 10
53.0322
 20
153.0918
  0
VERTEX
  8
LAYER_1
 10
53.0291
 20
153.0894
  0
VERTEX
  8
LAYER_1
 10
53.026
 20
153.087
  0
VERTEX
  8
LAYER_1
 10
53.0099
 20
153.0759
  0
VERTEX
  8
LAYER_1
 10
52.994
 20
153.0649
  0
VERTEX
  8
LAYER_1
 10
52.9775
 20
153.0539
  0
VERTEX
  8
LAYER_1
 10
52.9616
 20
153.0429
  0
VERTEX
  8
LAYER_1
 10
52.9454
 20
153.0318
  0
VERTEX
  8
LAYER_1
 10
52.9292
 20
153.0212
  0
VERTEX
  8
LAYER_1
 10
52.9134
 20
153.0101
  0
VERTEX
  8
LAYER_1
 10
52.8972
 20
152.9991
  0
VERTEX
  8
LAYER_1
 10
52.881
 20
152.9881
  0
VERTEX
  8
LAYER_1
 10
52.8652
 20
152.9771
  0
VERTEX
  8
LAYER_1
 10
52.8483
 20
152.966
  0
VERTEX
  8
LAYER_1
 10
52.8311
 20
152.955
  0
VERTEX
  8
LAYER_1
 10
52.8138
 20
152.9443
  0
VERTEX
  8
LAYER_1
 10
52.7963
 20
152.934
  0
VERTEX
  8
LAYER_1
 10
52.7787
 20
152.9243
  0
VERTEX
  8
LAYER_1
 10
52.7611
 20
152.9144
  0
VERTEX
  8
LAYER_1
 10
52.7432
 20
152.9047
  0
VERTEX
  8
LAYER_1
 10
52.7253
 20
152.8951
  0
VERTEX
  8
LAYER_1
 10
52.7074
 20
152.8854
  0
VERTEX
  8
LAYER_1
 10
52.6895
 20
152.8761
  0
VERTEX
  8
LAYER_1
 10
52.686
 20
152.8744
  0
VERTEX
  8
LAYER_1
 10
52.6829
 20
152.8727
  0
VERTEX
  8
LAYER_1
 10
52.6643
 20
152.8634
  0
VERTEX
  8
LAYER_1
 10
52.6454
 20
152.8544
  0
VERTEX
  8
LAYER_1
 10
52.6261
 20
152.8455
  0
VERTEX
  8
LAYER_1
 10
52.6075
 20
152.8361
  0
VERTEX
  8
LAYER_1
 10
52.5885
 20
152.8272
  0
VERTEX
  8
LAYER_1
 10
52.5696
 20
152.8182
  0
VERTEX
  8
LAYER_1
 10
52.5506
 20
152.8089
  0
VERTEX
  8
LAYER_1
 10
52.5317
 20
152.8
  0
VERTEX
  8
LAYER_1
 10
52.5127
 20
152.7907
  0
VERTEX
  8
LAYER_1
 10
52.4938
 20
152.7817
  0
VERTEX
  8
LAYER_1
 10
52.4741
 20
152.7728
  0
VERTEX
  8
LAYER_1
 10
52.4545
 20
152.7638
  0
VERTEX
  8
LAYER_1
 10
52.4345
 20
152.7552
  0
VERTEX
  8
LAYER_1
 10
52.4142
 20
152.7469
  0
VERTEX
  8
LAYER_1
 10
52.3942
 20
152.739
  0
VERTEX
  8
LAYER_1
 10
52.3739
 20
152.7311
  0
VERTEX
  8
LAYER_1
 10
52.3536
 20
152.7235
  0
VERTEX
  8
LAYER_1
 10
52.3332
 20
152.7159
  0
VERTEX
  8
LAYER_1
 10
52.3126
 20
152.7087
  0
VERTEX
  8
LAYER_1
 10
52.2922
 20
152.7011
  0
VERTEX
  8
LAYER_1
 10
52.2895
 20
152.7001
  0
VERTEX
  8
LAYER_1
 10
52.2867
 20
152.699
  0
VERTEX
  8
LAYER_1
 10
52.2657
 20
152.6918
  0
VERTEX
  8
LAYER_1
 10
52.2444
 20
152.6853
  0
VERTEX
  8
LAYER_1
 10
52.223
 20
152.6784
  0
VERTEX
  8
LAYER_1
 10
52.202
 20
152.6715
  0
VERTEX
  8
LAYER_1
 10
52.1806
 20
152.6646
  0
VERTEX
  8
LAYER_1
 10
52.1596
 20
152.6577
  0
VERTEX
  8
LAYER_1
 10
52.1382
 20
152.6505
  0
VERTEX
  8
LAYER_1
 10
52.1169
 20
152.6436
  0
VERTEX
  8
LAYER_1
 10
52.0959
 20
152.6367
  0
VERTEX
  8
LAYER_1
 10
52.0745
 20
152.6298
  0
VERTEX
  8
LAYER_1
 10
52.0528
 20
152.6229
  0
VERTEX
  8
LAYER_1
 10
52.0308
 20
152.6164
  0
VERTEX
  8
LAYER_1
 10
52.0087
 20
152.6102
  0
VERTEX
  8
LAYER_1
 10
51.9867
 20
152.6043
  0
VERTEX
  8
LAYER_1
 10
51.9646
 20
152.5984
  0
VERTEX
  8
LAYER_1
 10
51.9422
 20
152.5929
  0
VERTEX
  8
LAYER_1
 10
51.9198
 20
152.5878
  0
VERTEX
  8
LAYER_1
 10
51.8978
 20
152.5826
  0
VERTEX
  8
LAYER_1
 10
51.8754
 20
152.5774
  0
VERTEX
  8
LAYER_1
 10
51.853
 20
152.5723
  0
VERTEX
  8
LAYER_1
 10
51.8509
 20
152.5716
  0
VERTEX
  8
LAYER_1
 10
51.8489
 20
152.5712
  0
VERTEX
  8
LAYER_1
 10
51.8261
 20
152.5664
  0
VERTEX
  8
LAYER_1
 10
51.803
 20
152.5619
  0
VERTEX
  8
LAYER_1
 10
51.78
 20
152.5578
  0
VERTEX
  8
LAYER_1
 10
51.7572
 20
152.553
  0
VERTEX
  8
LAYER_1
 10
51.7345
 20
152.5485
  0
VERTEX
  8
LAYER_1
 10
51.7114
 20
152.544
  0
VERTEX
  8
LAYER_1
 10
51.6887
 20
152.5395
  0
VERTEX
  8
LAYER_1
 10
51.6656
 20
152.535
  0
VERTEX
  8
LAYER_1
 10
51.6428
 20
152.5306
  0
VERTEX
  8
LAYER_1
 10
51.6201
 20
152.5261
  0
VERTEX
  8
LAYER_1
 10
51.5967
 20
152.5216
  0
VERTEX
  8
LAYER_1
 10
51.5733
 20
152.5175
  0
VERTEX
  8
LAYER_1
 10
51.5498
 20
152.5137
  0
VERTEX
  8
LAYER_1
 10
51.5264
 20
152.5102
  0
VERTEX
  8
LAYER_1
 10
51.5026
 20
152.5071
  0
VERTEX
  8
LAYER_1
 10
51.4792
 20
152.504
  0
VERTEX
  8
LAYER_1
 10
51.4554
 20
152.5013
  0
VERTEX
  8
LAYER_1
 10
51.432
 20
152.4985
  0
VERTEX
  8
LAYER_1
 10
51.4082
 20
152.4958
  0
VERTEX
  8
LAYER_1
 10
51.3848
 20
152.493
  0
VERTEX
  8
LAYER_1
 10
51.3838
 20
152.493
  0
VERTEX
  8
LAYER_1
 10
51.3824
 20
152.493
  0
VERTEX
  8
LAYER_1
 10
51.3586
 20
152.491
  0
VERTEX
  8
LAYER_1
 10
51.3349
 20
152.4889
  0
VERTEX
  8
LAYER_1
 10
51.3107
 20
152.4872
  0
VERTEX
  8
LAYER_1
 10
51.287
 20
152.4851
  0
VERTEX
  8
LAYER_1
 10
51.2632
 20
152.483
  0
VERTEX
  8
LAYER_1
 10
51.2391
 20
152.4813
  0
VERTEX
  8
LAYER_1
 10
51.2153
 20
152.4792
  0
VERTEX
  8
LAYER_1
 10
51.1915
 20
152.4772
  0
VERTEX
  8
LAYER_1
 10
51.1674
 20
152.4751
  0
VERTEX
  8
LAYER_1
 10
51.1436
 20
152.473
  0
VERTEX
  8
LAYER_1
 10
51.1195
 20
152.4717
  0
VERTEX
  8
LAYER_1
 10
51.0954
 20
152.4699
  0
VERTEX
  8
LAYER_1
 10
51.071
 20
152.4689
  0
VERTEX
  8
LAYER_1
 10
51.0468
 20
152.4679
  0
VERTEX
  8
LAYER_1
 10
51.0227
 20
152.4672
  0
VERTEX
  8
LAYER_1
 10
50.9986
 20
152.4668
  0
VERTEX
  8
LAYER_1
 10
50.9745
 20
152.4665
  0
VERTEX
  8
LAYER_1
 10
50.9504
 20
152.4665
  0
VERTEX
  8
LAYER_1
 10
50.9259
 20
152.4665
  0
VERTEX
  8
LAYER_1
 10
50.9018
 20
152.4668
  0
VERTEX
  8
LAYER_1
 10
50.8773
 20
152.4668
  0
VERTEX
  8
LAYER_1
 10
50.8532
 20
152.4672
  0
VERTEX
  8
LAYER_1
 10
50.8291
 20
152.4675
  0
VERTEX
  8
LAYER_1
 10
50.805
 20
152.4679
  0
VERTEX
  8
LAYER_1
 10
50.7809
 20
152.4686
  0
VERTEX
  8
LAYER_1
 10
50.7568
 20
152.4692
  0
VERTEX
  8
LAYER_1
 10
50.7323
 20
152.4699
  0
VERTEX
  8
LAYER_1
 10
50.7082
 20
152.471
  0
VERTEX
  8
LAYER_1
 10
50.6841
 20
152.472
  0
VERTEX
  8
LAYER_1
 10
50.66
 20
152.473
  0
VERTEX
  8
LAYER_1
 10
50.6362
 20
152.4744
  0
VERTEX
  8
LAYER_1
 10
50.6121
 20
152.4761
  0
VERTEX
  8
LAYER_1
 10
50.588
 20
152.4779
  0
VERTEX
  8
LAYER_1
 10
50.5642
 20
152.4796
  0
VERTEX
  8
LAYER_1
 10
50.5404
 20
152.4813
  0
VERTEX
  8
LAYER_1
 10
50.5163
 20
152.4834
  0
VERTEX
  8
LAYER_1
 10
50.4925
 20
152.4854
  0
VERTEX
  8
LAYER_1
 10
50.4688
 20
152.4878
  0
VERTEX
  8
LAYER_1
 10
50.4446
 20
152.4903
  0
VERTEX
  8
LAYER_1
 10
50.4212
 20
152.493
  0
VERTEX
  8
LAYER_1
 10
50.4198
 20
152.493
  0
VERTEX
  8
LAYER_1
 10
50.4188
 20
152.493
  0
VERTEX
  8
LAYER_1
 10
50.3954
 20
152.4965
  0
VERTEX
  8
LAYER_1
 10
50.3716
 20
152.4999
  0
VERTEX
  8
LAYER_1
 10
50.3482
 20
152.503
  0
VERTEX
  8
LAYER_1
 10
50.3247
 20
152.5061
  0
VERTEX
  8
LAYER_1
 10
50.3013
 20
152.5096
  0
VERTEX
  8
LAYER_1
 10
50.2776
 20
152.513
  0
VERTEX
  8
LAYER_1
 10
50.2541
 20
152.5161
  0
VERTEX
  8
LAYER_1
 10
50.2307
 20
152.5192
  0
VERTEX
  8
LAYER_1
 10
50.2069
 20
152.5226
  0
VERTEX
  8
LAYER_1
 10
50.1835
 20
152.5261
  0
VERTEX
  8
LAYER_1
 10
50.1604
 20
152.5295
  0
VERTEX
  8
LAYER_1
 10
50.1373
 20
152.533
  0
VERTEX
  8
LAYER_1
 10
50.1146
 20
152.5371
  0
VERTEX
  8
LAYER_1
 10
50.0915
 20
152.5416
  0
VERTEX
  8
LAYER_1
 10
50.0688
 20
152.5461
  0
VERTEX
  8
LAYER_1
 10
50.0457
 20
152.5509
  0
VERTEX
  8
LAYER_1
 10
50.023
 20
152.5557
  0
VERTEX
  8
LAYER_1
 10
50.0002
 20
152.5609
  0
VERTEX
  8
LAYER_1
 10
49.9775
 20
152.5661
  0
VERTEX
  8
LAYER_1
 10
49.9547
 20
152.5712
  0
VERTEX
  8
LAYER_1
 10
49.9527
 20
152.5716
  0
VERTEX
  8
LAYER_1
 10
49.9506
 20
152.5723
  0
VERTEX
  8
LAYER_1
 10
49.9282
 20
152.5778
  0
VERTEX
  8
LAYER_1
 10
49.9062
 20
152.5836
  0
VERTEX
  8
LAYER_1
 10
49.8841
 20
152.5895
  0
VERTEX
  8
LAYER_1
 10
49.8617
 20
152.595
  0
VERTEX
  8
LAYER_1
 10
49.8397
 20
152.6008
  0
VERTEX
  8
LAYER_1
 10
49.8176
 20
152.6067
  0
VERTEX
  8
LAYER_1
 10
49.7956
 20
152.6126
  0
VERTEX
  8
LAYER_1
 10
49.7732
 20
152.6184
  0
VERTEX
  8
LAYER_1
 10
49.7511
 20
152.6239
  0
VERTEX
  8
LAYER_1
 10
49.7287
 20
152.6298
  0
VERTEX
  8
LAYER_1
 10
49.7074
 20
152.6356
  0
VERTEX
  8
LAYER_1
 10
49.686
 20
152.6418
  0
VERTEX
  8
LAYER_1
 10
49.6647
 20
152.6484
  0
VERTEX
  8
LAYER_1
 10
49.6433
 20
152.6549
  0
VERTEX
  8
LAYER_1
 10
49.6219
 20
152.6618
  0
VERTEX
  8
LAYER_1
 10
49.6009
 20
152.6691
  0
VERTEX
  8
LAYER_1
 10
49.5799
 20
152.6763
  0
VERTEX
  8
LAYER_1
 10
49.5589
 20
152.6839
  0
VERTEX
  8
LAYER_1
 10
49.5379
 20
152.6915
  0
VERTEX
  8
LAYER_1
 10
49.5169
 20
152.699
  0
VERTEX
  8
LAYER_1
 10
49.5141
 20
152.7001
  0
VERTEX
  8
LAYER_1
 10
49.511
 20
152.7011
  0
VERTEX
  8
LAYER_1
 10
49.491
 20
152.709
  0
VERTEX
  8
LAYER_1
 10
49.4711
 20
152.7169
  0
VERTEX
  8
LAYER_1
 10
49.4507
 20
152.7252
  0
VERTEX
  8
LAYER_1
 10
49.4304
 20
152.7335
  0
VERTEX
  8
LAYER_1
 10
49.4104
 20
152.7414
  0
VERTEX
  8
LAYER_1
 10
49.3904
 20
152.7493
  0
VERTEX
  8
LAYER_1
 10
49.3701
 20
152.7576
  0
VERTEX
  8
LAYER_1
 10
49.3498
 20
152.7655
  0
VERTEX
  8
LAYER_1
 10
49.3298
 20
152.7734
  0
VERTEX
  8
LAYER_1
 10
49.3098
 20
152.7817
  0
VERTEX
  8
LAYER_1
 10
49.2902
 20
152.7896
  0
VERTEX
  8
LAYER_1
 10
49.2709
 20
152.7983
  0
VERTEX
  8
LAYER_1
 10
49.2519
 20
152.8065
  0
VERTEX
  8
LAYER_1
 10
49.2327
 20
152.8155
  0
VERTEX
  8
LAYER_1
 10
49.2141
 20
152.8248
  0
VERTEX
  8
LAYER_1
 10
49.1951
 20
152.8341
  0
VERTEX
  8
LAYER_1
 10
49.1762
 20
152.8437
  0
VERTEX
  8
LAYER_1
 10
49.1576
 20
152.853
  0
VERTEX
  8
LAYER_1
 10
49.1389
 20
152.863
  0
VERTEX
  8
LAYER_1
 10
49.1203
 20
152.8727
  0
VERTEX
  8
LAYER_1
 10
49.1172
 20
152.8744
  0
VERTEX
  8
LAYER_1
 10
49.1141
 20
152.8761
  0
VERTEX
  8
LAYER_1
 10
49.0962
 20
152.8858
  0
VERTEX
  8
LAYER_1
 10
49.079
 20
152.8961
  0
VERTEX
  8
LAYER_1
 10
49.0614
 20
152.9064
  0
VERTEX
  8
LAYER_1
 10
49.0439
 20
152.9164
  0
VERTEX
  8
LAYER_1
 10
49.0263
 20
152.9264
  0
VERTEX
  8
LAYER_1
 10
49.0087
 20
152.9367
  0
VERTEX
  8
LAYER_1
 10
48.9912
 20
152.9467
  0
VERTEX
  8
LAYER_1
 10
48.9736
 20
152.9567
  0
VERTEX
  8
LAYER_1
 10
48.956
 20
152.9671
  0
VERTEX
  8
LAYER_1
 10
48.9384
 20
152.9771
  0
VERTEX
  8
LAYER_1
 10
48.9216
 20
152.987
  0
VERTEX
  8
LAYER_1
 10
48.905
 20
152.9974
  0
VERTEX
  8
LAYER_1
 10
48.8888
 20
153.0077
  0
VERTEX
  8
LAYER_1
 10
48.8723
 20
153.0187
  0
VERTEX
  8
LAYER_1
 10
48.8564
 20
153.0298
  0
VERTEX
  8
LAYER_1
 10
48.8406
 20
153.0408
  0
VERTEX
  8
LAYER_1
 10
48.8248
 20
153.0522
  0
VERTEX
  8
LAYER_1
 10
48.8089
 20
153.0639
  0
VERTEX
  8
LAYER_1
 10
48.7931
 20
153.0752
  0
VERTEX
  8
LAYER_1
 10
48.7776
 20
153.087
  0
VERTEX
  8
LAYER_1
 10
48.7745
 20
153.0894
  0
VERTEX
  8
LAYER_1
 10
48.7714
 20
153.0918
  0
VERTEX
  8
LAYER_1
 10
48.7531
 20
153.1062
  0
VERTEX
  8
LAYER_1
 10
48.7352
 20
153.1214
  0
VERTEX
  8
LAYER_1
 10
48.7169
 20
153.1362
  0
VERTEX
  8
LAYER_1
 10
48.6987
 20
153.151
  0
VERTEX
  8
LAYER_1
 10
48.6807
 20
153.1658
  0
VERTEX
  8
LAYER_1
 10
48.6628
 20
153.1807
  0
VERTEX
  8
LAYER_1
 10
48.6446
 20
153.1955
  0
VERTEX
  8
LAYER_1
 10
48.6263
 20
153.2103
  0
VERTEX
  8
LAYER_1
 10
48.6094
 20
153.2248
  0
VERTEX
  8
LAYER_1
 10
48.5926
 20
153.2399
  0
VERTEX
  8
LAYER_1
 10
48.5764
 20
153.2551
  0
VERTEX
  8
LAYER_1
 10
48.5602
 20
153.2709
  0
VERTEX
  8
LAYER_1
 10
48.5443
 20
153.2868
  0
VERTEX
  8
LAYER_1
 10
48.5288
 20
153.3033
  0
VERTEX
  8
LAYER_1
 10
48.5137
 20
153.3195
  0
VERTEX
  8
LAYER_1
 10
48.4982
 20
153.336
  0
VERTEX
  8
LAYER_1
 10
48.4957
 20
153.3388
  0
VERTEX
  8
LAYER_1
 10
48.4933
 20
153.3415
  0
VERTEX
  8
LAYER_1
 10
48.4792
 20
153.3581
  0
VERTEX
  8
LAYER_1
 10
48.4658
 20
153.3746
  0
VERTEX
  8
LAYER_1
 10
48.452
 20
153.3915
  0
VERTEX
  8
LAYER_1
 10
48.4382
 20
153.408
  0
VERTEX
  8
LAYER_1
 10
48.4244
 20
153.4246
  0
VERTEX
  8
LAYER_1
 10
48.4107
 20
153.4411
  0
VERTEX
  8
LAYER_1
 10
48.3969
 20
153.4576
  0
VERTEX
  8
LAYER_1
 10
48.3831
 20
153.4742
  0
VERTEX
  8
LAYER_1
 10
48.3717
 20
153.4887
  0
VERTEX
  8
LAYER_1
 10
48.3607
 20
153.5038
  0
VERTEX
  8
LAYER_1
 10
48.35
 20
153.519
  0
VERTEX
  8
LAYER_1
 10
48.34
 20
153.5341
  0
VERTEX
  8
LAYER_1
 10
48.33
 20
153.55
  0
VERTEX
  8
LAYER_1
 10
48.32
 20
153.5655
  0
VERTEX
  8
LAYER_1
 10
48.3121
 20
153.5786
  0
VERTEX
  8
LAYER_1
 10
48.3039
 20
153.5917
  0
VERTEX
  8
LAYER_1
 10
48.2963
 20
153.6047
  0
VERTEX
  8
LAYER_1
 10
48.2884
 20
153.6182
  0
VERTEX
  8
LAYER_1
 10
48.2822
 20
153.6289
  0
VERTEX
  8
LAYER_1
 10
48.2763
 20
153.6395
  0
VERTEX
  8
LAYER_1
 10
48.2704
 20
153.6506
  0
VERTEX
  8
LAYER_1
 10
48.2646
 20
153.6612
  0
VERTEX
  8
LAYER_1
 10
48.256
 20
153.6778
  0
VERTEX
  8
LAYER_1
 10
48.2477
 20
153.6943
  0
VERTEX
  8
LAYER_1
 10
48.2394
 20
153.7109
  0
VERTEX
  8
LAYER_1
 10
48.2315
 20
153.7277
  0
VERTEX
  8
LAYER_1
 10
48.2239
 20
153.7446
  0
VERTEX
  8
LAYER_1
 10
48.2164
 20
153.7615
  0
VERTEX
  8
LAYER_1
 10
48.2095
 20
153.7777
  0
VERTEX
  8
LAYER_1
 10
48.2033
 20
153.7939
  0
VERTEX
  8
LAYER_1
 10
48.1967
 20
153.8101
  0
VERTEX
  8
LAYER_1
 10
48.1905
 20
153.8263
  0
VERTEX
  8
LAYER_1
 10
48.1847
 20
153.8428
  0
VERTEX
  8
LAYER_1
 10
48.1791
 20
153.8593
  0
VERTEX
  8
LAYER_1
 10
48.175
 20
153.8728
  0
VERTEX
  8
LAYER_1
 10
48.1709
 20
153.8859
  0
VERTEX
  8
LAYER_1
 10
48.1667
 20
153.8993
  0
VERTEX
  8
LAYER_1
 10
48.163
 20
153.9127
  0
VERTEX
  8
LAYER_1
 10
48.1599
 20
153.9245
  0
VERTEX
  8
LAYER_1
 10
48.1564
 20
153.9365
  0
VERTEX
  8
LAYER_1
 10
48.1536
 20
153.9482
  0
VERTEX
  8
LAYER_1
 10
48.1509
 20
153.9599
  0
VERTEX
  8
LAYER_1
 10
48.1468
 20
153.9772
  0
VERTEX
  8
LAYER_1
 10
48.1433
 20
153.9944
  0
VERTEX
  8
LAYER_1
 10
48.1399
 20
154.0116
  0
VERTEX
  8
LAYER_1
 10
48.1371
 20
154.0288
  0
VERTEX
  8
LAYER_1
 10
48.134
 20
154.0461
  0
VERTEX
  8
LAYER_1
 10
48.1316
 20
154.0633
  0
VERTEX
  8
LAYER_1
 10
48.1292
 20
154.0802
  0
VERTEX
  8
LAYER_1
 10
48.1275
 20
154.0971
  0
VERTEX
  8
LAYER_1
 10
48.1254
 20
154.1143
  0
VERTEX
  8
LAYER_1
 10
48.124
 20
154.1312
  0
VERTEX
  8
LAYER_1
 10
48.1226
 20
154.1484
  0
VERTEX
  8
LAYER_1
 10
48.122
 20
154.1653
  0
VERTEX
  8
LAYER_1
 10
48.1213
 20
154.1784
  0
VERTEX
  8
LAYER_1
 10
48.1209
 20
154.1911
  0
VERTEX
  8
LAYER_1
 10
48.1206
 20
154.2039
  0
VERTEX
  8
LAYER_1
 10
48.1206
 20
154.2166
  0
VERTEX
  8
LAYER_1
 10
48.1206
 20
154.2293
  0
VERTEX
  8
LAYER_1
 10
48.1209
 20
154.2421
  0
VERTEX
  8
LAYER_1
 10
48.1213
 20
154.2548
  0
VERTEX
  8
LAYER_1
 10
48.122
 20
154.2676
  0
VERTEX
  8
LAYER_1
 10
48.1226
 20
154.2848
  0
VERTEX
  8
LAYER_1
 10
48.124
 20
154.3017
  0
VERTEX
  8
LAYER_1
 10
48.1254
 20
154.3189
  0
VERTEX
  8
LAYER_1
 10
48.1275
 20
154.3358
  0
VERTEX
  8
LAYER_1
 10
48.1292
 20
154.353
  0
VERTEX
  8
LAYER_1
 10
48.1316
 20
154.3699
  0
VERTEX
  8
LAYER_1
 10
48.134
 20
154.3871
  0
VERTEX
  8
LAYER_1
 10
48.1371
 20
154.4044
  0
SEQEND
  0
POLYLINE
  8
LAYER_1
 40
0.2469
 41
0.2469
 66
1
 10
0
 20
0
 30
0
  0
VERTEX
  8
LAYER_1
 10
48.1371
 20
154.4044
  0
VERTEX
  8
LAYER_1
 10
48.1399
 20
154.4216
  0
VERTEX
  8
LAYER_1
 10
48.1433
 20
154.4388
  0
VERTEX
  8
LAYER_1
 10
48.1468
 20
154.456
  0
VERTEX
  8
LAYER_1
 10
48.1509
 20
154.4733
  0
VERTEX
  8
LAYER_1
 10
48.1536
 20
154.485
  0
VERTEX
  8
LAYER_1
 10
48.1564
 20
154.4967
  0
VERTEX
  8
LAYER_1
 10
48.1599
 20
154.5087
  0
VERTEX
  8
LAYER_1
 10
48.163
 20
154.5205
  0
VERTEX
  8
LAYER_1
 10
48.1667
 20
154.5339
  0
VERTEX
  8
LAYER_1
 10
48.1709
 20
154.547
  0
VERTEX
  8
LAYER_1
 10
48.175
 20
154.5604
  0
VERTEX
  8
LAYER_1
 10
48.1791
 20
154.5735
  0
VERTEX
  8
LAYER_1
 10
48.1847
 20
154.59
  0
VERTEX
  8
LAYER_1
 10
48.1905
 20
154.6066
  0
VERTEX
  8
LAYER_1
 10
48.1967
 20
154.6231
  0
VERTEX
  8
LAYER_1
 10
48.2033
 20
154.6393
  0
VERTEX
  8
LAYER_1
 10
48.2095
 20
154.6555
  0
VERTEX
  8
LAYER_1
 10
48.2164
 20
154.6717
  0
VERTEX
  8
LAYER_1
 10
48.2239
 20
154.6886
  0
VERTEX
  8
LAYER_1
 10
48.2315
 20
154.7055
  0
VERTEX
  8
LAYER_1
 10
48.2394
 20
154.722
  0
VERTEX
  8
LAYER_1
 10
48.2477
 20
154.7389
  0
VERTEX
  8
LAYER_1
 10
48.256
 20
154.7554
  0
VERTEX
  8
LAYER_1
 10
48.2646
 20
154.7716
  0
VERTEX
  8
LAYER_1
 10
48.2704
 20
154.7826
  0
VERTEX
  8
LAYER_1
 10
48.2763
 20
154.7937
  0
VERTEX
  8
LAYER_1
 10
48.2825
 20
154.8043
  0
VERTEX
  8
LAYER_1
 10
48.2884
 20
154.815
  0
VERTEX
  8
LAYER_1
 10
48.2963
 20
154.8281
  0
VERTEX
  8
LAYER_1
 10
48.3039
 20
154.8415
  0
VERTEX
  8
LAYER_1
 10
48.3121
 20
154.8546
  0
VERTEX
  8
LAYER_1
 10
48.32
 20
154.8674
  0
VERTEX
  8
LAYER_1
 10
48.33
 20
154.8832
  0
VERTEX
  8
LAYER_1
 10
48.3404
 20
154.8984
  0
VERTEX
  8
LAYER_1
 10
48.3507
 20
154.9139
  0
VERTEX
  8
LAYER_1
 10
48.3614
 20
154.9287
  0
VERTEX
  8
LAYER_1
 10
48.3721
 20
154.9439
  0
VERTEX
  8
LAYER_1
 10
48.3831
 20
154.959
  0
VERTEX
  8
LAYER_1
 10
48.3962
 20
154.9759
  0
VERTEX
  8
LAYER_1
 10
48.4096
 20
154.9931
  0
VERTEX
  8
LAYER_1
 10
48.4231
 20
155.01
  0
VERTEX
  8
LAYER_1
 10
48.4365
 20
155.0265
  0
VERTEX
  8
LAYER_1
 10
48.4506
 20
155.0431
  0
VERTEX
  8
LAYER_1
 10
48.4644
 20
155.0593
  0
VERTEX
  8
LAYER_1
 10
48.4789
 20
155.0755
  0
VERTEX
  8
LAYER_1
 10
48.4933
 20
155.0913
  0
VERTEX
  8
LAYER_1
 10
48.4957
 20
155.0941
  0
VERTEX
  8
LAYER_1
 10
48.4982
 20
155.0968
  0
VERTEX
  8
LAYER_1
 10
48.514
 20
155.113
  0
VERTEX
  8
LAYER_1
 10
48.5302
 20
155.1285
  0
VERTEX
  8
LAYER_1
 10
48.5464
 20
155.1444
  0
VERTEX
  8
LAYER_1
 10
48.5622
 20
155.1599
  0
VERTEX
  8
LAYER_1
 10
48.5784
 20
155.1757
  0
VERTEX
  8
LAYER_1
 10
48.5946
 20
155.1912
  0
VERTEX
  8
LAYER_1
 10
48.6105
 20
155.2071
  0
VERTEX
  8
LAYER_1
 10
48.6263
 20
155.2229
  0
VERTEX
  8
LAYER_1
 10
48.6435
 20
155.2388
  0
VERTEX
  8
LAYER_1
 10
48.6608
 20
155.2546
  0
VERTEX
  8
LAYER_1
 10
48.6787
 20
155.2698
  0
VERTEX
  8
LAYER_1
 10
48.6969
 20
155.2842
  0
VERTEX
  8
LAYER_1
 10
48.7152
 20
155.299
  0
VERTEX
  8
LAYER_1
 10
48.7338
 20
155.3132
  0
VERTEX
  8
LAYER_1
 10
48.7524
 20
155.3273
  0
VERTEX
  8
LAYER_1
 10
48.7714
 20
155.3414
  0
VERTEX
  8
LAYER_1
 10
48.7745
 20
155.3438
  0
VERTEX
  8
LAYER_1
 10
48.7776
 20
155.3462
  0
VERTEX
  8
LAYER_1
 10
48.7934
 20
155.3573
  0
VERTEX
  8
LAYER_1
 10
48.8096
 20
155.3683
  0
VERTEX
  8
LAYER_1
 10
48.8258
 20
155.379
  0
VERTEX
  8
LAYER_1
 10
48.842
 20
155.39
  0
VERTEX
  8
LAYER_1
 10
48.8578
 20
155.401
  0
VERTEX
  8
LAYER_1
 10
48.874
 20
155.412
  0
VERTEX
  8
LAYER_1
 10
48.8902
 20
155.4231
  0
VERTEX
  8
LAYER_1
 10
48.9061
 20
155.4341
  0
VERTEX
  8
LAYER_1
 10
48.9223
 20
155.4451
  0
VERTEX
  8
LAYER_1
 10
48.9384
 20
155.4558
  0
VERTEX
  8
LAYER_1
 10
48.9553
 20
155.4672
  0
VERTEX
  8
LAYER_1
 10
48.9722
 20
155.4782
  0
VERTEX
  8
LAYER_1
 10
48.9898
 20
155.4885
  0
VERTEX
  8
LAYER_1
 10
49.0073
 20
155.4989
  0
VERTEX
  8
LAYER_1
 10
49.0249
 20
155.5089
  0
VERTEX
  8
LAYER_1
 10
49.0425
 20
155.5188
  0
VERTEX
  8
LAYER_1
 10
49.0604
 20
155.5285
  0
VERTEX
  8
LAYER_1
 10
49.0783
 20
155.5381
  0
VERTEX
  8
LAYER_1
 10
49.0962
 20
155.5474
  0
VERTEX
  8
LAYER_1
 10
49.1141
 20
155.5571
  0
VERTEX
  8
LAYER_1
 10
49.1172
 20
155.5588
  0
VERTEX
  8
LAYER_1
 10
49.1203
 20
155.5605
  0
VERTEX
  8
LAYER_1
 10
49.1393
 20
155.5698
  0
VERTEX
  8
LAYER_1
 10
49.1582
 20
155.5788
  0
VERTEX
  8
LAYER_1
 10
49.1772
 20
155.5877
  0
VERTEX
  8
LAYER_1
 10
49.1961
 20
155.597
  0
VERTEX
  8
LAYER_1
 10
49.2151
 20
155.606
  0
VERTEX
  8
LAYER_1
 10
49.234
 20
155.615
  0
VERTEX
  8
LAYER_1
 10
49.253
 20
155.6239
  0
VERTEX
  8
LAYER_1
 10
49.2719
 20
155.6332
  0
VERTEX
  8
LAYER_1
 10
49.2905
 20
155.6425
  0
VERTEX
  8
LAYER_1
 10
49.3098
 20
155.6515
  0
VERTEX
  8
LAYER_1
 10
49.3291
 20
155.6604
  0
VERTEX
  8
LAYER_1
 10
49.3491
 20
155.6694
  0
VERTEX
  8
LAYER_1
 10
49.3691
 20
155.678
  0
VERTEX
  8
LAYER_1
 10
49.3891
 20
155.6863
  0
VERTEX
  8
LAYER_1
 10
49.4094
 20
155.6942
  0
VERTEX
  8
LAYER_1
 10
49.4297
 20
155.7018
  0
VERTEX
  8
LAYER_1
 10
49.45
 20
155.7097
  0
VERTEX
  8
LAYER_1
 10
49.4704
 20
155.7173
  0
VERTEX
  8
LAYER_1
 10
49.4907
 20
155.7245
  0
VERTEX
  8
LAYER_1
 10
49.511
 20
155.7321
  0
VERTEX
  8
LAYER_1
 10
49.5141
 20
155.7331
  0
VERTEX
  8
LAYER_1
 10
49.5169
 20
155.7342
  0
VERTEX
  8
LAYER_1
 10
49.5379
 20
155.7411
  0
VERTEX
  8
LAYER_1
 10
49.5592
 20
155.7479
  0
VERTEX
  8
LAYER_1
 10
49.5806
 20
155.7548
  0
VERTEX
  8
LAYER_1
 10
49.6016
 20
155.7617
  0
VERTEX
  8
LAYER_1
 10
49.6226
 20
155.7686
  0
VERTEX
  8
LAYER_1
 10
49.644
 20
155.7755
  0
VERTEX
  8
LAYER_1
 10
49.6654
 20
155.7824
  0
VERTEX
  8
LAYER_1
 10
49.6864
 20
155.7893
  0
VERTEX
  8
LAYER_1
 10
49.7077
 20
155.7965
  0
VERTEX
  8
LAYER_1
 10
49.7287
 20
155.8031
  0
VERTEX
  8
LAYER_1
 10
49.7508
 20
155.81
  0
VERTEX
  8
LAYER_1
 10
49.7728
 20
155.8168
  0
VERTEX
  8
LAYER_1
 10
49.7949
 20
155.823
  0
VERTEX
  8
LAYER_1
 10
49.8169
 20
155.8289
  0
VERTEX
  8
LAYER_1
 10
49.839
 20
155.8348
  0
VERTEX
  8
LAYER_1
 10
49.8614
 20
155.8403
  0
VERTEX
  8
LAYER_1
 10
49.8838
 20
155.8454
  0
VERTEX
  8
LAYER_1
 10
49.9058
 20
155.8506
  0
VERTEX
  8
LAYER_1
 10
49.9282
 20
155.8558
  0
VERTEX
  8
LAYER_1
 10
49.9506
 20
155.8609
  0
VERTEX
  8
LAYER_1
 10
49.9527
 20
155.8613
  0
VERTEX
  8
LAYER_1
 10
49.9547
 20
155.862
  0
VERTEX
  8
LAYER_1
 10
49.9775
 20
155.8665
  0
VERTEX
  8
LAYER_1
 10
50.0006
 20
155.8709
  0
VERTEX
  8
LAYER_1
 10
50.0233
 20
155.8754
  0
VERTEX
  8
LAYER_1
 10
50.0464
 20
155.8802
  0
VERTEX
  8
LAYER_1
 10
50.0691
 20
155.8844
  0
VERTEX
  8
LAYER_1
 10
50.0919
 20
155.8892
  0
VERTEX
  8
LAYER_1
 10
50.1149
 20
155.8937
  0
VERTEX
  8
LAYER_1
 10
50.1377
 20
155.8981
  0
VERTEX
  8
LAYER_1
 10
50.1608
 20
155.9026
  0
VERTEX
  8
LAYER_1
 10
50.1835
 20
155.9071
  0
VERTEX
  8
LAYER_1
 10
50.2069
 20
155.9116
  0
VERTEX
  8
LAYER_1
 10
50.2304
 20
155.9154
  0
VERTEX
  8
LAYER_1
 10
50.2538
 20
155.9195
  0
VERTEX
  8
LAYER_1
 10
50.2772
 20
155.923
  0
VERTEX
  8
LAYER_1
 10
50.3006
 20
155.9261
  0
VERTEX
  8
LAYER_1
 10
50.3244
 20
155.9292
  0
VERTEX
  8
LAYER_1
 10
50.3482
 20
155.9319
  0
VERTEX
  8
LAYER_1
 10
50.3716
 20
155.9347
  0
VERTEX
  8
LAYER_1
 10
50.395
 20
155.9374
  0
VERTEX
  8
LAYER_1
 10
50.4188
 20
155.9398
  0
VERTEX
  8
LAYER_1
 10
50.4198
 20
155.9402
  0
VERTEX
  8
LAYER_1
 10
50.4212
 20
155.9402
  0
VERTEX
  8
LAYER_1
 10
50.445
 20
155.9422
  0
VERTEX
  8
LAYER_1
 10
50.4688
 20
155.9443
  0
VERTEX
  8
LAYER_1
 10
50.4929
 20
155.946
  0
VERTEX
  8
LAYER_1
 10
50.5166
 20
155.9481
  0
VERTEX
  8
LAYER_1
 10
50.5404
 20
155.9502
  0
VERTEX
  8
LAYER_1
 10
50.5645
 20
155.9519
  0
VERTEX
  8
LAYER_1
 10
50.5883
 20
155.954
  0
VERTEX
  8
LAYER_1
 10
50.6121
 20
155.956
  0
VERTEX
  8
LAYER_1
 10
50.6362
 20
155.9581
  0
VERTEX
  8
LAYER_1
 10
50.66
 20
155.9598
  0
VERTEX
  8
LAYER_1
 10
50.6841
 20
155.9615
  0
VERTEX
  8
LAYER_1
 10
50.7082
 20
155.9629
  0
VERTEX
  8
LAYER_1
 10
50.7323
 20
155.9643
  0
VERTEX
  8
LAYER_1
 10
50.7564
 20
155.965
  0
VERTEX
  8
LAYER_1
 10
50.7809
 20
155.9657
  0
VERTEX
  8
LAYER_1
 10
50.805
 20
155.9664
  0
VERTEX
  8
LAYER_1
 10
50.8291
 20
155.9664
  0
VERTEX
  8
LAYER_1
 10
50.8532
 20
155.9667
  0
VERTEX
  8
LAYER_1
 10
50.8773
 20
155.9667
  0
VERTEX
  8
LAYER_1
 10
50.9018
 20
155.9664
  0
VERTEX
  8
LAYER_1
 10
50.9259
 20
155.9664
  0
VERTEX
  8
LAYER_1
 10
50.95
 20
155.966
  0
VERTEX
  8
LAYER_1
 10
50.9745
 20
155.9657
  0
VERTEX
  8
LAYER_1
 10
50.9986
 20
155.965
  0
VERTEX
  8
LAYER_1
 10
51.0227
 20
155.9646
  0
VERTEX
  8
LAYER_1
 10
51.0468
 20
155.964
  0
VERTEX
  8
LAYER_1
 10
51.071
 20
155.9629
  0
VERTEX
  8
LAYER_1
 10
51.0951
 20
155.9622
  0
VERTEX
  8
LAYER_1
 10
51.1195
 20
155.9612
  0
VERTEX
  8
LAYER_1
 10
51.1436
 20
155.9598
  0
VERTEX
  8
LAYER_1
 10
51.1674
 20
155.9584
  0
VERTEX
  8
LAYER_1
 10
51.1915
 20
155.9571
  0
VERTEX
  8
LAYER_1
 10
51.2153
 20
155.9553
  0
VERTEX
  8
LAYER_1
 10
51.2391
 20
155.9536
  0
VERTEX
  8
LAYER_1
 10
51.2632
 20
155.9519
  0
VERTEX
  8
LAYER_1
 10
51.287
 20
155.9498
  0
VERTEX
  8
LAYER_1
 10
51.3107
 20
155.9474
  0
VERTEX
  8
LAYER_1
 10
51.3349
 20
155.945
  0
VERTEX
  8
LAYER_1
 10
51.3586
 20
155.9426
  0
VERTEX
  8
LAYER_1
 10
51.3824
 20
155.9402
  0
VERTEX
  8
LAYER_1
 10
51.3838
 20
155.9402
  0
VERTEX
  8
LAYER_1
 10
51.3848
 20
155.9398
  0
VERTEX
  8
LAYER_1
 10
51.4082
 20
155.9367
  0
VERTEX
  8
LAYER_1
 10
51.4317
 20
155.9333
  0
VERTEX
  8
LAYER_1
 10
51.4554
 20
155.9302
  0
VERTEX
  8
LAYER_1
 10
51.4789
 20
155.9267
  0
VERTEX
  8
LAYER_1
 10
51.5023
 20
155.9236
  0
VERTEX
  8
LAYER_1
 10
51.5257
 20
155.9202
  0
VERTEX
  8
LAYER_1
 10
51.5495
 20
155.9171
  0
VERTEX
  8
LAYER_1
 10
51.5729
 20
155.9137
  0
VERTEX
  8
LAYER_1
 10
51.5963
 20
155.9106
  0
VERTEX
  8
LAYER_1
 10
51.6201
 20
155.9071
  0
VERTEX
  8
LAYER_1
 10
51.6428
 20
155.9037
  0
VERTEX
  8
LAYER_1
 10
51.6659
 20
155.8999
  0
VERTEX
  8
LAYER_1
 10
51.689
 20
155.8961
  0
VERTEX
  8
LAYER_1
 10
51.7117
 20
155.8916
  0
VERTEX
  8
LAYER_1
 10
51.7348
 20
155.8871
  0
VERTEX
  8
LAYER_1
 10
51.7576
 20
155.8823
  0
VERTEX
  8
LAYER_1
 10
51.7806
 20
155.8775
  0
VERTEX
  8
LAYER_1
 10
51.8034
 20
155.8723
  0
VERTEX
  8
LAYER_1
 10
51.8261
 20
155.8671
  0
VERTEX
  8
LAYER_1
 10
51.8489
 20
155.862
  0
VERTEX
  8
LAYER_1
 10
51.8509
 20
155.8613
  0
VERTEX
  8
LAYER_1
 10
51.853
 20
155.8609
  0
VERTEX
  8
LAYER_1
 10
51.875
 20
155.8554
  0
VERTEX
  8
LAYER_1
 10
51.8971
 20
155.8496
  0
VERTEX
  8
LAYER_1
 10
51.9195
 20
155.8437
  0
VERTEX
  8
LAYER_1
 10
51.9415
 20
155.8379
  0
VERTEX
  8
LAYER_1
 10
51.9639
 20
155.832
  0
VERTEX
  8
LAYER_1
 10
51.986
 20
155.8265
  0
VERTEX
  8
LAYER_1
 10
52.008
 20
155.8206
  0
VERTEX
  8
LAYER_1
 10
52.0301
 20
155.8148
  0
VERTEX
  8
LAYER_1
 10
52.0525
 20
155.8093
  0
VERTEX
  8
LAYER_1
 10
52.0745
 20
155.8031
  0
VERTEX
  8
LAYER_1
 10
52.0962
 20
155.7976
  0
VERTEX
  8
LAYER_1
 10
52.1176
 20
155.7914
  0
VERTEX
  8
LAYER_1
 10
52.1389
 20
155.7848
  0
VERTEX
  8
LAYER_1
 10
52.1603
 20
155.7783
  0
VERTEX
  8
LAYER_1
 10
52.1813
 20
155.771
  0
VERTEX
  8
LAYER_1
 10
52.2027
 20
155.7638
  0
VERTEX
  8
LAYER_1
 10
52.2237
 20
155.7566
  0
VERTEX
  8
LAYER_1
 10
52.2447
 20
155.7493
  0
VERTEX
  8
LAYER_1
 10
52.2657
 20
155.7417
  0
VERTEX
  8
LAYER_1
 10
52.2867
 20
155.7342
  0
VERTEX
  8
LAYER_1
 10
52.2895
 20
155.7331
  0
VERTEX
  8
LAYER_1
 10
52.2922
 20
155.7321
  0
VERTEX
  8
LAYER_1
 10
52.3126
 20
155.7242
  0
VERTEX
  8
LAYER_1
 10
52.3326
 20
155.7159
  0
VERTEX
  8
LAYER_1
 10
52.3529
 20
155.708
  0
VERTEX
  8
LAYER_1
 10
52.3729
 20
155.6997
  0
VERTEX
  8
LAYER_1
 10
52.3932
 20
155.6918
  0
VERTEX
  8
LAYER_1
 10
52.4132
 20
155.6839
  0
VERTEX
  8
LAYER_1
 10
52.4335
 20
155.6756
  0
VERTEX
  8
LAYER_1
 10
52.4535
 20
155.6673
  0
VERTEX
  8
LAYER_1
 10
52.4738
 20
155.6594
  0
VERTEX
  8
LAYER_1
 10
52.4938
 20
155.6515
  0
VERTEX
  8
LAYER_1
 10
52.5131
 20
155.6432
  0
VERTEX
  8
LAYER_1
 10
52.5324
 20
155.6349
  0
VERTEX
  8
LAYER_1
 10
52.5517
 20
155.6263
  0
VERTEX
  8
LAYER_1
 10
52.5706
 20
155.6177
  0
VERTEX
  8
LAYER_1
 10
52.5896
 20
155.6084
  0
VERTEX
  8
LAYER_1
 10
52.6085
 20
155.5991
  0
VERTEX
  8
LAYER_1
 10
52.6271
 20
155.5895
  0
VERTEX
  8
LAYER_1
 10
52.6457
 20
155.5798
  0
VERTEX
  8
LAYER_1
 10
52.6643
 20
155.5702
  0
VERTEX
  8
LAYER_1
 10
52.6829
 20
155.5605
  0
VERTEX
  8
LAYER_1
 10
52.686
 20
155.5588
  0
VERTEX
  8
LAYER_1
 10
52.6895
 20
155.5571
  0
VERTEX
  8
LAYER_1
 10
52.707
 20
155.5471
  0
VERTEX
  8
LAYER_1
 10
52.7246
 20
155.5371
  0
VERTEX
  8
LAYER_1
 10
52.7422
 20
155.5268
  0
VERTEX
  8
LAYER_1
 10
52.7597
 20
155.5168
  0
VERTEX
  8
LAYER_1
 10
52.7773
 20
155.5064
  0
VERTEX
  8
LAYER_1
 10
52.7949
 20
155.4965
  0
VERTEX
  8
LAYER_1
 10
52.8125
 20
155.4861
  0
VERTEX
  8
LAYER_1
 10
52.83
 20
155.4761
  0
VERTEX
  8
LAYER_1
 10
52.8476
 20
155.4661
  0
VERTEX
  8
LAYER_1
 10
52.8652
 20
155.4558
  0
VERTEX
  8
LAYER_1
 10
52.8817
 20
155.4462
  0
VERTEX
  8
LAYER_1
 10
52.8982
 20
155.4358
  0
VERTEX
  8
LAYER_1
 10
52.9148
 20
155.4255
  0
VERTEX
  8
LAYER_1
 10
52.931
 20
155.4145
  0
VERTEX
  8
LAYER_1
 10
52.9472
 20
155.4034
  0
VERTEX
  8
LAYER_1
 10
52.963
 20
155.3924
  0
VERTEX
  8
LAYER_1
 10
52.9789
 20
155.3807
  0
VERTEX
  8
LAYER_1
 10
52.9947
 20
155.3693
  0
VERTEX
  8
LAYER_1
 10
53.0102
 20
155.3576
  0
VERTEX
  8
LAYER_1
 10
53.026
 20
155.3462
  0
VERTEX
  8
LAYER_1
 10
53.0291
 20
155.3438
  0
VERTEX
  8
LAYER_1
 10
53.0322
 20
155.3414
  0
VERTEX
  8
LAYER_1
 10
53.0505
 20
155.327
  0
VERTEX
  8
LAYER_1
 10
53.0684
 20
155.3118
  0
VERTEX
  8
LAYER_1
 10
53.0863
 20
155.297
  0
VERTEX
  8
LAYER_1
 10
53.1046
 20
155.2822
  0
VERTEX
  8
LAYER_1
 10
53.1229
 20
155.2674
  0
VERTEX
  8
LAYER_1
 10
53.1408
 20
155.2525
  0
VERTEX
  8
LAYER_1
 10
53.159
 20
155.2377
  0
VERTEX
  8
LAYER_1
 10
53.1769
 20
155.2229
  0
VERTEX
  8
LAYER_1
 10
53.1942
 20
155.2084
  0
VERTEX
  8
LAYER_1
 10
53.2111
 20
155.1933
  0
VERTEX
  8
LAYER_1
 10
53.2272
 20
155.1781
  0
VERTEX
  8
LAYER_1
 10
53.2434
 20
155.1623
  0
VERTEX
  8
LAYER_1
 10
53.2589
 20
155.1461
  0
VERTEX
  8
LAYER_1
 10
53.2744
 20
155.1299
  0
VERTEX
  8
LAYER_1
 10
53.2899
 20
155.1134
  0
VERTEX
  8
LAYER_1
 10
53.3051
 20
155.0968
  0
VERTEX
  8
LAYER_1
 10
53.3075
 20
155.0941
  0
VERTEX
  8
LAYER_1
 10
53.3103
 20
155.0913
  0
VERTEX
  8
LAYER_1
 10
53.324
 20
155.0751
  0
VERTEX
  8
LAYER_1
 10
53.3378
 20
155.0582
  0
VERTEX
  8
LAYER_1
 10
53.3516
 20
155.0417
  0
VERTEX
  8
LAYER_1
 10
53.3654
 20
155.0252
  0
VERTEX
  8
LAYER_1
 10
53.3792
 20
155.0086
  0
VERTEX
  8
LAYER_1
 10
53.393
 20
154.9921
  0
VERTEX
  8
LAYER_1
 10
53.4067
 20
154.9756
  0
VERTEX
  8
LAYER_1
 10
53.4202
 20
154.959
  0
VERTEX
  8
LAYER_1
 10
53.4315
 20
154.9442
  0
VERTEX
  8
LAYER_1
 10
53.4426
 20
154.9294
  0
VERTEX
  8
LAYER_1
 10
53.4532
 20
154.9142
  0
VERTEX
  8
LAYER_1
 10
53.4636
 20
154.8987
  0
VERTEX
  8
LAYER_1
 10
53.4736
 20
154.8832
  0
VERTEX
  8
LAYER_1
 10
53.4832
 20
154.8674
  0
VERTEX
  8
LAYER_1
 10
53.4915
 20
154.8546
  0
VERTEX
  8
LAYER_1
 10
53.4994
 20
154.8415
  0
VERTEX
  8
LAYER_1
 10
53.5073
 20
154.8281
  0
VERTEX
  8
LAYER_1
 10
53.5149
 20
154.815
  0
VERTEX
  8
LAYER_1
 10
53.5211
 20
154.8043
  0
VERTEX
  8
LAYER_1
 10
53.5273
 20
154.7937
  0
VERTEX
  8
LAYER_1
 10
53.5332
 20
154.7826
  0
VERTEX
  8
LAYER_1
 10
53.539
 20
154.7716
  0
VERTEX
  8
LAYER_1
 10
53.5476
 20
154.7554
  0
VERTEX
  8
LAYER_1
 10
53.5559
 20
154.7389
  0
VERTEX
  8
LAYER_1
 10
53.5638
 20
154.722
  0
VERTEX
  8
LAYER_1
 10
53.5721
 20
154.7055
  0
VERTEX
  8
LAYER_1
 10
53.5797
 20
154.6886
  0
VERTEX
  8
LAYER_1
 10
53.5873
 20
154.6717
  0
VERTEX
  8
LAYER_1
 10
53.5938
 20
154.6555
  0
VERTEX
  8
LAYER_1
 10
53.6003
 20
154.6393
  0
VERTEX
  8
LAYER_1
 10
53.6069
 20
154.6231
  0
VERTEX
  8
LAYER_1
 10
53.6127
 20
154.6066
  0
VERTEX
  8
LAYER_1
 10
53.6189
 20
154.59
  0
VERTEX
  8
LAYER_1
 10
53.6245
 20
154.5735
  0
VERTEX
  8
LAYER_1
 10
53.6286
 20
154.5604
  0
VERTEX
  8
LAYER_1
 10
53.6327
 20
154.547
  0
VERTEX
  8
LAYER_1
 10
53.6369
 20
154.5339
  0
VERTEX
  8
LAYER_1
 10
53.6407
 20
154.5205
  0
VERTEX
  8
LAYER_1
 10
53.6438
 20
154.5087
  0
VERTEX
  8
LAYER_1
 10
53.6469
 20
154.4967
  0
VERTEX
  8
LAYER_1
 10
53.65
 20
154.485
  0
VERTEX
  8
LAYER_1
 10
53.6527
 20
154.4733
  0
VERTEX
  8
LAYER_1
 10
53.6565
 20
154.456
  0
VERTEX
  8
LAYER_1
 10
53.6603
 20
154.4388
  0
VERTEX
  8
LAYER_1
 10
53.6634
 20
154.4216
  0
VERTEX
  8
LAYER_1
 10
53.6665
 20
154.4044
  0
VERTEX
  8
LAYER_1
 10
53.6692
 20
154.3871
  0
VERTEX
  8
LAYER_1
 10
53.672
 20
154.3699
  0
VERTEX
  8
LAYER_1
 10
53.6741
 20
154.353
  0
VERTEX
  8
LAYER_1
 10
53.6761
 20
154.3358
  0
VERTEX
  8
LAYER_1
 10
53.6779
 20
154.3189
  0
VERTEX
  8
LAYER_1
 10
53.6796
 20
154.3017
  0
VERTEX
  8
LAYER_1
 10
53.6806
 20
154.2848
  0
VERTEX
  8
LAYER_1
 10
53.6817
 20
154.2676
  0
VERTEX
  8
LAYER_1
 10
53.6823
 20
154.2548
  0
VERTEX
  8
LAYER_1
 10
53.6823
 20
154.2421
  0
VERTEX
  8
LAYER_1
 10
53.6827
 20
154.2293
  0
VERTEX
  8
LAYER_1
 10
53.683
 20
154.2166
  0
VERTEX
  8
LAYER_1
 10
53.6827
 20
154.2039
  0
VERTEX
  8
LAYER_1
 10
53.6823
 20
154.1911
  0
VERTEX
  8
LAYER_1
 10
53.6823
 20
154.1784
  0
VERTEX
  8
LAYER_1
 10
53.6817
 20
154.1653
  0
VERTEX
  8
LAYER_1
 10
53.6806
 20
154.1484
  0
VERTEX
  8
LAYER_1
 10
53.6796
 20
154.1312
  0
VERTEX
  8
LAYER_1
 10
53.6779
 20
154.1143
  0
VERTEX
  8
LAYER_1
 10
53.6761
 20
154.0971
  0
VERTEX
  8
LAYER_1
 10
53.6741
 20
154.0802
  0
VERTEX
  8
LAYER_1
 10
53.672
 20
154.0633
  0
VERTEX
  8
LAYER_1
 10
53.6696
 20
154.0474
  0
VERTEX
  8
LAYER_1
 10
53.6672
 20
154.0319
  0
SEQEND
  0
ENDBLK
  0
BLOCK
  8
LAYER_1
  2
AIGNBL01020019
 70
64
 10
0
 20
0
 30
0
  3
AIGNBL01020019
  0
POLYLINE
  8
LAYER_1
 40
0.2469
 41
0.2469
 66
1
 10
0
 20
0
 30
0
 70
1
  0
VERTEX
  8
LAYER_1
 10
115.2233
 20
90.2715
  0
VERTEX
  8
LAYER_1
 10
115.2295
 20
90.4117
  0
VERTEX
  8
LAYER_1
 10
115.2502
 20
90.5505
  0
VERTEX
  8
LAYER_1
 10
115.2832
 20
90.6873
  0
VERTEX
  8
LAYER_1
 10
115.3294
 20
90.8206
  0
VERTEX
  8
LAYER_1
 10
115.3887
 20
90.9505
  0
VERTEX
  8
LAYER_1
 10
115.4596
 20
91.0745
  0
VERTEX
  8
LAYER_1
 10
115.543
 20
91.1931
  0
VERTEX
  8
LAYER_1
 10
115.6367
 20
91.3036
  0
VERTEX
  8
LAYER_1
 10
115.7414
 20
91.4073
  0
VERTEX
  8
LAYER_1
 10
115.8544
 20
91.5017
  0
VERTEX
  8
LAYER_1
 10
115.9771
 20
91.5872
  0
VERTEX
  8
LAYER_1
 10
116.1066
 20
91.6619
  0
VERTEX
  8
LAYER_1
 10
116.2437
 20
91.727
  0
VERTEX
  8
LAYER_1
 10
116.3863
 20
91.7804
  0
VERTEX
  8
LAYER_1
 10
116.5331
 20
91.8225
  0
VERTEX
  8
LAYER_1
 10
116.684
 20
91.8528
  0
VERTEX
  8
LAYER_1
 10
116.837
 20
91.8711
  0
VERTEX
  8
LAYER_1
 10
116.9906
 20
91.8773
  0
VERTEX
  8
LAYER_1
 10
117.145
 20
91.8711
  0
VERTEX
  8
LAYER_1
 10
117.2979
 20
91.8528
  0
VERTEX
  8
LAYER_1
 10
117.4481
 20
91.8225
  0
VERTEX
  8
LAYER_1
 10
117.5956
 20
91.7804
  0
VERTEX
  8
LAYER_1
 10
117.7375
 20
91.727
  0
VERTEX
  8
LAYER_1
 10
117.8746
 20
91.6619
  0
VERTEX
  8
LAYER_1
 10
118.0042
 20
91.5872
  0
VERTEX
  8
LAYER_1
 10
118.1268
 20
91.5017
  0
VERTEX
  8
LAYER_1
 10
118.2398
 20
91.4073
  0
VERTEX
  8
LAYER_1
 10
118.3445
 20
91.3036
  0
VERTEX
  8
LAYER_1
 10
118.4382
 20
91.1931
  0
VERTEX
  8
LAYER_1
 10
118.5216
 20
91.0745
  0
VERTEX
  8
LAYER_1
 10
118.5926
 20
90.9505
  0
VERTEX
  8
LAYER_1
 10
118.6518
 20
90.8206
  0
VERTEX
  8
LAYER_1
 10
118.698
 20
90.6873
  0
VERTEX
  8
LAYER_1
 10
118.7318
 20
90.5505
  0
VERTEX
  8
LAYER_1
 10
118.7518
 20
90.4117
  0
VERTEX
  8
LAYER_1
 10
118.7586
 20
90.2715
  0
VERTEX
  8
LAYER_1
 10
118.7518
 20
90.1316
  0
VERTEX
  8
LAYER_1
 10
118.7318
 20
89.9928
  0
VERTEX
  8
LAYER_1
 10
118.698
 20
89.8557
  0
VERTEX
  8
LAYER_1
 10
118.6518
 20
89.7223
  0
VERTEX
  8
LAYER_1
 10
118.5926
 20
89.5925
  0
VERTEX
  8
LAYER_1
 10
118.5216
 20
89.4688
  0
VERTEX
  8
LAYER_1
 10
118.4382
 20
89.3503
  0
VERTEX
  8
LAYER_1
 10
118.3445
 20
89.2393
  0
VERTEX
  8
LAYER_1
 10
118.2398
 20
89.1356
  0
VERTEX
  8
LAYER_1
 10
118.1268
 20
89.0416
  0
VERTEX
  8
LAYER_1
 10
118.0042
 20
88.9562
  0
VERTEX
  8
LAYER_1
 10
117.8746
 20
88.8811
  0
VERTEX
  8
LAYER_1
 10
117.7375
 20
88.8163
  0
VERTEX
  8
LAYER_1
 10
117.5956
 20
88.7629
  0
VERTEX
  8
LAYER_1
 10
117.4481
 20
88.7205
  0
VERTEX
  8
LAYER_1
 10
117.2979
 20
88.6902
  0
VERTEX
  8
LAYER_1
 10
117.145
 20
88.6719
  0
VERTEX
  8
LAYER_1
 10
116.9906
 20
88.6661
  0
VERTEX
  8
LAYER_1
 10
116.837
 20
88.6719
  0
VERTEX
  8
LAYER_1
 10
116.684
 20
88.6902
  0
VERTEX
  8
LAYER_1
 10
116.5331
 20
88.7205
  0
VERTEX
  8
LAYER_1
 10
116.3863
 20
88.7629
  0
VERTEX
  8
LAYER_1
 10
116.2437
 20
88.8163
  0
VERTEX
  8
LAYER_1
 10
116.1066
 20
88.8811
  0
VERTEX
  8
LAYER_1
 10
115.9771
 20
88.9562
  0
VERTEX
  8
LAYER_1
 10
115.8544
 20
89.0416
  0
VERTEX
  8
LAYER_1
 10
115.7414
 20
89.1356
  0
VERTEX
  8
LAYER_1
 10
115.6367
 20
89.2393
  0
VERTEX
  8
LAYER_1
 10
115.543
 20
89.3503
  0
VERTEX
  8
LAYER_1
 10
115.4596
 20
89.4688
  0
VERTEX
  8
LAYER_1
 10
115.3887
 20
89.5925
  0
VERTEX
  8
LAYER_1
 10
115.3294
 20
89.7223
  0
VERTEX
  8
LAYER_1
 10
115.2832
 20
89.8557
  0
VERTEX
  8
LAYER_1
 10
115.2502
 20
89.9928
  0
VERTEX
  8
LAYER_1
 10
115.2295
 20
90.1316
  0
SEQEND
  0
ENDBLK
  0
BLOCK
  8
LAYER_1
  2
AIGNBL0102001A
 70
64
 10
0
 20
0
 30
0
  3
AIGNBL0102001A
  0
POLYLINE
  8
LAYER_1
 40
0.2469
 41
0.2469
 66
1
 10
0
 20
0
 30
0
 70
1
  0
VERTEX
  8
LAYER_1
 10
116.9906
 20
81.431
  0
VERTEX
  8
LAYER_1
 10
117.1463
 20
81.4438
  0
VERTEX
  8
LAYER_1
 10
117.2979
 20
81.48
  0
VERTEX
  8
LAYER_1
 10
117.4516
 20
81.542
  0
VERTEX
  8
LAYER_1
 10
117.5956
 20
81.6246
  0
VERTEX
  8
LAYER_1
 10
117.7417
 20
81.7352
  0
VERTEX
  8
LAYER_1
 10
117.8746
 20
81.8613
  0
VERTEX
  8
LAYER_1
 10
118.0083
 20
82.016
  0
VERTEX
  8
LAYER_1
 10
118.1268
 20
82.1824
  0
VERTEX
  8
LAYER_1
 10
118.2433
 20
82.3764
  0
VERTEX
  8
LAYER_1
 10
118.3445
 20
82.5782
  0
VERTEX
  8
LAYER_1
 10
118.4403
 20
82.8046
  0
VERTEX
  8
LAYER_1
 10
118.5216
 20
83.0368
  0
VERTEX
  8
LAYER_1
 10
118.5933
 20
83.2886
  0
VERTEX
  8
LAYER_1
 10
118.6518
 20
83.5439
  0
VERTEX
  8
LAYER_1
 10
118.6987
 20
83.8133
  0
VERTEX
  8
LAYER_1
 10
118.7318
 20
84.0848
  0
VERTEX
  8
LAYER_1
 10
118.7518
 20
84.3632
  0
VERTEX
  8
LAYER_1
 10
118.7586
 20
84.6426
  0
VERTEX
  8
LAYER_1
 10
118.7518
 20
84.9216
  0
VERTEX
  8
LAYER_1
 10
118.7318
 20
85.2
  0
VERTEX
  8
LAYER_1
 10
118.6987
 20
85.4714
  0
VERTEX
  8
LAYER_1
 10
118.6518
 20
85.7408
  0
VERTEX
  8
LAYER_1
 10
118.5933
 20
85.9961
  0
VERTEX
  8
LAYER_1
 10
118.5216
 20
86.248
  0
VERTEX
  8
LAYER_1
 10
118.4403
 20
86.4802
  0
VERTEX
  8
LAYER_1
 10
118.3445
 20
86.7065
  0
VERTEX
  8
LAYER_1
 10
118.2433
 20
86.9084
  0
VERTEX
  8
LAYER_1
 10
118.1268
 20
87.1023
  0
VERTEX
  8
LAYER_1
 10
118.0083
 20
87.2687
  0
VERTEX
  8
LAYER_1
 10
117.8746
 20
87.4234
  0
VERTEX
  8
LAYER_1
 10
117.7417
 20
87.5495
  0
VERTEX
  8
LAYER_1
 10
117.5956
 20
87.6601
  0
VERTEX
  8
LAYER_1
 10
117.4516
 20
87.7428
  0
VERTEX
  8
LAYER_1
 10
117.2979
 20
87.8048
  0
VERTEX
  8
LAYER_1
 10
117.1463
 20
87.8413
  0
VERTEX
  8
LAYER_1
 10
116.9906
 20
87.8537
  0
VERTEX
  8
LAYER_1
 10
116.8356
 20
87.8413
  0
VERTEX
  8
LAYER_1
 10
116.684
 20
87.8048
  0
VERTEX
  8
LAYER_1
 10
116.5297
 20
87.7428
  0
VERTEX
  8
LAYER_1
 10
116.3863
 20
87.6601
  0
VERTEX
  8
LAYER_1
 10
116.2396
 20
87.5495
  0
VERTEX
  8
LAYER_1
 10
116.1066
 20
87.4234
  0
VERTEX
  8
LAYER_1
 10
115.9736
 20
87.2687
  0
VERTEX
  8
LAYER_1
 10
115.8544
 20
87.1023
  0
VERTEX
  8
LAYER_1
 10
115.738
 20
86.9084
  0
VERTEX
  8
LAYER_1
 10
115.6367
 20
86.7065
  0
VERTEX
  8
LAYER_1
 10
115.5409
 20
86.4802
  0
VERTEX
  8
LAYER_1
 10
115.4596
 20
86.248
  0
VERTEX
  8
LAYER_1
 10
115.388
 20
85.9961
  0
VERTEX
  8
LAYER_1
 10
115.3294
 20
85.7408
  0
VERTEX
  8
LAYER_1
 10
115.2832
 20
85.4714
  0
VERTEX
  8
LAYER_1
 10
115.2502
 20
85.2
  0
VERTEX
  8
LAYER_1
 10
115.2295
 20
84.9216
  0
VERTEX
  8
LAYER_1
 10
115.2233
 20
84.6426
  0
VERTEX
  8
LAYER_1
 10
115.2295
 20
84.3632
  0
VERTEX
  8
LAYER_1
 10
115.2502
 20
84.0848
  0
VERTEX
  8
LAYER_1
 10
115.2832
 20
83.8133
  0
VERTEX
  8
LAYER_1
 10
115.3294
 20
83.5439
  0
VERTEX
  8
LAYER_1
 10
115.388
 20
83.2886
  0
VERTEX
  8
LAYER_1
 10
115.4596
 20
83.0368
  0
VERTEX
  8
LAYER_1
 10
115.5409
 20
82.8046
  0
VERTEX
  8
LAYER_1
 10
115.6367
 20
82.5782
  0
VERTEX
  8
LAYER_1
 10
115.738
 20
82.3764
  0
VERTEX
  8
LAYER_1
 10
115.8544
 20
82.1824
  0
VERTEX
  8
LAYER_1
 10
115.9736
 20
82.016
  0
VERTEX
  8
LAYER_1
 10
116.1066
 20
81.8613
  0
VERTEX
  8
LAYER_1
 10
116.2396
 20
81.7352
  0
VERTEX
  8
LAYER_1
 10
116.3863
 20
81.6246
  0
VERTEX
  8
LAYER_1
 10
116.5297
 20
81.542
  0
VERTEX
  8
LAYER_1
 10
116.684
 20
81.48
  0
VERTEX
  8
LAYER_1
 10
116.8356
 20
81.4438
  0
SEQEND
  0
ENDBLK
  0
BLOCK
  8
LAYER_1
  2
AIGNBL0102001B
 70
64
 10
0
 20
0
 30
0
  3
AIGNBL0102001B
  0
POLYLINE
  8
LAYER_1
 40
0.2469
 41
0.2469
 66
1
 10
0
 20
0
 30
0
 70
1
  0
VERTEX
  8
LAYER_1
 10
115.2233
 20
79.0133
  0
VERTEX
  8
LAYER_1
 10
115.2295
 20
78.873
  0
VERTEX
  8
LAYER_1
 10
115.2502
 20
78.7346
  0
VERTEX
  8
LAYER_1
 10
115.2832
 20
78.5974
  0
VERTEX
  8
LAYER_1
 10
115.3294
 20
78.4641
  0
VERTEX
  8
LAYER_1
 10
115.3887
 20
78.3342
  0
VERTEX
  8
LAYER_1
 10
115.4596
 20
78.2106
  0
VERTEX
  8
LAYER_1
 10
115.543
 20
78.0917
  0
VERTEX
  8
LAYER_1
 10
115.6367
 20
77.9811
  0
VERTEX
  8
LAYER_1
 10
115.7414
 20
77.8774
  0
VERTEX
  8
LAYER_1
 10
115.8544
 20
77.7834
  0
VERTEX
  8
LAYER_1
 10
115.9771
 20
77.6976
  0
VERTEX
  8
LAYER_1
 10
116.1066
 20
77.6228
  0
VERTEX
  8
LAYER_1
 10
116.2437
 20
77.5577
  0
VERTEX
  8
LAYER_1
 10
116.3863
 20
77.5043
  0
VERTEX
  8
LAYER_1
 10
116.5331
 20
77.4623
  0
VERTEX
  8
LAYER_1
 10
116.684
 20
77.432
  0
VERTEX
  8
LAYER_1
 10
116.837
 20
77.4137
  0
VERTEX
  8
LAYER_1
 10
116.9906
 20
77.4075
  0
VERTEX
  8
LAYER_1
 10
117.145
 20
77.4137
  0
VERTEX
  8
LAYER_1
 10
117.2979
 20
77.432
  0
VERTEX
  8
LAYER_1
 10
117.4481
 20
77.4623
  0
VERTEX
  8
LAYER_1
 10
117.5956
 20
77.5043
  0
VERTEX
  8
LAYER_1
 10
117.7375
 20
77.5577
  0
VERTEX
  8
LAYER_1
 10
117.8746
 20
77.6228
  0
VERTEX
  8
LAYER_1
 10
118.0042
 20
77.6976
  0
VERTEX
  8
LAYER_1
 10
118.1268
 20
77.7834
  0
VERTEX
  8
LAYER_1
 10
118.2398
 20
77.8774
  0
VERTEX
  8
LAYER_1
 10
118.3445
 20
77.9811
  0
VERTEX
  8
LAYER_1
 10
118.4382
 20
78.0917
  0
VERTEX
  8
LAYER_1
 10
118.5216
 20
78.2106
  0
VERTEX
  8
LAYER_1
 10
118.5926
 20
78.3342
  0
VERTEX
  8
LAYER_1
 10
118.6518
 20
78.4641
  0
VERTEX
  8
LAYER_1
 10
118.698
 20
78.5974
  0
VERTEX
  8
LAYER_1
 10
118.7318
 20
78.7346
  0
VERTEX
  8
LAYER_1
 10
118.7518
 20
78.873
  0
VERTEX
  8
LAYER_1
 10
118.7586
 20
79.0133
  0
VERTEX
  8
LAYER_1
 10
118.7518
 20
79.1531
  0
VERTEX
  8
LAYER_1
 10
118.7318
 20
79.292
  0
VERTEX
  8
LAYER_1
 10
118.698
 20
79.4291
  0
VERTEX
  8
LAYER_1
 10
118.6518
 20
79.5624
  0
VERTEX
  8
LAYER_1
 10
118.5926
 20
79.6923
  0
VERTEX
  8
LAYER_1
 10
118.5216
 20
79.816
  0
VERTEX
  8
LAYER_1
 10
118.4382
 20
79.9348
  0
VERTEX
  8
LAYER_1
 10
118.3445
 20
80.0454
  0
VERTEX
  8
LAYER_1
 10
118.2398
 20
80.1491
  0
VERTEX
  8
LAYER_1
 10
118.1268
 20
80.2432
  0
VERTEX
  8
LAYER_1
 10
118.0042
 20
80.3289
  0
VERTEX
  8
LAYER_1
 10
117.8746
 20
80.4037
  0
VERTEX
  8
LAYER_1
 10
117.7375
 20
80.4685
  0
VERTEX
  8
LAYER_1
 10
117.5956
 20
80.5222
  0
VERTEX
  8
LAYER_1
 10
117.4481
 20
80.5642
  0
VERTEX
  8
LAYER_1
 10
117.2979
 20
80.5946
  0
VERTEX
  8
LAYER_1
 10
117.145
 20
80.6128
  0
VERTEX
  8
LAYER_1
 10
116.9906
 20
80.619
  0
VERTEX
  8
LAYER_1
 10
116.837
 20
80.6128
  0
VERTEX
  8
LAYER_1
 10
116.684
 20
80.5946
  0
VERTEX
  8
LAYER_1
 10
116.5331
 20
80.5642
  0
VERTEX
  8
LAYER_1
 10
116.3863
 20
80.5222
  0
VERTEX
  8
LAYER_1
 10
116.2437
 20
80.4685
  0
VERTEX
  8
LAYER_1
 10
116.1066
 20
80.4037
  0
VERTEX
  8
LAYER_1
 10
115.9771
 20
80.3289
  0
VERTEX
  8
LAYER_1
 10
115.8544
 20
80.2432
  0
VERTEX
  8
LAYER_1
 10
115.7414
 20
80.1491
  0
VERTEX
  8
LAYER_1
 10
115.6367
 20
80.0454
  0
VERTEX
  8
LAYER_1
 10
115.543
 20
79.9348
  0
VERTEX
  8
LAYER_1
 10
115.4596
 20
79.816
  0
VERTEX
  8
LAYER_1
 10
115.3887
 20
79.6923
  0
VERTEX
  8
LAYER_1
 10
115.3294
 20
79.5624
  0
VERTEX
  8
LAYER_1
 10
115.2832
 20
79.4291
  0
VERTEX
  8
LAYER_1
 10
115.2502
 20
79.292
  0
VERTEX
  8
LAYER_1
 10
115.2295
 20
79.1531
  0
SEQEND
  0
ENDBLK
  0
BLOCK
  8
LAYER_1
  2
AIGNBL0102001D
 70
64
 10
0
 20
0
 30
0
  3
AIGNBL0102001D
  0
POLYLINE
  8
LAYER_1
 40
0.2469
 41
0.2469
 66
1
 10
0
 20
0
 30
0
  0
VERTEX
  8
LAYER_1
 10
111.7582
 20
82.2675
  0
VERTEX
  8
LAYER_1
 10
110.2582
 20
82.2675
  0
SEQEND
  0
ENDBLK
  0
BLOCK
  8
LAYER_1
  2
AIGNBL0102001E
 70
64
 10
0
 20
0
 30
0
  3
AIGNBL0102001E
  0
POLYLINE
  8
LAYER_1
 40
0.2469
 41
0.2469
 66
1
 10
0
 20
0
 30
0
  0
VERTEX
  8
LAYER_1
 10
110.2582
 20
87.0173
  0
VERTEX
  8
LAYER_1
 10
111.7582
 20
87.0173
  0
SEQEND
  0
ENDBLK
  0
BLOCK
  8
LAYER_1
  2
AIGNBL0102001F
 70
64
 10
0
 20
0
 30
0
  3
AIGNBL0102001F
  0
POLYLINE
  8
LAYER_1
 40
0.2469
 41
0.2469
 66
1
 10
0
 20
0
 30
0
  0
VERTEX
  8
LAYER_1
 10
56.5266
 20
148.9666
  0
VERTEX
  8
LAYER_1
 10
56.5266
 20
147.4666
  0
SEQEND
  0
ENDBLK
  0
BLOCK
  8
LAYER_1
  2
AIGNBL01020020
 70
64
 10
0
 20
0
 30
0
  3
AIGNBL01020020
  0
POLYLINE
  8
LAYER_1
 40
0.2469
 41
0.2469
 66
1
 10
0
 20
0
 30
0
  0
VERTEX
  8
LAYER_1
 10
56.5266
 20
148.9666
  0
VERTEX
  8
LAYER_1
 10
56.5266
 20
147.4666
  0
SEQEND
  0
ENDBLK
  0
BLOCK
  8
LAYER_1
  2
AIGNBL01020021
 70
64
 10
0
 20
0
 30
0
  3
AIGNBL01020021
  0
POLYLINE
  8
LAYER_1
 40
0.2469
 41
0.2469
 66
1
 10
0
 20
0
 30
0
  0
VERTEX
  8
LAYER_1
 10
51.7769
 20
147.4666
  0
VERTEX
  8
LAYER_1
 10
51.7769
 20
148.9666
  0
SEQEND
  0
ENDBLK
  0
BLOCK
  8
LAYER_1
  2
AIGNBL01020022
 70
64
 10
0
 20
0
 30
0
  3
AIGNBL01020022
  0
POLYLINE
  8
LAYER_1
 40
0.2469
 41
0.2469
 66
1
 10
0
 20
0
 30
0
  0
VERTEX
  8
LAYER_1
 10
51.7769
 20
147.4666
  0
VERTEX
  8
LAYER_1
 10
51.7769
 20
148.9666
  0
SEQEND
  0
ENDBLK
  0
BLOCK
  8
LAYER_1
  2
AIGNBL01020024
 70
64
 10
0
 20
0
 30
0
  3
AIGNBL01020024
  0
POLYLINE
  8
LAYER_1
 40
0.2469
 41
0.2469
 66
1
 10
0
 20
0
 30
0
  0
VERTEX
  8
LAYER_1
 10
41.2052
 20
88.7712
  0
VERTEX
  8
LAYER_1
 10
46.193
 20
83.783
  0
SEQEND
  0
ENDBLK
  0
BLOCK
  8
LAYER_1
  2
AIGNBL01020025
 70
64
 10
0
 20
0
 30
0
  3
AIGNBL01020025
  0
POLYLINE
  8
LAYER_1
 40
0.2469
 41
0.2469
 66
1
 10
0
 20
0
 30
0
  0
VERTEX
  8
LAYER_1
 10
51.2542
 20
71.3658
  0
VERTEX
  8
LAYER_1
 10
49.4283
 20
78.1796
  0
SEQEND
  0
ENDBLK
  0
BLOCK
  8
LAYER_1
  2
AIGNBL01020026
 70
64
 10
0
 20
0
 30
0
  3
AIGNBL01020026
  0
POLYLINE
  8
LAYER_1
 40
0.2469
 41
0.2469
 66
1
 10
0
 20
0
 30
0
  0
VERTEX
  8
LAYER_1
 10
57.0496
 20
71.3658
  0
VERTEX
  8
LAYER_1
 10
58.8755
 20
78.1796
  0
SEQEND
  0
ENDBLK
  0
BLOCK
  8
LAYER_1
  2
AIGNBL01020027
 70
64
 10
0
 20
0
 30
0
  3
AIGNBL01020027
  0
POLYLINE
  8
LAYER_1
 40
0.2469
 41
0.2469
 66
1
 10
0
 20
0
 30
0
  0
VERTEX
  8
LAYER_1
 10
67.0986
 20
88.7712
  0
VERTEX
  8
LAYER_1
 10
62.1104
 20
83.783
  0
SEQEND
  0
ENDBLK
  0
BLOCK
  8
LAYER_1
  2
AIGNBL01020028
 70
64
 10
0
 20
0
 30
0
  3
AIGNBL01020028
  0
POLYLINE
  8
LAYER_1
 40
0.2469
 41
0.2469
 66
1
 10
0
 20
0
 30
0
  0
VERTEX
  8
LAYER_1
 10
64.2006
 20
93.7903
  0
VERTEX
  8
LAYER_1
 10
57.3872
 20
91.9644
  0
SEQEND
  0
ENDBLK
  0
BLOCK
  8
LAYER_1
  2
AIGNBL01020029
 70
64
 10
0
 20
0
 30
0
  3
AIGNBL01020029
  0
POLYLINE
  8
LAYER_1
 40
0.2469
 41
0.2469
 66
1
 10
0
 20
0
 30
0
  0
VERTEX
  8
LAYER_1
 10
44.1029
 20
93.7903
  0
VERTEX
  8
LAYER_1
 10
50.9166
 20
91.9644
  0
SEQEND
  0
ENDBLK
  0
BLOCK
  8
LAYER_1
  2
AIGNBL0102002A
 70
64
 10
0
 20
0
 30
0
  3
AIGNBL0102002A
  0
POLYLINE
  8
LAYER_1
 40
0.2469
 41
0.2469
 66
1
 10
0
 20
0
 30
0
  0
VERTEX
  8
LAYER_1
 10
67.7487
 20
145.5739
  0
VERTEX
  8
LAYER_1
 10
67.9747
 20
147.1817
  0
SEQEND
  0
ENDBLK
  0
BLOCK
  8
LAYER_1
  2
AIGNBL0102002B
 70
64
 10
0
 20
0
 30
0
  3
AIGNBL0102002B
  0
POLYLINE
  8
LAYER_1
 40
0.2469
 41
0.2469
 66
1
 10
0
 20
0
 30
0
  0
VERTEX
  8
LAYER_1
 10
67.7273
 20
147.4666
  0
VERTEX
  8
LAYER_1
 10
40.5765
 20
147.4666
  0
SEQEND
  0
ENDBLK
  0
BLOCK
  8
LAYER_1
  2
AIGNBL0102002C
 70
64
 10
0
 20
0
 30
0
  3
AIGNBL0102002C
  0
POLYLINE
  8
LAYER_1
 40
0.2469
 41
0.2469
 66
1
 10
0
 20
0
 30
0
  0
VERTEX
  8
LAYER_1
 10
40.3288
 20
147.1817
  0
VERTEX
  8
LAYER_1
 10
40.5548
 20
145.5739
  0
SEQEND
  0
ENDBLK
  0
BLOCK
  8
LAYER_1
  2
AIGNBL0102002D
 70
64
 10
0
 20
0
 30
0
  3
AIGNBL0102002D
  0
POLYLINE
  8
LAYER_1
 40
0.2469
 41
0.2469
 66
1
 10
0
 20
0
 30
0
  0
VERTEX
  8
LAYER_1
 10
57.4017
 20
146.9616
  0
VERTEX
  8
LAYER_1
 10
57.4017
 20
143.7979
  0
SEQEND
  0
ENDBLK
  0
BLOCK
  8
LAYER_1
  2
AIGNBL0102002E
 70
64
 10
0
 20
0
 30
0
  3
AIGNBL0102002E
  0
POLYLINE
  8
LAYER_1
 40
0.2469
 41
0.2469
 66
1
 10
0
 20
0
 30
0
  0
VERTEX
  8
LAYER_1
 10
50.9018
 20
146.7921
  0
VERTEX
  8
LAYER_1
 10
50.9018
 20
143.6284
  0
SEQEND
  0
ENDBLK
  0
BLOCK
  8
LAYER_1
  2
AIGNBL0102002F
 70
64
 10
0
 20
0
 30
0
  3
AIGNBL0102002F
  0
POLYLINE
  8
LAYER_1
 40
0.2469
 41
0.2469
 66
1
 10
0
 20
0
 30
0
  0
VERTEX
  8
LAYER_1
 10
107.7793
 20
93.5436
  0
VERTEX
  8
LAYER_1
 10
109.9736
 20
93.8523
  0
SEQEND
  0
ENDBLK
  0
BLOCK
  8
LAYER_1
  2
AIGNBL01020030
 70
64
 10
0
 20
0
 30
0
  3
AIGNBL01020030
  0
POLYLINE
  8
LAYER_1
 40
0.2469
 41
0.2469
 66
1
 10
0
 20
0
 30
0
  0
VERTEX
  8
LAYER_1
 10
108.3655
 20
69.4083
  0
VERTEX
  8
LAYER_1
 10
109.9736
 20
69.1823
  0
SEQEND
  0
ENDBLK
  0
BLOCK
  8
LAYER_1
  2
AIGNBL01020031
 70
64
 10
0
 20
0
 30
0
  3
AIGNBL01020031
  0
POLYLINE
  8
LAYER_1
 40
0.2469
 41
0.2469
 66
1
 10
0
 20
0
 30
0
  0
VERTEX
  8
LAYER_1
 10
110.2582
 20
93.6046
  0
VERTEX
  8
LAYER_1
 10
110.2582
 20
69.43
  0
SEQEND
  0
ENDBLK
  0
BLOCK
  8
LAYER_1
  2
AIGNBL01020032
 70
64
 10
0
 20
0
 30
0
  3
AIGNBL01020032
  0
POLYLINE
  8
LAYER_1
 40
0.2469
 41
0.2469
 66
1
 10
0
 20
0
 30
0
  0
VERTEX
  8
LAYER_1
 10
51.2542
 20
71.3658
 42
0.4142707733
  0
VERTEX
  8
LAYER_1
 10
54.9281
 20
69.2447
 42
0.2679982719
  0
VERTEX
  8
LAYER_1
 10
57.0496
 20
71.3658
  0
SEQEND
  0
ENDBLK
  0
BLOCK
  8
LAYER_1
  2
AIGNBL01020033
 70
64
 10
0
 20
0
 30
0
  3
AIGNBL01020033
  0
POLYLINE
  8
LAYER_1
 40
0.2469
 41
0.2469
 66
1
 10
0
 20
0
 30
0
  0
VERTEX
  8
LAYER_1
 10
67.0986
 20
88.7712
 42
0.4141645534
  0
VERTEX
  8
LAYER_1
 10
67.0986
 20
93.0138
 42
0.2679313591
  0
VERTEX
  8
LAYER_1
 10
64.2006
 20
93.7903
  0
SEQEND
  0
ENDBLK
  0
BLOCK
  8
LAYER_1
  2
AIGNBL01020034
 70
64
 10
0
 20
0
 30
0
  3
AIGNBL01020034
  0
POLYLINE
  8
LAYER_1
 40
0.2469
 41
0.2469
 66
1
 10
0
 20
0
 30
0
  0
VERTEX
  8
LAYER_1
 10
44.1029
 20
93.7903
 42
0.4141727018
  0
VERTEX
  8
LAYER_1
 10
40.4287
 20
91.6688
 42
0.2679260526
  0
VERTEX
  8
LAYER_1
 10
41.2052
 20
88.7712
  0
SEQEND
  0
ENDBLK
  0
BLOCK
  8
LAYER_1
  2
AIGNBL01020035
 70
64
 10
0
 20
0
 30
0
  3
AIGNBL01020035
  0
POLYLINE
  8
LAYER_1
 40
0.2469
 41
0.2469
 66
1
 10
0
 20
0
 30
0
  0
VERTEX
  8
LAYER_1
 10
56.1518
 20
141.9665
 42
0.03610905697
  0
VERTEX
  8
LAYER_1
 10
65.2889
 20
143.0352
  0
SEQEND
  0
ENDBLK
  0
BLOCK
  8
LAYER_1
  2
AIGNBL01020036
 70
64
 10
0
 20
0
 30
0
  3
AIGNBL01020036
  0
POLYLINE
  8
LAYER_1
 40
0.2469
 41
0.2469
 66
1
 10
0
 20
0
 30
0
  0
VERTEX
  8
LAYER_1
 10
43.0149
 20
143.0352
 42
0.03611432221
  0
VERTEX
  8
LAYER_1
 10
52.152
 20
141.9665
  0
SEQEND
  0
ENDBLK
  0
BLOCK
  8
LAYER_1
  2
AIGNBL01020037
 70
64
 10
0
 20
0
 30
0
  3
AIGNBL01020037
  0
POLYLINE
  8
LAYER_1
 40
0.2469
 41
0.2469
 66
1
 10
0
 20
0
 30
0
  0
VERTEX
  8
LAYER_1
 10
105.2389
 20
91.0728
 42
0.02985955496
  0
VERTEX
  8
LAYER_1
 10
104.7586
 20
86.6424
  0
SEQEND
  0
ENDBLK
  0
BLOCK
  8
LAYER_1
  2
AIGNBL01020038
 70
64
 10
0
 20
0
 30
0
  3
AIGNBL01020038
  0
POLYLINE
  8
LAYER_1
 40
0.2469
 41
0.2469
 66
1
 10
0
 20
0
 30
0
  0
VERTEX
  8
LAYER_1
 10
104.7586
 20
82.6423
 42
0.03611705211
  0
VERTEX
  8
LAYER_1
 10
105.8273
 20
71.8685
  0
SEQEND
  0
ENDBLK
  0
BLOCK
  8
LAYER_1
  2
AIGNBL01020039
 70
64
 10
0
 20
0
 30
0
  3
AIGNBL01020039
  0
POLYLINE
  8
LAYER_1
 40
0.2469
 41
0.2469
 66
1
 10
0
 20
0
 30
0
  0
VERTEX
  8
LAYER_1
 10
49.4283
 20
78.1796
 42
0.1316966039
  0
VERTEX
  8
LAYER_1
 10
46.193
 20
83.783
  0
SEQEND
  0
ENDBLK
  0
BLOCK
  8
LAYER_1
  2
AIGNBL0102003A
 70
64
 10
0
 20
0
 30
0
  3
AIGNBL0102003A
  0
POLYLINE
  8
LAYER_1
 40
0.2469
 41
0.2469
 66
1
 10
0
 20
0
 30
0
  0
VERTEX
  8
LAYER_1
 10
62.1104
 20
83.783
 42
0.1316674647
  0
VERTEX
  8
LAYER_1
 10
58.8755
 20
78.1796
  0
SEQEND
  0
ENDBLK
  0
BLOCK
  8
LAYER_1
  2
AIGNBL0102003B
 70
64
 10
0
 20
0
 30
0
  3
AIGNBL0102003B
  0
POLYLINE
  8
LAYER_1
 40
0.2469
 41
0.2469
 66
1
 10
0
 20
0
 30
0
  0
VERTEX
  8
LAYER_1
 10
50.9166
 20
91.9644
 42
0.1316201264
  0
VERTEX
  8
LAYER_1
 10
57.3872
 20
91.9644
  0
SEQEND
  0
ENDBLK
  0
BLOCK
  8
LAYER_1
  2
AIGNBL0102003C
 70
64
 10
0
 20
0
 30
0
  3
AIGNBL0102003C
  0
POLYLINE
  8
LAYER_1
 40
0.2469
 41
0.2469
 66
1
 10
0
 20
0
 30
0
  0
VERTEX
  8
LAYER_1
 10
67.9747
 20
147.1817
 42
0.4150007839
  0
VERTEX
  8
LAYER_1
 10
67.7618
 20
147.4639
  0
VERTEX
  8
LAYER_1
 10
67.7273
 20
147.4666
  0
SEQEND
  0
ENDBLK
  0
BLOCK
  8
LAYER_1
  2
AIGNBL0102003D
 70
64
 10
0
 20
0
 30
0
  3
AIGNBL0102003D
  0
POLYLINE
  8
LAYER_1
 40
0.2469
 41
0.2469
 66
1
 10
0
 20
0
 30
0
  0
VERTEX
  8
LAYER_1
 10
65.2889
 20
143.0352
 42
0.3259225766
  0
VERTEX
  8
LAYER_1
 10
67.7487
 20
145.5739
  0
SEQEND
  0
ENDBLK
  0
BLOCK
  8
LAYER_1
  2
AIGNBL0102003E
 70
64
 10
0
 20
0
 30
0
  3
AIGNBL0102003E
  0
POLYLINE
  8
LAYER_1
 40
0.2469
 41
0.2469
 66
1
 10
0
 20
0
 30
0
  0
VERTEX
  8
LAYER_1
 10
40.5548
 20
145.5739
 42
0.325848748
  0
VERTEX
  8
LAYER_1
 10
43.0149
 20
143.0352
  0
SEQEND
  0
ENDBLK
  0
BLOCK
  8
LAYER_1
  2
AIGNBL0102003F
 70
64
 10
0
 20
0
 30
0
  3
AIGNBL0102003F
  0
POLYLINE
  8
LAYER_1
 40
0.2469
 41
0.2469
 66
1
 10
0
 20
0
 30
0
  0
VERTEX
  8
LAYER_1
 10
40.5765
 20
147.4666
 42
0.4142164212
  0
VERTEX
  8
LAYER_1
 10
40.3264
 20
147.2165
  0
VERTEX
  8
LAYER_1
 10
40.3288
 20
147.1817
  0
SEQEND
  0
ENDBLK
  0
BLOCK
  8
LAYER_1
  2
AIGNBL01020040
 70
64
 10
0
 20
0
 30
0
  3
AIGNBL01020040
  0
POLYLINE
  8
LAYER_1
 40
0.2469
 41
0.2469
 66
1
 10
0
 20
0
 30
0
  0
VERTEX
  8
LAYER_1
 10
110.2582
 20
93.6046
 42
0.4142398413
  0
VERTEX
  8
LAYER_1
 10
110.0081
 20
93.8547
  0
VERTEX
  8
LAYER_1
 10
109.9736
 20
93.8523
  0
SEQEND
  0
ENDBLK
  0
BLOCK
  8
LAYER_1
  2
AIGNBL01020041
 70
64
 10
0
 20
0
 30
0
  3
AIGNBL01020041
  0
POLYLINE
  8
LAYER_1
 40
0.2469
 41
0.2469
 66
1
 10
0
 20
0
 30
0
  0
VERTEX
  8
LAYER_1
 10
109.9736
 20
69.1823
 42
0.3930335827
  0
VERTEX
  8
LAYER_1
 10
110.2561
 20
69.3952
  0
VERTEX
  8
LAYER_1
 10
110.2582
 20
69.43
  0
SEQEND
  0
ENDBLK
  0
BLOCK
  8
LAYER_1
  2
AIGNBL01020042
 70
64
 10
0
 20
0
 30
0
  3
AIGNBL01020042
  0
POLYLINE
  8
LAYER_1
 40
0.2469
 41
0.2469
 66
1
 10
0
 20
0
 30
0
  0
VERTEX
  8
LAYER_1
 10
107.7793
 20
93.5436
 42
0.3269487765
  0
VERTEX
  8
LAYER_1
 10
105.2389
 20
91.0728
  0
SEQEND
  0
ENDBLK
  0
BLOCK
  8
LAYER_1
  2
AIGNBL01020043
 70
64
 10
0
 20
0
 30
0
  3
AIGNBL01020043
  0
POLYLINE
  8
LAYER_1
 40
0.2469
 41
0.2469
 66
1
 10
0
 20
0
 30
0
  0
VERTEX
  8
LAYER_1
 10
105.8273
 20
71.8685
 42
0.3258531566
  0
VERTEX
  8
LAYER_1
 10
108.3655
 20
69.4083
  0
SEQEND
  0
ENDBLK
  0
BLOCK
  8
LAYER_1
  2
AIGNBL01020045
 70
64
 10
0
 20
0
 30
0
  3
AIGNBL01020045
  0
POLYLINE
  8
LAYER_1
 40
0.2469
 41
0.2469
 66
1
 10
0
 20
0
 30
0
  0
VERTEX
  8
LAYER_1
 10
50.6517
 20
140.5664
  0
VERTEX
  8
LAYER_1
 10
57.6518
 20
140.5664
  0
SEQEND
  0
ENDBLK
  0
BLOCK
  8
LAYER_1
  2
AIGNBL01020046
 70
64
 10
0
 20
0
 30
0
  3
AIGNBL01020046
  0
POLYLINE
  8
LAYER_1
 40
0.2469
 41
0.2469
 66
1
 10
0
 20
0
 30
0
  0
VERTEX
  8
LAYER_1
 10
54.6518
 20
140.9454
  0
VERTEX
  8
LAYER_1
 10
54.6518
 20
141.478
  0
SEQEND
  0
ENDBLK
  0
BLOCK
  8
LAYER_1
  2
AIGNBL01020047
 70
64
 10
0
 20
0
 30
0
  3
AIGNBL01020047
  0
POLYLINE
  8
LAYER_1
 40
0.2469
 41
0.2469
 66
1
 10
0
 20
0
 30
0
  0
VERTEX
  8
LAYER_1
 10
55.152
 20
140.8238
  0
VERTEX
  8
LAYER_1
 10
55.152
 20
141.6079
  0
SEQEND
  0
ENDBLK
  0
BLOCK
  8
LAYER_1
  2
AIGNBL01020048
 70
64
 10
0
 20
0
 30
0
  3
AIGNBL01020048
  0
POLYLINE
  8
LAYER_1
 40
0.2469
 41
0.2469
 66
1
 10
0
 20
0
 30
0
  0
VERTEX
  8
LAYER_1
 10
55.6519
 20
140.7184
  0
VERTEX
  8
LAYER_1
 10
55.6519
 20
141.786
  0
SEQEND
  0
ENDBLK
  0
BLOCK
  8
LAYER_1
  2
AIGNBL01020049
 70
64
 10
0
 20
0
 30
0
  3
AIGNBL01020049
  0
POLYLINE
  8
LAYER_1
 40
0.2469
 41
0.2469
 66
1
 10
0
 20
0
 30
0
  0
VERTEX
  8
LAYER_1
 10
56.1518
 20
140.6615
  0
VERTEX
  8
LAYER_1
 10
56.1518
 20
141.8835
  0
SEQEND
  0
ENDBLK
  0
BLOCK
  8
LAYER_1
  2
AIGNBL0102004A
 70
64
 10
0
 20
0
 30
0
  3
AIGNBL0102004A
  0
POLYLINE
  8
LAYER_1
 40
0.2469
 41
0.2469
 66
1
 10
0
 20
0
 30
0
  0
VERTEX
  8
LAYER_1
 10
56.652
 20
140.5664
  0
VERTEX
  8
LAYER_1
 10
56.652
 20
141.9665
  0
SEQEND
  0
ENDBLK
  0
BLOCK
  8
LAYER_1
  2
AIGNBL0102004B
 70
64
 10
0
 20
0
 30
0
  3
AIGNBL0102004B
  0
POLYLINE
  8
LAYER_1
 40
0.2469
 41
0.2469
 66
1
 10
0
 20
0
 30
0
  0
VERTEX
  8
LAYER_1
 10
57.1519
 20
140.5664
  0
VERTEX
  8
LAYER_1
 10
57.1519
 20
141.9665
  0
SEQEND
  0
ENDBLK
  0
BLOCK
  8
LAYER_1
  2
AIGNBL0102004C
 70
64
 10
0
 20
0
 30
0
  3
AIGNBL0102004C
  0
POLYLINE
  8
LAYER_1
 40
0.2469
 41
0.2469
 66
1
 10
0
 20
0
 30
0
  0
VERTEX
  8
LAYER_1
 10
57.6518
 20
140.5664
  0
VERTEX
  8
LAYER_1
 10
57.1519
 20
140.4317
  0
SEQEND
  0
ENDBLK
  0
BLOCK
  8
LAYER_1
  2
AIGNBL0102004D
 70
64
 10
0
 20
0
 30
0
  3
AIGNBL0102004D
  0
POLYLINE
  8
LAYER_1
 40
0.2469
 41
0.2469
 66
1
 10
0
 20
0
 30
0
  0
VERTEX
  8
LAYER_1
 10
57.6518
 20
141.9665
  0
VERTEX
  8
LAYER_1
 10
57.6518
 20
140.5664
  0
SEQEND
  0
ENDBLK
  0
BLOCK
  8
LAYER_1
  2
AIGNBL0102004E
 70
64
 10
0
 20
0
 30
0
  3
AIGNBL0102004E
  0
POLYLINE
  8
LAYER_1
 40
0.2469
 41
0.2469
 66
1
 10
0
 20
0
 30
0
  0
VERTEX
  8
LAYER_1
 10
57.4017
 20
140.5664
  0
VERTEX
  8
LAYER_1
 10
57.4017
 20
141.9665
  0
SEQEND
  0
ENDBLK
  0
BLOCK
  8
LAYER_1
  2
AIGNBL0102004F
 70
64
 10
0
 20
0
 30
0
  3
AIGNBL0102004F
  0
POLYLINE
  8
LAYER_1
 40
0.2469
 41
0.2469
 66
1
 10
0
 20
0
 30
0
  0
VERTEX
  8
LAYER_1
 10
56.9018
 20
140.5664
  0
VERTEX
  8
LAYER_1
 10
56.9018
 20
141.9665
  0
SEQEND
  0
ENDBLK
  0
BLOCK
  8
LAYER_1
  2
AIGNBL01020050
 70
64
 10
0
 20
0
 30
0
  3
AIGNBL01020050
  0
POLYLINE
  8
LAYER_1
 40
0.2469
 41
0.2469
 66
1
 10
0
 20
0
 30
0
  0
VERTEX
  8
LAYER_1
 10
57.6518
 20
141.9665
  0
VERTEX
  8
LAYER_1
 10
50.6517
 20
141.9665
  0
SEQEND
  0
ENDBLK
  0
BLOCK
  8
LAYER_1
  2
AIGNBL01020051
 70
64
 10
0
 20
0
 30
0
  3
AIGNBL01020051
  0
POLYLINE
  8
LAYER_1
 40
0.2469
 41
0.2469
 66
1
 10
0
 20
0
 30
0
  0
VERTEX
  8
LAYER_1
 10
56.4019
 20
140.6388
  0
VERTEX
  8
LAYER_1
 10
56.4019
 20
141.9138
  0
SEQEND
  0
ENDBLK
  0
BLOCK
  8
LAYER_1
  2
AIGNBL01020052
 70
64
 10
0
 20
0
 30
0
  3
AIGNBL01020052
  0
POLYLINE
  8
LAYER_1
 40
0.2469
 41
0.2469
 66
1
 10
0
 20
0
 30
0
  0
VERTEX
  8
LAYER_1
 10
55.9017
 20
140.7042
  0
VERTEX
  8
LAYER_1
 10
55.9017
 20
141.8394
  0
SEQEND
  0
ENDBLK
  0
BLOCK
  8
LAYER_1
  2
AIGNBL01020053
 70
64
 10
0
 20
0
 30
0
  3
AIGNBL01020053
  0
POLYLINE
  8
LAYER_1
 40
0.2469
 41
0.2469
 66
1
 10
0
 20
0
 30
0
  0
VERTEX
  8
LAYER_1
 10
55.4018
 20
140.8007
  0
VERTEX
  8
LAYER_1
 10
55.4018
 20
141.6596
  0
SEQEND
  0
ENDBLK
  0
BLOCK
  8
LAYER_1
  2
AIGNBL01020054
 70
64
 10
0
 20
0
 30
0
  3
AIGNBL01020054
  0
POLYLINE
  8
LAYER_1
 40
0.2469
 41
0.2469
 66
1
 10
0
 20
0
 30
0
  0
VERTEX
  8
LAYER_1
 10
54.9019
 20
140.9234
  0
VERTEX
  8
LAYER_1
 10
54.9019
 20
141.4977
  0
SEQEND
  0
ENDBLK
  0
BLOCK
  8
LAYER_1
  2
AIGNBL01020055
 70
64
 10
0
 20
0
 30
0
  3
AIGNBL01020055
  0
POLYLINE
  8
LAYER_1
 40
0.2469
 41
0.2469
 66
1
 10
0
 20
0
 30
0
  0
VERTEX
  8
LAYER_1
 10
50.6517
 20
140.5664
  0
VERTEX
  8
LAYER_1
 10
50.6517
 20
141.9665
  0
SEQEND
  0
ENDBLK
  0
BLOCK
  8
LAYER_1
  2
AIGNBL01020056
 70
64
 10
0
 20
0
 30
0
  3
AIGNBL01020056
  0
POLYLINE
  8
LAYER_1
 40
0.2469
 41
0.2469
 66
1
 10
0
 20
0
 30
0
  0
VERTEX
  8
LAYER_1
 10
50.6517
 20
140.5664
  0
VERTEX
  8
LAYER_1
 10
51.277
 20
140.4014
  0
SEQEND
  0
ENDBLK
  0
BLOCK
  8
LAYER_1
  2
AIGNBL01020057
 70
64
 10
0
 20
0
 30
0
  3
AIGNBL01020057
  0
POLYLINE
  8
LAYER_1
 40
0.2469
 41
0.2469
 66
1
 10
0
 20
0
 30
0
  0
VERTEX
  8
LAYER_1
 10
103.3585
 20
88.1424
  0
VERTEX
  8
LAYER_1
 10
103.3585
 20
81.1423
  0
SEQEND
  0
ENDBLK
  0
BLOCK
  8
LAYER_1
  2
AIGNBL01020058
 70
64
 10
0
 20
0
 30
0
  3
AIGNBL01020058
  0
POLYLINE
  8
LAYER_1
 40
0.2469
 41
0.2469
 66
1
 10
0
 20
0
 30
0
  0
VERTEX
  8
LAYER_1
 10
103.7375
 20
84.1423
  0
VERTEX
  8
LAYER_1
 10
104.2701
 20
84.1423
  0
SEQEND
  0
ENDBLK
  0
BLOCK
  8
LAYER_1
  2
AIGNBL01020059
 70
64
 10
0
 20
0
 30
0
  3
AIGNBL01020059
  0
POLYLINE
  8
LAYER_1
 40
0.2469
 41
0.2469
 66
1
 10
0
 20
0
 30
0
  0
VERTEX
  8
LAYER_1
 10
103.6156
 20
83.6424
  0
VERTEX
  8
LAYER_1
 10
104.3997
 20
83.6424
  0
SEQEND
  0
ENDBLK
  0
BLOCK
  8
LAYER_1
  2
AIGNBL0102005A
 70
64
 10
0
 20
0
 30
0
  3
AIGNBL0102005A
  0
POLYLINE
  8
LAYER_1
 40
0.2469
 41
0.2469
 66
1
 10
0
 20
0
 30
0
  0
VERTEX
  8
LAYER_1
 10
103.5101
 20
83.1426
  0
VERTEX
  8
LAYER_1
 10
104.5781
 20
83.1426
  0
SEQEND
  0
ENDBLK
  0
BLOCK
  8
LAYER_1
  2
AIGNBL0102005B
 70
64
 10
0
 20
0
 30
0
  3
AIGNBL0102005B
  0
POLYLINE
  8
LAYER_1
 40
0.2469
 41
0.2469
 66
1
 10
0
 20
0
 30
0
  0
VERTEX
  8
LAYER_1
 10
103.4536
 20
82.6423
  0
VERTEX
  8
LAYER_1
 10
104.6753
 20
82.6423
  0
SEQEND
  0
ENDBLK
  0
BLOCK
  8
LAYER_1
  2
AIGNBL0102005C
 70
64
 10
0
 20
0
 30
0
  3
AIGNBL0102005C
  0
POLYLINE
  8
LAYER_1
 40
0.2469
 41
0.2469
 66
1
 10
0
 20
0
 30
0
  0
VERTEX
  8
LAYER_1
 10
103.3585
 20
82.1424
  0
VERTEX
  8
LAYER_1
 10
104.7586
 20
82.1424
  0
SEQEND
  0
ENDBLK
  0
BLOCK
  8
LAYER_1
  2
AIGNBL0102005D
 70
64
 10
0
 20
0
 30
0
  3
AIGNBL0102005D
  0
POLYLINE
  8
LAYER_1
 40
0.2469
 41
0.2469
 66
1
 10
0
 20
0
 30
0
  0
VERTEX
  8
LAYER_1
 10
103.3585
 20
81.6426
  0
VERTEX
  8
LAYER_1
 10
104.7586
 20
81.6426
  0
SEQEND
  0
ENDBLK
  0
BLOCK
  8
LAYER_1
  2
AIGNBL0102005E
 70
64
 10
0
 20
0
 30
0
  3
AIGNBL0102005E
  0
POLYLINE
  8
LAYER_1
 40
0.2469
 41
0.2469
 66
1
 10
0
 20
0
 30
0
  0
VERTEX
  8
LAYER_1
 10
103.3585
 20
81.1423
  0
VERTEX
  8
LAYER_1
 10
103.2238
 20
81.6426
  0
SEQEND
  0
ENDBLK
  0
BLOCK
  8
LAYER_1
  2
AIGNBL0102005F
 70
64
 10
0
 20
0
 30
0
  3
AIGNBL0102005F
  0
POLYLINE
  8
LAYER_1
 40
0.2469
 41
0.2469
 66
1
 10
0
 20
0
 30
0
  0
VERTEX
  8
LAYER_1
 10
104.7586
 20
81.1423
  0
VERTEX
  8
LAYER_1
 10
103.3585
 20
81.1423
  0
SEQEND
  0
ENDBLK
  0
BLOCK
  8
LAYER_1
  2
AIGNBL01020060
 70
64
 10
0
 20
0
 30
0
  3
AIGNBL01020060
  0
POLYLINE
  8
LAYER_1
 40
0.2469
 41
0.2469
 66
1
 10
0
 20
0
 30
0
  0
VERTEX
  8
LAYER_1
 10
103.3585
 20
81.3924
  0
VERTEX
  8
LAYER_1
 10
104.7586
 20
81.3924
  0
SEQEND
  0
ENDBLK
  0
BLOCK
  8
LAYER_1
  2
AIGNBL01020061
 70
64
 10
0
 20
0
 30
0
  3
AIGNBL01020061
  0
POLYLINE
  8
LAYER_1
 40
0.2469
 41
0.2469
 66
1
 10
0
 20
0
 30
0
  0
VERTEX
  8
LAYER_1
 10
103.3585
 20
81.8923
  0
VERTEX
  8
LAYER_1
 10
104.7586
 20
81.8923
  0
SEQEND
  0
ENDBLK
  0
BLOCK
  8
LAYER_1
  2
AIGNBL01020062
 70
64
 10
0
 20
0
 30
0
  3
AIGNBL01020062
  0
POLYLINE
  8
LAYER_1
 40
0.2469
 41
0.2469
 66
1
 10
0
 20
0
 30
0
  0
VERTEX
  8
LAYER_1
 10
104.7586
 20
81.1423
  0
VERTEX
  8
LAYER_1
 10
104.7586
 20
88.1424
  0
SEQEND
  0
ENDBLK
  0
BLOCK
  8
LAYER_1
  2
AIGNBL01020063
 70
64
 10
0
 20
0
 30
0
  3
AIGNBL01020063
  0
POLYLINE
  8
LAYER_1
 40
0.2469
 41
0.2469
 66
1
 10
0
 20
0
 30
0
  0
VERTEX
  8
LAYER_1
 10
103.4309
 20
82.3926
  0
VERTEX
  8
LAYER_1
 10
104.7056
 20
82.3926
  0
SEQEND
  0
ENDBLK
  0
BLOCK
  8
LAYER_1
  2
AIGNBL01020064
 70
64
 10
0
 20
0
 30
0
  3
AIGNBL01020064
  0
POLYLINE
  8
LAYER_1
 40
0.2469
 41
0.2469
 66
1
 10
0
 20
0
 30
0
  0
VERTEX
  8
LAYER_1
 10
103.4964
 20
82.8924
  0
VERTEX
  8
LAYER_1
 10
104.6312
 20
82.8924
  0
SEQEND
  0
ENDBLK
  0
BLOCK
  8
LAYER_1
  2
AIGNBL01020065
 70
64
 10
0
 20
0
 30
0
  3
AIGNBL01020065
  0
POLYLINE
  8
LAYER_1
 40
0.2469
 41
0.2469
 66
1
 10
0
 20
0
 30
0
  0
VERTEX
  8
LAYER_1
 10
103.5928
 20
83.3923
  0
VERTEX
  8
LAYER_1
 10
104.452
 20
83.3923
  0
SEQEND
  0
ENDBLK
  0
BLOCK
  8
LAYER_1
  2
AIGNBL01020066
 70
64
 10
0
 20
0
 30
0
  3
AIGNBL01020066
  0
POLYLINE
  8
LAYER_1
 40
0.2469
 41
0.2469
 66
1
 10
0
 20
0
 30
0
  0
VERTEX
  8
LAYER_1
 10
103.7155
 20
83.8926
  0
VERTEX
  8
LAYER_1
 10
104.2898
 20
83.8926
  0
SEQEND
  0
ENDBLK
  0
BLOCK
  8
LAYER_1
  2
AIGNBL01020067
 70
64
 10
0
 20
0
 30
0
  3
AIGNBL01020067
  0
POLYLINE
  8
LAYER_1
 40
0.2469
 41
0.2469
 66
1
 10
0
 20
0
 30
0
  0
VERTEX
  8
LAYER_1
 10
103.3585
 20
88.1424
  0
VERTEX
  8
LAYER_1
 10
104.7586
 20
88.1424
  0
SEQEND
  0
ENDBLK
  0
BLOCK
  8
LAYER_1
  2
AIGNBL01020068
 70
64
 10
0
 20
0
 30
0
  3
AIGNBL01020068
  0
POLYLINE
  8
LAYER_1
 40
0.2469
 41
0.2469
 66
1
 10
0
 20
0
 30
0
  0
VERTEX
  8
LAYER_1
 10
103.3585
 20
88.1424
  0
VERTEX
  8
LAYER_1
 10
103.1939
 20
87.5175
  0
SEQEND
  0
ENDBLK
  0
BLOCK
  8
LAYER_1
  2
AIGNBL01020069
 70
64
 10
0
 20
0
 30
0
  3
AIGNBL01020069
  0
POLYLINE
  8
LAYER_1
 40
0.2469
 41
0.2469
 66
1
 10
0
 20
0
 30
0
  0
VERTEX
  8
LAYER_1
 10
54.1519
 20
140.0666
 42
0.05805096334
  0
VERTEX
  8
LAYER_1
 10
57.0268
 20
140.4014
  0
SEQEND
  0
ENDBLK
  0
BLOCK
  8
LAYER_1
  2
AIGNBL0102006A
 70
64
 10
0
 20
0
 30
0
  3
AIGNBL0102006A
  0
POLYLINE
  8
LAYER_1
 40
0.2469
 41
0.2469
 66
1
 10
0
 20
0
 30
0
  0
VERTEX
  8
LAYER_1
 10
57.0268
 20
140.4014
  0
VERTEX
  8
LAYER_1
 10
57.1519
 20
140.4317
  0
SEQEND
  0
ENDBLK
  0
BLOCK
  8
LAYER_1
  2
AIGNBL0102006B
 70
64
 10
0
 20
0
 30
0
  3
AIGNBL0102006B
  0
POLYLINE
  8
LAYER_1
 40
0.2469
 41
0.2469
 66
1
 10
0
 20
0
 30
0
  0
VERTEX
  8
LAYER_1
 10
51.277
 20
140.4014
 42
0.05807148244
  0
VERTEX
  8
LAYER_1
 10
54.1519
 20
140.0666
  0
SEQEND
  0
ENDBLK
  0
BLOCK
  8
LAYER_1
  2
AIGNBL0102006C
 70
64
 10
0
 20
0
 30
0
  3
AIGNBL0102006C
  0
POLYLINE
  8
LAYER_1
 40
0.2469
 41
0.2469
 66
1
 10
0
 20
0
 30
0
  0
VERTEX
  8
LAYER_1
 10
102.8583
 20
84.6426
 42
0.05813915506
  0
VERTEX
  8
LAYER_1
 10
103.1939
 20
81.7673
  0
SEQEND
  0
ENDBLK
  0
BLOCK
  8
LAYER_1
  2
AIGNBL0102006D
 70
64
 10
0
 20
0
 30
0
  3
AIGNBL0102006D
  0
POLYLINE
  8
LAYER_1
 40
0.2469
 41
0.2469
 66
1
 10
0
 20
0
 30
0
  0
VERTEX
  8
LAYER_1
 10
103.1939
 20
81.7673
  0
VERTEX
  8
LAYER_1
 10
103.2238
 20
81.6426
  0
SEQEND
  0
ENDBLK
  0
BLOCK
  8
LAYER_1
  2
AIGNBL0102006E
 70
64
 10
0
 20
0
 30
0
  3
AIGNBL0102006E
  0
POLYLINE
  8
LAYER_1
 40
0.2469
 41
0.2469
 66
1
 10
0
 20
0
 30
0
  0
VERTEX
  8
LAYER_1
 10
103.1939
 20
87.5175
 42
0.05813801741
  0
VERTEX
  8
LAYER_1
 10
102.8583
 20
84.6426
  0
SEQEND
  0
ENDBLK
  0
BLOCK
  8
LAYER_1
  2
AIGNBL0102006F
 70
64
 10
0
 20
0
 30
0
  3
AIGNBL0102006F
  0
POLYLINE
  8
LAYER_1
 40
0.2469
 41
0.2469
 66
1
 10
0
 20
0
 30
0
 70
1
  0
VERTEX
  8
LAYER_1
 10
57.6518
 20
84.6426
 42
0.4142099347
  0
VERTEX
  8
LAYER_1
 10
54.1519
 20
88.1424
 42
0.4142089889
  0
VERTEX
  8
LAYER_1
 10
50.6517
 20
84.6426
 42
0.41421719
  0
VERTEX
  8
LAYER_1
 10
54.1519
 20
81.1423
 42
0.4142181362
  0
SEQEND
  0
ENDBLK
  0
BLOCK
  8
LAYER_1
  2
AIGNBL01020071
 70
64
 10
0
 20
0
 30
0
  3
AIGNBL01020071
  0
POLYLINE
  8
LAYER_1
 40
0.2469
 41
0.2469
 66
1
 10
0
 20
0
 30
0
  0
VERTEX
  8
LAYER_1
 10
163.7495
 20
69.6423
  0
VERTEX
  8
LAYER_1
 10
163.7495
 20
69.7925
  0
SEQEND
  0
ENDBLK
  0
BLOCK
  8
LAYER_1
  2
AIGNBL01020072
 70
64
 10
0
 20
0
 30
0
  3
AIGNBL01020072
  0
POLYLINE
  8
LAYER_1
 40
0.2469
 41
0.2469
 66
1
 10
0
 20
0
 30
0
  0
VERTEX
  8
LAYER_1
 10
162.7491
 20
69.6423
  0
VERTEX
  8
LAYER_1
 10
163.7495
 20
69.6423
  0
SEQEND
  0
ENDBLK
  0
BLOCK
  8
LAYER_1
  2
AIGNBL01020073
 70
64
 10
0
 20
0
 30
0
  3
AIGNBL01020073
  0
POLYLINE
  8
LAYER_1
 40
0.2469
 41
0.2469
 66
1
 10
0
 20
0
 30
0
  0
VERTEX
  8
LAYER_1
 10
163.7495
 20
99.6425
  0
VERTEX
  8
LAYER_1
 10
162.7491
 20
99.6425
  0
SEQEND
  0
ENDBLK
  0
BLOCK
  8
LAYER_1
  2
AIGNBL01020074
 70
64
 10
0
 20
0
 30
0
  3
AIGNBL01020074
  0
POLYLINE
  8
LAYER_1
 40
0.2469
 41
0.2469
 66
1
 10
0
 20
0
 30
0
  0
VERTEX
  8
LAYER_1
 10
155.7493
 20
90.7445
  0
VERTEX
  8
LAYER_1
 10
155.7493
 20
78.5403
  0
SEQEND
  0
ENDBLK
  0
BLOCK
  8
LAYER_1
  2
AIGNBL01020075
 70
64
 10
0
 20
0
 30
0
  3
AIGNBL01020075
  0
POLYLINE
  8
LAYER_1
 40
0.2469
 41
0.2469
 66
1
 10
0
 20
0
 30
0
  0
VERTEX
  8
LAYER_1
 10
163.7495
 20
99.6425
  0
VERTEX
  8
LAYER_1
 10
163.7495
 20
69.7925
  0
SEQEND
  0
ENDBLK
  0
BLOCK
  8
LAYER_1
  2
AIGNBL01020076
 70
64
 10
0
 20
0
 30
0
  3
AIGNBL01020076
  0
POLYLINE
  8
LAYER_1
 40
0.2469
 41
0.2469
 66
1
 10
0
 20
0
 30
0
  0
VERTEX
  8
LAYER_1
 10
48.0496
 20
192.9574
  0
VERTEX
  8
LAYER_1
 10
60.2539
 20
192.9574
  0
SEQEND
  0
ENDBLK
  0
BLOCK
  8
LAYER_1
  2
AIGNBL01020077
 70
64
 10
0
 20
0
 30
0
  3
AIGNBL01020077
  0
POLYLINE
  8
LAYER_1
 40
0.2469
 41
0.2469
 66
1
 10
0
 20
0
 30
0
  0
VERTEX
  8
LAYER_1
 10
39.1516
 20
200.9576
  0
VERTEX
  8
LAYER_1
 10
39.1516
 20
199.9575
  0
SEQEND
  0
ENDBLK
  0
BLOCK
  8
LAYER_1
  2
AIGNBL01020078
 70
64
 10
0
 20
0
 30
0
  3
AIGNBL01020078
  0
POLYLINE
  8
LAYER_1
 40
0.2469
 41
0.2469
 66
1
 10
0
 20
0
 30
0
  0
VERTEX
  8
LAYER_1
 10
69.1519
 20
199.9575
  0
VERTEX
  8
LAYER_1
 10
69.1519
 20
200.9576
  0
SEQEND
  0
ENDBLK
  0
BLOCK
  8
LAYER_1
  2
AIGNBL01020079
 70
64
 10
0
 20
0
 30
0
  3
AIGNBL01020079
  0
POLYLINE
  8
LAYER_1
 40
0.2469
 41
0.2469
 66
1
 10
0
 20
0
 30
0
  0
VERTEX
  8
LAYER_1
 10
69.1519
 20
200.9576
  0
VERTEX
  8
LAYER_1
 10
69.002
 20
200.9576
  0
SEQEND
  0
ENDBLK
  0
BLOCK
  8
LAYER_1
  2
AIGNBL0102007A
 70
64
 10
0
 20
0
 30
0
  3
AIGNBL0102007A
  0
POLYLINE
  8
LAYER_1
 40
0.2469
 41
0.2469
 66
1
 10
0
 20
0
 30
0
  0
VERTEX
  8
LAYER_1
 10
39.1516
 20
200.9576
  0
VERTEX
  8
LAYER_1
 10
69.002
 20
200.9576
  0
SEQEND
  0
ENDBLK
  0
BLOCK
  8
LAYER_1
  2
AIGNBL0102007B
 70
64
 10
0
 20
0
 30
0
  3
AIGNBL0102007B
  0
POLYLINE
  8
LAYER_1
 40
0.2469
 41
0.2469
 66
1
 10
0
 20
0
 30
0
  0
VERTEX
  8
LAYER_1
 10
69.1519
 20
84.6426
 42
0.1009409706
  0
VERTEX
  8
LAYER_1
 10
67.9536
 20
90.5171
  0
SEQEND
  0
ENDBLK
  0
BLOCK
  8
LAYER_1
  2
AIGNBL0102007C
 70
64
 10
0
 20
0
 30
0
  3
AIGNBL0102007C
  0
POLYLINE
  8
LAYER_1
 40
0.2469
 41
0.2469
 66
1
 10
0
 20
0
 30
0
  0
VERTEX
  8
LAYER_1
 10
40.3502
 20
90.5171
 42
0.4142201283
  0
VERTEX
  8
LAYER_1
 10
48.277
 20
70.8408
 42
0.07048448221
  0
VERTEX
  8
LAYER_1
 10
52.3388
 20
69.7525
  0
SEQEND
  0
ENDBLK
  0
BLOCK
  8
LAYER_1
  2
AIGNBL0102007D
 70
64
 10
0
 20
0
 30
0
  3
AIGNBL0102007D
  0
POLYLINE
  8
LAYER_1
 40
0.2469
 41
0.2469
 66
1
 10
0
 20
0
 30
0
  0
VERTEX
  8
LAYER_1
 10
48.9019
 20
98.6937
 42
0.143094851
  0
VERTEX
  8
LAYER_1
 10
42.1633
 20
93.6577
  0
SEQEND
  0
ENDBLK
  0
BLOCK
  8
LAYER_1
  2
AIGNBL0102007E
 70
64
 10
0
 20
0
 30
0
  3
AIGNBL0102007E
  0
POLYLINE
  8
LAYER_1
 40
0.2469
 41
0.2469
 66
1
 10
0
 20
0
 30
0
  0
VERTEX
  8
LAYER_1
 10
66.1405
 20
93.6577
 42
0.1430596192
  0
VERTEX
  8
LAYER_1
 10
59.4019
 20
98.6937
  0
SEQEND
  0
ENDBLK
  0
BLOCK
  8
LAYER_1
  2
AIGNBL0102007F
 70
64
 10
0
 20
0
 30
0
  3
AIGNBL0102007F
  0
POLYLINE
  8
LAYER_1
 40
0.2469
 41
0.2469
 66
1
 10
0
 20
0
 30
0
  0
VERTEX
  8
LAYER_1
 10
55.9651
 20
69.7525
 42
0.3791607832
  0
VERTEX
  8
LAYER_1
 10
69.1519
 20
84.6426
  0
SEQEND
  0
ENDBLK
  0
BLOCK
  8
LAYER_1
  2
AIGNBL01020080
 70
64
 10
0
 20
0
 30
0
  3
AIGNBL01020080
  0
POLYLINE
  8
LAYER_1
 40
0.2469
 41
0.2469
 66
1
 10
0
 20
0
 30
0
  0
VERTEX
  8
LAYER_1
 10
155.7493
 20
78.5403
 42
0.1031198982
  0
VERTEX
  8
LAYER_1
 10
156.7911
 20
73.5445
  0
SEQEND
  0
ENDBLK
  0
BLOCK
  8
LAYER_1
  2
AIGNBL01020081
 70
64
 10
0
 20
0
 30
0
  3
AIGNBL01020081
  0
POLYLINE
  8
LAYER_1
 40
0.2469
 41
0.2469
 66
1
 10
0
 20
0
 30
0
  0
VERTEX
  8
LAYER_1
 10
156.7911
 20
73.5445
 42
0.298292077
  0
VERTEX
  8
LAYER_1
 10
162.7491
 20
69.6423
  0
SEQEND
  0
ENDBLK
  0
BLOCK
  8
LAYER_1
  2
AIGNBL01020082
 70
64
 10
0
 20
0
 30
0
  3
AIGNBL01020082
  0
POLYLINE
  8
LAYER_1
 40
0.2469
 41
0.2469
 66
1
 10
0
 20
0
 30
0
  0
VERTEX
  8
LAYER_1
 10
162.7491
 20
99.6425
 42
0.298294284
  0
VERTEX
  8
LAYER_1
 10
156.7911
 20
95.7402
  0
SEQEND
  0
ENDBLK
  0
BLOCK
  8
LAYER_1
  2
AIGNBL01020083
 70
64
 10
0
 20
0
 30
0
  3
AIGNBL01020083
  0
POLYLINE
  8
LAYER_1
 40
0.2469
 41
0.2469
 66
1
 10
0
 20
0
 30
0
  0
VERTEX
  8
LAYER_1
 10
156.7911
 20
95.7402
 42
0.1031179743
  0
VERTEX
  8
LAYER_1
 10
155.7493
 20
90.7445
  0
SEQEND
  0
ENDBLK
  0
BLOCK
  8
LAYER_1
  2
AIGNBL01020084
 70
64
 10
0
 20
0
 30
0
  3
AIGNBL01020084
  0
POLYLINE
  8
LAYER_1
 40
0.2469
 41
0.2469
 66
1
 10
0
 20
0
 30
0
  0
VERTEX
  8
LAYER_1
 10
43.0542
 20
193.9992
 42
0.1031392939
  0
VERTEX
  8
LAYER_1
 10
48.0496
 20
192.9574
  0
SEQEND
  0
ENDBLK
  0
BLOCK
  8
LAYER_1
  2
AIGNBL01020085
 70
64
 10
0
 20
0
 30
0
  3
AIGNBL01020085
  0
POLYLINE
  8
LAYER_1
 40
0.2469
 41
0.2469
 66
1
 10
0
 20
0
 30
0
  0
VERTEX
  8
LAYER_1
 10
39.1516
 20
199.9575
 42
0.2983388815
  0
VERTEX
  8
LAYER_1
 10
43.0542
 20
193.9992
  0
SEQEND
  0
ENDBLK
  0
BLOCK
  8
LAYER_1
  2
AIGNBL01020086
 70
64
 10
0
 20
0
 30
0
  3
AIGNBL01020086
  0
POLYLINE
  8
LAYER_1
 40
0.2469
 41
0.2469
 66
1
 10
0
 20
0
 30
0
  0
VERTEX
  8
LAYER_1
 10
65.2496
 20
193.9992
 42
0.2983248186
  0
VERTEX
  8
LAYER_1
 10
69.1519
 20
199.9575
  0
SEQEND
  0
ENDBLK
  0
BLOCK
  8
LAYER_1
  2
AIGNBL01020087
 70
64
 10
0
 20
0
 30
0
  3
AIGNBL01020087
  0
POLYLINE
  8
LAYER_1
 40
0.2469
 41
0.2469
 66
1
 10
0
 20
0
 30
0
  0
VERTEX
  8
LAYER_1
 10
60.2539
 20
192.9574
 42
0.1031384134
  0
VERTEX
  8
LAYER_1
 10
65.2496
 20
193.9992
  0
SEQEND
  0
ENDBLK
  0
BLOCK
  8
LAYER_1
  2
AIGNBL0102008D
 70
64
 10
0
 20
0
 30
0
  3
AIGNBL0102008D
  0
POLYLINE
  8
LAYER_1
 40
0.2469
 41
0.2469
 66
1
 10
0
 20
0
 30
0
  0
VERTEX
  8
LAYER_1
 10
102.8583
 20
60.6423
  0
VERTEX
  8
LAYER_1
 10
127.0083
 20
60.6423
  0
SEQEND
  0
ENDBLK
  0
BLOCK
  8
LAYER_1
  2
AIGNBL0102008E
 70
64
 10
0
 20
0
 30
0
  3
AIGNBL0102008E
  0
POLYLINE
  8
LAYER_1
 40
0.2469
 41
0.2469
 66
1
 10
0
 20
0
 30
0
  0
VERTEX
  8
LAYER_1
 10
102.8583
 20
84.6426
  0
VERTEX
  8
LAYER_1
 10
102.8583
 20
59.6425
  0
SEQEND
  0
ENDBLK
  0
BLOCK
  8
LAYER_1
  2
AIGNBL0102008F
 70
64
 10
0
 20
0
 30
0
  3
AIGNBL0102008F
  0
POLYLINE
  8
LAYER_1
 40
0.2469
 41
0.2469
 66
1
 10
0
 20
0
 30
0
  0
VERTEX
  8
LAYER_1
 10
127.0083
 20
75.3925
  0
VERTEX
  8
LAYER_1
 10
127.0083
 20
59.6425
  0
SEQEND
  0
ENDBLK
  0
BLOCK
  8
LAYER_1
  2
AIGNBL01020090
 70
64
 10
0
 20
0
 30
0
  3
AIGNBL01020090
  0
POLYLINE
  8
LAYER_1
 40
0.05
 41
0.05
 66
1
 10
0
 20
0
 30
0
 70
1
  0
VERTEX
  8
LAYER_1
 10
106.3585
 20
61.1032
  0
VERTEX
  8
LAYER_1
 10
106.3585
 20
60.1817
  0
VERTEX
  8
LAYER_1
 10
102.8583
 20
60.6423
  0
SEQEND
  0
ENDBLK
  0
BLOCK
  8
LAYER_1
  2
AIGNBL01020091
 70
64
 10
0
 20
0
 30
0
  3
AIGNBL01020091
  0
POLYLINE
  8
LAYER_1
 40
0.05
 41
0.05
 66
1
 10
0
 20
0
 30
0
 70
1
  0
VERTEX
  8
LAYER_1
 10
123.5081
 20
60.1817
  0
VERTEX
  8
LAYER_1
 10
123.5081
 20
61.1032
  0
VERTEX
  8
LAYER_1
 10
127.0083
 20
60.6423
  0
SEQEND
  0
ENDBLK
  0
BLOCK
  8
LAYER_1
  2
AIGNBL01020092
 70
64
 10
0
 20
0
 30
0
  3
AIGNBL01020092
  0
TEXT
  8
LAYER_1
 10
105.0349
 20
61.4846
 11
105.0349
 21
61.4846
 40
6.0978
 41
0.5
  1
49リフト5
  0
ENDBLK
  0
BLOCK
  8
LAYER_2
  2
AIGNBL02020003
 70
64
 10
0
 20
0
 30
0
  3
AIGNBL02020003
  0
POLYLINE
  8
LAYER_2
 40
0.2469
 41
0.2469
 66
1
 10
0
 20
0
 30
0
  0
VERTEX
  8
LAYER_2
 10
119.5083
 20
79.0487
  0
VERTEX
  8
LAYER_2
 10
119.5083
 20
90.236
  0
SEQEND
  0
ENDBLK
  0
BLOCK
  8
LAYER_2
  2
AIGNBL02020004
 70
64
 10
0
 20
0
 30
0
  3
AIGNBL02020004
  0
POLYLINE
  8
LAYER_2
 40
0.2469
 41
0.2469
 66
1
 10
0
 20
0
 30
0
  0
VERTEX
  8
LAYER_2
 10
122.3395
 20
95.1425
  0
VERTEX
  8
LAYER_2
 10
131.6771
 20
95.1425
  0
SEQEND
  0
ENDBLK
  0
BLOCK
  8
LAYER_2
  2
AIGNBL02020005
 70
64
 10
0
 20
0
 30
0
  3
AIGNBL02020005
  0
POLYLINE
  8
LAYER_2
  6
AIGENLINE002
 40
0.2469
 41
0.2469
 66
1
 10
0
 20
0
 30
0
 70
128
  0
VERTEX
  8
LAYER_2
 10
54.1519
 20
174.7166
  0
VERTEX
  8
LAYER_2
 10
54.1519
 20
152.2164
  0
SEQEND
  0
ENDBLK
  0
BLOCK
  8
LAYER_2
  2
AIGNBL02020006
 70
64
 10
0
 20
0
 30
0
  3
AIGNBL02020006
  0
POLYLINE
  8
LAYER_2
 40
0.2469
 41
0.2469
 66
1
 10
0
 20
0
 30
0
  0
VERTEX
  8
LAYER_2
 10
139.8778
 20
80.8895
  0
VERTEX
  8
LAYER_2
 10
137.5082
 20
80.8895
  0
SEQEND
  0
ENDBLK
  0
BLOCK
  8
LAYER_2
  2
AIGNBL02020007
 70
64
 10
0
 20
0
 30
0
  3
AIGNBL02020007
  0
POLYLINE
  8
LAYER_2
 40
0.2469
 41
0.2469
 66
1
 10
0
 20
0
 30
0
  0
VERTEX
  8
LAYER_2
 10
139.8778
 20
88.3953
  0
VERTEX
  8
LAYER_2
 10
137.5082
 20
88.3953
  0
SEQEND
  0
ENDBLK
  0
BLOCK
  8
LAYER_2
  2
AIGNBL02020008
 70
64
 10
0
 20
0
 30
0
  3
AIGNBL02020008
  0
POLYLINE
  8
LAYER_2
 40
0.2469
 41
0.2469
 66
1
 10
0
 20
0
 30
0
  0
VERTEX
  8
LAYER_2
 10
122.3395
 20
99.6425
  0
VERTEX
  8
LAYER_2
 10
131.6771
 20
99.6425
  0
SEQEND
  0
ENDBLK
  0
BLOCK
  8
LAYER_2
  2
AIGNBL02020009
 70
64
 10
0
 20
0
 30
0
  3
AIGNBL02020009
  0
POLYLINE
  8
LAYER_2
  6
AIGENLINE002
 40
0.2469
 41
0.2469
 66
1
 10
0
 20
0
 30
0
 70
128
  0
VERTEX
  8
LAYER_2
 10
142.5084
 20
84.6426
  0
VERTEX
  8
LAYER_2
 10
115.0083
 20
84.6426
  0
SEQEND
  0
ENDBLK
  0
BLOCK
  8
LAYER_2
  2
AIGNBL0202000A
 70
64
 10
0
 20
0
 30
0
  3
AIGNBL0202000A
  0
POLYLINE
  8
LAYER_2
  6
AIGENLINE002
 40
0.2469
 41
0.2469
 66
1
 10
0
 20
0
 30
0
 70
128
  0
VERTEX
  8
LAYER_2
 10
46.4018
 20
164.2167
  0
VERTEX
  8
LAYER_2
 10
61.9016
 20
164.2167
  0
SEQEND
  0
ENDBLK
  0
BLOCK
  8
LAYER_2
  2
AIGNBL0202000B
 70
64
 10
0
 20
0
 30
0
  3
AIGNBL0202000B
  0
POLYLINE
  8
LAYER_2
 40
0.2469
 41
0.2469
 66
1
 10
0
 20
0
 30
0
  0
VERTEX
  8
LAYER_2
 10
132.2586
 20
94.1362
  0
VERTEX
  8
LAYER_2
 10
132.2586
 20
93.3924
  0
SEQEND
  0
ENDBLK
  0
BLOCK
  8
LAYER_2
  2
AIGNBL0202000C
 70
64
 10
0
 20
0
 30
0
  3
AIGNBL0202000C
  0
POLYLINE
  8
LAYER_2
 40
0.2469
 41
0.2469
 66
1
 10
0
 20
0
 30
0
  0
VERTEX
  8
LAYER_2
 10
132.2586
 20
95.1425
  0
VERTEX
  8
LAYER_2
 10
132.2586
 20
94.1362
  0
SEQEND
  0
ENDBLK
  0
BLOCK
  8
LAYER_2
  2
AIGNBL0202000D
 70
64
 10
0
 20
0
 30
0
  3
AIGNBL0202000D
  0
POLYLINE
  8
LAYER_2
 40
0.2469
 41
0.2469
 66
1
 10
0
 20
0
 30
0
  0
VERTEX
  8
LAYER_2
 10
121.7586
 20
95.1425
  0
VERTEX
  8
LAYER_2
 10
121.7586
 20
94.1362
  0
SEQEND
  0
ENDBLK
  0
BLOCK
  8
LAYER_2
  2
AIGNBL0202000E
 70
64
 10
0
 20
0
 30
0
  3
AIGNBL0202000E
  0
POLYLINE
  8
LAYER_2
 40
0.2469
 41
0.2469
 66
1
 10
0
 20
0
 30
0
  0
VERTEX
  8
LAYER_2
 10
139.8778
 20
77.1367
  0
VERTEX
  8
LAYER_2
 10
137.5082
 20
77.1367
  0
SEQEND
  0
ENDBLK
  0
BLOCK
  8
LAYER_2
  2
AIGNBL0202000F
 70
64
 10
0
 20
0
 30
0
  3
AIGNBL0202000F
  0
POLYLINE
  8
LAYER_2
 40
0.2469
 41
0.2469
 66
1
 10
0
 20
0
 30
0
  0
VERTEX
  8
LAYER_2
 10
141.0084
 20
78.2674
  0
VERTEX
  8
LAYER_2
 10
139.8778
 20
77.1367
  0
SEQEND
  0
ENDBLK
  0
BLOCK
  8
LAYER_2
  2
AIGNBL02020010
 70
64
 10
0
 20
0
 30
0
  3
AIGNBL02020010
  0
POLYLINE
  8
LAYER_2
 40
0.2469
 41
0.2469
 66
1
 10
0
 20
0
 30
0
  0
VERTEX
  8
LAYER_2
 10
139.8778
 20
92.148
  0
VERTEX
  8
LAYER_2
 10
137.5082
 20
92.148
  0
SEQEND
  0
ENDBLK
  0
BLOCK
  8
LAYER_2
  2
AIGNBL02020011
 70
64
 10
0
 20
0
 30
0
  3
AIGNBL02020011
  0
POLYLINE
  8
LAYER_2
 40
0.2469
 41
0.2469
 66
1
 10
0
 20
0
 30
0
  0
VERTEX
  8
LAYER_2
 10
139.8778
 20
92.148
  0
VERTEX
  8
LAYER_2
 10
141.0084
 20
91.0174
  0
SEQEND
  0
ENDBLK
  0
BLOCK
  8
LAYER_2
  2
AIGNBL02020012
 70
64
 10
0
 20
0
 30
0
  3
AIGNBL02020012
  0
POLYLINE
  8
LAYER_2
 40
0.2469
 41
0.2469
 66
1
 10
0
 20
0
 30
0
  0
VERTEX
  8
LAYER_2
 10
119.5083
 20
90.6425
  0
VERTEX
  8
LAYER_2
 10
118.7586
 20
90.6425
  0
SEQEND
  0
ENDBLK
  0
BLOCK
  8
LAYER_2
  2
AIGNBL02020013
 70
64
 10
0
 20
0
 30
0
  3
AIGNBL02020013
  0
POLYLINE
  8
LAYER_2
 40
0.2469
 41
0.2469
 66
1
 10
0
 20
0
 30
0
  0
VERTEX
  8
LAYER_2
 10
119.5083
 20
90.236
  0
VERTEX
  8
LAYER_2
 10
119.5083
 20
90.6425
  0
SEQEND
  0
ENDBLK
  0
BLOCK
  8
LAYER_2
  2
AIGNBL02020014
 70
64
 10
0
 20
0
 30
0
  3
AIGNBL02020014
  0
POLYLINE
  8
LAYER_2
 40
0.2469
 41
0.2469
 66
1
 10
0
 20
0
 30
0
  0
VERTEX
  8
LAYER_2
 10
120.2125
 20
90.6425
  0
VERTEX
  8
LAYER_2
 10
119.5083
 20
90.6425
  0
SEQEND
  0
ENDBLK
  0
BLOCK
  8
LAYER_2
  2
AIGNBL02020015
 70
64
 10
0
 20
0
 30
0
  3
AIGNBL02020015
  0
POLYLINE
  8
LAYER_2
 40
0.2469
 41
0.2469
 66
1
 10
0
 20
0
 30
0
  0
VERTEX
  8
LAYER_2
 10
122.3395
 20
95.1425
  0
VERTEX
  8
LAYER_2
 10
122.3395
 20
99.0613
  0
SEQEND
  0
ENDBLK
  0
BLOCK
  8
LAYER_2
  2
AIGNBL02020016
 70
64
 10
0
 20
0
 30
0
  3
AIGNBL02020016
  0
POLYLINE
  8
LAYER_2
 40
0.2469
 41
0.2469
 66
1
 10
0
 20
0
 30
0
  0
VERTEX
  8
LAYER_2
 10
121.7586
 20
95.1425
  0
VERTEX
  8
LAYER_2
 10
122.3395
 20
95.1425
  0
SEQEND
  0
ENDBLK
  0
BLOCK
  8
LAYER_2
  2
AIGNBL02020017
 70
64
 10
0
 20
0
 30
0
  3
AIGNBL02020017
  0
POLYLINE
  8
LAYER_2
 40
0.2469
 41
0.2469
 66
1
 10
0
 20
0
 30
0
  0
VERTEX
  8
LAYER_2
 10
131.6771
 20
95.1425
  0
VERTEX
  8
LAYER_2
 10
132.2586
 20
95.1425
  0
SEQEND
  0
ENDBLK
  0
BLOCK
  8
LAYER_2
  2
AIGNBL02020018
 70
64
 10
0
 20
0
 30
0
  3
AIGNBL02020018
  0
POLYLINE
  8
LAYER_2
 40
0.2469
 41
0.2469
 66
1
 10
0
 20
0
 30
0
  0
VERTEX
  8
LAYER_2
 10
119.5083
 20
78.6422
  0
VERTEX
  8
LAYER_2
 10
120.2125
 20
78.6422
  0
SEQEND
  0
ENDBLK
  0
BLOCK
  8
LAYER_2
  2
AIGNBL02020019
 70
64
 10
0
 20
0
 30
0
  3
AIGNBL02020019
  0
POLYLINE
  8
LAYER_2
 40
0.2469
 41
0.2469
 66
1
 10
0
 20
0
 30
0
  0
VERTEX
  8
LAYER_2
 10
119.5083
 20
78.6422
  0
VERTEX
  8
LAYER_2
 10
119.5083
 20
79.0487
  0
SEQEND
  0
ENDBLK
  0
BLOCK
  8
LAYER_2
  2
AIGNBL0202001A
 70
64
 10
0
 20
0
 30
0
  3
AIGNBL0202001A
  0
POLYLINE
  8
LAYER_2
 40
0.2469
 41
0.2469
 66
1
 10
0
 20
0
 30
0
  0
VERTEX
  8
LAYER_2
 10
122.3395
 20
99.6425
  0
VERTEX
  8
LAYER_2
 10
121.7586
 20
99.0613
  0
SEQEND
  0
ENDBLK
  0
BLOCK
  8
LAYER_2
  2
AIGNBL0202001B
 70
64
 10
0
 20
0
 30
0
  3
AIGNBL0202001B
  0
POLYLINE
  8
LAYER_2
 40
0.2469
 41
0.2469
 66
1
 10
0
 20
0
 30
0
  0
VERTEX
  8
LAYER_2
 10
121.7586
 20
99.0613
  0
VERTEX
  8
LAYER_2
 10
121.7586
 20
95.1425
  0
SEQEND
  0
ENDBLK
  0
BLOCK
  8
LAYER_2
  2
AIGNBL0202001C
 70
64
 10
0
 20
0
 30
0
  3
AIGNBL0202001C
  0
POLYLINE
  8
LAYER_2
 40
0.2469
 41
0.2469
 66
1
 10
0
 20
0
 30
0
  0
VERTEX
  8
LAYER_2
 10
131.6771
 20
99.6425
  0
VERTEX
  8
LAYER_2
 10
132.2586
 20
99.0613
  0
SEQEND
  0
ENDBLK
  0
BLOCK
  8
LAYER_2
  2
AIGNBL0202001D
 70
64
 10
0
 20
0
 30
0
  3
AIGNBL0202001D
  0
POLYLINE
  8
LAYER_2
 40
0.2469
 41
0.2469
 66
1
 10
0
 20
0
 30
0
  0
VERTEX
  8
LAYER_2
 10
132.2586
 20
99.0613
  0
VERTEX
  8
LAYER_2
 10
132.2586
 20
95.1425
  0
SEQEND
  0
ENDBLK
  0
BLOCK
  8
LAYER_2
  2
AIGNBL0202001E
 70
64
 10
0
 20
0
 30
0
  3
AIGNBL0202001E
  0
POLYLINE
  8
LAYER_2
 40
0.2469
 41
0.2469
 66
1
 10
0
 20
0
 30
0
  0
VERTEX
  8
LAYER_2
 10
122.3395
 20
99.0613
  0
VERTEX
  8
LAYER_2
 10
122.3395
 20
99.6425
  0
SEQEND
  0
ENDBLK
  0
BLOCK
  8
LAYER_2
  2
AIGNBL0202001F
 70
64
 10
0
 20
0
 30
0
  3
AIGNBL0202001F
  0
POLYLINE
  8
LAYER_2
 40
0.2469
 41
0.2469
 66
1
 10
0
 20
0
 30
0
  0
VERTEX
  8
LAYER_2
 10
120.2125
 20
90.6425
  0
VERTEX
  8
LAYER_2
 10
119.5083
 20
90.236
  0
SEQEND
  0
ENDBLK
  0
BLOCK
  8
LAYER_2
  2
AIGNBL02020020
 70
64
 10
0
 20
0
 30
0
  3
AIGNBL02020020
  0
POLYLINE
  8
LAYER_2
 40
0.2469
 41
0.2469
 66
1
 10
0
 20
0
 30
0
  0
VERTEX
  8
LAYER_2
 10
122.3395
 20
99.0613
  0
VERTEX
  8
LAYER_2
 10
122.3395
 20
99.6425
  0
SEQEND
  0
ENDBLK
  0
BLOCK
  8
LAYER_2
  2
AIGNBL02020021
 70
64
 10
0
 20
0
 30
0
  3
AIGNBL02020021
  0
POLYLINE
  8
LAYER_2
 40
0.2469
 41
0.2469
 66
1
 10
0
 20
0
 30
0
  0
VERTEX
  8
LAYER_2
 10
122.3395
 20
95.1425
  0
VERTEX
  8
LAYER_2
 10
122.3395
 20
99.0613
  0
SEQEND
  0
ENDBLK
  0
BLOCK
  8
LAYER_2
  2
AIGNBL02020022
 70
64
 10
0
 20
0
 30
0
  3
AIGNBL02020022
  0
POLYLINE
  8
LAYER_2
 40
0.2469
 41
0.2469
 66
1
 10
0
 20
0
 30
0
  0
VERTEX
  8
LAYER_2
 10
121.7586
 20
94.1362
  0
VERTEX
  8
LAYER_2
 10
122.3395
 20
95.1425
  0
SEQEND
  0
ENDBLK
  0
BLOCK
  8
LAYER_2
  2
AIGNBL02020023
 70
64
 10
0
 20
0
 30
0
  3
AIGNBL02020023
  0
POLYLINE
  8
LAYER_2
 40
0.2469
 41
0.2469
 66
1
 10
0
 20
0
 30
0
  0
VERTEX
  8
LAYER_2
 10
131.6771
 20
95.1425
  0
VERTEX
  8
LAYER_2
 10
132.2586
 20
94.1362
  0
SEQEND
  0
ENDBLK
  0
BLOCK
  8
LAYER_2
  2
AIGNBL02020024
 70
64
 10
0
 20
0
 30
0
  3
AIGNBL02020024
  0
POLYLINE
  8
LAYER_2
 40
0.2469
 41
0.2469
 66
1
 10
0
 20
0
 30
0
  0
VERTEX
  8
LAYER_2
 10
131.6771
 20
99.6425
  0
VERTEX
  8
LAYER_2
 10
131.6771
 20
95.1425
  0
SEQEND
  0
ENDBLK
  0
BLOCK
  8
LAYER_2
  2
AIGNBL02020025
 70
64
 10
0
 20
0
 30
0
  3
AIGNBL02020025
  0
POLYLINE
  8
LAYER_2
 40
0.2469
 41
0.2469
 66
1
 10
0
 20
0
 30
0
  0
VERTEX
  8
LAYER_2
 10
119.5083
 20
79.0487
  0
VERTEX
  8
LAYER_2
 10
118.7586
 20
79.0487
  0
SEQEND
  0
ENDBLK
  0
BLOCK
  8
LAYER_2
  2
AIGNBL02020026
 70
64
 10
0
 20
0
 30
0
  3
AIGNBL02020026
  0
POLYLINE
  8
LAYER_2
 40
0.2469
 41
0.2469
 66
1
 10
0
 20
0
 30
0
  0
VERTEX
  8
LAYER_2
 10
119.5083
 20
79.0487
  0
VERTEX
  8
LAYER_2
 10
120.2125
 20
78.6422
  0
SEQEND
  0
ENDBLK
  0
BLOCK
  8
LAYER_2
  2
AIGNBL02020027
 70
64
 10
0
 20
0
 30
0
  3
AIGNBL02020027
  0
POLYLINE
  8
LAYER_2
 40
0.2469
 41
0.2469
 66
1
 10
0
 20
0
 30
0
  0
VERTEX
  8
LAYER_2
 10
141.0084
 20
78.2674
  0
VERTEX
  8
LAYER_2
 10
141.0084
 20
91.0174
  0
SEQEND
  0
ENDBLK
  0
BLOCK
  8
LAYER_2
  2
AIGNBL02020028
 70
64
 10
0
 20
0
 30
0
  3
AIGNBL02020028
  0
POLYLINE
  8
LAYER_2
  6
AIGENLINE002
 40
0.2469
 41
0.2469
 66
1
 10
0
 20
0
 30
0
 70
128
  0
VERTEX
  8
LAYER_2
 10
127.0083
 20
101.1425
  0
VERTEX
  8
LAYER_2
 10
127.0083
 20
76.0822
  0
SEQEND
  0
ENDBLK
  0
BLOCK
  8
LAYER_2
  2
AIGNBL02020029
 70
64
 10
0
 20
0
 30
0
  3
AIGNBL02020029
  0
POLYLINE
  8
LAYER_2
 40
0.2469
 41
0.2469
 66
1
 10
0
 20
0
 30
0
  0
VERTEX
  8
LAYER_2
 10
137.5082
 20
77.1367
  0
VERTEX
  8
LAYER_2
 10
136.9853
 20
77.66
  0
SEQEND
  0
ENDBLK
  0
BLOCK
  8
LAYER_2
  2
AIGNBL0202002A
 70
64
 10
0
 20
0
 30
0
  3
AIGNBL0202002A
  0
POLYLINE
  8
LAYER_2
 40
0.2469
 41
0.2469
 66
1
 10
0
 20
0
 30
0
  0
VERTEX
  8
LAYER_2
 10
137.5082
 20
92.148
  0
VERTEX
  8
LAYER_2
 10
136.9853
 20
91.6247
  0
SEQEND
  0
ENDBLK
  0
BLOCK
  8
LAYER_2
  2
AIGNBL0202002B
 70
64
 10
0
 20
0
 30
0
  3
AIGNBL0202002B
  0
POLYLINE
  8
LAYER_2
 40
0.2469
 41
0.2469
 66
1
 10
0
 20
0
 30
0
  0
VERTEX
  8
LAYER_2
 10
134.7584
 20
90.8923
  0
VERTEX
  8
LAYER_2
 10
135.2172
 20
90.8923
  0
SEQEND
  0
ENDBLK
  0
BLOCK
  8
LAYER_2
  2
AIGNBL0202002C
 70
64
 10
0
 20
0
 30
0
  3
AIGNBL0202002C
  0
POLYLINE
  8
LAYER_2
 40
0.2469
 41
0.2469
 66
1
 10
0
 20
0
 30
0
  0
VERTEX
  8
LAYER_2
 10
120.2125
 20
90.6425
  0
VERTEX
  8
LAYER_2
 10
120.4626
 20
90.8923
  0
SEQEND
  0
ENDBLK
  0
BLOCK
  8
LAYER_2
  2
AIGNBL0202002D
 70
64
 10
0
 20
0
 30
0
  3
AIGNBL0202002D
  0
POLYLINE
  8
LAYER_2
 40
0.2469
 41
0.2469
 66
1
 10
0
 20
0
 30
0
  0
VERTEX
  8
LAYER_2
 10
120.2125
 20
78.6422
  0
VERTEX
  8
LAYER_2
 10
120.4626
 20
78.3925
  0
SEQEND
  0
ENDBLK
  0
BLOCK
  8
LAYER_2
  2
AIGNBL0202002E
 70
64
 10
0
 20
0
 30
0
  3
AIGNBL0202002E
  0
POLYLINE
  8
LAYER_2
 40
0.2469
 41
0.2469
 66
1
 10
0
 20
0
 30
0
  0
VERTEX
  8
LAYER_2
 10
120.4626
 20
78.3925
  0
VERTEX
  8
LAYER_2
 10
135.2172
 20
78.3925
  0
SEQEND
  0
ENDBLK
  0
BLOCK
  8
LAYER_2
  2
AIGNBL0202002F
 70
64
 10
0
 20
0
 30
0
  3
AIGNBL0202002F
  0
POLYLINE
  8
LAYER_2
 40
0.2469
 41
0.2469
 66
1
 10
0
 20
0
 30
0
  0
VERTEX
  8
LAYER_2
 10
60.4017
 20
157.6707
  0
VERTEX
  8
LAYER_2
 10
60.4017
 20
172.4253
  0
SEQEND
  0
ENDBLK
  0
BLOCK
  8
LAYER_2
  2
AIGNBL02020030
 70
64
 10
0
 20
0
 30
0
  3
AIGNBL02020030
  0
POLYLINE
  8
LAYER_2
 40
0.2469
 41
0.2469
 66
1
 10
0
 20
0
 30
0
  0
VERTEX
  8
LAYER_2
 10
60.1519
 20
157.4205
  0
VERTEX
  8
LAYER_2
 10
60.4017
 20
157.6707
  0
SEQEND
  0
ENDBLK
  0
BLOCK
  8
LAYER_2
  2
AIGNBL02020031
 70
64
 10
0
 20
0
 30
0
  3
AIGNBL02020031
  0
POLYLINE
  8
LAYER_2
 40
0.2469
 41
0.2469
 66
1
 10
0
 20
0
 30
0
  0
VERTEX
  8
LAYER_2
 10
48.1519
 20
157.4205
  0
VERTEX
  8
LAYER_2
 10
47.9018
 20
157.6707
  0
SEQEND
  0
ENDBLK
  0
BLOCK
  8
LAYER_2
  2
AIGNBL02020032
 70
64
 10
0
 20
0
 30
0
  3
AIGNBL02020032
  0
POLYLINE
  8
LAYER_2
 40
0.2469
 41
0.2469
 66
1
 10
0
 20
0
 30
0
  0
VERTEX
  8
LAYER_2
 10
47.9018
 20
157.6707
  0
VERTEX
  8
LAYER_2
 10
47.9018
 20
172.4253
  0
SEQEND
  0
ENDBLK
  0
BLOCK
  8
LAYER_2
  2
AIGNBL02020033
 70
64
 10
0
 20
0
 30
0
  3
AIGNBL02020033
  0
POLYLINE
  8
LAYER_2
  6
AIGENLINE002
 40
0.2469
 41
0.2469
 66
1
 10
0
 20
0
 30
0
 70
128
  0
VERTEX
  8
LAYER_2
 10
54.1519
 20
179.7165
  0
VERTEX
  8
LAYER_2
 10
54.1519
 20
177.0858
  0
SEQEND
  0
ENDBLK
  0
BLOCK
  8
LAYER_2
  2
AIGNBL02020034
 70
64
 10
0
 20
0
 30
0
  3
AIGNBL02020034
  0
POLYLINE
  8
LAYER_2
 40
0.2469
 41
0.2469
 66
1
 10
0
 20
0
 30
0
  0
VERTEX
  8
LAYER_2
 10
59.7454
 20
156.7164
  0
VERTEX
  8
LAYER_2
 10
60.1519
 20
157.4205
  0
SEQEND
  0
ENDBLK
  0
BLOCK
  8
LAYER_2
  2
AIGNBL02020035
 70
64
 10
0
 20
0
 30
0
  3
AIGNBL02020035
  0
POLYLINE
  8
LAYER_2
 40
0.2469
 41
0.2469
 66
1
 10
0
 20
0
 30
0
  0
VERTEX
  8
LAYER_2
 10
59.7454
 20
156.7164
  0
VERTEX
  8
LAYER_2
 10
59.7454
 20
155.9664
  0
SEQEND
  0
ENDBLK
  0
BLOCK
  8
LAYER_2
  2
AIGNBL02020036
 70
64
 10
0
 20
0
 30
0
  3
AIGNBL02020036
  0
POLYLINE
  8
LAYER_2
 40
0.2469
 41
0.2469
 66
1
 10
0
 20
0
 30
0
  0
VERTEX
  8
LAYER_2
 10
48.1519
 20
157.4205
  0
VERTEX
  8
LAYER_2
 10
48.5581
 20
156.7164
  0
SEQEND
  0
ENDBLK
  0
BLOCK
  8
LAYER_2
  2
AIGNBL02020037
 70
64
 10
0
 20
0
 30
0
  3
AIGNBL02020037
  0
POLYLINE
  8
LAYER_2
 40
0.2469
 41
0.2469
 66
1
 10
0
 20
0
 30
0
  0
VERTEX
  8
LAYER_2
 10
60.1519
 20
156.7164
  0
VERTEX
  8
LAYER_2
 10
59.7454
 20
156.7164
  0
SEQEND
  0
ENDBLK
  0
BLOCK
  8
LAYER_2
  2
AIGNBL02020038
 70
64
 10
0
 20
0
 30
0
  3
AIGNBL02020038
  0
POLYLINE
  8
LAYER_2
 40
0.2469
 41
0.2469
 66
1
 10
0
 20
0
 30
0
  0
VERTEX
  8
LAYER_2
 10
60.1519
 20
156.7164
  0
VERTEX
  8
LAYER_2
 10
60.1519
 20
157.4205
  0
SEQEND
  0
ENDBLK
  0
BLOCK
  8
LAYER_2
  2
AIGNBL02020039
 70
64
 10
0
 20
0
 30
0
  3
AIGNBL02020039
  0
POLYLINE
  8
LAYER_2
 40
0.2469
 41
0.2469
 66
1
 10
0
 20
0
 30
0
  0
VERTEX
  8
LAYER_2
 10
48.1519
 20
157.4205
  0
VERTEX
  8
LAYER_2
 10
48.1519
 20
156.7164
  0
SEQEND
  0
ENDBLK
  0
BLOCK
  8
LAYER_2
  2
AIGNBL0202003A
 70
64
 10
0
 20
0
 30
0
  3
AIGNBL0202003A
  0
POLYLINE
  8
LAYER_2
 40
0.2469
 41
0.2469
 66
1
 10
0
 20
0
 30
0
  0
VERTEX
  8
LAYER_2
 10
48.5581
 20
156.7164
  0
VERTEX
  8
LAYER_2
 10
48.1519
 20
156.7164
  0
SEQEND
  0
ENDBLK
  0
BLOCK
  8
LAYER_2
  2
AIGNBL0202003B
 70
64
 10
0
 20
0
 30
0
  3
AIGNBL0202003B
  0
POLYLINE
  8
LAYER_2
 40
0.2469
 41
0.2469
 66
1
 10
0
 20
0
 30
0
  0
VERTEX
  8
LAYER_2
 10
48.1519
 20
156.7164
  0
VERTEX
  8
LAYER_2
 10
48.1519
 20
155.9664
  0
SEQEND
  0
ENDBLK
  0
BLOCK
  8
LAYER_2
  2
AIGNBL0202003C
 70
64
 10
0
 20
0
 30
0
  3
AIGNBL0202003C
  0
POLYLINE
  8
LAYER_2
 40
0.2469
 41
0.2469
 66
1
 10
0
 20
0
 30
0
  0
VERTEX
  8
LAYER_2
 10
47.6517
 20
178.0915
  0
VERTEX
  8
LAYER_2
 10
47.7768
 20
178.2165
  0
SEQEND
  0
ENDBLK
  0
BLOCK
  8
LAYER_2
  2
AIGNBL0202003D
 70
64
 10
0
 20
0
 30
0
  3
AIGNBL0202003D
  0
POLYLINE
  8
LAYER_2
 40
0.2469
 41
0.2469
 66
1
 10
0
 20
0
 30
0
  0
VERTEX
  8
LAYER_2
 10
47.6517
 20
178.0915
  0
VERTEX
  8
LAYER_2
 10
47.6517
 20
177.0858
  0
SEQEND
  0
ENDBLK
  0
BLOCK
  8
LAYER_2
  2
AIGNBL0202003E
 70
64
 10
0
 20
0
 30
0
  3
AIGNBL0202003E
  0
POLYLINE
  8
LAYER_2
 40
0.2469
 41
0.2469
 66
1
 10
0
 20
0
 30
0
  0
VERTEX
  8
LAYER_2
 10
60.5267
 20
178.2165
  0
VERTEX
  8
LAYER_2
 10
60.6518
 20
178.0915
  0
SEQEND
  0
ENDBLK
  0
BLOCK
  8
LAYER_2
  2
AIGNBL0202003F
 70
64
 10
0
 20
0
 30
0
  3
AIGNBL0202003F
  0
POLYLINE
  8
LAYER_2
 40
0.2469
 41
0.2469
 66
1
 10
0
 20
0
 30
0
  0
VERTEX
  8
LAYER_2
 10
60.6518
 20
178.0915
  0
VERTEX
  8
LAYER_2
 10
60.6518
 20
173.515
  0
SEQEND
  0
ENDBLK
  0
BLOCK
  8
LAYER_2
  2
AIGNBL02020040
 70
64
 10
0
 20
0
 30
0
  3
AIGNBL02020040
  0
POLYLINE
  8
LAYER_2
 40
0.2469
 41
0.2469
 66
1
 10
0
 20
0
 30
0
  0
VERTEX
  8
LAYER_2
 10
60.5267
 20
178.2165
  0
VERTEX
  8
LAYER_2
 10
47.7768
 20
178.2165
  0
SEQEND
  0
ENDBLK
  0
BLOCK
  8
LAYER_2
  2
AIGNBL02020041
 70
64
 10
0
 20
0
 30
0
  3
AIGNBL02020041
  0
POLYLINE
  8
LAYER_2
 40
0.2469
 41
0.2469
 66
1
 10
0
 20
0
 30
0
  0
VERTEX
  8
LAYER_2
 10
54.1519
 20
174.7166
  0
VERTEX
  8
LAYER_2
 10
54.1519
 20
177.0858
  0
SEQEND
  0
ENDBLK
  0
BLOCK
  8
LAYER_2
  2
AIGNBL02020042
 70
64
 10
0
 20
0
 30
0
  3
AIGNBL02020042
  0
POLYLINE
  8
LAYER_2
  6
AIGENLINE001
 40
0.2469
 41
0.2469
 66
1
 10
0
 20
0
 30
0
 70
128
  0
VERTEX
  8
LAYER_2
 10
54.1519
 20
177.0858
  0
VERTEX
  8
LAYER_2
 10
54.1519
 20
174.7166
  0
SEQEND
  0
ENDBLK
  0
BLOCK
  8
LAYER_2
  2
AIGNBL02020043
 70
64
 10
0
 20
0
 30
0
  3
AIGNBL02020043
  0
POLYLINE
  8
LAYER_2
 40
0.2469
 41
0.2469
 66
1
 10
0
 20
0
 30
0
  0
VERTEX
  8
LAYER_2
 10
47.6517
 20
177.0858
  0
VERTEX
  8
LAYER_2
 10
47.6517
 20
173.515
  0
SEQEND
  0
ENDBLK
  0
BLOCK
  8
LAYER_2
  2
AIGNBL02020044
 70
64
 10
0
 20
0
 30
0
  3
AIGNBL02020044
  0
POLYLINE
  8
LAYER_2
 40
0.2469
 41
0.2469
 66
1
 10
0
 20
0
 30
0
  0
VERTEX
  8
LAYER_2
 10
48.5581
 20
156.7164
  0
VERTEX
  8
LAYER_2
 10
59.7454
 20
156.7164
  0
SEQEND
  0
ENDBLK
  0
BLOCK
  8
LAYER_2
  2
AIGNBL02020045
 70
64
 10
0
 20
0
 30
0
  3
AIGNBL02020045
  0
POLYLINE
  8
LAYER_2
 40
0.2469
 41
0.2469
 66
1
 10
0
 20
0
 30
0
  0
VERTEX
  8
LAYER_2
 10
58.8207
 20
99.6425
  0
VERTEX
  8
LAYER_2
 10
58.8207
 20
95.1425
  0
SEQEND
  0
ENDBLK
  0
BLOCK
  8
LAYER_2
  2
AIGNBL02020046
 70
64
 10
0
 20
0
 30
0
  3
AIGNBL02020046
  0
POLYLINE
  8
LAYER_2
 40
0.2469
 41
0.2469
 66
1
 10
0
 20
0
 30
0
  0
VERTEX
  8
LAYER_2
 10
58.8207
 20
95.1425
  0
VERTEX
  8
LAYER_2
 10
59.4019
 20
94.1362
  0
SEQEND
  0
ENDBLK
  0
BLOCK
  8
LAYER_2
  2
AIGNBL02020047
 70
64
 10
0
 20
0
 30
0
  3
AIGNBL02020047
  0
POLYLINE
  8
LAYER_2
 40
0.2469
 41
0.2469
 66
1
 10
0
 20
0
 30
0
  0
VERTEX
  8
LAYER_2
 10
48.9019
 20
94.1362
  0
VERTEX
  8
LAYER_2
 10
49.4828
 20
95.1425
  0
SEQEND
  0
ENDBLK
  0
BLOCK
  8
LAYER_2
  2
AIGNBL02020048
 70
64
 10
0
 20
0
 30
0
  3
AIGNBL02020048
  0
POLYLINE
  8
LAYER_2
 40
0.2469
 41
0.2469
 66
1
 10
0
 20
0
 30
0
  0
VERTEX
  8
LAYER_2
 10
49.4828
 20
95.1425
  0
VERTEX
  8
LAYER_2
 10
49.4828
 20
99.6425
  0
SEQEND
  0
ENDBLK
  0
BLOCK
  8
LAYER_2
  2
AIGNBL02020049
 70
64
 10
0
 20
0
 30
0
  3
AIGNBL02020049
  0
POLYLINE
  8
LAYER_2
 40
0.2469
 41
0.2469
 66
1
 10
0
 20
0
 30
0
  0
VERTEX
  8
LAYER_2
 10
59.4019
 20
99.0613
  0
VERTEX
  8
LAYER_2
 10
59.4019
 20
95.1425
  0
SEQEND
  0
ENDBLK
  0
BLOCK
  8
LAYER_2
  2
AIGNBL0202004A
 70
64
 10
0
 20
0
 30
0
  3
AIGNBL0202004A
  0
POLYLINE
  8
LAYER_2
 40
0.2469
 41
0.2469
 66
1
 10
0
 20
0
 30
0
  0
VERTEX
  8
LAYER_2
 10
58.8207
 20
99.6425
  0
VERTEX
  8
LAYER_2
 10
59.4019
 20
99.0613
  0
SEQEND
  0
ENDBLK
  0
BLOCK
  8
LAYER_2
  2
AIGNBL0202004B
 70
64
 10
0
 20
0
 30
0
  3
AIGNBL0202004B
  0
POLYLINE
  8
LAYER_2
 40
0.2469
 41
0.2469
 66
1
 10
0
 20
0
 30
0
  0
VERTEX
  8
LAYER_2
 10
48.9019
 20
99.0613
  0
VERTEX
  8
LAYER_2
 10
48.9019
 20
95.1425
  0
SEQEND
  0
ENDBLK
  0
BLOCK
  8
LAYER_2
  2
AIGNBL0202004C
 70
64
 10
0
 20
0
 30
0
  3
AIGNBL0202004C
  0
POLYLINE
  8
LAYER_2
 40
0.2469
 41
0.2469
 66
1
 10
0
 20
0
 30
0
  0
VERTEX
  8
LAYER_2
 10
49.4828
 20
99.6425
  0
VERTEX
  8
LAYER_2
 10
48.9019
 20
99.0613
  0
SEQEND
  0
ENDBLK
  0
BLOCK
  8
LAYER_2
  2
AIGNBL0202004D
 70
64
 10
0
 20
0
 30
0
  3
AIGNBL0202004D
  0
POLYLINE
  8
LAYER_2
 40
0.2469
 41
0.2469
 66
1
 10
0
 20
0
 30
0
  0
VERTEX
  8
LAYER_2
 10
58.8207
 20
95.1425
  0
VERTEX
  8
LAYER_2
 10
59.4019
 20
95.1425
  0
SEQEND
  0
ENDBLK
  0
BLOCK
  8
LAYER_2
  2
AIGNBL0202004E
 70
64
 10
0
 20
0
 30
0
  3
AIGNBL0202004E
  0
POLYLINE
  8
LAYER_2
 40
0.2469
 41
0.2469
 66
1
 10
0
 20
0
 30
0
  0
VERTEX
  8
LAYER_2
 10
48.9019
 20
95.1425
  0
VERTEX
  8
LAYER_2
 10
49.4828
 20
95.1425
  0
SEQEND
  0
ENDBLK
  0
BLOCK
  8
LAYER_2
  2
AIGNBL0202004F
 70
64
 10
0
 20
0
 30
0
  3
AIGNBL0202004F
  0
POLYLINE
  8
LAYER_2
 40
0.2469
 41
0.2469
 66
1
 10
0
 20
0
 30
0
  0
VERTEX
  8
LAYER_2
 10
48.9019
 20
95.1425
  0
VERTEX
  8
LAYER_2
 10
48.9019
 20
94.1362
  0
SEQEND
  0
ENDBLK
  0
BLOCK
  8
LAYER_2
  2
AIGNBL02020050
 70
64
 10
0
 20
0
 30
0
  3
AIGNBL02020050
  0
POLYLINE
  8
LAYER_2
 40
0.2469
 41
0.2469
 66
1
 10
0
 20
0
 30
0
  0
VERTEX
  8
LAYER_2
 10
59.4019
 20
95.1425
  0
VERTEX
  8
LAYER_2
 10
59.4019
 20
94.1362
  0
SEQEND
  0
ENDBLK
  0
BLOCK
  8
LAYER_2
  2
AIGNBL02020051
 70
64
 10
0
 20
0
 30
0
  3
AIGNBL02020051
  0
POLYLINE
  8
LAYER_2
 40
0.2469
 41
0.2469
 66
1
 10
0
 20
0
 30
0
  0
VERTEX
  8
LAYER_2
 10
59.4019
 20
94.1362
  0
VERTEX
  8
LAYER_2
 10
59.4019
 20
93.3924
  0
SEQEND
  0
ENDBLK
  0
BLOCK
  8
LAYER_2
  2
AIGNBL02020052
 70
64
 10
0
 20
0
 30
0
  3
AIGNBL02020052
  0
POLYLINE
  8
LAYER_2
 40
0.2469
 41
0.2469
 66
1
 10
0
 20
0
 30
0
  0
VERTEX
  8
LAYER_2
 10
49.4828
 20
99.6425
  0
VERTEX
  8
LAYER_2
 10
58.8207
 20
99.6425
  0
SEQEND
  0
ENDBLK
  0
BLOCK
  8
LAYER_2
  2
AIGNBL02020053
 70
64
 10
0
 20
0
 30
0
  3
AIGNBL02020053
  0
POLYLINE
  8
LAYER_2
 40
0.2469
 41
0.2469
 66
1
 10
0
 20
0
 30
0
  0
VERTEX
  8
LAYER_2
 10
49.4828
 20
95.1425
  0
VERTEX
  8
LAYER_2
 10
58.8207
 20
95.1425
  0
SEQEND
  0
ENDBLK
  0
BLOCK
  8
LAYER_2
  2
AIGNBL02020054
 70
64
 10
0
 20
0
 30
0
  3
AIGNBL02020054
  0
POLYLINE
  8
LAYER_2
 40
0.2469
 41
0.2469
 66
1
 10
0
 20
0
 30
0
  0
VERTEX
  8
LAYER_2
 10
132.2586
 20
99.0613
  0
VERTEX
  8
LAYER_2
 10
121.7586
 20
99.0613
  0
SEQEND
  0
ENDBLK
  0
BLOCK
  8
LAYER_2
  2
AIGNBL02020055
 70
64
 10
0
 20
0
 30
0
  3
AIGNBL02020055
  0
POLYLINE
  8
LAYER_2
 40
0.2469
 41
0.2469
 66
1
 10
0
 20
0
 30
0
  0
VERTEX
  8
LAYER_2
 10
118.7586
 20
78.6422
  0
VERTEX
  8
LAYER_2
 10
119.5083
 20
78.6422
  0
SEQEND
  0
ENDBLK
  0
BLOCK
  8
LAYER_2
  2
AIGNBL02020056
 70
64
 10
0
 20
0
 30
0
  3
AIGNBL02020056
  0
POLYLINE
  8
LAYER_2
 40
0.2469
 41
0.2469
 66
1
 10
0
 20
0
 30
0
  0
VERTEX
  8
LAYER_2
 10
118.7586
 20
90.236
  0
VERTEX
  8
LAYER_2
 10
119.5083
 20
90.236
  0
SEQEND
  0
ENDBLK
  0
BLOCK
  8
LAYER_2
  2
AIGNBL02020057
 70
64
 10
0
 20
0
 30
0
  3
AIGNBL02020057
  0
POLYLINE
  8
LAYER_2
 40
0.2469
 41
0.2469
 66
1
 10
0
 20
0
 30
0
  0
VERTEX
  8
LAYER_2
 10
48.5581
 20
155.9664
  0
VERTEX
  8
LAYER_2
 10
48.5581
 20
156.7164
  0
SEQEND
  0
ENDBLK
  0
BLOCK
  8
LAYER_2
  2
AIGNBL02020058
 70
64
 10
0
 20
0
 30
0
  3
AIGNBL02020058
  0
POLYLINE
  8
LAYER_2
 40
0.2469
 41
0.2469
 66
1
 10
0
 20
0
 30
0
  0
VERTEX
  8
LAYER_2
 10
60.1519
 20
155.9664
  0
VERTEX
  8
LAYER_2
 10
60.1519
 20
156.7164
  0
SEQEND
  0
ENDBLK
  0
BLOCK
  8
LAYER_2
  2
AIGNBL02020059
 70
64
 10
0
 20
0
 30
0
  3
AIGNBL02020059
  0
POLYLINE
  8
LAYER_2
 40
0.2469
 41
0.2469
 66
1
 10
0
 20
0
 30
0
  0
VERTEX
  8
LAYER_2
 10
51.5901
 20
162.2165
  0
VERTEX
  8
LAYER_2
 10
56.7137
 20
162.2165
  0
SEQEND
  0
ENDBLK
  0
BLOCK
  8
LAYER_2
  2
AIGNBL0202005A
 70
64
 10
0
 20
0
 30
0
  3
AIGNBL0202005A
  0
POLYLINE
  8
LAYER_2
 40
0.2469
 41
0.2469
 66
1
 10
0
 20
0
 30
0
  0
VERTEX
  8
LAYER_2
 10
48.9019
 20
99.0613
  0
VERTEX
  8
LAYER_2
 10
59.4019
 20
99.0613
  0
SEQEND
  0
ENDBLK
  0
BLOCK
  8
LAYER_2
  2
AIGNBL0202005B
 70
64
 10
0
 20
0
 30
0
  3
AIGNBL0202005B
  0
POLYLINE
  8
LAYER_2
 40
0.2469
 41
0.2469
 66
1
 10
0
 20
0
 30
0
  0
VERTEX
  8
LAYER_2
 10
120.4626
 20
90.8923
 42
0.192311384
  0
VERTEX
  8
LAYER_2
 10
121.7586
 20
94.1362
  0
SEQEND
  0
ENDBLK
  0
BLOCK
  8
LAYER_2
  2
AIGNBL0202005C
 70
64
 10
0
 20
0
 30
0
  3
AIGNBL0202005C
  0
POLYLINE
  8
LAYER_2
 40
0.2469
 41
0.2469
 66
1
 10
0
 20
0
 30
0
  0
VERTEX
  8
LAYER_2
 10
48.6356
 20
92.5756
 42
0.08458255069
  0
VERTEX
  8
LAYER_2
 10
48.9019
 20
94.1362
  0
SEQEND
  0
ENDBLK
  0
BLOCK
  8
LAYER_2
  2
AIGNBL0202005D
 70
64
 10
0
 20
0
 30
0
  3
AIGNBL0202005D
  0
POLYLINE
  8
LAYER_2
 40
0.2469
 41
0.2469
 66
1
 10
0
 20
0
 30
0
  0
VERTEX
  8
LAYER_2
 10
51.5901
 20
162.2165
 42
0.414263789
  0
VERTEX
  8
LAYER_2
 10
56.1518
 20
161.6549
 42
0.06143319241
  0
VERTEX
  8
LAYER_2
 10
56.7137
 20
162.2165
  0
SEQEND
  0
ENDBLK
  0
BLOCK
  8
LAYER_2
  2
AIGNBL0202005E
 70
64
 10
0
 20
0
 30
0
  3
AIGNBL0202005E
  0
POLYLINE
  8
LAYER_2
 40
0.2469
 41
0.2469
 66
1
 10
0
 20
0
 30
0
  0
VERTEX
  8
LAYER_2
 10
56.7137
 20
162.2165
 42
0.4142076878
  0
VERTEX
  8
LAYER_2
 10
56.1518
 20
166.7781
 42
0.4142580159
  0
VERTEX
  8
LAYER_2
 10
51.5901
 20
166.2166
 42
0.3441463227
  0
VERTEX
  8
LAYER_2
 10
51.5901
 20
162.2165
  0
SEQEND
  0
ENDBLK
  0
BLOCK
  8
LAYER_2
  2
AIGNBL0202005F
 70
64
 10
0
 20
0
 30
0
  3
AIGNBL0202005F
  0
POLYLINE
  8
LAYER_2
 40
0.2469
 41
0.2469
 66
1
 10
0
 20
0
 30
0
 70
1
  0
VERTEX
  8
LAYER_2
 10
58.8207
 20
164.2167
 42
0.4142125066
  0
VERTEX
  8
LAYER_2
 10
54.1519
 20
168.8855
 42
0.4142117974
  0
VERTEX
  8
LAYER_2
 10
49.4828
 20
164.2167
 42
0.4142146183
  0
VERTEX
  8
LAYER_2
 10
54.1519
 20
159.5475
 42
0.4142153274
  0
SEQEND
  0
ENDBLK
  0
BLOCK
  8
LAYER_2
  2
AIGNBL02020060
 70
64
 10
0
 20
0
 30
0
  3
AIGNBL02020060
  0
POLYLINE
  8
LAYER_2
 40
0.2469
 41
0.2469
 66
1
 10
0
 20
0
 30
0
 70
1
  0
VERTEX
  8
LAYER_2
 10
59.4019
 20
164.2167
 42
0.4142126235
  0
VERTEX
  8
LAYER_2
 10
54.1519
 20
169.4663
 42
0.4142119927
  0
VERTEX
  8
LAYER_2
 10
48.9019
 20
164.2167
 42
0.4142145015
  0
VERTEX
  8
LAYER_2
 10
54.1519
 20
158.9664
 42
0.414215132
  0
SEQEND
  0
ENDBLK
  0
BLOCK
  8
LAYER_2
  2
AIGNBL02020061
 70
64
 10
0
 20
0
 30
0
  3
AIGNBL02020061
  0
POLYLINE
  8
LAYER_2
 40
0.2469
 41
0.2469
 66
1
 10
0
 20
0
 30
0
  0
VERTEX
  8
LAYER_2
 10
137.5082
 20
77.1367
  0
VERTEX
  8
LAYER_2
 10
137.3642
 20
77.2852
  0
VERTEX
  8
LAYER_2
 10
137.2257
 20
77.4385
  0
VERTEX
  8
LAYER_2
 10
137.1541
 20
77.5222
  0
VERTEX
  8
LAYER_2
 10
137.0845
 20
77.608
  0
VERTEX
  8
LAYER_2
 10
137.0121
 20
77.7014
  0
VERTEX
  8
LAYER_2
 10
136.9432
 20
77.7968
  0
VERTEX
  8
LAYER_2
 10
136.8702
 20
77.9053
  0
VERTEX
  8
LAYER_2
 10
136.802
 20
78.0163
  0
VERTEX
  8
LAYER_2
 10
136.7269
 20
78.1523
  0
VERTEX
  8
LAYER_2
 10
136.6607
 20
78.2932
  0
VERTEX
  8
LAYER_2
 10
136.5732
 20
78.5334
  0
VERTEX
  8
LAYER_2
 10
136.5188
 20
78.7828
  0
VERTEX
  8
LAYER_2
 10
136.503
 20
79.0133
  0
VERTEX
  8
LAYER_2
 10
136.5188
 20
79.2437
  0
VERTEX
  8
LAYER_2
 10
136.5732
 20
79.4932
  0
VERTEX
  8
LAYER_2
 10
136.6607
 20
79.7333
  0
VERTEX
  8
LAYER_2
 10
136.7269
 20
79.8738
  0
VERTEX
  8
LAYER_2
 10
136.802
 20
80.0103
  0
VERTEX
  8
LAYER_2
 10
136.8702
 20
80.1212
  0
VERTEX
  8
LAYER_2
 10
136.9432
 20
80.2294
  0
VERTEX
  8
LAYER_2
 10
137.0121
 20
80.3252
  0
VERTEX
  8
LAYER_2
 10
137.0845
 20
80.4185
  0
VERTEX
  8
LAYER_2
 10
137.1541
 20
80.504
  0
VERTEX
  8
LAYER_2
 10
137.2257
 20
80.588
  0
VERTEX
  8
LAYER_2
 10
137.3642
 20
80.7413
  0
VERTEX
  8
LAYER_2
 10
137.5082
 20
80.8895
  0
SEQEND
  0
ENDBLK
  0
BLOCK
  8
LAYER_2
  2
AIGNBL02020062
 70
64
 10
0
 20
0
 30
0
  3
AIGNBL02020062
  0
POLYLINE
  8
LAYER_2
 40
0.2469
 41
0.2469
 66
1
 10
0
 20
0
 30
0
  0
VERTEX
  8
LAYER_2
 10
139.8778
 20
77.1367
  0
VERTEX
  8
LAYER_2
 10
140.0218
 20
77.2852
  0
VERTEX
  8
LAYER_2
 10
140.1603
 20
77.4385
  0
VERTEX
  8
LAYER_2
 10
140.2319
 20
77.5222
  0
VERTEX
  8
LAYER_2
 10
140.3015
 20
77.608
  0
VERTEX
  8
LAYER_2
 10
140.3739
 20
77.7014
  0
VERTEX
  8
LAYER_2
 10
140.4428
 20
77.7968
  0
VERTEX
  8
LAYER_2
 10
140.5158
 20
77.9053
  0
VERTEX
  8
LAYER_2
 10
140.5847
 20
78.0163
  0
VERTEX
  8
LAYER_2
 10
140.6591
 20
78.1523
  0
VERTEX
  8
LAYER_2
 10
140.7259
 20
78.2932
  0
VERTEX
  8
LAYER_2
 10
140.8128
 20
78.5334
  0
VERTEX
  8
LAYER_2
 10
140.8672
 20
78.7828
  0
VERTEX
  8
LAYER_2
 10
140.883
 20
79.0133
  0
VERTEX
  8
LAYER_2
 10
140.8672
 20
79.2437
  0
VERTEX
  8
LAYER_2
 10
140.8128
 20
79.4932
  0
VERTEX
  8
LAYER_2
 10
140.7259
 20
79.7333
  0
VERTEX
  8
LAYER_2
 10
140.6591
 20
79.8738
  0
VERTEX
  8
LAYER_2
 10
140.5847
 20
80.0103
  0
VERTEX
  8
LAYER_2
 10
140.5158
 20
80.1212
  0
VERTEX
  8
LAYER_2
 10
140.4428
 20
80.2294
  0
VERTEX
  8
LAYER_2
 10
140.3739
 20
80.3252
  0
VERTEX
  8
LAYER_2
 10
140.3015
 20
80.4185
  0
VERTEX
  8
LAYER_2
 10
140.2319
 20
80.504
  0
VERTEX
  8
LAYER_2
 10
140.1603
 20
80.588
  0
VERTEX
  8
LAYER_2
 10
140.0218
 20
80.7413
  0
VERTEX
  8
LAYER_2
 10
139.8778
 20
80.8895
  0
SEQEND
  0
ENDBLK
  0
BLOCK
  8
LAYER_2
  2
AIGNBL02020063
 70
64
 10
0
 20
0
 30
0
  3
AIGNBL02020063
  0
POLYLINE
  8
LAYER_2
 40
0.2469
 41
0.2469
 66
1
 10
0
 20
0
 30
0
  0
VERTEX
  8
LAYER_2
 10
139.8778
 20
88.3953
  0
VERTEX
  8
LAYER_2
 10
140.0231
 20
88.0956
  0
VERTEX
  8
LAYER_2
 10
140.1603
 20
87.7921
  0
VERTEX
  8
LAYER_2
 10
140.2326
 20
87.6232
  0
VERTEX
  8
LAYER_2
 10
140.3015
 20
87.4531
  0
VERTEX
  8
LAYER_2
 10
140.3745
 20
87.2646
  0
VERTEX
  8
LAYER_2
 10
140.4428
 20
87.0751
  0
VERTEX
  8
LAYER_2
 10
140.5165
 20
86.8567
  0
VERTEX
  8
LAYER_2
 10
140.5847
 20
86.6362
  0
VERTEX
  8
LAYER_2
 10
140.6598
 20
86.3606
  0
VERTEX
  8
LAYER_2
 10
140.7259
 20
86.0826
  0
VERTEX
  8
LAYER_2
 10
140.8135
 20
85.5955
  0
VERTEX
  8
LAYER_2
 10
140.8672
 20
85.1032
  0
VERTEX
  8
LAYER_2
 10
140.883
 20
84.6426
  0
VERTEX
  8
LAYER_2
 10
140.8672
 20
84.1816
  0
VERTEX
  8
LAYER_2
 10
140.8135
 20
83.6893
  0
VERTEX
  8
LAYER_2
 10
140.7259
 20
83.2022
  0
VERTEX
  8
LAYER_2
 10
140.6598
 20
82.9241
  0
VERTEX
  8
LAYER_2
 10
140.5847
 20
82.6485
  0
VERTEX
  8
LAYER_2
 10
140.5165
 20
82.4284
  0
VERTEX
  8
LAYER_2
 10
140.4428
 20
82.21
  0
VERTEX
  8
LAYER_2
 10
140.3745
 20
82.0201
  0
VERTEX
  8
LAYER_2
 10
140.3015
 20
81.832
  0
VERTEX
  8
LAYER_2
 10
140.2326
 20
81.6619
  0
VERTEX
  8
LAYER_2
 10
140.1603
 20
81.4927
  0
VERTEX
  8
LAYER_2
 10
140.0231
 20
81.1892
  0
VERTEX
  8
LAYER_2
 10
139.8778
 20
80.8895
  0
SEQEND
  0
ENDBLK
  0
BLOCK
  8
LAYER_2
  2
AIGNBL02020064
 70
64
 10
0
 20
0
 30
0
  3
AIGNBL02020064
  0
POLYLINE
  8
LAYER_2
 40
0.2469
 41
0.2469
 66
1
 10
0
 20
0
 30
0
  0
VERTEX
  8
LAYER_2
 10
137.5082
 20
88.3953
  0
VERTEX
  8
LAYER_2
 10
137.3628
 20
88.0956
  0
VERTEX
  8
LAYER_2
 10
137.2257
 20
87.7921
  0
VERTEX
  8
LAYER_2
 10
137.1534
 20
87.6232
  0
VERTEX
  8
LAYER_2
 10
137.0845
 20
87.4531
  0
VERTEX
  8
LAYER_2
 10
137.0121
 20
87.2646
  0
VERTEX
  8
LAYER_2
 10
136.9432
 20
87.0751
  0
VERTEX
  8
LAYER_2
 10
136.8695
 20
86.8567
  0
VERTEX
  8
LAYER_2
 10
136.802
 20
86.6362
  0
VERTEX
  8
LAYER_2
 10
136.7262
 20
86.3606
  0
VERTEX
  8
LAYER_2
 10
136.6607
 20
86.0826
  0
VERTEX
  8
LAYER_2
 10
136.5725
 20
85.5955
  0
VERTEX
  8
LAYER_2
 10
136.5188
 20
85.1032
  0
VERTEX
  8
LAYER_2
 10
136.503
 20
84.6426
  0
VERTEX
  8
LAYER_2
 10
136.5188
 20
84.1816
  0
VERTEX
  8
LAYER_2
 10
136.5725
 20
83.6893
  0
VERTEX
  8
LAYER_2
 10
136.6607
 20
83.2022
  0
VERTEX
  8
LAYER_2
 10
136.7262
 20
82.9241
  0
VERTEX
  8
LAYER_2
 10
136.802
 20
82.6485
  0
VERTEX
  8
LAYER_2
 10
136.8695
 20
82.4284
  0
VERTEX
  8
LAYER_2
 10
136.9432
 20
82.21
  0
VERTEX
  8
LAYER_2
 10
137.0121
 20
82.0201
  0
VERTEX
  8
LAYER_2
 10
137.0845
 20
81.832
  0
VERTEX
  8
LAYER_2
 10
137.1534
 20
81.6619
  0
VERTEX
  8
LAYER_2
 10
137.2257
 20
81.4927
  0
VERTEX
  8
LAYER_2
 10
137.3628
 20
81.1892
  0
VERTEX
  8
LAYER_2
 10
137.5082
 20
80.8895
  0
SEQEND
  0
ENDBLK
  0
BLOCK
  8
LAYER_2
  2
AIGNBL02020065
 70
64
 10
0
 20
0
 30
0
  3
AIGNBL02020065
  0
POLYLINE
  8
LAYER_2
 40
0.2469
 41
0.2469
 66
1
 10
0
 20
0
 30
0
  0
VERTEX
  8
LAYER_2
 10
137.5082
 20
92.148
  0
VERTEX
  8
LAYER_2
 10
137.3642
 20
91.9996
  0
VERTEX
  8
LAYER_2
 10
137.2257
 20
91.8462
  0
VERTEX
  8
LAYER_2
 10
137.1541
 20
91.7625
  0
VERTEX
  8
LAYER_2
 10
137.0845
 20
91.6767
  0
VERTEX
  8
LAYER_2
 10
137.0121
 20
91.5834
  0
VERTEX
  8
LAYER_2
 10
136.9432
 20
91.488
  0
VERTEX
  8
LAYER_2
 10
136.8702
 20
91.3798
  0
VERTEX
  8
LAYER_2
 10
136.802
 20
91.2685
  0
VERTEX
  8
LAYER_2
 10
136.7269
 20
91.1324
  0
VERTEX
  8
LAYER_2
 10
136.6607
 20
90.9915
  0
VERTEX
  8
LAYER_2
 10
136.5732
 20
90.7514
  0
VERTEX
  8
LAYER_2
 10
136.5188
 20
90.502
  0
VERTEX
  8
LAYER_2
 10
136.503
 20
90.2715
  0
VERTEX
  8
LAYER_2
 10
136.5188
 20
90.041
  0
VERTEX
  8
LAYER_2
 10
136.5732
 20
89.7916
  0
VERTEX
  8
LAYER_2
 10
136.6607
 20
89.5515
  0
VERTEX
  8
LAYER_2
 10
136.7269
 20
89.4109
  0
VERTEX
  8
LAYER_2
 10
136.802
 20
89.2745
  0
VERTEX
  8
LAYER_2
 10
136.8702
 20
89.1635
  0
VERTEX
  8
LAYER_2
 10
136.9432
 20
89.0554
  0
VERTEX
  8
LAYER_2
 10
137.0121
 20
88.9596
  0
VERTEX
  8
LAYER_2
 10
137.0845
 20
88.8662
  0
VERTEX
  8
LAYER_2
 10
137.1541
 20
88.7808
  0
VERTEX
  8
LAYER_2
 10
137.2257
 20
88.6967
  0
VERTEX
  8
LAYER_2
 10
137.3642
 20
88.5434
  0
VERTEX
  8
LAYER_2
 10
137.5082
 20
88.3953
  0
SEQEND
  0
ENDBLK
  0
BLOCK
  8
LAYER_2
  2
AIGNBL02020066
 70
64
 10
0
 20
0
 30
0
  3
AIGNBL02020066
  0
POLYLINE
  8
LAYER_2
 40
0.2469
 41
0.2469
 66
1
 10
0
 20
0
 30
0
  0
VERTEX
  8
LAYER_2
 10
139.8778
 20
92.148
  0
VERTEX
  8
LAYER_2
 10
140.0218
 20
91.9996
  0
VERTEX
  8
LAYER_2
 10
140.1603
 20
91.8462
  0
VERTEX
  8
LAYER_2
 10
140.2319
 20
91.7625
  0
VERTEX
  8
LAYER_2
 10
140.3015
 20
91.6767
  0
VERTEX
  8
LAYER_2
 10
140.3739
 20
91.5834
  0
VERTEX
  8
LAYER_2
 10
140.4428
 20
91.488
  0
VERTEX
  8
LAYER_2
 10
140.5158
 20
91.3798
  0
VERTEX
  8
LAYER_2
 10
140.5847
 20
91.2685
  0
VERTEX
  8
LAYER_2
 10
140.6591
 20
91.1324
  0
VERTEX
  8
LAYER_2
 10
140.7259
 20
90.9915
  0
VERTEX
  8
LAYER_2
 10
140.8128
 20
90.7514
  0
VERTEX
  8
LAYER_2
 10
140.8672
 20
90.502
  0
VERTEX
  8
LAYER_2
 10
140.883
 20
90.2715
  0
VERTEX
  8
LAYER_2
 10
140.8672
 20
90.041
  0
VERTEX
  8
LAYER_2
 10
140.8128
 20
89.7916
  0
VERTEX
  8
LAYER_2
 10
140.7259
 20
89.5515
  0
VERTEX
  8
LAYER_2
 10
140.6591
 20
89.4109
  0
VERTEX
  8
LAYER_2
 10
140.5847
 20
89.2745
  0
VERTEX
  8
LAYER_2
 10
140.5158
 20
89.1635
  0
VERTEX
  8
LAYER_2
 10
140.4428
 20
89.0554
  0
VERTEX
  8
LAYER_2
 10
140.3739
 20
88.9596
  0
VERTEX
  8
LAYER_2
 10
140.3015
 20
88.8662
  0
VERTEX
  8
LAYER_2
 10
140.2319
 20
88.7808
  0
VERTEX
  8
LAYER_2
 10
140.1603
 20
88.6967
  0
VERTEX
  8
LAYER_2
 10
140.0218
 20
88.5434
  0
VERTEX
  8
LAYER_2
 10
139.8778
 20
88.3953
  0
SEQEND
  0
ENDBLK
  0
BLOCK
  8
LAYER_2
  2
AIGNBL02020067
 70
64
 10
0
 20
0
 30
0
  3
AIGNBL02020067
  0
POLYLINE
  8
LAYER_2
 40
0.2469
 41
0.2469
 66
1
 10
0
 20
0
 30
0
  0
VERTEX
  8
LAYER_2
 10
54.1519
 20
177.0858
  0
VERTEX
  8
LAYER_2
 10
53.8925
 20
177.2309
  0
VERTEX
  8
LAYER_2
 10
53.6296
 20
177.3687
  0
VERTEX
  8
LAYER_2
 10
53.4832
 20
177.4407
  0
VERTEX
  8
LAYER_2
 10
53.3358
 20
177.5099
  0
VERTEX
  8
LAYER_2
 10
53.1732
 20
177.5823
  0
VERTEX
  8
LAYER_2
 10
53.0085
 20
177.6512
  0
VERTEX
  8
LAYER_2
 10
52.8197
 20
177.7246
  0
VERTEX
  8
LAYER_2
 10
52.6288
 20
177.7924
  0
VERTEX
  8
LAYER_2
 10
52.3904
 20
177.8682
  0
VERTEX
  8
LAYER_2
 10
52.1493
 20
177.9337
  0
VERTEX
  8
LAYER_2
 10
51.7279
 20
178.0219
  0
VERTEX
  8
LAYER_2
 10
51.3011
 20
178.0753
  0
VERTEX
  8
LAYER_2
 10
50.9018
 20
178.0915
  0
VERTEX
  8
LAYER_2
 10
50.5025
 20
178.0753
  0
VERTEX
  8
LAYER_2
 10
50.0757
 20
178.0219
  0
VERTEX
  8
LAYER_2
 10
49.6547
 20
177.9337
  0
VERTEX
  8
LAYER_2
 10
49.4132
 20
177.8682
  0
VERTEX
  8
LAYER_2
 10
49.1751
 20
177.7924
  0
VERTEX
  8
LAYER_2
 10
48.9839
 20
177.7246
  0
VERTEX
  8
LAYER_2
 10
48.7951
 20
177.6512
  0
VERTEX
  8
LAYER_2
 10
48.6308
 20
177.5823
  0
VERTEX
  8
LAYER_2
 10
48.4678
 20
177.5099
  0
VERTEX
  8
LAYER_2
 10
48.3204
 20
177.4407
  0
VERTEX
  8
LAYER_2
 10
48.1743
 20
177.3687
  0
VERTEX
  8
LAYER_2
 10
47.9111
 20
177.2309
  0
VERTEX
  8
LAYER_2
 10
47.6517
 20
177.0858
  0
SEQEND
  0
ENDBLK
  0
BLOCK
  8
LAYER_2
  2
AIGNBL02020068
 70
64
 10
0
 20
0
 30
0
  3
AIGNBL02020068
  0
POLYLINE
  8
LAYER_2
 40
0.2469
 41
0.2469
 66
1
 10
0
 20
0
 30
0
  0
VERTEX
  8
LAYER_2
 10
54.1519
 20
177.0858
  0
VERTEX
  8
LAYER_2
 10
54.411
 20
177.2309
  0
VERTEX
  8
LAYER_2
 10
54.6742
 20
177.3687
  0
VERTEX
  8
LAYER_2
 10
54.8203
 20
177.4407
  0
VERTEX
  8
LAYER_2
 10
54.968
 20
177.5099
  0
VERTEX
  8
LAYER_2
 10
55.1307
 20
177.5823
  0
VERTEX
  8
LAYER_2
 10
55.2953
 20
177.6512
  0
VERTEX
  8
LAYER_2
 10
55.4841
 20
177.7246
  0
VERTEX
  8
LAYER_2
 10
55.675
 20
177.7924
  0
VERTEX
  8
LAYER_2
 10
55.9134
 20
177.8682
  0
VERTEX
  8
LAYER_2
 10
56.1545
 20
177.9337
  0
VERTEX
  8
LAYER_2
 10
56.5755
 20
178.0219
  0
VERTEX
  8
LAYER_2
 10
57.0027
 20
178.0753
  0
VERTEX
  8
LAYER_2
 10
57.4017
 20
178.0915
  0
VERTEX
  8
LAYER_2
 10
57.801
 20
178.0753
  0
VERTEX
  8
LAYER_2
 10
58.2278
 20
178.0219
  0
VERTEX
  8
LAYER_2
 10
58.6491
 20
177.9337
  0
VERTEX
  8
LAYER_2
 10
58.8903
 20
177.8682
  0
VERTEX
  8
LAYER_2
 10
59.1287
 20
177.7924
  0
VERTEX
  8
LAYER_2
 10
59.3195
 20
177.7246
  0
VERTEX
  8
LAYER_2
 10
59.5087
 20
177.6512
  0
VERTEX
  8
LAYER_2
 10
59.673
 20
177.5823
  0
VERTEX
  8
LAYER_2
 10
59.836
 20
177.5099
  0
VERTEX
  8
LAYER_2
 10
59.9834
 20
177.4407
  0
VERTEX
  8
LAYER_2
 10
60.1295
 20
177.3687
  0
VERTEX
  8
LAYER_2
 10
60.3927
 20
177.2309
  0
VERTEX
  8
LAYER_2
 10
60.6518
 20
177.0858
  0
SEQEND
  0
ENDBLK
  0
BLOCK
  8
LAYER_2
  2
AIGNBL02020069
 70
64
 10
0
 20
0
 30
0
  3
AIGNBL02020069
  0
POLYLINE
  8
LAYER_2
 40
0.2469
 41
0.2469
 66
1
 10
0
 20
0
 30
0
  0
VERTEX
  8
LAYER_2
 10
54.1519
 20
174.7166
  0
VERTEX
  8
LAYER_2
 10
53.8925
 20
174.5713
  0
VERTEX
  8
LAYER_2
 10
53.6296
 20
174.4338
  0
VERTEX
  8
LAYER_2
 10
53.4832
 20
174.3618
  0
VERTEX
  8
LAYER_2
 10
53.3358
 20
174.2925
  0
VERTEX
  8
LAYER_2
 10
53.1732
 20
174.2199
  0
VERTEX
  8
LAYER_2
 10
53.0085
 20
174.1513
  0
VERTEX
  8
LAYER_2
 10
52.8197
 20
174.0779
  0
VERTEX
  8
LAYER_2
 10
52.6288
 20
174.0097
  0
VERTEX
  8
LAYER_2
 10
52.3904
 20
173.9343
  0
VERTEX
  8
LAYER_2
 10
52.1493
 20
173.8685
  0
VERTEX
  8
LAYER_2
 10
51.7279
 20
173.7806
  0
VERTEX
  8
LAYER_2
 10
51.3011
 20
173.7272
  0
VERTEX
  8
LAYER_2
 10
50.9018
 20
173.711
  0
VERTEX
  8
LAYER_2
 10
50.5025
 20
173.7272
  0
VERTEX
  8
LAYER_2
 10
50.0757
 20
173.7806
  0
VERTEX
  8
LAYER_2
 10
49.6547
 20
173.8685
  0
VERTEX
  8
LAYER_2
 10
49.4132
 20
173.9343
  0
VERTEX
  8
LAYER_2
 10
49.1751
 20
174.0097
  0
VERTEX
  8
LAYER_2
 10
48.9839
 20
174.0779
  0
VERTEX
  8
LAYER_2
 10
48.7951
 20
174.1513
  0
VERTEX
  8
LAYER_2
 10
48.6308
 20
174.2199
  0
VERTEX
  8
LAYER_2
 10
48.4678
 20
174.2925
  0
VERTEX
  8
LAYER_2
 10
48.3204
 20
174.3618
  0
VERTEX
  8
LAYER_2
 10
48.1743
 20
174.4338
  0
VERTEX
  8
LAYER_2
 10
47.9111
 20
174.5713
  0
VERTEX
  8
LAYER_2
 10
47.6517
 20
174.7166
  0
SEQEND
  0
ENDBLK
  0
BLOCK
  8
LAYER_2
  2
AIGNBL0202006A
 70
64
 10
0
 20
0
 30
0
  3
AIGNBL0202006A
  0
POLYLINE
  8
LAYER_2
 40
0.2469
 41
0.2469
 66
1
 10
0
 20
0
 30
0
  0
VERTEX
  8
LAYER_2
 10
54.1519
 20
174.7166
  0
VERTEX
  8
LAYER_2
 10
54.411
 20
174.5713
  0
VERTEX
  8
LAYER_2
 10
54.6742
 20
174.4338
  0
VERTEX
  8
LAYER_2
 10
54.8203
 20
174.3618
  0
VERTEX
  8
LAYER_2
 10
54.968
 20
174.2925
  0
VERTEX
  8
LAYER_2
 10
55.1307
 20
174.2199
  0
VERTEX
  8
LAYER_2
 10
55.2953
 20
174.1513
  0
VERTEX
  8
LAYER_2
 10
55.4841
 20
174.0779
  0
VERTEX
  8
LAYER_2
 10
55.675
 20
174.0097
  0
VERTEX
  8
LAYER_2
 10
55.9134
 20
173.9343
  0
VERTEX
  8
LAYER_2
 10
56.1545
 20
173.8685
  0
VERTEX
  8
LAYER_2
 10
56.5755
 20
173.7806
  0
VERTEX
  8
LAYER_2
 10
57.0027
 20
173.7272
  0
VERTEX
  8
LAYER_2
 10
57.4017
 20
173.711
  0
VERTEX
  8
LAYER_2
 10
57.801
 20
173.7272
  0
VERTEX
  8
LAYER_2
 10
58.2278
 20
173.7806
  0
VERTEX
  8
LAYER_2
 10
58.6491
 20
173.8685
  0
VERTEX
  8
LAYER_2
 10
58.8903
 20
173.9343
  0
VERTEX
  8
LAYER_2
 10
59.1287
 20
174.0097
  0
VERTEX
  8
LAYER_2
 10
59.3195
 20
174.0779
  0
VERTEX
  8
LAYER_2
 10
59.5087
 20
174.1513
  0
VERTEX
  8
LAYER_2
 10
59.673
 20
174.2199
  0
VERTEX
  8
LAYER_2
 10
59.836
 20
174.2925
  0
VERTEX
  8
LAYER_2
 10
59.9834
 20
174.3618
  0
VERTEX
  8
LAYER_2
 10
60.1295
 20
174.4338
  0
VERTEX
  8
LAYER_2
 10
60.3927
 20
174.5713
  0
VERTEX
  8
LAYER_2
 10
60.6518
 20
174.7166
  0
SEQEND
  0
ENDBLK
  0
BLOCK
  8
LAYER_2
  2
AIGNBL0202006B
 70
64
 10
0
 20
0
 30
0
  3
AIGNBL0202006B
  0
POLYLINE
  8
LAYER_2
 40
0.2469
 41
0.2469
 66
1
 10
0
 20
0
 30
0
  0
VERTEX
  8
LAYER_2
 10
135.2172
 20
90.8923
 42
0.1988219426
  0
VERTEX
  8
LAYER_2
 10
136.9853
 20
91.6247
  0
SEQEND
  0
ENDBLK
  0
BLOCK
  8
LAYER_2
  2
AIGNBL0202006C
 70
64
 10
0
 20
0
 30
0
  3
AIGNBL0202006C
  0
POLYLINE
  8
LAYER_2
 40
0.2469
 41
0.2469
 66
1
 10
0
 20
0
 30
0
  0
VERTEX
  8
LAYER_2
 10
132.2586
 20
93.3924
 42
0.4142183013
  0
VERTEX
  8
LAYER_2
 10
134.7584
 20
90.8923
  0
SEQEND
  0
ENDBLK
  0
BLOCK
  8
LAYER_2
  2
AIGNBL0202006D
 70
64
 10
0
 20
0
 30
0
  3
AIGNBL0202006D
  0
POLYLINE
  8
LAYER_2
 40
0.2469
 41
0.2469
 66
1
 10
0
 20
0
 30
0
  0
VERTEX
  8
LAYER_2
 10
136.9853
 20
77.66
 42
0.1988261645
  0
VERTEX
  8
LAYER_2
 10
135.2172
 20
78.3925
  0
SEQEND
  0
ENDBLK
  0
BLOCK
  8
LAYER_2
  2
AIGNBL0202006E
 70
64
 10
0
 20
0
 30
0
  3
AIGNBL0202006E
  0
POLYLINE
  8
LAYER_2
 40
0.2469
 41
0.2469
 66
1
 10
0
 20
0
 30
0
  0
VERTEX
  8
LAYER_2
 10
60.6518
 20
173.515
 42
0.1133353461
  0
VERTEX
  8
LAYER_2
 10
60.4017
 20
172.4253
  0
SEQEND
  0
ENDBLK
  0
BLOCK
  8
LAYER_2
  2
AIGNBL0202006F
 70
64
 10
0
 20
0
 30
0
  3
AIGNBL0202006F
  0
POLYLINE
  8
LAYER_2
 40
0.2469
 41
0.2469
 66
1
 10
0
 20
0
 30
0
  0
VERTEX
  8
LAYER_2
 10
47.9018
 20
172.4253
 42
0.1133338776
  0
VERTEX
  8
LAYER_2
 10
47.6517
 20
173.515
  0
SEQEND
  0
ENDBLK
  0
BLOCK
  8
LAYER_2
  2
AIGNBL02020070
 70
64
 10
0
 20
0
 30
0
  3
AIGNBL02020070
  0
POLYLINE
  8
LAYER_2
 40
0.2469
 41
0.2469
 66
1
 10
0
 20
0
 30
0
  0
VERTEX
  8
LAYER_2
 10
59.4019
 20
93.3924
 42
0.08659389271
  0
VERTEX
  8
LAYER_2
 10
59.55
 20
92.5442
  0
SEQEND
  0
ENDBLK
  0
BLOCK
  8
LAYER_2
  2
AIGNBL02020072
 70
64
 10
0
 20
0
 30
0
  3
AIGNBL02020072
  0
POLYLINE
  8
LAYER_2
 40
0.2469
 41
0.2469
 66
1
 10
0
 20
0
 30
0
  0
VERTEX
  8
LAYER_2
 10
174.0083
 20
80.27
  0
VERTEX
  8
LAYER_2
 10
174.0083
 20
80.2707
  0
SEQEND
  0
ENDBLK
  0
BLOCK
  8
LAYER_2
  2
AIGNBL02020073
 70
64
 10
0
 20
0
 30
0
  3
AIGNBL02020073
  0
POLYLINE
  8
LAYER_2
 40
0.2469
 41
0.2469
 66
1
 10
0
 20
0
 30
0
  0
VERTEX
  8
LAYER_2
 10
174.0083
 20
80.2707
  0
VERTEX
  8
LAYER_2
 10
174.0083
 20
80.5174
  0
SEQEND
  0
ENDBLK
  0
BLOCK
  8
LAYER_2
  2
AIGNBL02020074
 70
64
 10
0
 20
0
 30
0
  3
AIGNBL02020074
  0
POLYLINE
  8
LAYER_2
 40
0.2469
 41
0.2469
 66
1
 10
0
 20
0
 30
0
  0
VERTEX
  8
LAYER_2
 10
173.4282
 20
79.6575
  0
VERTEX
  8
LAYER_2
 10
167.0086
 20
79.52
  0
SEQEND
  0
ENDBLK
  0
BLOCK
  8
LAYER_2
  2
AIGNBL02020075
 70
64
 10
0
 20
0
 30
0
  3
AIGNBL02020075
  0
POLYLINE
  8
LAYER_2
 40
0.2469
 41
0.2469
 66
1
 10
0
 20
0
 30
0
  0
VERTEX
  8
LAYER_2
 10
167.2587
 20
79.52
  0
VERTEX
  8
LAYER_2
 10
167.2587
 20
89.1835
  0
SEQEND
  0
ENDBLK
  0
BLOCK
  8
LAYER_2
  2
AIGNBL02020076
 70
64
 10
0
 20
0
 30
0
  3
AIGNBL02020076
  0
POLYLINE
  8
LAYER_2
 40
0.2469
 41
0.2469
 66
1
 10
0
 20
0
 30
0
  0
VERTEX
  8
LAYER_2
 10
174.0083
 20
80.27
  0
VERTEX
  8
LAYER_2
 10
173.4282
 20
79.6575
  0
SEQEND
  0
ENDBLK
  0
BLOCK
  8
LAYER_2
  2
AIGNBL02020077
 70
64
 10
0
 20
0
 30
0
  3
AIGNBL02020077
  0
POLYLINE
  8
LAYER_2
 40
0.2469
 41
0.2469
 66
1
 10
0
 20
0
 30
0
  0
VERTEX
  8
LAYER_2
 10
167.0086
 20
79.52
  0
VERTEX
  8
LAYER_2
 10
165.9537
 20
79.4925
  0
SEQEND
  0
ENDBLK
  0
BLOCK
  8
LAYER_2
  2
AIGNBL02020078
 70
64
 10
0
 20
0
 30
0
  3
AIGNBL02020078
  0
POLYLINE
  8
LAYER_2
 40
0.2469
 41
0.2469
 66
1
 10
0
 20
0
 30
0
  0
VERTEX
  8
LAYER_2
 10
174.0083
 20
80.2707
  0
VERTEX
  8
LAYER_2
 10
167.2587
 20
80.1071
  0
SEQEND
  0
ENDBLK
  0
BLOCK
  8
LAYER_2
  2
AIGNBL02020079
 70
64
 10
0
 20
0
 30
0
  3
AIGNBL02020079
  0
POLYLINE
  8
LAYER_2
 40
0.2469
 41
0.2469
 66
1
 10
0
 20
0
 30
0
  0
VERTEX
  8
LAYER_2
 10
166.2038
 20
79.4925
  0
VERTEX
  8
LAYER_2
 10
167.2587
 20
80.1012
  0
SEQEND
  0
ENDBLK
  0
BLOCK
  8
LAYER_2
  2
AIGNBL0202007A
 70
64
 10
0
 20
0
 30
0
  3
AIGNBL0202007A
  0
POLYLINE
  8
LAYER_2
 40
0.2469
 41
0.2469
 66
1
 10
0
 20
0
 30
0
  0
VERTEX
  8
LAYER_2
 10
143.2581
 20
80.1012
  0
VERTEX
  8
LAYER_2
 10
144.313
 20
79.4925
  0
SEQEND
  0
ENDBLK
  0
BLOCK
  8
LAYER_2
  2
AIGNBL0202007B
 70
64
 10
0
 20
0
 30
0
  3
AIGNBL0202007B
  0
POLYLINE
  8
LAYER_2
 40
0.2469
 41
0.2469
 66
1
 10
0
 20
0
 30
0
  0
VERTEX
  8
LAYER_2
 10
143.2581
 20
80.1071
  0
VERTEX
  8
LAYER_2
 10
141.0084
 20
80.1619
  0
SEQEND
  0
ENDBLK
  0
BLOCK
  8
LAYER_2
  2
AIGNBL0202007C
 70
64
 10
0
 20
0
 30
0
  3
AIGNBL0202007C
  0
POLYLINE
  8
LAYER_2
 40
0.2469
 41
0.2469
 66
1
 10
0
 20
0
 30
0
  0
VERTEX
  8
LAYER_2
 10
144.5624
 20
79.4925
  0
VERTEX
  8
LAYER_2
 10
143.5082
 20
79.52
  0
SEQEND
  0
ENDBLK
  0
BLOCK
  8
LAYER_2
  2
AIGNBL0202007D
 70
64
 10
0
 20
0
 30
0
  3
AIGNBL0202007D
  0
POLYLINE
  8
LAYER_2
 40
0.2469
 41
0.2469
 66
1
 10
0
 20
0
 30
0
  0
VERTEX
  8
LAYER_2
 10
143.2581
 20
89.7647
  0
VERTEX
  8
LAYER_2
 10
143.2581
 20
79.52
  0
SEQEND
  0
ENDBLK
  0
BLOCK
  8
LAYER_2
  2
AIGNBL0202007E
 70
64
 10
0
 20
0
 30
0
  3
AIGNBL0202007E
  0
POLYLINE
  8
LAYER_2
 40
0.2469
 41
0.2469
 66
1
 10
0
 20
0
 30
0
  0
VERTEX
  8
LAYER_2
 10
143.5082
 20
79.52
  0
VERTEX
  8
LAYER_2
 10
141.0084
 20
79.5734
  0
SEQEND
  0
ENDBLK
  0
BLOCK
  8
LAYER_2
  2
AIGNBL0202007F
 70
64
 10
0
 20
0
 30
0
  3
AIGNBL0202007F
  0
POLYLINE
  8
LAYER_2
 40
0.2469
 41
0.2469
 66
1
 10
0
 20
0
 30
0
  0
VERTEX
  8
LAYER_2
 10
155.2581
 20
79.4925
  0
VERTEX
  8
LAYER_2
 10
144.5624
 20
79.4925
  0
SEQEND
  0
ENDBLK
  0
BLOCK
  8
LAYER_2
  2
AIGNBL02020080
 70
64
 10
0
 20
0
 30
0
  3
AIGNBL02020080
  0
POLYLINE
  8
LAYER_2
 40
0.2469
 41
0.2469
 66
1
 10
0
 20
0
 30
0
  0
VERTEX
  8
LAYER_2
 10
165.9537
 20
79.4925
  0
VERTEX
  8
LAYER_2
 10
163.7495
 20
79.4925
  0
SEQEND
  0
ENDBLK
  0
BLOCK
  8
LAYER_2
  2
AIGNBL02020081
 70
64
 10
0
 20
0
 30
0
  3
AIGNBL02020081
  0
POLYLINE
  8
LAYER_2
  6
AIGENLINE002
 40
0.2469
 41
0.2469
 66
1
 10
0
 20
0
 30
0
 70
128
  0
VERTEX
  8
LAYER_2
 10
135.1084
 20
84.6426
  0
VERTEX
  8
LAYER_2
 10
175.3492
 20
84.6426
  0
SEQEND
  0
ENDBLK
  0
BLOCK
  8
LAYER_2
  2
AIGNBL02020082
 70
64
 10
0
 20
0
 30
0
  3
AIGNBL02020082
  0
POLYLINE
  8
LAYER_2
 40
0.2469
 41
0.2469
 66
1
 10
0
 20
0
 30
0
  0
VERTEX
  8
LAYER_2
 10
174.0083
 20
80.5174
  0
VERTEX
  8
LAYER_2
 10
174.0083
 20
88.7674
  0
SEQEND
  0
ENDBLK
  0
BLOCK
  8
LAYER_2
  2
AIGNBL02020083
 70
64
 10
0
 20
0
 30
0
  3
AIGNBL02020083
  0
POLYLINE
  8
LAYER_2
 40
0.2469
 41
0.2469
 66
1
 10
0
 20
0
 30
0
  0
VERTEX
  8
LAYER_2
 10
155.2581
 20
89.7923
  0
VERTEX
  8
LAYER_2
 10
155.7493
 20
89.7923
  0
SEQEND
  0
ENDBLK
  0
BLOCK
  8
LAYER_2
  2
AIGNBL02020084
 70
64
 10
0
 20
0
 30
0
  3
AIGNBL02020084
  0
POLYLINE
  8
LAYER_2
 40
0.2469
 41
0.2469
 66
1
 10
0
 20
0
 30
0
  0
VERTEX
  8
LAYER_2
 10
144.5624
 20
89.7923
  0
VERTEX
  8
LAYER_2
 10
155.2581
 20
89.7923
  0
SEQEND
  0
ENDBLK
  0
BLOCK
  8
LAYER_2
  2
AIGNBL02020085
 70
64
 10
0
 20
0
 30
0
  3
AIGNBL02020085
  0
POLYLINE
  8
LAYER_2
 40
0.2469
 41
0.2469
 66
1
 10
0
 20
0
 30
0
  0
VERTEX
  8
LAYER_2
 10
141.0084
 20
89.7113
  0
VERTEX
  8
LAYER_2
 10
143.5082
 20
89.7647
  0
SEQEND
  0
ENDBLK
  0
BLOCK
  8
LAYER_2
  2
AIGNBL02020086
 70
64
 10
0
 20
0
 30
0
  3
AIGNBL02020086
  0
POLYLINE
  8
LAYER_2
 40
0.2469
 41
0.2469
 66
1
 10
0
 20
0
 30
0
  0
VERTEX
  8
LAYER_2
 10
143.5082
 20
89.7647
  0
VERTEX
  8
LAYER_2
 10
144.5624
 20
89.7923
  0
SEQEND
  0
ENDBLK
  0
BLOCK
  8
LAYER_2
  2
AIGNBL02020087
 70
64
 10
0
 20
0
 30
0
  3
AIGNBL02020087
  0
POLYLINE
  8
LAYER_2
 40
0.2469
 41
0.2469
 66
1
 10
0
 20
0
 30
0
  0
VERTEX
  8
LAYER_2
 10
141.0084
 20
89.1229
  0
VERTEX
  8
LAYER_2
 10
143.2581
 20
89.1777
  0
SEQEND
  0
ENDBLK
  0
BLOCK
  8
LAYER_2
  2
AIGNBL02020088
 70
64
 10
0
 20
0
 30
0
  3
AIGNBL02020088
  0
POLYLINE
  8
LAYER_2
 40
0.2469
 41
0.2469
 66
1
 10
0
 20
0
 30
0
  0
VERTEX
  8
LAYER_2
 10
144.313
 20
89.7923
  0
VERTEX
  8
LAYER_2
 10
143.2581
 20
89.1835
  0
SEQEND
  0
ENDBLK
  0
BLOCK
  8
LAYER_2
  2
AIGNBL02020089
 70
64
 10
0
 20
0
 30
0
  3
AIGNBL02020089
  0
POLYLINE
  8
LAYER_2
 40
0.2469
 41
0.2469
 66
1
 10
0
 20
0
 30
0
  0
VERTEX
  8
LAYER_2
 10
167.2587
 20
89.1835
  0
VERTEX
  8
LAYER_2
 10
166.2038
 20
89.7923
  0
SEQEND
  0
ENDBLK
  0
BLOCK
  8
LAYER_2
  2
AIGNBL0202008A
 70
64
 10
0
 20
0
 30
0
  3
AIGNBL0202008A
  0
POLYLINE
  8
LAYER_2
 40
0.2469
 41
0.2469
 66
1
 10
0
 20
0
 30
0
  0
VERTEX
  8
LAYER_2
 10
167.2587
 20
89.1777
  0
VERTEX
  8
LAYER_2
 10
174.0083
 20
89.014
  0
SEQEND
  0
ENDBLK
  0
BLOCK
  8
LAYER_2
  2
AIGNBL0202008B
 70
64
 10
0
 20
0
 30
0
  3
AIGNBL0202008B
  0
POLYLINE
  8
LAYER_2
 40
0.2469
 41
0.2469
 66
1
 10
0
 20
0
 30
0
  0
VERTEX
  8
LAYER_2
 10
165.9537
 20
89.7923
  0
VERTEX
  8
LAYER_2
 10
167.0086
 20
89.7647
  0
SEQEND
  0
ENDBLK
  0
BLOCK
  8
LAYER_2
  2
AIGNBL0202008C
 70
64
 10
0
 20
0
 30
0
  3
AIGNBL0202008C
  0
POLYLINE
  8
LAYER_2
 40
0.2469
 41
0.2469
 66
1
 10
0
 20
0
 30
0
  0
VERTEX
  8
LAYER_2
 10
173.4282
 20
89.6273
  0
VERTEX
  8
LAYER_2
 10
174.0083
 20
89.0147
  0
SEQEND
  0
ENDBLK
  0
BLOCK
  8
LAYER_2
  2
AIGNBL0202008D
 70
64
 10
0
 20
0
 30
0
  3
AIGNBL0202008D
  0
POLYLINE
  8
LAYER_2
 40
0.2469
 41
0.2469
 66
1
 10
0
 20
0
 30
0
  0
VERTEX
  8
LAYER_2
 10
167.2587
 20
89.1835
  0
VERTEX
  8
LAYER_2
 10
167.2587
 20
89.7647
  0
SEQEND
  0
ENDBLK
  0
BLOCK
  8
LAYER_2
  2
AIGNBL0202008E
 70
64
 10
0
 20
0
 30
0
  3
AIGNBL0202008E
  0
POLYLINE
  8
LAYER_2
 40
0.2469
 41
0.2469
 66
1
 10
0
 20
0
 30
0
  0
VERTEX
  8
LAYER_2
 10
167.0086
 20
89.7647
  0
VERTEX
  8
LAYER_2
 10
173.4282
 20
89.6273
  0
SEQEND
  0
ENDBLK
  0
BLOCK
  8
LAYER_2
  2
AIGNBL0202008F
 70
64
 10
0
 20
0
 30
0
  3
AIGNBL0202008F
  0
POLYLINE
  8
LAYER_2
 40
0.2469
 41
0.2469
 66
1
 10
0
 20
0
 30
0
  0
VERTEX
  8
LAYER_2
 10
174.0083
 20
88.7674
  0
VERTEX
  8
LAYER_2
 10
174.0083
 20
89.014
  0
SEQEND
  0
ENDBLK
  0
BLOCK
  8
LAYER_2
  2
AIGNBL02020090
 70
64
 10
0
 20
0
 30
0
  3
AIGNBL02020090
  0
POLYLINE
  8
LAYER_2
 40
0.2469
 41
0.2469
 66
1
 10
0
 20
0
 30
0
  0
VERTEX
  8
LAYER_2
 10
174.0083
 20
89.014
  0
VERTEX
  8
LAYER_2
 10
174.0083
 20
89.0147
  0
SEQEND
  0
ENDBLK
  0
BLOCK
  8
LAYER_2
  2
AIGNBL02020091
 70
64
 10
0
 20
0
 30
0
  3
AIGNBL02020091
  0
POLYLINE
  8
LAYER_2
 40
0.2469
 41
0.2469
 66
1
 10
0
 20
0
 30
0
  0
VERTEX
  8
LAYER_2
 10
173.4282
 20
79.6575
  0
VERTEX
  8
LAYER_2
 10
173.4282
 20
89.6273
  0
SEQEND
  0
ENDBLK
  0
BLOCK
  8
LAYER_2
  2
AIGNBL02020092
 70
64
 10
0
 20
0
 30
0
  3
AIGNBL02020092
  0
POLYLINE
  8
LAYER_2
 40
0.2469
 41
0.2469
 66
1
 10
0
 20
0
 30
0
  0
VERTEX
  8
LAYER_2
 10
59.1366
 20
210.6362
  0
VERTEX
  8
LAYER_2
 10
49.1672
 20
210.6362
  0
SEQEND
  0
ENDBLK
  0
BLOCK
  8
LAYER_2
  2
AIGNBL02020093
 70
64
 10
0
 20
0
 30
0
  3
AIGNBL02020093
  0
POLYLINE
  8
LAYER_2
 40
0.2469
 41
0.2469
 66
1
 10
0
 20
0
 30
0
  0
VERTEX
  8
LAYER_2
 10
49.7804
 20
211.2164
  0
VERTEX
  8
LAYER_2
 10
49.7794
 20
211.2164
  0
SEQEND
  0
ENDBLK
  0
BLOCK
  8
LAYER_2
  2
AIGNBL02020094
 70
64
 10
0
 20
0
 30
0
  3
AIGNBL02020094
  0
POLYLINE
  8
LAYER_2
 40
0.2469
 41
0.2469
 66
1
 10
0
 20
0
 30
0
  0
VERTEX
  8
LAYER_2
 10
50.0267
 20
211.2164
  0
VERTEX
  8
LAYER_2
 10
49.7804
 20
211.2164
  0
SEQEND
  0
ENDBLK
  0
BLOCK
  8
LAYER_2
  2
AIGNBL02020095
 70
64
 10
0
 20
0
 30
0
  3
AIGNBL02020095
  0
POLYLINE
  8
LAYER_2
 40
0.2469
 41
0.2469
 66
1
 10
0
 20
0
 30
0
  0
VERTEX
  8
LAYER_2
 10
49.0294
 20
204.2163
  0
VERTEX
  8
LAYER_2
 10
49.1672
 20
210.6362
  0
SEQEND
  0
ENDBLK
  0
BLOCK
  8
LAYER_2
  2
AIGNBL02020096
 70
64
 10
0
 20
0
 30
0
  3
AIGNBL02020096
  0
POLYLINE
  8
LAYER_2
 40
0.2469
 41
0.2469
 66
1
 10
0
 20
0
 30
0
  0
VERTEX
  8
LAYER_2
 10
49.6106
 20
204.4664
  0
VERTEX
  8
LAYER_2
 10
49.0294
 20
204.4664
  0
SEQEND
  0
ENDBLK
  0
BLOCK
  8
LAYER_2
  2
AIGNBL02020097
 70
64
 10
0
 20
0
 30
0
  3
AIGNBL02020097
  0
POLYLINE
  8
LAYER_2
 40
0.2469
 41
0.2469
 66
1
 10
0
 20
0
 30
0
  0
VERTEX
  8
LAYER_2
 10
49.1672
 20
210.6362
  0
VERTEX
  8
LAYER_2
 10
49.7794
 20
211.2164
  0
SEQEND
  0
ENDBLK
  0
BLOCK
  8
LAYER_2
  2
AIGNBL02020098
 70
64
 10
0
 20
0
 30
0
  3
AIGNBL02020098
  0
POLYLINE
  8
LAYER_2
 40
0.2469
 41
0.2469
 66
1
 10
0
 20
0
 30
0
  0
VERTEX
  8
LAYER_2
 10
49.0018
 20
203.1621
  0
VERTEX
  8
LAYER_2
 10
49.0294
 20
204.2163
  0
SEQEND
  0
ENDBLK
  0
BLOCK
  8
LAYER_2
  2
AIGNBL02020099
 70
64
 10
0
 20
0
 30
0
  3
AIGNBL02020099
  0
POLYLINE
  8
LAYER_2
 40
0.2469
 41
0.2469
 66
1
 10
0
 20
0
 30
0
  0
VERTEX
  8
LAYER_2
 10
49.6164
 20
204.4664
  0
VERTEX
  8
LAYER_2
 10
49.7804
 20
211.2164
  0
SEQEND
  0
ENDBLK
  0
BLOCK
  8
LAYER_2
  2
AIGNBL0202009A
 70
64
 10
0
 20
0
 30
0
  3
AIGNBL0202009A
  0
POLYLINE
  8
LAYER_2
 40
0.2469
 41
0.2469
 66
1
 10
0
 20
0
 30
0
  0
VERTEX
  8
LAYER_2
 10
49.6106
 20
204.4664
  0
VERTEX
  8
LAYER_2
 10
49.0018
 20
203.4122
  0
SEQEND
  0
ENDBLK
  0
BLOCK
  8
LAYER_2
  2
AIGNBL0202009B
 70
64
 10
0
 20
0
 30
0
  3
AIGNBL0202009B
  0
POLYLINE
  8
LAYER_2
 40
0.2469
 41
0.2469
 66
1
 10
0
 20
0
 30
0
  0
VERTEX
  8
LAYER_2
 10
49.0018
 20
181.5207
  0
VERTEX
  8
LAYER_2
 10
49.6106
 20
180.4665
  0
SEQEND
  0
ENDBLK
  0
BLOCK
  8
LAYER_2
  2
AIGNBL0202009C
 70
64
 10
0
 20
0
 30
0
  3
AIGNBL0202009C
  0
POLYLINE
  8
LAYER_2
 40
0.2469
 41
0.2469
 66
1
 10
0
 20
0
 30
0
  0
VERTEX
  8
LAYER_2
 10
49.6712
 20
178.2165
  0
VERTEX
  8
LAYER_2
 10
49.6164
 20
180.4665
  0
SEQEND
  0
ENDBLK
  0
BLOCK
  8
LAYER_2
  2
AIGNBL0202009D
 70
64
 10
0
 20
0
 30
0
  3
AIGNBL0202009D
  0
POLYLINE
  8
LAYER_2
 40
0.2469
 41
0.2469
 66
1
 10
0
 20
0
 30
0
  0
VERTEX
  8
LAYER_2
 10
49.0294
 20
180.7166
  0
VERTEX
  8
LAYER_2
 10
49.0018
 20
181.7708
  0
SEQEND
  0
ENDBLK
  0
BLOCK
  8
LAYER_2
  2
AIGNBL0202009E
 70
64
 10
0
 20
0
 30
0
  3
AIGNBL0202009E
  0
POLYLINE
  8
LAYER_2
 40
0.2469
 41
0.2469
 66
1
 10
0
 20
0
 30
0
  0
VERTEX
  8
LAYER_2
 10
49.0831
 20
178.2165
  0
VERTEX
  8
LAYER_2
 10
49.0294
 20
180.7166
  0
SEQEND
  0
ENDBLK
  0
BLOCK
  8
LAYER_2
  2
AIGNBL0202009F
 70
64
 10
0
 20
0
 30
0
  3
AIGNBL0202009F
  0
POLYLINE
  8
LAYER_2
 40
0.2469
 41
0.2469
 66
1
 10
0
 20
0
 30
0
  0
VERTEX
  8
LAYER_2
 10
49.0018
 20
181.7708
  0
VERTEX
  8
LAYER_2
 10
49.0018
 20
192.4665
  0
SEQEND
  0
ENDBLK
  0
BLOCK
  8
LAYER_2
  2
AIGNBL020200A0
 70
64
 10
0
 20
0
 30
0
  3
AIGNBL020200A0
  0
POLYLINE
  8
LAYER_2
 40
0.2469
 41
0.2469
 66
1
 10
0
 20
0
 30
0
  0
VERTEX
  8
LAYER_2
 10
49.0018
 20
192.4665
  0
VERTEX
  8
LAYER_2
 10
49.0018
 20
192.9574
  0
SEQEND
  0
ENDBLK
  0
BLOCK
  8
LAYER_2
  2
AIGNBL020200A1
 70
64
 10
0
 20
0
 30
0
  3
AIGNBL020200A1
  0
POLYLINE
  8
LAYER_2
 40
0.2469
 41
0.2469
 66
1
 10
0
 20
0
 30
0
  0
VERTEX
  8
LAYER_2
 10
58.2767
 20
211.2164
  0
VERTEX
  8
LAYER_2
 10
50.0267
 20
211.2164
  0
SEQEND
  0
ENDBLK
  0
BLOCK
  8
LAYER_2
  2
AIGNBL020200A2
 70
64
 10
0
 20
0
 30
0
  3
AIGNBL020200A2
  0
POLYLINE
  8
LAYER_2
  6
AIGENLINE002
 40
0.2469
 41
0.2469
 66
1
 10
0
 20
0
 30
0
 70
128
  0
VERTEX
  8
LAYER_2
 10
54.1519
 20
172.3161
  0
VERTEX
  8
LAYER_2
 10
54.1519
 20
212.5572
  0
SEQEND
  0
ENDBLK
  0
BLOCK
  8
LAYER_2
  2
AIGNBL020200A3
 70
64
 10
0
 20
0
 30
0
  3
AIGNBL020200A3
  0
POLYLINE
  8
LAYER_2
 40
0.2469
 41
0.2469
 66
1
 10
0
 20
0
 30
0
  0
VERTEX
  8
LAYER_2
 10
59.302
 20
203.1621
  0
VERTEX
  8
LAYER_2
 10
59.302
 20
200.9576
  0
SEQEND
  0
ENDBLK
  0
BLOCK
  8
LAYER_2
  2
AIGNBL020200A4
 70
64
 10
0
 20
0
 30
0
  3
AIGNBL020200A4
  0
POLYLINE
  8
LAYER_2
 40
0.2469
 41
0.2469
 66
1
 10
0
 20
0
 30
0
  0
VERTEX
  8
LAYER_2
 10
59.302
 20
192.4665
  0
VERTEX
  8
LAYER_2
 10
59.302
 20
181.7708
  0
SEQEND
  0
ENDBLK
  0
BLOCK
  8
LAYER_2
  2
AIGNBL020200A5
 70
64
 10
0
 20
0
 30
0
  3
AIGNBL020200A5
  0
POLYLINE
  8
LAYER_2
 40
0.2469
 41
0.2469
 66
1
 10
0
 20
0
 30
0
  0
VERTEX
  8
LAYER_2
 10
59.2744
 20
180.7166
  0
VERTEX
  8
LAYER_2
 10
59.2207
 20
178.2165
  0
SEQEND
  0
ENDBLK
  0
BLOCK
  8
LAYER_2
  2
AIGNBL020200A6
 70
64
 10
0
 20
0
 30
0
  3
AIGNBL020200A6
  0
POLYLINE
  8
LAYER_2
 40
0.2469
 41
0.2469
 66
1
 10
0
 20
0
 30
0
  0
VERTEX
  8
LAYER_2
 10
49.0294
 20
180.4665
  0
VERTEX
  8
LAYER_2
 10
59.2744
 20
180.4665
  0
SEQEND
  0
ENDBLK
  0
BLOCK
  8
LAYER_2
  2
AIGNBL020200A7
 70
64
 10
0
 20
0
 30
0
  3
AIGNBL020200A7
  0
POLYLINE
  8
LAYER_2
 40
0.2469
 41
0.2469
 66
1
 10
0
 20
0
 30
0
  0
VERTEX
  8
LAYER_2
 10
59.302
 20
181.7708
  0
VERTEX
  8
LAYER_2
 10
59.2744
 20
180.7166
  0
SEQEND
  0
ENDBLK
  0
BLOCK
  8
LAYER_2
  2
AIGNBL020200A8
 70
64
 10
0
 20
0
 30
0
  3
AIGNBL020200A8
  0
POLYLINE
  8
LAYER_2
 40
0.2469
 41
0.2469
 66
1
 10
0
 20
0
 30
0
  0
VERTEX
  8
LAYER_2
 10
58.687
 20
180.4665
  0
VERTEX
  8
LAYER_2
 10
58.6326
 20
178.2165
  0
SEQEND
  0
ENDBLK
  0
BLOCK
  8
LAYER_2
  2
AIGNBL020200A9
 70
64
 10
0
 20
0
 30
0
  3
AIGNBL020200A9
  0
POLYLINE
  8
LAYER_2
 40
0.2469
 41
0.2469
 66
1
 10
0
 20
0
 30
0
  0
VERTEX
  8
LAYER_2
 10
58.6929
 20
180.4665
  0
VERTEX
  8
LAYER_2
 10
59.302
 20
181.5207
  0
SEQEND
  0
ENDBLK
  0
BLOCK
  8
LAYER_2
  2
AIGNBL020200AA
 70
64
 10
0
 20
0
 30
0
  3
AIGNBL020200AA
  0
POLYLINE
  8
LAYER_2
 40
0.2469
 41
0.2469
 66
1
 10
0
 20
0
 30
0
  0
VERTEX
  8
LAYER_2
 10
59.302
 20
203.4122
  0
VERTEX
  8
LAYER_2
 10
58.6929
 20
204.4664
  0
SEQEND
  0
ENDBLK
  0
BLOCK
  8
LAYER_2
  2
AIGNBL020200AB
 70
64
 10
0
 20
0
 30
0
  3
AIGNBL020200AB
  0
POLYLINE
  8
LAYER_2
 40
0.2469
 41
0.2469
 66
1
 10
0
 20
0
 30
0
  0
VERTEX
  8
LAYER_2
 10
58.5234
 20
211.2164
  0
VERTEX
  8
LAYER_2
 10
58.687
 20
204.4664
  0
SEQEND
  0
ENDBLK
  0
BLOCK
  8
LAYER_2
  2
AIGNBL020200AC
 70
64
 10
0
 20
0
 30
0
  3
AIGNBL020200AC
  0
POLYLINE
  8
LAYER_2
 40
0.2469
 41
0.2469
 66
1
 10
0
 20
0
 30
0
  0
VERTEX
  8
LAYER_2
 10
59.2744
 20
204.2163
  0
VERTEX
  8
LAYER_2
 10
59.302
 20
203.1621
  0
SEQEND
  0
ENDBLK
  0
BLOCK
  8
LAYER_2
  2
AIGNBL020200AD
 70
64
 10
0
 20
0
 30
0
  3
AIGNBL020200AD
  0
POLYLINE
  8
LAYER_2
 40
0.2469
 41
0.2469
 66
1
 10
0
 20
0
 30
0
  0
VERTEX
  8
LAYER_2
 10
58.5241
 20
211.2164
  0
VERTEX
  8
LAYER_2
 10
59.1366
 20
210.6362
  0
SEQEND
  0
ENDBLK
  0
BLOCK
  8
LAYER_2
  2
AIGNBL020200AE
 70
64
 10
0
 20
0
 30
0
  3
AIGNBL020200AE
  0
POLYLINE
  8
LAYER_2
 40
0.2469
 41
0.2469
 66
1
 10
0
 20
0
 30
0
  0
VERTEX
  8
LAYER_2
 10
59.2744
 20
204.4664
  0
VERTEX
  8
LAYER_2
 10
49.6106
 20
204.4664
  0
SEQEND
  0
ENDBLK
  0
BLOCK
  8
LAYER_2
  2
AIGNBL020200AF
 70
64
 10
0
 20
0
 30
0
  3
AIGNBL020200AF
  0
POLYLINE
  8
LAYER_2
 40
0.2469
 41
0.2469
 66
1
 10
0
 20
0
 30
0
  0
VERTEX
  8
LAYER_2
 10
59.1366
 20
210.6362
  0
VERTEX
  8
LAYER_2
 10
59.2744
 20
204.2163
  0
SEQEND
  0
ENDBLK
  0
BLOCK
  8
LAYER_2
  2
AIGNBL020200B0
 70
64
 10
0
 20
0
 30
0
  3
AIGNBL020200B0
  0
POLYLINE
  8
LAYER_2
 40
0.2469
 41
0.2469
 66
1
 10
0
 20
0
 30
0
  0
VERTEX
  8
LAYER_2
 10
58.5234
 20
211.2164
  0
VERTEX
  8
LAYER_2
 10
58.2767
 20
211.2164
  0
SEQEND
  0
ENDBLK
  0
BLOCK
  8
LAYER_2
  2
AIGNBL020200B1
 70
64
 10
0
 20
0
 30
0
  3
AIGNBL020200B1
  0
POLYLINE
  8
LAYER_2
 40
0.2469
 41
0.2469
 66
1
 10
0
 20
0
 30
0
  0
VERTEX
  8
LAYER_2
 10
58.5241
 20
211.2164
  0
VERTEX
  8
LAYER_2
 10
58.5234
 20
211.2164
  0
SEQEND
  0
ENDBLK
  0
BLOCK
  8
LAYER_2
  2
AIGNBL020200B2
 70
64
 10
0
 20
0
 30
0
  3
AIGNBL020200B2
  0
POLYLINE
  8
LAYER_2
 40
0.2469
 41
0.2469
 66
1
 10
0
 20
0
 30
0
  0
VERTEX
  8
LAYER_2
 10
49.0018
 20
200.9576
  0
VERTEX
  8
LAYER_2
 10
49.0018
 20
203.1621
  0
SEQEND
  0
ENDBLK
  0
BLOCK
  8
LAYER_2
  2
AIGNBL020200B3
 70
64
 10
0
 20
0
 30
0
  3
AIGNBL020200B3
  0
POLYLINE
  8
LAYER_2
 40
0.2469
 41
0.2469
 66
1
 10
0
 20
0
 30
0
  0
VERTEX
  8
LAYER_2
 10
59.302
 20
192.9574
  0
VERTEX
  8
LAYER_2
 10
59.302
 20
192.4665
  0
SEQEND
  0
ENDBLK
  0
BLOCK
  8
LAYER_2
  2
AIGNBL020200B4
 70
64
 10
0
 20
0
 30
0
  3
AIGNBL020200B4
  0
POLYLINE
  8
LAYER_2
 40
0.2469
 41
0.2469
 66
1
 10
0
 20
0
 30
0
  0
VERTEX
  8
LAYER_2
 10
155.7493
 20
79.4925
  0
VERTEX
  8
LAYER_2
 10
155.2581
 20
79.4925
  0
SEQEND
  0
ENDBLK
  0
BLOCK
  8
LAYER_2
  2
AIGNBL020200B5
 70
64
 10
0
 20
0
 30
0
  3
AIGNBL020200B5
  0
POLYLINE
  8
LAYER_2
 40
0.2469
 41
0.2469
 66
1
 10
0
 20
0
 30
0
  0
VERTEX
  8
LAYER_2
 10
163.7495
 20
89.7923
  0
VERTEX
  8
LAYER_2
 10
165.9537
 20
89.7923
  0
SEQEND
  0
ENDBLK
  0
BLOCK
  8
LAYER_2
  2
AIGNBL020200CB
 70
64
 10
0
 20
0
 30
0
  3
AIGNBL020200CB
  0
POLYLINE
  8
LAYER_2
 40
0.2469
 41
0.2469
 66
1
 10
0
 20
0
 30
0
  0
VERTEX
  8
LAYER_2
 10
174.0083
 20
60.6423
  0
VERTEX
  8
LAYER_2
 10
127.0083
 20
60.6423
  0
SEQEND
  0
ENDBLK
  0
BLOCK
  8
LAYER_2
  2
AIGNBL020200CC
 70
64
 10
0
 20
0
 30
0
  3
AIGNBL020200CC
  0
POLYLINE
  8
LAYER_2
 40
0.2469
 41
0.2469
 66
1
 10
0
 20
0
 30
0
  0
VERTEX
  8
LAYER_2
 10
127.0083
 20
75.3925
  0
VERTEX
  8
LAYER_2
 10
127.0083
 20
59.6425
  0
SEQEND
  0
ENDBLK
  0
BLOCK
  8
LAYER_2
  2
AIGNBL020200CD
 70
64
 10
0
 20
0
 30
0
  3
AIGNBL020200CD
  0
POLYLINE
  8
LAYER_2
 40
0.2469
 41
0.2469
 66
1
 10
0
 20
0
 30
0
  0
VERTEX
  8
LAYER_2
 10
174.0083
 20
80.27
  0
VERTEX
  8
LAYER_2
 10
174.0083
 20
59.6425
  0
SEQEND
  0
ENDBLK
  0
BLOCK
  8
LAYER_2
  2
AIGNBL020200CE
 70
64
 10
0
 20
0
 30
0
  3
AIGNBL020200CE
  0
POLYLINE
  8
LAYER_2
 40
0.05
 41
0.05
 66
1
 10
0
 20
0
 30
0
 70
1
  0
VERTEX
  8
LAYER_2
 10
170.5081
 20
60.1817
  0
VERTEX
  8
LAYER_2
 10
170.5081
 20
61.1032
  0
VERTEX
  8
LAYER_2
 10
174.0083
 20
60.6423
  0
SEQEND
  0
ENDBLK
  0
BLOCK
  8
LAYER_2
  2
AIGNBL020200CF
 70
64
 10
0
 20
0
 30
0
  3
AIGNBL020200CF
  0
POLYLINE
  8
LAYER_2
 40
0.05
 41
0.05
 66
1
 10
0
 20
0
 30
0
 70
1
  0
VERTEX
  8
LAYER_2
 10
130.5085
 20
61.1032
  0
VERTEX
  8
LAYER_2
 10
130.5085
 20
60.1817
  0
VERTEX
  8
LAYER_2
 10
127.0083
 20
60.6423
  0
SEQEND
  0
ENDBLK
  0
BLOCK
  8
LAYER_2
  2
AIGNBL020200D0
 70
64
 10
0
 20
0
 30
0
  3
AIGNBL020200D0
  0
TEXT
  8
LAYER_2
 10
147.4301
 20
61.4846
 11
147.4301
 21
61.4846
 40
6.0978
 41
0.5
  1
94
  0
ENDBLK
  0
BLOCK
  8
LAYER_2
  2
AIGNBL020200D2
 70
64
 10
0
 20
0
 30
0
  3
AIGNBL020200D2
  0
POLYLINE
  8
LAYER_2
 40
0.2469
 41
0.2469
 66
1
 10
0
 20
0
 30
0
  0
VERTEX
  8
LAYER_2
 10
184.0081
 20
69.6423
  0
VERTEX
  8
LAYER_2
 10
184.0081
 20
99.6425
  0
SEQEND
  0
ENDBLK
  0
BLOCK
  8
LAYER_2
  2
AIGNBL020200D3
 70
64
 10
0
 20
0
 30
0
  3
AIGNBL020200D3
  0
POLYLINE
  8
LAYER_2
 40
0.2469
 41
0.2469
 66
1
 10
0
 20
0
 30
0
  0
VERTEX
  8
LAYER_2
 10
163.7495
 20
99.6425
  0
VERTEX
  8
LAYER_2
 10
185.0085
 20
99.6425
  0
SEQEND
  0
ENDBLK
  0
BLOCK
  8
LAYER_2
  2
AIGNBL020200D4
 70
64
 10
0
 20
0
 30
0
  3
AIGNBL020200D4
  0
POLYLINE
  8
LAYER_2
 40
0.2469
 41
0.2469
 66
1
 10
0
 20
0
 30
0
  0
VERTEX
  8
LAYER_2
 10
163.7495
 20
69.6423
  0
VERTEX
  8
LAYER_2
 10
185.0085
 20
69.6423
  0
SEQEND
  0
ENDBLK
  0
BLOCK
  8
LAYER_2
  2
AIGNBL020200D5
 70
64
 10
0
 20
0
 30
0
  3
AIGNBL020200D5
  0
POLYLINE
  8
LAYER_2
 40
0.05
 41
0.05
 66
1
 10
0
 20
0
 30
0
 70
1
  0
VERTEX
  8
LAYER_2
 10
183.5478
 20
73.1425
  0
VERTEX
  8
LAYER_2
 10
184.469
 20
73.1425
  0
VERTEX
  8
LAYER_2
 10
184.0081
 20
69.6423
  0
SEQEND
  0
ENDBLK
  0
BLOCK
  8
LAYER_2
  2
AIGNBL020200D6
 70
64
 10
0
 20
0
 30
0
  3
AIGNBL020200D6
  0
POLYLINE
  8
LAYER_2
 40
0.05
 41
0.05
 66
1
 10
0
 20
0
 30
0
 70
1
  0
VERTEX
  8
LAYER_2
 10
184.469
 20
96.1423
  0
VERTEX
  8
LAYER_2
 10
183.5478
 20
96.1423
  0
VERTEX
  8
LAYER_2
 10
184.0081
 20
99.6425
  0
SEQEND
  0
ENDBLK
  0
BLOCK
  8
LAYER_2
  2
AIGNBL020200D7
 70
64
 10
0
 20
0
 30
0
  3
AIGNBL020200D7
  0
TEXT
  8
LAYER_2
 10
182.6631
 20
81.8272
 11
182.6631
 21
81.8272
 40
6.0978
 41
0.5
 50
89.99999999
  1
60
  0
ENDBLK
  0
BLOCK
  8
LAYER_2
  2
AIGNBL020200D9
 70
64
 10
0
 20
0
 30
0
  3
AIGNBL020200D9
  0
POLYLINE
  8
LAYER_2
 40
0.2469
 41
0.2469
 66
1
 10
0
 20
0
 30
0
  0
VERTEX
  8
LAYER_2
 10
79.1519
 20
207.9577
  0
VERTEX
  8
LAYER_2
 10
79.1519
 20
200.9576
  0
SEQEND
  0
ENDBLK
  0
BLOCK
  8
LAYER_2
  2
AIGNBL020200DA
 70
64
 10
0
 20
0
 30
0
  3
AIGNBL020200DA
  0
POLYLINE
  8
LAYER_2
 40
0.2469
 41
0.2469
 66
1
 10
0
 20
0
 30
0
  0
VERTEX
  8
LAYER_2
 10
79.1519
 20
200.9576
  0
VERTEX
  8
LAYER_2
 10
79.1519
 20
192.9574
  0
SEQEND
  0
ENDBLK
  0
BLOCK
  8
LAYER_2
  2
AIGNBL020200DB
 70
64
 10
0
 20
0
 30
0
  3
AIGNBL020200DB
  0
POLYLINE
  8
LAYER_2
 40
0.2469
 41
0.2469
 66
1
 10
0
 20
0
 30
0
  0
VERTEX
  8
LAYER_2
 10
79.1519
 20
192.9574
  0
VERTEX
  8
LAYER_2
 10
79.1519
 20
185.9573
  0
SEQEND
  0
ENDBLK
  0
BLOCK
  8
LAYER_2
  2
AIGNBL020200DC
 70
64
 10
0
 20
0
 30
0
  3
AIGNBL020200DC
  0
POLYLINE
  8
LAYER_2
 40
0.2469
 41
0.2469
 66
1
 10
0
 20
0
 30
0
  0
VERTEX
  8
LAYER_2
 10
60.2539
 20
192.9574
  0
VERTEX
  8
LAYER_2
 10
80.1517
 20
192.9574
  0
SEQEND
  0
ENDBLK
  0
BLOCK
  8
LAYER_2
  2
AIGNBL020200DD
 70
64
 10
0
 20
0
 30
0
  3
AIGNBL020200DD
  0
POLYLINE
  8
LAYER_2
 40
0.2469
 41
0.2469
 66
1
 10
0
 20
0
 30
0
  0
VERTEX
  8
LAYER_2
 10
69.1519
 20
200.9576
  0
VERTEX
  8
LAYER_2
 10
80.1517
 20
200.9576
  0
SEQEND
  0
ENDBLK
  0
BLOCK
  8
LAYER_2
  2
AIGNBL020200DE
 70
64
 10
0
 20
0
 30
0
  3
AIGNBL020200DE
  0
POLYLINE
  8
LAYER_2
 40
0.05
 41
0.05
 66
1
 10
0
 20
0
 30
0
 70
1
  0
VERTEX
  8
LAYER_2
 10
78.691
 20
204.4575
  0
VERTEX
  8
LAYER_2
 10
79.6129
 20
204.4575
  0
VERTEX
  8
LAYER_2
 10
79.1519
 20
200.9576
  0
SEQEND
  0
ENDBLK
  0
BLOCK
  8
LAYER_2
  2
AIGNBL020200DF
 70
64
 10
0
 20
0
 30
0
  3
AIGNBL020200DF
  0
POLYLINE
  8
LAYER_2
 40
0.05
 41
0.05
 66
1
 10
0
 20
0
 30
0
 70
1
  0
VERTEX
  8
LAYER_2
 10
79.6129
 20
189.4575
  0
VERTEX
  8
LAYER_2
 10
78.691
 20
189.4575
  0
VERTEX
  8
LAYER_2
 10
79.1519
 20
192.9574
  0
SEQEND
  0
ENDBLK
  0
BLOCK
  8
LAYER_2
  2
AIGNBL020200E0
 70
64
 10
0
 20
0
 30
0
  3
AIGNBL020200E0
  0
TEXT
  8
LAYER_2
 10
78.3062
 20
193.9575
 11
78.3062
 21
193.9575
 40
6.0978
 41
0.5
 50
89.99999999
  1
16
  0
ENDBLK
  0
BLOCK
  8
LAYER_2
  2
AIGNBL020200E2
 70
64
 10
0
 20
0
 30
0
  3
AIGNBL020200E2
  0
POLYLINE
  8
LAYER_2
 40
0.2469
 41
0.2469
 66
1
 10
0
 20
0
 30
0
  0
VERTEX
  8
LAYER_2
 10
92.8586
 20
99.6425
  0
VERTEX
  8
LAYER_2
 10
92.8586
 20
84.6426
  0
SEQEND
  0
ENDBLK
  0
BLOCK
  8
LAYER_2
  2
AIGNBL020200E3
 70
64
 10
0
 20
0
 30
0
  3
AIGNBL020200E3
  0
POLYLINE
  8
LAYER_2
 40
0.2469
 41
0.2469
 66
1
 10
0
 20
0
 30
0
  0
VERTEX
  8
LAYER_2
 10
99.8583
 20
84.6426
  0
VERTEX
  8
LAYER_2
 10
91.8588
 20
84.6426
  0
SEQEND
  0
ENDBLK
  0
BLOCK
  8
LAYER_2
  2
AIGNBL020200E4
 70
64
 10
0
 20
0
 30
0
  3
AIGNBL020200E4
  0
POLYLINE
  8
LAYER_2
 40
0.2469
 41
0.2469
 66
1
 10
0
 20
0
 30
0
  0
VERTEX
  8
LAYER_2
 10
122.3395
 20
99.6425
  0
VERTEX
  8
LAYER_2
 10
91.8588
 20
99.6425
  0
SEQEND
  0
ENDBLK
  0
BLOCK
  8
LAYER_2
  2
AIGNBL020200E5
 70
64
 10
0
 20
0
 30
0
  3
AIGNBL020200E5
  0
POLYLINE
  8
LAYER_2
 40
0.05
 41
0.05
 66
1
 10
0
 20
0
 30
0
 70
1
  0
VERTEX
  8
LAYER_2
 10
93.3195
 20
96.1423
  0
VERTEX
  8
LAYER_2
 10
92.3976
 20
96.1423
  0
VERTEX
  8
LAYER_2
 10
92.8586
 20
99.6425
  0
SEQEND
  0
ENDBLK
  0
BLOCK
  8
LAYER_2
  2
AIGNBL020200E6
 70
64
 10
0
 20
0
 30
0
  3
AIGNBL020200E6
  0
POLYLINE
  8
LAYER_2
 40
0.05
 41
0.05
 66
1
 10
0
 20
0
 30
0
 70
1
  0
VERTEX
  8
LAYER_2
 10
92.3976
 20
88.1424
  0
VERTEX
  8
LAYER_2
 10
93.3195
 20
88.1424
  0
VERTEX
  8
LAYER_2
 10
92.8586
 20
84.6426
  0
SEQEND
  0
ENDBLK
  0
BLOCK
  8
LAYER_2
  2
AIGNBL020200E7
 70
64
 10
0
 20
0
 30
0
  3
AIGNBL020200E7
  0
TEXT
  8
LAYER_2
 10
92.0128
 20
89.0674
 11
92.0128
 21
89.0674
 40
6.0978
 41
0.5
 50
89.99999999
  1
30
  0
ENDBLK
  0
BLOCK
  8
LAYER_2
  2
AIGNBL020200E9
 70
64
 10
0
 20
0
 30
0
  3
AIGNBL020200E9
  0
POLYLINE
  8
LAYER_2
 40
0.2469
 41
0.2469
 66
1
 10
0
 20
0
 30
0
  0
VERTEX
  8
LAYER_2
 10
36.6126
 20
183.2164
  0
VERTEX
  8
LAYER_2
 10
44.6927
 20
183.2164
  0
SEQEND
  0
ENDBLK
  0
BLOCK
  8
LAYER_2
  2
AIGNBL020200EA
 70
64
 10
0
 20
0
 30
0
  3
AIGNBL020200EA
  0
POLYLINE
  8
LAYER_2
 40
0.2469
 41
0.2469
 66
1
 10
0
 20
0
 30
0
  0
VERTEX
  8
LAYER_2
 10
44.6927
 20
183.2164
  0
VERTEX
  8
LAYER_2
 10
57.6928
 20
183.2164
  0
SEQEND
  0
ENDBLK
  0
BLOCK
  8
LAYER_2
  2
AIGNBL020200EB
 70
64
 10
0
 20
0
 30
0
  3
AIGNBL020200EB
  0
POLYLINE
  8
LAYER_2
 40
0.2469
 41
0.2469
 66
1
 10
0
 20
0
 30
0
  0
VERTEX
  8
LAYER_2
 10
60.6518
 20
178.0915
  0
VERTEX
  8
LAYER_2
 10
57.1929
 20
184.0825
  0
SEQEND
  0
ENDBLK
  0
BLOCK
  8
LAYER_2
  2
AIGNBL020200EC
 70
64
 10
0
 20
0
 30
0
  3
AIGNBL020200EC
  0
POLYLINE
  8
LAYER_2
 40
0.2469
 41
0.2469
 66
1
 10
0
 20
0
 30
0
  0
VERTEX
  8
LAYER_2
 10
47.6517
 20
178.0915
  0
VERTEX
  8
LAYER_2
 10
44.1928
 20
184.0825
  0
SEQEND
  0
ENDBLK
  0
BLOCK
  8
LAYER_2
  2
AIGNBL020200ED
 70
64
 10
0
 20
0
 30
0
  3
AIGNBL020200ED
  0
POLYLINE
  8
LAYER_2
 40
0.05
 41
0.05
 66
1
 10
0
 20
0
 30
0
 70
1
  0
VERTEX
  8
LAYER_2
 10
48.1929
 20
183.6773
  0
VERTEX
  8
LAYER_2
 10
48.1929
 20
182.7558
  0
VERTEX
  8
LAYER_2
 10
44.6927
 20
183.2164
  0
SEQEND
  0
ENDBLK
  0
BLOCK
  8
LAYER_2
  2
AIGNBL020200EE
 70
64
 10
0
 20
0
 30
0
  3
AIGNBL020200EE
  0
POLYLINE
  8
LAYER_2
 40
0.05
 41
0.05
 66
1
 10
0
 20
0
 30
0
 70
1
  0
VERTEX
  8
LAYER_2
 10
54.1929
 20
182.7558
  0
VERTEX
  8
LAYER_2
 10
54.1929
 20
183.6773
  0
VERTEX
  8
LAYER_2
 10
57.6928
 20
183.2164
  0
SEQEND
  0
ENDBLK
  0
BLOCK
  8
LAYER_2
  2
AIGNBL020200EF
 70
64
 10
0
 20
0
 30
0
  3
AIGNBL020200EF
  0
TEXT
  8
LAYER_2
 10
36.1589
 20
184.0587
 11
36.1589
 21
184.0587
 40
6.0978
 41
0.5
  1
26
  0
ENDBLK
  0
BLOCK
  8
LAYER_7
  2
AIGNBL07020004
 70
64
 10
0
 20
0
 30
0
  3
AIGNBL07020004
  0
INSERT
  8
LAYER_7
  2
AIGNBL07030005
 10
0
 20
0
 30
0
  0
ENDBLK
  0
BLOCK
  8
LAYER_7
  2
AIGNBL0702000D
 70
64
 10
0
 20
0
 30
0
  3
AIGNBL0702000D
  0
INSERT
  8
LAYER_7
  2
AIGNBL0703000E
 10
0
 20
0
 30
0
  0
INSERT
  8
LAYER_7
  2
AIGNBL0703000F
 10
0
 20
0
 30
0
  0
INSERT
  8
LAYER_7
  2
AIGNBL07030010
 10
0
 20
0
 30
0
  0
INSERT
  8
LAYER_7
  2
AIGNBL07030011
 10
0
 20
0
 30
0
  0
INSERT
  8
LAYER_7
  2
AIGNBL07030012
 10
0
 20
0
 30
0
  0
INSERT
  8
LAYER_7
  2
AIGNBL07030013
 10
0
 20
0
 30
0
  0
INSERT
  8
LAYER_7
  2
AIGNBL07030014
 10
0
 20
0
 30
0
  0
INSERT
  8
LAYER_7
  2
AIGNBL07030015
 10
0
 20
0
 30
0
  0
INSERT
  8
LAYER_7
  2
AIGNBL07030016
 10
0
 20
0
 30
0
  0
INSERT
  8
LAYER_7
  2
AIGNBL07030017
 10
0
 20
0
 30
0
  0
INSERT
  8
LAYER_7
  2
AIGNBL07030018
 10
0
 20
0
 30
0
  0
INSERT
  8
LAYER_7
  2
AIGNBL07030019
 10
0
 20
0
 30
0
  0
INSERT
  8
LAYER_7
  2
AIGNBL0703001A
 10
0
 20
0
 30
0
  0
INSERT
  8
LAYER_7
  2
AIGNBL0703001B
 10
0
 20
0
 30
0
  0
INSERT
  8
LAYER_7
  2
AIGNBL0703001C
 10
0
 20
0
 30
0
  0
INSERT
  8
LAYER_7
  2
AIGNBL0703001D
 10
0
 20
0
 30
0
  0
INSERT
  8
LAYER_7
  2
AIGNBL0703001E
 10
0
 20
0
 30
0
  0
INSERT
  8
LAYER_7
  2
AIGNBL0703001F
 10
0
 20
0
 30
0
  0
INSERT
  8
LAYER_7
  2
AIGNBL07030020
 10
0
 20
0
 30
0
  0
INSERT
  8
LAYER_7
  2
AIGNBL07030021
 10
0
 20
0
 30
0
  0
INSERT
  8
LAYER_7
  2
AIGNBL07030022
 10
0
 20
0
 30
0
  0
INSERT
  8
LAYER_7
  2
AIGNBL07030023
 10
0
 20
0
 30
0
  0
INSERT
  8
LAYER_7
  2
AIGNBL07030024
 10
0
 20
0
 30
0
  0
ENDBLK
  0
BLOCK
  8
LAYER_1
  2
AIGNBL01010002
 70
64
 10
0
 20
0
 30
0
  3
AIGNBL01010002
  0
INSERT
  8
LAYER_1
  2
AIGNBL01020003
 10
0
 20
0
 30
0
  0
INSERT
  8
LAYER_1
  2
AIGNBL01020004
 10
0
 20
0
 30
0
  0
INSERT
  8
LAYER_1
  2
AIGNBL01020005
 10
0
 20
0
 30
0
  0
INSERT
  8
LAYER_1
  2
AIGNBL01020006
 10
0
 20
0
 30
0
  0
INSERT
  8
LAYER_1
  2
AIGNBL01020007
 10
0
 20
0
 30
0
  0
INSERT
  8
LAYER_1
  2
AIGNBL01020008
 10
0
 20
0
 30
0
  0
INSERT
  8
LAYER_1
  2
AIGNBL01020009
 10
0
 20
0
 30
0
  0
INSERT
  8
LAYER_1
  2
AIGNBL0102000A
 10
0
 20
0
 30
0
  0
INSERT
  8
LAYER_1
  2
AIGNBL0102000B
 10
0
 20
0
 30
0
  0
INSERT
  8
LAYER_1
  2
AIGNBL0102000C
 10
0
 20
0
 30
0
  0
INSERT
  8
LAYER_1
  2
AIGNBL0102000D
 10
0
 20
0
 30
0
  0
INSERT
  8
LAYER_1
  2
AIGNBL0102000E
 10
0
 20
0
 30
0
  0
INSERT
  8
LAYER_1
  2
AIGNBL0102000F
 10
0
 20
0
 30
0
  0
INSERT
  8
LAYER_1
  2
AIGNBL01020010
 10
0
 20
0
 30
0
  0
INSERT
  8
LAYER_1
  2
AIGNBL01020011
 10
0
 20
0
 30
0
  0
INSERT
  8
LAYER_1
  2
AIGNBL01020012
 10
0
 20
0
 30
0
  0
INSERT
  8
LAYER_1
  2
AIGNBL01020013
 10
0
 20
0
 30
0
  0
INSERT
  8
LAYER_1
  2
AIGNBL01020014
 10
0
 20
0
 30
0
  0
INSERT
  8
LAYER_1
  2
AIGNBL01020015
 10
0
 20
0
 30
0
  0
INSERT
  8
LAYER_1
  2
AIGNBL01020016
 10
0
 20
0
 30
0
  0
INSERT
  8
LAYER_1
  2
AIGNBL01020017
 10
0
 20
0
 30
0
  0
INSERT
  8
LAYER_1
  2
AIGNBL01020018
 10
0
 20
0
 30
0
  0
INSERT
  8
LAYER_1
  2
AIGNBL01020019
 10
0
 20
0
 30
0
  0
INSERT
  8
LAYER_1
  2
AIGNBL0102001A
 10
0
 20
0
 30
0
  0
INSERT
  8
LAYER_1
  2
AIGNBL0102001B
 10
0
 20
0
 30
0
  0
ENDBLK
  0
BLOCK
  8
LAYER_1
  2
AIGNBL0101001C
 70
64
 10
0
 20
0
 30
0
  3
AIGNBL0101001C
  0
INSERT
  8
LAYER_1
  2
AIGNBL0102001D
 10
0
 20
0
 30
0
  0
INSERT
  8
LAYER_1
  2
AIGNBL0102001E
 10
0
 20
0
 30
0
  0
INSERT
  8
LAYER_1
  2
AIGNBL0102001F
 10
0
 20
0
 30
0
  0
INSERT
  8
LAYER_1
  2
AIGNBL01020020
 10
0
 20
0
 30
0
  0
INSERT
  8
LAYER_1
  2
AIGNBL01020021
 10
0
 20
0
 30
0
  0
INSERT
  8
LAYER_1
  2
AIGNBL01020022
 10
0
 20
0
 30
0
  0
ENDBLK
  0
BLOCK
  8
LAYER_1
  2
AIGNBL01010023
 70
64
 10
0
 20
0
 30
0
  3
AIGNBL01010023
  0
INSERT
  8
LAYER_1
  2
AIGNBL01020024
 10
0
 20
0
 30
0
  0
INSERT
  8
LAYER_1
  2
AIGNBL01020025
 10
0
 20
0
 30
0
  0
INSERT
  8
LAYER_1
  2
AIGNBL01020026
 10
0
 20
0
 30
0
  0
INSERT
  8
LAYER_1
  2
AIGNBL01020027
 10
0
 20
0
 30
0
  0
INSERT
  8
LAYER_1
  2
AIGNBL01020028
 10
0
 20
0
 30
0
  0
INSERT
  8
LAYER_1
  2
AIGNBL01020029
 10
0
 20
0
 30
0
  0
INSERT
  8
LAYER_1
  2
AIGNBL0102002A
 10
0
 20
0
 30
0
  0
INSERT
  8
LAYER_1
  2
AIGNBL0102002B
 10
0
 20
0
 30
0
  0
INSERT
  8
LAYER_1
  2
AIGNBL0102002C
 10
0
 20
0
 30
0
  0
INSERT
  8
LAYER_1
  2
AIGNBL0102002D
 10
0
 20
0
 30
0
  0
INSERT
  8
LAYER_1
  2
AIGNBL0102002E
 10
0
 20
0
 30
0
  0
INSERT
  8
LAYER_1
  2
AIGNBL0102002F
 10
0
 20
0
 30
0
  0
INSERT
  8
LAYER_1
  2
AIGNBL01020030
 10
0
 20
0
 30
0
  0
INSERT
  8
LAYER_1
  2
AIGNBL01020031
 10
0
 20
0
 30
0
  0
INSERT
  8
LAYER_1
  2
AIGNBL01020032
 10
0
 20
0
 30
0
  0
INSERT
  8
LAYER_1
  2
AIGNBL01020033
 10
0
 20
0
 30
0
  0
INSERT
  8
LAYER_1
  2
AIGNBL01020034
 10
0
 20
0
 30
0
  0
INSERT
  8
LAYER_1
  2
AIGNBL01020035
 10
0
 20
0
 30
0
  0
INSERT
  8
LAYER_1
  2
AIGNBL01020036
 10
0
 20
0
 30
0
  0
INSERT
  8
LAYER_1
  2
AIGNBL01020037
 10
0
 20
0
 30
0
  0
INSERT
  8
LAYER_1
  2
AIGNBL01020038
 10
0
 20
0
 30
0
  0
INSERT
  8
LAYER_1
  2
AIGNBL01020039
 10
0
 20
0
 30
0
  0
INSERT
  8
LAYER_1
  2
AIGNBL0102003A
 10
0
 20
0
 30
0
  0
INSERT
  8
LAYER_1
  2
AIGNBL0102003B
 10
0
 20
0
 30
0
  0
INSERT
  8
LAYER_1
  2
AIGNBL0102003C
 10
0
 20
0
 30
0
  0
INSERT
  8
LAYER_1
  2
AIGNBL0102003D
 10
0
 20
0
 30
0
  0
INSERT
  8
LAYER_1
  2
AIGNBL0102003E
 10
0
 20
0
 30
0
  0
INSERT
  8
LAYER_1
  2
AIGNBL0102003F
 10
0
 20
0
 30
0
  0
INSERT
  8
LAYER_1
  2
AIGNBL01020040
 10
0
 20
0
 30
0
  0
INSERT
  8
LAYER_1
  2
AIGNBL01020041
 10
0
 20
0
 30
0
  0
INSERT
  8
LAYER_1
  2
AIGNBL01020042
 10
0
 20
0
 30
0
  0
INSERT
  8
LAYER_1
  2
AIGNBL01020043
 10
0
 20
0
 30
0
  0
ENDBLK
  0
BLOCK
  8
LAYER_1
  2
AIGNBL01010044
 70
64
 10
0
 20
0
 30
0
  3
AIGNBL01010044
  0
INSERT
  8
LAYER_1
  2
AIGNBL01020045
 10
0
 20
0
 30
0
  0
INSERT
  8
LAYER_1
  2
AIGNBL01020046
 10
0
 20
0
 30
0
  0
INSERT
  8
LAYER_1
  2
AIGNBL01020047
 10
0
 20
0
 30
0
  0
INSERT
  8
LAYER_1
  2
AIGNBL01020048
 10
0
 20
0
 30
0
  0
INSERT
  8
LAYER_1
  2
AIGNBL01020049
 10
0
 20
0
 30
0
  0
INSERT
  8
LAYER_1
  2
AIGNBL0102004A
 10
0
 20
0
 30
0
  0
INSERT
  8
LAYER_1
  2
AIGNBL0102004B
 10
0
 20
0
 30
0
  0
INSERT
  8
LAYER_1
  2
AIGNBL0102004C
 10
0
 20
0
 30
0
  0
INSERT
  8
LAYER_1
  2
AIGNBL0102004D
 10
0
 20
0
 30
0
  0
INSERT
  8
LAYER_1
  2
AIGNBL0102004E
 10
0
 20
0
 30
0
  0
INSERT
  8
LAYER_1
  2
AIGNBL0102004F
 10
0
 20
0
 30
0
  0
INSERT
  8
LAYER_1
  2
AIGNBL01020050
 10
0
 20
0
 30
0
  0
INSERT
  8
LAYER_1
  2
AIGNBL01020051
 10
0
 20
0
 30
0
  0
INSERT
  8
LAYER_1
  2
AIGNBL01020052
 10
0
 20
0
 30
0
  0
INSERT
  8
LAYER_1
  2
AIGNBL01020053
 10
0
 20
0
 30
0
  0
INSERT
  8
LAYER_1
  2
AIGNBL01020054
 10
0
 20
0
 30
0
  0
INSERT
  8
LAYER_1
  2
AIGNBL01020055
 10
0
 20
0
 30
0
  0
INSERT
  8
LAYER_1
  2
AIGNBL01020056
 10
0
 20
0
 30
0
  0
INSERT
  8
LAYER_1
  2
AIGNBL01020057
 10
0
 20
0
 30
0
  0
INSERT
  8
LAYER_1
  2
AIGNBL01020058
 10
0
 20
0
 30
0
  0
INSERT
  8
LAYER_1
  2
AIGNBL01020059
 10
0
 20
0
 30
0
  0
INSERT
  8
LAYER_1
  2
AIGNBL0102005A
 10
0
 20
0
 30
0
  0
INSERT
  8
LAYER_1
  2
AIGNBL0102005B
 10
0
 20
0
 30
0
  0
INSERT
  8
LAYER_1
  2
AIGNBL0102005C
 10
0
 20
0
 30
0
  0
INSERT
  8
LAYER_1
  2
AIGNBL0102005D
 10
0
 20
0
 30
0
  0
INSERT
  8
LAYER_1
  2
AIGNBL0102005E
 10
0
 20
0
 30
0
  0
INSERT
  8
LAYER_1
  2
AIGNBL0102005F
 10
0
 20
0
 30
0
  0
INSERT
  8
LAYER_1
  2
AIGNBL01020060
 10
0
 20
0
 30
0
  0
INSERT
  8
LAYER_1
  2
AIGNBL01020061
 10
0
 20
0
 30
0
  0
INSERT
  8
LAYER_1
  2
AIGNBL01020062
 10
0
 20
0
 30
0
  0
INSERT
  8
LAYER_1
  2
AIGNBL01020063
 10
0
 20
0
 30
0
  0
INSERT
  8
LAYER_1
  2
AIGNBL01020064
 10
0
 20
0
 30
0
  0
INSERT
  8
LAYER_1
  2
AIGNBL01020065
 10
0
 20
0
 30
0
  0
INSERT
  8
LAYER_1
  2
AIGNBL01020066
 10
0
 20
0
 30
0
  0
INSERT
  8
LAYER_1
  2
AIGNBL01020067
 10
0
 20
0
 30
0
  0
INSERT
  8
LAYER_1
  2
AIGNBL01020068
 10
0
 20
0
 30
0
  0
INSERT
  8
LAYER_1
  2
AIGNBL01020069
 10
0
 20
0
 30
0
  0
INSERT
  8
LAYER_1
  2
AIGNBL0102006A
 10
0
 20
0
 30
0
  0
INSERT
  8
LAYER_1
  2
AIGNBL0102006B
 10
0
 20
0
 30
0
  0
INSERT
  8
LAYER_1
  2
AIGNBL0102006C
 10
0
 20
0
 30
0
  0
INSERT
  8
LAYER_1
  2
AIGNBL0102006D
 10
0
 20
0
 30
0
  0
INSERT
  8
LAYER_1
  2
AIGNBL0102006E
 10
0
 20
0
 30
0
  0
INSERT
  8
LAYER_1
  2
AIGNBL0102006F
 10
0
 20
0
 30
0
  0
ENDBLK
  0
BLOCK
  8
LAYER_1
  2
AIGNBL01010070
 70
64
 10
0
 20
0
 30
0
  3
AIGNBL01010070
  0
INSERT
  8
LAYER_1
  2
AIGNBL01020071
 10
0
 20
0
 30
0
  0
INSERT
  8
LAYER_1
  2
AIGNBL01020072
 10
0
 20
0
 30
0
  0
INSERT
  8
LAYER_1
  2
AIGNBL01020073
 10
0
 20
0
 30
0
  0
INSERT
  8
LAYER_1
  2
AIGNBL01020074
 10
0
 20
0
 30
0
  0
INSERT
  8
LAYER_1
  2
AIGNBL01020075
 10
0
 20
0
 30
0
  0
INSERT
  8
LAYER_1
  2
AIGNBL01020076
 10
0
 20
0
 30
0
  0
INSERT
  8
LAYER_1
  2
AIGNBL01020077
 10
0
 20
0
 30
0
  0
INSERT
  8
LAYER_1
  2
AIGNBL01020078
 10
0
 20
0
 30
0
  0
INSERT
  8
LAYER_1
  2
AIGNBL01020079
 10
0
 20
0
 30
0
  0
INSERT
  8
LAYER_1
  2
AIGNBL0102007A
 10
0
 20
0
 30
0
  0
INSERT
  8
LAYER_1
  2
AIGNBL0102007B
 10
0
 20
0
 30
0
  0
INSERT
  8
LAYER_1
  2
AIGNBL0102007C
 10
0
 20
0
 30
0
  0
INSERT
  8
LAYER_1
  2
AIGNBL0102007D
 10
0
 20
0
 30
0
  0
INSERT
  8
LAYER_1
  2
AIGNBL0102007E
 10
0
 20
0
 30
0
  0
INSERT
  8
LAYER_1
  2
AIGNBL0102007F
 10
0
 20
0
 30
0
  0
INSERT
  8
LAYER_1
  2
AIGNBL01020080
 10
0
 20
0
 30
0
  0
INSERT
  8
LAYER_1
  2
AIGNBL01020081
 10
0
 20
0
 30
0
  0
INSERT
  8
LAYER_1
  2
AIGNBL01020082
 10
0
 20
0
 30
0
  0
INSERT
  8
LAYER_1
  2
AIGNBL01020083
 10
0
 20
0
 30
0
  0
INSERT
  8
LAYER_1
  2
AIGNBL01020084
 10
0
 20
0
 30
0
  0
INSERT
  8
LAYER_1
  2
AIGNBL01020085
 10
0
 20
0
 30
0
  0
INSERT
  8
LAYER_1
  2
AIGNBL01020086
 10
0
 20
0
 30
0
  0
INSERT
  8
LAYER_1
  2
AIGNBL01020087
 10
0
 20
0
 30
0
  0
ENDBLK
  0
BLOCK
  8
LAYER_1
  2
AIGNBL01010088
 70
64
 10
0
 20
0
 30
0
  3
AIGNBL01010088
  0
POLYLINE
  8
LAYER_1
  6
AIGENLINE001
 40
0.2469
 41
0.2469
 66
1
 10
0
 20
0
 30
0
 70
128
  0
VERTEX
  8
LAYER_1
 10
54.1519
 20
102.6425
  0
VERTEX
  8
LAYER_1
 10
54.1519
 20
66.1424
  0
SEQEND
  0
ENDBLK
  0
BLOCK
  8
LAYER_1
  2
AIGNBL01010089
 70
64
 10
0
 20
0
 30
0
  3
AIGNBL01010089
  0
POLYLINE
  8
LAYER_1
 40
0.05
 41
0.05
 66
1
 10
0
 20
0
 30
0
 70
1
  0
VERTEX
  8
LAYER_1
 10
170.3028
 20
93.1723
  0
VERTEX
  8
LAYER_1
 10
171.1007
 20
92.7113
  0
VERTEX
  8
LAYER_1
 10
168.9516
 20
89.9108
  0
SEQEND
  0
ENDBLK
  0
BLOCK
  8
LAYER_1
  2
AIGNBL0101008A
 70
64
 10
0
 20
0
 30
0
  3
AIGNBL0101008A
  0
POLYLINE
  8
LAYER_1
 40
0.2469
 41
0.2469
 66
1
 10
0
 20
0
 30
0
  0
VERTEX
  8
LAYER_1
 10
168.9516
 20
89.9108
  0
VERTEX
  8
LAYER_1
 10
177.0924
 20
104.0102
  0
SEQEND
  0
POLYLINE
  8
LAYER_1
 40
0.2469
 41
0.2469
 66
1
 10
0
 20
0
 30
0
  0
VERTEX
  8
LAYER_1
 10
177.0924
 20
104.0102
  0
VERTEX
  8
LAYER_1
 10
189.4176
 20
104.0102
  0
SEQEND
  0
ENDBLK
  0
BLOCK
  8
LAYER_1
  2
AIGNBL0101008B
 70
64
 10
0
 20
0
 30
0
  3
AIGNBL0101008B
  0
TEXT
  8
LAYER_1
 10
177.3611
 20
105.3558
 11
177.3611
 21
105.3558
 40
6.0978
 41
0.5
  1
R1/2
  0
ENDBLK
  0
BLOCK
  8
LAYER_1
  2
AIGNBL0101008C
 70
64
 10
0
 20
0
 30
0
  3
AIGNBL0101008C
  0
INSERT
  8
LAYER_1
  2
AIGNBL0102008D
 10
0
 20
0
 30
0
  0
INSERT
  8
LAYER_1
  2
AIGNBL0102008E
 10
0
 20
0
 30
0
  0
INSERT
  8
LAYER_1
  2
AIGNBL0102008F
 10
0
 20
0
 30
0
  0
INSERT
  8
LAYER_1
  2
AIGNBL01020090
 10
0
 20
0
 30
0
  0
INSERT
  8
LAYER_1
  2
AIGNBL01020091
 10
0
 20
0
 30
0
  0
INSERT
  8
LAYER_1
  2
AIGNBL01020092
 10
0
 20
0
 30
0
  0
ENDBLK
  0
BLOCK
  8
LAYER_2
  2
AIGNBL02010002
 70
64
 10
0
 20
0
 30
0
  3
AIGNBL02010002
  0
INSERT
  8
LAYER_2
  2
AIGNBL02020003
 10
0
 20
0
 30
0
  0
INSERT
  8
LAYER_2
  2
AIGNBL02020004
 10
0
 20
0
 30
0
  0
INSERT
  8
LAYER_2
  2
AIGNBL02020005
 10
0
 20
0
 30
0
  0
INSERT
  8
LAYER_2
  2
AIGNBL02020006
 10
0
 20
0
 30
0
  0
INSERT
  8
LAYER_2
  2
AIGNBL02020007
 10
0
 20
0
 30
0
  0
INSERT
  8
LAYER_2
  2
AIGNBL02020008
 10
0
 20
0
 30
0
  0
INSERT
  8
LAYER_2
  2
AIGNBL02020009
 10
0
 20
0
 30
0
  0
INSERT
  8
LAYER_2
  2
AIGNBL0202000A
 10
0
 20
0
 30
0
  0
INSERT
  8
LAYER_2
  2
AIGNBL0202000B
 10
0
 20
0
 30
0
  0
INSERT
  8
LAYER_2
  2
AIGNBL0202000C
 10
0
 20
0
 30
0
  0
INSERT
  8
LAYER_2
  2
AIGNBL0202000D
 10
0
 20
0
 30
0
  0
INSERT
  8
LAYER_2
  2
AIGNBL0202000E
 10
0
 20
0
 30
0
  0
INSERT
  8
LAYER_2
  2
AIGNBL0202000F
 10
0
 20
0
 30
0
  0
INSERT
  8
LAYER_2
  2
AIGNBL02020010
 10
0
 20
0
 30
0
  0
INSERT
  8
LAYER_2
  2
AIGNBL02020011
 10
0
 20
0
 30
0
  0
INSERT
  8
LAYER_2
  2
AIGNBL02020012
 10
0
 20
0
 30
0
  0
INSERT
  8
LAYER_2
  2
AIGNBL02020013
 10
0
 20
0
 30
0
  0
INSERT
  8
LAYER_2
  2
AIGNBL02020014
 10
0
 20
0
 30
0
  0
INSERT
  8
LAYER_2
  2
AIGNBL02020015
 10
0
 20
0
 30
0
  0
INSERT
  8
LAYER_2
  2
AIGNBL02020016
 10
0
 20
0
 30
0
  0
INSERT
  8
LAYER_2
  2
AIGNBL02020017
 10
0
 20
0
 30
0
  0
INSERT
  8
LAYER_2
  2
AIGNBL02020018
 10
0
 20
0
 30
0
  0
INSERT
  8
LAYER_2
  2
AIGNBL02020019
 10
0
 20
0
 30
0
  0
INSERT
  8
LAYER_2
  2
AIGNBL0202001A
 10
0
 20
0
 30
0
  0
INSERT
  8
LAYER_2
  2
AIGNBL0202001B
 10
0
 20
0
 30
0
  0
INSERT
  8
LAYER_2
  2
AIGNBL0202001C
 10
0
 20
0
 30
0
  0
INSERT
  8
LAYER_2
  2
AIGNBL0202001D
 10
0
 20
0
 30
0
  0
INSERT
  8
LAYER_2
  2
AIGNBL0202001E
 10
0
 20
0
 30
0
  0
INSERT
  8
LAYER_2
  2
AIGNBL0202001F
 10
0
 20
0
 30
0
  0
INSERT
  8
LAYER_2
  2
AIGNBL02020020
 10
0
 20
0
 30
0
  0
INSERT
  8
LAYER_2
  2
AIGNBL02020021
 10
0
 20
0
 30
0
  0
INSERT
  8
LAYER_2
  2
AIGNBL02020022
 10
0
 20
0
 30
0
  0
INSERT
  8
LAYER_2
  2
AIGNBL02020023
 10
0
 20
0
 30
0
  0
INSERT
  8
LAYER_2
  2
AIGNBL02020024
 10
0
 20
0
 30
0
  0
INSERT
  8
LAYER_2
  2
AIGNBL02020025
 10
0
 20
0
 30
0
  0
INSERT
  8
LAYER_2
  2
AIGNBL02020026
 10
0
 20
0
 30
0
  0
INSERT
  8
LAYER_2
  2
AIGNBL02020027
 10
0
 20
0
 30
0
  0
INSERT
  8
LAYER_2
  2
AIGNBL02020028
 10
0
 20
0
 30
0
  0
INSERT
  8
LAYER_2
  2
AIGNBL02020029
 10
0
 20
0
 30
0
  0
INSERT
  8
LAYER_2
  2
AIGNBL0202002A
 10
0
 20
0
 30
0
  0
INSERT
  8
LAYER_2
  2
AIGNBL0202002B
 10
0
 20
0
 30
0
  0
INSERT
  8
LAYER_2
  2
AIGNBL0202002C
 10
0
 20
0
 30
0
  0
INSERT
  8
LAYER_2
  2
AIGNBL0202002D
 10
0
 20
0
 30
0
  0
INSERT
  8
LAYER_2
  2
AIGNBL0202002E
 10
0
 20
0
 30
0
  0
INSERT
  8
LAYER_2
  2
AIGNBL0202002F
 10
0
 20
0
 30
0
  0
INSERT
  8
LAYER_2
  2
AIGNBL02020030
 10
0
 20
0
 30
0
  0
INSERT
  8
LAYER_2
  2
AIGNBL02020031
 10
0
 20
0
 30
0
  0
INSERT
  8
LAYER_2
  2
AIGNBL02020032
 10
0
 20
0
 30
0
  0
INSERT
  8
LAYER_2
  2
AIGNBL02020033
 10
0
 20
0
 30
0
  0
INSERT
  8
LAYER_2
  2
AIGNBL02020034
 10
0
 20
0
 30
0
  0
INSERT
  8
LAYER_2
  2
AIGNBL02020035
 10
0
 20
0
 30
0
  0
INSERT
  8
LAYER_2
  2
AIGNBL02020036
 10
0
 20
0
 30
0
  0
INSERT
  8
LAYER_2
  2
AIGNBL02020037
 10
0
 20
0
 30
0
  0
INSERT
  8
LAYER_2
  2
AIGNBL02020038
 10
0
 20
0
 30
0
  0
INSERT
  8
LAYER_2
  2
AIGNBL02020039
 10
0
 20
0
 30
0
  0
INSERT
  8
LAYER_2
  2
AIGNBL0202003A
 10
0
 20
0
 30
0
  0
INSERT
  8
LAYER_2
  2
AIGNBL0202003B
 10
0
 20
0
 30
0
  0
INSERT
  8
LAYER_2
  2
AIGNBL0202003C
 10
0
 20
0
 30
0
  0
INSERT
  8
LAYER_2
  2
AIGNBL0202003D
 10
0
 20
0
 30
0
  0
INSERT
  8
LAYER_2
  2
AIGNBL0202003E
 10
0
 20
0
 30
0
  0
INSERT
  8
LAYER_2
  2
AIGNBL0202003F
 10
0
 20
0
 30
0
  0
INSERT
  8
LAYER_2
  2
AIGNBL02020040
 10
0
 20
0
 30
0
  0
INSERT
  8
LAYER_2
  2
AIGNBL02020041
 10
0
 20
0
 30
0
  0
INSERT
  8
LAYER_2
  2
AIGNBL02020042
 10
0
 20
0
 30
0
  0
INSERT
  8
LAYER_2
  2
AIGNBL02020043
 10
0
 20
0
 30
0
  0
INSERT
  8
LAYER_2
  2
AIGNBL02020044
 10
0
 20
0
 30
0
  0
INSERT
  8
LAYER_2
  2
AIGNBL02020045
 10
0
 20
0
 30
0
  0
INSERT
  8
LAYER_2
  2
AIGNBL02020046
 10
0
 20
0
 30
0
  0
INSERT
  8
LAYER_2
  2
AIGNBL02020047
 10
0
 20
0
 30
0
  0
INSERT
  8
LAYER_2
  2
AIGNBL02020048
 10
0
 20
0
 30
0
  0
INSERT
  8
LAYER_2
  2
AIGNBL02020049
 10
0
 20
0
 30
0
  0
INSERT
  8
LAYER_2
  2
AIGNBL0202004A
 10
0
 20
0
 30
0
  0
INSERT
  8
LAYER_2
  2
AIGNBL0202004B
 10
0
 20
0
 30
0
  0
INSERT
  8
LAYER_2
  2
AIGNBL0202004C
 10
0
 20
0
 30
0
  0
INSERT
  8
LAYER_2
  2
AIGNBL0202004D
 10
0
 20
0
 30
0
  0
INSERT
  8
LAYER_2
  2
AIGNBL0202004E
 10
0
 20
0
 30
0
  0
INSERT
  8
LAYER_2
  2
AIGNBL0202004F
 10
0
 20
0
 30
0
  0
INSERT
  8
LAYER_2
  2
AIGNBL02020050
 10
0
 20
0
 30
0
  0
INSERT
  8
LAYER_2
  2
AIGNBL02020051
 10
0
 20
0
 30
0
  0
INSERT
  8
LAYER_2
  2
AIGNBL02020052
 10
0
 20
0
 30
0
  0
INSERT
  8
LAYER_2
  2
AIGNBL02020053
 10
0
 20
0
 30
0
  0
INSERT
  8
LAYER_2
  2
AIGNBL02020054
 10
0
 20
0
 30
0
  0
INSERT
  8
LAYER_2
  2
AIGNBL02020055
 10
0
 20
0
 30
0
  0
INSERT
  8
LAYER_2
  2
AIGNBL02020056
 10
0
 20
0
 30
0
  0
INSERT
  8
LAYER_2
  2
AIGNBL02020057
 10
0
 20
0
 30
0
  0
INSERT
  8
LAYER_2
  2
AIGNBL02020058
 10
0
 20
0
 30
0
  0
INSERT
  8
LAYER_2
  2
AIGNBL02020059
 10
0
 20
0
 30
0
  0
INSERT
  8
LAYER_2
  2
AIGNBL0202005A
 10
0
 20
0
 30
0
  0
INSERT
  8
LAYER_2
  2
AIGNBL0202005B
 10
0
 20
0
 30
0
  0
INSERT
  8
LAYER_2
  2
AIGNBL0202005C
 10
0
 20
0
 30
0
  0
INSERT
  8
LAYER_2
  2
AIGNBL0202005D
 10
0
 20
0
 30
0
  0
INSERT
  8
LAYER_2
  2
AIGNBL0202005E
 10
0
 20
0
 30
0
  0
INSERT
  8
LAYER_2
  2
AIGNBL0202005F
 10
0
 20
0
 30
0
  0
INSERT
  8
LAYER_2
  2
AIGNBL02020060
 10
0
 20
0
 30
0
  0
INSERT
  8
LAYER_2
  2
AIGNBL02020061
 10
0
 20
0
 30
0
  0
INSERT
  8
LAYER_2
  2
AIGNBL02020062
 10
0
 20
0
 30
0
  0
INSERT
  8
LAYER_2
  2
AIGNBL02020063
 10
0
 20
0
 30
0
  0
INSERT
  8
LAYER_2
  2
AIGNBL02020064
 10
0
 20
0
 30
0
  0
INSERT
  8
LAYER_2
  2
AIGNBL02020065
 10
0
 20
0
 30
0
  0
INSERT
  8
LAYER_2
  2
AIGNBL02020066
 10
0
 20
0
 30
0
  0
INSERT
  8
LAYER_2
  2
AIGNBL02020067
 10
0
 20
0
 30
0
  0
INSERT
  8
LAYER_2
  2
AIGNBL02020068
 10
0
 20
0
 30
0
  0
INSERT
  8
LAYER_2
  2
AIGNBL02020069
 10
0
 20
0
 30
0
  0
INSERT
  8
LAYER_2
  2
AIGNBL0202006A
 10
0
 20
0
 30
0
  0
INSERT
  8
LAYER_2
  2
AIGNBL0202006B
 10
0
 20
0
 30
0
  0
INSERT
  8
LAYER_2
  2
AIGNBL0202006C
 10
0
 20
0
 30
0
  0
INSERT
  8
LAYER_2
  2
AIGNBL0202006D
 10
0
 20
0
 30
0
  0
INSERT
  8
LAYER_2
  2
AIGNBL0202006E
 10
0
 20
0
 30
0
  0
INSERT
  8
LAYER_2
  2
AIGNBL0202006F
 10
0
 20
0
 30
0
  0
INSERT
  8
LAYER_2
  2
AIGNBL02020070
 10
0
 20
0
 30
0
  0
ENDBLK
  0
BLOCK
  8
LAYER_2
  2
AIGNBL02010071
 70
64
 10
0
 20
0
 30
0
  3
AIGNBL02010071
  0
INSERT
  8
LAYER_2
  2
AIGNBL02020072
 10
0
 20
0
 30
0
  0
INSERT
  8
LAYER_2
  2
AIGNBL02020073
 10
0
 20
0
 30
0
  0
INSERT
  8
LAYER_2
  2
AIGNBL02020074
 10
0
 20
0
 30
0
  0
INSERT
  8
LAYER_2
  2
AIGNBL02020075
 10
0
 20
0
 30
0
  0
INSERT
  8
LAYER_2
  2
AIGNBL02020076
 10
0
 20
0
 30
0
  0
INSERT
  8
LAYER_2
  2
AIGNBL02020077
 10
0
 20
0
 30
0
  0
INSERT
  8
LAYER_2
  2
AIGNBL02020078
 10
0
 20
0
 30
0
  0
INSERT
  8
LAYER_2
  2
AIGNBL02020079
 10
0
 20
0
 30
0
  0
INSERT
  8
LAYER_2
  2
AIGNBL0202007A
 10
0
 20
0
 30
0
  0
INSERT
  8
LAYER_2
  2
AIGNBL0202007B
 10
0
 20
0
 30
0
  0
INSERT
  8
LAYER_2
  2
AIGNBL0202007C
 10
0
 20
0
 30
0
  0
INSERT
  8
LAYER_2
  2
AIGNBL0202007D
 10
0
 20
0
 30
0
  0
INSERT
  8
LAYER_2
  2
AIGNBL0202007E
 10
0
 20
0
 30
0
  0
INSERT
  8
LAYER_2
  2
AIGNBL0202007F
 10
0
 20
0
 30
0
  0
INSERT
  8
LAYER_2
  2
AIGNBL02020080
 10
0
 20
0
 30
0
  0
INSERT
  8
LAYER_2
  2
AIGNBL02020081
 10
0
 20
0
 30
0
  0
INSERT
  8
LAYER_2
  2
AIGNBL02020082
 10
0
 20
0
 30
0
  0
INSERT
  8
LAYER_2
  2
AIGNBL02020083
 10
0
 20
0
 30
0
  0
INSERT
  8
LAYER_2
  2
AIGNBL02020084
 10
0
 20
0
 30
0
  0
INSERT
  8
LAYER_2
  2
AIGNBL02020085
 10
0
 20
0
 30
0
  0
INSERT
  8
LAYER_2
  2
AIGNBL02020086
 10
0
 20
0
 30
0
  0
INSERT
  8
LAYER_2
  2
AIGNBL02020087
 10
0
 20
0
 30
0
  0
INSERT
  8
LAYER_2
  2
AIGNBL02020088
 10
0
 20
0
 30
0
  0
INSERT
  8
LAYER_2
  2
AIGNBL02020089
 10
0
 20
0
 30
0
  0
INSERT
  8
LAYER_2
  2
AIGNBL0202008A
 10
0
 20
0
 30
0
  0
INSERT
  8
LAYER_2
  2
AIGNBL0202008B
 10
0
 20
0
 30
0
  0
INSERT
  8
LAYER_2
  2
AIGNBL0202008C
 10
0
 20
0
 30
0
  0
INSERT
  8
LAYER_2
  2
AIGNBL0202008D
 10
0
 20
0
 30
0
  0
INSERT
  8
LAYER_2
  2
AIGNBL0202008E
 10
0
 20
0
 30
0
  0
INSERT
  8
LAYER_2
  2
AIGNBL0202008F
 10
0
 20
0
 30
0
  0
INSERT
  8
LAYER_2
  2
AIGNBL02020090
 10
0
 20
0
 30
0
  0
INSERT
  8
LAYER_2
  2
AIGNBL02020091
 10
0
 20
0
 30
0
  0
INSERT
  8
LAYER_2
  2
AIGNBL02020092
 10
0
 20
0
 30
0
  0
INSERT
  8
LAYER_2
  2
AIGNBL02020093
 10
0
 20
0
 30
0
  0
INSERT
  8
LAYER_2
  2
AIGNBL02020094
 10
0
 20
0
 30
0
  0
INSERT
  8
LAYER_2
  2
AIGNBL02020095
 10
0
 20
0
 30
0
  0
INSERT
  8
LAYER_2
  2
AIGNBL02020096
 10
0
 20
0
 30
0
  0
INSERT
  8
LAYER_2
  2
AIGNBL02020097
 10
0
 20
0
 30
0
  0
INSERT
  8
LAYER_2
  2
AIGNBL02020098
 10
0
 20
0
 30
0
  0
INSERT
  8
LAYER_2
  2
AIGNBL02020099
 10
0
 20
0
 30
0
  0
INSERT
  8
LAYER_2
  2
AIGNBL0202009A
 10
0
 20
0
 30
0
  0
INSERT
  8
LAYER_2
  2
AIGNBL0202009B
 10
0
 20
0
 30
0
  0
INSERT
  8
LAYER_2
  2
AIGNBL0202009C
 10
0
 20
0
 30
0
  0
INSERT
  8
LAYER_2
  2
AIGNBL0202009D
 10
0
 20
0
 30
0
  0
INSERT
  8
LAYER_2
  2
AIGNBL0202009E
 10
0
 20
0
 30
0
  0
INSERT
  8
LAYER_2
  2
AIGNBL0202009F
 10
0
 20
0
 30
0
  0
INSERT
  8
LAYER_2
  2
AIGNBL020200A0
 10
0
 20
0
 30
0
  0
INSERT
  8
LAYER_2
  2
AIGNBL020200A1
 10
0
 20
0
 30
0
  0
INSERT
  8
LAYER_2
  2
AIGNBL020200A2
 10
0
 20
0
 30
0
  0
INSERT
  8
LAYER_2
  2
AIGNBL020200A3
 10
0
 20
0
 30
0
  0
INSERT
  8
LAYER_2
  2
AIGNBL020200A4
 10
0
 20
0
 30
0
  0
INSERT
  8
LAYER_2
  2
AIGNBL020200A5
 10
0
 20
0
 30
0
  0
INSERT
  8
LAYER_2
  2
AIGNBL020200A6
 10
0
 20
0
 30
0
  0
INSERT
  8
LAYER_2
  2
AIGNBL020200A7
 10
0
 20
0
 30
0
  0
INSERT
  8
LAYER_2
  2
AIGNBL020200A8
 10
0
 20
0
 30
0
  0
INSERT
  8
LAYER_2
  2
AIGNBL020200A9
 10
0
 20
0
 30
0
  0
INSERT
  8
LAYER_2
  2
AIGNBL020200AA
 10
0
 20
0
 30
0
  0
INSERT
  8
LAYER_2
  2
AIGNBL020200AB
 10
0
 20
0
 30
0
  0
INSERT
  8
LAYER_2
  2
AIGNBL020200AC
 10
0
 20
0
 30
0
  0
INSERT
  8
LAYER_2
  2
AIGNBL020200AD
 10
0
 20
0
 30
0
  0
INSERT
  8
LAYER_2
  2
AIGNBL020200AE
 10
0
 20
0
 30
0
  0
INSERT
  8
LAYER_2
  2
AIGNBL020200AF
 10
0
 20
0
 30
0
  0
INSERT
  8
LAYER_2
  2
AIGNBL020200B0
 10
0
 20
0
 30
0
  0
INSERT
  8
LAYER_2
  2
AIGNBL020200B1
 10
0
 20
0
 30
0
  0
INSERT
  8
LAYER_2
  2
AIGNBL020200B2
 10
0
 20
0
 30
0
  0
INSERT
  8
LAYER_2
  2
AIGNBL020200B3
 10
0
 20
0
 30
0
  0
INSERT
  8
LAYER_2
  2
AIGNBL020200B4
 10
0
 20
0
 30
0
  0
INSERT
  8
LAYER_2
  2
AIGNBL020200B5
 10
0
 20
0
 30
0
  0
ENDBLK
  0
BLOCK
  8
LAYER_2
  2
AIGNBL020100B6
 70
64
 10
0
 20
0
 30
0
  3
AIGNBL020100B6
  0
POLYLINE
  8
LAYER_2
  6
AIGENLINE001
 40
0.2469
 41
0.2469
 66
1
 10
0
 20
0
 30
0
 70
128
  0
VERTEX
  8
LAYER_2
 10
116.243
 20
84.6426
  0
VERTEX
  8
LAYER_2
 10
99.8583
 20
84.6426
  0
SEQEND
  0
ENDBLK
  0
BLOCK
  8
LAYER_2
  2
AIGNBL020100B7
 70
64
 10
0
 20
0
 30
0
  3
AIGNBL020100B7
  0
POLYLINE
  8
LAYER_2
  6
AIGENLINE001
 40
0.2469
 41
0.2469
 66
1
 10
0
 20
0
 30
0
 70
128
  0
VERTEX
  8
LAYER_2
 10
127.0083
 20
84.6426
  0
VERTEX
  8
LAYER_2
 10
127.0083
 20
89.1425
  0
SEQEND
  0
ENDBLK
  0
BLOCK
  8
LAYER_2
  2
AIGNBL020100B8
 70
64
 10
0
 20
0
 30
0
  3
AIGNBL020100B8
  0
POLYLINE
  8
LAYER_2
  6
AIGENLINE001
 40
0.2469
 41
0.2469
 66
1
 10
0
 20
0
 30
0
 70
128
  0
VERTEX
  8
LAYER_2
 10
127.0083
 20
75.3925
  0
VERTEX
  8
LAYER_2
 10
127.0083
 20
84.6426
  0
SEQEND
  0
ENDBLK
  0
BLOCK
  8
LAYER_2
  2
AIGNBL020100B9
 70
64
 10
0
 20
0
 30
0
  3
AIGNBL020100B9
  0
POLYLINE
  8
LAYER_2
  6
AIGENLINE001
 40
0.2469
 41
0.2469
 66
1
 10
0
 20
0
 30
0
 70
128
  0
VERTEX
  8
LAYER_2
 10
177.0083
 20
84.6426
  0
VERTEX
  8
LAYER_2
 10
162.5093
 20
84.6426
  0
SEQEND
  0
ENDBLK
  0
BLOCK
  8
LAYER_2
  2
AIGNBL020100BA
 70
64
 10
0
 20
0
 30
0
  3
AIGNBL020100BA
  0
POLYLINE
  8
LAYER_2
  6
AIGENLINE001
 40
0.2469
 41
0.2469
 66
1
 10
0
 20
0
 30
0
 70
128
  0
VERTEX
  8
LAYER_2
 10
162.5093
 20
84.6426
  0
VERTEX
  8
LAYER_2
 10
135.0085
 20
84.6426
  0
SEQEND
  0
ENDBLK
  0
BLOCK
  8
LAYER_2
  2
AIGNBL020100BB
 70
64
 10
0
 20
0
 30
0
  3
AIGNBL020100BB
  0
POLYLINE
  8
LAYER_2
  6
AIGENLINE001
 40
0.2469
 41
0.2469
 66
1
 10
0
 20
0
 30
0
 70
128
  0
VERTEX
  8
LAYER_2
 10
48.5615
 20
81.4148
  0
VERTEX
  8
LAYER_2
 10
47.2786
 20
80.6741
  0
SEQEND
  0
ENDBLK
  0
BLOCK
  8
LAYER_2
  2
AIGNBL020100BC
 70
64
 10
0
 20
0
 30
0
  3
AIGNBL020100BC
  0
POLYLINE
  8
LAYER_2
  6
AIGENLINE001
 40
0.2469
 41
0.2469
 66
1
 10
0
 20
0
 30
0
 70
128
  0
VERTEX
  8
LAYER_2
 10
61.9874
 20
80.1185
  0
VERTEX
  8
LAYER_2
 10
59.7423
 20
81.4148
  0
SEQEND
  0
ENDBLK
  0
BLOCK
  8
LAYER_2
  2
AIGNBL020100BD
 70
64
 10
0
 20
0
 30
0
  3
AIGNBL020100BD
  0
POLYLINE
  8
LAYER_2
  6
AIGENLINE001
 40
0.2469
 41
0.2469
 66
1
 10
0
 20
0
 30
0
 70
128
  0
VERTEX
  8
LAYER_2
 10
38.1305
 20
93.8923
  0
VERTEX
  8
LAYER_2
 10
59.7423
 20
81.4148
  0
SEQEND
  0
ENDBLK
  0
BLOCK
  8
LAYER_2
  2
AIGNBL020100BE
 70
64
 10
0
 20
0
 30
0
  3
AIGNBL020100BE
  0
POLYLINE
  8
LAYER_2
  6
AIGENLINE001
 40
0.2469
 41
0.2469
 66
1
 10
0
 20
0
 30
0
 70
128
  0
VERTEX
  8
LAYER_2
 10
48.5615
 20
81.4148
  0
VERTEX
  8
LAYER_2
 10
70.1733
 20
93.8923
  0
SEQEND
  0
ENDBLK
  0
BLOCK
  8
LAYER_2
  2
AIGNBL020100BF
 70
64
 10
0
 20
0
 30
0
  3
AIGNBL020100BF
  0
POLYLINE
  8
LAYER_2
  6
AIGENLINE001
 40
0.2469
 41
0.2469
 66
1
 10
0
 20
0
 30
0
 70
128
  0
VERTEX
  8
LAYER_2
 10
36.1516
 20
84.6426
  0
VERTEX
  8
LAYER_2
 10
56.9018
 20
84.6426
  0
SEQEND
  0
ENDBLK
  0
BLOCK
  8
LAYER_2
  2
AIGNBL020100C0
 70
64
 10
0
 20
0
 30
0
  3
AIGNBL020100C0
  0
POLYLINE
  8
LAYER_2
  6
AIGENLINE001
 40
0.2469
 41
0.2469
 66
1
 10
0
 20
0
 30
0
 70
128
  0
VERTEX
  8
LAYER_2
 10
56.9018
 20
84.6426
  0
VERTEX
  8
LAYER_2
 10
72.1518
 20
84.6426
  0
SEQEND
  0
ENDBLK
  0
BLOCK
  8
LAYER_2
  2
AIGNBL020100C1
 70
64
 10
0
 20
0
 30
0
  3
AIGNBL020100C1
  0
POLYLINE
  8
LAYER_2
  6
AIGENLINE001
 40
0.2469
 41
0.2469
 66
1
 10
0
 20
0
 30
0
 70
128
  0
VERTEX
  8
LAYER_2
 10
135.0085
 20
84.6426
  0
VERTEX
  8
LAYER_2
 10
132.0312
 20
84.6426
  0
SEQEND
  0
ENDBLK
  0
BLOCK
  8
LAYER_2
  2
AIGNBL020100C2
 70
64
 10
0
 20
0
 30
0
  3
AIGNBL020100C2
  0
POLYLINE
  8
LAYER_2
  6
AIGENLINE001
 40
0.2469
 41
0.2469
 66
1
 10
0
 20
0
 30
0
 70
128
  0
VERTEX
  8
LAYER_2
 10
132.0312
 20
84.6426
  0
VERTEX
  8
LAYER_2
 10
127.0083
 20
84.6426
  0
SEQEND
  0
ENDBLK
  0
BLOCK
  8
LAYER_2
  2
AIGNBL020100C3
 70
64
 10
0
 20
0
 30
0
  3
AIGNBL020100C3
  0
POLYLINE
  8
LAYER_2
  6
AIGENLINE001
 40
0.2469
 41
0.2469
 66
1
 10
0
 20
0
 30
0
 70
128
  0
VERTEX
  8
LAYER_2
 10
127.0083
 20
84.6426
  0
VERTEX
  8
LAYER_2
 10
127.0083
 20
102.6425
  0
SEQEND
  0
ENDBLK
  0
BLOCK
  8
LAYER_2
  2
AIGNBL020100C4
 70
64
 10
0
 20
0
 30
0
  3
AIGNBL020100C4
  0
POLYLINE
  8
LAYER_2
  6
AIGENLINE001
 40
0.2469
 41
0.2469
 66
1
 10
0
 20
0
 30
0
 70
128
  0
VERTEX
  8
LAYER_2
 10
127.0083
 20
84.6426
  0
VERTEX
  8
LAYER_2
 10
116.243
 20
84.6426
  0
SEQEND
  0
ENDBLK
  0
BLOCK
  8
LAYER_2
  2
AIGNBL020100C5
 70
64
 10
0
 20
0
 30
0
  3
AIGNBL020100C5
  0
POLYLINE
  8
LAYER_2
  6
AIGENLINE001
 40
0.2469
 41
0.2469
 66
1
 10
0
 20
0
 30
0
 70
128
  0
VERTEX
  8
LAYER_2
 10
54.1519
 20
137.0666
  0
VERTEX
  8
LAYER_2
 10
54.1519
 20
214.2164
  0
SEQEND
  0
ENDBLK
  0
BLOCK
  8
LAYER_2
  2
AIGNBL020100C6
 70
64
 10
0
 20
0
 30
0
  3
AIGNBL020100C6
  0
POLYLINE
  8
LAYER_2
  6
AIGENLINE001
 40
0.2469
 41
0.2469
 66
1
 10
0
 20
0
 30
0
 70
128
  0
VERTEX
  8
LAYER_2
 10
63.4016
 20
164.2167
  0
VERTEX
  8
LAYER_2
 10
44.9018
 20
164.2167
  0
SEQEND
  0
ENDBLK
  0
BLOCK
  8
LAYER_2
  2
AIGNBL020100C7
 70
64
 10
0
 20
0
 30
0
  3
AIGNBL020100C7
  0
POLYLINE
  8
LAYER_2
 40
0.05
 41
0.05
 66
1
 10
0
 20
0
 30
0
 70
1
  0
VERTEX
  8
LAYER_2
 10
119.6096
 20
100.1568
  0
VERTEX
  8
LAYER_2
 10
120.4075
 20
100.6178
  0
VERTEX
  8
LAYER_2
 10
121.7586
 20
97.3563
  0
SEQEND
  0
ENDBLK
  0
BLOCK
  8
LAYER_2
  2
AIGNBL020100C8
 70
64
 10
0
 20
0
 30
0
  3
AIGNBL020100C8
  0
POLYLINE
  8
LAYER_2
 40
0.2469
 41
0.2469
 66
1
 10
0
 20
0
 30
0
  0
VERTEX
  8
LAYER_2
 10
121.7586
 20
97.3563
  0
VERTEX
  8
LAYER_2
 10
115.9805
 20
107.364
  0
SEQEND
  0
POLYLINE
  8
LAYER_2
 40
0.2469
 41
0.2469
 66
1
 10
0
 20
0
 30
0
  0
VERTEX
  8
LAYER_2
 10
115.9805
 20
107.364
  0
VERTEX
  8
LAYER_2
 10
102.9444
 20
107.364
  0
SEQEND
  0
ENDBLK
  0
BLOCK
  8
LAYER_2
  2
AIGNBL020100C9
 70
64
 10
0
 20
0
 30
0
  3
AIGNBL020100C9
  0
TEXT
  8
LAYER_2
 10
101.9509
 20
108.7096
 11
101.9509
 21
108.7096
 40
6.0978
 41
0.5
  1
PJ1/2
  0
ENDBLK
  0
BLOCK
  8
LAYER_2
  2
AIGNBL020100CA
 70
64
 10
0
 20
0
 30
0
  3
AIGNBL020100CA
  0
INSERT
  8
LAYER_2
  2
AIGNBL020200CB
 10
0
 20
0
 30
0
  0
INSERT
  8
LAYER_2
  2
AIGNBL020200CC
 10
0
 20
0
 30
0
  0
INSERT
  8
LAYER_2
  2
AIGNBL020200CD
 10
0
 20
0
 30
0
  0
INSERT
  8
LAYER_2
  2
AIGNBL020200CE
 10
0
 20
0
 30
0
  0
INSERT
  8
LAYER_2
  2
AIGNBL020200CF
 10
0
 20
0
 30
0
  0
INSERT
  8
LAYER_2
  2
AIGNBL020200D0
 10
0
 20
0
 30
0
  0
ENDBLK
  0
BLOCK
  8
LAYER_2
  2
AIGNBL020100D1
 70
64
 10
0
 20
0
 30
0
  3
AIGNBL020100D1
  0
INSERT
  8
LAYER_2
  2
AIGNBL020200D2
 10
0
 20
0
 30
0
  0
INSERT
  8
LAYER_2
  2
AIGNBL020200D3
 10
0
 20
0
 30
0
  0
INSERT
  8
LAYER_2
  2
AIGNBL020200D4
 10
0
 20
0
 30
0
  0
INSERT
  8
LAYER_2
  2
AIGNBL020200D5
 10
0
 20
0
 30
0
  0
INSERT
  8
LAYER_2
  2
AIGNBL020200D6
 10
0
 20
0
 30
0
  0
INSERT
  8
LAYER_2
  2
AIGNBL020200D7
 10
0
 20
0
 30
0
  0
ENDBLK
  0
BLOCK
  8
LAYER_2
  2
AIGNBL020100D8
 70
64
 10
0
 20
0
 30
0
  3
AIGNBL020100D8
  0
INSERT
  8
LAYER_2
  2
AIGNBL020200D9
 10
0
 20
0
 30
0
  0
INSERT
  8
LAYER_2
  2
AIGNBL020200DA
 10
0
 20
0
 30
0
  0
INSERT
  8
LAYER_2
  2
AIGNBL020200DB
 10
0
 20
0
 30
0
  0
INSERT
  8
LAYER_2
  2
AIGNBL020200DC
 10
0
 20
0
 30
0
  0
INSERT
  8
LAYER_2
  2
AIGNBL020200DD
 10
0
 20
0
 30
0
  0
INSERT
  8
LAYER_2
  2
AIGNBL020200DE
 10
0
 20
0
 30
0
  0
INSERT
  8
LAYER_2
  2
AIGNBL020200DF
 10
0
 20
0
 30
0
  0
INSERT
  8
LAYER_2
  2
AIGNBL020200E0
 10
0
 20
0
 30
0
  0
ENDBLK
  0
BLOCK
  8
LAYER_2
  2
AIGNBL020100E1
 70
64
 10
0
 20
0
 30
0
  3
AIGNBL020100E1
  0
INSERT
  8
LAYER_2
  2
AIGNBL020200E2
 10
0
 20
0
 30
0
  0
INSERT
  8
LAYER_2
  2
AIGNBL020200E3
 10
0
 20
0
 30
0
  0
INSERT
  8
LAYER_2
  2
AIGNBL020200E4
 10
0
 20
0
 30
0
  0
INSERT
  8
LAYER_2
  2
AIGNBL020200E5
 10
0
 20
0
 30
0
  0
INSERT
  8
LAYER_2
  2
AIGNBL020200E6
 10
0
 20
0
 30
0
  0
INSERT
  8
LAYER_2
  2
AIGNBL020200E7
 10
0
 20
0
 30
0
  0
ENDBLK
  0
BLOCK
  8
LAYER_2
  2
AIGNBL020100E8
 70
64
 10
0
 20
0
 30
0
  3
AIGNBL020100E8
  0
INSERT
  8
LAYER_2
  2
AIGNBL020200E9
 10
0
 20
0
 30
0
  0
INSERT
  8
LAYER_2
  2
AIGNBL020200EA
 10
0
 20
0
 30
0
  0
INSERT
  8
LAYER_2
  2
AIGNBL020200EB
 10
0
 20
0
 30
0
  0
INSERT
  8
LAYER_2
  2
AIGNBL020200EC
 10
0
 20
0
 30
0
  0
INSERT
  8
LAYER_2
  2
AIGNBL020200ED
 10
0
 20
0
 30
0
  0
INSERT
  8
LAYER_2
  2
AIGNBL020200EE
 10
0
 20
0
 30
0
  0
INSERT
  8
LAYER_2
  2
AIGNBL020200EF
 10
0
 20
0
 30
0
  0
ENDBLK
  0
BLOCK
  8
LAYER_7
  2
AIGNBL07010002
 70
64
 10
0
 20
0
 30
0
  3
AIGNBL07010002
  0
POLYLINE
  8
LAYER_7
 40
0.7056
 41
0.7056
 66
1
 10
0
 20
0
 30
0
 70
1
  0
VERTEX
  8
LAYER_7
 10
206.0763
 20
269.2235
  0
VERTEX
  8
LAYER_7
 10
206.0763
 20
-7.7766
  0
VERTEX
  8
LAYER_7
 10
16.0764
 20
-7.7766
  0
VERTEX
  8
LAYER_7
 10
16.0764
 20
269.2235
  0
SEQEND
  0
ENDBLK
  0
BLOCK
  8
LAYER_7
  2
AIGNBL07010003
 70
64
 10
0
 20
0
 30
0
  3
AIGNBL07010003
  0
INSERT
  8
LAYER_7
  2
AIGNBL07020004
 10
0
 20
0
 30
0
  0
INSERT
  8
LAYER_7
  2
AIGNBL0702000D
 10
0
 20
0
 30
0
  0
ENDBLK
  0
ENDSEC
  0
SECTION
  2
ENTITIES
  0
INSERT
  8
LAYER_1
  2
AIGNBL01010002
 10
0
 20
0
 30
0
  0
INSERT
  8
LAYER_1
  2
AIGNBL0101001C
 10
0
 20
0
 30
0
  0
INSERT
  8
LAYER_1
  2
AIGNBL01010023
 10
0
 20
0
 30
0
  0
INSERT
  8
LAYER_1
  2
AIGNBL01010044
 10
0
 20
0
 30
0
  0
INSERT
  8
LAYER_1
  2
AIGNBL01010070
 10
0
 20
0
 30
0
  0
INSERT
  8
LAYER_1
  2
AIGNBL01010088
 10
0
 20
0
 30
0
  0
INSERT
  8
LAYER_1
  2
AIGNBL01010089
 10
0
 20
0
 30
0
  0
INSERT
  8
LAYER_1
  2
AIGNBL0101008A
 10
0
 20
0
 30
0
  0
INSERT
  8
LAYER_1
  2
AIGNBL0101008B
 10
0
 20
0
 30
0
  0
INSERT
  8
LAYER_1
  2
AIGNBL0101008C
 10
0
 20
0
 30
0
  0
INSERT
  8
LAYER_2
  2
AIGNBL02010002
 10
0
 20
0
 30
0
  0
INSERT
  8
LAYER_2
  2
AIGNBL02010071
 10
0
 20
0
 30
0
  0
INSERT
  8
LAYER_2
  2
AIGNBL020100B6
 10
0
 20
0
 30
0
  0
INSERT
  8
LAYER_2
  2
AIGNBL020100B7
 10
0
 20
0
 30
0
  0
INSERT
  8
LAYER_2
  2
AIGNBL020100B8
 10
0
 20
0
 30
0
  0
INSERT
  8
LAYER_2
  2
AIGNBL020100B9
 10
0
 20
0
 30
0
  0
INSERT
  8
LAYER_2
  2
AIGNBL020100BA
 10
0
 20
0
 30
0
  0
INSERT
  8
LAYER_2
  2
AIGNBL020100BB
 10
0
 20
0
 30
0
  0
INSERT
  8
LAYER_2
  2
AIGNBL020100BC
 10
0
 20
0
 30
0
  0
INSERT
  8
LAYER_2
  2
AIGNBL020100BD
 10
0
 20
0
 30
0
  0
INSERT
  8
LAYER_2
  2
AIGNBL020100BE
 10
0
 20
0
 30
0
  0
INSERT
  8
LAYER_2
  2
AIGNBL020100BF
 10
0
 20
0
 30
0
  0
INSERT
  8
LAYER_2
  2
AIGNBL020100C0
 10
0
 20
0
 30
0
  0
INSERT
  8
LAYER_2
  2
AIGNBL020100C1
 10
0
 20
0
 30
0
  0
INSERT
  8
LAYER_2
  2
AIGNBL020100C2
 10
0
 20
0
 30
0
  0
INSERT
  8
LAYER_2
  2
AIGNBL020100C3
 10
0
 20
0
 30
0
  0
INSERT
  8
LAYER_2
  2
AIGNBL020100C4
 10
0
 20
0
 30
0
  0
INSERT
  8
LAYER_2
  2
AIGNBL020100C5
 10
0
 20
0
 30
0
  0
INSERT
  8
LAYER_2
  2
AIGNBL020100C6
 10
0
 20
0
 30
0
  0
INSERT
  8
LAYER_2
  2
AIGNBL020100C7
 10
0
 20
0
 30
0
  0
INSERT
  8
LAYER_2
  2
AIGNBL020100C8
 10
0
 20
0
 30
0
  0
INSERT
  8
LAYER_2
  2
AIGNBL020100C9
 10
0
 20
0
 30
0
  0
INSERT
  8
LAYER_2
  2
AIGNBL020100CA
 10
0
 20
0
 30
0
  0
INSERT
  8
LAYER_2
  2
AIGNBL020100D1
 10
0
 20
0
 30
0
  0
INSERT
  8
LAYER_2
  2
AIGNBL020100D8
 10
0
 20
0
 30
0
  0
INSERT
  8
LAYER_2
  2
AIGNBL020100E1
 10
0
 20
0
 30
0
  0
INSERT
  8
LAYER_2
  2
AIGNBL020100E8
 10
0
 20
0
 30
0
  0
TEXT
  8
LAYER_7
 10
18.4399
 20
5.4632
 11
18.4399
 21
5.4632
 40
3.2995
 41
0.5
  1
仕様
  0
POLYLINE
  8
LAYER_7
 40
0.3528
 41
0.3528
 66
1
 10
0
 20
0
 30
0
  0
VERTEX
  8
LAYER_7
 10
205.0762
 20
10.8455
  0
VERTEX
  8
LAYER_7
 10
17.0763
 20
10.8455
  0
SEQEND
  0
INSERT
  8
LAYER_7
  2
AIGNBL07010002
 10
0
 20
0
 30
0
  0
POLYLINE
  8
LAYER_7
 40
0.3528
 41
0.3528
 66
1
 10
0
 20
0
 30
0
  0
VERTEX
  8
LAYER_7
 10
17.0763
 20
268.2234
  0
VERTEX
  8
LAYER_7
 10
17.0763
 20
-6.7768
  0
VERTEX
  8
LAYER_7
 10
205.0762
 20
-6.7768
  0
VERTEX
  8
LAYER_7
 10
205.0762
 20
268.2234
  0
VERTEX
  8
LAYER_7
 10
17.0763
 20
268.2234
  0
SEQEND
  0
POLYLINE
  8
LAYER_7
 40
0.3528
 41
0.3528
 66
1
 10
0
 20
0
 30
0
  0
VERTEX
  8
LAYER_7
 10
205.0762
 20
19.3545
  0
VERTEX
  8
LAYER_7
 10
17.0763
 20
19.3545
  0
SEQEND
  0
POLYLINE
  8
LAYER_7
 40
0.3528
 41
0.3528
 66
1
 10
0
 20
0
 30
0
  0
VERTEX
  8
LAYER_7
 10
205.0762
 20
2.3365
  0
VERTEX
  8
LAYER_7
 10
127.3025
 20
2.3365
  0
SEQEND
  0
TEXT
  8
LAYER_7
 10
157.5084
 20
4.6123
 11
157.5084
 21
4.6123
 40
3.7615
 41
0.5
  1
-
  0
TEXT
  8
LAYER_7
 10
152.2167
 20
8.3692
 11
152.2167
 21
8.3692
 40
2.1997
 41
0.5
  1
縮尺
  0
POLYLINE
  8
LAYER_7
 40
0.3528
 41
0.3528
 66
1
 10
0
 20
0
 30
0
  0
VERTEX
  8
LAYER_7
 10
150.6885
 20
2.3365
  0
VERTEX
  8
LAYER_7
 10
150.6885
 20
10.8455
  0
SEQEND
  0
TEXT
  8
LAYER_7
 10
128.0011
 20
16.8782
 11
128.0011
 21
16.8782
 40
2.1997
 41
0.5
  1
品番
  0
TEXT
  8
LAYER_7
 10
18.2332
 20
16.8782
 11
18.2332
 21
16.8782
 40
2.1997
 41
0.5
  1
品名
  0
TEXT
  8
LAYER_7
 10
128.0011
 20
8.3692
 11
128.0011
 21
8.3692
 40
2.1997
 41
0.5
  1
重量
  0
TEXT
  8
LAYER_7
 10
135.5345
 20
13.0462
 11
135.5345
 21
13.0462
 40
5.9385
 41
0.5
  1
AQ-V22AF
  0
TEXT
  8
LAYER_7
 10
133.3138
 20
4.6123
 11
133.3138
 21
4.6123
 40
3.7615
 41
0.5
  1
-
  0
POLYLINE
  8
LAYER_7
 40
0.3528
 41
0.3528
 66
1
 10
0
 20
0
 30
0
  0
VERTEX
  8
LAYER_7
 10
127.3025
 20
-6.1512
  0
VERTEX
  8
LAYER_7
 10
127.3025
 20
19.3545
  0
SEQEND
  0
TEXT
  8
LAYER_7
 10
24.4163
 20
13.7859
 11
24.4163
 21
13.7859
 40
3.6373
 41
0.5
  1
アングル止水栓
  0
TEXT
  8
LAYER_7
 10
29.012
 20
6.2546
 11
29.012
 21
6.2546
 40
3.258
 41
0.5
  1
●クロム●JIS
  0
TEXT
  8
LAYER_7
 10
191.6644
 20
22.153
 11
191.6644
 21
22.153
 40
2.9618
 41
0.5
  1
単位：mm
  0
TEXT
  8
LAYER_7
 10
192.6442
 20
263.5136
 11
192.6442
 21
263.5136
 40
2.0732
 41
0.5
  1
170310RT
  0
TEXT
  8
LAYER_7
 10
154.3861
 20
-1.5679
 11
154.3861
 21
-1.5679
 40
2.8694
 41
0.5
  1
●TEL 0120-65-1232●FAX 06-6532-1580
  0
TEXT
  8
LAYER_7
 10
154.3861
 20
-4.5472
 11
154.3861
 21
-4.5472
 40
2.8694
 41
0.5
  1
hits@hiratatile.co.jp
  0
INSERT
  8
LAYER_7
  2
AIGNBL07010003
 10
0
 20
0
 30
0
  0
ENDSEC
  0
EOF
