  0
SECTION
  2
HEADER
  9
$ACADVER
  1
AC1009
  9
$LUNITS
 70
2
  9
$LUPREC
 70
4
  9
$LTSCALE
 40
1.0
  9
$EXTMIN
 10
-30.3177
 20
33.3285
 30
0
  9
$EXTMAX
 10
251.6749
 20
230.337
 30
0
  0
ENDSEC
  0
SECTION
  2
TABLES
  0
TABLE
  2
LTYPE
 70
256
  0
LTYPE
  2
AIGENLINE001
 70
64
  3
generate AI->DXF Converter
 72
65
 73
6
 40
13.0071
 49
10
 49
-1
 49
0.0035
 49
-1
 49
0.0035
 49
-1
  0
LTYPE
  2
AIGENLINE002
 70
64
  3
generate AI->DXF Converter
 72
65
 73
4
 40
14
 49
11
 49
-1
 49
1
 49
-1
  0
ENDTAB
  0
TABLE
  2
LAYER
 70
5
  0
LAYER
  2
LAYER_1
 70
64
 62
7
  6
CONTINUOUS
  0
LAYER
  2
LAYER_2
 70
64
 62
7
  6
CONTINUOUS
  0
LAYER
  2
LAYER_3
 70
64
 62
7
  6
CONTINUOUS
  0
LAYER
  2
LAYER_4
 70
64
 62
7
  6
CONTINUOUS
  0
LAYER
  2
LAYER_5
 70
64
 62
7
  6
CONTINUOUS
  0
ENDTAB
  0
TABLE
  2
STYLE
 70
6
  0
STYLE
  2
STANDARD
 70
0
 40
0
 50
0
 71
0
 41
0
 42
0
  3
TXT
  4
BIGFONT
  0
ENDTAB
  0
ENDSEC
  0
SECTION
  2
BLOCKS
  0
BLOCK
  8
LAYER_5
  2
AIGNBL05040006
 70
64
 10
0
 20
0
 30
0
  3
AIGNBL05040006
  0
POLYLINE
  8
LAYER_5
 40
0.05
 41
0.05
 66
1
 10
0
 20
0
 30
0
 70
1
  0
VERTEX
  8
LAYER_5
 10
146.7545
 20
39.1418
  0
VERTEX
  8
LAYER_5
 10
146.2656
 20
37.9567
  0
VERTEX
  8
LAYER_5
 10
145.6376
 20
37.9567
  0
VERTEX
  8
LAYER_5
 10
147.2372
 20
41.7225
  0
VERTEX
  8
LAYER_5
 10
147.9703
 20
41.7225
  0
VERTEX
  8
LAYER_5
 10
149.5768
 20
37.9567
  0
VERTEX
  8
LAYER_5
 10
148.9267
 20
37.9567
  0
VERTEX
  8
LAYER_5
 10
148.424
 20
39.1418
  0
SEQEND
  0
POLYLINE
  8
LAYER_5
 40
0.05
 41
0.05
 66
1
 10
0
 20
0
 30
0
 70
1
  0
VERTEX
  8
LAYER_5
 10
148.2983
 20
39.5207
  0
VERTEX
  8
LAYER_5
 10
147.8373
 20
40.6056
 42
-0.02317247198
  0
VERTEX
  8
LAYER_5
 10
147.5927
 20
41.2926
  0
VERTEX
  8
LAYER_5
 10
147.5789
 20
41.2926
 42
-0.02064481114
  0
VERTEX
  8
LAYER_5
 10
147.3412
 20
40.6101
  0
VERTEX
  8
LAYER_5
 10
146.8806
 20
39.5207
  0
SEQEND
  0
ENDBLK
  0
BLOCK
  8
LAYER_5
  2
AIGNBL05040007
 70
64
 10
0
 20
0
 30
0
  3
AIGNBL05040007
  0
POLYLINE
  8
LAYER_5
 40
0.05
 41
0.05
 66
1
 10
0
 20
0
 30
0
 70
1
  0
VERTEX
  8
LAYER_5
 10
153.942
 20
37.4034
 42
-0.01520763512
  0
VERTEX
  8
LAYER_5
 10
152.1399
 20
37.8395
 42
0.09160443264
  0
VERTEX
  8
LAYER_5
 10
151.8533
 20
37.895
 42
-0.09256808484
  0
VERTEX
  8
LAYER_5
 10
150.8994
 20
38.0977
 42
-0.09799469934
  0
VERTEX
  8
LAYER_5
 10
150.2621
 20
38.5324
 42
-0.1630918382
  0
VERTEX
  8
LAYER_5
 10
149.7964
 20
39.5259
 42
-0.0316951694
  0
VERTEX
  8
LAYER_5
 10
149.7793
 20
39.7998
 42
-0.1055313794
  0
VERTEX
  8
LAYER_5
 10
149.9533
 20
40.6417
 42
-0.1619874109
  0
VERTEX
  8
LAYER_5
 10
150.7418
 20
41.4867
 42
-0.09224146328
  0
VERTEX
  8
LAYER_5
 10
151.5409
 20
41.7524
 42
-0.03717154931
  0
VERTEX
  8
LAYER_5
 10
151.9725
 20
41.7838
 42
-0.09530639066
  0
VERTEX
  8
LAYER_5
 10
152.9361
 20
41.6062
 42
-0.1001950085
  0
VERTEX
  8
LAYER_5
 10
153.5732
 20
41.1834
 42
-0.1611155306
  0
VERTEX
  8
LAYER_5
 10
154.0599
 20
40.1825
 42
-0.03590167283
  0
VERTEX
  8
LAYER_5
 10
154.0815
 20
39.8784
 42
-0.1066761192
  0
VERTEX
  8
LAYER_5
 10
153.9051
 20
39.0236
 42
-0.2183970027
  0
VERTEX
  8
LAYER_5
 10
152.7953
 20
38.0897
 42
-0.006706711403
  0
VERTEX
  8
LAYER_5
 10
152.7407
 20
38.0738
  0
VERTEX
  8
LAYER_5
 10
152.7407
 20
38.0514
 42
0.01533555045
  0
VERTEX
  8
LAYER_5
 10
154.117
 20
37.8113
  0
SEQEND
  0
POLYLINE
  8
LAYER_5
 40
0.05
 41
0.05
 66
1
 10
0
 20
0
 30
0
 70
1
  0
VERTEX
  8
LAYER_5
 10
153.4394
 20
39.857
 42
0.1175610784
  0
VERTEX
  8
LAYER_5
 10
153.257
 20
40.6254
 42
0.1170135141
  0
VERTEX
  8
LAYER_5
 10
152.8315
 20
41.1234
 42
0.1200044572
  0
VERTEX
  8
LAYER_5
 10
152.2186
 20
41.3675
 42
0.03774262044
  0
VERTEX
  8
LAYER_5
 10
151.9511
 20
41.3873
 42
0.1153139376
  0
VERTEX
  8
LAYER_5
 10
151.2089
 20
41.2226
 42
0.1853550912
  0
VERTEX
  8
LAYER_5
 10
150.5507
 20
40.4882
 42
0.09859892291
  0
VERTEX
  8
LAYER_5
 10
150.4287
 20
39.8122
 42
0.1178359247
  0
VERTEX
  8
LAYER_5
 10
150.5964
 20
39.0734
 42
0.2866694251
  0
VERTEX
  8
LAYER_5
 10
151.9232
 20
38.2912
 42
0.1188197759
  0
VERTEX
  8
LAYER_5
 10
152.6722
 20
38.4633
 42
0.1796740134
  0
VERTEX
  8
LAYER_5
 10
153.3126
 20
39.18
 42
0.09850052237
  0
SEQEND
  0
ENDBLK
  0
BLOCK
  8
LAYER_5
  2
AIGNBL05040008
 70
64
 10
0
 20
0
 30
0
  3
AIGNBL05040008
  0
POLYLINE
  8
LAYER_5
 40
0.05
 41
0.05
 66
1
 10
0
 20
0
 30
0
 70
1
  0
VERTEX
  8
LAYER_5
 10
155.4089
 20
41.7225
  0
VERTEX
  8
LAYER_5
 10
155.4089
 20
39.4932
 42
0.1220213404
  0
VERTEX
  8
LAYER_5
 10
155.569
 20
38.7775
 42
0.2218709818
  0
VERTEX
  8
LAYER_5
 10
156.2104
 20
38.3206
 42
0.05223876895
  0
VERTEX
  8
LAYER_5
 10
156.5055
 20
38.2912
 42
0.1302821267
  0
VERTEX
  8
LAYER_5
 10
157.1748
 20
38.452
 42
0.1509367336
  0
VERTEX
  8
LAYER_5
 10
157.526
 20
38.8454
 42
0.1174732039
  0
VERTEX
  8
LAYER_5
 10
157.651
 20
39.4932
  0
VERTEX
  8
LAYER_5
 10
157.651
 20
41.7225
  0
VERTEX
  8
LAYER_5
 10
158.2656
 20
41.7225
  0
VERTEX
  8
LAYER_5
 10
158.2656
 20
39.5266
 42
-0.1106199636
  0
VERTEX
  8
LAYER_5
 10
158.0961
 20
38.708
 42
-0.1822316276
  0
VERTEX
  8
LAYER_5
 10
157.4057
 20
38.0637
 42
-0.09768689614
  0
VERTEX
  8
LAYER_5
 10
156.6028
 20
37.8972
 42
-0.01000776787
  0
VERTEX
  8
LAYER_5
 10
156.4845
 20
37.895
 42
-0.09899539667
  0
VERTEX
  8
LAYER_5
 10
155.612
 20
38.0554
 42
-0.120955925
  0
VERTEX
  8
LAYER_5
 10
155.1093
 20
38.4366
 42
-0.1193006487
  0
VERTEX
  8
LAYER_5
 10
154.8407
 20
39.0316
 42
-0.05319923583
  0
VERTEX
  8
LAYER_5
 10
154.7943
 20
39.5045
  0
VERTEX
  8
LAYER_5
 10
154.7943
 20
41.7225
  0
SEQEND
  0
ENDBLK
  0
BLOCK
  8
LAYER_5
  2
AIGNBL05040009
 70
64
 10
0
 20
0
 30
0
  3
AIGNBL05040009
  0
POLYLINE
  8
LAYER_5
 40
0.05
 41
0.05
 66
1
 10
0
 20
0
 30
0
 70
1
  0
VERTEX
  8
LAYER_5
 10
160.0119
 20
39.1418
  0
VERTEX
  8
LAYER_5
 10
159.5227
 20
37.9567
  0
VERTEX
  8
LAYER_5
 10
158.8947
 20
37.9567
  0
VERTEX
  8
LAYER_5
 10
160.4939
 20
41.7225
  0
VERTEX
  8
LAYER_5
 10
161.227
 20
41.7225
  0
VERTEX
  8
LAYER_5
 10
162.8335
 20
37.9567
  0
VERTEX
  8
LAYER_5
 10
162.1841
 20
37.9567
  0
VERTEX
  8
LAYER_5
 10
161.6814
 20
39.1418
  0
SEQEND
  0
POLYLINE
  8
LAYER_5
 40
0.05
 41
0.05
 66
1
 10
0
 20
0
 30
0
 70
1
  0
VERTEX
  8
LAYER_5
 10
161.5553
 20
39.5207
  0
VERTEX
  8
LAYER_5
 10
161.094
 20
40.6056
 42
-0.02227599701
  0
VERTEX
  8
LAYER_5
 10
160.8494
 20
41.2926
  0
VERTEX
  8
LAYER_5
 10
160.8357
 20
41.2926
 42
-0.0208222547
  0
VERTEX
  8
LAYER_5
 10
160.5983
 20
40.6101
  0
VERTEX
  8
LAYER_5
 10
160.1373
 20
39.5207
  0
SEQEND
  0
ENDBLK
  0
BLOCK
  8
LAYER_5
  2
AIGNBL0504000A
 70
64
 10
0
 20
0
 30
0
  3
AIGNBL0504000A
  0
POLYLINE
  8
LAYER_5
 40
0.05
 41
0.05
 66
1
 10
0
 20
0
 30
0
 70
1
  0
VERTEX
  8
LAYER_5
 10
163.8742
 20
41.6777
 42
-0.03334485223
  0
VERTEX
  8
LAYER_5
 10
165.0411
 20
41.7508
 42
-0.08844478427
  0
VERTEX
  8
LAYER_5
 10
166.0871
 20
41.5858
 42
-0.06037505309
  0
VERTEX
  8
LAYER_5
 10
166.3609
 20
41.4379
 42
-0.2472514979
  0
VERTEX
  8
LAYER_5
 10
166.7726
 20
40.6497
 42
-0.1483298328
  0
VERTEX
  8
LAYER_5
 10
166.6029
 20
40.0554
 42
-0.07223194904
  0
VERTEX
  8
LAYER_5
 10
166.4095
 20
39.8456
 42
-0.1209372404
  0
VERTEX
  8
LAYER_5
 10
165.7228
 20
39.517
 42
-0.06224269186
  0
VERTEX
  8
LAYER_5
 10
164.9708
 20
39.4319
 42
-0.05738783264
  0
VERTEX
  8
LAYER_5
 10
164.4823
 20
39.4653
  0
VERTEX
  8
LAYER_5
 10
164.4823
 20
37.9567
  0
VERTEX
  8
LAYER_5
 10
163.8742
 20
37.9567
  0
SEQEND
  0
POLYLINE
  8
LAYER_5
 40
0.05
 41
0.05
 66
1
 10
0
 20
0
 30
0
 70
1
  0
VERTEX
  8
LAYER_5
 10
164.4823
 20
39.8622
 42
0.05012782438
  0
VERTEX
  8
LAYER_5
 10
164.9846
 20
39.8229
 42
0.1135299982
  0
VERTEX
  8
LAYER_5
 10
165.7697
 20
39.9822
 42
0.1653556145
  0
VERTEX
  8
LAYER_5
 10
166.1074
 20
40.3302
 42
0.1044590446
  0
VERTEX
  8
LAYER_5
 10
166.1656
 20
40.6273
 42
0.2826437488
  0
VERTEX
  8
LAYER_5
 10
165.8147
 20
41.2103
 42
0.0629694601
  0
VERTEX
  8
LAYER_5
 10
165.549
 20
41.3107
 42
0.06259589917
  0
VERTEX
  8
LAYER_5
 10
165.0552
 20
41.3649
 42
0.05192366909
  0
VERTEX
  8
LAYER_5
 10
164.4823
 20
41.3257
  0
SEQEND
  0
ENDBLK
  0
BLOCK
  8
LAYER_5
  2
AIGNBL0504000B
 70
64
 10
0
 20
0
 30
0
  3
AIGNBL0504000B
  0
POLYLINE
  8
LAYER_5
 40
0.05
 41
0.05
 66
1
 10
0
 20
0
 30
0
 70
1
  0
VERTEX
  8
LAYER_5
 10
168.3246
 20
41.4207
 42
-0.3048675751
  0
VERTEX
  8
LAYER_5
 10
168.1582
 20
41.1661
 42
-0.1151020929
  0
VERTEX
  8
LAYER_5
 10
167.9329
 20
41.1189
 42
-0.2442513348
  0
VERTEX
  8
LAYER_5
 10
167.6028
 20
41.2794
 42
-0.1394546152
  0
VERTEX
  8
LAYER_5
 10
167.5626
 20
41.4207
 42
-0.287439772
  0
VERTEX
  8
LAYER_5
 10
167.7346
 20
41.6803
 42
-0.1179404017
  0
VERTEX
  8
LAYER_5
 10
167.9467
 20
41.7277
 42
-0.2416274379
  0
VERTEX
  8
LAYER_5
 10
168.2814
 20
41.5719
 42
-0.1426378456
  0
SEQEND
  0
POLYLINE
  8
LAYER_5
 40
0.05
 41
0.05
 66
1
 10
0
 20
0
 30
0
 70
1
  0
VERTEX
  8
LAYER_5
 10
167.639
 20
37.9567
  0
VERTEX
  8
LAYER_5
 10
167.639
 20
40.6607
  0
VERTEX
  8
LAYER_5
 10
168.2537
 20
40.6607
  0
VERTEX
  8
LAYER_5
 10
168.2537
 20
37.9567
  0
SEQEND
  0
ENDBLK
  0
BLOCK
  8
LAYER_5
  2
AIGNBL0504000C
 70
64
 10
0
 20
0
 30
0
  3
AIGNBL0504000C
  0
POLYLINE
  8
LAYER_5
 40
0.05
 41
0.05
 66
1
 10
0
 20
0
 30
0
 70
1
  0
VERTEX
  8
LAYER_5
 10
170.1254
 20
39.1418
  0
VERTEX
  8
LAYER_5
 10
169.6372
 20
37.9567
  0
VERTEX
  8
LAYER_5
 10
169.0081
 20
37.9567
  0
VERTEX
  8
LAYER_5
 10
170.6077
 20
41.7225
  0
VERTEX
  8
LAYER_5
 10
171.3415
 20
41.7225
  0
VERTEX
  8
LAYER_5
 10
172.9479
 20
37.9567
  0
VERTEX
  8
LAYER_5
 10
172.2982
 20
37.9567
  0
VERTEX
  8
LAYER_5
 10
171.7955
 20
39.1418
  0
SEQEND
  0
POLYLINE
  8
LAYER_5
 40
0.05
 41
0.05
 66
1
 10
0
 20
0
 30
0
 70
1
  0
VERTEX
  8
LAYER_5
 10
171.6695
 20
39.5207
  0
VERTEX
  8
LAYER_5
 10
171.2085
 20
40.6056
 42
-0.02430767271
  0
VERTEX
  8
LAYER_5
 10
170.9646
 20
41.2926
  0
VERTEX
  8
LAYER_5
 10
170.9498
 20
41.2926
 42
-0.02034719794
  0
VERTEX
  8
LAYER_5
 10
170.7128
 20
40.6101
  0
VERTEX
  8
LAYER_5
 10
170.2518
 20
39.5207
  0
SEQEND
  0
ENDBLK
  0
BLOCK
  8
LAYER_5
  2
AIGNBL0504010A
 70
64
 10
0
 20
0
 30
0
  3
AIGNBL0504010A
  0
POLYLINE
  8
LAYER_5
 40
0.1058
 41
0.1058
 66
1
 10
0
 20
0
 30
0
  0
VERTEX
  8
LAYER_5
 10
72.4449
 20
89.146
  0
VERTEX
  8
LAYER_5
 10
71.5284
 20
89.146
  0
SEQEND
  0
ENDBLK
  0
BLOCK
  8
LAYER_5
  2
AIGNBL0504010B
 70
64
 10
0
 20
0
 30
0
  3
AIGNBL0504010B
  0
POLYLINE
  8
LAYER_5
 40
0.1058
 41
0.1058
 66
1
 10
0
 20
0
 30
0
  0
VERTEX
  8
LAYER_5
 10
71.9983
 20
90.9464
  0
VERTEX
  8
LAYER_5
 10
70.9049
 20
90.9464
  0
SEQEND
  0
ENDBLK
  0
BLOCK
  8
LAYER_5
  2
AIGNBL0504010C
 70
64
 10
0
 20
0
 30
0
  3
AIGNBL0504010C
  0
POLYLINE
  8
LAYER_5
 40
0.1058
 41
0.1058
 66
1
 10
0
 20
0
 30
0
  0
VERTEX
  8
LAYER_5
 10
71.9288
 20
90.9464
  0
VERTEX
  8
LAYER_5
 10
71.9288
 20
91.3261
  0
SEQEND
  0
ENDBLK
  0
BLOCK
  8
LAYER_5
  2
AIGNBL0504010D
 70
64
 10
0
 20
0
 30
0
  3
AIGNBL0504010D
  0
POLYLINE
  8
LAYER_5
 40
0.1058
 41
0.1058
 66
1
 10
0
 20
0
 30
0
  0
VERTEX
  8
LAYER_5
 10
70.9049
 20
90.688
  0
VERTEX
  8
LAYER_5
 10
72.4449
 20
90.688
  0
SEQEND
  0
ENDBLK
  0
BLOCK
  8
LAYER_5
  2
AIGNBL0504010E
 70
64
 10
0
 20
0
 30
0
  3
AIGNBL0504010E
  0
POLYLINE
  8
LAYER_5
 40
0.1058
 41
0.1058
 66
1
 10
0
 20
0
 30
0
  0
VERTEX
  8
LAYER_5
 10
71.9983
 20
91.3261
  0
VERTEX
  8
LAYER_5
 10
71.9983
 20
90.688
  0
SEQEND
  0
ENDBLK
  0
BLOCK
  8
LAYER_5
  2
AIGNBL0504010F
 70
64
 10
0
 20
0
 30
0
  3
AIGNBL0504010F
  0
POLYLINE
  8
LAYER_5
 40
0.1058
 41
0.1058
 66
1
 10
0
 20
0
 30
0
  0
VERTEX
  8
LAYER_5
 10
71.9983
 20
90.8258
  0
VERTEX
  8
LAYER_5
 10
71.9288
 20
90.9464
  0
SEQEND
  0
ENDBLK
  0
BLOCK
  8
LAYER_5
  2
AIGNBL05040110
 70
64
 10
0
 20
0
 30
0
  3
AIGNBL05040110
  0
POLYLINE
  8
LAYER_5
 40
0.1058
 41
0.1058
 66
1
 10
0
 20
0
 30
0
  0
VERTEX
  8
LAYER_5
 10
71.5284
 20
89.146
  0
VERTEX
  8
LAYER_5
 10
70.9049
 20
89.146
  0
SEQEND
  0
ENDBLK
  0
BLOCK
  8
LAYER_5
  2
AIGNBL05040111
 70
64
 10
0
 20
0
 30
0
  3
AIGNBL05040111
  0
POLYLINE
  8
LAYER_5
 40
0.1058
 41
0.1058
 66
1
 10
0
 20
0
 30
0
  0
VERTEX
  8
LAYER_5
 10
70.9049
 20
89.146
  0
VERTEX
  8
LAYER_5
 10
70.2813
 20
89.146
  0
SEQEND
  0
ENDBLK
  0
BLOCK
  8
LAYER_5
  2
AIGNBL05040112
 70
64
 10
0
 20
0
 30
0
  3
AIGNBL05040112
  0
POLYLINE
  8
LAYER_5
 40
0.1058
 41
0.1058
 66
1
 10
0
 20
0
 30
0
  0
VERTEX
  8
LAYER_5
 10
69.8824
 20
90.9464
  0
VERTEX
  8
LAYER_5
 10
69.8121
 20
90.8258
  0
SEQEND
  0
ENDBLK
  0
BLOCK
  8
LAYER_5
  2
AIGNBL05040113
 70
64
 10
0
 20
0
 30
0
  3
AIGNBL05040113
  0
POLYLINE
  8
LAYER_5
 40
0.1058
 41
0.1058
 66
1
 10
0
 20
0
 30
0
  0
VERTEX
  8
LAYER_5
 10
69.8121
 20
90.688
  0
VERTEX
  8
LAYER_5
 10
69.8121
 20
91.3261
  0
SEQEND
  0
ENDBLK
  0
BLOCK
  8
LAYER_5
  2
AIGNBL05040114
 70
64
 10
0
 20
0
 30
0
  3
AIGNBL05040114
  0
POLYLINE
  8
LAYER_5
 40
0.1058
 41
0.1058
 66
1
 10
0
 20
0
 30
0
  0
VERTEX
  8
LAYER_5
 10
69.3663
 20
90.688
  0
VERTEX
  8
LAYER_5
 10
70.9049
 20
90.688
  0
SEQEND
  0
ENDBLK
  0
BLOCK
  8
LAYER_5
  2
AIGNBL05040115
 70
64
 10
0
 20
0
 30
0
  3
AIGNBL05040115
  0
POLYLINE
  8
LAYER_5
 40
0.1058
 41
0.1058
 66
1
 10
0
 20
0
 30
0
  0
VERTEX
  8
LAYER_5
 10
69.8824
 20
91.3261
  0
VERTEX
  8
LAYER_5
 10
69.8824
 20
90.9464
  0
SEQEND
  0
ENDBLK
  0
BLOCK
  8
LAYER_5
  2
AIGNBL05040116
 70
64
 10
0
 20
0
 30
0
  3
AIGNBL05040116
  0
POLYLINE
  8
LAYER_5
 40
0.1058
 41
0.1058
 66
1
 10
0
 20
0
 30
0
  0
VERTEX
  8
LAYER_5
 10
70.9049
 20
90.9464
  0
VERTEX
  8
LAYER_5
 10
69.8121
 20
90.9464
  0
SEQEND
  0
ENDBLK
  0
BLOCK
  8
LAYER_5
  2
AIGNBL05040117
 70
64
 10
0
 20
0
 30
0
  3
AIGNBL05040117
  0
POLYLINE
  8
LAYER_5
 40
0.1058
 41
0.1058
 66
1
 10
0
 20
0
 30
0
  0
VERTEX
  8
LAYER_5
 10
70.2813
 20
89.146
  0
VERTEX
  8
LAYER_5
 10
69.3663
 20
89.146
  0
SEQEND
  0
ENDBLK
  0
BLOCK
  8
LAYER_5
  2
AIGNBL05040118
 70
64
 10
0
 20
0
 30
0
  3
AIGNBL05040118
  0
POLYLINE
  8
LAYER_5
 40
0.1058
 41
0.1058
 66
1
 10
0
 20
0
 30
0
  0
VERTEX
  8
LAYER_5
 10
124.1206
 20
89.146
  0
VERTEX
  8
LAYER_5
 10
122.5786
 20
89.146
  0
SEQEND
  0
ENDBLK
  0
BLOCK
  8
LAYER_5
  2
AIGNBL05040119
 70
64
 10
0
 20
0
 30
0
  3
AIGNBL05040119
  0
POLYLINE
  8
LAYER_5
 40
0.1058
 41
0.1058
 66
1
 10
0
 20
0
 30
0
  0
VERTEX
  8
LAYER_5
 10
124.1206
 20
90.9464
  0
VERTEX
  8
LAYER_5
 10
123.0278
 20
90.9464
  0
SEQEND
  0
ENDBLK
  0
BLOCK
  8
LAYER_5
  2
AIGNBL0504011A
 70
64
 10
0
 20
0
 30
0
  3
AIGNBL0504011A
  0
POLYLINE
  8
LAYER_5
 40
0.1058
 41
0.1058
 66
1
 10
0
 20
0
 30
0
  0
VERTEX
  8
LAYER_5
 10
123.0974
 20
91.3261
  0
VERTEX
  8
LAYER_5
 10
123.0974
 20
90.9464
  0
SEQEND
  0
ENDBLK
  0
BLOCK
  8
LAYER_5
  2
AIGNBL0504011B
 70
64
 10
0
 20
0
 30
0
  3
AIGNBL0504011B
  0
POLYLINE
  8
LAYER_5
 40
0.1058
 41
0.1058
 66
1
 10
0
 20
0
 30
0
  0
VERTEX
  8
LAYER_5
 10
122.5786
 20
90.688
  0
VERTEX
  8
LAYER_5
 10
124.1206
 20
90.688
  0
SEQEND
  0
ENDBLK
  0
BLOCK
  8
LAYER_5
  2
AIGNBL0504011C
 70
64
 10
0
 20
0
 30
0
  3
AIGNBL0504011C
  0
POLYLINE
  8
LAYER_5
 40
0.1058
 41
0.1058
 66
1
 10
0
 20
0
 30
0
  0
VERTEX
  8
LAYER_5
 10
123.0278
 20
90.688
  0
VERTEX
  8
LAYER_5
 10
123.0278
 20
91.3261
  0
SEQEND
  0
ENDBLK
  0
BLOCK
  8
LAYER_5
  2
AIGNBL0504011D
 70
64
 10
0
 20
0
 30
0
  3
AIGNBL0504011D
  0
POLYLINE
  8
LAYER_5
 40
0.1058
 41
0.1058
 66
1
 10
0
 20
0
 30
0
  0
VERTEX
  8
LAYER_5
 10
123.0974
 20
90.9464
  0
VERTEX
  8
LAYER_5
 10
123.0278
 20
90.8258
  0
SEQEND
  0
ENDBLK
  0
BLOCK
  8
LAYER_5
  2
AIGNBL0504011E
 70
64
 10
0
 20
0
 30
0
  3
AIGNBL0504011E
  0
POLYLINE
  8
LAYER_5
 40
0.1058
 41
0.1058
 66
1
 10
0
 20
0
 30
0
  0
VERTEX
  8
LAYER_5
 10
125.2134
 20
90.8258
  0
VERTEX
  8
LAYER_5
 10
125.1438
 20
90.9464
  0
SEQEND
  0
ENDBLK
  0
BLOCK
  8
LAYER_5
  2
AIGNBL0504011F
 70
64
 10
0
 20
0
 30
0
  3
AIGNBL0504011F
  0
POLYLINE
  8
LAYER_5
 40
0.1058
 41
0.1058
 66
1
 10
0
 20
0
 30
0
  0
VERTEX
  8
LAYER_5
 10
125.2134
 20
91.3261
  0
VERTEX
  8
LAYER_5
 10
125.2134
 20
90.688
  0
SEQEND
  0
ENDBLK
  0
BLOCK
  8
LAYER_5
  2
AIGNBL05040120
 70
64
 10
0
 20
0
 30
0
  3
AIGNBL05040120
  0
POLYLINE
  8
LAYER_5
 40
0.1058
 41
0.1058
 66
1
 10
0
 20
0
 30
0
  0
VERTEX
  8
LAYER_5
 10
124.1206
 20
90.688
  0
VERTEX
  8
LAYER_5
 10
125.664
 20
90.688
  0
SEQEND
  0
ENDBLK
  0
BLOCK
  8
LAYER_5
  2
AIGNBL05040121
 70
64
 10
0
 20
0
 30
0
  3
AIGNBL05040121
  0
POLYLINE
  8
LAYER_5
 40
0.1058
 41
0.1058
 66
1
 10
0
 20
0
 30
0
  0
VERTEX
  8
LAYER_5
 10
125.1438
 20
90.9464
  0
VERTEX
  8
LAYER_5
 10
125.1438
 20
91.3261
  0
SEQEND
  0
ENDBLK
  0
BLOCK
  8
LAYER_5
  2
AIGNBL05040122
 70
64
 10
0
 20
0
 30
0
  3
AIGNBL05040122
  0
POLYLINE
  8
LAYER_5
 40
0.1058
 41
0.1058
 66
1
 10
0
 20
0
 30
0
  0
VERTEX
  8
LAYER_5
 10
125.2134
 20
90.9464
  0
VERTEX
  8
LAYER_5
 10
124.1206
 20
90.9464
  0
SEQEND
  0
ENDBLK
  0
BLOCK
  8
LAYER_5
  2
AIGNBL05040123
 70
64
 10
0
 20
0
 30
0
  3
AIGNBL05040123
  0
POLYLINE
  8
LAYER_5
 40
0.1058
 41
0.1058
 66
1
 10
0
 20
0
 30
0
  0
VERTEX
  8
LAYER_5
 10
125.664
 20
89.146
  0
VERTEX
  8
LAYER_5
 10
124.1206
 20
89.146
  0
SEQEND
  0
ENDBLK
  0
BLOCK
  8
LAYER_5
  2
AIGNBL05040124
 70
64
 10
0
 20
0
 30
0
  3
AIGNBL05040124
  0
POLYLINE
  8
LAYER_5
 40
0.1058
 41
0.1058
 66
1
 10
0
 20
0
 30
0
  0
VERTEX
  8
LAYER_5
 10
122.5786
 20
90.688
  0
VERTEX
  8
LAYER_5
 10
122.5786
 20
90.1637
  0
SEQEND
  0
ENDBLK
  0
BLOCK
  8
LAYER_5
  2
AIGNBL05040125
 70
64
 10
0
 20
0
 30
0
  3
AIGNBL05040125
  0
POLYLINE
  8
LAYER_5
 40
0.1058
 41
0.1058
 66
1
 10
0
 20
0
 30
0
  0
VERTEX
  8
LAYER_5
 10
125.664
 20
90.688
  0
VERTEX
  8
LAYER_5
 10
125.664
 20
89.146
  0
SEQEND
  0
ENDBLK
  0
BLOCK
  8
LAYER_5
  2
AIGNBL05040126
 70
64
 10
0
 20
0
 30
0
  3
AIGNBL05040126
  0
POLYLINE
  8
LAYER_5
 40
0.1058
 41
0.1058
 66
1
 10
0
 20
0
 30
0
  0
VERTEX
  8
LAYER_5
 10
122.5786
 20
90.1637
  0
VERTEX
  8
LAYER_5
 10
122.5786
 20
89.146
  0
SEQEND
  0
ENDBLK
  0
BLOCK
  8
LAYER_5
  2
AIGNBL05040127
 70
64
 10
0
 20
0
 30
0
  3
AIGNBL05040127
  0
POLYLINE
  8
LAYER_5
 40
0.1058
 41
0.1058
 66
1
 10
0
 20
0
 30
0
  0
VERTEX
  8
LAYER_5
 10
70.9049
 20
89.1563
  0
VERTEX
  8
LAYER_5
 10
71.0282
 20
89.1708
  0
SEQEND
  0
ENDBLK
  0
BLOCK
  8
LAYER_5
  2
AIGNBL05040128
 70
64
 10
0
 20
0
 30
0
  3
AIGNBL05040128
  0
POLYLINE
  8
LAYER_5
 40
0.1058
 41
0.1058
 66
1
 10
0
 20
0
 30
0
  0
VERTEX
  8
LAYER_5
 10
71.0282
 20
89.1708
  0
VERTEX
  8
LAYER_5
 10
71.1033
 20
89.1935
  0
SEQEND
  0
ENDBLK
  0
BLOCK
  8
LAYER_5
  2
AIGNBL05040129
 70
64
 10
0
 20
0
 30
0
  3
AIGNBL05040129
  0
POLYLINE
  8
LAYER_5
 40
0.1058
 41
0.1058
 66
1
 10
0
 20
0
 30
0
  0
VERTEX
  8
LAYER_5
 10
71.1033
 20
89.1935
  0
VERTEX
  8
LAYER_5
 10
71.1564
 20
89.2176
  0
SEQEND
  0
ENDBLK
  0
BLOCK
  8
LAYER_5
  2
AIGNBL0504012A
 70
64
 10
0
 20
0
 30
0
  3
AIGNBL0504012A
  0
POLYLINE
  8
LAYER_5
 40
0.1058
 41
0.1058
 66
1
 10
0
 20
0
 30
0
  0
VERTEX
  8
LAYER_5
 10
71.1564
 20
89.2176
  0
VERTEX
  8
LAYER_5
 10
71.217
 20
89.2521
  0
SEQEND
  0
ENDBLK
  0
BLOCK
  8
LAYER_5
  2
AIGNBL0504012B
 70
64
 10
0
 20
0
 30
0
  3
AIGNBL0504012B
  0
POLYLINE
  8
LAYER_5
 40
0.1058
 41
0.1058
 66
1
 10
0
 20
0
 30
0
  0
VERTEX
  8
LAYER_5
 10
71.217
 20
89.2521
  0
VERTEX
  8
LAYER_5
 10
71.2646
 20
89.2865
  0
SEQEND
  0
ENDBLK
  0
BLOCK
  8
LAYER_5
  2
AIGNBL0504012C
 70
64
 10
0
 20
0
 30
0
  3
AIGNBL0504012C
  0
POLYLINE
  8
LAYER_5
 40
0.1058
 41
0.1058
 66
1
 10
0
 20
0
 30
0
  0
VERTEX
  8
LAYER_5
 10
71.2646
 20
89.2865
  0
VERTEX
  8
LAYER_5
 10
71.3107
 20
89.3258
  0
SEQEND
  0
ENDBLK
  0
BLOCK
  8
LAYER_5
  2
AIGNBL0504012D
 70
64
 10
0
 20
0
 30
0
  3
AIGNBL0504012D
  0
POLYLINE
  8
LAYER_5
 40
0.1058
 41
0.1058
 66
1
 10
0
 20
0
 30
0
  0
VERTEX
  8
LAYER_5
 10
71.3107
 20
89.3258
  0
VERTEX
  8
LAYER_5
 10
71.3514
 20
89.3699
  0
SEQEND
  0
ENDBLK
  0
BLOCK
  8
LAYER_5
  2
AIGNBL0504012E
 70
64
 10
0
 20
0
 30
0
  3
AIGNBL0504012E
  0
POLYLINE
  8
LAYER_5
 40
0.1058
 41
0.1058
 66
1
 10
0
 20
0
 30
0
  0
VERTEX
  8
LAYER_5
 10
71.3514
 20
89.3699
  0
VERTEX
  8
LAYER_5
 10
71.3906
 20
89.4182
  0
SEQEND
  0
ENDBLK
  0
BLOCK
  8
LAYER_5
  2
AIGNBL0504012F
 70
64
 10
0
 20
0
 30
0
  3
AIGNBL0504012F
  0
POLYLINE
  8
LAYER_5
 40
0.1058
 41
0.1058
 66
1
 10
0
 20
0
 30
0
  0
VERTEX
  8
LAYER_5
 10
71.3906
 20
89.4182
  0
VERTEX
  8
LAYER_5
 10
71.4258
 20
89.4712
  0
SEQEND
  0
ENDBLK
  0
BLOCK
  8
LAYER_5
  2
AIGNBL05040130
 70
64
 10
0
 20
0
 30
0
  3
AIGNBL05040130
  0
POLYLINE
  8
LAYER_5
 40
0.1058
 41
0.1058
 66
1
 10
0
 20
0
 30
0
  0
VERTEX
  8
LAYER_5
 10
71.4258
 20
89.4712
  0
VERTEX
  8
LAYER_5
 10
71.4561
 20
89.5263
  0
SEQEND
  0
ENDBLK
  0
BLOCK
  8
LAYER_5
  2
AIGNBL05040131
 70
64
 10
0
 20
0
 30
0
  3
AIGNBL05040131
  0
POLYLINE
  8
LAYER_5
 40
0.1058
 41
0.1058
 66
1
 10
0
 20
0
 30
0
  0
VERTEX
  8
LAYER_5
 10
71.4561
 20
89.5263
  0
VERTEX
  8
LAYER_5
 10
71.4823
 20
89.5842
  0
SEQEND
  0
ENDBLK
  0
BLOCK
  8
LAYER_5
  2
AIGNBL05040132
 70
64
 10
0
 20
0
 30
0
  3
AIGNBL05040132
  0
POLYLINE
  8
LAYER_5
 40
0.1058
 41
0.1058
 66
1
 10
0
 20
0
 30
0
  0
VERTEX
  8
LAYER_5
 10
71.5126
 20
89.6696
  0
VERTEX
  8
LAYER_5
 10
71.5464
 20
89.8508
  0
SEQEND
  0
ENDBLK
  0
BLOCK
  8
LAYER_5
  2
AIGNBL05040133
 70
64
 10
0
 20
0
 30
0
  3
AIGNBL05040133
  0
POLYLINE
  8
LAYER_5
 40
0.1058
 41
0.1058
 66
1
 10
0
 20
0
 30
0
  0
VERTEX
  8
LAYER_5
 10
71.5464
 20
89.8508
 42
0.06038148847
  0
VERTEX
  8
LAYER_5
 10
71.5339
 20
90.0755
  0
SEQEND
  0
ENDBLK
  0
BLOCK
  8
LAYER_5
  2
AIGNBL05040134
 70
64
 10
0
 20
0
 30
0
  3
AIGNBL05040134
  0
POLYLINE
  8
LAYER_5
 40
0.1058
 41
0.1058
 66
1
 10
0
 20
0
 30
0
  0
VERTEX
  8
LAYER_5
 10
71.5339
 20
90.0755
  0
VERTEX
  8
LAYER_5
 10
71.5091
 20
90.1781
  0
SEQEND
  0
ENDBLK
  0
BLOCK
  8
LAYER_5
  2
AIGNBL05040135
 70
64
 10
0
 20
0
 30
0
  3
AIGNBL05040135
  0
POLYLINE
  8
LAYER_5
 40
0.1058
 41
0.1058
 66
1
 10
0
 20
0
 30
0
  0
VERTEX
  8
LAYER_5
 10
71.5091
 20
90.1781
  0
VERTEX
  8
LAYER_5
 10
71.4823
 20
90.2505
  0
SEQEND
  0
ENDBLK
  0
BLOCK
  8
LAYER_5
  2
AIGNBL05040136
 70
64
 10
0
 20
0
 30
0
  3
AIGNBL05040136
  0
POLYLINE
  8
LAYER_5
 40
0.1058
 41
0.1058
 66
1
 10
0
 20
0
 30
0
  0
VERTEX
  8
LAYER_5
 10
71.4823
 20
90.2505
  0
VERTEX
  8
LAYER_5
 10
71.4561
 20
90.309
  0
SEQEND
  0
ENDBLK
  0
BLOCK
  8
LAYER_5
  2
AIGNBL05040137
 70
64
 10
0
 20
0
 30
0
  3
AIGNBL05040137
  0
POLYLINE
  8
LAYER_5
 40
0.1058
 41
0.1058
 66
1
 10
0
 20
0
 30
0
  0
VERTEX
  8
LAYER_5
 10
71.4561
 20
90.309
  0
VERTEX
  8
LAYER_5
 10
71.4258
 20
90.3642
  0
SEQEND
  0
ENDBLK
  0
BLOCK
  8
LAYER_5
  2
AIGNBL05040138
 70
64
 10
0
 20
0
 30
0
  3
AIGNBL05040138
  0
POLYLINE
  8
LAYER_5
 40
0.1058
 41
0.1058
 66
1
 10
0
 20
0
 30
0
  0
VERTEX
  8
LAYER_5
 10
71.4258
 20
90.3642
  0
VERTEX
  8
LAYER_5
 10
71.3906
 20
90.4165
  0
SEQEND
  0
ENDBLK
  0
BLOCK
  8
LAYER_5
  2
AIGNBL05040139
 70
64
 10
0
 20
0
 30
0
  3
AIGNBL05040139
  0
POLYLINE
  8
LAYER_5
 40
0.1058
 41
0.1058
 66
1
 10
0
 20
0
 30
0
  0
VERTEX
  8
LAYER_5
 10
71.3906
 20
90.4165
  0
VERTEX
  8
LAYER_5
 10
71.3514
 20
90.4641
  0
SEQEND
  0
ENDBLK
  0
BLOCK
  8
LAYER_5
  2
AIGNBL0504013A
 70
64
 10
0
 20
0
 30
0
  3
AIGNBL0504013A
  0
POLYLINE
  8
LAYER_5
 40
0.1058
 41
0.1058
 66
1
 10
0
 20
0
 30
0
  0
VERTEX
  8
LAYER_5
 10
71.3514
 20
90.4641
  0
VERTEX
  8
LAYER_5
 10
71.3107
 20
90.5082
  0
SEQEND
  0
ENDBLK
  0
BLOCK
  8
LAYER_5
  2
AIGNBL0504013B
 70
64
 10
0
 20
0
 30
0
  3
AIGNBL0504013B
  0
POLYLINE
  8
LAYER_5
 40
0.1058
 41
0.1058
 66
1
 10
0
 20
0
 30
0
  0
VERTEX
  8
LAYER_5
 10
71.3107
 20
90.5082
  0
VERTEX
  8
LAYER_5
 10
71.2646
 20
90.5481
  0
SEQEND
  0
ENDBLK
  0
BLOCK
  8
LAYER_5
  2
AIGNBL0504013C
 70
64
 10
0
 20
0
 30
0
  3
AIGNBL0504013C
  0
POLYLINE
  8
LAYER_5
 40
0.1058
 41
0.1058
 66
1
 10
0
 20
0
 30
0
  0
VERTEX
  8
LAYER_5
 10
71.2646
 20
90.5481
  0
VERTEX
  8
LAYER_5
 10
71.217
 20
90.5819
  0
SEQEND
  0
ENDBLK
  0
BLOCK
  8
LAYER_5
  2
AIGNBL0504013D
 70
64
 10
0
 20
0
 30
0
  3
AIGNBL0504013D
  0
POLYLINE
  8
LAYER_5
 40
0.1058
 41
0.1058
 66
1
 10
0
 20
0
 30
0
  0
VERTEX
  8
LAYER_5
 10
71.217
 20
90.5819
  0
VERTEX
  8
LAYER_5
 10
71.1674
 20
90.6122
  0
SEQEND
  0
ENDBLK
  0
BLOCK
  8
LAYER_5
  2
AIGNBL0504013E
 70
64
 10
0
 20
0
 30
0
  3
AIGNBL0504013E
  0
POLYLINE
  8
LAYER_5
 40
0.1058
 41
0.1058
 66
1
 10
0
 20
0
 30
0
  0
VERTEX
  8
LAYER_5
 10
71.1674
 20
90.6122
  0
VERTEX
  8
LAYER_5
 10
71.1033
 20
90.6405
  0
SEQEND
  0
ENDBLK
  0
BLOCK
  8
LAYER_5
  2
AIGNBL0504013F
 70
64
 10
0
 20
0
 30
0
  3
AIGNBL0504013F
  0
POLYLINE
  8
LAYER_5
 40
0.1058
 41
0.1058
 66
1
 10
0
 20
0
 30
0
  0
VERTEX
  8
LAYER_5
 10
71.1033
 20
90.6405
  0
VERTEX
  8
LAYER_5
 10
71.0399
 20
90.6618
  0
SEQEND
  0
ENDBLK
  0
BLOCK
  8
LAYER_5
  2
AIGNBL05040140
 70
64
 10
0
 20
0
 30
0
  3
AIGNBL05040140
  0
POLYLINE
  8
LAYER_5
 40
0.1058
 41
0.1058
 66
1
 10
0
 20
0
 30
0
  0
VERTEX
  8
LAYER_5
 10
71.0399
 20
90.6618
  0
VERTEX
  8
LAYER_5
 10
70.9049
 20
90.6777
  0
SEQEND
  0
ENDBLK
  0
BLOCK
  8
LAYER_5
  2
AIGNBL05040141
 70
64
 10
0
 20
0
 30
0
  3
AIGNBL05040141
  0
POLYLINE
  8
LAYER_5
 40
0.1058
 41
0.1058
 66
1
 10
0
 20
0
 30
0
  0
VERTEX
  8
LAYER_5
 10
71.4823
 20
89.5842
  0
VERTEX
  8
LAYER_5
 10
71.5126
 20
89.6696
  0
SEQEND
  0
ENDBLK
  0
BLOCK
  8
LAYER_5
  2
AIGNBL05040142
 70
64
 10
0
 20
0
 30
0
  3
AIGNBL05040142
  0
POLYLINE
  8
LAYER_5
 40
0.1058
 41
0.1058
 66
1
 10
0
 20
0
 30
0
  0
VERTEX
  8
LAYER_5
 10
72.4449
 20
89.146
 42
0.1716999725
  0
VERTEX
  8
LAYER_5
 10
72.4449
 20
90.688
  0
SEQEND
  0
ENDBLK
  0
BLOCK
  8
LAYER_5
  2
AIGNBL05040143
 70
64
 10
0
 20
0
 30
0
  3
AIGNBL05040143
  0
POLYLINE
  8
LAYER_5
 40
0.1058
 41
0.1058
 66
1
 10
0
 20
0
 30
0
  0
VERTEX
  8
LAYER_5
 10
69.3663
 20
90.688
 42
0.1717029627
  0
VERTEX
  8
LAYER_5
 10
69.3663
 20
89.146
  0
SEQEND
  0
ENDBLK
  0
BLOCK
  8
LAYER_5
  2
AIGNBL05040144
 70
64
 10
0
 20
0
 30
0
  3
AIGNBL05040144
  0
POLYLINE
  8
LAYER_5
 40
0.1058
 41
0.1058
 66
1
 10
0
 20
0
 30
0
  0
VERTEX
  8
LAYER_5
 10
70.2972
 20
89.6696
  0
VERTEX
  8
LAYER_5
 10
70.3275
 20
89.5842
  0
SEQEND
  0
ENDBLK
  0
BLOCK
  8
LAYER_5
  2
AIGNBL05040145
 70
64
 10
0
 20
0
 30
0
  3
AIGNBL05040145
  0
POLYLINE
  8
LAYER_5
 40
0.1058
 41
0.1058
 66
1
 10
0
 20
0
 30
0
  0
VERTEX
  8
LAYER_5
 10
70.9049
 20
90.6777
  0
VERTEX
  8
LAYER_5
 10
70.7719
 20
90.6618
  0
SEQEND
  0
ENDBLK
  0
BLOCK
  8
LAYER_5
  2
AIGNBL05040146
 70
64
 10
0
 20
0
 30
0
  3
AIGNBL05040146
  0
POLYLINE
  8
LAYER_5
 40
0.1058
 41
0.1058
 66
1
 10
0
 20
0
 30
0
  0
VERTEX
  8
LAYER_5
 10
70.7719
 20
90.6618
  0
VERTEX
  8
LAYER_5
 10
70.7064
 20
90.6405
  0
SEQEND
  0
ENDBLK
  0
BLOCK
  8
LAYER_5
  2
AIGNBL05040147
 70
64
 10
0
 20
0
 30
0
  3
AIGNBL05040147
  0
POLYLINE
  8
LAYER_5
 40
0.1058
 41
0.1058
 66
1
 10
0
 20
0
 30
0
  0
VERTEX
  8
LAYER_5
 10
70.7064
 20
90.6405
  0
VERTEX
  8
LAYER_5
 10
70.643
 20
90.6122
  0
SEQEND
  0
ENDBLK
  0
BLOCK
  8
LAYER_5
  2
AIGNBL05040148
 70
64
 10
0
 20
0
 30
0
  3
AIGNBL05040148
  0
POLYLINE
  8
LAYER_5
 40
0.1058
 41
0.1058
 66
1
 10
0
 20
0
 30
0
  0
VERTEX
  8
LAYER_5
 10
70.643
 20
90.6122
  0
VERTEX
  8
LAYER_5
 10
70.5934
 20
90.5819
  0
SEQEND
  0
ENDBLK
  0
BLOCK
  8
LAYER_5
  2
AIGNBL05040149
 70
64
 10
0
 20
0
 30
0
  3
AIGNBL05040149
  0
POLYLINE
  8
LAYER_5
 40
0.1058
 41
0.1058
 66
1
 10
0
 20
0
 30
0
  0
VERTEX
  8
LAYER_5
 10
70.5934
 20
90.5819
  0
VERTEX
  8
LAYER_5
 10
70.5452
 20
90.5481
  0
SEQEND
  0
ENDBLK
  0
BLOCK
  8
LAYER_5
  2
AIGNBL0504014A
 70
64
 10
0
 20
0
 30
0
  3
AIGNBL0504014A
  0
POLYLINE
  8
LAYER_5
 40
0.1058
 41
0.1058
 66
1
 10
0
 20
0
 30
0
  0
VERTEX
  8
LAYER_5
 10
70.5452
 20
90.5481
  0
VERTEX
  8
LAYER_5
 10
70.5011
 20
90.5082
  0
SEQEND
  0
ENDBLK
  0
BLOCK
  8
LAYER_5
  2
AIGNBL0504014B
 70
64
 10
0
 20
0
 30
0
  3
AIGNBL0504014B
  0
POLYLINE
  8
LAYER_5
 40
0.1058
 41
0.1058
 66
1
 10
0
 20
0
 30
0
  0
VERTEX
  8
LAYER_5
 10
70.5011
 20
90.5082
  0
VERTEX
  8
LAYER_5
 10
70.4584
 20
90.4641
  0
SEQEND
  0
ENDBLK
  0
BLOCK
  8
LAYER_5
  2
AIGNBL0504014C
 70
64
 10
0
 20
0
 30
0
  3
AIGNBL0504014C
  0
POLYLINE
  8
LAYER_5
 40
0.1058
 41
0.1058
 66
1
 10
0
 20
0
 30
0
  0
VERTEX
  8
LAYER_5
 10
70.4584
 20
90.4641
  0
VERTEX
  8
LAYER_5
 10
70.4198
 20
90.4165
  0
SEQEND
  0
ENDBLK
  0
BLOCK
  8
LAYER_5
  2
AIGNBL0504014D
 70
64
 10
0
 20
0
 30
0
  3
AIGNBL0504014D
  0
POLYLINE
  8
LAYER_5
 40
0.1058
 41
0.1058
 66
1
 10
0
 20
0
 30
0
  0
VERTEX
  8
LAYER_5
 10
70.4198
 20
90.4165
  0
VERTEX
  8
LAYER_5
 10
70.3847
 20
90.3642
  0
SEQEND
  0
ENDBLK
  0
BLOCK
  8
LAYER_5
  2
AIGNBL0504014E
 70
64
 10
0
 20
0
 30
0
  3
AIGNBL0504014E
  0
POLYLINE
  8
LAYER_5
 40
0.1058
 41
0.1058
 66
1
 10
0
 20
0
 30
0
  0
VERTEX
  8
LAYER_5
 10
70.3847
 20
90.3642
  0
VERTEX
  8
LAYER_5
 10
70.3537
 20
90.309
  0
SEQEND
  0
ENDBLK
  0
BLOCK
  8
LAYER_5
  2
AIGNBL0504014F
 70
64
 10
0
 20
0
 30
0
  3
AIGNBL0504014F
  0
POLYLINE
  8
LAYER_5
 40
0.1058
 41
0.1058
 66
1
 10
0
 20
0
 30
0
  0
VERTEX
  8
LAYER_5
 10
70.3537
 20
90.309
  0
VERTEX
  8
LAYER_5
 10
70.3275
 20
90.2505
  0
SEQEND
  0
ENDBLK
  0
BLOCK
  8
LAYER_5
  2
AIGNBL05040150
 70
64
 10
0
 20
0
 30
0
  3
AIGNBL05040150
  0
POLYLINE
  8
LAYER_5
 40
0.1058
 41
0.1058
 66
1
 10
0
 20
0
 30
0
  0
VERTEX
  8
LAYER_5
 10
70.3275
 20
90.2505
  0
VERTEX
  8
LAYER_5
 10
70.3006
 20
90.1781
  0
SEQEND
  0
ENDBLK
  0
BLOCK
  8
LAYER_5
  2
AIGNBL05040151
 70
64
 10
0
 20
0
 30
0
  3
AIGNBL05040151
  0
POLYLINE
  8
LAYER_5
 40
0.1058
 41
0.1058
 66
1
 10
0
 20
0
 30
0
  0
VERTEX
  8
LAYER_5
 10
70.3006
 20
90.1781
  0
VERTEX
  8
LAYER_5
 10
70.2758
 20
90.0755
  0
SEQEND
  0
ENDBLK
  0
BLOCK
  8
LAYER_5
  2
AIGNBL05040152
 70
64
 10
0
 20
0
 30
0
  3
AIGNBL05040152
  0
POLYLINE
  8
LAYER_5
 40
0.1058
 41
0.1058
 66
1
 10
0
 20
0
 30
0
  0
VERTEX
  8
LAYER_5
 10
70.2758
 20
90.0755
 42
0.05933749474
  0
VERTEX
  8
LAYER_5
 10
70.2655
 20
89.8508
  0
SEQEND
  0
ENDBLK
  0
BLOCK
  8
LAYER_5
  2
AIGNBL05040153
 70
64
 10
0
 20
0
 30
0
  3
AIGNBL05040153
  0
POLYLINE
  8
LAYER_5
 40
0.1058
 41
0.1058
 66
1
 10
0
 20
0
 30
0
  0
VERTEX
  8
LAYER_5
 10
70.2655
 20
89.8508
 42
0.05989901422
  0
VERTEX
  8
LAYER_5
 10
70.2972
 20
89.6696
  0
SEQEND
  0
ENDBLK
  0
BLOCK
  8
LAYER_5
  2
AIGNBL05040154
 70
64
 10
0
 20
0
 30
0
  3
AIGNBL05040154
  0
POLYLINE
  8
LAYER_5
 40
0.1058
 41
0.1058
 66
1
 10
0
 20
0
 30
0
  0
VERTEX
  8
LAYER_5
 10
70.3275
 20
89.5842
  0
VERTEX
  8
LAYER_5
 10
70.3537
 20
89.5263
  0
SEQEND
  0
ENDBLK
  0
BLOCK
  8
LAYER_5
  2
AIGNBL05040155
 70
64
 10
0
 20
0
 30
0
  3
AIGNBL05040155
  0
POLYLINE
  8
LAYER_5
 40
0.1058
 41
0.1058
 66
1
 10
0
 20
0
 30
0
  0
VERTEX
  8
LAYER_5
 10
70.3537
 20
89.5263
  0
VERTEX
  8
LAYER_5
 10
70.3847
 20
89.4712
  0
SEQEND
  0
ENDBLK
  0
BLOCK
  8
LAYER_5
  2
AIGNBL05040156
 70
64
 10
0
 20
0
 30
0
  3
AIGNBL05040156
  0
POLYLINE
  8
LAYER_5
 40
0.1058
 41
0.1058
 66
1
 10
0
 20
0
 30
0
  0
VERTEX
  8
LAYER_5
 10
70.3847
 20
89.4712
  0
VERTEX
  8
LAYER_5
 10
70.4198
 20
89.4182
  0
SEQEND
  0
ENDBLK
  0
BLOCK
  8
LAYER_5
  2
AIGNBL05040157
 70
64
 10
0
 20
0
 30
0
  3
AIGNBL05040157
  0
POLYLINE
  8
LAYER_5
 40
0.1058
 41
0.1058
 66
1
 10
0
 20
0
 30
0
  0
VERTEX
  8
LAYER_5
 10
70.4198
 20
89.4182
  0
VERTEX
  8
LAYER_5
 10
70.4584
 20
89.3699
  0
SEQEND
  0
ENDBLK
  0
BLOCK
  8
LAYER_5
  2
AIGNBL05040158
 70
64
 10
0
 20
0
 30
0
  3
AIGNBL05040158
  0
POLYLINE
  8
LAYER_5
 40
0.1058
 41
0.1058
 66
1
 10
0
 20
0
 30
0
  0
VERTEX
  8
LAYER_5
 10
70.4584
 20
89.3699
  0
VERTEX
  8
LAYER_5
 10
70.5011
 20
89.3258
  0
SEQEND
  0
ENDBLK
  0
BLOCK
  8
LAYER_5
  2
AIGNBL05040159
 70
64
 10
0
 20
0
 30
0
  3
AIGNBL05040159
  0
POLYLINE
  8
LAYER_5
 40
0.1058
 41
0.1058
 66
1
 10
0
 20
0
 30
0
  0
VERTEX
  8
LAYER_5
 10
70.5011
 20
89.3258
  0
VERTEX
  8
LAYER_5
 10
70.5452
 20
89.2865
  0
SEQEND
  0
ENDBLK
  0
BLOCK
  8
LAYER_5
  2
AIGNBL0504015A
 70
64
 10
0
 20
0
 30
0
  3
AIGNBL0504015A
  0
POLYLINE
  8
LAYER_5
 40
0.1058
 41
0.1058
 66
1
 10
0
 20
0
 30
0
  0
VERTEX
  8
LAYER_5
 10
70.5452
 20
89.2865
  0
VERTEX
  8
LAYER_5
 10
70.5934
 20
89.2521
  0
SEQEND
  0
ENDBLK
  0
BLOCK
  8
LAYER_5
  2
AIGNBL0504015B
 70
64
 10
0
 20
0
 30
0
  3
AIGNBL0504015B
  0
POLYLINE
  8
LAYER_5
 40
0.1058
 41
0.1058
 66
1
 10
0
 20
0
 30
0
  0
VERTEX
  8
LAYER_5
 10
70.5934
 20
89.2521
  0
VERTEX
  8
LAYER_5
 10
70.6534
 20
89.2176
  0
SEQEND
  0
ENDBLK
  0
BLOCK
  8
LAYER_5
  2
AIGNBL0504015C
 70
64
 10
0
 20
0
 30
0
  3
AIGNBL0504015C
  0
POLYLINE
  8
LAYER_5
 40
0.1058
 41
0.1058
 66
1
 10
0
 20
0
 30
0
  0
VERTEX
  8
LAYER_5
 10
70.6534
 20
89.2176
  0
VERTEX
  8
LAYER_5
 10
70.7064
 20
89.1935
  0
SEQEND
  0
ENDBLK
  0
BLOCK
  8
LAYER_5
  2
AIGNBL0504015D
 70
64
 10
0
 20
0
 30
0
  3
AIGNBL0504015D
  0
POLYLINE
  8
LAYER_5
 40
0.1058
 41
0.1058
 66
1
 10
0
 20
0
 30
0
  0
VERTEX
  8
LAYER_5
 10
70.7064
 20
89.1935
  0
VERTEX
  8
LAYER_5
 10
70.7829
 20
89.1708
  0
SEQEND
  0
ENDBLK
  0
BLOCK
  8
LAYER_5
  2
AIGNBL0504015E
 70
64
 10
0
 20
0
 30
0
  3
AIGNBL0504015E
  0
POLYLINE
  8
LAYER_5
 40
0.1058
 41
0.1058
 66
1
 10
0
 20
0
 30
0
  0
VERTEX
  8
LAYER_5
 10
70.7829
 20
89.1708
  0
VERTEX
  8
LAYER_5
 10
70.9049
 20
89.1563
  0
SEQEND
  0
ENDBLK
  0
BLOCK
  8
LAYER_5
  2
AIGNBL0504015F
 70
64
 10
0
 20
0
 30
0
  3
AIGNBL0504015F
  0
POLYLINE
  8
LAYER_5
 40
0.1058
 41
0.1058
 66
1
 10
0
 20
0
 30
0
 70
1
  0
VERTEX
  8
LAYER_5
 10
72.2409
 20
90.6777
  0
VERTEX
  8
LAYER_5
 10
72.2691
 20
90.6749
  0
VERTEX
  8
LAYER_5
 10
72.2974
 20
90.6673
  0
VERTEX
  8
LAYER_5
 10
72.3257
 20
90.6508
  0
VERTEX
  8
LAYER_5
 10
72.3505
 20
90.6315
  0
VERTEX
  8
LAYER_5
 10
72.3794
 20
90.6053
  0
VERTEX
  8
LAYER_5
 10
72.4021
 20
90.5764
  0
VERTEX
  8
LAYER_5
 10
72.4269
 20
90.5392
  0
VERTEX
  8
LAYER_5
 10
72.4483
 20
90.5006
  0
VERTEX
  8
LAYER_5
 10
72.4697
 20
90.4537
  0
VERTEX
  8
LAYER_5
 10
72.4869
 20
90.4069
  0
VERTEX
  8
LAYER_5
 10
72.5048
 20
90.3525
  0
VERTEX
  8
LAYER_5
 10
72.5193
 20
90.2973
  0
VERTEX
  8
LAYER_5
 10
72.533
 20
90.2381
  0
VERTEX
  8
LAYER_5
 10
72.5441
 20
90.1781
  0
VERTEX
  8
LAYER_5
 10
72.553
 20
90.114
  0
VERTEX
  8
LAYER_5
 10
72.5578
 20
90.0493
  0
VERTEX
  8
LAYER_5
 10
72.5613
 20
89.9831
  0
VERTEX
  8
LAYER_5
 10
72.5634
 20
89.9177
  0
VERTEX
  8
LAYER_5
 10
72.5613
 20
89.8508
  0
VERTEX
  8
LAYER_5
 10
72.5578
 20
89.7847
  0
VERTEX
  8
LAYER_5
 10
72.553
 20
89.7206
  0
VERTEX
  8
LAYER_5
 10
72.5441
 20
89.6572
  0
VERTEX
  8
LAYER_5
 10
72.533
 20
89.5966
  0
VERTEX
  8
LAYER_5
 10
72.5193
 20
89.5367
  0
VERTEX
  8
LAYER_5
 10
72.5048
 20
89.4815
  0
VERTEX
  8
LAYER_5
 10
72.4869
 20
89.4285
  0
VERTEX
  8
LAYER_5
 10
72.4697
 20
89.3809
  0
VERTEX
  8
LAYER_5
 10
72.4483
 20
89.3348
  0
VERTEX
  8
LAYER_5
 10
72.4269
 20
89.2955
  0
VERTEX
  8
LAYER_5
 10
72.4021
 20
89.2583
  0
VERTEX
  8
LAYER_5
 10
72.3794
 20
89.2294
  0
VERTEX
  8
LAYER_5
 10
72.3505
 20
89.2025
  0
VERTEX
  8
LAYER_5
 10
72.3257
 20
89.1832
  0
VERTEX
  8
LAYER_5
 10
72.2974
 20
89.168
  0
VERTEX
  8
LAYER_5
 10
72.2691
 20
89.1591
  0
VERTEX
  8
LAYER_5
 10
72.2409
 20
89.1563
  0
VERTEX
  8
LAYER_5
 10
72.2127
 20
89.1591
  0
VERTEX
  8
LAYER_5
 10
72.1858
 20
89.168
  0
VERTEX
  8
LAYER_5
 10
72.1575
 20
89.1832
  0
VERTEX
  8
LAYER_5
 10
72.1313
 20
89.2025
  0
VERTEX
  8
LAYER_5
 10
72.1045
 20
89.2294
  0
VERTEX
  8
LAYER_5
 10
72.0817
 20
89.2583
  0
VERTEX
  8
LAYER_5
 10
72.0569
 20
89.2955
  0
VERTEX
  8
LAYER_5
 10
72.0356
 20
89.3348
  0
VERTEX
  8
LAYER_5
 10
72.0142
 20
89.3809
  0
VERTEX
  8
LAYER_5
 10
71.9949
 20
89.4285
  0
VERTEX
  8
LAYER_5
 10
71.9777
 20
89.4815
  0
VERTEX
  8
LAYER_5
 10
71.9625
 20
89.5367
  0
VERTEX
  8
LAYER_5
 10
71.9501
 20
89.5966
  0
VERTEX
  8
LAYER_5
 10
71.9398
 20
89.6572
  0
VERTEX
  8
LAYER_5
 10
71.9308
 20
89.7206
  0
VERTEX
  8
LAYER_5
 10
71.9253
 20
89.7847
  0
VERTEX
  8
LAYER_5
 10
71.9219
 20
89.8508
  0
VERTEX
  8
LAYER_5
 10
71.9205
 20
89.9177
  0
VERTEX
  8
LAYER_5
 10
71.9219
 20
89.9831
  0
VERTEX
  8
LAYER_5
 10
71.9253
 20
90.0493
  0
VERTEX
  8
LAYER_5
 10
71.9308
 20
90.114
  0
VERTEX
  8
LAYER_5
 10
71.9398
 20
90.1781
  0
VERTEX
  8
LAYER_5
 10
71.9501
 20
90.2381
  0
VERTEX
  8
LAYER_5
 10
71.9625
 20
90.2973
  0
VERTEX
  8
LAYER_5
 10
71.9777
 20
90.3525
  0
VERTEX
  8
LAYER_5
 10
71.9949
 20
90.4069
  0
VERTEX
  8
LAYER_5
 10
72.0142
 20
90.4537
  0
VERTEX
  8
LAYER_5
 10
72.0356
 20
90.5006
  0
VERTEX
  8
LAYER_5
 10
72.0569
 20
90.5392
  0
VERTEX
  8
LAYER_5
 10
72.0817
 20
90.5764
  0
VERTEX
  8
LAYER_5
 10
72.1045
 20
90.6053
  0
VERTEX
  8
LAYER_5
 10
72.1313
 20
90.6315
  0
VERTEX
  8
LAYER_5
 10
72.1575
 20
90.6508
  0
VERTEX
  8
LAYER_5
 10
72.1858
 20
90.6673
  0
VERTEX
  8
LAYER_5
 10
72.2127
 20
90.6749
  0
SEQEND
  0
ENDBLK
  0
BLOCK
  8
LAYER_5
  2
AIGNBL05040160
 70
64
 10
0
 20
0
 30
0
  3
AIGNBL05040160
  0
POLYLINE
  8
LAYER_5
 40
0.1058
 41
0.1058
 66
1
 10
0
 20
0
 30
0
 70
1
  0
VERTEX
  8
LAYER_5
 10
69.5689
 20
90.6777
  0
VERTEX
  8
LAYER_5
 10
69.5406
 20
90.6749
  0
VERTEX
  8
LAYER_5
 10
69.5131
 20
90.6673
  0
VERTEX
  8
LAYER_5
 10
69.4848
 20
90.6508
  0
VERTEX
  8
LAYER_5
 10
69.4593
 20
90.6315
  0
VERTEX
  8
LAYER_5
 10
69.4325
 20
90.6053
  0
VERTEX
  8
LAYER_5
 10
69.4077
 20
90.5764
  0
VERTEX
  8
LAYER_5
 10
69.3842
 20
90.5392
  0
VERTEX
  8
LAYER_5
 10
69.3615
 20
90.5006
  0
VERTEX
  8
LAYER_5
 10
69.3408
 20
90.4537
  0
VERTEX
  8
LAYER_5
 10
69.3229
 20
90.4069
  0
VERTEX
  8
LAYER_5
 10
69.305
 20
90.3525
  0
VERTEX
  8
LAYER_5
 10
69.2912
 20
90.2973
  0
VERTEX
  8
LAYER_5
 10
69.2774
 20
90.2381
  0
VERTEX
  8
LAYER_5
 10
69.2671
 20
90.1781
  0
VERTEX
  8
LAYER_5
 10
69.2588
 20
90.114
  0
VERTEX
  8
LAYER_5
 10
69.2519
 20
90.0493
  0
VERTEX
  8
LAYER_5
 10
69.2485
 20
89.9831
  0
VERTEX
  8
LAYER_5
 10
69.2485
 20
89.9177
  0
VERTEX
  8
LAYER_5
 10
69.2485
 20
89.8508
  0
VERTEX
  8
LAYER_5
 10
69.2519
 20
89.7847
  0
VERTEX
  8
LAYER_5
 10
69.2588
 20
89.7206
  0
VERTEX
  8
LAYER_5
 10
69.2671
 20
89.6572
  0
VERTEX
  8
LAYER_5
 10
69.2774
 20
89.5966
  0
VERTEX
  8
LAYER_5
 10
69.2912
 20
89.5367
  0
VERTEX
  8
LAYER_5
 10
69.305
 20
89.4815
  0
VERTEX
  8
LAYER_5
 10
69.3229
 20
89.4285
  0
VERTEX
  8
LAYER_5
 10
69.3408
 20
89.3809
  0
VERTEX
  8
LAYER_5
 10
69.3615
 20
89.3348
  0
VERTEX
  8
LAYER_5
 10
69.3842
 20
89.2955
  0
VERTEX
  8
LAYER_5
 10
69.4077
 20
89.2583
  0
VERTEX
  8
LAYER_5
 10
69.4325
 20
89.2294
  0
VERTEX
  8
LAYER_5
 10
69.4593
 20
89.2025
  0
VERTEX
  8
LAYER_5
 10
69.4848
 20
89.1832
  0
VERTEX
  8
LAYER_5
 10
69.5131
 20
89.168
  0
VERTEX
  8
LAYER_5
 10
69.5406
 20
89.1591
  0
VERTEX
  8
LAYER_5
 10
69.5689
 20
89.1563
  0
VERTEX
  8
LAYER_5
 10
69.5971
 20
89.1591
  0
VERTEX
  8
LAYER_5
 10
69.6247
 20
89.168
  0
VERTEX
  8
LAYER_5
 10
69.6529
 20
89.1832
  0
VERTEX
  8
LAYER_5
 10
69.6791
 20
89.2025
  0
VERTEX
  8
LAYER_5
 10
69.7053
 20
89.2294
  0
VERTEX
  8
LAYER_5
 10
69.7301
 20
89.2583
  0
VERTEX
  8
LAYER_5
 10
69.7549
 20
89.2955
  0
VERTEX
  8
LAYER_5
 10
69.7763
 20
89.3348
  0
VERTEX
  8
LAYER_5
 10
69.7976
 20
89.3809
  0
VERTEX
  8
LAYER_5
 10
69.8155
 20
89.4285
  0
VERTEX
  8
LAYER_5
 10
69.8328
 20
89.4815
  0
VERTEX
  8
LAYER_5
 10
69.8472
 20
89.5367
  0
VERTEX
  8
LAYER_5
 10
69.8603
 20
89.5966
  0
VERTEX
  8
LAYER_5
 10
69.8713
 20
89.6572
  0
VERTEX
  8
LAYER_5
 10
69.8789
 20
89.7206
  0
VERTEX
  8
LAYER_5
 10
69.8865
 20
89.7847
  0
VERTEX
  8
LAYER_5
 10
69.89
 20
89.8508
  0
VERTEX
  8
LAYER_5
 10
69.8906
 20
89.9177
  0
VERTEX
  8
LAYER_5
 10
69.89
 20
89.9831
  0
VERTEX
  8
LAYER_5
 10
69.8865
 20
90.0493
  0
VERTEX
  8
LAYER_5
 10
69.8789
 20
90.114
  0
VERTEX
  8
LAYER_5
 10
69.8713
 20
90.1781
  0
VERTEX
  8
LAYER_5
 10
69.8603
 20
90.2381
  0
VERTEX
  8
LAYER_5
 10
69.8472
 20
90.2973
  0
VERTEX
  8
LAYER_5
 10
69.8328
 20
90.3525
  0
VERTEX
  8
LAYER_5
 10
69.8155
 20
90.4069
  0
VERTEX
  8
LAYER_5
 10
69.7976
 20
90.4537
  0
VERTEX
  8
LAYER_5
 10
69.7763
 20
90.5006
  0
VERTEX
  8
LAYER_5
 10
69.7549
 20
90.5392
  0
VERTEX
  8
LAYER_5
 10
69.7301
 20
90.5764
  0
VERTEX
  8
LAYER_5
 10
69.7053
 20
90.6053
  0
VERTEX
  8
LAYER_5
 10
69.6791
 20
90.6315
  0
VERTEX
  8
LAYER_5
 10
69.6529
 20
90.6508
  0
VERTEX
  8
LAYER_5
 10
69.6247
 20
90.6673
  0
VERTEX
  8
LAYER_5
 10
69.5971
 20
90.6749
  0
SEQEND
  0
ENDBLK
  0
BLOCK
  8
LAYER_5
  2
AIGNBL05040161
 70
64
 10
0
 20
0
 30
0
  3
AIGNBL05040161
  0
POLYLINE
  8
LAYER_5
 40
0.1058
 41
0.1058
 66
1
 10
0
 20
0
 30
0
 70
1
  0
VERTEX
  8
LAYER_5
 10
124.9412
 20
90.6749
  0
VERTEX
  8
LAYER_5
 10
124.9901
 20
90.666
  0
VERTEX
  8
LAYER_5
 10
125.037
 20
90.6522
  0
VERTEX
  8
LAYER_5
 10
125.0838
 20
90.6315
  0
VERTEX
  8
LAYER_5
 10
125.1279
 20
90.6067
  0
VERTEX
  8
LAYER_5
 10
125.172
 20
90.575
  0
VERTEX
  8
LAYER_5
 10
125.212
 20
90.5392
  0
VERTEX
  8
LAYER_5
 10
125.2513
 20
90.4985
  0
VERTEX
  8
LAYER_5
 10
125.2864
 20
90.4544
  0
VERTEX
  8
LAYER_5
 10
125.3195
 20
90.4048
  0
VERTEX
  8
LAYER_5
 10
125.3484
 20
90.3531
  0
VERTEX
  8
LAYER_5
 10
125.3753
 20
90.2966
  0
VERTEX
  8
LAYER_5
 10
125.3973
 20
90.2381
  0
VERTEX
  8
LAYER_5
 10
125.416
 20
90.1761
  0
VERTEX
  8
LAYER_5
 10
125.4304
 20
90.114
  0
VERTEX
  8
LAYER_5
 10
125.4408
 20
90.0486
  0
VERTEX
  8
LAYER_5
 10
125.447
 20
89.9831
  0
VERTEX
  8
LAYER_5
 10
125.449
 20
89.9177
  0
VERTEX
  8
LAYER_5
 10
125.447
 20
89.8508
  0
VERTEX
  8
LAYER_5
 10
125.4408
 20
89.7854
  0
VERTEX
  8
LAYER_5
 10
125.4304
 20
89.7206
  0
VERTEX
  8
LAYER_5
 10
125.416
 20
89.6579
  0
VERTEX
  8
LAYER_5
 10
125.3973
 20
89.5966
  0
VERTEX
  8
LAYER_5
 10
125.3753
 20
89.5387
  0
VERTEX
  8
LAYER_5
 10
125.3484
 20
89.4815
  0
VERTEX
  8
LAYER_5
 10
125.3195
 20
89.4292
  0
VERTEX
  8
LAYER_5
 10
125.2864
 20
89.3809
  0
VERTEX
  8
LAYER_5
 10
125.2513
 20
89.3361
  0
VERTEX
  8
LAYER_5
 10
125.212
 20
89.2948
  0
VERTEX
  8
LAYER_5
 10
125.172
 20
89.2597
  0
VERTEX
  8
LAYER_5
 10
125.1279
 20
89.2286
  0
VERTEX
  8
LAYER_5
 10
125.0838
 20
89.2038
  0
VERTEX
  8
LAYER_5
 10
125.037
 20
89.1825
  0
VERTEX
  8
LAYER_5
 10
124.9901
 20
89.168
  0
VERTEX
  8
LAYER_5
 10
124.9412
 20
89.1591
  0
VERTEX
  8
LAYER_5
 10
124.8923
 20
89.1563
  0
VERTEX
  8
LAYER_5
 10
124.8434
 20
89.1591
  0
VERTEX
  8
LAYER_5
 10
124.7951
 20
89.168
  0
VERTEX
  8
LAYER_5
 10
124.7483
 20
89.1825
  0
VERTEX
  8
LAYER_5
 10
124.7007
 20
89.2038
  0
VERTEX
  8
LAYER_5
 10
124.6566
 20
89.2286
  0
VERTEX
  8
LAYER_5
 10
124.6125
 20
89.2597
  0
VERTEX
  8
LAYER_5
 10
124.5726
 20
89.2948
  0
VERTEX
  8
LAYER_5
 10
124.5333
 20
89.3361
  0
VERTEX
  8
LAYER_5
 10
124.4982
 20
89.3809
  0
VERTEX
  8
LAYER_5
 10
124.4651
 20
89.4292
  0
VERTEX
  8
LAYER_5
 10
124.4361
 20
89.4815
  0
VERTEX
  8
LAYER_5
 10
124.4093
 20
89.5387
  0
VERTEX
  8
LAYER_5
 10
124.3873
 20
89.5966
  0
VERTEX
  8
LAYER_5
 10
124.3686
 20
89.6579
  0
VERTEX
  8
LAYER_5
 10
124.3549
 20
89.7206
  0
VERTEX
  8
LAYER_5
 10
124.3438
 20
89.7854
  0
VERTEX
  8
LAYER_5
 10
124.3376
 20
89.8508
  0
VERTEX
  8
LAYER_5
 10
124.3362
 20
89.9177
  0
VERTEX
  8
LAYER_5
 10
124.3376
 20
89.9831
  0
VERTEX
  8
LAYER_5
 10
124.3438
 20
90.0486
  0
VERTEX
  8
LAYER_5
 10
124.3549
 20
90.114
  0
VERTEX
  8
LAYER_5
 10
124.3686
 20
90.1761
  0
VERTEX
  8
LAYER_5
 10
124.3873
 20
90.2381
  0
VERTEX
  8
LAYER_5
 10
124.4093
 20
90.2966
  0
VERTEX
  8
LAYER_5
 10
124.4361
 20
90.3531
  0
VERTEX
  8
LAYER_5
 10
124.4651
 20
90.4048
  0
VERTEX
  8
LAYER_5
 10
124.4982
 20
90.4544
  0
VERTEX
  8
LAYER_5
 10
124.5333
 20
90.4985
  0
VERTEX
  8
LAYER_5
 10
124.5726
 20
90.5392
  0
VERTEX
  8
LAYER_5
 10
124.6125
 20
90.575
  0
VERTEX
  8
LAYER_5
 10
124.6566
 20
90.6067
  0
VERTEX
  8
LAYER_5
 10
124.7007
 20
90.6315
  0
VERTEX
  8
LAYER_5
 10
124.7483
 20
90.6522
  0
VERTEX
  8
LAYER_5
 10
124.7951
 20
90.666
  0
VERTEX
  8
LAYER_5
 10
124.8434
 20
90.6749
  0
VERTEX
  8
LAYER_5
 10
124.8923
 20
90.6777
  0
SEQEND
  0
ENDBLK
  0
BLOCK
  8
LAYER_5
  2
AIGNBL05040162
 70
64
 10
0
 20
0
 30
0
  3
AIGNBL05040162
  0
POLYLINE
  8
LAYER_5
 40
0.1058
 41
0.1058
 66
1
 10
0
 20
0
 30
0
 70
1
  0
VERTEX
  8
LAYER_5
 10
123.3013
 20
90.6749
  0
VERTEX
  8
LAYER_5
 10
123.2517
 20
90.666
  0
VERTEX
  8
LAYER_5
 10
123.2056
 20
90.6522
  0
VERTEX
  8
LAYER_5
 10
123.158
 20
90.6315
  0
VERTEX
  8
LAYER_5
 10
123.1132
 20
90.6067
  0
VERTEX
  8
LAYER_5
 10
123.0698
 20
90.575
  0
VERTEX
  8
LAYER_5
 10
123.0305
 20
90.5392
  0
VERTEX
  8
LAYER_5
 10
122.9913
 20
90.4985
  0
VERTEX
  8
LAYER_5
 10
122.9561
 20
90.4544
  0
VERTEX
  8
LAYER_5
 10
122.9224
 20
90.4048
  0
VERTEX
  8
LAYER_5
 10
122.8941
 20
90.3531
  0
VERTEX
  8
LAYER_5
 10
122.8673
 20
90.2966
  0
VERTEX
  8
LAYER_5
 10
122.8445
 20
90.2381
  0
VERTEX
  8
LAYER_5
 10
122.8266
 20
90.1761
  0
VERTEX
  8
LAYER_5
 10
122.8121
 20
90.114
  0
VERTEX
  8
LAYER_5
 10
122.8018
 20
90.0486
  0
VERTEX
  8
LAYER_5
 10
122.7949
 20
89.9831
  0
VERTEX
  8
LAYER_5
 10
122.7928
 20
89.9177
  0
VERTEX
  8
LAYER_5
 10
122.7949
 20
89.8508
  0
VERTEX
  8
LAYER_5
 10
122.8018
 20
89.7854
  0
VERTEX
  8
LAYER_5
 10
122.8121
 20
89.7206
  0
VERTEX
  8
LAYER_5
 10
122.8266
 20
89.6579
  0
VERTEX
  8
LAYER_5
 10
122.8445
 20
89.5966
  0
VERTEX
  8
LAYER_5
 10
122.8673
 20
89.5387
  0
VERTEX
  8
LAYER_5
 10
122.8941
 20
89.4815
  0
VERTEX
  8
LAYER_5
 10
122.9224
 20
89.4292
  0
VERTEX
  8
LAYER_5
 10
122.9561
 20
89.3809
  0
VERTEX
  8
LAYER_5
 10
122.9913
 20
89.3361
  0
VERTEX
  8
LAYER_5
 10
123.0305
 20
89.2948
  0
VERTEX
  8
LAYER_5
 10
123.0698
 20
89.2597
  0
VERTEX
  8
LAYER_5
 10
123.1132
 20
89.2286
  0
VERTEX
  8
LAYER_5
 10
123.158
 20
89.2038
  0
VERTEX
  8
LAYER_5
 10
123.2056
 20
89.1825
  0
VERTEX
  8
LAYER_5
 10
123.2517
 20
89.168
  0
VERTEX
  8
LAYER_5
 10
123.3013
 20
89.1591
  0
VERTEX
  8
LAYER_5
 10
123.3489
 20
89.1563
  0
VERTEX
  8
LAYER_5
 10
123.3985
 20
89.1591
  0
VERTEX
  8
LAYER_5
 10
123.4467
 20
89.168
  0
VERTEX
  8
LAYER_5
 10
123.4943
 20
89.1825
  0
VERTEX
  8
LAYER_5
 10
123.5404
 20
89.2038
  0
VERTEX
  8
LAYER_5
 10
123.5845
 20
89.2286
  0
VERTEX
  8
LAYER_5
 10
123.6293
 20
89.2597
  0
VERTEX
  8
LAYER_5
 10
123.67
 20
89.2948
  0
VERTEX
  8
LAYER_5
 10
123.7085
 20
89.3361
  0
VERTEX
  8
LAYER_5
 10
123.7444
 20
89.3809
  0
VERTEX
  8
LAYER_5
 10
123.7761
 20
89.4292
  0
VERTEX
  8
LAYER_5
 10
123.8064
 20
89.4815
  0
VERTEX
  8
LAYER_5
 10
123.8319
 20
89.5387
  0
VERTEX
  8
LAYER_5
 10
123.8539
 20
89.5966
  0
VERTEX
  8
LAYER_5
 10
123.8726
 20
89.6579
  0
VERTEX
  8
LAYER_5
 10
123.8877
 20
89.7206
  0
VERTEX
  8
LAYER_5
 10
123.8987
 20
89.7854
  0
VERTEX
  8
LAYER_5
 10
123.9036
 20
89.8508
  0
VERTEX
  8
LAYER_5
 10
123.9063
 20
89.9177
  0
VERTEX
  8
LAYER_5
 10
123.9036
 20
89.9831
  0
VERTEX
  8
LAYER_5
 10
123.8987
 20
90.0486
  0
VERTEX
  8
LAYER_5
 10
123.8877
 20
90.114
  0
VERTEX
  8
LAYER_5
 10
123.8726
 20
90.1761
  0
VERTEX
  8
LAYER_5
 10
123.8539
 20
90.2381
  0
VERTEX
  8
LAYER_5
 10
123.8319
 20
90.2966
  0
VERTEX
  8
LAYER_5
 10
123.8064
 20
90.3531
  0
VERTEX
  8
LAYER_5
 10
123.7761
 20
90.4048
  0
VERTEX
  8
LAYER_5
 10
123.7444
 20
90.4544
  0
VERTEX
  8
LAYER_5
 10
123.7085
 20
90.4985
  0
VERTEX
  8
LAYER_5
 10
123.67
 20
90.5392
  0
VERTEX
  8
LAYER_5
 10
123.6293
 20
90.575
  0
VERTEX
  8
LAYER_5
 10
123.5845
 20
90.6067
  0
VERTEX
  8
LAYER_5
 10
123.5404
 20
90.6315
  0
VERTEX
  8
LAYER_5
 10
123.4943
 20
90.6522
  0
VERTEX
  8
LAYER_5
 10
123.4467
 20
90.666
  0
VERTEX
  8
LAYER_5
 10
123.3985
 20
90.6749
  0
VERTEX
  8
LAYER_5
 10
123.3489
 20
90.6777
  0
SEQEND
  0
ENDBLK
  0
BLOCK
  8
LAYER_5
  2
AIGNBL05040164
 70
64
 10
0
 20
0
 30
0
  3
AIGNBL05040164
  0
POLYLINE
  8
LAYER_5
 40
0.1058
 41
0.1058
 66
1
 10
0
 20
0
 30
0
  0
VERTEX
  8
LAYER_5
 10
71.7234
 20
92.6889
  0
VERTEX
  8
LAYER_5
 10
71.4947
 20
92.6889
  0
SEQEND
  0
ENDBLK
  0
BLOCK
  8
LAYER_5
  2
AIGNBL05040165
 70
64
 10
0
 20
0
 30
0
  3
AIGNBL05040165
  0
POLYLINE
  8
LAYER_5
 40
0.1058
 41
0.1058
 66
1
 10
0
 20
0
 30
0
  0
VERTEX
  8
LAYER_5
 10
71.4947
 20
92.6889
  0
VERTEX
  8
LAYER_5
 10
71.4947
 20
91.3384
  0
SEQEND
  0
ENDBLK
  0
BLOCK
  8
LAYER_5
  2
AIGNBL05040166
 70
64
 10
0
 20
0
 30
0
  3
AIGNBL05040166
  0
POLYLINE
  8
LAYER_5
 40
0.1058
 41
0.1058
 66
1
 10
0
 20
0
 30
0
  0
VERTEX
  8
LAYER_5
 10
71.4947
 20
91.3384
  0
VERTEX
  8
LAYER_5
 10
71.7234
 20
91.3384
  0
SEQEND
  0
ENDBLK
  0
BLOCK
  8
LAYER_5
  2
AIGNBL05040167
 70
64
 10
0
 20
0
 30
0
  3
AIGNBL05040167
  0
POLYLINE
  8
LAYER_5
 40
0.1058
 41
0.1058
 66
1
 10
0
 20
0
 30
0
  0
VERTEX
  8
LAYER_5
 10
71.7234
 20
91.3384
  0
VERTEX
  8
LAYER_5
 10
71.7234
 20
92.6889
  0
SEQEND
  0
ENDBLK
  0
BLOCK
  8
LAYER_5
  2
AIGNBL05040168
 70
64
 10
0
 20
0
 30
0
  3
AIGNBL05040168
  0
POLYLINE
  8
LAYER_5
 40
0.1058
 41
0.1058
 66
1
 10
0
 20
0
 30
0
  0
VERTEX
  8
LAYER_5
 10
72.3187
 20
91.3384
  0
VERTEX
  8
LAYER_5
 10
72.3187
 20
92.6889
  0
SEQEND
  0
ENDBLK
  0
BLOCK
  8
LAYER_5
  2
AIGNBL05040169
 70
64
 10
0
 20
0
 30
0
  3
AIGNBL05040169
  0
POLYLINE
  8
LAYER_5
 40
0.1058
 41
0.1058
 66
1
 10
0
 20
0
 30
0
  0
VERTEX
  8
LAYER_5
 10
72.3187
 20
92.6889
  0
VERTEX
  8
LAYER_5
 10
71.8047
 20
93.5798
  0
SEQEND
  0
ENDBLK
  0
BLOCK
  8
LAYER_5
  2
AIGNBL0504016A
 70
64
 10
0
 20
0
 30
0
  3
AIGNBL0504016A
  0
POLYLINE
  8
LAYER_5
 40
0.1058
 41
0.1058
 66
1
 10
0
 20
0
 30
0
  0
VERTEX
  8
LAYER_5
 10
72.1913
 20
91.2647
  0
VERTEX
  8
LAYER_5
 10
72.3187
 20
91.3384
  0
SEQEND
  0
ENDBLK
  0
BLOCK
  8
LAYER_5
  2
AIGNBL0504016B
 70
64
 10
0
 20
0
 30
0
  3
AIGNBL0504016B
  0
POLYLINE
  8
LAYER_5
 40
0.1058
 41
0.1058
 66
1
 10
0
 20
0
 30
0
  0
VERTEX
  8
LAYER_5
 10
70.9049
 20
91.2647
  0
VERTEX
  8
LAYER_5
 10
72.1913
 20
91.2647
  0
SEQEND
  0
ENDBLK
  0
BLOCK
  8
LAYER_5
  2
AIGNBL0504016C
 70
64
 10
0
 20
0
 30
0
  3
AIGNBL0504016C
  0
POLYLINE
  8
LAYER_5
 40
0.1058
 41
0.1058
 66
1
 10
0
 20
0
 30
0
  0
VERTEX
  8
LAYER_5
 10
70.9049
 20
93.5798
  0
VERTEX
  8
LAYER_5
 10
71.8047
 20
93.5798
  0
SEQEND
  0
ENDBLK
  0
BLOCK
  8
LAYER_5
  2
AIGNBL0504016D
 70
64
 10
0
 20
0
 30
0
  3
AIGNBL0504016D
  0
POLYLINE
  8
LAYER_5
 40
0.1058
 41
0.1058
 66
1
 10
0
 20
0
 30
0
  0
VERTEX
  8
LAYER_5
 10
70.005
 20
93.5798
  0
VERTEX
  8
LAYER_5
 10
70.9049
 20
93.5798
  0
SEQEND
  0
ENDBLK
  0
BLOCK
  8
LAYER_5
  2
AIGNBL0504016E
 70
64
 10
0
 20
0
 30
0
  3
AIGNBL0504016E
  0
POLYLINE
  8
LAYER_5
 40
0.1058
 41
0.1058
 66
1
 10
0
 20
0
 30
0
  0
VERTEX
  8
LAYER_5
 10
69.6199
 20
91.2647
  0
VERTEX
  8
LAYER_5
 10
70.9049
 20
91.2647
  0
SEQEND
  0
ENDBLK
  0
BLOCK
  8
LAYER_5
  2
AIGNBL0504016F
 70
64
 10
0
 20
0
 30
0
  3
AIGNBL0504016F
  0
POLYLINE
  8
LAYER_5
 40
0.1058
 41
0.1058
 66
1
 10
0
 20
0
 30
0
  0
VERTEX
  8
LAYER_5
 10
69.491
 20
91.3384
  0
VERTEX
  8
LAYER_5
 10
69.6199
 20
91.2647
  0
SEQEND
  0
ENDBLK
  0
BLOCK
  8
LAYER_5
  2
AIGNBL05040170
 70
64
 10
0
 20
0
 30
0
  3
AIGNBL05040170
  0
POLYLINE
  8
LAYER_5
 40
0.1058
 41
0.1058
 66
1
 10
0
 20
0
 30
0
  0
VERTEX
  8
LAYER_5
 10
70.005
 20
93.5798
  0
VERTEX
  8
LAYER_5
 10
69.491
 20
92.6889
  0
SEQEND
  0
ENDBLK
  0
BLOCK
  8
LAYER_5
  2
AIGNBL05040171
 70
64
 10
0
 20
0
 30
0
  3
AIGNBL05040171
  0
POLYLINE
  8
LAYER_5
 40
0.1058
 41
0.1058
 66
1
 10
0
 20
0
 30
0
  0
VERTEX
  8
LAYER_5
 10
69.491
 20
92.6889
  0
VERTEX
  8
LAYER_5
 10
69.491
 20
91.3384
  0
SEQEND
  0
ENDBLK
  0
BLOCK
  8
LAYER_5
  2
AIGNBL05040172
 70
64
 10
0
 20
0
 30
0
  3
AIGNBL05040172
  0
POLYLINE
  8
LAYER_5
 40
0.1058
 41
0.1058
 66
1
 10
0
 20
0
 30
0
  0
VERTEX
  8
LAYER_5
 10
70.0863
 20
92.6889
  0
VERTEX
  8
LAYER_5
 10
70.0863
 20
91.3384
  0
SEQEND
  0
ENDBLK
  0
BLOCK
  8
LAYER_5
  2
AIGNBL05040173
 70
64
 10
0
 20
0
 30
0
  3
AIGNBL05040173
  0
POLYLINE
  8
LAYER_5
 40
0.1058
 41
0.1058
 66
1
 10
0
 20
0
 30
0
  0
VERTEX
  8
LAYER_5
 10
70.0863
 20
91.3384
  0
VERTEX
  8
LAYER_5
 10
70.3165
 20
91.3384
  0
SEQEND
  0
ENDBLK
  0
BLOCK
  8
LAYER_5
  2
AIGNBL05040174
 70
64
 10
0
 20
0
 30
0
  3
AIGNBL05040174
  0
POLYLINE
  8
LAYER_5
 40
0.1058
 41
0.1058
 66
1
 10
0
 20
0
 30
0
  0
VERTEX
  8
LAYER_5
 10
70.3165
 20
91.3384
  0
VERTEX
  8
LAYER_5
 10
70.3165
 20
92.6889
  0
SEQEND
  0
ENDBLK
  0
BLOCK
  8
LAYER_5
  2
AIGNBL05040175
 70
64
 10
0
 20
0
 30
0
  3
AIGNBL05040175
  0
POLYLINE
  8
LAYER_5
 40
0.1058
 41
0.1058
 66
1
 10
0
 20
0
 30
0
  0
VERTEX
  8
LAYER_5
 10
70.3165
 20
92.6889
  0
VERTEX
  8
LAYER_5
 10
70.0863
 20
92.6889
  0
SEQEND
  0
ENDBLK
  0
BLOCK
  8
LAYER_5
  2
AIGNBL05040176
 70
64
 10
0
 20
0
 30
0
  3
AIGNBL05040176
  0
POLYLINE
  8
LAYER_5
 40
0.1058
 41
0.1058
 66
1
 10
0
 20
0
 30
0
  0
VERTEX
  8
LAYER_5
 10
122.7067
 20
92.6889
  0
VERTEX
  8
LAYER_5
 10
122.7067
 20
91.3384
  0
SEQEND
  0
ENDBLK
  0
BLOCK
  8
LAYER_5
  2
AIGNBL05040177
 70
64
 10
0
 20
0
 30
0
  3
AIGNBL05040177
  0
POLYLINE
  8
LAYER_5
 40
0.1058
 41
0.1058
 66
1
 10
0
 20
0
 30
0
  0
VERTEX
  8
LAYER_5
 10
123.2214
 20
93.5798
  0
VERTEX
  8
LAYER_5
 10
122.7067
 20
92.6889
  0
SEQEND
  0
ENDBLK
  0
BLOCK
  8
LAYER_5
  2
AIGNBL05040178
 70
64
 10
0
 20
0
 30
0
  3
AIGNBL05040178
  0
POLYLINE
  8
LAYER_5
 40
0.1058
 41
0.1058
 66
1
 10
0
 20
0
 30
0
  0
VERTEX
  8
LAYER_5
 10
122.7067
 20
91.3384
  0
VERTEX
  8
LAYER_5
 10
122.8356
 20
91.2647
  0
SEQEND
  0
ENDBLK
  0
BLOCK
  8
LAYER_5
  2
AIGNBL05040179
 70
64
 10
0
 20
0
 30
0
  3
AIGNBL05040179
  0
POLYLINE
  8
LAYER_5
 40
0.1058
 41
0.1058
 66
1
 10
0
 20
0
 30
0
  0
VERTEX
  8
LAYER_5
 10
122.8356
 20
91.2647
  0
VERTEX
  8
LAYER_5
 10
124.1206
 20
91.2647
  0
SEQEND
  0
ENDBLK
  0
BLOCK
  8
LAYER_5
  2
AIGNBL0504017A
 70
64
 10
0
 20
0
 30
0
  3
AIGNBL0504017A
  0
POLYLINE
  8
LAYER_5
 40
0.1058
 41
0.1058
 66
1
 10
0
 20
0
 30
0
  0
VERTEX
  8
LAYER_5
 10
123.2214
 20
93.5798
  0
VERTEX
  8
LAYER_5
 10
124.1206
 20
93.5798
  0
SEQEND
  0
ENDBLK
  0
BLOCK
  8
LAYER_5
  2
AIGNBL0504017B
 70
64
 10
0
 20
0
 30
0
  3
AIGNBL0504017B
  0
POLYLINE
  8
LAYER_5
 40
0.1058
 41
0.1058
 66
1
 10
0
 20
0
 30
0
  0
VERTEX
  8
LAYER_5
 10
124.1206
 20
93.5798
  0
VERTEX
  8
LAYER_5
 10
125.0211
 20
93.5798
  0
SEQEND
  0
ENDBLK
  0
BLOCK
  8
LAYER_5
  2
AIGNBL0504017C
 70
64
 10
0
 20
0
 30
0
  3
AIGNBL0504017C
  0
POLYLINE
  8
LAYER_5
 40
0.1058
 41
0.1058
 66
1
 10
0
 20
0
 30
0
  0
VERTEX
  8
LAYER_5
 10
124.1206
 20
91.2647
  0
VERTEX
  8
LAYER_5
 10
125.4063
 20
91.2647
  0
SEQEND
  0
ENDBLK
  0
BLOCK
  8
LAYER_5
  2
AIGNBL0504017D
 70
64
 10
0
 20
0
 30
0
  3
AIGNBL0504017D
  0
POLYLINE
  8
LAYER_5
 40
0.1058
 41
0.1058
 66
1
 10
0
 20
0
 30
0
  0
VERTEX
  8
LAYER_5
 10
125.4063
 20
91.2647
  0
VERTEX
  8
LAYER_5
 10
125.5358
 20
91.3384
  0
SEQEND
  0
ENDBLK
  0
BLOCK
  8
LAYER_5
  2
AIGNBL0504017E
 70
64
 10
0
 20
0
 30
0
  3
AIGNBL0504017E
  0
POLYLINE
  8
LAYER_5
 40
0.1058
 41
0.1058
 66
1
 10
0
 20
0
 30
0
  0
VERTEX
  8
LAYER_5
 10
125.5358
 20
92.6889
  0
VERTEX
  8
LAYER_5
 10
125.0211
 20
93.5798
  0
SEQEND
  0
ENDBLK
  0
BLOCK
  8
LAYER_5
  2
AIGNBL0504017F
 70
64
 10
0
 20
0
 30
0
  3
AIGNBL0504017F
  0
POLYLINE
  8
LAYER_5
 40
0.1058
 41
0.1058
 66
1
 10
0
 20
0
 30
0
  0
VERTEX
  8
LAYER_5
 10
125.5358
 20
91.3384
  0
VERTEX
  8
LAYER_5
 10
125.5358
 20
92.6889
  0
SEQEND
  0
ENDBLK
  0
BLOCK
  8
LAYER_5
  2
AIGNBL05040180
 70
64
 10
0
 20
0
 30
0
  3
AIGNBL05040180
  0
POLYLINE
  8
LAYER_5
 40
0.1058
 41
0.1058
 66
1
 10
0
 20
0
 30
0
  0
VERTEX
  8
LAYER_5
 10
123.989
 20
92.6889
  0
VERTEX
  8
LAYER_5
 10
124.2536
 20
92.6889
  0
SEQEND
  0
ENDBLK
  0
BLOCK
  8
LAYER_5
  2
AIGNBL05040181
 70
64
 10
0
 20
0
 30
0
  3
AIGNBL05040181
  0
POLYLINE
  8
LAYER_5
 40
0.1058
 41
0.1058
 66
1
 10
0
 20
0
 30
0
  0
VERTEX
  8
LAYER_5
 10
124.2536
 20
92.6889
  0
VERTEX
  8
LAYER_5
 10
124.2536
 20
91.3384
  0
SEQEND
  0
ENDBLK
  0
BLOCK
  8
LAYER_5
  2
AIGNBL05040182
 70
64
 10
0
 20
0
 30
0
  3
AIGNBL05040182
  0
POLYLINE
  8
LAYER_5
 40
0.1058
 41
0.1058
 66
1
 10
0
 20
0
 30
0
  0
VERTEX
  8
LAYER_5
 10
122.7067
 20
92.6889
  0
VERTEX
  8
LAYER_5
 10
122.9686
 20
92.6889
  0
SEQEND
  0
ENDBLK
  0
BLOCK
  8
LAYER_5
  2
AIGNBL05040183
 70
64
 10
0
 20
0
 30
0
  3
AIGNBL05040183
  0
POLYLINE
  8
LAYER_5
 40
0.1058
 41
0.1058
 66
1
 10
0
 20
0
 30
0
  0
VERTEX
  8
LAYER_5
 10
122.9686
 20
92.6889
  0
VERTEX
  8
LAYER_5
 10
122.9686
 20
91.3384
  0
SEQEND
  0
ENDBLK
  0
BLOCK
  8
LAYER_5
  2
AIGNBL05040184
 70
64
 10
0
 20
0
 30
0
  3
AIGNBL05040184
  0
POLYLINE
  8
LAYER_5
 40
0.1058
 41
0.1058
 66
1
 10
0
 20
0
 30
0
  0
VERTEX
  8
LAYER_5
 10
125.274
 20
92.6889
  0
VERTEX
  8
LAYER_5
 10
125.5358
 20
92.6889
  0
SEQEND
  0
ENDBLK
  0
BLOCK
  8
LAYER_5
  2
AIGNBL05040185
 70
64
 10
0
 20
0
 30
0
  3
AIGNBL05040185
  0
POLYLINE
  8
LAYER_5
 40
0.1058
 41
0.1058
 66
1
 10
0
 20
0
 30
0
  0
VERTEX
  8
LAYER_5
 10
123.989
 20
91.3384
  0
VERTEX
  8
LAYER_5
 10
124.2536
 20
91.3384
  0
SEQEND
  0
ENDBLK
  0
BLOCK
  8
LAYER_5
  2
AIGNBL05040186
 70
64
 10
0
 20
0
 30
0
  3
AIGNBL05040186
  0
POLYLINE
  8
LAYER_5
 40
0.1058
 41
0.1058
 66
1
 10
0
 20
0
 30
0
  0
VERTEX
  8
LAYER_5
 10
123.989
 20
91.3384
  0
VERTEX
  8
LAYER_5
 10
123.989
 20
92.6889
  0
SEQEND
  0
ENDBLK
  0
BLOCK
  8
LAYER_5
  2
AIGNBL05040187
 70
64
 10
0
 20
0
 30
0
  3
AIGNBL05040187
  0
POLYLINE
  8
LAYER_5
 40
0.1058
 41
0.1058
 66
1
 10
0
 20
0
 30
0
  0
VERTEX
  8
LAYER_5
 10
125.274
 20
91.3384
  0
VERTEX
  8
LAYER_5
 10
125.5358
 20
91.3384
  0
SEQEND
  0
ENDBLK
  0
BLOCK
  8
LAYER_5
  2
AIGNBL05040188
 70
64
 10
0
 20
0
 30
0
  3
AIGNBL05040188
  0
POLYLINE
  8
LAYER_5
 40
0.1058
 41
0.1058
 66
1
 10
0
 20
0
 30
0
  0
VERTEX
  8
LAYER_5
 10
125.274
 20
91.3384
  0
VERTEX
  8
LAYER_5
 10
125.274
 20
92.6889
  0
SEQEND
  0
ENDBLK
  0
BLOCK
  8
LAYER_5
  2
AIGNBL05040189
 70
64
 10
0
 20
0
 30
0
  3
AIGNBL05040189
  0
POLYLINE
  8
LAYER_5
 40
0.1058
 41
0.1058
 66
1
 10
0
 20
0
 30
0
  0
VERTEX
  8
LAYER_5
 10
122.9686
 20
91.3384
  0
VERTEX
  8
LAYER_5
 10
122.7067
 20
91.3384
  0
SEQEND
  0
ENDBLK
  0
BLOCK
  8
LAYER_5
  2
AIGNBL0504018A
 70
64
 10
0
 20
0
 30
0
  3
AIGNBL0504018A
  0
POLYLINE
  8
LAYER_5
 40
0.1058
 41
0.1058
 66
1
 10
0
 20
0
 30
0
  0
VERTEX
  8
LAYER_5
 10
70.9049
 20
91.2647
 42
0.06198592193
  0
VERTEX
  8
LAYER_5
 10
71.4947
 20
91.3384
  0
SEQEND
  0
ENDBLK
  0
BLOCK
  8
LAYER_5
  2
AIGNBL0504018B
 70
64
 10
0
 20
0
 30
0
  3
AIGNBL0504018B
  0
POLYLINE
  8
LAYER_5
 40
0.1058
 41
0.1058
 66
1
 10
0
 20
0
 30
0
  0
VERTEX
  8
LAYER_5
 10
71.4947
 20
92.6889
 42
0.1810024687
  0
VERTEX
  8
LAYER_5
 10
70.9049
 20
92.9108
  0
SEQEND
  0
ENDBLK
  0
BLOCK
  8
LAYER_5
  2
AIGNBL0504018C
 70
64
 10
0
 20
0
 30
0
  3
AIGNBL0504018C
  0
POLYLINE
  8
LAYER_5
 40
0.1058
 41
0.1058
 66
1
 10
0
 20
0
 30
0
  0
VERTEX
  8
LAYER_5
 10
71.7234
 20
91.3384
 42
0.2484469538
  0
VERTEX
  8
LAYER_5
 10
72.3187
 20
91.3384
  0
SEQEND
  0
ENDBLK
  0
BLOCK
  8
LAYER_5
  2
AIGNBL0504018D
 70
64
 10
0
 20
0
 30
0
  3
AIGNBL0504018D
  0
POLYLINE
  8
LAYER_5
 40
0.1058
 41
0.1058
 66
1
 10
0
 20
0
 30
0
  0
VERTEX
  8
LAYER_5
 10
72.3187
 20
92.6889
 42
0.394333151
  0
VERTEX
  8
LAYER_5
 10
71.9343
 20
92.8998
 42
0.2514891503
  0
VERTEX
  8
LAYER_5
 10
71.7234
 20
92.6889
  0
SEQEND
  0
ENDBLK
  0
BLOCK
  8
LAYER_5
  2
AIGNBL0504018E
 70
64
 10
0
 20
0
 30
0
  3
AIGNBL0504018E
  0
POLYLINE
  8
LAYER_5
 40
0.1058
 41
0.1058
 66
1
 10
0
 20
0
 30
0
  0
VERTEX
  8
LAYER_5
 10
70.0863
 20
92.6889
 42
0.3939099551
  0
VERTEX
  8
LAYER_5
 10
69.7019
 20
92.8998
 42
0.2475701008
  0
VERTEX
  8
LAYER_5
 10
69.491
 20
92.6889
  0
SEQEND
  0
ENDBLK
  0
BLOCK
  8
LAYER_5
  2
AIGNBL0504018F
 70
64
 10
0
 20
0
 30
0
  3
AIGNBL0504018F
  0
POLYLINE
  8
LAYER_5
 40
0.1058
 41
0.1058
 66
1
 10
0
 20
0
 30
0
  0
VERTEX
  8
LAYER_5
 10
69.491
 20
91.3384
 42
0.2484487057
  0
VERTEX
  8
LAYER_5
 10
70.0863
 20
91.3384
  0
SEQEND
  0
ENDBLK
  0
BLOCK
  8
LAYER_5
  2
AIGNBL05040190
 70
64
 10
0
 20
0
 30
0
  3
AIGNBL05040190
  0
POLYLINE
  8
LAYER_5
 40
0.1058
 41
0.1058
 66
1
 10
0
 20
0
 30
0
  0
VERTEX
  8
LAYER_5
 10
70.9049
 20
92.9108
 42
0.182623031
  0
VERTEX
  8
LAYER_5
 10
70.3165
 20
92.6889
  0
SEQEND
  0
ENDBLK
  0
BLOCK
  8
LAYER_5
  2
AIGNBL05040191
 70
64
 10
0
 20
0
 30
0
  3
AIGNBL05040191
  0
POLYLINE
  8
LAYER_5
 40
0.1058
 41
0.1058
 66
1
 10
0
 20
0
 30
0
  0
VERTEX
  8
LAYER_5
 10
70.3165
 20
91.3384
 42
0.06238047557
  0
VERTEX
  8
LAYER_5
 10
70.9049
 20
91.2647
  0
SEQEND
  0
ENDBLK
  0
BLOCK
  8
LAYER_5
  2
AIGNBL05040192
 70
64
 10
0
 20
0
 30
0
  3
AIGNBL05040192
  0
POLYLINE
  8
LAYER_5
 40
0.1058
 41
0.1058
 66
1
 10
0
 20
0
 30
0
  0
VERTEX
  8
LAYER_5
 10
123.989
 20
92.6889
 42
0.3916593657
  0
VERTEX
  8
LAYER_5
 10
123.0057
 20
92.7261
  0
VERTEX
  8
LAYER_5
 10
122.9686
 20
92.6889
  0
SEQEND
  0
ENDBLK
  0
BLOCK
  8
LAYER_5
  2
AIGNBL05040193
 70
64
 10
0
 20
0
 30
0
  3
AIGNBL05040193
  0
POLYLINE
  8
LAYER_5
 40
0.1058
 41
0.1058
 66
1
 10
0
 20
0
 30
0
  0
VERTEX
  8
LAYER_5
 10
125.274
 20
92.6889
 42
0.4134897015
  0
VERTEX
  8
LAYER_5
 10
124.2908
 20
92.7261
  0
VERTEX
  8
LAYER_5
 10
124.2536
 20
92.6889
  0
SEQEND
  0
ENDBLK
  0
BLOCK
  8
LAYER_5
  2
AIGNBL05040194
 70
64
 10
0
 20
0
 30
0
  3
AIGNBL05040194
  0
POLYLINE
  8
LAYER_5
 40
0.1058
 41
0.1058
 66
1
 10
0
 20
0
 30
0
  0
VERTEX
  8
LAYER_5
 10
122.9686
 20
91.3384
 42
0.1447832881
  0
VERTEX
  8
LAYER_5
 10
123.989
 20
91.3384
  0
SEQEND
  0
ENDBLK
  0
BLOCK
  8
LAYER_5
  2
AIGNBL05040195
 70
64
 10
0
 20
0
 30
0
  3
AIGNBL05040195
  0
POLYLINE
  8
LAYER_5
 40
0.1058
 41
0.1058
 66
1
 10
0
 20
0
 30
0
  0
VERTEX
  8
LAYER_5
 10
124.2536
 20
91.3384
 42
0.1447711495
  0
VERTEX
  8
LAYER_5
 10
125.274
 20
91.3384
  0
SEQEND
  0
ENDBLK
  0
BLOCK
  8
LAYER_5
  2
AIGNBL050401D0
 70
64
 10
0
 20
0
 30
0
  3
AIGNBL050401D0
  0
POLYLINE
  8
LAYER_5
  6
AIGENLINE001
 40
0.1058
 41
0.1058
 66
1
 10
0
 20
0
 30
0
 70
128
  0
VERTEX
  8
LAYER_5
 10
123.0588
 20
171.6223
  0
VERTEX
  8
LAYER_5
 10
125.0211
 20
170.8857
  0
SEQEND
  0
ENDBLK
  0
BLOCK
  8
LAYER_5
  2
AIGNBL050401D1
 70
64
 10
0
 20
0
 30
0
  3
AIGNBL050401D1
  0
POLYLINE
  8
LAYER_5
  6
AIGENLINE001
 40
0.1058
 41
0.1058
 66
1
 10
0
 20
0
 30
0
 70
128
  0
VERTEX
  8
LAYER_5
 10
127.4472
 20
170.8857
  0
VERTEX
  8
LAYER_5
 10
125.0211
 20
170.8857
  0
SEQEND
  0
ENDBLK
  0
BLOCK
  8
LAYER_5
  2
AIGNBL050401D2
 70
64
 10
0
 20
0
 30
0
  3
AIGNBL050401D2
  0
POLYLINE
  8
LAYER_5
  6
AIGENLINE001
 40
0.1058
 41
0.1058
 66
1
 10
0
 20
0
 30
0
 70
128
  0
VERTEX
  8
LAYER_5
 10
123.7396
 20
174.3315
  0
VERTEX
  8
LAYER_5
 10
121.9591
 20
175.1163
  0
SEQEND
  0
ENDBLK
  0
BLOCK
  8
LAYER_5
  2
AIGNBL050401D3
 70
64
 10
0
 20
0
 30
0
  3
AIGNBL050401D3
  0
POLYLINE
  8
LAYER_5
  6
AIGENLINE001
 40
0.1058
 41
0.1058
 66
1
 10
0
 20
0
 30
0
 70
128
  0
VERTEX
  8
LAYER_5
 10
121.9178
 20
175.2162
  0
VERTEX
  8
LAYER_5
 10
122.0046
 20
175.4318
  0
SEQEND
  0
ENDBLK
  0
BLOCK
  8
LAYER_5
  2
AIGNBL050401D4
 70
64
 10
0
 20
0
 30
0
  3
AIGNBL050401D4
  0
POLYLINE
  8
LAYER_5
  6
AIGENLINE001
 40
0.1058
 41
0.1058
 66
1
 10
0
 20
0
 30
0
 70
128
  0
VERTEX
  8
LAYER_5
 10
128.2623
 20
172.9031
  0
VERTEX
  8
LAYER_5
 10
127.4472
 20
170.8857
  0
SEQEND
  0
ENDBLK
  0
BLOCK
  8
LAYER_5
  2
AIGNBL050401D5
 70
64
 10
0
 20
0
 30
0
  3
AIGNBL050401D5
  0
POLYLINE
  8
LAYER_5
  6
AIGENLINE001
 40
0.1058
 41
0.1058
 66
1
 10
0
 20
0
 30
0
 70
128
  0
VERTEX
  8
LAYER_5
 10
122.1052
 20
175.4746
  0
VERTEX
  8
LAYER_5
 10
128.2196
 20
173.0037
  0
SEQEND
  0
ENDBLK
  0
BLOCK
  8
LAYER_5
  2
AIGNBL050401D6
 70
64
 10
0
 20
0
 30
0
  3
AIGNBL050401D6
  0
POLYLINE
  8
LAYER_5
  6
AIGENLINE001
 40
0.1058
 41
0.1058
 66
1
 10
0
 20
0
 30
0
 70
128
  0
VERTEX
  8
LAYER_5
 10
123.023
 20
171.7063
  0
VERTEX
  8
LAYER_5
 10
123.9146
 20
173.9132
  0
SEQEND
  0
ENDBLK
  0
BLOCK
  8
LAYER_5
  2
AIGNBL050401D7
 70
64
 10
0
 20
0
 30
0
  3
AIGNBL050401D7
  0
POLYLINE
  8
LAYER_5
  6
AIGENLINE001
 40
0.1058
 41
0.1058
 66
1
 10
0
 20
0
 30
0
 70
128
  0
VERTEX
  8
LAYER_5
 10
128.2623
 20
172.9031
 42
0.3930748607
  0
VERTEX
  8
LAYER_5
 10
128.2196
 20
173.0037
  0
SEQEND
  0
ENDBLK
  0
BLOCK
  8
LAYER_5
  2
AIGNBL050401D8
 70
64
 10
0
 20
0
 30
0
  3
AIGNBL050401D8
  0
POLYLINE
  8
LAYER_5
  6
AIGENLINE001
 40
0.1058
 41
0.1058
 66
1
 10
0
 20
0
 30
0
 70
128
  0
VERTEX
  8
LAYER_5
 10
122.0756
 20
175.4794
 42
0.3018771768
  0
VERTEX
  8
LAYER_5
 10
122.0046
 20
175.4318
  0
SEQEND
  0
ENDBLK
  0
BLOCK
  8
LAYER_5
  2
AIGNBL050401D9
 70
64
 10
0
 20
0
 30
0
  3
AIGNBL050401D9
  0
POLYLINE
  8
LAYER_5
  6
AIGENLINE001
 40
0.1058
 41
0.1058
 66
1
 10
0
 20
0
 30
0
 70
128
  0
VERTEX
  8
LAYER_5
 10
121.9178
 20
175.2162
 42
0.3883480575
  0
VERTEX
  8
LAYER_5
 10
121.9591
 20
175.1163
  0
SEQEND
  0
ENDBLK
  0
BLOCK
  8
LAYER_5
  2
AIGNBL050401DA
 70
64
 10
0
 20
0
 30
0
  3
AIGNBL050401DA
  0
POLYLINE
  8
LAYER_5
  6
AIGENLINE001
 40
0.1058
 41
0.1058
 66
1
 10
0
 20
0
 30
0
 70
128
  0
VERTEX
  8
LAYER_5
 10
123.023
 20
171.7063
 42
0.3955355928
  0
VERTEX
  8
LAYER_5
 10
123.0588
 20
171.6223
  0
SEQEND
  0
ENDBLK
  0
BLOCK
  8
LAYER_5
  2
AIGNBL050401DB
 70
64
 10
0
 20
0
 30
0
  3
AIGNBL050401DB
  0
POLYLINE
  8
LAYER_5
  6
AIGENLINE001
 40
0.1058
 41
0.1058
 66
1
 10
0
 20
0
 30
0
 70
128
  0
VERTEX
  8
LAYER_5
 10
123.9146
 20
173.9132
 42
0.410560649
  0
VERTEX
  8
LAYER_5
 10
123.7396
 20
174.3315
  0
SEQEND
  0
ENDBLK
  0
BLOCK
  8
LAYER_5
  2
AIGNBL050401DC
 70
64
 10
0
 20
0
 30
0
  3
AIGNBL050401DC
  0
POLYLINE
  8
LAYER_5
  6
AIGENLINE001
 40
0.1058
 41
0.1058
 66
1
 10
0
 20
0
 30
0
 70
128
  0
VERTEX
  8
LAYER_5
 10
122.1052
 20
175.4746
  0
VERTEX
  8
LAYER_5
 10
122.0756
 20
175.4794
  0
SEQEND
  0
ENDBLK
  0
BLOCK
  8
LAYER_5
  2
AIGNBL05040241
 70
64
 10
0
 20
0
 30
0
  3
AIGNBL05040241
  0
POLYLINE
  8
LAYER_5
 40
0.1058
 41
0.1058
 66
1
 10
0
 20
0
 30
0
  0
VERTEX
  8
LAYER_5
 10
71.5161
 20
93.5798
  0
VERTEX
  8
LAYER_5
 10
71.5161
 20
135.1904
  0
SEQEND
  0
ENDBLK
  0
BLOCK
  8
LAYER_5
  2
AIGNBL05040242
 70
64
 10
0
 20
0
 30
0
  3
AIGNBL05040242
  0
POLYLINE
  8
LAYER_5
 40
0.1058
 41
0.1058
 66
1
 10
0
 20
0
 30
0
  0
VERTEX
  8
LAYER_5
 10
70.2944
 20
135.1904
  0
VERTEX
  8
LAYER_5
 10
70.2944
 20
93.5798
  0
SEQEND
  0
ENDBLK
  0
BLOCK
  8
LAYER_5
  2
AIGNBL05040243
 70
64
 10
0
 20
0
 30
0
  3
AIGNBL05040243
  0
POLYLINE
  8
LAYER_5
 40
0.1058
 41
0.1058
 66
1
 10
0
 20
0
 30
0
  0
VERTEX
  8
LAYER_5
 10
124.7311
 20
93.5798
  0
VERTEX
  8
LAYER_5
 10
124.7311
 20
135.1649
  0
SEQEND
  0
ENDBLK
  0
BLOCK
  8
LAYER_5
  2
AIGNBL05040244
 70
64
 10
0
 20
0
 30
0
  3
AIGNBL05040244
  0
POLYLINE
  8
LAYER_5
 40
0.1058
 41
0.1058
 66
1
 10
0
 20
0
 30
0
  0
VERTEX
  8
LAYER_5
 10
123.5101
 20
132.6203
  0
VERTEX
  8
LAYER_5
 10
123.5101
 20
132.6217
  0
SEQEND
  0
ENDBLK
  0
BLOCK
  8
LAYER_5
  2
AIGNBL05040245
 70
64
 10
0
 20
0
 30
0
  3
AIGNBL05040245
  0
POLYLINE
  8
LAYER_5
 40
0.1058
 41
0.1058
 66
1
 10
0
 20
0
 30
0
  0
VERTEX
  8
LAYER_5
 10
123.5101
 20
93.5798
  0
VERTEX
  8
LAYER_5
 10
123.5101
 20
135.1649
  0
SEQEND
  0
ENDBLK
  0
BLOCK
  8
LAYER_5
  2
AIGNBL05030005
 70
64
 10
0
 20
0
 30
0
  3
AIGNBL05030005
  0
INSERT
  8
LAYER_5
  2
AIGNBL05040006
 10
0
 20
0
 30
0
  0
INSERT
  8
LAYER_5
  2
AIGNBL05040007
 10
0
 20
0
 30
0
  0
INSERT
  8
LAYER_5
  2
AIGNBL05040008
 10
0
 20
0
 30
0
  0
INSERT
  8
LAYER_5
  2
AIGNBL05040009
 10
0
 20
0
 30
0
  0
INSERT
  8
LAYER_5
  2
AIGNBL0504000A
 10
0
 20
0
 30
0
  0
INSERT
  8
LAYER_5
  2
AIGNBL0504000B
 10
0
 20
0
 30
0
  0
INSERT
  8
LAYER_5
  2
AIGNBL0504000C
 10
0
 20
0
 30
0
  0
ENDBLK
  0
BLOCK
  8
LAYER_5
  2
AIGNBL0503000E
 70
64
 10
0
 20
0
 30
0
  3
AIGNBL0503000E
  0
POLYLINE
  8
LAYER_5
 40
0.05
 41
0.05
 66
1
 10
0
 20
0
 30
0
 70
1
  0
VERTEX
  8
LAYER_5
 10
145.7475
 20
36.0574
  0
VERTEX
  8
LAYER_5
 10
146.3008
 20
36.0574
  0
VERTEX
  8
LAYER_5
 10
146.3008
 20
35.9637
  0
VERTEX
  8
LAYER_5
 10
145.6424
 20
35.9637
  0
VERTEX
  8
LAYER_5
 10
145.6424
 20
36.9969
  0
VERTEX
  8
LAYER_5
 10
146.2832
 20
36.9969
  0
VERTEX
  8
LAYER_5
 10
146.2832
 20
36.9035
  0
VERTEX
  8
LAYER_5
 10
145.7475
 20
36.9035
  0
VERTEX
  8
LAYER_5
 10
145.7475
 20
36.549
  0
VERTEX
  8
LAYER_5
 10
146.2481
 20
36.549
  0
VERTEX
  8
LAYER_5
 10
146.2481
 20
36.4557
  0
VERTEX
  8
LAYER_5
 10
145.7475
 20
36.4557
  0
SEQEND
  0
ENDBLK
  0
BLOCK
  8
LAYER_5
  2
AIGNBL0503000F
 70
64
 10
0
 20
0
 30
0
  3
AIGNBL0503000F
  0
POLYLINE
  8
LAYER_5
 40
0.05
 41
0.05
 66
1
 10
0
 20
0
 30
0
 70
1
  0
VERTEX
  8
LAYER_5
 10
147.4404
 20
36.117
  0
VERTEX
  8
LAYER_5
 10
147.4432
 20
36.117
  0
VERTEX
  8
LAYER_5
 10
147.4432
 20
36.9969
  0
VERTEX
  8
LAYER_5
 10
147.5483
 20
36.9969
  0
VERTEX
  8
LAYER_5
 10
147.5483
 20
35.9637
  0
VERTEX
  8
LAYER_5
 10
147.4174
 20
35.9637
  0
VERTEX
  8
LAYER_5
 10
146.8162
 20
36.8525
  0
VERTEX
  8
LAYER_5
 10
146.8127
 20
36.8525
  0
VERTEX
  8
LAYER_5
 10
146.8127
 20
35.9637
  0
VERTEX
  8
LAYER_5
 10
146.708
 20
35.9637
  0
VERTEX
  8
LAYER_5
 10
146.708
 20
36.9969
  0
VERTEX
  8
LAYER_5
 10
146.8393
 20
36.9969
  0
SEQEND
  0
ENDBLK
  0
BLOCK
  8
LAYER_5
  2
AIGNBL05030010
 70
64
 10
0
 20
0
 30
0
  3
AIGNBL05030010
  0
POLYLINE
  8
LAYER_5
 40
0.05
 41
0.05
 66
1
 10
0
 20
0
 30
0
 70
1
  0
VERTEX
  8
LAYER_5
 10
148.0213
 20
36.1756
 42
0.1557655154
  0
VERTEX
  8
LAYER_5
 10
148.0757
 20
36.0725
 42
0.1918235184
  0
VERTEX
  8
LAYER_5
 10
148.1891
 20
36.0309
  0
VERTEX
  8
LAYER_5
 10
148.2783
 20
36.0505
  0
VERTEX
  8
LAYER_5
 10
148.3344
 20
36.1039
  0
VERTEX
  8
LAYER_5
 10
148.3634
 20
36.1804
  0
VERTEX
  8
LAYER_5
 10
148.3717
 20
36.27
  0
VERTEX
  8
LAYER_5
 10
148.3717
 20
36.9969
  0
VERTEX
  8
LAYER_5
 10
148.4767
 20
36.9969
  0
VERTEX
  8
LAYER_5
 10
148.4767
 20
36.2614
  0
VERTEX
  8
LAYER_5
 10
148.4654
 20
36.1535
 42
-0.0973308998
  0
VERTEX
  8
LAYER_5
 10
148.424
 20
36.0485
 42
-0.1149355521
  0
VERTEX
  8
LAYER_5
 10
148.3393
 20
35.9689
 42
-0.1249341208
  0
VERTEX
  8
LAYER_5
 10
148.2004
 20
35.9375
 42
-0.1793665557
  0
VERTEX
  8
LAYER_5
 10
148.0158
 20
35.9974
 42
-0.1772363953
  0
VERTEX
  8
LAYER_5
 10
147.9234
 20
36.149
  0
SEQEND
  0
ENDBLK
  0
BLOCK
  8
LAYER_5
  2
AIGNBL05030011
 70
64
 10
0
 20
0
 30
0
  3
AIGNBL05030011
  0
POLYLINE
  8
LAYER_5
 40
0.05
 41
0.05
 66
1
 10
0
 20
0
 30
0
 70
1
  0
VERTEX
  8
LAYER_5
 10
149.965
 20
36.4805
 42
-0.1019307791
  0
VERTEX
  8
LAYER_5
 10
149.924
 20
36.2631
 42
-0.1000112985
  0
VERTEX
  8
LAYER_5
 10
149.8113
 20
36.0915
 42
-0.09646612644
  0
VERTEX
  8
LAYER_5
 10
149.6405
 20
35.9785
 42
-0.09758594962
  0
VERTEX
  8
LAYER_5
 10
149.4265
 20
35.9375
 42
-0.1000844711
  0
VERTEX
  8
LAYER_5
 10
149.2129
 20
35.9785
 42
-0.09954994557
  0
VERTEX
  8
LAYER_5
 10
149.042
 20
36.0915
 42
-0.09699237735
  0
VERTEX
  8
LAYER_5
 10
148.9287
 20
36.2631
 42
-0.09653980076
  0
VERTEX
  8
LAYER_5
 10
148.8881
 20
36.4805
 42
-0.1004051845
  0
VERTEX
  8
LAYER_5
 10
148.9287
 20
36.6978
 42
-0.0998654539
  0
VERTEX
  8
LAYER_5
 10
149.042
 20
36.8694
 42
-0.09851519288
  0
VERTEX
  8
LAYER_5
 10
149.2129
 20
36.9824
 42
-0.09768823248
  0
VERTEX
  8
LAYER_5
 10
149.4265
 20
37.0234
 42
-0.1000514256
  0
VERTEX
  8
LAYER_5
 10
149.6405
 20
36.9824
 42
-0.09863053528
  0
VERTEX
  8
LAYER_5
 10
149.8113
 20
36.8694
 42
-0.09807107579
  0
VERTEX
  8
LAYER_5
 10
149.924
 20
36.6978
 42
-0.0978256893
  0
SEQEND
  0
POLYLINE
  8
LAYER_5
 40
0.05
 41
0.05
 66
1
 10
0
 20
0
 30
0
 70
1
  0
VERTEX
  8
LAYER_5
 10
149.8541
 20
36.4798
 42
0.08634913196
  0
VERTEX
  8
LAYER_5
 10
149.8251
 20
36.6517
 42
0.09649608129
  0
VERTEX
  8
LAYER_5
 10
149.7404
 20
36.795
 42
0.1032857511
  0
VERTEX
  8
LAYER_5
 10
149.6053
 20
36.8932
 42
0.1061320656
  0
VERTEX
  8
LAYER_5
 10
149.4265
 20
36.93
 42
0.1115874499
  0
VERTEX
  8
LAYER_5
 10
149.2478
 20
36.8932
 42
0.1058584166
  0
VERTEX
  8
LAYER_5
 10
149.113
 20
36.795
 42
0.09787799956
  0
VERTEX
  8
LAYER_5
 10
149.0283
 20
36.6517
 42
0.08491464556
  0
VERTEX
  8
LAYER_5
 10
148.999
 20
36.4798
 42
0.08693146424
  0
VERTEX
  8
LAYER_5
 10
149.0283
 20
36.3079
 42
0.1009797617
  0
VERTEX
  8
LAYER_5
 10
149.113
 20
36.1649
 42
0.09998489394
  0
VERTEX
  8
LAYER_5
 10
149.2478
 20
36.0674
 42
0.1061678446
  0
VERTEX
  8
LAYER_5
 10
149.4265
 20
36.0309
 42
0.1126980581
  0
VERTEX
  8
LAYER_5
 10
149.6053
 20
36.0674
 42
0.1036982708
  0
VERTEX
  8
LAYER_5
 10
149.7404
 20
36.1649
 42
0.09370250368
  0
VERTEX
  8
LAYER_5
 10
149.8251
 20
36.3079
 42
0.08466662837
  0
SEQEND
  0
ENDBLK
  0
BLOCK
  8
LAYER_5
  2
AIGNBL05030012
 70
64
 10
0
 20
0
 30
0
  3
AIGNBL05030012
  0
POLYLINE
  8
LAYER_5
 40
0.05
 41
0.05
 66
1
 10
0
 20
0
 30
0
 70
1
  0
VERTEX
  8
LAYER_5
 10
150.7398
 20
35.9637
  0
VERTEX
  8
LAYER_5
 10
150.6351
 20
35.9637
  0
VERTEX
  8
LAYER_5
 10
150.6351
 20
36.4091
  0
VERTEX
  8
LAYER_5
 10
150.2482
 20
36.9969
  0
VERTEX
  8
LAYER_5
 10
150.3795
 20
36.9969
  0
VERTEX
  8
LAYER_5
 10
150.6905
 20
36.4967
  0
VERTEX
  8
LAYER_5
 10
151.0041
 20
36.9969
  0
VERTEX
  8
LAYER_5
 10
151.1263
 20
36.9969
  0
VERTEX
  8
LAYER_5
 10
150.7398
 20
36.4091
  0
SEQEND
  0
ENDBLK
  0
BLOCK
  8
LAYER_5
  2
AIGNBL05030013
 70
64
 10
0
 20
0
 30
0
  3
AIGNBL05030013
  0
POLYLINE
  8
LAYER_5
 40
0.05
 41
0.05
 66
1
 10
0
 20
0
 30
0
 70
1
  0
VERTEX
  8
LAYER_5
 10
152.0314
 20
36.9969
  0
VERTEX
  8
LAYER_5
 10
152.339
 20
36.9969
  0
VERTEX
  8
LAYER_5
 10
152.4575
 20
36.9845
  0
VERTEX
  8
LAYER_5
 10
152.5643
 20
36.9421
 42
-0.1168262011
  0
VERTEX
  8
LAYER_5
 10
152.6422
 20
36.8611
 42
-0.1230288266
  0
VERTEX
  8
LAYER_5
 10
152.6718
 20
36.733
 42
-0.1795449175
  0
VERTEX
  8
LAYER_5
 10
152.6219
 20
36.5907
 42
-0.170141964
  0
VERTEX
  8
LAYER_5
 10
152.4885
 20
36.5111
  0
VERTEX
  8
LAYER_5
 10
152.4885
 20
36.5084
 42
-0.1719890535
  0
VERTEX
  8
LAYER_5
 10
152.6553
 20
36.4302
 42
-0.2018462152
  0
VERTEX
  8
LAYER_5
 10
152.7214
 20
36.2496
 42
-0.1247085485
  0
VERTEX
  8
LAYER_5
 10
152.6942
 20
36.1325
 42
-0.1153486961
  0
VERTEX
  8
LAYER_5
 10
152.6181
 20
36.0419
 42
-0.08656795839
  0
VERTEX
  8
LAYER_5
 10
152.4972
 20
35.9844
 42
-0.06557363107
  0
VERTEX
  8
LAYER_5
 10
152.3373
 20
35.9637
  0
VERTEX
  8
LAYER_5
 10
152.0314
 20
35.9637
  0
SEQEND
  0
POLYLINE
  8
LAYER_5
 40
0.05
 41
0.05
 66
1
 10
0
 20
0
 30
0
 70
1
  0
VERTEX
  8
LAYER_5
 10
152.1364
 20
36.5445
  0
VERTEX
  8
LAYER_5
 10
152.348
 20
36.5445
  0
VERTEX
  8
LAYER_5
 10
152.4248
 20
36.5535
  0
VERTEX
  8
LAYER_5
 10
152.4951
 20
36.5831
  0
VERTEX
  8
LAYER_5
 10
152.5471
 20
36.6396
 42
0.1162126025
  0
VERTEX
  8
LAYER_5
 10
152.5668
 20
36.7258
  0
VERTEX
  8
LAYER_5
 10
152.5471
 20
36.8095
  0
VERTEX
  8
LAYER_5
 10
152.494
 20
36.8656
  0
VERTEX
  8
LAYER_5
 10
152.4152
 20
36.897
  0
VERTEX
  8
LAYER_5
 10
152.3187
 20
36.9066
  0
VERTEX
  8
LAYER_5
 10
152.1364
 20
36.9066
  0
SEQEND
  0
POLYLINE
  8
LAYER_5
 40
0.05
 41
0.05
 66
1
 10
0
 20
0
 30
0
 70
1
  0
VERTEX
  8
LAYER_5
 10
152.1364
 20
36.0543
  0
VERTEX
  8
LAYER_5
 10
152.3321
 20
36.0543
  0
VERTEX
  8
LAYER_5
 10
152.4406
 20
36.0653
  0
VERTEX
  8
LAYER_5
 10
152.5313
 20
36.1001
 42
0.1172546835
  0
VERTEX
  8
LAYER_5
 10
152.5929
 20
36.1632
 42
0.1286243504
  0
VERTEX
  8
LAYER_5
 10
152.6164
 20
36.2559
 42
0.2498669706
  0
VERTEX
  8
LAYER_5
 10
152.5471
 20
36.4081
 42
0.1538083763
  0
VERTEX
  8
LAYER_5
 10
152.3511
 20
36.4584
  0
VERTEX
  8
LAYER_5
 10
152.1364
 20
36.4584
  0
SEQEND
  0
ENDBLK
  0
BLOCK
  8
LAYER_5
  2
AIGNBL05030014
 70
64
 10
0
 20
0
 30
0
  3
AIGNBL05030014
  0
POLYLINE
  8
LAYER_5
 40
0.05
 41
0.05
 66
1
 10
0
 20
0
 30
0
 70
1
  0
VERTEX
  8
LAYER_5
 10
153.1534
 20
35.9637
  0
VERTEX
  8
LAYER_5
 10
153.038
 20
35.9637
  0
VERTEX
  8
LAYER_5
 10
153.4849
 20
36.9969
  0
VERTEX
  8
LAYER_5
 10
153.5872
 20
36.9969
  0
VERTEX
  8
LAYER_5
 10
154.0306
 20
35.9637
  0
VERTEX
  8
LAYER_5
 10
153.9138
 20
35.9637
  0
VERTEX
  8
LAYER_5
 10
153.7997
 20
36.2352
  0
VERTEX
  8
LAYER_5
 10
153.2657
 20
36.2352
  0
SEQEND
  0
POLYLINE
  8
LAYER_5
 40
0.05
 41
0.05
 66
1
 10
0
 20
0
 30
0
 70
1
  0
VERTEX
  8
LAYER_5
 10
153.305
 20
36.3316
  0
VERTEX
  8
LAYER_5
 10
153.7604
 20
36.3316
  0
VERTEX
  8
LAYER_5
 10
153.5327
 20
36.8804
  0
SEQEND
  0
ENDBLK
  0
BLOCK
  8
LAYER_5
  2
AIGNBL05030015
 70
64
 10
0
 20
0
 30
0
  3
AIGNBL05030015
  0
POLYLINE
  8
LAYER_5
 40
0.05
 41
0.05
 66
1
 10
0
 20
0
 30
0
 70
1
  0
VERTEX
  8
LAYER_5
 10
154.7151
 20
35.9637
  0
VERTEX
  8
LAYER_5
 10
154.61
 20
35.9637
  0
VERTEX
  8
LAYER_5
 10
154.61
 20
36.9035
  0
VERTEX
  8
LAYER_5
 10
154.2638
 20
36.9035
  0
VERTEX
  8
LAYER_5
 10
154.2638
 20
36.9969
  0
VERTEX
  8
LAYER_5
 10
155.0606
 20
36.9969
  0
VERTEX
  8
LAYER_5
 10
155.0606
 20
36.9035
  0
VERTEX
  8
LAYER_5
 10
154.7151
 20
36.9035
  0
SEQEND
  0
ENDBLK
  0
BLOCK
  8
LAYER_5
  2
AIGNBL05030016
 70
64
 10
0
 20
0
 30
0
  3
AIGNBL05030016
  0
POLYLINE
  8
LAYER_5
 40
0.05
 41
0.05
 66
1
 10
0
 20
0
 30
0
 70
1
  0
VERTEX
  8
LAYER_5
 10
155.4169
 20
36.9969
  0
VERTEX
  8
LAYER_5
 10
155.5216
 20
36.9969
  0
VERTEX
  8
LAYER_5
 10
155.5216
 20
36.549
  0
VERTEX
  8
LAYER_5
 10
156.0852
 20
36.549
  0
VERTEX
  8
LAYER_5
 10
156.0852
 20
36.9969
  0
VERTEX
  8
LAYER_5
 10
156.1903
 20
36.9969
  0
VERTEX
  8
LAYER_5
 10
156.1903
 20
35.9637
  0
VERTEX
  8
LAYER_5
 10
156.0852
 20
35.9637
  0
VERTEX
  8
LAYER_5
 10
156.0852
 20
36.4529
  0
VERTEX
  8
LAYER_5
 10
155.5216
 20
36.4529
  0
VERTEX
  8
LAYER_5
 10
155.5216
 20
35.9637
  0
VERTEX
  8
LAYER_5
 10
155.4169
 20
35.9637
  0
SEQEND
  0
ENDBLK
  0
BLOCK
  8
LAYER_5
  2
AIGNBL05030017
 70
64
 10
0
 20
0
 30
0
  3
AIGNBL05030017
  0
POLYLINE
  8
LAYER_5
 40
0.05
 41
0.05
 66
1
 10
0
 20
0
 30
0
 70
1
  0
VERTEX
  8
LAYER_5
 10
156.7708
 20
35.9637
  0
VERTEX
  8
LAYER_5
 10
156.6657
 20
35.9637
  0
VERTEX
  8
LAYER_5
 10
156.6657
 20
36.9969
  0
VERTEX
  8
LAYER_5
 10
156.9696
 20
36.9969
  0
VERTEX
  8
LAYER_5
 10
157.1101
 20
36.9824
 42
-0.1032885834
  0
VERTEX
  8
LAYER_5
 10
157.2228
 20
36.9349
 42
-0.1280591957
  0
VERTEX
  8
LAYER_5
 10
157.2962
 20
36.8494
 42
-0.1078860225
  0
VERTEX
  8
LAYER_5
 10
157.3223
 20
36.7213
  0
VERTEX
  8
LAYER_5
 10
157.3024
 20
36.6176
  0
VERTEX
  8
LAYER_5
 10
157.2469
 20
36.5366
  0
VERTEX
  8
LAYER_5
 10
157.1635
 20
36.4818
  0
VERTEX
  8
LAYER_5
 10
157.0585
 20
36.4557
  0
VERTEX
  8
LAYER_5
 10
157.3606
 20
35.9637
  0
VERTEX
  8
LAYER_5
 10
157.2321
 20
35.9637
  0
VERTEX
  8
LAYER_5
 10
156.9461
 20
36.4467
  0
VERTEX
  8
LAYER_5
 10
156.7708
 20
36.4467
  0
SEQEND
  0
POLYLINE
  8
LAYER_5
 40
0.05
 41
0.05
 66
1
 10
0
 20
0
 30
0
 70
1
  0
VERTEX
  8
LAYER_5
 10
156.7708
 20
36.5373
  0
VERTEX
  8
LAYER_5
 10
156.9534
 20
36.5373
 42
0.153451873
  0
VERTEX
  8
LAYER_5
 10
157.1491
 20
36.5831
 42
0.2580279849
  0
VERTEX
  8
LAYER_5
 10
157.2176
 20
36.7213
  0
VERTEX
  8
LAYER_5
 10
157.1983
 20
36.8071
  0
VERTEX
  8
LAYER_5
 10
157.146
 20
36.8643
  0
VERTEX
  8
LAYER_5
 10
157.0643
 20
36.8963
  0
VERTEX
  8
LAYER_5
 10
156.9578
 20
36.9066
  0
VERTEX
  8
LAYER_5
 10
156.7708
 20
36.9066
  0
SEQEND
  0
ENDBLK
  0
BLOCK
  8
LAYER_5
  2
AIGNBL05030018
 70
64
 10
0
 20
0
 30
0
  3
AIGNBL05030018
  0
POLYLINE
  8
LAYER_5
 40
0.05
 41
0.05
 66
1
 10
0
 20
0
 30
0
 70
1
  0
VERTEX
  8
LAYER_5
 10
158.7627
 20
36.4805
 42
-0.09904480664
  0
VERTEX
  8
LAYER_5
 10
158.7221
 20
36.2631
 42
-0.09984043552
  0
VERTEX
  8
LAYER_5
 10
158.6087
 20
36.0915
 42
-0.09841590082
  0
VERTEX
  8
LAYER_5
 10
158.4382
 20
35.9785
 42
-0.09758412454
  0
VERTEX
  8
LAYER_5
 10
158.2243
 20
35.9375
 42
-0.09999517154
  0
VERTEX
  8
LAYER_5
 10
158.0103
 20
35.9785
 42
-0.09953435427
  0
VERTEX
  8
LAYER_5
 10
157.8398
 20
36.0915
 42
-0.09853706159
  0
VERTEX
  8
LAYER_5
 10
157.7268
 20
36.2631
 42
-0.09653980076
  0
VERTEX
  8
LAYER_5
 10
157.6862
 20
36.4805
 42
-0.1004051845
  0
VERTEX
  8
LAYER_5
 10
157.7268
 20
36.6978
 42
-0.1008040346
  0
VERTEX
  8
LAYER_5
 10
157.8398
 20
36.8694
 42
-0.09763764092
  0
VERTEX
  8
LAYER_5
 10
158.0103
 20
36.9824
 42
-0.09752919603
  0
VERTEX
  8
LAYER_5
 10
158.2243
 20
37.0234
 42
-0.1000174927
  0
VERTEX
  8
LAYER_5
 10
158.4382
 20
36.9824
 42
-0.1009762109
  0
VERTEX
  8
LAYER_5
 10
158.6087
 20
36.8694
 42
-0.09735230618
  0
VERTEX
  8
LAYER_5
 10
158.7221
 20
36.6978
 42
-0.09580191209
  0
SEQEND
  0
POLYLINE
  8
LAYER_5
 40
0.05
 41
0.05
 66
1
 10
0
 20
0
 30
0
 70
1
  0
VERTEX
  8
LAYER_5
 10
158.6518
 20
36.4798
 42
0.08852014676
  0
VERTEX
  8
LAYER_5
 10
158.6225
 20
36.6517
 42
0.09973444611
  0
VERTEX
  8
LAYER_5
 10
158.5378
 20
36.795
 42
0.1024799068
  0
VERTEX
  8
LAYER_5
 10
158.4031
 20
36.8932
 42
0.1060321998
  0
VERTEX
  8
LAYER_5
 10
158.2243
 20
36.93
 42
0.1116325688
  0
VERTEX
  8
LAYER_5
 10
158.0455
 20
36.8932
 42
0.1060506217
  0
VERTEX
  8
LAYER_5
 10
157.9104
 20
36.795
 42
0.09526104957
  0
VERTEX
  8
LAYER_5
 10
157.8257
 20
36.6517
 42
0.08422602157
  0
VERTEX
  8
LAYER_5
 10
157.7968
 20
36.4798
 42
0.0876992245
  0
VERTEX
  8
LAYER_5
 10
157.8257
 20
36.3079
 42
0.09826867926
  0
VERTEX
  8
LAYER_5
 10
157.9104
 20
36.1649
 42
0.09965756504
  0
VERTEX
  8
LAYER_5
 10
158.0455
 20
36.0674
 42
0.1061654103
  0
VERTEX
  8
LAYER_5
 10
158.2243
 20
36.0309
 42
0.1124388132
  0
VERTEX
  8
LAYER_5
 10
158.4031
 20
36.0674
 42
0.1029122982
  0
VERTEX
  8
LAYER_5
 10
158.5378
 20
36.1649
 42
0.09882210045
  0
VERTEX
  8
LAYER_5
 10
158.6225
 20
36.3079
 42
0.08589740831
  0
SEQEND
  0
ENDBLK
  0
BLOCK
  8
LAYER_5
  2
AIGNBL05030019
 70
64
 10
0
 20
0
 30
0
  3
AIGNBL05030019
  0
POLYLINE
  8
LAYER_5
 40
0.05
 41
0.05
 66
1
 10
0
 20
0
 30
0
 70
1
  0
VERTEX
  8
LAYER_5
 10
160.2045
 20
36.4805
 42
-0.1019307791
  0
VERTEX
  8
LAYER_5
 10
160.1635
 20
36.2631
 42
-0.09929652324
  0
VERTEX
  8
LAYER_5
 10
160.0509
 20
36.0915
 42
-0.09710469009
  0
VERTEX
  8
LAYER_5
 10
159.88
 20
35.9785
 42
-0.09758412454
  0
VERTEX
  8
LAYER_5
 10
159.6661
 20
35.9375
 42
-0.1005051182
  0
VERTEX
  8
LAYER_5
 10
159.4524
 20
35.9785
 42
-0.1009789173
  0
VERTEX
  8
LAYER_5
 10
159.2816
 20
36.0915
 42
-0.09724598852
  0
VERTEX
  8
LAYER_5
 10
159.1682
 20
36.2631
 42
-0.09653980076
  0
VERTEX
  8
LAYER_5
 10
159.1276
 20
36.4805
 42
-0.1004051845
  0
VERTEX
  8
LAYER_5
 10
159.1682
 20
36.6978
 42
-0.1001669327
  0
VERTEX
  8
LAYER_5
 10
159.2816
 20
36.8694
 42
-0.09846843416
  0
VERTEX
  8
LAYER_5
 10
159.4524
 20
36.9824
 42
-0.09783444074
  0
VERTEX
  8
LAYER_5
 10
159.6661
 20
37.0234
 42
-0.1000174927
  0
VERTEX
  8
LAYER_5
 10
159.88
 20
36.9824
 42
-0.098457988
  0
VERTEX
  8
LAYER_5
 10
160.0509
 20
36.8694
 42
-0.09762598086
  0
VERTEX
  8
LAYER_5
 10
160.1635
 20
36.6978
 42
-0.0978256893
  0
SEQEND
  0
POLYLINE
  8
LAYER_5
 40
0.05
 41
0.05
 66
1
 10
0
 20
0
 30
0
 70
1
  0
VERTEX
  8
LAYER_5
 10
160.0936
 20
36.4798
 42
0.08653869446
  0
VERTEX
  8
LAYER_5
 10
160.0647
 20
36.6517
 42
0.09689814906
  0
VERTEX
  8
LAYER_5
 10
159.9799
 20
36.795
 42
0.1032857511
  0
VERTEX
  8
LAYER_5
 10
159.8448
 20
36.8932
 42
0.1061350344
  0
VERTEX
  8
LAYER_5
 10
159.6661
 20
36.93
 42
0.1114208933
  0
VERTEX
  8
LAYER_5
 10
159.4872
 20
36.8932
 42
0.1056595975
  0
VERTEX
  8
LAYER_5
 10
159.3525
 20
36.795
 42
0.09787799956
  0
VERTEX
  8
LAYER_5
 10
159.2678
 20
36.6517
 42
0.08491464556
  0
VERTEX
  8
LAYER_5
 10
159.2385
 20
36.4798
 42
0.08693146424
  0
VERTEX
  8
LAYER_5
 10
159.2678
 20
36.3079
 42
0.1009797617
  0
VERTEX
  8
LAYER_5
 10
159.3525
 20
36.1649
 42
0.09978391674
  0
VERTEX
  8
LAYER_5
 10
159.4872
 20
36.0674
 42
0.1060616244
  0
VERTEX
  8
LAYER_5
 10
159.6661
 20
36.0309
 42
0.1126531325
  0
VERTEX
  8
LAYER_5
 10
159.8448
 20
36.0674
 42
0.1036982708
  0
VERTEX
  8
LAYER_5
 10
159.9799
 20
36.1649
 42
0.09401062747
  0
VERTEX
  8
LAYER_5
 10
160.0647
 20
36.3079
 42
0.0844927763
  0
SEQEND
  0
ENDBLK
  0
BLOCK
  8
LAYER_5
  2
AIGNBL0503001A
 70
64
 10
0
 20
0
 30
0
  3
AIGNBL0503001A
  0
POLYLINE
  8
LAYER_5
 40
0.05
 41
0.05
 66
1
 10
0
 20
0
 30
0
 70
1
  0
VERTEX
  8
LAYER_5
 10
161.1354
 20
36.1418
  0
VERTEX
  8
LAYER_5
 10
161.1371
 20
36.1418
  0
VERTEX
  8
LAYER_5
 10
161.4826
 20
36.9969
  0
VERTEX
  8
LAYER_5
 10
161.6435
 20
36.9969
  0
VERTEX
  8
LAYER_5
 10
161.6435
 20
35.9637
  0
VERTEX
  8
LAYER_5
 10
161.5381
 20
35.9637
  0
VERTEX
  8
LAYER_5
 10
161.5381
 20
36.8611
  0
VERTEX
  8
LAYER_5
 10
161.5354
 20
36.8611
  0
VERTEX
  8
LAYER_5
 10
161.1619
 20
35.9637
  0
VERTEX
  8
LAYER_5
 10
161.1064
 20
35.9637
  0
VERTEX
  8
LAYER_5
 10
160.7326
 20
36.8611
  0
VERTEX
  8
LAYER_5
 10
160.7299
 20
36.8611
  0
VERTEX
  8
LAYER_5
 10
160.7299
 20
35.9637
  0
VERTEX
  8
LAYER_5
 10
160.6248
 20
35.9637
  0
VERTEX
  8
LAYER_5
 10
160.6248
 20
36.9969
  0
VERTEX
  8
LAYER_5
 10
160.7853
 20
36.9969
  0
SEQEND
  0
ENDBLK
  0
BLOCK
  8
LAYER_5
  2
AIGNBL0503001B
 70
64
 10
0
 20
0
 30
0
  3
AIGNBL0503001B
  0
POLYLINE
  8
LAYER_5
 40
0.05
 41
0.05
 66
1
 10
0
 20
0
 30
0
 70
1
  0
VERTEX
  8
LAYER_5
 10
162.79
 20
36.0574
  0
VERTEX
  8
LAYER_5
 10
163.3433
 20
36.0574
  0
VERTEX
  8
LAYER_5
 10
163.3433
 20
35.9637
  0
VERTEX
  8
LAYER_5
 10
162.685
 20
35.9637
  0
VERTEX
  8
LAYER_5
 10
162.685
 20
36.9969
  0
VERTEX
  8
LAYER_5
 10
163.3258
 20
36.9969
  0
VERTEX
  8
LAYER_5
 10
163.3258
 20
36.9035
  0
VERTEX
  8
LAYER_5
 10
162.79
 20
36.9035
  0
VERTEX
  8
LAYER_5
 10
162.79
 20
36.549
  0
VERTEX
  8
LAYER_5
 10
163.2906
 20
36.549
  0
VERTEX
  8
LAYER_5
 10
163.2906
 20
36.4557
  0
VERTEX
  8
LAYER_5
 10
162.79
 20
36.4557
  0
SEQEND
  0
ENDBLK
  0
BLOCK
  8
LAYER_5
  2
AIGNBL0503001C
 70
64
 10
0
 20
0
 30
0
  3
AIGNBL0503001C
  0
POLYLINE
  8
LAYER_5
 40
0.05
 41
0.05
 66
1
 10
0
 20
0
 30
0
 70
1
  0
VERTEX
  8
LAYER_5
 10
164.0885
 20
36.5797
  0
VERTEX
  8
LAYER_5
 10
164.3707
 20
36.9969
  0
VERTEX
  8
LAYER_5
 10
164.4957
 20
36.9969
  0
VERTEX
  8
LAYER_5
 10
164.1533
 20
36.5053
  0
VERTEX
  8
LAYER_5
 10
164.5326
 20
35.9637
  0
VERTEX
  8
LAYER_5
 10
164.4013
 20
35.9637
  0
VERTEX
  8
LAYER_5
 10
164.0858
 20
36.4295
  0
VERTEX
  8
LAYER_5
 10
163.7722
 20
35.9637
  0
VERTEX
  8
LAYER_5
 10
163.6407
 20
35.9637
  0
VERTEX
  8
LAYER_5
 10
164.0203
 20
36.5066
  0
VERTEX
  8
LAYER_5
 10
163.6744
 20
36.9969
  0
VERTEX
  8
LAYER_5
 10
163.806
 20
36.9969
  0
SEQEND
  0
ENDBLK
  0
BLOCK
  8
LAYER_5
  2
AIGNBL0503001D
 70
64
 10
0
 20
0
 30
0
  3
AIGNBL0503001D
  0
POLYLINE
  8
LAYER_5
 40
0.05
 41
0.05
 66
1
 10
0
 20
0
 30
0
 70
1
  0
VERTEX
  8
LAYER_5
 10
164.8988
 20
36.9969
  0
VERTEX
  8
LAYER_5
 10
165.1909
 20
36.9969
  0
VERTEX
  8
LAYER_5
 10
165.3339
 20
36.9804
 42
-0.104160294
  0
VERTEX
  8
LAYER_5
 10
165.4438
 20
36.929
 42
-0.1209616443
  0
VERTEX
  8
LAYER_5
 10
165.5148
 20
36.8429
 42
-0.1032545831
  0
VERTEX
  8
LAYER_5
 10
165.5392
 20
36.7213
 42
-0.1239274235
  0
VERTEX
  8
LAYER_5
 10
165.5141
 20
36.5993
 42
-0.1163667494
  0
VERTEX
  8
LAYER_5
 10
165.4424
 20
36.5132
 42
-0.08715194998
  0
VERTEX
  8
LAYER_5
 10
165.3315
 20
36.4615
 42
-0.06075348808
  0
VERTEX
  8
LAYER_5
 10
165.1878
 20
36.444
  0
VERTEX
  8
LAYER_5
 10
165.0039
 20
36.444
  0
VERTEX
  8
LAYER_5
 10
165.0039
 20
35.9637
  0
VERTEX
  8
LAYER_5
 10
164.8988
 20
35.9637
  0
SEQEND
  0
POLYLINE
  8
LAYER_5
 40
0.05
 41
0.05
 66
1
 10
0
 20
0
 30
0
 70
1
  0
VERTEX
  8
LAYER_5
 10
165.0039
 20
36.5328
  0
VERTEX
  8
LAYER_5
 10
165.1816
 20
36.5328
 42
0.1694225951
  0
VERTEX
  8
LAYER_5
 10
165.3701
 20
36.581
 42
0.2442570363
  0
VERTEX
  8
LAYER_5
 10
165.4345
 20
36.7213
 42
0.2590967024
  0
VERTEX
  8
LAYER_5
 10
165.368
 20
36.8622
 42
0.143072224
  0
VERTEX
  8
LAYER_5
 10
165.1816
 20
36.9066
  0
VERTEX
  8
LAYER_5
 10
165.0039
 20
36.9066
  0
SEQEND
  0
ENDBLK
  0
BLOCK
  8
LAYER_5
  2
AIGNBL0503001E
 70
64
 10
0
 20
0
 30
0
  3
AIGNBL0503001E
  0
POLYLINE
  8
LAYER_5
 40
0.05
 41
0.05
 66
1
 10
0
 20
0
 30
0
 70
1
  0
VERTEX
  8
LAYER_5
 10
166.0515
 20
36.0574
  0
VERTEX
  8
LAYER_5
 10
166.6048
 20
36.0574
  0
VERTEX
  8
LAYER_5
 10
166.6048
 20
35.9637
  0
VERTEX
  8
LAYER_5
 10
165.9465
 20
35.9637
  0
VERTEX
  8
LAYER_5
 10
165.9465
 20
36.9969
  0
VERTEX
  8
LAYER_5
 10
166.5872
 20
36.9969
  0
VERTEX
  8
LAYER_5
 10
166.5872
 20
36.9035
  0
VERTEX
  8
LAYER_5
 10
166.0515
 20
36.9035
  0
VERTEX
  8
LAYER_5
 10
166.0515
 20
36.549
  0
VERTEX
  8
LAYER_5
 10
166.5521
 20
36.549
  0
VERTEX
  8
LAYER_5
 10
166.5521
 20
36.4557
  0
VERTEX
  8
LAYER_5
 10
166.0515
 20
36.4557
  0
SEQEND
  0
ENDBLK
  0
BLOCK
  8
LAYER_5
  2
AIGNBL0503001F
 70
64
 10
0
 20
0
 30
0
  3
AIGNBL0503001F
  0
POLYLINE
  8
LAYER_5
 40
0.05
 41
0.05
 66
1
 10
0
 20
0
 30
0
 70
1
  0
VERTEX
  8
LAYER_5
 10
167.1168
 20
35.9637
  0
VERTEX
  8
LAYER_5
 10
167.0117
 20
35.9637
  0
VERTEX
  8
LAYER_5
 10
167.0117
 20
36.9969
  0
VERTEX
  8
LAYER_5
 10
167.3155
 20
36.9969
  0
VERTEX
  8
LAYER_5
 10
167.4561
 20
36.9824
 42
-0.1039428931
  0
VERTEX
  8
LAYER_5
 10
167.5687
 20
36.9349
 42
-0.1259973384
  0
VERTEX
  8
LAYER_5
 10
167.6425
 20
36.8494
 42
-0.1064650891
  0
VERTEX
  8
LAYER_5
 10
167.6683
 20
36.7213
  0
VERTEX
  8
LAYER_5
 10
167.6483
 20
36.6176
  0
VERTEX
  8
LAYER_5
 10
167.5929
 20
36.5366
  0
VERTEX
  8
LAYER_5
 10
167.5095
 20
36.4818
  0
VERTEX
  8
LAYER_5
 10
167.4044
 20
36.4557
  0
VERTEX
  8
LAYER_5
 10
167.7066
 20
35.9637
  0
VERTEX
  8
LAYER_5
 10
167.578
 20
35.9637
  0
VERTEX
  8
LAYER_5
 10
167.2921
 20
36.4467
  0
VERTEX
  8
LAYER_5
 10
167.1168
 20
36.4467
  0
SEQEND
  0
POLYLINE
  8
LAYER_5
 40
0.05
 41
0.05
 66
1
 10
0
 20
0
 30
0
 70
1
  0
VERTEX
  8
LAYER_5
 10
167.1168
 20
36.5373
  0
VERTEX
  8
LAYER_5
 10
167.2994
 20
36.5373
 42
0.1542400453
  0
VERTEX
  8
LAYER_5
 10
167.495
 20
36.5831
 42
0.2583775622
  0
VERTEX
  8
LAYER_5
 10
167.5636
 20
36.7213
  0
VERTEX
  8
LAYER_5
 10
167.5446
 20
36.8071
  0
VERTEX
  8
LAYER_5
 10
167.4919
 20
36.8643
  0
VERTEX
  8
LAYER_5
 10
167.4103
 20
36.8963
  0
VERTEX
  8
LAYER_5
 10
167.3038
 20
36.9066
  0
VERTEX
  8
LAYER_5
 10
167.1168
 20
36.9066
  0
SEQEND
  0
ENDBLK
  0
BLOCK
  8
LAYER_5
  2
AIGNBL05030020
 70
64
 10
0
 20
0
 30
0
  3
AIGNBL05030020
  0
POLYLINE
  8
LAYER_5
 40
0.05
 41
0.05
 66
1
 10
0
 20
0
 30
0
 70
1
  0
VERTEX
  8
LAYER_5
 10
168.1923
 20
35.9637
  0
VERTEX
  8
LAYER_5
 10
168.0876
 20
35.9637
  0
VERTEX
  8
LAYER_5
 10
168.0876
 20
36.9969
  0
VERTEX
  8
LAYER_5
 10
168.1923
 20
36.9969
  0
SEQEND
  0
ENDBLK
  0
BLOCK
  8
LAYER_5
  2
AIGNBL05030021
 70
64
 10
0
 20
0
 30
0
  3
AIGNBL05030021
  0
POLYLINE
  8
LAYER_5
 40
0.05
 41
0.05
 66
1
 10
0
 20
0
 30
0
 70
1
  0
VERTEX
  8
LAYER_5
 10
168.7732
 20
36.0574
  0
VERTEX
  8
LAYER_5
 10
169.3261
 20
36.0574
  0
VERTEX
  8
LAYER_5
 10
169.3261
 20
35.9637
  0
VERTEX
  8
LAYER_5
 10
168.6681
 20
35.9637
  0
VERTEX
  8
LAYER_5
 10
168.6681
 20
36.9969
  0
VERTEX
  8
LAYER_5
 10
169.3089
 20
36.9969
  0
VERTEX
  8
LAYER_5
 10
169.3089
 20
36.9035
  0
VERTEX
  8
LAYER_5
 10
168.7732
 20
36.9035
  0
VERTEX
  8
LAYER_5
 10
168.7732
 20
36.549
  0
VERTEX
  8
LAYER_5
 10
169.2737
 20
36.549
  0
VERTEX
  8
LAYER_5
 10
169.2737
 20
36.4557
  0
VERTEX
  8
LAYER_5
 10
168.7732
 20
36.4557
  0
SEQEND
  0
ENDBLK
  0
BLOCK
  8
LAYER_5
  2
AIGNBL05030022
 70
64
 10
0
 20
0
 30
0
  3
AIGNBL05030022
  0
POLYLINE
  8
LAYER_5
 40
0.05
 41
0.05
 66
1
 10
0
 20
0
 30
0
 70
1
  0
VERTEX
  8
LAYER_5
 10
170.4661
 20
36.117
  0
VERTEX
  8
LAYER_5
 10
170.4689
 20
36.117
  0
VERTEX
  8
LAYER_5
 10
170.4689
 20
36.9969
  0
VERTEX
  8
LAYER_5
 10
170.5739
 20
36.9969
  0
VERTEX
  8
LAYER_5
 10
170.5739
 20
35.9637
  0
VERTEX
  8
LAYER_5
 10
170.4426
 20
35.9637
  0
VERTEX
  8
LAYER_5
 10
169.8415
 20
36.8525
  0
VERTEX
  8
LAYER_5
 10
169.8384
 20
36.8525
  0
VERTEX
  8
LAYER_5
 10
169.8384
 20
35.9637
  0
VERTEX
  8
LAYER_5
 10
169.7333
 20
35.9637
  0
VERTEX
  8
LAYER_5
 10
169.7333
 20
36.9969
  0
VERTEX
  8
LAYER_5
 10
169.8649
 20
36.9969
  0
SEQEND
  0
ENDBLK
  0
BLOCK
  8
LAYER_5
  2
AIGNBL05030023
 70
64
 10
0
 20
0
 30
0
  3
AIGNBL05030023
  0
POLYLINE
  8
LAYER_5
 40
0.05
 41
0.05
 66
1
 10
0
 20
0
 30
0
 70
1
  0
VERTEX
  8
LAYER_5
 10
171.9196
 20
36.1315
  0
VERTEX
  8
LAYER_5
 10
171.8558
 20
36.0571
  0
VERTEX
  8
LAYER_5
 10
171.7697
 20
35.9954
  0
VERTEX
  8
LAYER_5
 10
171.6615
 20
35.953
  0
VERTEX
  8
LAYER_5
 10
171.5327
 20
35.9375
 42
-0.0997799169
  0
VERTEX
  8
LAYER_5
 10
171.3167
 20
35.9785
 42
-0.102530266
  0
VERTEX
  8
LAYER_5
 10
171.1461
 20
36.0915
 42
-0.09968794278
  0
VERTEX
  8
LAYER_5
 10
171.0345
 20
36.2631
 42
-0.09630702324
  0
VERTEX
  8
LAYER_5
 10
170.9942
 20
36.4805
 42
-0.1018981748
  0
VERTEX
  8
LAYER_5
 10
171.0352
 20
36.6978
 42
-0.09989904409
  0
VERTEX
  8
LAYER_5
 10
171.1479
 20
36.8694
 42
-0.09694965588
  0
VERTEX
  8
LAYER_5
 10
171.3187
 20
36.9824
 42
-0.09744116728
  0
VERTEX
  8
LAYER_5
 10
171.5327
 20
37.0234
  0
VERTEX
  8
LAYER_5
 10
171.6443
 20
37.0114
  0
VERTEX
  8
LAYER_5
 10
171.7473
 20
36.9779
  0
VERTEX
  8
LAYER_5
 10
171.8348
 20
36.9263
  0
VERTEX
  8
LAYER_5
 10
171.9006
 20
36.8584
  0
VERTEX
  8
LAYER_5
 10
171.8131
 20
36.794
  0
VERTEX
  8
LAYER_5
 10
171.7697
 20
36.8439
  0
VERTEX
  8
LAYER_5
 10
171.7063
 20
36.8877
  0
VERTEX
  8
LAYER_5
 10
171.6267
 20
36.9183
  0
VERTEX
  8
LAYER_5
 10
171.5341
 20
36.93
 42
0.1106055686
  0
VERTEX
  8
LAYER_5
 10
171.3539
 20
36.8935
 42
0.1037389517
  0
VERTEX
  8
LAYER_5
 10
171.2188
 20
36.7954
 42
0.09534605581
  0
VERTEX
  8
LAYER_5
 10
171.1341
 20
36.652
 42
0.08447361069
  0
VERTEX
  8
LAYER_5
 10
171.1052
 20
36.4805
 42
0.09038739564
  0
VERTEX
  8
LAYER_5
 10
171.1351
 20
36.3089
 42
0.09795352863
  0
VERTEX
  8
LAYER_5
 10
171.2205
 20
36.1656
 42
0.1034747097
  0
VERTEX
  8
LAYER_5
 10
171.3556
 20
36.0674
 42
0.1064777274
  0
VERTEX
  8
LAYER_5
 10
171.5341
 20
36.0309
 42
0.1092499226
  0
VERTEX
  8
LAYER_5
 10
171.7032
 20
36.0674
 42
0.1370031249
  0
VERTEX
  8
LAYER_5
 10
171.8376
 20
36.1842
  0
SEQEND
  0
ENDBLK
  0
BLOCK
  8
LAYER_5
  2
AIGNBL05030024
 70
64
 10
0
 20
0
 30
0
  3
AIGNBL05030024
  0
POLYLINE
  8
LAYER_5
 40
0.05
 41
0.05
 66
1
 10
0
 20
0
 30
0
 70
1
  0
VERTEX
  8
LAYER_5
 10
172.4067
 20
36.0574
  0
VERTEX
  8
LAYER_5
 10
172.96
 20
36.0574
  0
VERTEX
  8
LAYER_5
 10
172.96
 20
35.9637
  0
VERTEX
  8
LAYER_5
 10
172.3016
 20
35.9637
  0
VERTEX
  8
LAYER_5
 10
172.3016
 20
36.9969
  0
VERTEX
  8
LAYER_5
 10
172.9424
 20
36.9969
  0
VERTEX
  8
LAYER_5
 10
172.9424
 20
36.9035
  0
VERTEX
  8
LAYER_5
 10
172.4067
 20
36.9035
  0
VERTEX
  8
LAYER_5
 10
172.4067
 20
36.549
  0
VERTEX
  8
LAYER_5
 10
172.9073
 20
36.549
  0
VERTEX
  8
LAYER_5
 10
172.9073
 20
36.4557
  0
VERTEX
  8
LAYER_5
 10
172.4067
 20
36.4557
  0
SEQEND
  0
ENDBLK
  0
BLOCK
  8
LAYER_5
  2
AIGNBL05030028
 70
64
 10
0
 20
0
 30
0
  3
AIGNBL05030028
  0
POLYLINE
  8
LAYER_5
 40
0.1058
 41
0.1058
 66
1
 10
0
 20
0
 30
0
  0
VERTEX
  8
LAYER_5
 10
67.6913
 20
138.6996
  0
VERTEX
  8
LAYER_5
 10
67.6913
 20
138.5073
  0
SEQEND
  0
ENDBLK
  0
BLOCK
  8
LAYER_5
  2
AIGNBL05030029
 70
64
 10
0
 20
0
 30
0
  3
AIGNBL05030029
  0
POLYLINE
  8
LAYER_5
 40
0.1058
 41
0.1058
 66
1
 10
0
 20
0
 30
0
  0
VERTEX
  8
LAYER_5
 10
74.1192
 20
138.5073
  0
VERTEX
  8
LAYER_5
 10
74.1192
 20
138.6996
  0
SEQEND
  0
ENDBLK
  0
BLOCK
  8
LAYER_5
  2
AIGNBL0503002A
 70
64
 10
0
 20
0
 30
0
  3
AIGNBL0503002A
  0
POLYLINE
  8
LAYER_5
 40
0.1058
 41
0.1058
 66
1
 10
0
 20
0
 30
0
  0
VERTEX
  8
LAYER_5
 10
67.6913
 20
138.6996
  0
VERTEX
  8
LAYER_5
 10
74.1192
 20
138.6996
  0
SEQEND
  0
ENDBLK
  0
BLOCK
  8
LAYER_5
  2
AIGNBL0503002B
 70
64
 10
0
 20
0
 30
0
  3
AIGNBL0503002B
  0
POLYLINE
  8
LAYER_5
 40
0.1058
 41
0.1058
 66
1
 10
0
 20
0
 30
0
  0
VERTEX
  8
LAYER_5
 10
67.6927
 20
138.5073
  0
VERTEX
  8
LAYER_5
 10
74.1192
 20
138.5073
  0
SEQEND
  0
ENDBLK
  0
BLOCK
  8
LAYER_5
  2
AIGNBL0503002C
 70
64
 10
0
 20
0
 30
0
  3
AIGNBL0503002C
  0
POLYLINE
  8
LAYER_5
 40
0.1058
 41
0.1058
 66
1
 10
0
 20
0
 30
0
  0
VERTEX
  8
LAYER_5
 10
121.6925
 20
138.5073
  0
VERTEX
  8
LAYER_5
 10
128.1196
 20
138.5073
  0
SEQEND
  0
ENDBLK
  0
BLOCK
  8
LAYER_5
  2
AIGNBL0503002D
 70
64
 10
0
 20
0
 30
0
  3
AIGNBL0503002D
  0
POLYLINE
  8
LAYER_5
 40
0.1058
 41
0.1058
 66
1
 10
0
 20
0
 30
0
  0
VERTEX
  8
LAYER_5
 10
121.6911
 20
138.6996
  0
VERTEX
  8
LAYER_5
 10
128.1196
 20
138.6996
  0
SEQEND
  0
ENDBLK
  0
BLOCK
  8
LAYER_5
  2
AIGNBL0503002E
 70
64
 10
0
 20
0
 30
0
  3
AIGNBL0503002E
  0
POLYLINE
  8
LAYER_5
 40
0.1058
 41
0.1058
 66
1
 10
0
 20
0
 30
0
  0
VERTEX
  8
LAYER_5
 10
128.1196
 20
138.5073
  0
VERTEX
  8
LAYER_5
 10
128.1196
 20
138.6996
  0
SEQEND
  0
ENDBLK
  0
BLOCK
  8
LAYER_5
  2
AIGNBL0503002F
 70
64
 10
0
 20
0
 30
0
  3
AIGNBL0503002F
  0
POLYLINE
  8
LAYER_5
 40
0.1058
 41
0.1058
 66
1
 10
0
 20
0
 30
0
  0
VERTEX
  8
LAYER_5
 10
121.6911
 20
138.6996
  0
VERTEX
  8
LAYER_5
 10
121.6911
 20
138.5073
  0
SEQEND
  0
ENDBLK
  0
BLOCK
  8
LAYER_5
  2
AIGNBL05030031
 70
64
 10
0
 20
0
 30
0
  3
AIGNBL05030031
  0
POLYLINE
  8
LAYER_5
 40
0.1058
 41
0.1058
 66
1
 10
0
 20
0
 30
0
  0
VERTEX
  8
LAYER_5
 10
73.5094
 20
140.6929
  0
VERTEX
  8
LAYER_5
 10
68.3025
 20
140.6929
  0
SEQEND
  0
ENDBLK
  0
BLOCK
  8
LAYER_5
  2
AIGNBL05030032
 70
64
 10
0
 20
0
 30
0
  3
AIGNBL05030032
  0
POLYLINE
  8
LAYER_5
 40
0.1058
 41
0.1058
 66
1
 10
0
 20
0
 30
0
  0
VERTEX
  8
LAYER_5
 10
68.3025
 20
140.6929
  0
VERTEX
  8
LAYER_5
 10
68.3025
 20
141.0147
  0
SEQEND
  0
ENDBLK
  0
BLOCK
  8
LAYER_5
  2
AIGNBL05030033
 70
64
 10
0
 20
0
 30
0
  3
AIGNBL05030033
  0
POLYLINE
  8
LAYER_5
 40
0.1058
 41
0.1058
 66
1
 10
0
 20
0
 30
0
  0
VERTEX
  8
LAYER_5
 10
73.5094
 20
141.0147
  0
VERTEX
  8
LAYER_5
 10
73.5094
 20
140.6929
  0
SEQEND
  0
ENDBLK
  0
BLOCK
  8
LAYER_5
  2
AIGNBL05030034
 70
64
 10
0
 20
0
 30
0
  3
AIGNBL05030034
  0
POLYLINE
  8
LAYER_5
 40
0.1058
 41
0.1058
 66
1
 10
0
 20
0
 30
0
  0
VERTEX
  8
LAYER_5
 10
127.5092
 20
141.0147
  0
VERTEX
  8
LAYER_5
 10
127.5092
 20
140.6929
  0
SEQEND
  0
ENDBLK
  0
BLOCK
  8
LAYER_5
  2
AIGNBL05030035
 70
64
 10
0
 20
0
 30
0
  3
AIGNBL05030035
  0
POLYLINE
  8
LAYER_5
 40
0.1058
 41
0.1058
 66
1
 10
0
 20
0
 30
0
  0
VERTEX
  8
LAYER_5
 10
122.3023
 20
140.6929
  0
VERTEX
  8
LAYER_5
 10
122.3023
 20
141.0147
  0
SEQEND
  0
ENDBLK
  0
BLOCK
  8
LAYER_5
  2
AIGNBL05030036
 70
64
 10
0
 20
0
 30
0
  3
AIGNBL05030036
  0
POLYLINE
  8
LAYER_5
 40
0.1058
 41
0.1058
 66
1
 10
0
 20
0
 30
0
  0
VERTEX
  8
LAYER_5
 10
127.5092
 20
140.6929
  0
VERTEX
  8
LAYER_5
 10
122.3023
 20
140.6929
  0
SEQEND
  0
ENDBLK
  0
BLOCK
  8
LAYER_5
  2
AIGNBL05030038
 70
64
 10
0
 20
0
 30
0
  3
AIGNBL05030038
  0
POLYLINE
  8
LAYER_5
 40
0.1058
 41
0.1058
 66
1
 10
0
 20
0
 30
0
  0
VERTEX
  8
LAYER_5
 10
108.4599
 20
167.269
  0
VERTEX
  8
LAYER_5
 10
108.617
 20
167.2353
  0
SEQEND
  0
ENDBLK
  0
BLOCK
  8
LAYER_5
  2
AIGNBL05030039
 70
64
 10
0
 20
0
 30
0
  3
AIGNBL05030039
  0
POLYLINE
  8
LAYER_5
 40
0.1058
 41
0.1058
 66
1
 10
0
 20
0
 30
0
  0
VERTEX
  8
LAYER_5
 10
108.4502
 20
167.5329
  0
VERTEX
  8
LAYER_5
 10
108.4103
 20
167.3455
  0
SEQEND
  0
ENDBLK
  0
BLOCK
  8
LAYER_5
  2
AIGNBL0503003A
 70
64
 10
0
 20
0
 30
0
  3
AIGNBL0503003A
  0
POLYLINE
  8
LAYER_5
 40
0.1058
 41
0.1058
 66
1
 10
0
 20
0
 30
0
  0
VERTEX
  8
LAYER_5
 10
108.617
 20
167.2353
  0
VERTEX
  8
LAYER_5
 10
109.6553
 20
167.0148
  0
SEQEND
  0
ENDBLK
  0
BLOCK
  8
LAYER_5
  2
AIGNBL0503003B
 70
64
 10
0
 20
0
 30
0
  3
AIGNBL0503003B
  0
POLYLINE
  8
LAYER_5
 40
0.1058
 41
0.1058
 66
1
 10
0
 20
0
 30
0
  0
VERTEX
  8
LAYER_5
 10
109.6553
 20
167.0148
  0
VERTEX
  8
LAYER_5
 10
110.6923
 20
166.7943
  0
SEQEND
  0
ENDBLK
  0
BLOCK
  8
LAYER_5
  2
AIGNBL0503003C
 70
64
 10
0
 20
0
 30
0
  3
AIGNBL0503003C
  0
POLYLINE
  8
LAYER_5
 40
0.1058
 41
0.1058
 66
1
 10
0
 20
0
 30
0
  0
VERTEX
  8
LAYER_5
 10
110.9259
 20
166.8102
  0
VERTEX
  8
LAYER_5
 10
110.9665
 20
166.9989
  0
SEQEND
  0
ENDBLK
  0
BLOCK
  8
LAYER_5
  2
AIGNBL0503003D
 70
64
 10
0
 20
0
 30
0
  3
AIGNBL0503003D
  0
POLYLINE
  8
LAYER_5
 40
0.1058
 41
0.1058
 66
1
 10
0
 20
0
 30
0
  0
VERTEX
  8
LAYER_5
 10
110.6923
 20
166.7943
  0
VERTEX
  8
LAYER_5
 10
110.8494
 20
166.7605
  0
SEQEND
  0
ENDBLK
  0
BLOCK
  8
LAYER_5
  2
AIGNBL0503003E
 70
64
 10
0
 20
0
 30
0
  3
AIGNBL0503003E
  0
POLYLINE
  8
LAYER_5
 40
0.1058
 41
0.1058
 66
1
 10
0
 20
0
 30
0
  0
VERTEX
  8
LAYER_5
 10
72.1934
 20
167.083
  0
VERTEX
  8
LAYER_5
 10
72.192
 20
167.925
  0
SEQEND
  0
ENDBLK
  0
BLOCK
  8
LAYER_5
  2
AIGNBL0503003F
 70
64
 10
0
 20
0
 30
0
  3
AIGNBL0503003F
  0
POLYLINE
  8
LAYER_5
 40
0.1058
 41
0.1058
 66
1
 10
0
 20
0
 30
0
  0
VERTEX
  8
LAYER_5
 10
69.6206
 20
167.9277
  0
VERTEX
  8
LAYER_5
 10
69.6213
 20
167.0802
  0
SEQEND
  0
ENDBLK
  0
BLOCK
  8
LAYER_5
  2
AIGNBL05030040
 70
64
 10
0
 20
0
 30
0
  3
AIGNBL05030040
  0
POLYLINE
  8
LAYER_5
 40
0.1058
 41
0.1058
 66
1
 10
0
 20
0
 30
0
  0
VERTEX
  8
LAYER_5
 10
72.0087
 20
167.1292
 42
0.1447965078
  0
VERTEX
  8
LAYER_5
 10
69.7942
 20
167.1223
  0
SEQEND
  0
ENDBLK
  0
BLOCK
  8
LAYER_5
  2
AIGNBL05030041
 70
64
 10
0
 20
0
 30
0
  3
AIGNBL05030041
  0
POLYLINE
  8
LAYER_5
 40
0.1058
 41
0.1058
 66
1
 10
0
 20
0
 30
0
  0
VERTEX
  8
LAYER_5
 10
69.7942
 20
167.1223
 42
0.2334115311
  0
VERTEX
  8
LAYER_5
 10
69.686
 20
167.0175
  0
SEQEND
  0
ENDBLK
  0
BLOCK
  8
LAYER_5
  2
AIGNBL05030042
 70
64
 10
0
 20
0
 30
0
  3
AIGNBL05030042
  0
POLYLINE
  8
LAYER_5
 40
0.1058
 41
0.1058
 66
1
 10
0
 20
0
 30
0
  0
VERTEX
  8
LAYER_5
 10
70.0422
 20
166.8384
 42
0.0957545145
  0
VERTEX
  8
LAYER_5
 10
71.8447
 20
166.8563
  0
SEQEND
  0
ENDBLK
  0
BLOCK
  8
LAYER_5
  2
AIGNBL05030043
 70
64
 10
0
 20
0
 30
0
  3
AIGNBL05030043
  0
POLYLINE
  8
LAYER_5
 40
0.1058
 41
0.1058
 66
1
 10
0
 20
0
 30
0
  0
VERTEX
  8
LAYER_5
 10
69.686
 20
167.0175
 42
0.2336620405
  0
VERTEX
  8
LAYER_5
 10
70.0422
 20
166.8384
  0
SEQEND
  0
ENDBLK
  0
BLOCK
  8
LAYER_5
  2
AIGNBL05030044
 70
64
 10
0
 20
0
 30
0
  3
AIGNBL05030044
  0
POLYLINE
  8
LAYER_5
 40
0.1058
 41
0.1058
 66
1
 10
0
 20
0
 30
0
  0
VERTEX
  8
LAYER_5
 10
71.8633
 20
166.8584
  0
VERTEX
  8
LAYER_5
 10
71.8647
 20
166.8584
  0
VERTEX
  8
LAYER_5
 10
71.8778
 20
166.8618
  0
VERTEX
  8
LAYER_5
 10
71.8916
 20
166.8653
  0
VERTEX
  8
LAYER_5
 10
71.904
 20
166.8687
  0
VERTEX
  8
LAYER_5
 10
71.9164
 20
166.8721
  0
VERTEX
  8
LAYER_5
 10
71.9281
 20
166.8756
  0
VERTEX
  8
LAYER_5
 10
71.9398
 20
166.8797
  0
VERTEX
  8
LAYER_5
 10
71.9501
 20
166.8832
  0
VERTEX
  8
LAYER_5
 10
71.9618
 20
166.8866
  0
VERTEX
  8
LAYER_5
 10
71.977
 20
166.8921
  0
VERTEX
  8
LAYER_5
 10
71.9908
 20
166.897
  0
VERTEX
  8
LAYER_5
 10
72.0053
 20
166.9025
  0
VERTEX
  8
LAYER_5
 10
72.0183
 20
166.908
  0
VERTEX
  8
LAYER_5
 10
72.0321
 20
166.9128
  0
VERTEX
  8
LAYER_5
 10
72.0445
 20
166.9183
  0
VERTEX
  8
LAYER_5
 10
72.0569
 20
166.9238
  0
VERTEX
  8
LAYER_5
 10
72.0693
 20
166.93
  0
VERTEX
  8
LAYER_5
 10
72.0797
 20
166.9362
  0
VERTEX
  8
LAYER_5
 10
72.0914
 20
166.9424
  0
VERTEX
  8
LAYER_5
 10
72.1017
 20
166.9486
  0
VERTEX
  8
LAYER_5
 10
72.1114
 20
166.9555
  0
VERTEX
  8
LAYER_5
 10
72.1224
 20
166.9624
  0
VERTEX
  8
LAYER_5
 10
72.132
 20
166.97
  0
VERTEX
  8
LAYER_5
 10
72.1417
 20
166.979
  0
VERTEX
  8
LAYER_5
 10
72.1499
 20
166.9865
  0
VERTEX
  8
LAYER_5
 10
72.1575
 20
166.9955
  0
VERTEX
  8
LAYER_5
 10
72.163
 20
167.0024
  0
VERTEX
  8
LAYER_5
 10
72.1686
 20
167.0106
  0
VERTEX
  8
LAYER_5
 10
72.1734
 20
167.0182
  0
VERTEX
  8
LAYER_5
 10
72.1789
 20
167.0265
  0
VERTEX
  8
LAYER_5
 10
72.183
 20
167.0354
  0
VERTEX
  8
LAYER_5
 10
72.1858
 20
167.041
  0
VERTEX
  8
LAYER_5
 10
72.1879
 20
167.0458
  0
VERTEX
  8
LAYER_5
 10
72.1892
 20
167.0506
  0
VERTEX
  8
LAYER_5
 10
72.1913
 20
167.0547
  0
VERTEX
  8
LAYER_5
 10
72.192
 20
167.0602
  0
VERTEX
  8
LAYER_5
 10
72.1934
 20
167.0658
  0
VERTEX
  8
LAYER_5
 10
72.1934
 20
167.0706
  0
VERTEX
  8
LAYER_5
 10
72.1934
 20
167.0761
  0
VERTEX
  8
LAYER_5
 10
72.1934
 20
167.0816
  0
SEQEND
  0
ENDBLK
  0
BLOCK
  8
LAYER_5
  2
AIGNBL05030045
 70
64
 10
0
 20
0
 30
0
  3
AIGNBL05030045
  0
POLYLINE
  8
LAYER_5
 40
0.1058
 41
0.1058
 66
1
 10
0
 20
0
 30
0
  0
VERTEX
  8
LAYER_5
 10
69.6213
 20
167.0816
  0
VERTEX
  8
LAYER_5
 10
69.624
 20
167.0616
  0
VERTEX
  8
LAYER_5
 10
69.6274
 20
167.0444
  0
VERTEX
  8
LAYER_5
 10
69.6364
 20
167.0231
  0
VERTEX
  8
LAYER_5
 10
69.6488
 20
167.0038
  0
VERTEX
  8
LAYER_5
 10
69.6646
 20
166.9838
  0
VERTEX
  8
LAYER_5
 10
69.6839
 20
166.9679
  0
VERTEX
  8
LAYER_5
 10
69.7087
 20
166.9486
  0
VERTEX
  8
LAYER_5
 10
69.739
 20
166.9314
  0
VERTEX
  8
LAYER_5
 10
69.7763
 20
166.9142
  0
VERTEX
  8
LAYER_5
 10
69.8169
 20
166.897
  0
VERTEX
  8
LAYER_5
 10
69.8631
 20
166.8811
  0
VERTEX
  8
LAYER_5
 10
69.9127
 20
166.8673
  0
VERTEX
  8
LAYER_5
 10
69.9644
 20
166.8529
  0
VERTEX
  8
LAYER_5
 10
70.0209
 20
166.8405
  0
VERTEX
  8
LAYER_5
 10
70.0243
 20
166.8398
  0
VERTEX
  8
LAYER_5
 10
70.0278
 20
166.8384
  0
SEQEND
  0
ENDBLK
  0
BLOCK
  8
LAYER_5
  2
AIGNBL05030046
 70
64
 10
0
 20
0
 30
0
  3
AIGNBL05030046
  0
POLYLINE
  8
LAYER_5
 40
0.1058
 41
0.1058
 66
1
 10
0
 20
0
 30
0
  0
VERTEX
  8
LAYER_5
 10
108.4103
 20
167.3455
 42
0.3908864929
  0
VERTEX
  8
LAYER_5
 10
108.4599
 20
167.269
  0
SEQEND
  0
ENDBLK
  0
BLOCK
  8
LAYER_5
  2
AIGNBL05030047
 70
64
 10
0
 20
0
 30
0
  3
AIGNBL05030047
  0
POLYLINE
  8
LAYER_5
 40
0.1058
 41
0.1058
 66
1
 10
0
 20
0
 30
0
  0
VERTEX
  8
LAYER_5
 10
110.8494
 20
166.7605
 42
0.3879503921
  0
VERTEX
  8
LAYER_5
 10
110.9259
 20
166.8102
  0
SEQEND
  0
ENDBLK
  0
BLOCK
  8
LAYER_5
  2
AIGNBL05030048
 70
64
 10
0
 20
0
 30
0
  3
AIGNBL05030048
  0
POLYLINE
  8
LAYER_5
 40
0.1058
 41
0.1058
 66
1
 10
0
 20
0
 30
0
  0
VERTEX
  8
LAYER_5
 10
69.6213
 20
167.0802
  0
VERTEX
  8
LAYER_5
 10
69.633
 20
167.1168
  0
VERTEX
  8
LAYER_5
 10
69.6667
 20
167.1512
  0
VERTEX
  8
LAYER_5
 10
69.7232
 20
167.185
  0
VERTEX
  8
LAYER_5
 10
69.8011
 20
167.2167
  0
VERTEX
  8
LAYER_5
 10
69.8989
 20
167.2463
  0
VERTEX
  8
LAYER_5
 10
70.014
 20
167.2725
  0
VERTEX
  8
LAYER_5
 10
70.1449
 20
167.2959
  0
VERTEX
  8
LAYER_5
 10
70.2903
 20
167.3152
  0
VERTEX
  8
LAYER_5
 10
70.446
 20
167.331
  0
VERTEX
  8
LAYER_5
 10
70.6093
 20
167.3421
  0
VERTEX
  8
LAYER_5
 10
70.7795
 20
167.3469
  0
VERTEX
  8
LAYER_5
 10
70.9511
 20
167.349
  0
VERTEX
  8
LAYER_5
 10
71.1212
 20
167.3455
  0
VERTEX
  8
LAYER_5
 10
71.2887
 20
167.3372
  0
VERTEX
  8
LAYER_5
 10
71.4492
 20
167.3242
  0
VERTEX
  8
LAYER_5
 10
71.5994
 20
167.3076
  0
VERTEX
  8
LAYER_5
 10
71.7379
 20
167.2869
  0
VERTEX
  8
LAYER_5
 10
71.8605
 20
167.2621
  0
VERTEX
  8
LAYER_5
 10
71.968
 20
167.2339
  0
VERTEX
  8
LAYER_5
 10
72.0549
 20
167.2036
  0
VERTEX
  8
LAYER_5
 10
72.1224
 20
167.1698
  0
VERTEX
  8
LAYER_5
 10
72.1665
 20
167.1361
  0
VERTEX
  8
LAYER_5
 10
72.1892
 20
167.1009
  0
VERTEX
  8
LAYER_5
 10
72.1934
 20
167.0823
  0
SEQEND
  0
ENDBLK
  0
BLOCK
  8
LAYER_5
  2
AIGNBL05030049
 70
64
 10
0
 20
0
 30
0
  3
AIGNBL05030049
  0
POLYLINE
  8
LAYER_5
 40
0.1058
 41
0.1058
 66
1
 10
0
 20
0
 30
0
  0
VERTEX
  8
LAYER_5
 10
71.8447
 20
166.8563
  0
VERTEX
  8
LAYER_5
 10
71.8543
 20
166.8591
  0
VERTEX
  8
LAYER_5
 10
71.9501
 20
166.8873
  0
VERTEX
  8
LAYER_5
 10
72.0266
 20
166.9183
  0
VERTEX
  8
LAYER_5
 10
72.0831
 20
166.9514
  0
VERTEX
  8
LAYER_5
 10
72.1169
 20
166.9852
  0
VERTEX
  8
LAYER_5
 10
72.1293
 20
167.0196
  0
VERTEX
  8
LAYER_5
 10
72.1169
 20
167.0547
  0
VERTEX
  8
LAYER_5
 10
72.0831
 20
167.0885
  0
VERTEX
  8
LAYER_5
 10
72.028
 20
167.1202
  0
VERTEX
  8
LAYER_5
 10
72.0087
 20
167.1292
  0
SEQEND
  0
ENDBLK
  0
BLOCK
  8
LAYER_5
  2
AIGNBL0503004B
 70
64
 10
0
 20
0
 30
0
  3
AIGNBL0503004B
  0
POLYLINE
  8
LAYER_5
 40
0.1058
 41
0.1058
 66
1
 10
0
 20
0
 30
0
  0
VERTEX
  8
LAYER_5
 10
67.6927
 20
138.5073
  0
VERTEX
  8
LAYER_5
 10
68.8482
 20
138.5073
  0
SEQEND
  0
ENDBLK
  0
BLOCK
  8
LAYER_5
  2
AIGNBL0503004C
 70
64
 10
0
 20
0
 30
0
  3
AIGNBL0503004C
  0
POLYLINE
  8
LAYER_5
 40
0.1058
 41
0.1058
 66
1
 10
0
 20
0
 30
0
  0
VERTEX
  8
LAYER_5
 10
67.6913
 20
138.4425
  0
VERTEX
  8
LAYER_5
 10
67.6927
 20
138.5073
  0
SEQEND
  0
ENDBLK
  0
BLOCK
  8
LAYER_5
  2
AIGNBL0503004D
 70
64
 10
0
 20
0
 30
0
  3
AIGNBL0503004D
  0
POLYLINE
  8
LAYER_5
 40
0.1058
 41
0.1058
 66
1
 10
0
 20
0
 30
0
  0
VERTEX
  8
LAYER_5
 10
69.05
 20
138.3144
  0
VERTEX
  8
LAYER_5
 10
69.1458
 20
138.3144
  0
SEQEND
  0
ENDBLK
  0
BLOCK
  8
LAYER_5
  2
AIGNBL0503004E
 70
64
 10
0
 20
0
 30
0
  3
AIGNBL0503004E
  0
POLYLINE
  8
LAYER_5
 40
0.1058
 41
0.1058
 66
1
 10
0
 20
0
 30
0
  0
VERTEX
  8
LAYER_5
 10
69.7783
 20
138.3144
  0
VERTEX
  8
LAYER_5
 10
69.9444
 20
138.3144
  0
SEQEND
  0
ENDBLK
  0
BLOCK
  8
LAYER_5
  2
AIGNBL0503004F
 70
64
 10
0
 20
0
 30
0
  3
AIGNBL0503004F
  0
POLYLINE
  8
LAYER_5
 40
0.1058
 41
0.1058
 66
1
 10
0
 20
0
 30
0
  0
VERTEX
  8
LAYER_5
 10
70.8091
 20
138.3144
  0
VERTEX
  8
LAYER_5
 10
70.9049
 20
138.3144
  0
SEQEND
  0
ENDBLK
  0
BLOCK
  8
LAYER_5
  2
AIGNBL05030050
 70
64
 10
0
 20
0
 30
0
  3
AIGNBL05030050
  0
POLYLINE
  8
LAYER_5
 40
0.1058
 41
0.1058
 66
1
 10
0
 20
0
 30
0
  0
VERTEX
  8
LAYER_5
 10
71.8654
 20
138.3144
  0
VERTEX
  8
LAYER_5
 10
72.0321
 20
138.3144
  0
SEQEND
  0
ENDBLK
  0
BLOCK
  8
LAYER_5
  2
AIGNBL05030051
 70
64
 10
0
 20
0
 30
0
  3
AIGNBL05030051
  0
POLYLINE
  8
LAYER_5
 40
0.1058
 41
0.1058
 66
1
 10
0
 20
0
 30
0
  0
VERTEX
  8
LAYER_5
 10
72.6646
 20
138.3144
  0
VERTEX
  8
LAYER_5
 10
72.7611
 20
138.3144
  0
SEQEND
  0
ENDBLK
  0
BLOCK
  8
LAYER_5
  2
AIGNBL05030052
 70
64
 10
0
 20
0
 30
0
  3
AIGNBL05030052
  0
POLYLINE
  8
LAYER_5
 40
0.1058
 41
0.1058
 66
1
 10
0
 20
0
 30
0
  0
VERTEX
  8
LAYER_5
 10
69.1458
 20
138.4425
  0
VERTEX
  8
LAYER_5
 10
69.05
 20
138.4425
  0
SEQEND
  0
ENDBLK
  0
BLOCK
  8
LAYER_5
  2
AIGNBL05030053
 70
64
 10
0
 20
0
 30
0
  3
AIGNBL05030053
  0
POLYLINE
  8
LAYER_5
 40
0.1058
 41
0.1058
 66
1
 10
0
 20
0
 30
0
  0
VERTEX
  8
LAYER_5
 10
69.9444
 20
138.4425
  0
VERTEX
  8
LAYER_5
 10
69.7783
 20
138.4425
  0
SEQEND
  0
ENDBLK
  0
BLOCK
  8
LAYER_5
  2
AIGNBL05030054
 70
64
 10
0
 20
0
 30
0
  3
AIGNBL05030054
  0
POLYLINE
  8
LAYER_5
 40
0.1058
 41
0.1058
 66
1
 10
0
 20
0
 30
0
  0
VERTEX
  8
LAYER_5
 10
70.9049
 20
138.4425
  0
VERTEX
  8
LAYER_5
 10
70.8091
 20
138.4425
  0
SEQEND
  0
ENDBLK
  0
BLOCK
  8
LAYER_5
  2
AIGNBL05030055
 70
64
 10
0
 20
0
 30
0
  3
AIGNBL05030055
  0
POLYLINE
  8
LAYER_5
 40
0.1058
 41
0.1058
 66
1
 10
0
 20
0
 30
0
  0
VERTEX
  8
LAYER_5
 10
71.0027
 20
138.4425
  0
VERTEX
  8
LAYER_5
 10
70.9049
 20
138.4425
  0
SEQEND
  0
ENDBLK
  0
BLOCK
  8
LAYER_5
  2
AIGNBL05030056
 70
64
 10
0
 20
0
 30
0
  3
AIGNBL05030056
  0
POLYLINE
  8
LAYER_5
 40
0.1058
 41
0.1058
 66
1
 10
0
 20
0
 30
0
  0
VERTEX
  8
LAYER_5
 10
72.0321
 20
138.4425
  0
VERTEX
  8
LAYER_5
 10
71.8654
 20
138.4425
  0
SEQEND
  0
ENDBLK
  0
BLOCK
  8
LAYER_5
  2
AIGNBL05030057
 70
64
 10
0
 20
0
 30
0
  3
AIGNBL05030057
  0
POLYLINE
  8
LAYER_5
 40
0.1058
 41
0.1058
 66
1
 10
0
 20
0
 30
0
  0
VERTEX
  8
LAYER_5
 10
72.7611
 20
138.4425
  0
VERTEX
  8
LAYER_5
 10
72.6646
 20
138.4425
  0
SEQEND
  0
ENDBLK
  0
BLOCK
  8
LAYER_5
  2
AIGNBL05030058
 70
64
 10
0
 20
0
 30
0
  3
AIGNBL05030058
  0
POLYLINE
  8
LAYER_5
 40
0.1058
 41
0.1058
 66
1
 10
0
 20
0
 30
0
  0
VERTEX
  8
LAYER_5
 10
70.9049
 20
138.3144
  0
VERTEX
  8
LAYER_5
 10
71.0027
 20
138.3144
  0
SEQEND
  0
ENDBLK
  0
BLOCK
  8
LAYER_5
  2
AIGNBL05030059
 70
64
 10
0
 20
0
 30
0
  3
AIGNBL05030059
  0
POLYLINE
  8
LAYER_5
 40
0.1058
 41
0.1058
 66
1
 10
0
 20
0
 30
0
  0
VERTEX
  8
LAYER_5
 10
68.8482
 20
138.5073
  0
VERTEX
  8
LAYER_5
 10
73.7519
 20
138.5073
  0
SEQEND
  0
ENDBLK
  0
BLOCK
  8
LAYER_5
  2
AIGNBL0503005A
 70
64
 10
0
 20
0
 30
0
  3
AIGNBL0503005A
  0
POLYLINE
  8
LAYER_5
 40
0.1058
 41
0.1058
 66
1
 10
0
 20
0
 30
0
  0
VERTEX
  8
LAYER_5
 10
68.8158
 20
138.3144
  0
VERTEX
  8
LAYER_5
 10
72.994
 20
138.3144
  0
SEQEND
  0
ENDBLK
  0
BLOCK
  8
LAYER_5
  2
AIGNBL0503005B
 70
64
 10
0
 20
0
 30
0
  3
AIGNBL0503005B
  0
POLYLINE
  8
LAYER_5
 40
0.1058
 41
0.1058
 66
1
 10
0
 20
0
 30
0
  0
VERTEX
  8
LAYER_5
 10
72.994
 20
138.4425
  0
VERTEX
  8
LAYER_5
 10
73.4439
 20
138.4425
  0
SEQEND
  0
ENDBLK
  0
BLOCK
  8
LAYER_5
  2
AIGNBL0503005C
 70
64
 10
0
 20
0
 30
0
  3
AIGNBL0503005C
  0
POLYLINE
  8
LAYER_5
 40
0.1058
 41
0.1058
 66
1
 10
0
 20
0
 30
0
  0
VERTEX
  8
LAYER_5
 10
72.994
 20
138.3144
  0
VERTEX
  8
LAYER_5
 10
73.4439
 20
138.3144
  0
SEQEND
  0
ENDBLK
  0
BLOCK
  8
LAYER_5
  2
AIGNBL0503005D
 70
64
 10
0
 20
0
 30
0
  3
AIGNBL0503005D
  0
POLYLINE
  8
LAYER_5
 40
0.1058
 41
0.1058
 66
1
 10
0
 20
0
 30
0
  0
VERTEX
  8
LAYER_5
 10
74.1192
 20
138.3792
  0
VERTEX
  8
LAYER_5
 10
73.7788
 20
138.3792
  0
SEQEND
  0
ENDBLK
  0
BLOCK
  8
LAYER_5
  2
AIGNBL0503005E
 70
64
 10
0
 20
0
 30
0
  3
AIGNBL0503005E
  0
POLYLINE
  8
LAYER_5
 40
0.1058
 41
0.1058
 66
1
 10
0
 20
0
 30
0
  0
VERTEX
  8
LAYER_5
 10
74.1192
 20
138.3792
  0
VERTEX
  8
LAYER_5
 10
74.1192
 20
138.5073
  0
SEQEND
  0
ENDBLK
  0
BLOCK
  8
LAYER_5
  2
AIGNBL0503005F
 70
64
 10
0
 20
0
 30
0
  3
AIGNBL0503005F
  0
POLYLINE
  8
LAYER_5
 40
0.1058
 41
0.1058
 66
1
 10
0
 20
0
 30
0
  0
VERTEX
  8
LAYER_5
 10
74.1192
 20
138.5073
  0
VERTEX
  8
LAYER_5
 10
73.7519
 20
138.5073
  0
SEQEND
  0
ENDBLK
  0
BLOCK
  8
LAYER_5
  2
AIGNBL05030060
 70
64
 10
0
 20
0
 30
0
  3
AIGNBL05030060
  0
POLYLINE
  8
LAYER_5
 40
0.1058
 41
0.1058
 66
1
 10
0
 20
0
 30
0
  0
VERTEX
  8
LAYER_5
 10
68.0117
 20
138.4425
  0
VERTEX
  8
LAYER_5
 10
67.6913
 20
138.4425
  0
SEQEND
  0
ENDBLK
  0
BLOCK
  8
LAYER_5
  2
AIGNBL05030061
 70
64
 10
0
 20
0
 30
0
  3
AIGNBL05030061
  0
POLYLINE
  8
LAYER_5
 40
0.1058
 41
0.1058
 66
1
 10
0
 20
0
 30
0
  0
VERTEX
  8
LAYER_5
 10
67.6913
 20
138.3144
  0
VERTEX
  8
LAYER_5
 10
67.6913
 20
138.4425
  0
SEQEND
  0
ENDBLK
  0
BLOCK
  8
LAYER_5
  2
AIGNBL05030062
 70
64
 10
0
 20
0
 30
0
  3
AIGNBL05030062
  0
POLYLINE
  8
LAYER_5
 40
0.1058
 41
0.1058
 66
1
 10
0
 20
0
 30
0
  0
VERTEX
  8
LAYER_5
 10
67.6913
 20
138.3144
  0
VERTEX
  8
LAYER_5
 10
68.0117
 20
138.3144
  0
SEQEND
  0
ENDBLK
  0
BLOCK
  8
LAYER_5
  2
AIGNBL05030063
 70
64
 10
0
 20
0
 30
0
  3
AIGNBL05030063
  0
POLYLINE
  8
LAYER_5
 40
0.1058
 41
0.1058
 66
1
 10
0
 20
0
 30
0
  0
VERTEX
  8
LAYER_5
 10
68.3659
 20
138.3144
  0
VERTEX
  8
LAYER_5
 10
68.8158
 20
138.3144
  0
SEQEND
  0
ENDBLK
  0
BLOCK
  8
LAYER_5
  2
AIGNBL05030064
 70
64
 10
0
 20
0
 30
0
  3
AIGNBL05030064
  0
POLYLINE
  8
LAYER_5
 40
0.1058
 41
0.1058
 66
1
 10
0
 20
0
 30
0
  0
VERTEX
  8
LAYER_5
 10
68.3659
 20
138.4425
  0
VERTEX
  8
LAYER_5
 10
68.8158
 20
138.4425
  0
SEQEND
  0
ENDBLK
  0
BLOCK
  8
LAYER_5
  2
AIGNBL05030065
 70
64
 10
0
 20
0
 30
0
  3
AIGNBL05030065
  0
POLYLINE
  8
LAYER_5
 40
0.1058
 41
0.1058
 66
1
 10
0
 20
0
 30
0
  0
VERTEX
  8
LAYER_5
 10
122.3657
 20
138.4425
  0
VERTEX
  8
LAYER_5
 10
122.8156
 20
138.4425
  0
SEQEND
  0
ENDBLK
  0
BLOCK
  8
LAYER_5
  2
AIGNBL05030066
 70
64
 10
0
 20
0
 30
0
  3
AIGNBL05030066
  0
POLYLINE
  8
LAYER_5
 40
0.1058
 41
0.1058
 66
1
 10
0
 20
0
 30
0
  0
VERTEX
  8
LAYER_5
 10
122.3657
 20
138.3144
  0
VERTEX
  8
LAYER_5
 10
122.8156
 20
138.3144
  0
SEQEND
  0
ENDBLK
  0
BLOCK
  8
LAYER_5
  2
AIGNBL05030067
 70
64
 10
0
 20
0
 30
0
  3
AIGNBL05030067
  0
POLYLINE
  8
LAYER_5
 40
0.1058
 41
0.1058
 66
1
 10
0
 20
0
 30
0
  0
VERTEX
  8
LAYER_5
 10
121.6911
 20
138.3144
  0
VERTEX
  8
LAYER_5
 10
122.0122
 20
138.3144
  0
SEQEND
  0
ENDBLK
  0
BLOCK
  8
LAYER_5
  2
AIGNBL05030068
 70
64
 10
0
 20
0
 30
0
  3
AIGNBL05030068
  0
POLYLINE
  8
LAYER_5
 40
0.1058
 41
0.1058
 66
1
 10
0
 20
0
 30
0
  0
VERTEX
  8
LAYER_5
 10
121.6911
 20
138.3144
  0
VERTEX
  8
LAYER_5
 10
121.6911
 20
138.4425
  0
SEQEND
  0
ENDBLK
  0
BLOCK
  8
LAYER_5
  2
AIGNBL05030069
 70
64
 10
0
 20
0
 30
0
  3
AIGNBL05030069
  0
POLYLINE
  8
LAYER_5
 40
0.1058
 41
0.1058
 66
1
 10
0
 20
0
 30
0
  0
VERTEX
  8
LAYER_5
 10
122.0122
 20
138.4425
  0
VERTEX
  8
LAYER_5
 10
121.6911
 20
138.4425
  0
SEQEND
  0
ENDBLK
  0
BLOCK
  8
LAYER_5
  2
AIGNBL0503006A
 70
64
 10
0
 20
0
 30
0
  3
AIGNBL0503006A
  0
POLYLINE
  8
LAYER_5
 40
0.1058
 41
0.1058
 66
1
 10
0
 20
0
 30
0
  0
VERTEX
  8
LAYER_5
 10
128.1196
 20
138.5073
  0
VERTEX
  8
LAYER_5
 10
127.7531
 20
138.5073
  0
SEQEND
  0
ENDBLK
  0
BLOCK
  8
LAYER_5
  2
AIGNBL0503006B
 70
64
 10
0
 20
0
 30
0
  3
AIGNBL0503006B
  0
POLYLINE
  8
LAYER_5
 40
0.1058
 41
0.1058
 66
1
 10
0
 20
0
 30
0
  0
VERTEX
  8
LAYER_5
 10
128.1196
 20
138.3792
  0
VERTEX
  8
LAYER_5
 10
128.1196
 20
138.5073
  0
SEQEND
  0
ENDBLK
  0
BLOCK
  8
LAYER_5
  2
AIGNBL0503006C
 70
64
 10
0
 20
0
 30
0
  3
AIGNBL0503006C
  0
POLYLINE
  8
LAYER_5
 40
0.1058
 41
0.1058
 66
1
 10
0
 20
0
 30
0
  0
VERTEX
  8
LAYER_5
 10
128.1196
 20
138.3792
  0
VERTEX
  8
LAYER_5
 10
127.7786
 20
138.3792
  0
SEQEND
  0
ENDBLK
  0
BLOCK
  8
LAYER_5
  2
AIGNBL0503006D
 70
64
 10
0
 20
0
 30
0
  3
AIGNBL0503006D
  0
POLYLINE
  8
LAYER_5
 40
0.1058
 41
0.1058
 66
1
 10
0
 20
0
 30
0
  0
VERTEX
  8
LAYER_5
 10
126.9945
 20
138.3144
  0
VERTEX
  8
LAYER_5
 10
127.4444
 20
138.3144
  0
SEQEND
  0
ENDBLK
  0
BLOCK
  8
LAYER_5
  2
AIGNBL0503006E
 70
64
 10
0
 20
0
 30
0
  3
AIGNBL0503006E
  0
POLYLINE
  8
LAYER_5
 40
0.1058
 41
0.1058
 66
1
 10
0
 20
0
 30
0
  0
VERTEX
  8
LAYER_5
 10
126.9945
 20
138.4425
  0
VERTEX
  8
LAYER_5
 10
127.4444
 20
138.4425
  0
SEQEND
  0
ENDBLK
  0
BLOCK
  8
LAYER_5
  2
AIGNBL0503006F
 70
64
 10
0
 20
0
 30
0
  3
AIGNBL0503006F
  0
POLYLINE
  8
LAYER_5
 40
0.1058
 41
0.1058
 66
1
 10
0
 20
0
 30
0
  0
VERTEX
  8
LAYER_5
 10
122.8156
 20
138.3144
  0
VERTEX
  8
LAYER_5
 10
126.9945
 20
138.3144
  0
SEQEND
  0
ENDBLK
  0
BLOCK
  8
LAYER_5
  2
AIGNBL05030070
 70
64
 10
0
 20
0
 30
0
  3
AIGNBL05030070
  0
POLYLINE
  8
LAYER_5
 40
0.1058
 41
0.1058
 66
1
 10
0
 20
0
 30
0
  0
VERTEX
  8
LAYER_5
 10
122.848
 20
138.5073
  0
VERTEX
  8
LAYER_5
 10
127.7531
 20
138.5073
  0
SEQEND
  0
ENDBLK
  0
BLOCK
  8
LAYER_5
  2
AIGNBL05030071
 70
64
 10
0
 20
0
 30
0
  3
AIGNBL05030071
  0
POLYLINE
  8
LAYER_5
 40
0.1058
 41
0.1058
 66
1
 10
0
 20
0
 30
0
  0
VERTEX
  8
LAYER_5
 10
124.9047
 20
138.3144
  0
VERTEX
  8
LAYER_5
 10
125.0025
 20
138.3144
  0
SEQEND
  0
ENDBLK
  0
BLOCK
  8
LAYER_5
  2
AIGNBL05030072
 70
64
 10
0
 20
0
 30
0
  3
AIGNBL05030072
  0
POLYLINE
  8
LAYER_5
 40
0.1058
 41
0.1058
 66
1
 10
0
 20
0
 30
0
  0
VERTEX
  8
LAYER_5
 10
126.7609
 20
138.4425
  0
VERTEX
  8
LAYER_5
 10
126.6644
 20
138.4425
  0
SEQEND
  0
ENDBLK
  0
BLOCK
  8
LAYER_5
  2
AIGNBL05030073
 70
64
 10
0
 20
0
 30
0
  3
AIGNBL05030073
  0
POLYLINE
  8
LAYER_5
 40
0.1058
 41
0.1058
 66
1
 10
0
 20
0
 30
0
  0
VERTEX
  8
LAYER_5
 10
126.0326
 20
138.4425
  0
VERTEX
  8
LAYER_5
 10
125.8652
 20
138.4425
  0
SEQEND
  0
ENDBLK
  0
BLOCK
  8
LAYER_5
  2
AIGNBL05030074
 70
64
 10
0
 20
0
 30
0
  3
AIGNBL05030074
  0
POLYLINE
  8
LAYER_5
 40
0.1058
 41
0.1058
 66
1
 10
0
 20
0
 30
0
  0
VERTEX
  8
LAYER_5
 10
125.0025
 20
138.4425
  0
VERTEX
  8
LAYER_5
 10
124.9047
 20
138.4425
  0
SEQEND
  0
ENDBLK
  0
BLOCK
  8
LAYER_5
  2
AIGNBL05030075
 70
64
 10
0
 20
0
 30
0
  3
AIGNBL05030075
  0
POLYLINE
  8
LAYER_5
 40
0.1058
 41
0.1058
 66
1
 10
0
 20
0
 30
0
  0
VERTEX
  8
LAYER_5
 10
124.9047
 20
138.4425
  0
VERTEX
  8
LAYER_5
 10
124.8089
 20
138.4425
  0
SEQEND
  0
ENDBLK
  0
BLOCK
  8
LAYER_5
  2
AIGNBL05030076
 70
64
 10
0
 20
0
 30
0
  3
AIGNBL05030076
  0
POLYLINE
  8
LAYER_5
 40
0.1058
 41
0.1058
 66
1
 10
0
 20
0
 30
0
  0
VERTEX
  8
LAYER_5
 10
123.9456
 20
138.4425
  0
VERTEX
  8
LAYER_5
 10
123.7781
 20
138.4425
  0
SEQEND
  0
ENDBLK
  0
BLOCK
  8
LAYER_5
  2
AIGNBL05030077
 70
64
 10
0
 20
0
 30
0
  3
AIGNBL05030077
  0
POLYLINE
  8
LAYER_5
 40
0.1058
 41
0.1058
 66
1
 10
0
 20
0
 30
0
  0
VERTEX
  8
LAYER_5
 10
123.1456
 20
138.4425
  0
VERTEX
  8
LAYER_5
 10
123.0498
 20
138.4425
  0
SEQEND
  0
ENDBLK
  0
BLOCK
  8
LAYER_5
  2
AIGNBL05030078
 70
64
 10
0
 20
0
 30
0
  3
AIGNBL05030078
  0
POLYLINE
  8
LAYER_5
 40
0.1058
 41
0.1058
 66
1
 10
0
 20
0
 30
0
  0
VERTEX
  8
LAYER_5
 10
126.6644
 20
138.3144
  0
VERTEX
  8
LAYER_5
 10
126.7609
 20
138.3144
  0
SEQEND
  0
ENDBLK
  0
BLOCK
  8
LAYER_5
  2
AIGNBL05030079
 70
64
 10
0
 20
0
 30
0
  3
AIGNBL05030079
  0
POLYLINE
  8
LAYER_5
 40
0.1058
 41
0.1058
 66
1
 10
0
 20
0
 30
0
  0
VERTEX
  8
LAYER_5
 10
125.8652
 20
138.3144
  0
VERTEX
  8
LAYER_5
 10
126.0326
 20
138.3144
  0
SEQEND
  0
ENDBLK
  0
BLOCK
  8
LAYER_5
  2
AIGNBL0503007A
 70
64
 10
0
 20
0
 30
0
  3
AIGNBL0503007A
  0
POLYLINE
  8
LAYER_5
 40
0.1058
 41
0.1058
 66
1
 10
0
 20
0
 30
0
  0
VERTEX
  8
LAYER_5
 10
124.8089
 20
138.3144
  0
VERTEX
  8
LAYER_5
 10
124.9047
 20
138.3144
  0
SEQEND
  0
ENDBLK
  0
BLOCK
  8
LAYER_5
  2
AIGNBL0503007B
 70
64
 10
0
 20
0
 30
0
  3
AIGNBL0503007B
  0
POLYLINE
  8
LAYER_5
 40
0.1058
 41
0.1058
 66
1
 10
0
 20
0
 30
0
  0
VERTEX
  8
LAYER_5
 10
123.7781
 20
138.3144
  0
VERTEX
  8
LAYER_5
 10
123.9456
 20
138.3144
  0
SEQEND
  0
ENDBLK
  0
BLOCK
  8
LAYER_5
  2
AIGNBL0503007C
 70
64
 10
0
 20
0
 30
0
  3
AIGNBL0503007C
  0
POLYLINE
  8
LAYER_5
 40
0.1058
 41
0.1058
 66
1
 10
0
 20
0
 30
0
  0
VERTEX
  8
LAYER_5
 10
123.0498
 20
138.3144
  0
VERTEX
  8
LAYER_5
 10
123.1456
 20
138.3144
  0
SEQEND
  0
ENDBLK
  0
BLOCK
  8
LAYER_5
  2
AIGNBL0503007D
 70
64
 10
0
 20
0
 30
0
  3
AIGNBL0503007D
  0
POLYLINE
  8
LAYER_5
 40
0.1058
 41
0.1058
 66
1
 10
0
 20
0
 30
0
  0
VERTEX
  8
LAYER_5
 10
121.6911
 20
138.4425
  0
VERTEX
  8
LAYER_5
 10
121.6925
 20
138.5073
  0
SEQEND
  0
ENDBLK
  0
BLOCK
  8
LAYER_5
  2
AIGNBL0503007E
 70
64
 10
0
 20
0
 30
0
  3
AIGNBL0503007E
  0
POLYLINE
  8
LAYER_5
 40
0.1058
 41
0.1058
 66
1
 10
0
 20
0
 30
0
  0
VERTEX
  8
LAYER_5
 10
121.6925
 20
138.5073
  0
VERTEX
  8
LAYER_5
 10
122.848
 20
138.5073
  0
SEQEND
  0
ENDBLK
  0
BLOCK
  8
LAYER_5
  2
AIGNBL0503007F
 70
64
 10
0
 20
0
 30
0
  3
AIGNBL0503007F
  0
POLYLINE
  8
LAYER_5
 40
0.1058
 41
0.1058
 66
1
 10
0
 20
0
 30
0
  0
VERTEX
  8
LAYER_5
 10
72.9444
 20
138.4708
 42
0.3944844117
  0
VERTEX
  8
LAYER_5
 10
72.8341
 20
138.4949
  0
VERTEX
  8
LAYER_5
 10
72.8093
 20
138.4701
  0
SEQEND
  0
ENDBLK
  0
BLOCK
  8
LAYER_5
  2
AIGNBL05030080
 70
64
 10
0
 20
0
 30
0
  3
AIGNBL05030080
  0
POLYLINE
  8
LAYER_5
 40
0.1058
 41
0.1058
 66
1
 10
0
 20
0
 30
0
  0
VERTEX
  8
LAYER_5
 10
72.7611
 20
138.3144
 42
0.1259017967
  0
VERTEX
  8
LAYER_5
 10
72.8465
 20
138.3364
  0
SEQEND
  0
ENDBLK
  0
BLOCK
  8
LAYER_5
  2
AIGNBL05030081
 70
64
 10
0
 20
0
 30
0
  3
AIGNBL05030081
  0
POLYLINE
  8
LAYER_5
 40
0.1058
 41
0.1058
 66
1
 10
0
 20
0
 30
0
  0
VERTEX
  8
LAYER_5
 10
68.8158
 20
138.3144
 42
0.1268542493
  0
VERTEX
  8
LAYER_5
 10
68.9026
 20
138.3364
  0
SEQEND
  0
ENDBLK
  0
BLOCK
  8
LAYER_5
  2
AIGNBL05030082
 70
64
 10
0
 20
0
 30
0
  3
AIGNBL05030082
  0
POLYLINE
  8
LAYER_5
 40
0.1058
 41
0.1058
 66
1
 10
0
 20
0
 30
0
  0
VERTEX
  8
LAYER_5
 10
68.9632
 20
138.3364
 42
0.1240846367
  0
VERTEX
  8
LAYER_5
 10
69.05
 20
138.3144
  0
SEQEND
  0
ENDBLK
  0
BLOCK
  8
LAYER_5
  2
AIGNBL05030083
 70
64
 10
0
 20
0
 30
0
  3
AIGNBL05030083
  0
POLYLINE
  8
LAYER_5
 40
0.1058
 41
0.1058
 66
1
 10
0
 20
0
 30
0
  0
VERTEX
  8
LAYER_5
 10
69.1458
 20
138.3144
 42
0.105912348
  0
VERTEX
  8
LAYER_5
 10
69.2574
 20
138.3371
  0
SEQEND
  0
ENDBLK
  0
BLOCK
  8
LAYER_5
  2
AIGNBL05030084
 70
64
 10
0
 20
0
 30
0
  3
AIGNBL05030084
  0
POLYLINE
  8
LAYER_5
 40
0.1058
 41
0.1058
 66
1
 10
0
 20
0
 30
0
  0
VERTEX
  8
LAYER_5
 10
69.6667
 20
138.3371
 42
0.2037605087
  0
VERTEX
  8
LAYER_5
 10
69.2574
 20
138.3371
  0
SEQEND
  0
ENDBLK
  0
BLOCK
  8
LAYER_5
  2
AIGNBL05030085
 70
64
 10
0
 20
0
 30
0
  3
AIGNBL05030085
  0
POLYLINE
  8
LAYER_5
 40
0.1058
 41
0.1058
 66
1
 10
0
 20
0
 30
0
  0
VERTEX
  8
LAYER_5
 10
69.6667
 20
138.3371
 42
0.1007686799
  0
VERTEX
  8
LAYER_5
 10
69.7783
 20
138.3144
  0
SEQEND
  0
ENDBLK
  0
BLOCK
  8
LAYER_5
  2
AIGNBL05030086
 70
64
 10
0
 20
0
 30
0
  3
AIGNBL05030086
  0
POLYLINE
  8
LAYER_5
 40
0.1058
 41
0.1058
 66
1
 10
0
 20
0
 30
0
  0
VERTEX
  8
LAYER_5
 10
69.9444
 20
138.3144
  0
VERTEX
  8
LAYER_5
 10
70.0457
 20
138.3295
  0
SEQEND
  0
ENDBLK
  0
BLOCK
  8
LAYER_5
  2
AIGNBL05030087
 70
64
 10
0
 20
0
 30
0
  3
AIGNBL05030087
  0
POLYLINE
  8
LAYER_5
 40
0.1058
 41
0.1058
 66
1
 10
0
 20
0
 30
0
  0
VERTEX
  8
LAYER_5
 10
70.7085
 20
138.3295
 42
0.1479937024
  0
VERTEX
  8
LAYER_5
 10
70.0457
 20
138.3295
  0
SEQEND
  0
ENDBLK
  0
BLOCK
  8
LAYER_5
  2
AIGNBL05030088
 70
64
 10
0
 20
0
 30
0
  3
AIGNBL05030088
  0
POLYLINE
  8
LAYER_5
 40
0.1058
 41
0.1058
 66
1
 10
0
 20
0
 30
0
  0
VERTEX
  8
LAYER_5
 10
70.7085
 20
138.3295
  0
VERTEX
  8
LAYER_5
 10
70.8091
 20
138.3144
  0
SEQEND
  0
ENDBLK
  0
BLOCK
  8
LAYER_5
  2
AIGNBL05030089
 70
64
 10
0
 20
0
 30
0
  3
AIGNBL05030089
  0
POLYLINE
  8
LAYER_5
 40
0.1058
 41
0.1058
 66
1
 10
0
 20
0
 30
0
  0
VERTEX
  8
LAYER_5
 10
71.0027
 20
138.3144
  0
VERTEX
  8
LAYER_5
 10
71.1019
 20
138.3295
  0
SEQEND
  0
ENDBLK
  0
BLOCK
  8
LAYER_5
  2
AIGNBL0503008A
 70
64
 10
0
 20
0
 30
0
  3
AIGNBL0503008A
  0
POLYLINE
  8
LAYER_5
 40
0.1058
 41
0.1058
 66
1
 10
0
 20
0
 30
0
  0
VERTEX
  8
LAYER_5
 10
71.7641
 20
138.3295
  0
VERTEX
  8
LAYER_5
 10
71.8654
 20
138.3144
  0
SEQEND
  0
ENDBLK
  0
BLOCK
  8
LAYER_5
  2
AIGNBL0503008B
 70
64
 10
0
 20
0
 30
0
  3
AIGNBL0503008B
  0
POLYLINE
  8
LAYER_5
 40
0.1058
 41
0.1058
 66
1
 10
0
 20
0
 30
0
  0
VERTEX
  8
LAYER_5
 10
71.7641
 20
138.3295
 42
0.1484610928
  0
VERTEX
  8
LAYER_5
 10
71.1019
 20
138.3295
  0
SEQEND
  0
ENDBLK
  0
BLOCK
  8
LAYER_5
  2
AIGNBL0503008C
 70
64
 10
0
 20
0
 30
0
  3
AIGNBL0503008C
  0
POLYLINE
  8
LAYER_5
 40
0.1058
 41
0.1058
 66
1
 10
0
 20
0
 30
0
  0
VERTEX
  8
LAYER_5
 10
72.0321
 20
138.3144
 42
0.09993460408
  0
VERTEX
  8
LAYER_5
 10
72.1444
 20
138.3371
  0
SEQEND
  0
ENDBLK
  0
BLOCK
  8
LAYER_5
  2
AIGNBL0503008D
 70
64
 10
0
 20
0
 30
0
  3
AIGNBL0503008D
  0
POLYLINE
  8
LAYER_5
 40
0.1058
 41
0.1058
 66
1
 10
0
 20
0
 30
0
  0
VERTEX
  8
LAYER_5
 10
72.553
 20
138.3371
 42
0.2016941134
  0
VERTEX
  8
LAYER_5
 10
72.1444
 20
138.3371
  0
SEQEND
  0
ENDBLK
  0
BLOCK
  8
LAYER_5
  2
AIGNBL0503008E
 70
64
 10
0
 20
0
 30
0
  3
AIGNBL0503008E
  0
POLYLINE
  8
LAYER_5
 40
0.1058
 41
0.1058
 66
1
 10
0
 20
0
 30
0
  0
VERTEX
  8
LAYER_5
 10
72.553
 20
138.3371
 42
0.1007351861
  0
VERTEX
  8
LAYER_5
 10
72.6646
 20
138.3144
  0
SEQEND
  0
ENDBLK
  0
BLOCK
  8
LAYER_5
  2
AIGNBL0503008F
 70
64
 10
0
 20
0
 30
0
  3
AIGNBL0503008F
  0
POLYLINE
  8
LAYER_5
 40
0.1058
 41
0.1058
 66
1
 10
0
 20
0
 30
0
  0
VERTEX
  8
LAYER_5
 10
68.8158
 20
138.4425
 42
0.2373482503
  0
VERTEX
  8
LAYER_5
 10
68.8668
 20
138.4708
  0
SEQEND
  0
ENDBLK
  0
BLOCK
  8
LAYER_5
  2
AIGNBL05030090
 70
64
 10
0
 20
0
 30
0
  3
AIGNBL05030090
  0
POLYLINE
  8
LAYER_5
 40
0.1058
 41
0.1058
 66
1
 10
0
 20
0
 30
0
  0
VERTEX
  8
LAYER_5
 10
69.0004
 20
138.4701
 42
0.3971697893
  0
VERTEX
  8
LAYER_5
 10
68.8916
 20
138.4949
  0
VERTEX
  8
LAYER_5
 10
68.8668
 20
138.4708
  0
SEQEND
  0
ENDBLK
  0
BLOCK
  8
LAYER_5
  2
AIGNBL05030091
 70
64
 10
0
 20
0
 30
0
  3
AIGNBL05030091
  0
POLYLINE
  8
LAYER_5
 40
0.1058
 41
0.1058
 66
1
 10
0
 20
0
 30
0
  0
VERTEX
  8
LAYER_5
 10
69.0004
 20
138.4701
 42
0.2482728882
  0
VERTEX
  8
LAYER_5
 10
69.05
 20
138.4425
  0
SEQEND
  0
ENDBLK
  0
BLOCK
  8
LAYER_5
  2
AIGNBL05030092
 70
64
 10
0
 20
0
 30
0
  3
AIGNBL05030092
  0
POLYLINE
  8
LAYER_5
 40
0.1058
 41
0.1058
 66
1
 10
0
 20
0
 30
0
  0
VERTEX
  8
LAYER_5
 10
69.1458
 20
138.4425
  0
VERTEX
  8
LAYER_5
 10
69.2078
 20
138.4549
  0
SEQEND
  0
ENDBLK
  0
BLOCK
  8
LAYER_5
  2
AIGNBL05030093
 70
64
 10
0
 20
0
 30
0
  3
AIGNBL05030093
  0
POLYLINE
  8
LAYER_5
 40
0.1058
 41
0.1058
 66
1
 10
0
 20
0
 30
0
  0
VERTEX
  8
LAYER_5
 10
69.7163
 20
138.4549
 42
0.2031499055
  0
VERTEX
  8
LAYER_5
 10
69.2078
 20
138.4549
  0
SEQEND
  0
ENDBLK
  0
BLOCK
  8
LAYER_5
  2
AIGNBL05030094
 70
64
 10
0
 20
0
 30
0
  3
AIGNBL05030094
  0
POLYLINE
  8
LAYER_5
 40
0.1058
 41
0.1058
 66
1
 10
0
 20
0
 30
0
  0
VERTEX
  8
LAYER_5
 10
69.7163
 20
138.4549
  0
VERTEX
  8
LAYER_5
 10
69.7783
 20
138.4425
  0
SEQEND
  0
ENDBLK
  0
BLOCK
  8
LAYER_5
  2
AIGNBL05030095
 70
64
 10
0
 20
0
 30
0
  3
AIGNBL05030095
  0
POLYLINE
  8
LAYER_5
 40
0.1058
 41
0.1058
 66
1
 10
0
 20
0
 30
0
  0
VERTEX
  8
LAYER_5
 10
69.9444
 20
138.4425
  0
VERTEX
  8
LAYER_5
 10
70.0085
 20
138.4522
  0
SEQEND
  0
ENDBLK
  0
BLOCK
  8
LAYER_5
  2
AIGNBL05030096
 70
64
 10
0
 20
0
 30
0
  3
AIGNBL05030096
  0
POLYLINE
  8
LAYER_5
 40
0.1058
 41
0.1058
 66
1
 10
0
 20
0
 30
0
  0
VERTEX
  8
LAYER_5
 10
70.7457
 20
138.4522
 42
0.1500464083
  0
VERTEX
  8
LAYER_5
 10
70.0085
 20
138.4522
  0
SEQEND
  0
ENDBLK
  0
BLOCK
  8
LAYER_5
  2
AIGNBL05030097
 70
64
 10
0
 20
0
 30
0
  3
AIGNBL05030097
  0
POLYLINE
  8
LAYER_5
 40
0.1058
 41
0.1058
 66
1
 10
0
 20
0
 30
0
  0
VERTEX
  8
LAYER_5
 10
70.7457
 20
138.4522
  0
VERTEX
  8
LAYER_5
 10
70.8091
 20
138.4425
  0
SEQEND
  0
ENDBLK
  0
BLOCK
  8
LAYER_5
  2
AIGNBL05030098
 70
64
 10
0
 20
0
 30
0
  3
AIGNBL05030098
  0
POLYLINE
  8
LAYER_5
 40
0.1058
 41
0.1058
 66
1
 10
0
 20
0
 30
0
  0
VERTEX
  8
LAYER_5
 10
71.0027
 20
138.4425
  0
VERTEX
  8
LAYER_5
 10
71.0648
 20
138.4522
  0
SEQEND
  0
ENDBLK
  0
BLOCK
  8
LAYER_5
  2
AIGNBL05030099
 70
64
 10
0
 20
0
 30
0
  3
AIGNBL05030099
  0
POLYLINE
  8
LAYER_5
 40
0.1058
 41
0.1058
 66
1
 10
0
 20
0
 30
0
  0
VERTEX
  8
LAYER_5
 10
71.8027
 20
138.4522
 42
0.1498514513
  0
VERTEX
  8
LAYER_5
 10
71.0648
 20
138.4522
  0
SEQEND
  0
ENDBLK
  0
BLOCK
  8
LAYER_5
  2
AIGNBL0503009A
 70
64
 10
0
 20
0
 30
0
  3
AIGNBL0503009A
  0
POLYLINE
  8
LAYER_5
 40
0.1058
 41
0.1058
 66
1
 10
0
 20
0
 30
0
  0
VERTEX
  8
LAYER_5
 10
71.8027
 20
138.4522
  0
VERTEX
  8
LAYER_5
 10
71.8654
 20
138.4425
  0
SEQEND
  0
ENDBLK
  0
BLOCK
  8
LAYER_5
  2
AIGNBL0503009B
 70
64
 10
0
 20
0
 30
0
  3
AIGNBL0503009B
  0
POLYLINE
  8
LAYER_5
 40
0.1058
 41
0.1058
 66
1
 10
0
 20
0
 30
0
  0
VERTEX
  8
LAYER_5
 10
72.0321
 20
138.4425
  0
VERTEX
  8
LAYER_5
 10
72.0941
 20
138.4549
  0
SEQEND
  0
ENDBLK
  0
BLOCK
  8
LAYER_5
  2
AIGNBL0503009C
 70
64
 10
0
 20
0
 30
0
  3
AIGNBL0503009C
  0
POLYLINE
  8
LAYER_5
 40
0.1058
 41
0.1058
 66
1
 10
0
 20
0
 30
0
  0
VERTEX
  8
LAYER_5
 10
72.6026
 20
138.4549
 42
0.2031296174
  0
VERTEX
  8
LAYER_5
 10
72.0941
 20
138.4549
  0
SEQEND
  0
ENDBLK
  0
BLOCK
  8
LAYER_5
  2
AIGNBL0503009D
 70
64
 10
0
 20
0
 30
0
  3
AIGNBL0503009D
  0
POLYLINE
  8
LAYER_5
 40
0.1058
 41
0.1058
 66
1
 10
0
 20
0
 30
0
  0
VERTEX
  8
LAYER_5
 10
72.6026
 20
138.4549
  0
VERTEX
  8
LAYER_5
 10
72.6646
 20
138.4425
  0
SEQEND
  0
ENDBLK
  0
BLOCK
  8
LAYER_5
  2
AIGNBL0503009E
 70
64
 10
0
 20
0
 30
0
  3
AIGNBL0503009E
  0
POLYLINE
  8
LAYER_5
 40
0.1058
 41
0.1058
 66
1
 10
0
 20
0
 30
0
  0
VERTEX
  8
LAYER_5
 10
72.7611
 20
138.4425
 42
0.2481942422
  0
VERTEX
  8
LAYER_5
 10
72.8093
 20
138.4701
  0
SEQEND
  0
ENDBLK
  0
BLOCK
  8
LAYER_5
  2
AIGNBL0503009F
 70
64
 10
0
 20
0
 30
0
  3
AIGNBL0503009F
  0
POLYLINE
  8
LAYER_5
 40
0.1058
 41
0.1058
 66
1
 10
0
 20
0
 30
0
  0
VERTEX
  8
LAYER_5
 10
72.9444
 20
138.4708
 42
0.253760186
  0
VERTEX
  8
LAYER_5
 10
72.994
 20
138.4425
  0
SEQEND
  0
ENDBLK
  0
BLOCK
  8
LAYER_5
  2
AIGNBL050300A0
 70
64
 10
0
 20
0
 30
0
  3
AIGNBL050300A0
  0
POLYLINE
  8
LAYER_5
 40
0.1058
 41
0.1058
 66
1
 10
0
 20
0
 30
0
  0
VERTEX
  8
LAYER_5
 10
72.9072
 20
138.3364
 42
0.1240878538
  0
VERTEX
  8
LAYER_5
 10
72.994
 20
138.3144
  0
SEQEND
  0
ENDBLK
  0
BLOCK
  8
LAYER_5
  2
AIGNBL050300A1
 70
64
 10
0
 20
0
 30
0
  3
AIGNBL050300A1
  0
POLYLINE
  8
LAYER_5
 40
0.1058
 41
0.1058
 66
1
 10
0
 20
0
 30
0
  0
VERTEX
  8
LAYER_5
 10
73.4439
 20
138.3144
 42
0.08774671059
  0
VERTEX
  8
LAYER_5
 10
73.6355
 20
138.3502
  0
SEQEND
  0
ENDBLK
  0
BLOCK
  8
LAYER_5
  2
AIGNBL050300A2
 70
64
 10
0
 20
0
 30
0
  3
AIGNBL050300A2
  0
POLYLINE
  8
LAYER_5
 40
0.1058
 41
0.1058
 66
1
 10
0
 20
0
 30
0
  0
VERTEX
  8
LAYER_5
 10
73.4439
 20
138.4425
 42
0.100171491
  0
VERTEX
  8
LAYER_5
 10
73.5983
 20
138.4742
  0
SEQEND
  0
ENDBLK
  0
BLOCK
  8
LAYER_5
  2
AIGNBL050300A3
 70
64
 10
0
 20
0
 30
0
  3
AIGNBL050300A3
  0
POLYLINE
  8
LAYER_5
 40
0.1058
 41
0.1058
 66
1
 10
0
 20
0
 30
0
  0
VERTEX
  8
LAYER_5
 10
68.0117
 20
138.4425
  0
VERTEX
  8
LAYER_5
 10
68.0799
 20
138.4515
  0
SEQEND
  0
ENDBLK
  0
BLOCK
  8
LAYER_5
  2
AIGNBL050300A4
 70
64
 10
0
 20
0
 30
0
  3
AIGNBL050300A4
  0
POLYLINE
  8
LAYER_5
 40
0.1058
 41
0.1058
 66
1
 10
0
 20
0
 30
0
  0
VERTEX
  8
LAYER_5
 10
68.0117
 20
138.3144
  0
VERTEX
  8
LAYER_5
 10
68.1137
 20
138.3275
  0
SEQEND
  0
ENDBLK
  0
BLOCK
  8
LAYER_5
  2
AIGNBL050300A5
 70
64
 10
0
 20
0
 30
0
  3
AIGNBL050300A5
  0
POLYLINE
  8
LAYER_5
 40
0.1058
 41
0.1058
 66
1
 10
0
 20
0
 30
0
  0
VERTEX
  8
LAYER_5
 10
68.2418
 20
138.3295
 42
0.1355528988
  0
VERTEX
  8
LAYER_5
 10
68.1137
 20
138.3275
  0
SEQEND
  0
ENDBLK
  0
BLOCK
  8
LAYER_5
  2
AIGNBL050300A6
 70
64
 10
0
 20
0
 30
0
  3
AIGNBL050300A6
  0
POLYLINE
  8
LAYER_5
 40
0.1058
 41
0.1058
 66
1
 10
0
 20
0
 30
0
  0
VERTEX
  8
LAYER_5
 10
68.2418
 20
138.3295
  0
VERTEX
  8
LAYER_5
 10
68.3659
 20
138.3144
  0
SEQEND
  0
ENDBLK
  0
BLOCK
  8
LAYER_5
  2
AIGNBL050300A7
 70
64
 10
0
 20
0
 30
0
  3
AIGNBL050300A7
  0
POLYLINE
  8
LAYER_5
 40
0.1058
 41
0.1058
 66
1
 10
0
 20
0
 30
0
  0
VERTEX
  8
LAYER_5
 10
68.2742
 20
138.4543
  0
VERTEX
  8
LAYER_5
 10
68.3659
 20
138.4425
  0
SEQEND
  0
ENDBLK
  0
BLOCK
  8
LAYER_5
  2
AIGNBL050300A8
 70
64
 10
0
 20
0
 30
0
  3
AIGNBL050300A8
  0
POLYLINE
  8
LAYER_5
 40
0.1058
 41
0.1058
 66
1
 10
0
 20
0
 30
0
  0
VERTEX
  8
LAYER_5
 10
68.2742
 20
138.4543
 42
0.1299586785
  0
VERTEX
  8
LAYER_5
 10
68.0799
 20
138.4515
  0
SEQEND
  0
ENDBLK
  0
BLOCK
  8
LAYER_5
  2
AIGNBL050300A9
 70
64
 10
0
 20
0
 30
0
  3
AIGNBL050300A9
  0
POLYLINE
  8
LAYER_5
 40
0.1058
 41
0.1058
 66
1
 10
0
 20
0
 30
0
  0
VERTEX
  8
LAYER_5
 10
122.274
 20
138.4543
 42
0.1299586785
  0
VERTEX
  8
LAYER_5
 10
122.0797
 20
138.4515
  0
SEQEND
  0
ENDBLK
  0
BLOCK
  8
LAYER_5
  2
AIGNBL050300AA
 70
64
 10
0
 20
0
 30
0
  3
AIGNBL050300AA
  0
POLYLINE
  8
LAYER_5
 40
0.1058
 41
0.1058
 66
1
 10
0
 20
0
 30
0
  0
VERTEX
  8
LAYER_5
 10
122.274
 20
138.4543
  0
VERTEX
  8
LAYER_5
 10
122.3657
 20
138.4425
  0
SEQEND
  0
ENDBLK
  0
BLOCK
  8
LAYER_5
  2
AIGNBL050300AB
 70
64
 10
0
 20
0
 30
0
  3
AIGNBL050300AB
  0
POLYLINE
  8
LAYER_5
 40
0.1058
 41
0.1058
 66
1
 10
0
 20
0
 30
0
  0
VERTEX
  8
LAYER_5
 10
122.243
 20
138.3295
  0
VERTEX
  8
LAYER_5
 10
122.3657
 20
138.3144
  0
SEQEND
  0
ENDBLK
  0
BLOCK
  8
LAYER_5
  2
AIGNBL050300AC
 70
64
 10
0
 20
0
 30
0
  3
AIGNBL050300AC
  0
POLYLINE
  8
LAYER_5
 40
0.1058
 41
0.1058
 66
1
 10
0
 20
0
 30
0
  0
VERTEX
  8
LAYER_5
 10
122.243
 20
138.3295
 42
0.1328406832
  0
VERTEX
  8
LAYER_5
 10
122.1135
 20
138.3275
  0
SEQEND
  0
ENDBLK
  0
BLOCK
  8
LAYER_5
  2
AIGNBL050300AD
 70
64
 10
0
 20
0
 30
0
  3
AIGNBL050300AD
  0
POLYLINE
  8
LAYER_5
 40
0.1058
 41
0.1058
 66
1
 10
0
 20
0
 30
0
  0
VERTEX
  8
LAYER_5
 10
122.0122
 20
138.3144
  0
VERTEX
  8
LAYER_5
 10
122.1135
 20
138.3275
  0
SEQEND
  0
ENDBLK
  0
BLOCK
  8
LAYER_5
  2
AIGNBL050300AE
 70
64
 10
0
 20
0
 30
0
  3
AIGNBL050300AE
  0
POLYLINE
  8
LAYER_5
 40
0.1058
 41
0.1058
 66
1
 10
0
 20
0
 30
0
  0
VERTEX
  8
LAYER_5
 10
122.0122
 20
138.4425
  0
VERTEX
  8
LAYER_5
 10
122.0797
 20
138.4515
  0
SEQEND
  0
ENDBLK
  0
BLOCK
  8
LAYER_5
  2
AIGNBL050300AF
 70
64
 10
0
 20
0
 30
0
  3
AIGNBL050300AF
  0
POLYLINE
  8
LAYER_5
 40
0.1058
 41
0.1058
 66
1
 10
0
 20
0
 30
0
  0
VERTEX
  8
LAYER_5
 10
127.4444
 20
138.4425
 42
0.09854367217
  0
VERTEX
  8
LAYER_5
 10
127.5988
 20
138.4742
  0
SEQEND
  0
ENDBLK
  0
BLOCK
  8
LAYER_5
  2
AIGNBL050300B0
 70
64
 10
0
 20
0
 30
0
  3
AIGNBL050300B0
  0
POLYLINE
  8
LAYER_5
 40
0.1058
 41
0.1058
 66
1
 10
0
 20
0
 30
0
  0
VERTEX
  8
LAYER_5
 10
127.4444
 20
138.3144
 42
0.08783234374
  0
VERTEX
  8
LAYER_5
 10
127.6353
 20
138.3502
  0
SEQEND
  0
ENDBLK
  0
BLOCK
  8
LAYER_5
  2
AIGNBL050300B1
 70
64
 10
0
 20
0
 30
0
  3
AIGNBL050300B1
  0
POLYLINE
  8
LAYER_5
 40
0.1058
 41
0.1058
 66
1
 10
0
 20
0
 30
0
  0
VERTEX
  8
LAYER_5
 10
126.907
 20
138.3364
 42
0.1232286431
  0
VERTEX
  8
LAYER_5
 10
126.9945
 20
138.3144
  0
SEQEND
  0
ENDBLK
  0
BLOCK
  8
LAYER_5
  2
AIGNBL050300B2
 70
64
 10
0
 20
0
 30
0
  3
AIGNBL050300B2
  0
POLYLINE
  8
LAYER_5
 40
0.1058
 41
0.1058
 66
1
 10
0
 20
0
 30
0
  0
VERTEX
  8
LAYER_5
 10
126.9442
 20
138.4708
 42
0.2528109231
  0
VERTEX
  8
LAYER_5
 10
126.9945
 20
138.4425
  0
SEQEND
  0
ENDBLK
  0
BLOCK
  8
LAYER_5
  2
AIGNBL050300B3
 70
64
 10
0
 20
0
 30
0
  3
AIGNBL050300B3
  0
POLYLINE
  8
LAYER_5
 40
0.1058
 41
0.1058
 66
1
 10
0
 20
0
 30
0
  0
VERTEX
  8
LAYER_5
 10
126.7609
 20
138.4425
 42
0.2481942422
  0
VERTEX
  8
LAYER_5
 10
126.8091
 20
138.4701
  0
SEQEND
  0
ENDBLK
  0
BLOCK
  8
LAYER_5
  2
AIGNBL050300B4
 70
64
 10
0
 20
0
 30
0
  3
AIGNBL050300B4
  0
POLYLINE
  8
LAYER_5
 40
0.1058
 41
0.1058
 66
1
 10
0
 20
0
 30
0
  0
VERTEX
  8
LAYER_5
 10
126.6024
 20
138.4549
  0
VERTEX
  8
LAYER_5
 10
126.6644
 20
138.4425
  0
SEQEND
  0
ENDBLK
  0
BLOCK
  8
LAYER_5
  2
AIGNBL050300B5
 70
64
 10
0
 20
0
 30
0
  3
AIGNBL050300B5
  0
POLYLINE
  8
LAYER_5
 40
0.1058
 41
0.1058
 66
1
 10
0
 20
0
 30
0
  0
VERTEX
  8
LAYER_5
 10
126.6024
 20
138.4549
 42
0.2031266012
  0
VERTEX
  8
LAYER_5
 10
126.0939
 20
138.4549
  0
SEQEND
  0
ENDBLK
  0
BLOCK
  8
LAYER_5
  2
AIGNBL050300B6
 70
64
 10
0
 20
0
 30
0
  3
AIGNBL050300B6
  0
POLYLINE
  8
LAYER_5
 40
0.1058
 41
0.1058
 66
1
 10
0
 20
0
 30
0
  0
VERTEX
  8
LAYER_5
 10
126.0326
 20
138.4425
  0
VERTEX
  8
LAYER_5
 10
126.0939
 20
138.4549
  0
SEQEND
  0
ENDBLK
  0
BLOCK
  8
LAYER_5
  2
AIGNBL050300B7
 70
64
 10
0
 20
0
 30
0
  3
AIGNBL050300B7
  0
POLYLINE
  8
LAYER_5
 40
0.1058
 41
0.1058
 66
1
 10
0
 20
0
 30
0
  0
VERTEX
  8
LAYER_5
 10
125.8025
 20
138.4522
  0
VERTEX
  8
LAYER_5
 10
125.8652
 20
138.4425
  0
SEQEND
  0
ENDBLK
  0
BLOCK
  8
LAYER_5
  2
AIGNBL050300B8
 70
64
 10
0
 20
0
 30
0
  3
AIGNBL050300B8
  0
POLYLINE
  8
LAYER_5
 40
0.1058
 41
0.1058
 66
1
 10
0
 20
0
 30
0
  0
VERTEX
  8
LAYER_5
 10
125.8025
 20
138.4522
 42
0.149851988
  0
VERTEX
  8
LAYER_5
 10
125.0646
 20
138.4522
  0
SEQEND
  0
ENDBLK
  0
BLOCK
  8
LAYER_5
  2
AIGNBL050300B9
 70
64
 10
0
 20
0
 30
0
  3
AIGNBL050300B9
  0
POLYLINE
  8
LAYER_5
 40
0.1058
 41
0.1058
 66
1
 10
0
 20
0
 30
0
  0
VERTEX
  8
LAYER_5
 10
125.0025
 20
138.4425
  0
VERTEX
  8
LAYER_5
 10
125.0646
 20
138.4522
  0
SEQEND
  0
ENDBLK
  0
BLOCK
  8
LAYER_5
  2
AIGNBL050300BA
 70
64
 10
0
 20
0
 30
0
  3
AIGNBL050300BA
  0
POLYLINE
  8
LAYER_5
 40
0.1058
 41
0.1058
 66
1
 10
0
 20
0
 30
0
  0
VERTEX
  8
LAYER_5
 10
124.7455
 20
138.4522
  0
VERTEX
  8
LAYER_5
 10
124.8089
 20
138.4425
  0
SEQEND
  0
ENDBLK
  0
BLOCK
  8
LAYER_5
  2
AIGNBL050300BB
 70
64
 10
0
 20
0
 30
0
  3
AIGNBL050300BB
  0
POLYLINE
  8
LAYER_5
 40
0.1058
 41
0.1058
 66
1
 10
0
 20
0
 30
0
  0
VERTEX
  8
LAYER_5
 10
124.7455
 20
138.4522
 42
0.1496365727
  0
VERTEX
  8
LAYER_5
 10
124.0083
 20
138.4522
  0
SEQEND
  0
ENDBLK
  0
BLOCK
  8
LAYER_5
  2
AIGNBL050300BC
 70
64
 10
0
 20
0
 30
0
  3
AIGNBL050300BC
  0
POLYLINE
  8
LAYER_5
 40
0.1058
 41
0.1058
 66
1
 10
0
 20
0
 30
0
  0
VERTEX
  8
LAYER_5
 10
123.9456
 20
138.4425
  0
VERTEX
  8
LAYER_5
 10
124.0083
 20
138.4522
  0
SEQEND
  0
ENDBLK
  0
BLOCK
  8
LAYER_5
  2
AIGNBL050300BD
 70
64
 10
0
 20
0
 30
0
  3
AIGNBL050300BD
  0
POLYLINE
  8
LAYER_5
 40
0.1058
 41
0.1058
 66
1
 10
0
 20
0
 30
0
  0
VERTEX
  8
LAYER_5
 10
123.7161
 20
138.4549
  0
VERTEX
  8
LAYER_5
 10
123.7781
 20
138.4425
  0
SEQEND
  0
ENDBLK
  0
BLOCK
  8
LAYER_5
  2
AIGNBL050300BE
 70
64
 10
0
 20
0
 30
0
  3
AIGNBL050300BE
  0
POLYLINE
  8
LAYER_5
 40
0.1058
 41
0.1058
 66
1
 10
0
 20
0
 30
0
  0
VERTEX
  8
LAYER_5
 10
123.7161
 20
138.4549
 42
0.2031528408
  0
VERTEX
  8
LAYER_5
 10
123.2076
 20
138.4549
  0
SEQEND
  0
ENDBLK
  0
BLOCK
  8
LAYER_5
  2
AIGNBL050300BF
 70
64
 10
0
 20
0
 30
0
  3
AIGNBL050300BF
  0
POLYLINE
  8
LAYER_5
 40
0.1058
 41
0.1058
 66
1
 10
0
 20
0
 30
0
  0
VERTEX
  8
LAYER_5
 10
123.1456
 20
138.4425
  0
VERTEX
  8
LAYER_5
 10
123.2076
 20
138.4549
  0
SEQEND
  0
ENDBLK
  0
BLOCK
  8
LAYER_5
  2
AIGNBL050300C0
 70
64
 10
0
 20
0
 30
0
  3
AIGNBL050300C0
  0
POLYLINE
  8
LAYER_5
 40
0.1058
 41
0.1058
 66
1
 10
0
 20
0
 30
0
  0
VERTEX
  8
LAYER_5
 10
123.0002
 20
138.4701
 42
0.2482728882
  0
VERTEX
  8
LAYER_5
 10
123.0498
 20
138.4425
  0
SEQEND
  0
ENDBLK
  0
BLOCK
  8
LAYER_5
  2
AIGNBL050300C1
 70
64
 10
0
 20
0
 30
0
  3
AIGNBL050300C1
  0
POLYLINE
  8
LAYER_5
 40
0.1058
 41
0.1058
 66
1
 10
0
 20
0
 30
0
  0
VERTEX
  8
LAYER_5
 10
123.0002
 20
138.4701
 42
0.3992107164
  0
VERTEX
  8
LAYER_5
 10
122.8914
 20
138.4949
  0
VERTEX
  8
LAYER_5
 10
122.8666
 20
138.4708
  0
SEQEND
  0
ENDBLK
  0
BLOCK
  8
LAYER_5
  2
AIGNBL050300C2
 70
64
 10
0
 20
0
 30
0
  3
AIGNBL050300C2
  0
POLYLINE
  8
LAYER_5
 40
0.1058
 41
0.1058
 66
1
 10
0
 20
0
 30
0
  0
VERTEX
  8
LAYER_5
 10
122.8156
 20
138.4425
 42
0.2474653864
  0
VERTEX
  8
LAYER_5
 10
122.8666
 20
138.4708
  0
SEQEND
  0
ENDBLK
  0
BLOCK
  8
LAYER_5
  2
AIGNBL050300C3
 70
64
 10
0
 20
0
 30
0
  3
AIGNBL050300C3
  0
POLYLINE
  8
LAYER_5
 40
0.1058
 41
0.1058
 66
1
 10
0
 20
0
 30
0
  0
VERTEX
  8
LAYER_5
 10
126.5528
 20
138.3371
 42
0.1004990032
  0
VERTEX
  8
LAYER_5
 10
126.6644
 20
138.3144
  0
SEQEND
  0
ENDBLK
  0
BLOCK
  8
LAYER_5
  2
AIGNBL050300C4
 70
64
 10
0
 20
0
 30
0
  3
AIGNBL050300C4
  0
POLYLINE
  8
LAYER_5
 40
0.1058
 41
0.1058
 66
1
 10
0
 20
0
 30
0
  0
VERTEX
  8
LAYER_5
 10
126.5528
 20
138.3371
 42
0.2052590958
  0
VERTEX
  8
LAYER_5
 10
126.1442
 20
138.3371
  0
SEQEND
  0
ENDBLK
  0
BLOCK
  8
LAYER_5
  2
AIGNBL050300C5
 70
64
 10
0
 20
0
 30
0
  3
AIGNBL050300C5
  0
POLYLINE
  8
LAYER_5
 40
0.1058
 41
0.1058
 66
1
 10
0
 20
0
 30
0
  0
VERTEX
  8
LAYER_5
 10
126.0326
 20
138.3144
 42
0.09933011146
  0
VERTEX
  8
LAYER_5
 10
126.1442
 20
138.3371
  0
SEQEND
  0
ENDBLK
  0
BLOCK
  8
LAYER_5
  2
AIGNBL050300C6
 70
64
 10
0
 20
0
 30
0
  3
AIGNBL050300C6
  0
POLYLINE
  8
LAYER_5
 40
0.1058
 41
0.1058
 66
1
 10
0
 20
0
 30
0
  0
VERTEX
  8
LAYER_5
 10
125.7653
 20
138.3295
 42
0.1482328101
  0
VERTEX
  8
LAYER_5
 10
125.1017
 20
138.3295
  0
SEQEND
  0
ENDBLK
  0
BLOCK
  8
LAYER_5
  2
AIGNBL050300C7
 70
64
 10
0
 20
0
 30
0
  3
AIGNBL050300C7
  0
POLYLINE
  8
LAYER_5
 40
0.1058
 41
0.1058
 66
1
 10
0
 20
0
 30
0
  0
VERTEX
  8
LAYER_5
 10
125.7653
 20
138.3295
  0
VERTEX
  8
LAYER_5
 10
125.8652
 20
138.3144
  0
SEQEND
  0
ENDBLK
  0
BLOCK
  8
LAYER_5
  2
AIGNBL050300C8
 70
64
 10
0
 20
0
 30
0
  3
AIGNBL050300C8
  0
POLYLINE
  8
LAYER_5
 40
0.1058
 41
0.1058
 66
1
 10
0
 20
0
 30
0
  0
VERTEX
  8
LAYER_5
 10
125.0025
 20
138.3144
  0
VERTEX
  8
LAYER_5
 10
125.1017
 20
138.3295
  0
SEQEND
  0
ENDBLK
  0
BLOCK
  8
LAYER_5
  2
AIGNBL050300C9
 70
64
 10
0
 20
0
 30
0
  3
AIGNBL050300C9
  0
POLYLINE
  8
LAYER_5
 40
0.1058
 41
0.1058
 66
1
 10
0
 20
0
 30
0
  0
VERTEX
  8
LAYER_5
 10
124.7083
 20
138.3295
  0
VERTEX
  8
LAYER_5
 10
124.8089
 20
138.3144
  0
SEQEND
  0
ENDBLK
  0
BLOCK
  8
LAYER_5
  2
AIGNBL050300CA
 70
64
 10
0
 20
0
 30
0
  3
AIGNBL050300CA
  0
POLYLINE
  8
LAYER_5
 40
0.1058
 41
0.1058
 66
1
 10
0
 20
0
 30
0
  0
VERTEX
  8
LAYER_5
 10
124.7083
 20
138.3295
 42
0.147995979
  0
VERTEX
  8
LAYER_5
 10
124.0455
 20
138.3295
  0
SEQEND
  0
ENDBLK
  0
BLOCK
  8
LAYER_5
  2
AIGNBL050300CB
 70
64
 10
0
 20
0
 30
0
  3
AIGNBL050300CB
  0
POLYLINE
  8
LAYER_5
 40
0.1058
 41
0.1058
 66
1
 10
0
 20
0
 30
0
  0
VERTEX
  8
LAYER_5
 10
123.9456
 20
138.3144
  0
VERTEX
  8
LAYER_5
 10
124.0455
 20
138.3295
  0
SEQEND
  0
ENDBLK
  0
BLOCK
  8
LAYER_5
  2
AIGNBL050300CC
 70
64
 10
0
 20
0
 30
0
  3
AIGNBL050300CC
  0
POLYLINE
  8
LAYER_5
 40
0.1058
 41
0.1058
 66
1
 10
0
 20
0
 30
0
  0
VERTEX
  8
LAYER_5
 10
123.6665
 20
138.3371
 42
0.1004990032
  0
VERTEX
  8
LAYER_5
 10
123.7781
 20
138.3144
  0
SEQEND
  0
ENDBLK
  0
BLOCK
  8
LAYER_5
  2
AIGNBL050300CD
 70
64
 10
0
 20
0
 30
0
  3
AIGNBL050300CD
  0
POLYLINE
  8
LAYER_5
 40
0.1058
 41
0.1058
 66
1
 10
0
 20
0
 30
0
  0
VERTEX
  8
LAYER_5
 10
123.6665
 20
138.3371
 42
0.2017090992
  0
VERTEX
  8
LAYER_5
 10
123.2579
 20
138.3371
  0
SEQEND
  0
ENDBLK
  0
BLOCK
  8
LAYER_5
  2
AIGNBL050300CE
 70
64
 10
0
 20
0
 30
0
  3
AIGNBL050300CE
  0
POLYLINE
  8
LAYER_5
 40
0.1058
 41
0.1058
 66
1
 10
0
 20
0
 30
0
  0
VERTEX
  8
LAYER_5
 10
123.1456
 20
138.3144
 42
0.103069338
  0
VERTEX
  8
LAYER_5
 10
123.2579
 20
138.3371
  0
SEQEND
  0
ENDBLK
  0
BLOCK
  8
LAYER_5
  2
AIGNBL050300CF
 70
64
 10
0
 20
0
 30
0
  3
AIGNBL050300CF
  0
POLYLINE
  8
LAYER_5
 40
0.1058
 41
0.1058
 66
1
 10
0
 20
0
 30
0
  0
VERTEX
  8
LAYER_5
 10
122.963
 20
138.3364
 42
0.1240846367
  0
VERTEX
  8
LAYER_5
 10
123.0498
 20
138.3144
  0
SEQEND
  0
ENDBLK
  0
BLOCK
  8
LAYER_5
  2
AIGNBL050300D0
 70
64
 10
0
 20
0
 30
0
  3
AIGNBL050300D0
  0
POLYLINE
  8
LAYER_5
 40
0.1058
 41
0.1058
 66
1
 10
0
 20
0
 30
0
  0
VERTEX
  8
LAYER_5
 10
122.8156
 20
138.3144
 42
0.1268542493
  0
VERTEX
  8
LAYER_5
 10
122.9024
 20
138.3364
  0
SEQEND
  0
ENDBLK
  0
BLOCK
  8
LAYER_5
  2
AIGNBL050300D1
 70
64
 10
0
 20
0
 30
0
  3
AIGNBL050300D1
  0
POLYLINE
  8
LAYER_5
 40
0.1058
 41
0.1058
 66
1
 10
0
 20
0
 30
0
  0
VERTEX
  8
LAYER_5
 10
126.7609
 20
138.3144
 42
0.1227723848
  0
VERTEX
  8
LAYER_5
 10
126.8477
 20
138.3364
  0
SEQEND
  0
ENDBLK
  0
BLOCK
  8
LAYER_5
  2
AIGNBL050300D2
 70
64
 10
0
 20
0
 30
0
  3
AIGNBL050300D2
  0
POLYLINE
  8
LAYER_5
 40
0.1058
 41
0.1058
 66
1
 10
0
 20
0
 30
0
  0
VERTEX
  8
LAYER_5
 10
126.9442
 20
138.4708
 42
0.3944844117
  0
VERTEX
  8
LAYER_5
 10
126.8339
 20
138.4949
  0
VERTEX
  8
LAYER_5
 10
126.8091
 20
138.4701
  0
SEQEND
  0
ENDBLK
  0
BLOCK
  8
LAYER_5
  2
AIGNBL050300D3
 70
64
 10
0
 20
0
 30
0
  3
AIGNBL050300D3
  0
POLYLINE
  8
LAYER_5
 40
0.1058
 41
0.1058
 66
1
 10
0
 20
0
 30
0
  0
VERTEX
  8
LAYER_5
 10
72.9072
 20
138.3364
 42
0.2135947712
  0
VERTEX
  8
LAYER_5
 10
72.8465
 20
138.3364
  0
SEQEND
  0
ENDBLK
  0
BLOCK
  8
LAYER_5
  2
AIGNBL050300D4
 70
64
 10
0
 20
0
 30
0
  3
AIGNBL050300D4
  0
POLYLINE
  8
LAYER_5
 40
0.1058
 41
0.1058
 66
1
 10
0
 20
0
 30
0
  0
VERTEX
  8
LAYER_5
 10
68.9632
 20
138.3364
 42
0.2141298227
  0
VERTEX
  8
LAYER_5
 10
68.9026
 20
138.3364
  0
SEQEND
  0
ENDBLK
  0
BLOCK
  8
LAYER_5
  2
AIGNBL050300D5
 70
64
 10
0
 20
0
 30
0
  3
AIGNBL050300D5
  0
POLYLINE
  8
LAYER_5
 40
0.1058
 41
0.1058
 66
1
 10
0
 20
0
 30
0
  0
VERTEX
  8
LAYER_5
 10
73.7788
 20
138.3792
 42
0.09382425147
  0
VERTEX
  8
LAYER_5
 10
73.6355
 20
138.3502
  0
SEQEND
  0
ENDBLK
  0
BLOCK
  8
LAYER_5
  2
AIGNBL050300D6
 70
64
 10
0
 20
0
 30
0
  3
AIGNBL050300D6
  0
POLYLINE
  8
LAYER_5
 40
0.1058
 41
0.1058
 66
1
 10
0
 20
0
 30
0
  0
VERTEX
  8
LAYER_5
 10
73.7519
 20
138.5073
 42
0.0992587503
  0
VERTEX
  8
LAYER_5
 10
73.5983
 20
138.4742
  0
SEQEND
  0
ENDBLK
  0
BLOCK
  8
LAYER_5
  2
AIGNBL050300D7
 70
64
 10
0
 20
0
 30
0
  3
AIGNBL050300D7
  0
POLYLINE
  8
LAYER_5
 40
0.1058
 41
0.1058
 66
1
 10
0
 20
0
 30
0
  0
VERTEX
  8
LAYER_5
 10
127.7531
 20
138.5073
 42
0.1018195872
  0
VERTEX
  8
LAYER_5
 10
127.5988
 20
138.4742
  0
SEQEND
  0
ENDBLK
  0
BLOCK
  8
LAYER_5
  2
AIGNBL050300D8
 70
64
 10
0
 20
0
 30
0
  3
AIGNBL050300D8
  0
POLYLINE
  8
LAYER_5
 40
0.1058
 41
0.1058
 66
1
 10
0
 20
0
 30
0
  0
VERTEX
  8
LAYER_5
 10
127.7786
 20
138.3792
 42
0.09382425147
  0
VERTEX
  8
LAYER_5
 10
127.6353
 20
138.3502
  0
SEQEND
  0
ENDBLK
  0
BLOCK
  8
LAYER_5
  2
AIGNBL050300D9
 70
64
 10
0
 20
0
 30
0
  3
AIGNBL050300D9
  0
POLYLINE
  8
LAYER_5
 40
0.1058
 41
0.1058
 66
1
 10
0
 20
0
 30
0
  0
VERTEX
  8
LAYER_5
 10
122.963
 20
138.3364
 42
0.2137562756
  0
VERTEX
  8
LAYER_5
 10
122.9024
 20
138.3364
  0
SEQEND
  0
ENDBLK
  0
BLOCK
  8
LAYER_5
  2
AIGNBL050300DA
 70
64
 10
0
 20
0
 30
0
  3
AIGNBL050300DA
  0
POLYLINE
  8
LAYER_5
 40
0.1058
 41
0.1058
 66
1
 10
0
 20
0
 30
0
  0
VERTEX
  8
LAYER_5
 10
126.907
 20
138.3364
 42
0.2239566788
  0
VERTEX
  8
LAYER_5
 10
126.8477
 20
138.3364
  0
SEQEND
  0
ENDBLK
  0
BLOCK
  8
LAYER_5
  2
AIGNBL050300DC
 70
64
 10
0
 20
0
 30
0
  3
AIGNBL050300DC
  0
POLYLINE
  8
LAYER_5
 40
0.1058
 41
0.1058
 66
1
 10
0
 20
0
 30
0
  0
VERTEX
  8
LAYER_5
 10
127.2198
 20
138.3144
  0
VERTEX
  8
LAYER_5
 10
122.591
 20
138.3144
  0
SEQEND
  0
ENDBLK
  0
BLOCK
  8
LAYER_5
  2
AIGNBL050300DD
 70
64
 10
0
 20
0
 30
0
  3
AIGNBL050300DD
  0
POLYLINE
  8
LAYER_5
 40
0.1058
 41
0.1058
 66
1
 10
0
 20
0
 30
0
  0
VERTEX
  8
LAYER_5
 10
127.2198
 20
138.3144
  0
VERTEX
  8
LAYER_5
 10
127.2198
 20
137.5427
  0
SEQEND
  0
ENDBLK
  0
BLOCK
  8
LAYER_5
  2
AIGNBL050300DE
 70
64
 10
0
 20
0
 30
0
  3
AIGNBL050300DE
  0
POLYLINE
  8
LAYER_5
 40
0.1058
 41
0.1058
 66
1
 10
0
 20
0
 30
0
  0
VERTEX
  8
LAYER_5
 10
122.591
 20
137.5427
  0
VERTEX
  8
LAYER_5
 10
122.591
 20
138.3144
  0
SEQEND
  0
ENDBLK
  0
BLOCK
  8
LAYER_5
  2
AIGNBL050300DF
 70
64
 10
0
 20
0
 30
0
  3
AIGNBL050300DF
  0
POLYLINE
  8
LAYER_5
 40
0.1058
 41
0.1058
 66
1
 10
0
 20
0
 30
0
  0
VERTEX
  8
LAYER_5
 10
127.2198
 20
137.5427
  0
VERTEX
  8
LAYER_5
 10
122.591
 20
137.5427
  0
SEQEND
  0
ENDBLK
  0
BLOCK
  8
LAYER_5
  2
AIGNBL050300E0
 70
64
 10
0
 20
0
 30
0
  3
AIGNBL050300E0
  0
POLYLINE
  8
LAYER_5
 40
0.1058
 41
0.1058
 66
1
 10
0
 20
0
 30
0
  0
VERTEX
  8
LAYER_5
 10
73.4439
 20
138.3144
  0
VERTEX
  8
LAYER_5
 10
73.5776
 20
138.3144
  0
SEQEND
  0
ENDBLK
  0
BLOCK
  8
LAYER_5
  2
AIGNBL050300E1
 70
64
 10
0
 20
0
 30
0
  3
AIGNBL050300E1
  0
POLYLINE
  8
LAYER_5
 40
0.1058
 41
0.1058
 66
1
 10
0
 20
0
 30
0
  0
VERTEX
  8
LAYER_5
 10
68.3659
 20
138.3144
  0
VERTEX
  8
LAYER_5
 10
68.2329
 20
138.3144
  0
SEQEND
  0
ENDBLK
  0
BLOCK
  8
LAYER_5
  2
AIGNBL050300E2
 70
64
 10
0
 20
0
 30
0
  3
AIGNBL050300E2
  0
POLYLINE
  8
LAYER_5
 40
0.1058
 41
0.1058
 66
1
 10
0
 20
0
 30
0
  0
VERTEX
  8
LAYER_5
 10
73.5776
 20
138.3144
  0
VERTEX
  8
LAYER_5
 10
73.5776
 20
137.5427
  0
SEQEND
  0
ENDBLK
  0
BLOCK
  8
LAYER_5
  2
AIGNBL050300E3
 70
64
 10
0
 20
0
 30
0
  3
AIGNBL050300E3
  0
POLYLINE
  8
LAYER_5
 40
0.1058
 41
0.1058
 66
1
 10
0
 20
0
 30
0
  0
VERTEX
  8
LAYER_5
 10
72.2409
 20
138.3144
  0
VERTEX
  8
LAYER_5
 10
72.2409
 20
137.5427
  0
SEQEND
  0
ENDBLK
  0
BLOCK
  8
LAYER_5
  2
AIGNBL050300E4
 70
64
 10
0
 20
0
 30
0
  3
AIGNBL050300E4
  0
POLYLINE
  8
LAYER_5
 40
0.1058
 41
0.1058
 66
1
 10
0
 20
0
 30
0
  0
VERTEX
  8
LAYER_5
 10
69.5689
 20
137.5427
  0
VERTEX
  8
LAYER_5
 10
69.5689
 20
138.3144
  0
SEQEND
  0
ENDBLK
  0
BLOCK
  8
LAYER_5
  2
AIGNBL050300E5
 70
64
 10
0
 20
0
 30
0
  3
AIGNBL050300E5
  0
POLYLINE
  8
LAYER_5
 40
0.1058
 41
0.1058
 66
1
 10
0
 20
0
 30
0
  0
VERTEX
  8
LAYER_5
 10
68.2329
 20
137.5427
  0
VERTEX
  8
LAYER_5
 10
73.5776
 20
137.5427
  0
SEQEND
  0
ENDBLK
  0
BLOCK
  8
LAYER_5
  2
AIGNBL050300E6
 70
64
 10
0
 20
0
 30
0
  3
AIGNBL050300E6
  0
POLYLINE
  8
LAYER_5
 40
0.1058
 41
0.1058
 66
1
 10
0
 20
0
 30
0
  0
VERTEX
  8
LAYER_5
 10
68.2329
 20
137.5427
  0
VERTEX
  8
LAYER_5
 10
68.2329
 20
138.3144
  0
SEQEND
  0
ENDBLK
  0
BLOCK
  8
LAYER_5
  2
AIGNBL050300E8
 70
64
 10
0
 20
0
 30
0
  3
AIGNBL050300E8
  0
POLYLINE
  8
LAYER_5
 40
0.1058
 41
0.1058
 66
1
 10
0
 20
0
 30
0
  0
VERTEX
  8
LAYER_5
 10
69.7921
 20
170.3682
  0
VERTEX
  8
LAYER_5
 10
68.7193
 20
170.3682
  0
SEQEND
  0
ENDBLK
  0
BLOCK
  8
LAYER_5
  2
AIGNBL050300E9
 70
64
 10
0
 20
0
 30
0
  3
AIGNBL050300E9
  0
POLYLINE
  8
LAYER_5
 40
0.1058
 41
0.1058
 66
1
 10
0
 20
0
 30
0
  0
VERTEX
  8
LAYER_5
 10
127.0503
 20
170.4992
  0
VERTEX
  8
LAYER_5
 10
126.9945
 20
170.5219
  0
SEQEND
  0
ENDBLK
  0
BLOCK
  8
LAYER_5
  2
AIGNBL050300EA
 70
64
 10
0
 20
0
 30
0
  3
AIGNBL050300EA
  0
POLYLINE
  8
LAYER_5
 40
0.1058
 41
0.1058
 66
1
 10
0
 20
0
 30
0
  0
VERTEX
  8
LAYER_5
 10
122.8156
 20
170.5219
  0
VERTEX
  8
LAYER_5
 10
122.7598
 20
170.4992
  0
SEQEND
  0
ENDBLK
  0
BLOCK
  8
LAYER_5
  2
AIGNBL050300EB
 70
64
 10
0
 20
0
 30
0
  3
AIGNBL050300EB
  0
POLYLINE
  8
LAYER_5
 40
0.1058
 41
0.1058
 66
1
 10
0
 20
0
 30
0
  0
VERTEX
  8
LAYER_5
 10
123.4908
 20
171.1902
  0
SEQEND
  0
ENDBLK
  0
BLOCK
  8
LAYER_5
  2
AIGNBL050300EC
 70
64
 10
0
 20
0
 30
0
  3
AIGNBL050300EC
  0
POLYLINE
  8
LAYER_5
 40
0.1058
 41
0.1058
 66
1
 10
0
 20
0
 30
0
  0
VERTEX
  8
LAYER_5
 10
127.0909
 20
170.3682
  0
VERTEX
  8
LAYER_5
 10
122.7191
 20
170.3682
  0
SEQEND
  0
ENDBLK
  0
BLOCK
  8
LAYER_5
  2
AIGNBL050300ED
 70
64
 10
0
 20
0
 30
0
  3
AIGNBL050300ED
  0
POLYLINE
  8
LAYER_5
 40
0.1058
 41
0.1058
 66
1
 10
0
 20
0
 30
0
  0
VERTEX
  8
LAYER_5
 10
127.0909
 20
170.3682
  0
SEQEND
  0
ENDBLK
  0
BLOCK
  8
LAYER_5
  2
AIGNBL050300EE
 70
64
 10
0
 20
0
 30
0
  3
AIGNBL050300EE
  0
POLYLINE
  8
LAYER_5
 40
0.1058
 41
0.1058
 66
1
 10
0
 20
0
 30
0
  0
VERTEX
  8
LAYER_5
 10
122.7191
 20
170.3682
  0
VERTEX
  8
LAYER_5
 10
122.7191
 20
170.4399
  0
SEQEND
  0
ENDBLK
  0
BLOCK
  8
LAYER_5
  2
AIGNBL050300EF
 70
64
 10
0
 20
0
 30
0
  3
AIGNBL050300EF
  0
POLYLINE
  8
LAYER_5
 40
0.1058
 41
0.1058
 66
1
 10
0
 20
0
 30
0
  0
VERTEX
  8
LAYER_5
 10
68.7193
 20
170.3682
  0
VERTEX
  8
LAYER_5
 10
68.7193
 20
170.4399
  0
SEQEND
  0
ENDBLK
  0
BLOCK
  8
LAYER_5
  2
AIGNBL050300F0
 70
64
 10
0
 20
0
 30
0
  3
AIGNBL050300F0
  0
POLYLINE
  8
LAYER_5
 40
0.1058
 41
0.1058
 66
1
 10
0
 20
0
 30
0
  0
VERTEX
  8
LAYER_5
 10
73.0911
 20
170.3682
  0
VERTEX
  8
LAYER_5
 10
72.0307
 20
170.3682
  0
SEQEND
  0
ENDBLK
  0
BLOCK
  8
LAYER_5
  2
AIGNBL050300F1
 70
64
 10
0
 20
0
 30
0
  3
AIGNBL050300F1
  0
POLYLINE
  8
LAYER_5
 40
0.1058
 41
0.1058
 66
1
 10
0
 20
0
 30
0
  0
VERTEX
  8
LAYER_5
 10
68.8158
 20
170.5219
  0
VERTEX
  8
LAYER_5
 10
68.7593
 20
170.4992
  0
SEQEND
  0
ENDBLK
  0
BLOCK
  8
LAYER_5
  2
AIGNBL050300F2
 70
64
 10
0
 20
0
 30
0
  3
AIGNBL050300F2
  0
POLYLINE
  8
LAYER_5
 40
0.1058
 41
0.1058
 66
1
 10
0
 20
0
 30
0
  0
VERTEX
  8
LAYER_5
 10
73.0505
 20
170.4992
  0
VERTEX
  8
LAYER_5
 10
72.994
 20
170.5219
  0
SEQEND
  0
ENDBLK
  0
BLOCK
  8
LAYER_5
  2
AIGNBL050300F3
 70
64
 10
0
 20
0
 30
0
  3
AIGNBL050300F3
  0
POLYLINE
  8
LAYER_5
 40
0.1058
 41
0.1058
 66
1
 10
0
 20
0
 30
0
  0
VERTEX
  8
LAYER_5
 10
73.0911
 20
170.4399
  0
VERTEX
  8
LAYER_5
 10
73.0911
 20
170.3682
  0
SEQEND
  0
ENDBLK
  0
BLOCK
  8
LAYER_5
  2
AIGNBL050300F4
 70
64
 10
0
 20
0
 30
0
  3
AIGNBL050300F4
  0
POLYLINE
  8
LAYER_5
 40
0.1058
 41
0.1058
 66
1
 10
0
 20
0
 30
0
  0
VERTEX
  8
LAYER_5
 10
127.0909
 20
170.4399
  0
VERTEX
  8
LAYER_5
 10
127.0909
 20
170.3682
  0
SEQEND
  0
ENDBLK
  0
BLOCK
  8
LAYER_5
  2
AIGNBL050300F5
 70
64
 10
0
 20
0
 30
0
  3
AIGNBL050300F5
  0
POLYLINE
  8
LAYER_5
 40
0.1058
 41
0.1058
 66
1
 10
0
 20
0
 30
0
  0
VERTEX
  8
LAYER_5
 10
126.5845
 20
171.585
  0
VERTEX
  8
LAYER_5
 10
126.6851
 20
170.9208
  0
SEQEND
  0
ENDBLK
  0
BLOCK
  8
LAYER_5
  2
AIGNBL050300F6
 70
64
 10
0
 20
0
 30
0
  3
AIGNBL050300F6
  0
POLYLINE
  8
LAYER_5
 40
0.1058
 41
0.1058
 66
1
 10
0
 20
0
 30
0
  0
VERTEX
  8
LAYER_5
 10
122.8156
 20
170.5219
 42
0.2517375107
  0
VERTEX
  8
LAYER_5
 10
123.1222
 20
170.9084
  0
SEQEND
  0
ENDBLK
  0
BLOCK
  8
LAYER_5
  2
AIGNBL050300F7
 70
64
 10
0
 20
0
 30
0
  3
AIGNBL050300F7
  0
POLYLINE
  8
LAYER_5
 40
0.1058
 41
0.1058
 66
1
 10
0
 20
0
 30
0
  0
VERTEX
  8
LAYER_5
 10
126.6851
 20
170.9208
 42
0.2550112475
  0
VERTEX
  8
LAYER_5
 10
126.9945
 20
170.5219
  0
SEQEND
  0
ENDBLK
  0
BLOCK
  8
LAYER_5
  2
AIGNBL050300F8
 70
64
 10
0
 20
0
 30
0
  3
AIGNBL050300F8
  0
POLYLINE
  8
LAYER_5
 40
0.1058
 41
0.1058
 66
1
 10
0
 20
0
 30
0
  0
VERTEX
  8
LAYER_5
 10
72.6874
 20
170.9084
 42
0.25413482
  0
VERTEX
  8
LAYER_5
 10
72.994
 20
170.5219
  0
SEQEND
  0
ENDBLK
  0
BLOCK
  8
LAYER_5
  2
AIGNBL050300F9
 70
64
 10
0
 20
0
 30
0
  3
AIGNBL050300F9
  0
POLYLINE
  8
LAYER_5
 40
0.1058
 41
0.1058
 66
1
 10
0
 20
0
 30
0
  0
VERTEX
  8
LAYER_5
 10
68.8158
 20
170.5219
 42
0.2555272695
  0
VERTEX
  8
LAYER_5
 10
69.1224
 20
170.9084
  0
SEQEND
  0
ENDBLK
  0
BLOCK
  8
LAYER_5
  2
AIGNBL050300FA
 70
64
 10
0
 20
0
 30
0
  3
AIGNBL050300FA
  0
POLYLINE
  8
LAYER_5
 40
0.1058
 41
0.1058
 66
1
 10
0
 20
0
 30
0
  0
VERTEX
  8
LAYER_5
 10
126.5845
 20
171.585
  0
VERTEX
  8
LAYER_5
 10
126.5845
 20
171.5864
  0
SEQEND
  0
ENDBLK
  0
BLOCK
  8
LAYER_5
  2
AIGNBL050300FB
 70
64
 10
0
 20
0
 30
0
  3
AIGNBL050300FB
  0
POLYLINE
  8
LAYER_5
 40
0.1058
 41
0.1058
 66
1
 10
0
 20
0
 30
0
  0
VERTEX
  8
LAYER_5
 10
127.0909
 20
170.4399
 42
0.3044655506
  0
VERTEX
  8
LAYER_5
 10
127.0503
 20
170.4992
  0
SEQEND
  0
ENDBLK
  0
BLOCK
  8
LAYER_5
  2
AIGNBL050300FC
 70
64
 10
0
 20
0
 30
0
  3
AIGNBL050300FC
  0
POLYLINE
  8
LAYER_5
 40
0.1058
 41
0.1058
 66
1
 10
0
 20
0
 30
0
  0
VERTEX
  8
LAYER_5
 10
122.7598
 20
170.4992
 42
0.2914038929
  0
VERTEX
  8
LAYER_5
 10
122.7191
 20
170.4399
  0
SEQEND
  0
ENDBLK
  0
BLOCK
  8
LAYER_5
  2
AIGNBL050300FD
 70
64
 10
0
 20
0
 30
0
  3
AIGNBL050300FD
  0
POLYLINE
  8
LAYER_5
 40
0.1058
 41
0.1058
 66
1
 10
0
 20
0
 30
0
  0
VERTEX
  8
LAYER_5
 10
68.7593
 20
170.4992
 42
0.2994834566
  0
VERTEX
  8
LAYER_5
 10
68.7193
 20
170.4399
  0
SEQEND
  0
ENDBLK
  0
BLOCK
  8
LAYER_5
  2
AIGNBL050300FE
 70
64
 10
0
 20
0
 30
0
  3
AIGNBL050300FE
  0
POLYLINE
  8
LAYER_5
 40
0.1058
 41
0.1058
 66
1
 10
0
 20
0
 30
0
  0
VERTEX
  8
LAYER_5
 10
73.0911
 20
170.4399
 42
0.3075711204
  0
VERTEX
  8
LAYER_5
 10
73.0505
 20
170.4992
  0
SEQEND
  0
ENDBLK
  0
BLOCK
  8
LAYER_5
  2
AIGNBL05030100
 70
64
 10
0
 20
0
 30
0
  3
AIGNBL05030100
  0
POLYLINE
  8
LAYER_5
 40
0.1058
 41
0.1058
 66
1
 10
0
 20
0
 30
0
  0
VERTEX
  8
LAYER_5
 10
68.6545
 20
141.2723
  0
VERTEX
  8
LAYER_5
 10
68.6545
 20
154.128
  0
SEQEND
  0
ENDBLK
  0
BLOCK
  8
LAYER_5
  2
AIGNBL05030101
 70
64
 10
0
 20
0
 30
0
  3
AIGNBL05030101
  0
POLYLINE
  8
LAYER_5
 40
0.1058
 41
0.1058
 66
1
 10
0
 20
0
 30
0
  0
VERTEX
  8
LAYER_5
 10
73.1552
 20
141.2723
  0
VERTEX
  8
LAYER_5
 10
68.6545
 20
141.2723
  0
SEQEND
  0
ENDBLK
  0
BLOCK
  8
LAYER_5
  2
AIGNBL05030102
 70
64
 10
0
 20
0
 30
0
  3
AIGNBL05030102
  0
POLYLINE
  8
LAYER_5
 40
0.1058
 41
0.1058
 66
1
 10
0
 20
0
 30
0
  0
VERTEX
  8
LAYER_5
 10
73.1552
 20
154.128
  0
VERTEX
  8
LAYER_5
 10
73.1552
 20
141.2723
  0
SEQEND
  0
ENDBLK
  0
BLOCK
  8
LAYER_5
  2
AIGNBL05030103
 70
64
 10
0
 20
0
 30
0
  3
AIGNBL05030103
  0
POLYLINE
  8
LAYER_5
 40
0.1058
 41
0.1058
 66
1
 10
0
 20
0
 30
0
  0
VERTEX
  8
LAYER_5
 10
68.6545
 20
154.128
  0
VERTEX
  8
LAYER_5
 10
73.1552
 20
154.128
  0
SEQEND
  0
ENDBLK
  0
BLOCK
  8
LAYER_5
  2
AIGNBL05030104
 70
64
 10
0
 20
0
 30
0
  3
AIGNBL05030104
  0
POLYLINE
  8
LAYER_5
 40
0.1058
 41
0.1058
 66
1
 10
0
 20
0
 30
0
  0
VERTEX
  8
LAYER_5
 10
122.6543
 20
141.2723
  0
VERTEX
  8
LAYER_5
 10
122.6543
 20
154.128
  0
SEQEND
  0
ENDBLK
  0
BLOCK
  8
LAYER_5
  2
AIGNBL05030105
 70
64
 10
0
 20
0
 30
0
  3
AIGNBL05030105
  0
POLYLINE
  8
LAYER_5
 40
0.1058
 41
0.1058
 66
1
 10
0
 20
0
 30
0
  0
VERTEX
  8
LAYER_5
 10
127.155
 20
141.2723
  0
VERTEX
  8
LAYER_5
 10
122.6543
 20
141.2723
  0
SEQEND
  0
ENDBLK
  0
BLOCK
  8
LAYER_5
  2
AIGNBL05030106
 70
64
 10
0
 20
0
 30
0
  3
AIGNBL05030106
  0
POLYLINE
  8
LAYER_5
 40
0.1058
 41
0.1058
 66
1
 10
0
 20
0
 30
0
  0
VERTEX
  8
LAYER_5
 10
127.155
 20
154.128
  0
VERTEX
  8
LAYER_5
 10
127.155
 20
141.2723
  0
SEQEND
  0
ENDBLK
  0
BLOCK
  8
LAYER_5
  2
AIGNBL05030107
 70
64
 10
0
 20
0
 30
0
  3
AIGNBL05030107
  0
POLYLINE
  8
LAYER_5
 40
0.1058
 41
0.1058
 66
1
 10
0
 20
0
 30
0
  0
VERTEX
  8
LAYER_5
 10
122.6543
 20
154.128
  0
VERTEX
  8
LAYER_5
 10
127.155
 20
154.128
  0
SEQEND
  0
ENDBLK
  0
BLOCK
  8
LAYER_5
  2
AIGNBL05030109
 70
64
 10
0
 20
0
 30
0
  3
AIGNBL05030109
  0
INSERT
  8
LAYER_5
  2
AIGNBL0504010A
 10
0
 20
0
 30
0
  0
INSERT
  8
LAYER_5
  2
AIGNBL0504010B
 10
0
 20
0
 30
0
  0
INSERT
  8
LAYER_5
  2
AIGNBL0504010C
 10
0
 20
0
 30
0
  0
INSERT
  8
LAYER_5
  2
AIGNBL0504010D
 10
0
 20
0
 30
0
  0
INSERT
  8
LAYER_5
  2
AIGNBL0504010E
 10
0
 20
0
 30
0
  0
INSERT
  8
LAYER_5
  2
AIGNBL0504010F
 10
0
 20
0
 30
0
  0
INSERT
  8
LAYER_5
  2
AIGNBL05040110
 10
0
 20
0
 30
0
  0
INSERT
  8
LAYER_5
  2
AIGNBL05040111
 10
0
 20
0
 30
0
  0
INSERT
  8
LAYER_5
  2
AIGNBL05040112
 10
0
 20
0
 30
0
  0
INSERT
  8
LAYER_5
  2
AIGNBL05040113
 10
0
 20
0
 30
0
  0
INSERT
  8
LAYER_5
  2
AIGNBL05040114
 10
0
 20
0
 30
0
  0
INSERT
  8
LAYER_5
  2
AIGNBL05040115
 10
0
 20
0
 30
0
  0
INSERT
  8
LAYER_5
  2
AIGNBL05040116
 10
0
 20
0
 30
0
  0
INSERT
  8
LAYER_5
  2
AIGNBL05040117
 10
0
 20
0
 30
0
  0
INSERT
  8
LAYER_5
  2
AIGNBL05040118
 10
0
 20
0
 30
0
  0
INSERT
  8
LAYER_5
  2
AIGNBL05040119
 10
0
 20
0
 30
0
  0
INSERT
  8
LAYER_5
  2
AIGNBL0504011A
 10
0
 20
0
 30
0
  0
INSERT
  8
LAYER_5
  2
AIGNBL0504011B
 10
0
 20
0
 30
0
  0
INSERT
  8
LAYER_5
  2
AIGNBL0504011C
 10
0
 20
0
 30
0
  0
INSERT
  8
LAYER_5
  2
AIGNBL0504011D
 10
0
 20
0
 30
0
  0
INSERT
  8
LAYER_5
  2
AIGNBL0504011E
 10
0
 20
0
 30
0
  0
INSERT
  8
LAYER_5
  2
AIGNBL0504011F
 10
0
 20
0
 30
0
  0
INSERT
  8
LAYER_5
  2
AIGNBL05040120
 10
0
 20
0
 30
0
  0
INSERT
  8
LAYER_5
  2
AIGNBL05040121
 10
0
 20
0
 30
0
  0
INSERT
  8
LAYER_5
  2
AIGNBL05040122
 10
0
 20
0
 30
0
  0
INSERT
  8
LAYER_5
  2
AIGNBL05040123
 10
0
 20
0
 30
0
  0
INSERT
  8
LAYER_5
  2
AIGNBL05040124
 10
0
 20
0
 30
0
  0
INSERT
  8
LAYER_5
  2
AIGNBL05040125
 10
0
 20
0
 30
0
  0
INSERT
  8
LAYER_5
  2
AIGNBL05040126
 10
0
 20
0
 30
0
  0
INSERT
  8
LAYER_5
  2
AIGNBL05040127
 10
0
 20
0
 30
0
  0
INSERT
  8
LAYER_5
  2
AIGNBL05040128
 10
0
 20
0
 30
0
  0
INSERT
  8
LAYER_5
  2
AIGNBL05040129
 10
0
 20
0
 30
0
  0
INSERT
  8
LAYER_5
  2
AIGNBL0504012A
 10
0
 20
0
 30
0
  0
INSERT
  8
LAYER_5
  2
AIGNBL0504012B
 10
0
 20
0
 30
0
  0
INSERT
  8
LAYER_5
  2
AIGNBL0504012C
 10
0
 20
0
 30
0
  0
INSERT
  8
LAYER_5
  2
AIGNBL0504012D
 10
0
 20
0
 30
0
  0
INSERT
  8
LAYER_5
  2
AIGNBL0504012E
 10
0
 20
0
 30
0
  0
INSERT
  8
LAYER_5
  2
AIGNBL0504012F
 10
0
 20
0
 30
0
  0
INSERT
  8
LAYER_5
  2
AIGNBL05040130
 10
0
 20
0
 30
0
  0
INSERT
  8
LAYER_5
  2
AIGNBL05040131
 10
0
 20
0
 30
0
  0
INSERT
  8
LAYER_5
  2
AIGNBL05040132
 10
0
 20
0
 30
0
  0
INSERT
  8
LAYER_5
  2
AIGNBL05040133
 10
0
 20
0
 30
0
  0
INSERT
  8
LAYER_5
  2
AIGNBL05040134
 10
0
 20
0
 30
0
  0
INSERT
  8
LAYER_5
  2
AIGNBL05040135
 10
0
 20
0
 30
0
  0
INSERT
  8
LAYER_5
  2
AIGNBL05040136
 10
0
 20
0
 30
0
  0
INSERT
  8
LAYER_5
  2
AIGNBL05040137
 10
0
 20
0
 30
0
  0
INSERT
  8
LAYER_5
  2
AIGNBL05040138
 10
0
 20
0
 30
0
  0
INSERT
  8
LAYER_5
  2
AIGNBL05040139
 10
0
 20
0
 30
0
  0
INSERT
  8
LAYER_5
  2
AIGNBL0504013A
 10
0
 20
0
 30
0
  0
INSERT
  8
LAYER_5
  2
AIGNBL0504013B
 10
0
 20
0
 30
0
  0
INSERT
  8
LAYER_5
  2
AIGNBL0504013C
 10
0
 20
0
 30
0
  0
INSERT
  8
LAYER_5
  2
AIGNBL0504013D
 10
0
 20
0
 30
0
  0
INSERT
  8
LAYER_5
  2
AIGNBL0504013E
 10
0
 20
0
 30
0
  0
INSERT
  8
LAYER_5
  2
AIGNBL0504013F
 10
0
 20
0
 30
0
  0
INSERT
  8
LAYER_5
  2
AIGNBL05040140
 10
0
 20
0
 30
0
  0
INSERT
  8
LAYER_5
  2
AIGNBL05040141
 10
0
 20
0
 30
0
  0
INSERT
  8
LAYER_5
  2
AIGNBL05040142
 10
0
 20
0
 30
0
  0
INSERT
  8
LAYER_5
  2
AIGNBL05040143
 10
0
 20
0
 30
0
  0
INSERT
  8
LAYER_5
  2
AIGNBL05040144
 10
0
 20
0
 30
0
  0
INSERT
  8
LAYER_5
  2
AIGNBL05040145
 10
0
 20
0
 30
0
  0
INSERT
  8
LAYER_5
  2
AIGNBL05040146
 10
0
 20
0
 30
0
  0
INSERT
  8
LAYER_5
  2
AIGNBL05040147
 10
0
 20
0
 30
0
  0
INSERT
  8
LAYER_5
  2
AIGNBL05040148
 10
0
 20
0
 30
0
  0
INSERT
  8
LAYER_5
  2
AIGNBL05040149
 10
0
 20
0
 30
0
  0
INSERT
  8
LAYER_5
  2
AIGNBL0504014A
 10
0
 20
0
 30
0
  0
INSERT
  8
LAYER_5
  2
AIGNBL0504014B
 10
0
 20
0
 30
0
  0
INSERT
  8
LAYER_5
  2
AIGNBL0504014C
 10
0
 20
0
 30
0
  0
INSERT
  8
LAYER_5
  2
AIGNBL0504014D
 10
0
 20
0
 30
0
  0
INSERT
  8
LAYER_5
  2
AIGNBL0504014E
 10
0
 20
0
 30
0
  0
INSERT
  8
LAYER_5
  2
AIGNBL0504014F
 10
0
 20
0
 30
0
  0
INSERT
  8
LAYER_5
  2
AIGNBL05040150
 10
0
 20
0
 30
0
  0
INSERT
  8
LAYER_5
  2
AIGNBL05040151
 10
0
 20
0
 30
0
  0
INSERT
  8
LAYER_5
  2
AIGNBL05040152
 10
0
 20
0
 30
0
  0
INSERT
  8
LAYER_5
  2
AIGNBL05040153
 10
0
 20
0
 30
0
  0
INSERT
  8
LAYER_5
  2
AIGNBL05040154
 10
0
 20
0
 30
0
  0
INSERT
  8
LAYER_5
  2
AIGNBL05040155
 10
0
 20
0
 30
0
  0
INSERT
  8
LAYER_5
  2
AIGNBL05040156
 10
0
 20
0
 30
0
  0
INSERT
  8
LAYER_5
  2
AIGNBL05040157
 10
0
 20
0
 30
0
  0
INSERT
  8
LAYER_5
  2
AIGNBL05040158
 10
0
 20
0
 30
0
  0
INSERT
  8
LAYER_5
  2
AIGNBL05040159
 10
0
 20
0
 30
0
  0
INSERT
  8
LAYER_5
  2
AIGNBL0504015A
 10
0
 20
0
 30
0
  0
INSERT
  8
LAYER_5
  2
AIGNBL0504015B
 10
0
 20
0
 30
0
  0
INSERT
  8
LAYER_5
  2
AIGNBL0504015C
 10
0
 20
0
 30
0
  0
INSERT
  8
LAYER_5
  2
AIGNBL0504015D
 10
0
 20
0
 30
0
  0
INSERT
  8
LAYER_5
  2
AIGNBL0504015E
 10
0
 20
0
 30
0
  0
INSERT
  8
LAYER_5
  2
AIGNBL0504015F
 10
0
 20
0
 30
0
  0
INSERT
  8
LAYER_5
  2
AIGNBL05040160
 10
0
 20
0
 30
0
  0
INSERT
  8
LAYER_5
  2
AIGNBL05040161
 10
0
 20
0
 30
0
  0
INSERT
  8
LAYER_5
  2
AIGNBL05040162
 10
0
 20
0
 30
0
  0
ENDBLK
  0
BLOCK
  8
LAYER_5
  2
AIGNBL05030163
 70
64
 10
0
 20
0
 30
0
  3
AIGNBL05030163
  0
INSERT
  8
LAYER_5
  2
AIGNBL05040164
 10
0
 20
0
 30
0
  0
INSERT
  8
LAYER_5
  2
AIGNBL05040165
 10
0
 20
0
 30
0
  0
INSERT
  8
LAYER_5
  2
AIGNBL05040166
 10
0
 20
0
 30
0
  0
INSERT
  8
LAYER_5
  2
AIGNBL05040167
 10
0
 20
0
 30
0
  0
INSERT
  8
LAYER_5
  2
AIGNBL05040168
 10
0
 20
0
 30
0
  0
INSERT
  8
LAYER_5
  2
AIGNBL05040169
 10
0
 20
0
 30
0
  0
INSERT
  8
LAYER_5
  2
AIGNBL0504016A
 10
0
 20
0
 30
0
  0
INSERT
  8
LAYER_5
  2
AIGNBL0504016B
 10
0
 20
0
 30
0
  0
INSERT
  8
LAYER_5
  2
AIGNBL0504016C
 10
0
 20
0
 30
0
  0
INSERT
  8
LAYER_5
  2
AIGNBL0504016D
 10
0
 20
0
 30
0
  0
INSERT
  8
LAYER_5
  2
AIGNBL0504016E
 10
0
 20
0
 30
0
  0
INSERT
  8
LAYER_5
  2
AIGNBL0504016F
 10
0
 20
0
 30
0
  0
INSERT
  8
LAYER_5
  2
AIGNBL05040170
 10
0
 20
0
 30
0
  0
INSERT
  8
LAYER_5
  2
AIGNBL05040171
 10
0
 20
0
 30
0
  0
INSERT
  8
LAYER_5
  2
AIGNBL05040172
 10
0
 20
0
 30
0
  0
INSERT
  8
LAYER_5
  2
AIGNBL05040173
 10
0
 20
0
 30
0
  0
INSERT
  8
LAYER_5
  2
AIGNBL05040174
 10
0
 20
0
 30
0
  0
INSERT
  8
LAYER_5
  2
AIGNBL05040175
 10
0
 20
0
 30
0
  0
INSERT
  8
LAYER_5
  2
AIGNBL05040176
 10
0
 20
0
 30
0
  0
INSERT
  8
LAYER_5
  2
AIGNBL05040177
 10
0
 20
0
 30
0
  0
INSERT
  8
LAYER_5
  2
AIGNBL05040178
 10
0
 20
0
 30
0
  0
INSERT
  8
LAYER_5
  2
AIGNBL05040179
 10
0
 20
0
 30
0
  0
INSERT
  8
LAYER_5
  2
AIGNBL0504017A
 10
0
 20
0
 30
0
  0
INSERT
  8
LAYER_5
  2
AIGNBL0504017B
 10
0
 20
0
 30
0
  0
INSERT
  8
LAYER_5
  2
AIGNBL0504017C
 10
0
 20
0
 30
0
  0
INSERT
  8
LAYER_5
  2
AIGNBL0504017D
 10
0
 20
0
 30
0
  0
INSERT
  8
LAYER_5
  2
AIGNBL0504017E
 10
0
 20
0
 30
0
  0
INSERT
  8
LAYER_5
  2
AIGNBL0504017F
 10
0
 20
0
 30
0
  0
INSERT
  8
LAYER_5
  2
AIGNBL05040180
 10
0
 20
0
 30
0
  0
INSERT
  8
LAYER_5
  2
AIGNBL05040181
 10
0
 20
0
 30
0
  0
INSERT
  8
LAYER_5
  2
AIGNBL05040182
 10
0
 20
0
 30
0
  0
INSERT
  8
LAYER_5
  2
AIGNBL05040183
 10
0
 20
0
 30
0
  0
INSERT
  8
LAYER_5
  2
AIGNBL05040184
 10
0
 20
0
 30
0
  0
INSERT
  8
LAYER_5
  2
AIGNBL05040185
 10
0
 20
0
 30
0
  0
INSERT
  8
LAYER_5
  2
AIGNBL05040186
 10
0
 20
0
 30
0
  0
INSERT
  8
LAYER_5
  2
AIGNBL05040187
 10
0
 20
0
 30
0
  0
INSERT
  8
LAYER_5
  2
AIGNBL05040188
 10
0
 20
0
 30
0
  0
INSERT
  8
LAYER_5
  2
AIGNBL05040189
 10
0
 20
0
 30
0
  0
INSERT
  8
LAYER_5
  2
AIGNBL0504018A
 10
0
 20
0
 30
0
  0
INSERT
  8
LAYER_5
  2
AIGNBL0504018B
 10
0
 20
0
 30
0
  0
INSERT
  8
LAYER_5
  2
AIGNBL0504018C
 10
0
 20
0
 30
0
  0
INSERT
  8
LAYER_5
  2
AIGNBL0504018D
 10
0
 20
0
 30
0
  0
INSERT
  8
LAYER_5
  2
AIGNBL0504018E
 10
0
 20
0
 30
0
  0
INSERT
  8
LAYER_5
  2
AIGNBL0504018F
 10
0
 20
0
 30
0
  0
INSERT
  8
LAYER_5
  2
AIGNBL05040190
 10
0
 20
0
 30
0
  0
INSERT
  8
LAYER_5
  2
AIGNBL05040191
 10
0
 20
0
 30
0
  0
INSERT
  8
LAYER_5
  2
AIGNBL05040192
 10
0
 20
0
 30
0
  0
INSERT
  8
LAYER_5
  2
AIGNBL05040193
 10
0
 20
0
 30
0
  0
INSERT
  8
LAYER_5
  2
AIGNBL05040194
 10
0
 20
0
 30
0
  0
INSERT
  8
LAYER_5
  2
AIGNBL05040195
 10
0
 20
0
 30
0
  0
ENDBLK
  0
BLOCK
  8
LAYER_5
  2
AIGNBL05030197
 70
64
 10
0
 20
0
 30
0
  3
AIGNBL05030197
  0
POLYLINE
  8
LAYER_5
 40
0.1058
 41
0.1058
 66
1
 10
0
 20
0
 30
0
  0
VERTEX
  8
LAYER_5
 10
107.8956
 20
199.5523
  0
VERTEX
  8
LAYER_5
 10
123.24
 20
199.5523
  0
SEQEND
  0
ENDBLK
  0
BLOCK
  8
LAYER_5
  2
AIGNBL05030198
 70
64
 10
0
 20
0
 30
0
  3
AIGNBL05030198
  0
POLYLINE
  8
LAYER_5
 40
0.1058
 41
0.1058
 66
1
 10
0
 20
0
 30
0
  0
VERTEX
  8
LAYER_5
 10
107.8956
 20
196.3387
  0
VERTEX
  8
LAYER_5
 10
123.24
 20
196.3387
  0
SEQEND
  0
ENDBLK
  0
BLOCK
  8
LAYER_5
  2
AIGNBL05030199
 70
64
 10
0
 20
0
 30
0
  3
AIGNBL05030199
  0
POLYLINE
  8
LAYER_5
 40
0.1058
 41
0.1058
 66
1
 10
0
 20
0
 30
0
  0
VERTEX
  8
LAYER_5
 10
68.7193
 20
170.3682
  0
VERTEX
  8
LAYER_5
 10
69.7921
 20
170.3682
  0
SEQEND
  0
ENDBLK
  0
BLOCK
  8
LAYER_5
  2
AIGNBL0503019A
 70
64
 10
0
 20
0
 30
0
  3
AIGNBL0503019A
  0
POLYLINE
  8
LAYER_5
 40
0.1058
 41
0.1058
 66
1
 10
0
 20
0
 30
0
  0
VERTEX
  8
LAYER_5
 10
73.0911
 20
170.3682
  0
VERTEX
  8
LAYER_5
 10
72.0307
 20
170.3682
  0
SEQEND
  0
ENDBLK
  0
BLOCK
  8
LAYER_5
  2
AIGNBL0503019B
 70
64
 10
0
 20
0
 30
0
  3
AIGNBL0503019B
  0
POLYLINE
  8
LAYER_5
 40
0.1058
 41
0.1058
 66
1
 10
0
 20
0
 30
0
  0
VERTEX
  8
LAYER_5
 10
107.6737
 20
167.6659
  0
VERTEX
  8
LAYER_5
 10
108.413
 20
167.5081
  0
SEQEND
  0
ENDBLK
  0
BLOCK
  8
LAYER_5
  2
AIGNBL0503019C
 70
64
 10
0
 20
0
 30
0
  3
AIGNBL0503019C
  0
POLYLINE
  8
LAYER_5
 40
0.1058
 41
0.1058
 66
1
 10
0
 20
0
 30
0
  0
VERTEX
  8
LAYER_5
 10
107.5717
 20
167.8044
  0
SEQEND
  0
ENDBLK
  0
BLOCK
  8
LAYER_5
  2
AIGNBL0503019D
 70
64
 10
0
 20
0
 30
0
  3
AIGNBL0503019D
  0
POLYLINE
  8
LAYER_5
 40
0.1058
 41
0.1058
 66
1
 10
0
 20
0
 30
0
  0
VERTEX
  8
LAYER_5
 10
108.1925
 20
170.7245
  0
VERTEX
  8
LAYER_5
 10
108.1932
 20
170.7258
  0
SEQEND
  0
ENDBLK
  0
BLOCK
  8
LAYER_5
  2
AIGNBL0503019E
 70
64
 10
0
 20
0
 30
0
  3
AIGNBL0503019E
  0
POLYLINE
  8
LAYER_5
 40
0.1058
 41
0.1058
 66
1
 10
0
 20
0
 30
0
  0
VERTEX
  8
LAYER_5
 10
107.5724
 20
167.8044
  0
VERTEX
  8
LAYER_5
 10
107.5717
 20
167.8044
  0
SEQEND
  0
ENDBLK
  0
BLOCK
  8
LAYER_5
  2
AIGNBL0503019F
 70
64
 10
0
 20
0
 30
0
  3
AIGNBL0503019F
  0
POLYLINE
  8
LAYER_5
 40
0.1058
 41
0.1058
 66
1
 10
0
 20
0
 30
0
  0
VERTEX
  8
LAYER_5
 10
110.9892
 20
166.961
  0
VERTEX
  8
LAYER_5
 10
122.6571
 20
164.4813
  0
SEQEND
  0
ENDBLK
  0
BLOCK
  8
LAYER_5
  2
AIGNBL050301A0
 70
64
 10
0
 20
0
 30
0
  3
AIGNBL050301A0
  0
POLYLINE
  8
LAYER_5
 40
0.1058
 41
0.1058
 66
1
 10
0
 20
0
 30
0
  0
VERTEX
  8
LAYER_5
 10
122.6564
 20
167.7672
  0
VERTEX
  8
LAYER_5
 10
108.3414
 20
170.8099
  0
SEQEND
  0
ENDBLK
  0
BLOCK
  8
LAYER_5
  2
AIGNBL050301A1
 70
64
 10
0
 20
0
 30
0
  3
AIGNBL050301A1
  0
POLYLINE
  8
LAYER_5
 40
0.1058
 41
0.1058
 66
1
 10
0
 20
0
 30
0
  0
VERTEX
  8
LAYER_5
 10
122.6543
 20
170.3035
  0
VERTEX
  8
LAYER_5
 10
122.6543
 20
167.7672
  0
SEQEND
  0
ENDBLK
  0
BLOCK
  8
LAYER_5
  2
AIGNBL050301A2
 70
64
 10
0
 20
0
 30
0
  3
AIGNBL050301A2
  0
POLYLINE
  8
LAYER_5
 40
0.1058
 41
0.1058
 66
1
 10
0
 20
0
 30
0
  0
VERTEX
  8
LAYER_5
 10
122.7191
 20
170.3682
  0
VERTEX
  8
LAYER_5
 10
127.0909
 20
170.3682
  0
SEQEND
  0
ENDBLK
  0
BLOCK
  8
LAYER_5
  2
AIGNBL050301A3
 70
64
 10
0
 20
0
 30
0
  3
AIGNBL050301A3
  0
POLYLINE
  8
LAYER_5
 40
0.1058
 41
0.1058
 66
1
 10
0
 20
0
 30
0
  0
VERTEX
  8
LAYER_5
 10
127.155
 20
154.128
  0
VERTEX
  8
LAYER_5
 10
127.155
 20
170.3035
  0
SEQEND
  0
ENDBLK
  0
BLOCK
  8
LAYER_5
  2
AIGNBL050301A4
 70
64
 10
0
 20
0
 30
0
  3
AIGNBL050301A4
  0
POLYLINE
  8
LAYER_5
 40
0.1058
 41
0.1058
 66
1
 10
0
 20
0
 30
0
  0
VERTEX
  8
LAYER_5
 10
122.6543
 20
164.4861
  0
VERTEX
  8
LAYER_5
 10
122.6543
 20
154.128
  0
SEQEND
  0
ENDBLK
  0
BLOCK
  8
LAYER_5
  2
AIGNBL050301A5
 70
64
 10
0
 20
0
 30
0
  3
AIGNBL050301A5
  0
POLYLINE
  8
LAYER_5
 40
0.1058
 41
0.1058
 66
1
 10
0
 20
0
 30
0
  0
VERTEX
  8
LAYER_5
 10
122.6543
 20
154.128
  0
VERTEX
  8
LAYER_5
 10
127.155
 20
154.128
  0
SEQEND
  0
ENDBLK
  0
BLOCK
  8
LAYER_5
  2
AIGNBL050301A6
 70
64
 10
0
 20
0
 30
0
  3
AIGNBL050301A6
  0
POLYLINE
  8
LAYER_5
 40
0.1058
 41
0.1058
 66
1
 10
0
 20
0
 30
0
  0
VERTEX
  8
LAYER_5
 10
68.6545
 20
170.3035
  0
VERTEX
  8
LAYER_5
 10
68.6545
 20
154.128
  0
SEQEND
  0
ENDBLK
  0
BLOCK
  8
LAYER_5
  2
AIGNBL050301A7
 70
64
 10
0
 20
0
 30
0
  3
AIGNBL050301A7
  0
POLYLINE
  8
LAYER_5
 40
0.1058
 41
0.1058
 66
1
 10
0
 20
0
 30
0
  0
VERTEX
  8
LAYER_5
 10
73.1552
 20
154.0902
  0
VERTEX
  8
LAYER_5
 10
73.1552
 20
154.128
  0
SEQEND
  0
ENDBLK
  0
BLOCK
  8
LAYER_5
  2
AIGNBL050301A8
 70
64
 10
0
 20
0
 30
0
  3
AIGNBL050301A8
  0
POLYLINE
  8
LAYER_5
 40
0.1058
 41
0.1058
 66
1
 10
0
 20
0
 30
0
  0
VERTEX
  8
LAYER_5
 10
69.305
 20
169.241
  0
VERTEX
  8
LAYER_5
 10
69.2981
 20
165.9433
  0
SEQEND
  0
ENDBLK
  0
BLOCK
  8
LAYER_5
  2
AIGNBL050301A9
 70
64
 10
0
 20
0
 30
0
  3
AIGNBL050301A9
  0
POLYLINE
  8
LAYER_5
 40
0.1058
 41
0.1058
 66
1
 10
0
 20
0
 30
0
  0
VERTEX
  8
LAYER_5
 10
72.5117
 20
165.9433
  0
VERTEX
  8
LAYER_5
 10
72.5193
 20
169.2444
  0
SEQEND
  0
ENDBLK
  0
BLOCK
  8
LAYER_5
  2
AIGNBL050301AA
 70
64
 10
0
 20
0
 30
0
  3
AIGNBL050301AA
  0
POLYLINE
  8
LAYER_5
 40
0.1058
 41
0.1058
 66
1
 10
0
 20
0
 30
0
  0
VERTEX
  8
LAYER_5
 10
68.6545
 20
154.128
  0
VERTEX
  8
LAYER_5
 10
73.1552
 20
154.128
  0
SEQEND
  0
ENDBLK
  0
BLOCK
  8
LAYER_5
  2
AIGNBL050301AB
 70
64
 10
0
 20
0
 30
0
  3
AIGNBL050301AB
  0
POLYLINE
  8
LAYER_5
 40
0.1058
 41
0.1058
 66
1
 10
0
 20
0
 30
0
  0
VERTEX
  8
LAYER_5
 10
68.6545
 20
154.128
  0
VERTEX
  8
LAYER_5
 10
68.6545
 20
154.0902
  0
SEQEND
  0
ENDBLK
  0
BLOCK
  8
LAYER_5
  2
AIGNBL050301AC
 70
64
 10
0
 20
0
 30
0
  3
AIGNBL050301AC
  0
POLYLINE
  8
LAYER_5
 40
0.1058
 41
0.1058
 66
1
 10
0
 20
0
 30
0
  0
VERTEX
  8
LAYER_5
 10
73.1552
 20
154.128
  0
VERTEX
  8
LAYER_5
 10
73.1552
 20
170.3035
  0
SEQEND
  0
ENDBLK
  0
BLOCK
  8
LAYER_5
  2
AIGNBL050301AD
 70
64
 10
0
 20
0
 30
0
  3
AIGNBL050301AD
  0
POLYLINE
  8
LAYER_5
 40
0.1058
 41
0.1058
 66
1
 10
0
 20
0
 30
0
  0
VERTEX
  8
LAYER_5
 10
108.1925
 20
170.7245
 42
0.05807459373
  0
VERTEX
  8
LAYER_5
 10
107.5717
 20
167.8044
  0
SEQEND
  0
ENDBLK
  0
BLOCK
  8
LAYER_5
  2
AIGNBL050301AE
 70
64
 10
0
 20
0
 30
0
  3
AIGNBL050301AE
  0
POLYLINE
  8
LAYER_5
 40
0.1058
 41
0.1058
 66
1
 10
0
 20
0
 30
0
  0
VERTEX
  8
LAYER_5
 10
122.7191
 20
170.3682
 42
0.386161365
  0
VERTEX
  8
LAYER_5
 10
122.6543
 20
170.3035
  0
SEQEND
  0
ENDBLK
  0
BLOCK
  8
LAYER_5
  2
AIGNBL050301AF
 70
64
 10
0
 20
0
 30
0
  3
AIGNBL050301AF
  0
POLYLINE
  8
LAYER_5
 40
0.1058
 41
0.1058
 66
1
 10
0
 20
0
 30
0
  0
VERTEX
  8
LAYER_5
 10
127.155
 20
170.3035
 42
0.3921672072
  0
VERTEX
  8
LAYER_5
 10
127.0909
 20
170.3682
  0
SEQEND
  0
ENDBLK
  0
BLOCK
  8
LAYER_5
  2
AIGNBL050301B0
 70
64
 10
0
 20
0
 30
0
  3
AIGNBL050301B0
  0
POLYLINE
  8
LAYER_5
 40
0.1058
 41
0.1058
 66
1
 10
0
 20
0
 30
0
  0
VERTEX
  8
LAYER_5
 10
73.1552
 20
170.3035
 42
0.3921672072
  0
VERTEX
  8
LAYER_5
 10
73.0911
 20
170.3682
  0
SEQEND
  0
ENDBLK
  0
BLOCK
  8
LAYER_5
  2
AIGNBL050301B1
 70
64
 10
0
 20
0
 30
0
  3
AIGNBL050301B1
  0
POLYLINE
  8
LAYER_5
 40
0.1058
 41
0.1058
 66
1
 10
0
 20
0
 30
0
  0
VERTEX
  8
LAYER_5
 10
68.7193
 20
170.3682
 42
0.386161365
  0
VERTEX
  8
LAYER_5
 10
68.6545
 20
170.3035
  0
SEQEND
  0
ENDBLK
  0
BLOCK
  8
LAYER_5
  2
AIGNBL050301B2
 70
64
 10
0
 20
0
 30
0
  3
AIGNBL050301B2
  0
POLYLINE
  8
LAYER_5
 40
0.1058
 41
0.1058
 66
1
 10
0
 20
0
 30
0
  0
VERTEX
  8
LAYER_5
 10
72.5103
 20
165.9433
  0
VERTEX
  8
LAYER_5
 10
72.5117
 20
165.9227
  0
VERTEX
  8
LAYER_5
 10
72.5117
 20
165.9013
  0
VERTEX
  8
LAYER_5
 10
72.5082
 20
165.8007
  0
VERTEX
  8
LAYER_5
 10
72.4945
 20
165.6994
  0
VERTEX
  8
LAYER_5
 10
72.4745
 20
165.5975
  0
VERTEX
  8
LAYER_5
 10
72.4483
 20
165.4982
  0
VERTEX
  8
LAYER_5
 10
72.4201
 20
165.4108
  0
VERTEX
  8
LAYER_5
 10
72.3842
 20
165.3253
  0
VERTEX
  8
LAYER_5
 10
72.3436
 20
165.2433
  0
VERTEX
  8
LAYER_5
 10
72.2974
 20
165.1641
  0
VERTEX
  8
LAYER_5
 10
72.2375
 20
165.0752
  0
VERTEX
  8
LAYER_5
 10
72.1699
 20
164.9905
  0
VERTEX
  8
LAYER_5
 10
72.0955
 20
164.9112
  0
VERTEX
  8
LAYER_5
 10
72.0142
 20
164.8368
  0
VERTEX
  8
LAYER_5
 10
71.9129
 20
164.7568
  0
VERTEX
  8
LAYER_5
 10
71.8034
 20
164.6852
  0
VERTEX
  8
LAYER_5
 10
71.6828
 20
164.6204
  0
VERTEX
  8
LAYER_5
 10
71.556
 20
164.5646
  0
VERTEX
  8
LAYER_5
 10
71.4292
 20
164.5212
  0
VERTEX
  8
LAYER_5
 10
71.3004
 20
164.4868
  0
VERTEX
  8
LAYER_5
 10
71.1598
 20
164.4613
  0
VERTEX
  8
LAYER_5
 10
71.02
 20
164.4468
  0
VERTEX
  8
LAYER_5
 10
70.8959
 20
164.4434
  0
VERTEX
  8
LAYER_5
 10
70.774
 20
164.4475
  0
VERTEX
  8
LAYER_5
 10
70.6479
 20
164.4613
  0
VERTEX
  8
LAYER_5
 10
70.5259
 20
164.4819
  0
VERTEX
  8
LAYER_5
 10
70.4108
 20
164.5109
  0
VERTEX
  8
LAYER_5
 10
70.3006
 20
164.5453
  0
VERTEX
  8
LAYER_5
 10
70.1911
 20
164.5888
  0
VERTEX
  8
LAYER_5
 10
70.085
 20
164.6384
  0
VERTEX
  8
LAYER_5
 10
69.9733
 20
164.7031
  0
VERTEX
  8
LAYER_5
 10
69.8679
 20
164.7762
  0
VERTEX
  8
LAYER_5
 10
69.7687
 20
164.8602
  0
VERTEX
  8
LAYER_5
 10
69.6736
 20
164.9498
  0
SEQEND
  0
ENDBLK
  0
BLOCK
  8
LAYER_5
  2
AIGNBL050301B3
 70
64
 10
0
 20
0
 30
0
  3
AIGNBL050301B3
  0
POLYLINE
  8
LAYER_5
 40
0.1058
 41
0.1058
 66
1
 10
0
 20
0
 30
0
  0
VERTEX
  8
LAYER_5
 10
71.853
 20
170.5177
  0
VERTEX
  8
LAYER_5
 10
71.8351
 20
170.5302
  0
VERTEX
  8
LAYER_5
 10
71.8192
 20
170.5433
  0
VERTEX
  8
LAYER_5
 10
71.7448
 20
170.5915
  0
VERTEX
  8
LAYER_5
 10
71.6649
 20
170.6335
  0
VERTEX
  8
LAYER_5
 10
71.5836
 20
170.6728
  0
VERTEX
  8
LAYER_5
 10
71.5023
 20
170.7079
  0
VERTEX
  8
LAYER_5
 10
71.4168
 20
170.7382
  0
VERTEX
  8
LAYER_5
 10
71.33
 20
170.763
  0
VERTEX
  8
LAYER_5
 10
71.2432
 20
170.7844
  0
VERTEX
  8
LAYER_5
 10
71.155
 20
170.7996
  0
VERTEX
  8
LAYER_5
 10
71.0654
 20
170.8113
  0
VERTEX
  8
LAYER_5
 10
70.9759
 20
170.8161
  0
VERTEX
  8
LAYER_5
 10
70.9283
 20
170.8175
  0
VERTEX
  8
LAYER_5
 10
70.8801
 20
170.8175
  0
SEQEND
  0
ENDBLK
  0
BLOCK
  8
LAYER_5
  2
AIGNBL050301B4
 70
64
 10
0
 20
0
 30
0
  3
AIGNBL050301B4
  0
POLYLINE
  8
LAYER_5
 40
0.1058
 41
0.1058
 66
1
 10
0
 20
0
 30
0
  0
VERTEX
  8
LAYER_5
 10
70.8801
 20
170.8175
  0
VERTEX
  8
LAYER_5
 10
70.8305
 20
170.8154
  0
VERTEX
  8
LAYER_5
 10
70.7809
 20
170.8127
  0
VERTEX
  8
LAYER_5
 10
70.6927
 20
170.803
  0
VERTEX
  8
LAYER_5
 10
70.6038
 20
170.7878
  0
VERTEX
  8
LAYER_5
 10
70.5149
 20
170.7686
  0
VERTEX
  8
LAYER_5
 10
70.4281
 20
170.7452
  0
VERTEX
  8
LAYER_5
 10
70.3433
 20
170.7155
  0
VERTEX
  8
LAYER_5
 10
70.26
 20
170.6824
  0
VERTEX
  8
LAYER_5
 10
70.1786
 20
170.6445
  0
VERTEX
  8
LAYER_5
 10
70.1008
 20
170.6018
  0
VERTEX
  8
LAYER_5
 10
70.0526
 20
170.5715
  0
VERTEX
  8
LAYER_5
 10
70.0064
 20
170.5405
  0
SEQEND
  0
ENDBLK
  0
BLOCK
  8
LAYER_5
  2
AIGNBL050301B5
 70
64
 10
0
 20
0
 30
0
  3
AIGNBL050301B5
  0
POLYLINE
  8
LAYER_5
 40
0.1058
 41
0.1058
 66
1
 10
0
 20
0
 30
0
  0
VERTEX
  8
LAYER_5
 10
72.1913
 20
167.8106
  0
VERTEX
  8
LAYER_5
 10
72.1982
 20
167.8264
  0
VERTEX
  8
LAYER_5
 10
72.2057
 20
167.8416
  0
VERTEX
  8
LAYER_5
 10
72.2154
 20
167.8692
  0
VERTEX
  8
LAYER_5
 10
72.2216
 20
167.8912
  0
VERTEX
  8
LAYER_5
 10
72.223
 20
167.9091
  0
VERTEX
  8
LAYER_5
 10
72.2216
 20
167.9215
  0
VERTEX
  8
LAYER_5
 10
72.2161
 20
167.9284
  0
VERTEX
  8
LAYER_5
 10
72.2106
 20
167.9298
  0
VERTEX
  8
LAYER_5
 10
72.1934
 20
167.9263
  0
VERTEX
  8
LAYER_5
 10
72.172
 20
167.9167
  0
VERTEX
  8
LAYER_5
 10
72.1472
 20
167.9015
  0
VERTEX
  8
LAYER_5
 10
72.1189
 20
167.8843
  0
VERTEX
  8
LAYER_5
 10
72.0652
 20
167.8506
  0
VERTEX
  8
LAYER_5
 10
72.0046
 20
167.812
  0
VERTEX
  8
LAYER_5
 10
71.9343
 20
167.7727
  0
VERTEX
  8
LAYER_5
 10
71.8564
 20
167.73
  0
VERTEX
  8
LAYER_5
 10
71.7669
 20
167.6893
  0
VERTEX
  8
LAYER_5
 10
71.6683
 20
167.6487
  0
VERTEX
  8
LAYER_5
 10
71.5622
 20
167.6122
  0
VERTEX
  8
LAYER_5
 10
71.4492
 20
167.5791
  0
VERTEX
  8
LAYER_5
 10
71.3658
 20
167.5605
  0
VERTEX
  8
LAYER_5
 10
71.2804
 20
167.5439
  0
VERTEX
  8
LAYER_5
 10
71.1929
 20
167.5316
  0
VERTEX
  8
LAYER_5
 10
71.1033
 20
167.5219
  0
VERTEX
  8
LAYER_5
 10
71.011
 20
167.5157
  0
VERTEX
  8
LAYER_5
 10
70.9173
 20
167.5136
  0
VERTEX
  8
LAYER_5
 10
70.825
 20
167.5157
  0
VERTEX
  8
LAYER_5
 10
70.7333
 20
167.5205
  0
VERTEX
  8
LAYER_5
 10
70.6479
 20
167.5295
  0
VERTEX
  8
LAYER_5
 10
70.5645
 20
167.5412
  0
VERTEX
  8
LAYER_5
 10
70.4853
 20
167.5564
  0
VERTEX
  8
LAYER_5
 10
70.4074
 20
167.5722
  0
VERTEX
  8
LAYER_5
 10
70.3268
 20
167.5936
  0
VERTEX
  8
LAYER_5
 10
70.2496
 20
167.6163
  0
VERTEX
  8
LAYER_5
 10
70.1766
 20
167.6411
  0
VERTEX
  8
LAYER_5
 10
70.1077
 20
167.668
  0
VERTEX
  8
LAYER_5
 10
70.0829
 20
167.6783
  0
VERTEX
  8
LAYER_5
 10
70.0601
 20
167.6873
  0
SEQEND
  0
ENDBLK
  0
BLOCK
  8
LAYER_5
  2
AIGNBL050301B6
 70
64
 10
0
 20
0
 30
0
  3
AIGNBL050301B6
  0
POLYLINE
  8
LAYER_5
 40
0.1058
 41
0.1058
 66
1
 10
0
 20
0
 30
0
  0
VERTEX
  8
LAYER_5
 10
70.0601
 20
167.6873
  0
VERTEX
  8
LAYER_5
 10
69.9713
 20
167.73
  0
VERTEX
  8
LAYER_5
 10
69.8879
 20
167.7727
  0
VERTEX
  8
LAYER_5
 10
69.8155
 20
167.8134
  0
VERTEX
  8
LAYER_5
 10
69.7515
 20
167.8519
  0
VERTEX
  8
LAYER_5
 10
69.7129
 20
167.8781
  0
VERTEX
  8
LAYER_5
 10
69.6791
 20
167.9002
  0
VERTEX
  8
LAYER_5
 10
69.6488
 20
167.9174
  0
VERTEX
  8
LAYER_5
 10
69.624
 20
167.9291
  0
VERTEX
  8
LAYER_5
 10
69.6109
 20
167.9339
  0
VERTEX
  8
LAYER_5
 10
69.5992
 20
167.9339
  0
VERTEX
  8
LAYER_5
 10
69.5923
 20
167.9298
  0
VERTEX
  8
LAYER_5
 10
69.5889
 20
167.9215
  0
VERTEX
  8
LAYER_5
 10
69.5889
 20
167.9071
  0
VERTEX
  8
LAYER_5
 10
69.5902
 20
167.8878
  0
VERTEX
  8
LAYER_5
 10
69.5971
 20
167.8643
  0
VERTEX
  8
LAYER_5
 10
69.6082
 20
167.8361
  0
VERTEX
  8
LAYER_5
 10
69.6137
 20
167.8237
  0
VERTEX
  8
LAYER_5
 10
69.6199
 20
167.8106
  0
SEQEND
  0
ENDBLK
  0
BLOCK
  8
LAYER_5
  2
AIGNBL050301B7
 70
64
 10
0
 20
0
 30
0
  3
AIGNBL050301B7
  0
POLYLINE
  8
LAYER_5
 40
0.1058
 41
0.1058
 66
1
 10
0
 20
0
 30
0
  0
VERTEX
  8
LAYER_5
 10
69.6736
 20
164.9498
  0
VERTEX
  8
LAYER_5
 10
69.6054
 20
165.0331
  0
VERTEX
  8
LAYER_5
 10
69.5406
 20
165.1193
  0
VERTEX
  8
LAYER_5
 10
69.4821
 20
165.2137
  0
VERTEX
  8
LAYER_5
 10
69.4311
 20
165.315
  0
VERTEX
  8
LAYER_5
 10
69.3884
 20
165.4176
  0
VERTEX
  8
LAYER_5
 10
69.3532
 20
165.5265
  0
VERTEX
  8
LAYER_5
 10
69.3263
 20
165.643
  0
VERTEX
  8
LAYER_5
 10
69.3084
 20
165.7635
  0
VERTEX
  8
LAYER_5
 10
69.3015
 20
165.8538
  0
VERTEX
  8
LAYER_5
 10
69.2995
 20
165.9433
  0
SEQEND
  0
ENDBLK
  0
BLOCK
  8
LAYER_5
  2
AIGNBL050301B8
 70
64
 10
0
 20
0
 30
0
  3
AIGNBL050301B8
  0
POLYLINE
  8
LAYER_5
 40
0.1058
 41
0.1058
 66
1
 10
0
 20
0
 30
0
  0
VERTEX
  8
LAYER_5
 10
122.6564
 20
167.7672
  0
VERTEX
  8
LAYER_5
 10
122.6585
 20
167.7638
  0
VERTEX
  8
LAYER_5
 10
122.6599
 20
167.7603
  0
VERTEX
  8
LAYER_5
 10
122.6654
 20
167.7527
  0
VERTEX
  8
LAYER_5
 10
122.6709
 20
167.7431
  0
VERTEX
  8
LAYER_5
 10
122.6792
 20
167.7293
  0
VERTEX
  8
LAYER_5
 10
122.6902
 20
167.7121
  0
VERTEX
  8
LAYER_5
 10
122.7026
 20
167.6928
  0
VERTEX
  8
LAYER_5
 10
122.7164
 20
167.6693
  0
VERTEX
  8
LAYER_5
 10
122.7308
 20
167.6445
  0
VERTEX
  8
LAYER_5
 10
122.7536
 20
167.6073
  0
VERTEX
  8
LAYER_5
 10
122.777
 20
167.5667
  0
VERTEX
  8
LAYER_5
 10
122.8032
 20
167.5226
  0
VERTEX
  8
LAYER_5
 10
122.8321
 20
167.473
  0
VERTEX
  8
LAYER_5
 10
122.8617
 20
167.4199
  0
VERTEX
  8
LAYER_5
 10
122.8921
 20
167.3641
  0
VERTEX
  8
LAYER_5
 10
122.9327
 20
167.289
  0
VERTEX
  8
LAYER_5
 10
122.9734
 20
167.2091
  0
VERTEX
  8
LAYER_5
 10
123.0161
 20
167.125
  0
VERTEX
  8
LAYER_5
 10
123.0595
 20
167.0348
  0
VERTEX
  8
LAYER_5
 10
123.1022
 20
166.9404
  0
VERTEX
  8
LAYER_5
 10
123.1436
 20
166.8432
  0
VERTEX
  8
LAYER_5
 10
123.1904
 20
166.7206
  0
VERTEX
  8
LAYER_5
 10
123.2338
 20
166.5945
  0
VERTEX
  8
LAYER_5
 10
123.2607
 20
166.5035
  0
VERTEX
  8
LAYER_5
 10
123.2834
 20
166.4133
  0
VERTEX
  8
LAYER_5
 10
123.3041
 20
166.3196
  0
VERTEX
  8
LAYER_5
 10
123.3158
 20
166.2534
  0
VERTEX
  8
LAYER_5
 10
123.3241
 20
166.1866
  0
VERTEX
  8
LAYER_5
 10
123.3317
 20
166.1184
  0
VERTEX
  8
LAYER_5
 10
123.3351
 20
166.0488
  0
VERTEX
  8
LAYER_5
 10
123.3365
 20
165.9792
  0
VERTEX
  8
LAYER_5
 10
123.3351
 20
165.9082
  0
VERTEX
  8
LAYER_5
 10
123.3317
 20
165.8414
  0
VERTEX
  8
LAYER_5
 10
123.3234
 20
165.7739
  0
VERTEX
  8
LAYER_5
 10
123.3138
 20
165.7064
  0
VERTEX
  8
LAYER_5
 10
123.2993
 20
165.6395
  0
VERTEX
  8
LAYER_5
 10
123.2834
 20
165.572
  0
VERTEX
  8
LAYER_5
 10
123.2662
 20
165.5065
  0
VERTEX
  8
LAYER_5
 10
123.2366
 20
165.4197
  0
VERTEX
  8
LAYER_5
 10
123.2042
 20
165.3363
  0
VERTEX
  8
LAYER_5
 10
123.1684
 20
165.2536
  0
VERTEX
  8
LAYER_5
 10
123.1305
 20
165.1751
  0
VERTEX
  8
LAYER_5
 10
123.0836
 20
165.0883
  0
VERTEX
  8
LAYER_5
 10
123.0354
 20
165.0049
  0
VERTEX
  8
LAYER_5
 10
123.0037
 20
164.9519
  0
VERTEX
  8
LAYER_5
 10
122.9706
 20
164.9023
  0
VERTEX
  8
LAYER_5
 10
122.9389
 20
164.854
  0
VERTEX
  8
LAYER_5
 10
122.9024
 20
164.8009
  0
VERTEX
  8
LAYER_5
 10
122.8673
 20
164.7513
  0
VERTEX
  8
LAYER_5
 10
122.8335
 20
164.7066
  0
VERTEX
  8
LAYER_5
 10
122.8018
 20
164.6639
  0
VERTEX
  8
LAYER_5
 10
122.7715
 20
164.6246
  0
VERTEX
  8
LAYER_5
 10
122.7453
 20
164.5901
  0
VERTEX
  8
LAYER_5
 10
122.7226
 20
164.5626
  0
VERTEX
  8
LAYER_5
 10
122.7026
 20
164.5391
  0
VERTEX
  8
LAYER_5
 10
122.6867
 20
164.5178
  0
VERTEX
  8
LAYER_5
 10
122.675
 20
164.5047
  0
VERTEX
  8
LAYER_5
 10
122.6661
 20
164.4937
  0
VERTEX
  8
LAYER_5
 10
122.6599
 20
164.4861
  0
VERTEX
  8
LAYER_5
 10
122.6571
 20
164.484
  0
VERTEX
  8
LAYER_5
 10
122.6585
 20
164.4861
  0
SEQEND
  0
ENDBLK
  0
BLOCK
  8
LAYER_5
  2
AIGNBL050301B9
 70
64
 10
0
 20
0
 30
0
  3
AIGNBL050301B9
  0
POLYLINE
  8
LAYER_5
 40
0.1058
 41
0.1058
 66
1
 10
0
 20
0
 30
0
  0
VERTEX
  8
LAYER_5
 10
110.9892
 20
166.9624
  0
VERTEX
  8
LAYER_5
 10
110.9892
 20
166.9638
  0
VERTEX
  8
LAYER_5
 10
110.9886
 20
166.9645
  0
VERTEX
  8
LAYER_5
 10
110.9879
 20
166.9665
  0
VERTEX
  8
LAYER_5
 10
110.9858
 20
166.9679
  0
VERTEX
  8
LAYER_5
 10
110.9831
 20
166.9714
  0
VERTEX
  8
LAYER_5
 10
110.9803
 20
166.9748
  0
VERTEX
  8
LAYER_5
 10
110.9755
 20
166.9803
  0
VERTEX
  8
LAYER_5
 10
110.9707
 20
166.9872
  0
VERTEX
  8
LAYER_5
 10
110.9644
 20
166.9948
  0
VERTEX
  8
LAYER_5
 10
110.9582
 20
167.0038
  0
VERTEX
  8
LAYER_5
 10
110.9493
 20
167.0141
  0
VERTEX
  8
LAYER_5
 10
110.9396
 20
167.0272
  0
VERTEX
  8
LAYER_5
 10
110.9279
 20
167.041
  0
VERTEX
  8
LAYER_5
 10
110.9169
 20
167.0554
  0
VERTEX
  8
LAYER_5
 10
110.9024
 20
167.0727
  0
VERTEX
  8
LAYER_5
 10
110.8887
 20
167.0906
  0
VERTEX
  8
LAYER_5
 10
110.8721
 20
167.1099
  0
VERTEX
  8
LAYER_5
 10
110.8563
 20
167.1292
  0
VERTEX
  8
LAYER_5
 10
110.8391
 20
167.1505
  0
VERTEX
  8
LAYER_5
 10
110.8191
 20
167.1719
  0
VERTEX
  8
LAYER_5
 10
110.7998
 20
167.1946
  0
VERTEX
  8
LAYER_5
 10
110.7791
 20
167.2194
  0
VERTEX
  8
LAYER_5
 10
110.7557
 20
167.247
  0
VERTEX
  8
LAYER_5
 10
110.7295
 20
167.2766
  0
VERTEX
  8
LAYER_5
 10
110.704
 20
167.3056
  0
VERTEX
  8
LAYER_5
 10
110.6758
 20
167.3359
  0
VERTEX
  8
LAYER_5
 10
110.6475
 20
167.3669
  0
VERTEX
  8
LAYER_5
 10
110.6172
 20
167.3986
  0
VERTEX
  8
LAYER_5
 10
110.5862
 20
167.4316
  0
VERTEX
  8
LAYER_5
 10
110.5538
 20
167.464
  0
VERTEX
  8
LAYER_5
 10
110.5201
 20
167.4971
  0
VERTEX
  8
LAYER_5
 10
110.4863
 20
167.5295
  0
VERTEX
  8
LAYER_5
 10
110.4505
 20
167.5619
  0
VERTEX
  8
LAYER_5
 10
110.4153
 20
167.5936
  0
VERTEX
  8
LAYER_5
 10
110.3802
 20
167.6252
  0
VERTEX
  8
LAYER_5
 10
110.3416
 20
167.6556
  0
VERTEX
  8
LAYER_5
 10
110.3099
 20
167.6804
  0
VERTEX
  8
LAYER_5
 10
110.2768
 20
167.7052
  0
VERTEX
  8
LAYER_5
 10
110.2438
 20
167.7293
  0
VERTEX
  8
LAYER_5
 10
110.21
 20
167.752
  0
VERTEX
  8
LAYER_5
 10
110.1742
 20
167.7741
  0
VERTEX
  8
LAYER_5
 10
110.1452
 20
167.792
  0
VERTEX
  8
LAYER_5
 10
110.1156
 20
167.8078
  0
VERTEX
  8
LAYER_5
 10
110.086
 20
167.8237
  0
VERTEX
  8
LAYER_5
 10
110.055
 20
167.8382
  0
VERTEX
  8
LAYER_5
 10
110.0219
 20
167.8533
  0
VERTEX
  8
LAYER_5
 10
109.9902
 20
167.8664
  0
VERTEX
  8
LAYER_5
 10
109.9564
 20
167.8781
  0
VERTEX
  8
LAYER_5
 10
109.9227
 20
167.8892
  0
VERTEX
  8
LAYER_5
 10
109.8889
 20
167.8981
  0
VERTEX
  8
LAYER_5
 10
109.8551
 20
167.9064
  0
VERTEX
  8
LAYER_5
 10
109.8207
 20
167.9126
  0
VERTEX
  8
LAYER_5
 10
109.7862
 20
167.9188
  0
VERTEX
  8
LAYER_5
 10
109.758
 20
167.9222
  0
VERTEX
  8
LAYER_5
 10
109.7297
 20
167.925
  0
VERTEX
  8
LAYER_5
 10
109.7015
 20
167.9263
  0
VERTEX
  8
LAYER_5
 10
109.6732
 20
167.9277
  0
VERTEX
  8
LAYER_5
 10
109.6436
 20
167.9284
  0
VERTEX
  8
LAYER_5
 10
109.6099
 20
167.9263
  0
VERTEX
  8
LAYER_5
 10
109.5754
 20
167.925
  0
VERTEX
  8
LAYER_5
 10
109.543
 20
167.9229
  0
VERTEX
  8
LAYER_5
 10
109.5092
 20
167.9195
  0
VERTEX
  8
LAYER_5
 10
109.4762
 20
167.914
  0
VERTEX
  8
LAYER_5
 10
109.4335
 20
167.9078
  0
VERTEX
  8
LAYER_5
 10
109.3928
 20
167.9002
  0
VERTEX
  8
LAYER_5
 10
109.3521
 20
167.8912
  0
VERTEX
  8
LAYER_5
 10
109.3115
 20
167.8816
  0
VERTEX
  8
LAYER_5
 10
109.264
 20
167.8678
  0
VERTEX
  8
LAYER_5
 10
109.2178
 20
167.8554
  0
VERTEX
  8
LAYER_5
 10
109.1716
 20
167.8416
  0
VERTEX
  8
LAYER_5
 10
109.1275
 20
167.8258
  0
VERTEX
  8
LAYER_5
 10
109.0827
 20
167.8106
  0
VERTEX
  8
LAYER_5
 10
109.0393
 20
167.7948
  0
VERTEX
  8
LAYER_5
 10
108.9959
 20
167.7775
  0
VERTEX
  8
LAYER_5
 10
108.9546
 20
167.7617
  0
VERTEX
  8
LAYER_5
 10
108.9126
 20
167.7437
  0
VERTEX
  8
LAYER_5
 10
108.874
 20
167.7279
  0
VERTEX
  8
LAYER_5
 10
108.8423
 20
167.7141
  0
VERTEX
  8
LAYER_5
 10
108.8099
 20
167.6997
  0
VERTEX
  8
LAYER_5
 10
108.7803
 20
167.6866
  0
VERTEX
  8
LAYER_5
 10
108.7506
 20
167.6735
  0
VERTEX
  8
LAYER_5
 10
108.7217
 20
167.6597
  0
VERTEX
  8
LAYER_5
 10
108.6948
 20
167.6466
  0
VERTEX
  8
LAYER_5
 10
108.67
 20
167.6363
  0
VERTEX
  8
LAYER_5
 10
108.648
 20
167.6252
  0
VERTEX
  8
LAYER_5
 10
108.6259
 20
167.6149
  0
VERTEX
  8
LAYER_5
 10
108.6046
 20
167.6039
  0
VERTEX
  8
LAYER_5
 10
108.5839
 20
167.5942
  0
VERTEX
  8
LAYER_5
 10
108.5653
 20
167.5846
  0
VERTEX
  8
LAYER_5
 10
108.546
 20
167.5756
  0
VERTEX
  8
LAYER_5
 10
108.5301
 20
167.5681
  0
VERTEX
  8
LAYER_5
 10
108.5157
 20
167.5598
  0
VERTEX
  8
LAYER_5
 10
108.5019
 20
167.5536
  0
VERTEX
  8
LAYER_5
 10
108.4874
 20
167.5474
  0
VERTEX
  8
LAYER_5
 10
108.4764
 20
167.5405
  0
VERTEX
  8
LAYER_5
 10
108.4647
 20
167.535
  0
VERTEX
  8
LAYER_5
 10
108.455
 20
167.5295
  0
VERTEX
  8
LAYER_5
 10
108.4454
 20
167.5253
  0
VERTEX
  8
LAYER_5
 10
108.4371
 20
167.5205
  0
VERTEX
  8
LAYER_5
 10
108.4302
 20
167.5171
  0
VERTEX
  8
LAYER_5
 10
108.4254
 20
167.5157
  0
VERTEX
  8
LAYER_5
 10
108.422
 20
167.5136
  0
VERTEX
  8
LAYER_5
 10
108.4185
 20
167.5123
  0
VERTEX
  8
LAYER_5
 10
108.4158
 20
167.5102
  0
VERTEX
  8
LAYER_5
 10
108.413
 20
167.5095
  0
VERTEX
  8
LAYER_5
 10
108.4123
 20
167.5081
  0
VERTEX
  8
LAYER_5
 10
108.413
 20
167.5081
  0
VERTEX
  8
LAYER_5
 10
108.413
 20
167.5095
  0
SEQEND
  0
ENDBLK
  0
BLOCK
  8
LAYER_5
  2
AIGNBL050301BA
 70
64
 10
0
 20
0
 30
0
  3
AIGNBL050301BA
  0
POLYLINE
  8
LAYER_5
 40
0.1058
 41
0.1058
 66
1
 10
0
 20
0
 30
0
  0
VERTEX
  8
LAYER_5
 10
108.3152
 20
170.8127
  0
VERTEX
  8
LAYER_5
 10
108.2904
 20
170.8092
  0
VERTEX
  8
LAYER_5
 10
108.2663
 20
170.8037
  0
VERTEX
  8
LAYER_5
 10
108.2518
 20
170.7968
  0
VERTEX
  8
LAYER_5
 10
108.238
 20
170.7878
  0
VERTEX
  8
LAYER_5
 10
108.227
 20
170.7789
  0
VERTEX
  8
LAYER_5
 10
108.218
 20
170.7686
  0
VERTEX
  8
LAYER_5
 10
108.2111
 20
170.7596
  0
VERTEX
  8
LAYER_5
 10
108.2042
 20
170.7506
  0
VERTEX
  8
LAYER_5
 10
108.2036
 20
170.7472
  0
VERTEX
  8
LAYER_5
 10
108.2015
 20
170.7444
  0
SEQEND
  0
ENDBLK
  0
BLOCK
  8
LAYER_5
  2
AIGNBL050301BB
 70
64
 10
0
 20
0
 30
0
  3
AIGNBL050301BB
  0
POLYLINE
  8
LAYER_5
 40
0.1058
 41
0.1058
 66
1
 10
0
 20
0
 30
0
  0
VERTEX
  8
LAYER_5
 10
107.5717
 20
167.7851
  0
VERTEX
  8
LAYER_5
 10
107.5717
 20
167.7837
  0
VERTEX
  8
LAYER_5
 10
107.5724
 20
167.7761
  0
VERTEX
  8
LAYER_5
 10
107.5731
 20
167.7686
  0
VERTEX
  8
LAYER_5
 10
107.5752
 20
167.7603
  0
VERTEX
  8
LAYER_5
 10
107.5807
 20
167.7458
  0
VERTEX
  8
LAYER_5
 10
107.5869
 20
167.7314
  0
VERTEX
  8
LAYER_5
 10
107.5945
 20
167.7189
  0
VERTEX
  8
LAYER_5
 10
107.6034
 20
167.7079
  0
VERTEX
  8
LAYER_5
 10
107.6131
 20
167.6969
  0
VERTEX
  8
LAYER_5
 10
107.6213
 20
167.6893
  0
VERTEX
  8
LAYER_5
 10
107.631
 20
167.6831
  0
VERTEX
  8
LAYER_5
 10
107.6406
 20
167.6769
  0
VERTEX
  8
LAYER_5
 10
107.6517
 20
167.6735
  0
VERTEX
  8
LAYER_5
 10
107.662
 20
167.6693
  0
VERTEX
  8
LAYER_5
 10
107.6702
 20
167.6687
  0
SEQEND
  0
ENDBLK
  0
BLOCK
  8
LAYER_5
  2
AIGNBL050301BC
 70
64
 10
0
 20
0
 30
0
  3
AIGNBL050301BC
  0
POLYLINE
  8
LAYER_5
 40
0.1058
 41
0.1058
 66
1
 10
0
 20
0
 30
0
  0
VERTEX
  8
LAYER_5
 10
108.331
 20
170.812
  0
VERTEX
  8
LAYER_5
 10
108.3297
 20
170.812
  0
VERTEX
  8
LAYER_5
 10
108.3283
 20
170.8127
  0
VERTEX
  8
LAYER_5
 10
108.3248
 20
170.8127
  0
VERTEX
  8
LAYER_5
 10
108.3152
 20
170.8127
  0
SEQEND
  0
ENDBLK
  0
BLOCK
  8
LAYER_5
  2
AIGNBL050301BD
 70
64
 10
0
 20
0
 30
0
  3
AIGNBL050301BD
  0
POLYLINE
  8
LAYER_5
 40
0.1058
 41
0.1058
 66
1
 10
0
 20
0
 30
0
  0
VERTEX
  8
LAYER_5
 10
107.8956
 20
199.5523
  0
VERTEX
  8
LAYER_5
 10
107.9107
 20
199.551
  0
VERTEX
  8
LAYER_5
 10
107.9259
 20
199.5454
  0
VERTEX
  8
LAYER_5
 10
107.9596
 20
199.5241
  0
VERTEX
  8
LAYER_5
 10
107.9865
 20
199.4958
  0
VERTEX
  8
LAYER_5
 10
108.0148
 20
199.4483
  0
VERTEX
  8
LAYER_5
 10
108.0396
 20
199.3987
  0
VERTEX
  8
LAYER_5
 10
108.0657
 20
199.3291
  0
VERTEX
  8
LAYER_5
 10
108.0892
 20
199.2581
  0
VERTEX
  8
LAYER_5
 10
108.1126
 20
199.1679
  0
VERTEX
  8
LAYER_5
 10
108.1333
 20
199.0776
  0
VERTEX
  8
LAYER_5
 10
108.1526
 20
198.9715
  0
VERTEX
  8
LAYER_5
 10
108.1705
 20
198.864
  0
VERTEX
  8
LAYER_5
 10
108.1863
 20
198.7434
  0
VERTEX
  8
LAYER_5
 10
108.1987
 20
198.6221
  0
VERTEX
  8
LAYER_5
 10
108.2105
 20
198.4912
  0
VERTEX
  8
LAYER_5
 10
108.218
 20
198.3603
  0
VERTEX
  8
LAYER_5
 10
108.2256
 20
198.2225
  0
VERTEX
  8
LAYER_5
 10
108.229
 20
198.0854
  0
VERTEX
  8
LAYER_5
 10
108.2304
 20
197.9455
  0
VERTEX
  8
LAYER_5
 10
108.229
 20
197.8063
  0
VERTEX
  8
LAYER_5
 10
108.2256
 20
197.6693
  0
VERTEX
  8
LAYER_5
 10
108.218
 20
197.5308
  0
VERTEX
  8
LAYER_5
 10
108.2105
 20
197.3998
  0
VERTEX
  8
LAYER_5
 10
108.1987
 20
197.2689
  0
VERTEX
  8
LAYER_5
 10
108.1863
 20
197.1483
  0
VERTEX
  8
LAYER_5
 10
108.1705
 20
197.0278
  0
VERTEX
  8
LAYER_5
 10
108.1526
 20
196.9196
  0
VERTEX
  8
LAYER_5
 10
108.1333
 20
196.8135
  0
VERTEX
  8
LAYER_5
 10
108.1126
 20
196.7232
  0
VERTEX
  8
LAYER_5
 10
108.0892
 20
196.6336
  0
VERTEX
  8
LAYER_5
 10
108.0657
 20
196.5634
  0
VERTEX
  8
LAYER_5
 10
108.0396
 20
196.4938
  0
VERTEX
  8
LAYER_5
 10
108.0148
 20
196.4442
  0
VERTEX
  8
LAYER_5
 10
107.9865
 20
196.3973
  0
VERTEX
  8
LAYER_5
 10
107.9596
 20
196.3677
  0
VERTEX
  8
LAYER_5
 10
107.9259
 20
196.3456
  0
VERTEX
  8
LAYER_5
 10
107.9107
 20
196.3401
  0
VERTEX
  8
LAYER_5
 10
107.9011
 20
196.3387
  0
SEQEND
  0
ENDBLK
  0
BLOCK
  8
LAYER_5
  2
AIGNBL050301BE
 70
64
 10
0
 20
0
 30
0
  3
AIGNBL050301BE
  0
POLYLINE
  8
LAYER_5
 40
0.1058
 41
0.1058
 66
1
 10
0
 20
0
 30
0
  0
VERTEX
  8
LAYER_5
 10
107.8956
 20
196.3387
  0
VERTEX
  8
LAYER_5
 10
107.8811
 20
196.3401
  0
VERTEX
  8
LAYER_5
 10
107.8659
 20
196.3456
  0
VERTEX
  8
LAYER_5
 10
107.8322
 20
196.3677
  0
VERTEX
  8
LAYER_5
 10
107.8067
 20
196.3973
  0
VERTEX
  8
LAYER_5
 10
107.7771
 20
196.4442
  0
VERTEX
  8
LAYER_5
 10
107.7523
 20
196.4938
  0
VERTEX
  8
LAYER_5
 10
107.7261
 20
196.5634
  0
VERTEX
  8
LAYER_5
 10
107.7026
 20
196.6336
  0
VERTEX
  8
LAYER_5
 10
107.6799
 20
196.7232
  0
VERTEX
  8
LAYER_5
 10
107.6585
 20
196.8135
  0
VERTEX
  8
LAYER_5
 10
107.6392
 20
196.9196
  0
VERTEX
  8
LAYER_5
 10
107.6213
 20
197.0278
  0
VERTEX
  8
LAYER_5
 10
107.6062
 20
197.1483
  0
VERTEX
  8
LAYER_5
 10
107.5931
 20
197.2689
  0
VERTEX
  8
LAYER_5
 10
107.5821
 20
197.3998
  0
VERTEX
  8
LAYER_5
 10
107.5731
 20
197.5308
  0
VERTEX
  8
LAYER_5
 10
107.5662
 20
197.6693
  0
VERTEX
  8
LAYER_5
 10
107.5628
 20
197.8063
  0
VERTEX
  8
LAYER_5
 10
107.5621
 20
197.9455
  0
VERTEX
  8
LAYER_5
 10
107.5628
 20
198.0854
  0
VERTEX
  8
LAYER_5
 10
107.5662
 20
198.2225
  0
VERTEX
  8
LAYER_5
 10
107.5731
 20
198.3603
  0
VERTEX
  8
LAYER_5
 10
107.5821
 20
198.4912
  0
VERTEX
  8
LAYER_5
 10
107.5931
 20
198.6221
  0
VERTEX
  8
LAYER_5
 10
107.6062
 20
198.7434
  0
VERTEX
  8
LAYER_5
 10
107.6213
 20
198.864
  0
VERTEX
  8
LAYER_5
 10
107.6392
 20
198.9715
  0
VERTEX
  8
LAYER_5
 10
107.6585
 20
199.0776
  0
VERTEX
  8
LAYER_5
 10
107.6799
 20
199.1679
  0
VERTEX
  8
LAYER_5
 10
107.7026
 20
199.2581
  0
VERTEX
  8
LAYER_5
 10
107.7261
 20
199.3291
  0
VERTEX
  8
LAYER_5
 10
107.7523
 20
199.3987
  0
VERTEX
  8
LAYER_5
 10
107.7771
 20
199.4483
  0
VERTEX
  8
LAYER_5
 10
107.8067
 20
199.4958
  0
VERTEX
  8
LAYER_5
 10
107.8322
 20
199.5241
  0
VERTEX
  8
LAYER_5
 10
107.8659
 20
199.5454
  0
VERTEX
  8
LAYER_5
 10
107.8811
 20
199.551
  0
VERTEX
  8
LAYER_5
 10
107.8907
 20
199.5523
  0
SEQEND
  0
ENDBLK
  0
BLOCK
  8
LAYER_5
  2
AIGNBL050301BF
 70
64
 10
0
 20
0
 30
0
  3
AIGNBL050301BF
  0
POLYLINE
  8
LAYER_5
 40
0.1058
 41
0.1058
 66
1
 10
0
 20
0
 30
0
  0
VERTEX
  8
LAYER_5
 10
71.8543
 20
170.5157
  0
VERTEX
  8
LAYER_5
 10
71.9364
 20
170.4537
  0
VERTEX
  8
LAYER_5
 10
72.0762
 20
170.3276
  0
VERTEX
  8
LAYER_5
 10
72.1982
 20
170.185
  0
VERTEX
  8
LAYER_5
 10
72.3029
 20
170.0299
  0
VERTEX
  8
LAYER_5
 10
72.389
 20
169.8632
  0
VERTEX
  8
LAYER_5
 10
72.4538
 20
169.6875
  0
VERTEX
  8
LAYER_5
 10
72.4958
 20
169.5063
  0
VERTEX
  8
LAYER_5
 10
72.5172
 20
169.3209
  0
VERTEX
  8
LAYER_5
 10
72.5158
 20
169.1349
  0
VERTEX
  8
LAYER_5
 10
72.491
 20
168.9495
  0
VERTEX
  8
LAYER_5
 10
72.4449
 20
168.7697
  0
VERTEX
  8
LAYER_5
 10
72.3766
 20
168.5954
  0
VERTEX
  8
LAYER_5
 10
72.2878
 20
168.4307
  0
VERTEX
  8
LAYER_5
 10
72.1796
 20
168.2771
  0
VERTEX
  8
LAYER_5
 10
72.0549
 20
168.1372
  0
VERTEX
  8
LAYER_5
 10
71.9129
 20
168.0125
  0
VERTEX
  8
LAYER_5
 10
71.7572
 20
167.905
  0
VERTEX
  8
LAYER_5
 10
71.5891
 20
167.8168
  0
VERTEX
  8
LAYER_5
 10
71.412
 20
167.7493
  0
VERTEX
  8
LAYER_5
 10
71.2273
 20
167.7017
  0
VERTEX
  8
LAYER_5
 10
71.0399
 20
167.6756
  0
VERTEX
  8
LAYER_5
 10
70.8484
 20
167.6721
  0
VERTEX
  8
LAYER_5
 10
70.6589
 20
167.6907
  0
VERTEX
  8
LAYER_5
 10
70.4729
 20
167.73
  0
VERTEX
  8
LAYER_5
 10
70.2937
 20
167.792
  0
VERTEX
  8
LAYER_5
 10
70.1222
 20
167.8733
  0
VERTEX
  8
LAYER_5
 10
69.9623
 20
167.9746
  0
VERTEX
  8
LAYER_5
 10
69.8155
 20
168.0931
  0
VERTEX
  8
LAYER_5
 10
69.6839
 20
168.2274
  0
VERTEX
  8
LAYER_5
 10
69.571
 20
168.3777
  0
VERTEX
  8
LAYER_5
 10
69.4752
 20
168.5389
  0
VERTEX
  8
LAYER_5
 10
69.4008
 20
168.7098
  0
VERTEX
  8
LAYER_5
 10
69.3456
 20
168.8889
  0
VERTEX
  8
LAYER_5
 10
69.314
 20
169.0722
  0
VERTEX
  8
LAYER_5
 10
69.305
 20
169.2582
  0
VERTEX
  8
LAYER_5
 10
69.3174
 20
169.4429
  0
VERTEX
  8
LAYER_5
 10
69.3532
 20
169.6275
  0
VERTEX
  8
LAYER_5
 10
69.4111
 20
169.8046
  0
VERTEX
  8
LAYER_5
 10
69.4896
 20
169.9748
  0
VERTEX
  8
LAYER_5
 10
69.5875
 20
170.134
  0
VERTEX
  8
LAYER_5
 10
69.7046
 20
170.28
  0
VERTEX
  8
LAYER_5
 10
69.8383
 20
170.4123
  0
VERTEX
  8
LAYER_5
 10
69.9871
 20
170.5295
  0
VERTEX
  8
LAYER_5
 10
70.003
 20
170.5398
  0
SEQEND
  0
ENDBLK
  0
BLOCK
  8
LAYER_5
  2
AIGNBL050301C0
 70
64
 10
0
 20
0
 30
0
  3
AIGNBL050301C0
  0
POLYLINE
  8
LAYER_5
 40
0.1058
 41
0.1058
 66
1
 10
0
 20
0
 30
0
 70
1
  0
VERTEX
  8
LAYER_5
 10
70.8822
 20
170.7293
  0
VERTEX
  8
LAYER_5
 10
71.0661
 20
170.7224
  0
VERTEX
  8
LAYER_5
 10
71.2466
 20
170.6935
  0
VERTEX
  8
LAYER_5
 10
71.4244
 20
170.6418
  0
VERTEX
  8
LAYER_5
 10
71.5925
 20
170.5701
  0
VERTEX
  8
LAYER_5
 10
71.7503
 20
170.4778
  0
VERTEX
  8
LAYER_5
 10
71.8957
 20
170.3682
  0
VERTEX
  8
LAYER_5
 10
72.0266
 20
170.2422
  0
VERTEX
  8
LAYER_5
 10
72.1396
 20
170.1002
  0
VERTEX
  8
LAYER_5
 10
72.2354
 20
169.9466
  0
VERTEX
  8
LAYER_5
 10
72.3098
 20
169.7826
  0
VERTEX
  8
LAYER_5
 10
72.3642
 20
169.6103
  0
VERTEX
  8
LAYER_5
 10
72.3959
 20
169.4332
  0
VERTEX
  8
LAYER_5
 10
72.4056
 20
169.2534
  0
VERTEX
  8
LAYER_5
 10
72.3918
 20
169.075
  0
VERTEX
  8
LAYER_5
 10
72.356
 20
168.8972
  0
VERTEX
  8
LAYER_5
 10
72.2995
 20
168.7277
  0
VERTEX
  8
LAYER_5
 10
72.2195
 20
168.5644
  0
VERTEX
  8
LAYER_5
 10
72.1224
 20
168.4121
  0
VERTEX
  8
LAYER_5
 10
72.0053
 20
168.2736
  0
VERTEX
  8
LAYER_5
 10
71.8709
 20
168.1496
  0
VERTEX
  8
LAYER_5
 10
71.7234
 20
168.0435
  0
VERTEX
  8
LAYER_5
 10
71.5629
 20
167.9546
  0
VERTEX
  8
LAYER_5
 10
71.392
 20
167.8864
  0
VERTEX
  8
LAYER_5
 10
71.2149
 20
167.8395
  0
VERTEX
  8
LAYER_5
 10
71.0344
 20
167.8134
  0
VERTEX
  8
LAYER_5
 10
70.8498
 20
167.8099
  0
VERTEX
  8
LAYER_5
 10
70.6679
 20
167.8285
  0
VERTEX
  8
LAYER_5
 10
70.488
 20
167.8692
  0
VERTEX
  8
LAYER_5
 10
70.3151
 20
167.9298
  0
VERTEX
  8
LAYER_5
 10
70.1511
 20
168.0125
  0
VERTEX
  8
LAYER_5
 10
69.9995
 20
168.1124
  0
VERTEX
  8
LAYER_5
 10
69.8617
 20
168.2316
  0
VERTEX
  8
LAYER_5
 10
69.7384
 20
168.3659
  0
VERTEX
  8
LAYER_5
 10
69.6336
 20
168.5141
  0
VERTEX
  8
LAYER_5
 10
69.5475
 20
168.6732
  0
VERTEX
  8
LAYER_5
 10
69.4841
 20
168.8414
  0
VERTEX
  8
LAYER_5
 10
69.4414
 20
169.0164
  0
VERTEX
  8
LAYER_5
 10
69.4201
 20
169.1948
  0
VERTEX
  8
LAYER_5
 10
69.4221
 20
169.3747
  0
VERTEX
  8
LAYER_5
 10
69.4469
 20
169.5531
  0
VERTEX
  8
LAYER_5
 10
69.4938
 20
169.7267
  0
VERTEX
  8
LAYER_5
 10
69.562
 20
169.8942
  0
VERTEX
  8
LAYER_5
 10
69.6509
 20
170.052
  0
VERTEX
  8
LAYER_5
 10
69.7583
 20
170.1981
  0
VERTEX
  8
LAYER_5
 10
69.8845
 20
170.329
  0
VERTEX
  8
LAYER_5
 10
70.0243
 20
170.444
  0
VERTEX
  8
LAYER_5
 10
70.1786
 20
170.5425
  0
VERTEX
  8
LAYER_5
 10
70.3454
 20
170.6211
  0
VERTEX
  8
LAYER_5
 10
70.519
 20
170.6783
  0
VERTEX
  8
LAYER_5
 10
70.6996
 20
170.7155
  0
SEQEND
  0
ENDBLK
  0
BLOCK
  8
LAYER_5
  2
AIGNBL050301C2
 70
64
 10
0
 20
0
 30
0
  3
AIGNBL050301C2
  0
POLYLINE
  8
LAYER_5
 40
0.1058
 41
0.1058
 66
1
 10
0
 20
0
 30
0
  0
VERTEX
  8
LAYER_5
 10
71.4196
 20
170.9084
  0
VERTEX
  8
LAYER_5
 10
70.3909
 20
170.9084
  0
SEQEND
  0
ENDBLK
  0
BLOCK
  8
LAYER_5
  2
AIGNBL050301C3
 70
64
 10
0
 20
0
 30
0
  3
AIGNBL050301C3
  0
POLYLINE
  8
LAYER_5
 40
0.1058
 41
0.1058
 66
1
 10
0
 20
0
 30
0
  0
VERTEX
  8
LAYER_5
 10
122.591
 20
170.9084
  0
VERTEX
  8
LAYER_5
 10
122.7453
 20
170.9084
  0
SEQEND
  0
ENDBLK
  0
BLOCK
  8
LAYER_5
  2
AIGNBL050301C4
 70
64
 10
0
 20
0
 30
0
  3
AIGNBL050301C4
  0
POLYLINE
  8
LAYER_5
 40
0.1058
 41
0.1058
 66
1
 10
0
 20
0
 30
0
  0
VERTEX
  8
LAYER_5
 10
122.591
 20
173.2738
  0
VERTEX
  8
LAYER_5
 10
122.7453
 20
173.2738
  0
SEQEND
  0
ENDBLK
  0
BLOCK
  8
LAYER_5
  2
AIGNBL050301C5
 70
64
 10
0
 20
0
 30
0
  3
AIGNBL050301C5
  0
POLYLINE
  8
LAYER_5
 40
0.1058
 41
0.1058
 66
1
 10
0
 20
0
 30
0
  0
VERTEX
  8
LAYER_5
 10
122.591
 20
173.2738
  0
VERTEX
  8
LAYER_5
 10
122.591
 20
170.9084
  0
SEQEND
  0
ENDBLK
  0
BLOCK
  8
LAYER_5
  2
AIGNBL050301C6
 70
64
 10
0
 20
0
 30
0
  3
AIGNBL050301C6
  0
POLYLINE
  8
LAYER_5
 40
0.1058
 41
0.1058
 66
1
 10
0
 20
0
 30
0
  0
VERTEX
  8
LAYER_5
 10
70.3909
 20
173.2669
  0
VERTEX
  8
LAYER_5
 10
71.4196
 20
173.2669
  0
SEQEND
  0
ENDBLK
  0
BLOCK
  8
LAYER_5
  2
AIGNBL050301C7
 70
64
 10
0
 20
0
 30
0
  3
AIGNBL050301C7
  0
POLYLINE
  8
LAYER_5
 40
0.1058
 41
0.1058
 66
1
 10
0
 20
0
 30
0
  0
VERTEX
  8
LAYER_5
 10
71.4843
 20
173.2029
  0
VERTEX
  8
LAYER_5
 10
71.4843
 20
170.9725
  0
SEQEND
  0
ENDBLK
  0
BLOCK
  8
LAYER_5
  2
AIGNBL050301C8
 70
64
 10
0
 20
0
 30
0
  3
AIGNBL050301C8
  0
POLYLINE
  8
LAYER_5
 40
0.1058
 41
0.1058
 66
1
 10
0
 20
0
 30
0
  0
VERTEX
  8
LAYER_5
 10
70.3275
 20
173.2029
  0
VERTEX
  8
LAYER_5
 10
70.3275
 20
170.9725
  0
SEQEND
  0
ENDBLK
  0
BLOCK
  8
LAYER_5
  2
AIGNBL050301C9
 70
64
 10
0
 20
0
 30
0
  3
AIGNBL050301C9
  0
POLYLINE
  8
LAYER_5
 40
0.1058
 41
0.1058
 66
1
 10
0
 20
0
 30
0
  0
VERTEX
  8
LAYER_5
 10
122.7453
 20
173.2738
  0
VERTEX
  8
LAYER_5
 10
122.7453
 20
170.9084
  0
SEQEND
  0
ENDBLK
  0
BLOCK
  8
LAYER_5
  2
AIGNBL050301CA
 70
64
 10
0
 20
0
 30
0
  3
AIGNBL050301CA
  0
POLYLINE
  8
LAYER_5
 40
0.1058
 41
0.1058
 66
1
 10
0
 20
0
 30
0
  0
VERTEX
  8
LAYER_5
 10
71.4196
 20
170.9084
 42
0.3950962964
  0
VERTEX
  8
LAYER_5
 10
71.4843
 20
170.9725
  0
SEQEND
  0
ENDBLK
  0
BLOCK
  8
LAYER_5
  2
AIGNBL050301CB
 70
64
 10
0
 20
0
 30
0
  3
AIGNBL050301CB
  0
POLYLINE
  8
LAYER_5
 40
0.1058
 41
0.1058
 66
1
 10
0
 20
0
 30
0
  0
VERTEX
  8
LAYER_5
 10
70.3275
 20
170.9725
 42
0.3956947437
  0
VERTEX
  8
LAYER_5
 10
70.3909
 20
170.9084
  0
SEQEND
  0
ENDBLK
  0
BLOCK
  8
LAYER_5
  2
AIGNBL050301CC
 70
64
 10
0
 20
0
 30
0
  3
AIGNBL050301CC
  0
POLYLINE
  8
LAYER_5
 40
0.1058
 41
0.1058
 66
1
 10
0
 20
0
 30
0
  0
VERTEX
  8
LAYER_5
 10
70.3909
 20
173.2669
 42
0.3923400721
  0
VERTEX
  8
LAYER_5
 10
70.3275
 20
173.2029
  0
SEQEND
  0
ENDBLK
  0
BLOCK
  8
LAYER_5
  2
AIGNBL050301CD
 70
64
 10
0
 20
0
 30
0
  3
AIGNBL050301CD
  0
POLYLINE
  8
LAYER_5
 40
0.1058
 41
0.1058
 66
1
 10
0
 20
0
 30
0
  0
VERTEX
  8
LAYER_5
 10
71.4843
 20
173.2029
 42
0.3917512831
  0
VERTEX
  8
LAYER_5
 10
71.4196
 20
173.2669
  0
SEQEND
  0
ENDBLK
  0
BLOCK
  8
LAYER_5
  2
AIGNBL050301CF
 70
64
 10
0
 20
0
 30
0
  3
AIGNBL050301CF
  0
INSERT
  8
LAYER_5
  2
AIGNBL050401D0
 10
0
 20
0
 30
0
  0
INSERT
  8
LAYER_5
  2
AIGNBL050401D1
 10
0
 20
0
 30
0
  0
INSERT
  8
LAYER_5
  2
AIGNBL050401D2
 10
0
 20
0
 30
0
  0
INSERT
  8
LAYER_5
  2
AIGNBL050401D3
 10
0
 20
0
 30
0
  0
INSERT
  8
LAYER_5
  2
AIGNBL050401D4
 10
0
 20
0
 30
0
  0
INSERT
  8
LAYER_5
  2
AIGNBL050401D5
 10
0
 20
0
 30
0
  0
INSERT
  8
LAYER_5
  2
AIGNBL050401D6
 10
0
 20
0
 30
0
  0
INSERT
  8
LAYER_5
  2
AIGNBL050401D7
 10
0
 20
0
 30
0
  0
INSERT
  8
LAYER_5
  2
AIGNBL050401D8
 10
0
 20
0
 30
0
  0
INSERT
  8
LAYER_5
  2
AIGNBL050401D9
 10
0
 20
0
 30
0
  0
INSERT
  8
LAYER_5
  2
AIGNBL050401DA
 10
0
 20
0
 30
0
  0
INSERT
  8
LAYER_5
  2
AIGNBL050401DB
 10
0
 20
0
 30
0
  0
INSERT
  8
LAYER_5
  2
AIGNBL050401DC
 10
0
 20
0
 30
0
  0
ENDBLK
  0
BLOCK
  8
LAYER_5
  2
AIGNBL050301DD
 70
64
 10
0
 20
0
 30
0
  3
AIGNBL050301DD
  0
POLYLINE
  8
LAYER_5
 40
0.1058
 41
0.1058
 66
1
 10
0
 20
0
 30
0
  0
VERTEX
  8
LAYER_5
 10
120.7272
 20
199.232
  0
VERTEX
  8
LAYER_5
 10
122.7846
 20
199.232
  0
SEQEND
  0
ENDBLK
  0
BLOCK
  8
LAYER_5
  2
AIGNBL050301DE
 70
64
 10
0
 20
0
 30
0
  3
AIGNBL050301DE
  0
POLYLINE
  8
LAYER_5
 40
0.1058
 41
0.1058
 66
1
 10
0
 20
0
 30
0
  0
VERTEX
  8
LAYER_5
 10
122.7846
 20
196.6598
  0
VERTEX
  8
LAYER_5
 10
120.7272
 20
196.6598
  0
SEQEND
  0
ENDBLK
  0
BLOCK
  8
LAYER_5
  2
AIGNBL050301DF
 70
64
 10
0
 20
0
 30
0
  3
AIGNBL050301DF
  0
POLYLINE
  8
LAYER_5
 40
0.1058
 41
0.1058
 66
1
 10
0
 20
0
 30
0
  0
VERTEX
  8
LAYER_5
 10
120.4054
 20
196.9816
  0
VERTEX
  8
LAYER_5
 10
120.4054
 20
198.9101
  0
SEQEND
  0
ENDBLK
  0
BLOCK
  8
LAYER_5
  2
AIGNBL050301E0
 70
64
 10
0
 20
0
 30
0
  3
AIGNBL050301E0
  0
POLYLINE
  8
LAYER_5
 40
0.1058
 41
0.1058
 66
1
 10
0
 20
0
 30
0
  0
VERTEX
  8
LAYER_5
 10
71.536
 20
170.9084
  0
VERTEX
  8
LAYER_5
 10
71.536
 20
173.5233
  0
SEQEND
  0
ENDBLK
  0
BLOCK
  8
LAYER_5
  2
AIGNBL050301E1
 70
64
 10
0
 20
0
 30
0
  3
AIGNBL050301E1
  0
POLYLINE
  8
LAYER_5
 40
0.1058
 41
0.1058
 66
1
 10
0
 20
0
 30
0
  0
VERTEX
  8
LAYER_5
 10
71.536
 20
170.9084
  0
VERTEX
  8
LAYER_5
 10
73.0911
 20
170.9084
  0
SEQEND
  0
ENDBLK
  0
BLOCK
  8
LAYER_5
  2
AIGNBL050301E2
 70
64
 10
0
 20
0
 30
0
  3
AIGNBL050301E2
  0
POLYLINE
  8
LAYER_5
 40
0.1058
 41
0.1058
 66
1
 10
0
 20
0
 30
0
  0
VERTEX
  8
LAYER_5
 10
122.9127
 20
170.9084
  0
VERTEX
  8
LAYER_5
 10
124.9047
 20
170.9084
  0
SEQEND
  0
ENDBLK
  0
BLOCK
  8
LAYER_5
  2
AIGNBL050301E3
 70
64
 10
0
 20
0
 30
0
  3
AIGNBL050301E3
  0
POLYLINE
  8
LAYER_5
 40
0.1058
 41
0.1058
 66
1
 10
0
 20
0
 30
0
  0
VERTEX
  8
LAYER_5
 10
126.7699
 20
171.6615
  0
VERTEX
  8
LAYER_5
 10
124.9047
 20
170.9084
  0
SEQEND
  0
ENDBLK
  0
BLOCK
  8
LAYER_5
  2
AIGNBL050301E4
 70
64
 10
0
 20
0
 30
0
  3
AIGNBL050301E4
  0
POLYLINE
  8
LAYER_5
 40
0.1058
 41
0.1058
 66
1
 10
0
 20
0
 30
0
  0
VERTEX
  8
LAYER_5
 10
72.1913
 20
173.6528
  0
VERTEX
  8
LAYER_5
 10
72.1913
 20
173.9415
  0
SEQEND
  0
ENDBLK
  0
BLOCK
  8
LAYER_5
  2
AIGNBL050301E5
 70
64
 10
0
 20
0
 30
0
  3
AIGNBL050301E5
  0
POLYLINE
  8
LAYER_5
 40
0.1058
 41
0.1058
 66
1
 10
0
 20
0
 30
0
  0
VERTEX
  8
LAYER_5
 10
69.748
 20
174.071
  0
VERTEX
  8
LAYER_5
 10
72.0617
 20
174.071
  0
SEQEND
  0
ENDBLK
  0
BLOCK
  8
LAYER_5
  2
AIGNBL050301E6
 70
64
 10
0
 20
0
 30
0
  3
AIGNBL050301E6
  0
POLYLINE
  8
LAYER_5
 40
0.1058
 41
0.1058
 66
1
 10
0
 20
0
 30
0
  0
VERTEX
  8
LAYER_5
 10
69.6199
 20
173.6528
  0
VERTEX
  8
LAYER_5
 10
69.6199
 20
173.9415
  0
SEQEND
  0
ENDBLK
  0
BLOCK
  8
LAYER_5
  2
AIGNBL050301E7
 70
64
 10
0
 20
0
 30
0
  3
AIGNBL050301E7
  0
POLYLINE
  8
LAYER_5
 40
0.1058
 41
0.1058
 66
1
 10
0
 20
0
 30
0
  0
VERTEX
  8
LAYER_5
 10
68.6545
 20
173.9415
  0
VERTEX
  8
LAYER_5
 10
68.6545
 20
170.9725
  0
SEQEND
  0
ENDBLK
  0
BLOCK
  8
LAYER_5
  2
AIGNBL050301E8
 70
64
 10
0
 20
0
 30
0
  3
AIGNBL050301E8
  0
POLYLINE
  8
LAYER_5
 40
0.1058
 41
0.1058
 66
1
 10
0
 20
0
 30
0
  0
VERTEX
  8
LAYER_5
 10
73.1552
 20
173.9415
  0
VERTEX
  8
LAYER_5
 10
73.1552
 20
170.9725
  0
SEQEND
  0
ENDBLK
  0
BLOCK
  8
LAYER_5
  2
AIGNBL050301E9
 70
64
 10
0
 20
0
 30
0
  3
AIGNBL050301E9
  0
POLYLINE
  8
LAYER_5
 40
0.1058
 41
0.1058
 66
1
 10
0
 20
0
 30
0
  0
VERTEX
  8
LAYER_5
 10
68.7193
 20
170.9084
  0
VERTEX
  8
LAYER_5
 10
70.2758
 20
170.9084
  0
SEQEND
  0
ENDBLK
  0
BLOCK
  8
LAYER_5
  2
AIGNBL050301EA
 70
64
 10
0
 20
0
 30
0
  3
AIGNBL050301EA
  0
POLYLINE
  8
LAYER_5
 40
0.1058
 41
0.1058
 66
1
 10
0
 20
0
 30
0
  0
VERTEX
  8
LAYER_5
 10
122.427
 20
173.6225
  0
VERTEX
  8
LAYER_5
 10
120.4819
 20
173.6838
  0
SEQEND
  0
ENDBLK
  0
BLOCK
  8
LAYER_5
  2
AIGNBL050301EB
 70
64
 10
0
 20
0
 30
0
  3
AIGNBL050301EB
  0
POLYLINE
  8
LAYER_5
 40
0.1058
 41
0.1058
 66
1
 10
0
 20
0
 30
0
  0
VERTEX
  8
LAYER_5
 10
120.4054
 20
173.761
  0
VERTEX
  8
LAYER_5
 10
120.4054
 20
173.9932
  0
SEQEND
  0
ENDBLK
  0
BLOCK
  8
LAYER_5
  2
AIGNBL050301EC
 70
64
 10
0
 20
0
 30
0
  3
AIGNBL050301EC
  0
POLYLINE
  8
LAYER_5
 40
0.1058
 41
0.1058
 66
1
 10
0
 20
0
 30
0
  0
VERTEX
  8
LAYER_5
 10
120.4826
 20
174.071
  0
VERTEX
  8
LAYER_5
 10
122.6543
 20
174.071
  0
SEQEND
  0
ENDBLK
  0
BLOCK
  8
LAYER_5
  2
AIGNBL050301ED
 70
64
 10
0
 20
0
 30
0
  3
AIGNBL050301ED
  0
POLYLINE
  8
LAYER_5
 40
0.1058
 41
0.1058
 66
1
 10
0
 20
0
 30
0
  0
VERTEX
  8
LAYER_5
 10
122.8094
 20
170.9084
  0
VERTEX
  8
LAYER_5
 10
122.9127
 20
170.9084
  0
SEQEND
  0
ENDBLK
  0
BLOCK
  8
LAYER_5
  2
AIGNBL050301EE
 70
64
 10
0
 20
0
 30
0
  3
AIGNBL050301EE
  0
POLYLINE
  8
LAYER_5
 40
0.1058
 41
0.1058
 66
1
 10
0
 20
0
 30
0
  0
VERTEX
  8
LAYER_5
 10
127.155
 20
173.9932
  0
VERTEX
  8
LAYER_5
 10
127.155
 20
171.8172
  0
SEQEND
  0
ENDBLK
  0
BLOCK
  8
LAYER_5
  2
AIGNBL050301EF
 70
64
 10
0
 20
0
 30
0
  3
AIGNBL050301EF
  0
POLYLINE
  8
LAYER_5
 40
0.1058
 41
0.1058
 66
1
 10
0
 20
0
 30
0
  0
VERTEX
  8
LAYER_5
 10
122.6543
 20
174.071
  0
VERTEX
  8
LAYER_5
 10
127.0786
 20
174.071
  0
SEQEND
  0
ENDBLK
  0
BLOCK
  8
LAYER_5
  2
AIGNBL050301F0
 70
64
 10
0
 20
0
 30
0
  3
AIGNBL050301F0
  0
POLYLINE
  8
LAYER_5
 40
0.1058
 41
0.1058
 66
1
 10
0
 20
0
 30
0
  0
VERTEX
  8
LAYER_5
 10
68.7841
 20
174.071
  0
VERTEX
  8
LAYER_5
 10
69.748
 20
174.071
  0
SEQEND
  0
ENDBLK
  0
BLOCK
  8
LAYER_5
  2
AIGNBL050301F1
 70
64
 10
0
 20
0
 30
0
  3
AIGNBL050301F1
  0
POLYLINE
  8
LAYER_5
 40
0.1058
 41
0.1058
 66
1
 10
0
 20
0
 30
0
  0
VERTEX
  8
LAYER_5
 10
72.0617
 20
174.071
  0
VERTEX
  8
LAYER_5
 10
73.0264
 20
174.071
  0
SEQEND
  0
ENDBLK
  0
BLOCK
  8
LAYER_5
  2
AIGNBL050301F2
 70
64
 10
0
 20
0
 30
0
  3
AIGNBL050301F2
  0
POLYLINE
  8
LAYER_5
 40
0.1058
 41
0.1058
 66
1
 10
0
 20
0
 30
0
  0
VERTEX
  8
LAYER_5
 10
69.748
 20
173.6845
  0
VERTEX
  8
LAYER_5
 10
72.0617
 20
173.6845
  0
SEQEND
  0
ENDBLK
  0
BLOCK
  8
LAYER_5
  2
AIGNBL050301F3
 70
64
 10
0
 20
0
 30
0
  3
AIGNBL050301F3
  0
POLYLINE
  8
LAYER_5
 40
0.1058
 41
0.1058
 66
1
 10
0
 20
0
 30
0
  0
VERTEX
  8
LAYER_5
 10
122.7453
 20
170.9725
  0
VERTEX
  8
LAYER_5
 10
122.7453
 20
173.3014
  0
SEQEND
  0
ENDBLK
  0
BLOCK
  8
LAYER_5
  2
AIGNBL050301F4
 70
64
 10
0
 20
0
 30
0
  3
AIGNBL050301F4
  0
POLYLINE
  8
LAYER_5
 40
0.1058
 41
0.1058
 66
1
 10
0
 20
0
 30
0
  0
VERTEX
  8
LAYER_5
 10
69.748
 20
173.5233
  0
VERTEX
  8
LAYER_5
 10
72.0617
 20
173.5233
  0
SEQEND
  0
ENDBLK
  0
BLOCK
  8
LAYER_5
  2
AIGNBL050301F5
 70
64
 10
0
 20
0
 30
0
  3
AIGNBL050301F5
  0
POLYLINE
  8
LAYER_5
 40
0.1058
 41
0.1058
 66
1
 10
0
 20
0
 30
0
  0
VERTEX
  8
LAYER_5
 10
70.2758
 20
173.5233
  0
VERTEX
  8
LAYER_5
 10
70.2758
 20
170.9084
  0
SEQEND
  0
ENDBLK
  0
BLOCK
  8
LAYER_5
  2
AIGNBL050301F6
 70
64
 10
0
 20
0
 30
0
  3
AIGNBL050301F6
  0
POLYLINE
  8
LAYER_5
 40
0.1058
 41
0.1058
 66
1
 10
0
 20
0
 30
0
  0
VERTEX
  8
LAYER_5
 10
126.7699
 20
171.6615
  0
VERTEX
  8
LAYER_5
 10
127.155
 20
171.8172
  0
SEQEND
  0
ENDBLK
  0
BLOCK
  8
LAYER_5
  2
AIGNBL050301F7
 70
64
 10
0
 20
0
 30
0
  3
AIGNBL050301F7
  0
POLYLINE
  8
LAYER_5
 40
0.1058
 41
0.1058
 66
1
 10
0
 20
0
 30
0
  0
VERTEX
  8
LAYER_5
 10
70.2758
 20
170.9084
  0
VERTEX
  8
LAYER_5
 10
71.536
 20
170.9084
  0
SEQEND
  0
ENDBLK
  0
BLOCK
  8
LAYER_5
  2
AIGNBL050301F8
 70
64
 10
0
 20
0
 30
0
  3
AIGNBL050301F8
  0
POLYLINE
  8
LAYER_5
 40
0.1058
 41
0.1058
 66
1
 10
0
 20
0
 30
0
  0
VERTEX
  8
LAYER_5
 10
122.7846
 20
199.232
 42
0.2290409697
  0
VERTEX
  8
LAYER_5
 10
123.0878
 20
199.3787
  0
SEQEND
  0
ENDBLK
  0
BLOCK
  8
LAYER_5
  2
AIGNBL050301F9
 70
64
 10
0
 20
0
 30
0
  3
AIGNBL050301F9
  0
POLYLINE
  8
LAYER_5
 40
0.1058
 41
0.1058
 66
1
 10
0
 20
0
 30
0
  0
VERTEX
  8
LAYER_5
 10
123.0878
 20
196.5131
 42
0.2290170307
  0
VERTEX
  8
LAYER_5
 10
122.7846
 20
196.6598
  0
SEQEND
  0
ENDBLK
  0
BLOCK
  8
LAYER_5
  2
AIGNBL050301FA
 70
64
 10
0
 20
0
 30
0
  3
AIGNBL050301FA
  0
POLYLINE
  8
LAYER_5
 40
0.1058
 41
0.1058
 66
1
 10
0
 20
0
 30
0
  0
VERTEX
  8
LAYER_5
 10
123.0878
 20
196.5131
 42
0.4139955758
  0
VERTEX
  8
LAYER_5
 10
126.3378
 20
196.1279
 42
0.4142424666
  0
VERTEX
  8
LAYER_5
 10
126.7223
 20
199.3787
 42
0.4142131988
  0
VERTEX
  8
LAYER_5
 10
123.4729
 20
199.7632
 42
0.05905641471
  0
VERTEX
  8
LAYER_5
 10
123.0878
 20
199.3787
  0
SEQEND
  0
ENDBLK
  0
BLOCK
  8
LAYER_5
  2
AIGNBL050301FB
 70
64
 10
0
 20
0
 30
0
  3
AIGNBL050301FB
  0
POLYLINE
  8
LAYER_5
 40
0.1058
 41
0.1058
 66
1
 10
0
 20
0
 30
0
  0
VERTEX
  8
LAYER_5
 10
127.155
 20
173.9932
 42
0.3933100914
  0
VERTEX
  8
LAYER_5
 10
127.0786
 20
174.071
  0
SEQEND
  0
ENDBLK
  0
BLOCK
  8
LAYER_5
  2
AIGNBL050301FC
 70
64
 10
0
 20
0
 30
0
  3
AIGNBL050301FC
  0
POLYLINE
  8
LAYER_5
 40
0.1058
 41
0.1058
 66
1
 10
0
 20
0
 30
0
  0
VERTEX
  8
LAYER_5
 10
123.0057
 20
196.5902
  0
VERTEX
  8
LAYER_5
 10
123.014
 20
196.5847
  0
VERTEX
  8
LAYER_5
 10
123.0216
 20
196.5785
  0
VERTEX
  8
LAYER_5
 10
123.0326
 20
196.5696
  0
VERTEX
  8
LAYER_5
 10
123.0437
 20
196.5599
  0
VERTEX
  8
LAYER_5
 10
123.0526
 20
196.5524
  0
VERTEX
  8
LAYER_5
 10
123.0602
 20
196.5441
  0
VERTEX
  8
LAYER_5
 10
123.0678
 20
196.5372
  0
VERTEX
  8
LAYER_5
 10
123.0726
 20
196.5296
  0
VERTEX
  8
LAYER_5
 10
123.0774
 20
196.5262
  0
VERTEX
  8
LAYER_5
 10
123.0816
 20
196.5213
  0
VERTEX
  8
LAYER_5
 10
123.0816
 20
196.52
  0
SEQEND
  0
ENDBLK
  0
BLOCK
  8
LAYER_5
  2
AIGNBL050301FD
 70
64
 10
0
 20
0
 30
0
  3
AIGNBL050301FD
  0
POLYLINE
  8
LAYER_5
 40
0.1058
 41
0.1058
 66
1
 10
0
 20
0
 30
0
  0
VERTEX
  8
LAYER_5
 10
120.7272
 20
199.232
 42
0.4142699156
  0
VERTEX
  8
LAYER_5
 10
120.4054
 20
198.9101
  0
SEQEND
  0
ENDBLK
  0
BLOCK
  8
LAYER_5
  2
AIGNBL050301FE
 70
64
 10
0
 20
0
 30
0
  3
AIGNBL050301FE
  0
POLYLINE
  8
LAYER_5
 40
0.1058
 41
0.1058
 66
1
 10
0
 20
0
 30
0
  0
VERTEX
  8
LAYER_5
 10
120.4054
 20
196.9816
 42
0.4142401055
  0
VERTEX
  8
LAYER_5
 10
120.7272
 20
196.6598
  0
SEQEND
  0
ENDBLK
  0
BLOCK
  8
LAYER_5
  2
AIGNBL050301FF
 70
64
 10
0
 20
0
 30
0
  3
AIGNBL050301FF
  0
POLYLINE
  8
LAYER_5
 40
0.1058
 41
0.1058
 66
1
 10
0
 20
0
 30
0
  0
VERTEX
  8
LAYER_5
 10
120.4826
 20
174.071
 42
0.3924779387
  0
VERTEX
  8
LAYER_5
 10
120.4054
 20
173.9932
  0
SEQEND
  0
ENDBLK
  0
BLOCK
  8
LAYER_5
  2
AIGNBL05030200
 70
64
 10
0
 20
0
 30
0
  3
AIGNBL05030200
  0
POLYLINE
  8
LAYER_5
 40
0.1058
 41
0.1058
 66
1
 10
0
 20
0
 30
0
  0
VERTEX
  8
LAYER_5
 10
120.4054
 20
173.761
 42
0.3896012931
  0
VERTEX
  8
LAYER_5
 10
120.4819
 20
173.6838
  0
SEQEND
  0
ENDBLK
  0
BLOCK
  8
LAYER_5
  2
AIGNBL05030201
 70
64
 10
0
 20
0
 30
0
  3
AIGNBL05030201
  0
POLYLINE
  8
LAYER_5
 40
0.1058
 41
0.1058
 66
1
 10
0
 20
0
 30
0
  0
VERTEX
  8
LAYER_5
 10
122.6543
 20
173.5233
 42
0.2033346909
  0
VERTEX
  8
LAYER_5
 10
122.427
 20
173.6225
  0
SEQEND
  0
ENDBLK
  0
BLOCK
  8
LAYER_5
  2
AIGNBL05030202
 70
64
 10
0
 20
0
 30
0
  3
AIGNBL05030202
  0
POLYLINE
  8
LAYER_5
 40
0.1058
 41
0.1058
 66
1
 10
0
 20
0
 30
0
  0
VERTEX
  8
LAYER_5
 10
122.7453
 20
170.9725
 42
0.3971715648
  0
VERTEX
  8
LAYER_5
 10
122.8094
 20
170.9084
  0
SEQEND
  0
ENDBLK
  0
BLOCK
  8
LAYER_5
  2
AIGNBL05030203
 70
64
 10
0
 20
0
 30
0
  3
AIGNBL05030203
  0
POLYLINE
  8
LAYER_5
 40
0.1058
 41
0.1058
 66
1
 10
0
 20
0
 30
0
  0
VERTEX
  8
LAYER_5
 10
122.7453
 20
173.3014
 42
0.1974537837
  0
VERTEX
  8
LAYER_5
 10
122.6543
 20
173.5233
  0
SEQEND
  0
ENDBLK
  0
BLOCK
  8
LAYER_5
  2
AIGNBL05030204
 70
64
 10
0
 20
0
 30
0
  3
AIGNBL05030204
  0
POLYLINE
  8
LAYER_5
 40
0.1058
 41
0.1058
 66
1
 10
0
 20
0
 30
0
  0
VERTEX
  8
LAYER_5
 10
73.1552
 20
173.9415
 42
0.3936695125
  0
VERTEX
  8
LAYER_5
 10
73.0264
 20
174.071
  0
SEQEND
  0
ENDBLK
  0
BLOCK
  8
LAYER_5
  2
AIGNBL05030205
 70
64
 10
0
 20
0
 30
0
  3
AIGNBL05030205
  0
POLYLINE
  8
LAYER_5
 40
0.1058
 41
0.1058
 66
1
 10
0
 20
0
 30
0
  0
VERTEX
  8
LAYER_5
 10
68.7841
 20
174.071
 42
0.4142326965
  0
VERTEX
  8
LAYER_5
 10
68.6545
 20
173.9415
  0
SEQEND
  0
ENDBLK
  0
BLOCK
  8
LAYER_5
  2
AIGNBL05030206
 70
64
 10
0
 20
0
 30
0
  3
AIGNBL05030206
  0
POLYLINE
  8
LAYER_5
 40
0.1058
 41
0.1058
 66
1
 10
0
 20
0
 30
0
  0
VERTEX
  8
LAYER_5
 10
72.1913
 20
173.9415
 42
0.4142749034
  0
VERTEX
  8
LAYER_5
 10
72.0617
 20
174.071
  0
SEQEND
  0
ENDBLK
  0
BLOCK
  8
LAYER_5
  2
AIGNBL05030207
 70
64
 10
0
 20
0
 30
0
  3
AIGNBL05030207
  0
POLYLINE
  8
LAYER_5
 40
0.1058
 41
0.1058
 66
1
 10
0
 20
0
 30
0
  0
VERTEX
  8
LAYER_5
 10
72.0617
 20
173.6845
 42
0.3907147058
  0
VERTEX
  8
LAYER_5
 10
72.1913
 20
173.8133
  0
SEQEND
  0
ENDBLK
  0
BLOCK
  8
LAYER_5
  2
AIGNBL05030208
 70
64
 10
0
 20
0
 30
0
  3
AIGNBL05030208
  0
POLYLINE
  8
LAYER_5
 40
0.1058
 41
0.1058
 66
1
 10
0
 20
0
 30
0
  0
VERTEX
  8
LAYER_5
 10
69.6199
 20
173.8133
 42
0.3924431055
  0
VERTEX
  8
LAYER_5
 10
69.748
 20
173.6845
  0
SEQEND
  0
ENDBLK
  0
BLOCK
  8
LAYER_5
  2
AIGNBL05030209
 70
64
 10
0
 20
0
 30
0
  3
AIGNBL05030209
  0
POLYLINE
  8
LAYER_5
 40
0.1058
 41
0.1058
 66
1
 10
0
 20
0
 30
0
  0
VERTEX
  8
LAYER_5
 10
69.748
 20
174.071
 42
0.3930113167
  0
VERTEX
  8
LAYER_5
 10
69.6199
 20
173.9415
  0
SEQEND
  0
ENDBLK
  0
BLOCK
  8
LAYER_5
  2
AIGNBL0503020A
 70
64
 10
0
 20
0
 30
0
  3
AIGNBL0503020A
  0
POLYLINE
  8
LAYER_5
 40
0.1058
 41
0.1058
 66
1
 10
0
 20
0
 30
0
  0
VERTEX
  8
LAYER_5
 10
68.6545
 20
170.9725
 42
0.3912053446
  0
VERTEX
  8
LAYER_5
 10
68.7193
 20
170.9084
  0
SEQEND
  0
ENDBLK
  0
BLOCK
  8
LAYER_5
  2
AIGNBL0503020B
 70
64
 10
0
 20
0
 30
0
  3
AIGNBL0503020B
  0
POLYLINE
  8
LAYER_5
 40
0.1058
 41
0.1058
 66
1
 10
0
 20
0
 30
0
  0
VERTEX
  8
LAYER_5
 10
72.0617
 20
173.5233
 42
0.4143563241
  0
VERTEX
  8
LAYER_5
 10
72.1913
 20
173.6528
  0
SEQEND
  0
ENDBLK
  0
BLOCK
  8
LAYER_5
  2
AIGNBL0503020C
 70
64
 10
0
 20
0
 30
0
  3
AIGNBL0503020C
  0
POLYLINE
  8
LAYER_5
 40
0.1058
 41
0.1058
 66
1
 10
0
 20
0
 30
0
  0
VERTEX
  8
LAYER_5
 10
69.6199
 20
173.6528
 42
0.3910886632
  0
VERTEX
  8
LAYER_5
 10
69.748
 20
173.5233
  0
SEQEND
  0
ENDBLK
  0
BLOCK
  8
LAYER_5
  2
AIGNBL0503020D
 70
64
 10
0
 20
0
 30
0
  3
AIGNBL0503020D
  0
POLYLINE
  8
LAYER_5
 40
0.1058
 41
0.1058
 66
1
 10
0
 20
0
 30
0
  0
VERTEX
  8
LAYER_5
 10
73.0911
 20
170.9084
 42
0.397164447
  0
VERTEX
  8
LAYER_5
 10
73.1552
 20
170.9725
  0
SEQEND
  0
ENDBLK
  0
BLOCK
  8
LAYER_5
  2
AIGNBL0503020F
 70
64
 10
0
 20
0
 30
0
  3
AIGNBL0503020F
  0
POLYLINE
  8
LAYER_5
 40
0.1058
 41
0.1058
 66
1
 10
0
 20
0
 30
0
  0
VERTEX
  8
LAYER_5
 10
122.848
 20
137.5427
  0
VERTEX
  8
LAYER_5
 10
122.848
 20
135.2924
  0
SEQEND
  0
ENDBLK
  0
BLOCK
  8
LAYER_5
  2
AIGNBL05030210
 70
64
 10
0
 20
0
 30
0
  3
AIGNBL05030210
  0
POLYLINE
  8
LAYER_5
 40
0.1058
 41
0.1058
 66
1
 10
0
 20
0
 30
0
  0
VERTEX
  8
LAYER_5
 10
122.0508
 20
141.2723
  0
VERTEX
  8
LAYER_5
 10
127.7593
 20
141.2723
  0
SEQEND
  0
ENDBLK
  0
BLOCK
  8
LAYER_5
  2
AIGNBL05030211
 70
64
 10
0
 20
0
 30
0
  3
AIGNBL05030211
  0
POLYLINE
  8
LAYER_5
 40
0.1058
 41
0.1058
 66
1
 10
0
 20
0
 30
0
  0
VERTEX
  8
LAYER_5
 10
127.7593
 20
141.0147
  0
VERTEX
  8
LAYER_5
 10
122.0508
 20
141.0147
  0
SEQEND
  0
ENDBLK
  0
BLOCK
  8
LAYER_5
  2
AIGNBL05030212
 70
64
 10
0
 20
0
 30
0
  3
AIGNBL05030212
  0
POLYLINE
  8
LAYER_5
 40
0.1058
 41
0.1058
 66
1
 10
0
 20
0
 30
0
  0
VERTEX
  8
LAYER_5
 10
122.0122
 20
141.0525
  0
VERTEX
  8
LAYER_5
 10
122.0508
 20
141.0147
  0
SEQEND
  0
ENDBLK
  0
BLOCK
  8
LAYER_5
  2
AIGNBL05030213
 70
64
 10
0
 20
0
 30
0
  3
AIGNBL05030213
  0
POLYLINE
  8
LAYER_5
 40
0.1058
 41
0.1058
 66
1
 10
0
 20
0
 30
0
  0
VERTEX
  8
LAYER_5
 10
122.0508
 20
141.2723
  0
VERTEX
  8
LAYER_5
 10
122.0122
 20
141.2331
  0
SEQEND
  0
ENDBLK
  0
BLOCK
  8
LAYER_5
  2
AIGNBL05030214
 70
64
 10
0
 20
0
 30
0
  3
AIGNBL05030214
  0
POLYLINE
  8
LAYER_5
 40
0.1058
 41
0.1058
 66
1
 10
0
 20
0
 30
0
  0
VERTEX
  8
LAYER_5
 10
122.0122
 20
141.0525
  0
VERTEX
  8
LAYER_5
 10
122.0122
 20
141.2331
  0
SEQEND
  0
ENDBLK
  0
BLOCK
  8
LAYER_5
  2
AIGNBL05030215
 70
64
 10
0
 20
0
 30
0
  3
AIGNBL05030215
  0
POLYLINE
  8
LAYER_5
 40
0.1058
 41
0.1058
 66
1
 10
0
 20
0
 30
0
  0
VERTEX
  8
LAYER_5
 10
122.848
 20
140.6929
  0
VERTEX
  8
LAYER_5
 10
122.848
 20
138.6996
  0
SEQEND
  0
ENDBLK
  0
BLOCK
  8
LAYER_5
  2
AIGNBL05030216
 70
64
 10
0
 20
0
 30
0
  3
AIGNBL05030216
  0
POLYLINE
  8
LAYER_5
 40
0.1058
 41
0.1058
 66
1
 10
0
 20
0
 30
0
  0
VERTEX
  8
LAYER_5
 10
126.9621
 20
135.2924
  0
VERTEX
  8
LAYER_5
 10
126.9621
 20
137.5427
  0
SEQEND
  0
ENDBLK
  0
BLOCK
  8
LAYER_5
  2
AIGNBL05030217
 70
64
 10
0
 20
0
 30
0
  3
AIGNBL05030217
  0
POLYLINE
  8
LAYER_5
 40
0.1058
 41
0.1058
 66
1
 10
0
 20
0
 30
0
  0
VERTEX
  8
LAYER_5
 10
127.7979
 20
141.2331
  0
VERTEX
  8
LAYER_5
 10
127.7979
 20
141.0525
  0
SEQEND
  0
ENDBLK
  0
BLOCK
  8
LAYER_5
  2
AIGNBL05030218
 70
64
 10
0
 20
0
 30
0
  3
AIGNBL05030218
  0
POLYLINE
  8
LAYER_5
 40
0.1058
 41
0.1058
 66
1
 10
0
 20
0
 30
0
  0
VERTEX
  8
LAYER_5
 10
127.7979
 20
141.2331
  0
VERTEX
  8
LAYER_5
 10
127.7593
 20
141.2723
  0
SEQEND
  0
ENDBLK
  0
BLOCK
  8
LAYER_5
  2
AIGNBL05030219
 70
64
 10
0
 20
0
 30
0
  3
AIGNBL05030219
  0
POLYLINE
  8
LAYER_5
 40
0.1058
 41
0.1058
 66
1
 10
0
 20
0
 30
0
  0
VERTEX
  8
LAYER_5
 10
127.7593
 20
141.0147
  0
VERTEX
  8
LAYER_5
 10
127.7979
 20
141.0525
  0
SEQEND
  0
ENDBLK
  0
BLOCK
  8
LAYER_5
  2
AIGNBL0503021A
 70
64
 10
0
 20
0
 30
0
  3
AIGNBL0503021A
  0
POLYLINE
  8
LAYER_5
 40
0.1058
 41
0.1058
 66
1
 10
0
 20
0
 30
0
  0
VERTEX
  8
LAYER_5
 10
126.9621
 20
135.2924
  0
VERTEX
  8
LAYER_5
 10
126.8581
 20
135.1876
  0
SEQEND
  0
ENDBLK
  0
BLOCK
  8
LAYER_5
  2
AIGNBL0503021B
 70
64
 10
0
 20
0
 30
0
  3
AIGNBL0503021B
  0
POLYLINE
  8
LAYER_5
 40
0.1058
 41
0.1058
 66
1
 10
0
 20
0
 30
0
  0
VERTEX
  8
LAYER_5
 10
126.8581
 20
140.6929
  0
VERTEX
  8
LAYER_5
 10
126.8581
 20
138.6996
  0
SEQEND
  0
ENDBLK
  0
BLOCK
  8
LAYER_5
  2
AIGNBL0503021C
 70
64
 10
0
 20
0
 30
0
  3
AIGNBL0503021C
  0
POLYLINE
  8
LAYER_5
 40
0.1058
 41
0.1058
 66
1
 10
0
 20
0
 30
0
  0
VERTEX
  8
LAYER_5
 10
122.952
 20
135.1876
  0
VERTEX
  8
LAYER_5
 10
122.848
 20
135.2924
  0
SEQEND
  0
ENDBLK
  0
BLOCK
  8
LAYER_5
  2
AIGNBL0503021D
 70
64
 10
0
 20
0
 30
0
  3
AIGNBL0503021D
  0
POLYLINE
  8
LAYER_5
 40
0.1058
 41
0.1058
 66
1
 10
0
 20
0
 30
0
  0
VERTEX
  8
LAYER_5
 10
123.1567
 20
135.1649
  0
VERTEX
  8
LAYER_5
 10
126.8339
 20
135.1649
  0
SEQEND
  0
ENDBLK
  0
BLOCK
  8
LAYER_5
  2
AIGNBL0503021E
 70
64
 10
0
 20
0
 30
0
  3
AIGNBL0503021E
  0
POLYLINE
  8
LAYER_5
 40
0.1058
 41
0.1058
 66
1
 10
0
 20
0
 30
0
  0
VERTEX
  8
LAYER_5
 10
126.8581
 20
135.1876
  0
VERTEX
  8
LAYER_5
 10
126.8339
 20
135.1649
  0
SEQEND
  0
ENDBLK
  0
BLOCK
  8
LAYER_5
  2
AIGNBL0503021F
 70
64
 10
0
 20
0
 30
0
  3
AIGNBL0503021F
  0
POLYLINE
  8
LAYER_5
 40
0.1058
 41
0.1058
 66
1
 10
0
 20
0
 30
0
  0
VERTEX
  8
LAYER_5
 10
122.9768
 20
135.1649
  0
VERTEX
  8
LAYER_5
 10
123.1567
 20
135.1649
  0
SEQEND
  0
ENDBLK
  0
BLOCK
  8
LAYER_5
  2
AIGNBL05030220
 70
64
 10
0
 20
0
 30
0
  3
AIGNBL05030220
  0
POLYLINE
  8
LAYER_5
 40
0.1058
 41
0.1058
 66
1
 10
0
 20
0
 30
0
  0
VERTEX
  8
LAYER_5
 10
122.9768
 20
135.1649
  0
VERTEX
  8
LAYER_5
 10
122.952
 20
135.1876
  0
SEQEND
  0
ENDBLK
  0
BLOCK
  8
LAYER_5
  2
AIGNBL05030221
 70
64
 10
0
 20
0
 30
0
  3
AIGNBL05030221
  0
POLYLINE
  8
LAYER_5
 40
0.1058
 41
0.1058
 66
1
 10
0
 20
0
 30
0
  0
VERTEX
  8
LAYER_5
 10
122.952
 20
135.1876
  0
VERTEX
  8
LAYER_5
 10
122.952
 20
137.5427
  0
SEQEND
  0
ENDBLK
  0
BLOCK
  8
LAYER_5
  2
AIGNBL05030222
 70
64
 10
0
 20
0
 30
0
  3
AIGNBL05030222
  0
POLYLINE
  8
LAYER_5
 40
0.1058
 41
0.1058
 66
1
 10
0
 20
0
 30
0
  0
VERTEX
  8
LAYER_5
 10
122.848
 20
135.2924
  0
VERTEX
  8
LAYER_5
 10
126.9621
 20
135.2924
  0
SEQEND
  0
ENDBLK
  0
BLOCK
  8
LAYER_5
  2
AIGNBL05030223
 70
64
 10
0
 20
0
 30
0
  3
AIGNBL05030223
  0
POLYLINE
  8
LAYER_5
 40
0.1058
 41
0.1058
 66
1
 10
0
 20
0
 30
0
  0
VERTEX
  8
LAYER_5
 10
126.9621
 20
138.6996
  0
VERTEX
  8
LAYER_5
 10
126.9621
 20
140.6929
  0
SEQEND
  0
ENDBLK
  0
BLOCK
  8
LAYER_5
  2
AIGNBL05030224
 70
64
 10
0
 20
0
 30
0
  3
AIGNBL05030224
  0
POLYLINE
  8
LAYER_5
 40
0.1058
 41
0.1058
 66
1
 10
0
 20
0
 30
0
  0
VERTEX
  8
LAYER_5
 10
126.8581
 20
137.5427
  0
VERTEX
  8
LAYER_5
 10
126.8581
 20
135.1876
  0
SEQEND
  0
ENDBLK
  0
BLOCK
  8
LAYER_5
  2
AIGNBL05030225
 70
64
 10
0
 20
0
 30
0
  3
AIGNBL05030225
  0
POLYLINE
  8
LAYER_5
 40
0.1058
 41
0.1058
 66
1
 10
0
 20
0
 30
0
  0
VERTEX
  8
LAYER_5
 10
122.952
 20
138.6996
  0
VERTEX
  8
LAYER_5
 10
122.952
 20
140.6929
  0
SEQEND
  0
ENDBLK
  0
BLOCK
  8
LAYER_5
  2
AIGNBL05030226
 70
64
 10
0
 20
0
 30
0
  3
AIGNBL05030226
  0
POLYLINE
  8
LAYER_5
 40
0.1058
 41
0.1058
 66
1
 10
0
 20
0
 30
0
  0
VERTEX
  8
LAYER_5
 10
68.9522
 20
138.6996
  0
VERTEX
  8
LAYER_5
 10
68.9522
 20
140.6929
  0
SEQEND
  0
ENDBLK
  0
BLOCK
  8
LAYER_5
  2
AIGNBL05030227
 70
64
 10
0
 20
0
 30
0
  3
AIGNBL05030227
  0
POLYLINE
  8
LAYER_5
 40
0.1058
 41
0.1058
 66
1
 10
0
 20
0
 30
0
  0
VERTEX
  8
LAYER_5
 10
72.8576
 20
137.5427
  0
VERTEX
  8
LAYER_5
 10
72.8576
 20
135.1876
  0
SEQEND
  0
ENDBLK
  0
BLOCK
  8
LAYER_5
  2
AIGNBL05030228
 70
64
 10
0
 20
0
 30
0
  3
AIGNBL05030228
  0
POLYLINE
  8
LAYER_5
 40
0.1058
 41
0.1058
 66
1
 10
0
 20
0
 30
0
  0
VERTEX
  8
LAYER_5
 10
72.9623
 20
138.6996
  0
VERTEX
  8
LAYER_5
 10
72.9623
 20
140.6929
  0
SEQEND
  0
ENDBLK
  0
BLOCK
  8
LAYER_5
  2
AIGNBL05030229
 70
64
 10
0
 20
0
 30
0
  3
AIGNBL05030229
  0
POLYLINE
  8
LAYER_5
 40
0.1058
 41
0.1058
 66
1
 10
0
 20
0
 30
0
  0
VERTEX
  8
LAYER_5
 10
68.8482
 20
135.2924
  0
VERTEX
  8
LAYER_5
 10
72.9623
 20
135.2924
  0
SEQEND
  0
ENDBLK
  0
BLOCK
  8
LAYER_5
  2
AIGNBL0503022A
 70
64
 10
0
 20
0
 30
0
  3
AIGNBL0503022A
  0
POLYLINE
  8
LAYER_5
 40
0.1058
 41
0.1058
 66
1
 10
0
 20
0
 30
0
  0
VERTEX
  8
LAYER_5
 10
68.9522
 20
135.1876
  0
VERTEX
  8
LAYER_5
 10
68.9522
 20
137.5427
  0
SEQEND
  0
ENDBLK
  0
BLOCK
  8
LAYER_5
  2
AIGNBL0503022B
 70
64
 10
0
 20
0
 30
0
  3
AIGNBL0503022B
  0
POLYLINE
  8
LAYER_5
 40
0.1058
 41
0.1058
 66
1
 10
0
 20
0
 30
0
  0
VERTEX
  8
LAYER_5
 10
68.977
 20
135.1649
  0
VERTEX
  8
LAYER_5
 10
68.9522
 20
135.1876
  0
SEQEND
  0
ENDBLK
  0
BLOCK
  8
LAYER_5
  2
AIGNBL0503022C
 70
64
 10
0
 20
0
 30
0
  3
AIGNBL0503022C
  0
POLYLINE
  8
LAYER_5
 40
0.1058
 41
0.1058
 66
1
 10
0
 20
0
 30
0
  0
VERTEX
  8
LAYER_5
 10
68.977
 20
135.1649
  0
VERTEX
  8
LAYER_5
 10
69.1562
 20
135.1649
  0
SEQEND
  0
ENDBLK
  0
BLOCK
  8
LAYER_5
  2
AIGNBL0503022D
 70
64
 10
0
 20
0
 30
0
  3
AIGNBL0503022D
  0
POLYLINE
  8
LAYER_5
 40
0.1058
 41
0.1058
 66
1
 10
0
 20
0
 30
0
  0
VERTEX
  8
LAYER_5
 10
72.8576
 20
135.1876
  0
VERTEX
  8
LAYER_5
 10
72.8341
 20
135.1649
  0
SEQEND
  0
ENDBLK
  0
BLOCK
  8
LAYER_5
  2
AIGNBL0503022E
 70
64
 10
0
 20
0
 30
0
  3
AIGNBL0503022E
  0
POLYLINE
  8
LAYER_5
 40
0.1058
 41
0.1058
 66
1
 10
0
 20
0
 30
0
  0
VERTEX
  8
LAYER_5
 10
69.1562
 20
135.1649
  0
VERTEX
  8
LAYER_5
 10
72.8341
 20
135.1649
  0
SEQEND
  0
ENDBLK
  0
BLOCK
  8
LAYER_5
  2
AIGNBL0503022F
 70
64
 10
0
 20
0
 30
0
  3
AIGNBL0503022F
  0
POLYLINE
  8
LAYER_5
 40
0.1058
 41
0.1058
 66
1
 10
0
 20
0
 30
0
  0
VERTEX
  8
LAYER_5
 10
68.9522
 20
135.1876
  0
VERTEX
  8
LAYER_5
 10
68.8482
 20
135.2924
  0
SEQEND
  0
ENDBLK
  0
BLOCK
  8
LAYER_5
  2
AIGNBL05030230
 70
64
 10
0
 20
0
 30
0
  3
AIGNBL05030230
  0
POLYLINE
  8
LAYER_5
 40
0.1058
 41
0.1058
 66
1
 10
0
 20
0
 30
0
  0
VERTEX
  8
LAYER_5
 10
72.8576
 20
140.6929
  0
VERTEX
  8
LAYER_5
 10
72.8576
 20
138.6996
  0
SEQEND
  0
ENDBLK
  0
BLOCK
  8
LAYER_5
  2
AIGNBL05030231
 70
64
 10
0
 20
0
 30
0
  3
AIGNBL05030231
  0
POLYLINE
  8
LAYER_5
 40
0.1058
 41
0.1058
 66
1
 10
0
 20
0
 30
0
  0
VERTEX
  8
LAYER_5
 10
72.9623
 20
135.2924
  0
VERTEX
  8
LAYER_5
 10
72.8576
 20
135.1876
  0
SEQEND
  0
ENDBLK
  0
BLOCK
  8
LAYER_5
  2
AIGNBL05030232
 70
64
 10
0
 20
0
 30
0
  3
AIGNBL05030232
  0
POLYLINE
  8
LAYER_5
 40
0.1058
 41
0.1058
 66
1
 10
0
 20
0
 30
0
  0
VERTEX
  8
LAYER_5
 10
73.7595
 20
141.0147
  0
VERTEX
  8
LAYER_5
 10
73.7981
 20
141.0525
  0
SEQEND
  0
ENDBLK
  0
BLOCK
  8
LAYER_5
  2
AIGNBL05030233
 70
64
 10
0
 20
0
 30
0
  3
AIGNBL05030233
  0
POLYLINE
  8
LAYER_5
 40
0.1058
 41
0.1058
 66
1
 10
0
 20
0
 30
0
  0
VERTEX
  8
LAYER_5
 10
73.7981
 20
141.2331
  0
VERTEX
  8
LAYER_5
 10
73.7595
 20
141.2723
  0
SEQEND
  0
ENDBLK
  0
BLOCK
  8
LAYER_5
  2
AIGNBL05030234
 70
64
 10
0
 20
0
 30
0
  3
AIGNBL05030234
  0
POLYLINE
  8
LAYER_5
 40
0.1058
 41
0.1058
 66
1
 10
0
 20
0
 30
0
  0
VERTEX
  8
LAYER_5
 10
73.7981
 20
141.2331
  0
VERTEX
  8
LAYER_5
 10
73.7981
 20
141.0525
  0
SEQEND
  0
ENDBLK
  0
BLOCK
  8
LAYER_5
  2
AIGNBL05030235
 70
64
 10
0
 20
0
 30
0
  3
AIGNBL05030235
  0
POLYLINE
  8
LAYER_5
 40
0.1058
 41
0.1058
 66
1
 10
0
 20
0
 30
0
  0
VERTEX
  8
LAYER_5
 10
72.9623
 20
135.2924
  0
VERTEX
  8
LAYER_5
 10
72.9623
 20
137.5427
  0
SEQEND
  0
ENDBLK
  0
BLOCK
  8
LAYER_5
  2
AIGNBL05030236
 70
64
 10
0
 20
0
 30
0
  3
AIGNBL05030236
  0
POLYLINE
  8
LAYER_5
 40
0.1058
 41
0.1058
 66
1
 10
0
 20
0
 30
0
  0
VERTEX
  8
LAYER_5
 10
68.8482
 20
140.6929
  0
VERTEX
  8
LAYER_5
 10
68.8482
 20
138.6996
  0
SEQEND
  0
ENDBLK
  0
BLOCK
  8
LAYER_5
  2
AIGNBL05030237
 70
64
 10
0
 20
0
 30
0
  3
AIGNBL05030237
  0
POLYLINE
  8
LAYER_5
 40
0.1058
 41
0.1058
 66
1
 10
0
 20
0
 30
0
  0
VERTEX
  8
LAYER_5
 10
68.0117
 20
141.0525
  0
VERTEX
  8
LAYER_5
 10
68.0117
 20
141.2331
  0
SEQEND
  0
ENDBLK
  0
BLOCK
  8
LAYER_5
  2
AIGNBL05030238
 70
64
 10
0
 20
0
 30
0
  3
AIGNBL05030238
  0
POLYLINE
  8
LAYER_5
 40
0.1058
 41
0.1058
 66
1
 10
0
 20
0
 30
0
  0
VERTEX
  8
LAYER_5
 10
68.051
 20
141.2723
  0
VERTEX
  8
LAYER_5
 10
68.0117
 20
141.2331
  0
SEQEND
  0
ENDBLK
  0
BLOCK
  8
LAYER_5
  2
AIGNBL05030239
 70
64
 10
0
 20
0
 30
0
  3
AIGNBL05030239
  0
POLYLINE
  8
LAYER_5
 40
0.1058
 41
0.1058
 66
1
 10
0
 20
0
 30
0
  0
VERTEX
  8
LAYER_5
 10
68.0117
 20
141.0525
  0
VERTEX
  8
LAYER_5
 10
68.051
 20
141.0147
  0
SEQEND
  0
ENDBLK
  0
BLOCK
  8
LAYER_5
  2
AIGNBL0503023A
 70
64
 10
0
 20
0
 30
0
  3
AIGNBL0503023A
  0
POLYLINE
  8
LAYER_5
 40
0.1058
 41
0.1058
 66
1
 10
0
 20
0
 30
0
  0
VERTEX
  8
LAYER_5
 10
73.7595
 20
141.0147
  0
VERTEX
  8
LAYER_5
 10
68.051
 20
141.0147
  0
SEQEND
  0
ENDBLK
  0
BLOCK
  8
LAYER_5
  2
AIGNBL0503023B
 70
64
 10
0
 20
0
 30
0
  3
AIGNBL0503023B
  0
POLYLINE
  8
LAYER_5
 40
0.1058
 41
0.1058
 66
1
 10
0
 20
0
 30
0
  0
VERTEX
  8
LAYER_5
 10
68.051
 20
141.2723
  0
VERTEX
  8
LAYER_5
 10
73.7595
 20
141.2723
  0
SEQEND
  0
ENDBLK
  0
BLOCK
  8
LAYER_5
  2
AIGNBL0503023C
 70
64
 10
0
 20
0
 30
0
  3
AIGNBL0503023C
  0
POLYLINE
  8
LAYER_5
 40
0.1058
 41
0.1058
 66
1
 10
0
 20
0
 30
0
  0
VERTEX
  8
LAYER_5
 10
68.8482
 20
137.5427
  0
VERTEX
  8
LAYER_5
 10
68.8482
 20
135.2924
  0
SEQEND
  0
ENDBLK
  0
BLOCK
  8
LAYER_5
  2
AIGNBL0503023D
 70
64
 10
0
 20
0
 30
0
  3
AIGNBL0503023D
  0
POLYLINE
  8
LAYER_5
 40
0.1058
 41
0.1058
 66
1
 10
0
 20
0
 30
0
  0
VERTEX
  8
LAYER_5
 10
122.5469
 20
196.3387
 42
0.4142106828
  0
VERTEX
  8
LAYER_5
 10
126.5115
 20
195.587
 42
0.4143212261
  0
VERTEX
  8
LAYER_5
 10
127.2639
 20
199.5523
 42
0.4143976328
  0
VERTEX
  8
LAYER_5
 10
123.2979
 20
200.3048
 42
0.09458787183
  0
VERTEX
  8
LAYER_5
 10
122.5469
 20
199.5523
  0
SEQEND
  0
ENDBLK
  0
BLOCK
  8
LAYER_5
  2
AIGNBL0503023E
 70
64
 10
0
 20
0
 30
0
  3
AIGNBL0503023E
  0
POLYLINE
  8
LAYER_5
 40
0.1058
 41
0.1058
 66
1
 10
0
 20
0
 30
0
  0
VERTEX
  8
LAYER_5
 10
122.5007
 20
196.3387
 42
0.4143577619
  0
VERTEX
  8
LAYER_5
 10
126.5115
 20
195.5402
 42
0.4142357982
  0
VERTEX
  8
LAYER_5
 10
127.3108
 20
199.5523
 42
0.4142831779
  0
VERTEX
  8
LAYER_5
 10
123.2979
 20
200.3516
 42
0.09837859655
  0
VERTEX
  8
LAYER_5
 10
122.5007
 20
199.5523
  0
SEQEND
  0
ENDBLK
  0
BLOCK
  8
LAYER_5
  2
AIGNBL05030240
 70
64
 10
0
 20
0
 30
0
  3
AIGNBL05030240
  0
INSERT
  8
LAYER_5
  2
AIGNBL05040241
 10
0
 20
0
 30
0
  0
INSERT
  8
LAYER_5
  2
AIGNBL05040242
 10
0
 20
0
 30
0
  0
INSERT
  8
LAYER_5
  2
AIGNBL05040243
 10
0
 20
0
 30
0
  0
INSERT
  8
LAYER_5
  2
AIGNBL05040244
 10
0
 20
0
 30
0
  0
INSERT
  8
LAYER_5
  2
AIGNBL05040245
 10
0
 20
0
 30
0
  0
ENDBLK
  0
BLOCK
  8
LAYER_5
  2
AIGNBL0503026B
 70
64
 10
0
 20
0
 30
0
  3
AIGNBL0503026B
  0
POLYLINE
  8
LAYER_5
 40
0.1058
 41
0.1058
 66
1
 10
0
 20
0
 30
0
  0
VERTEX
  8
LAYER_5
 10
92.8908
 20
138.6996
  0
VERTEX
  8
LAYER_5
 10
92.8908
 20
134.2003
  0
SEQEND
  0
ENDBLK
  0
BLOCK
  8
LAYER_5
  2
AIGNBL0503026C
 70
64
 10
0
 20
0
 30
0
  3
AIGNBL0503026C
  0
POLYLINE
  8
LAYER_5
 40
0.1058
 41
0.1058
 66
1
 10
0
 20
0
 30
0
  0
VERTEX
  8
LAYER_5
 10
92.8908
 20
140.6929
  0
VERTEX
  8
LAYER_5
 10
92.8908
 20
138.6996
  0
SEQEND
  0
ENDBLK
  0
BLOCK
  8
LAYER_5
  2
AIGNBL0503026D
 70
64
 10
0
 20
0
 30
0
  3
AIGNBL0503026D
  0
POLYLINE
  8
LAYER_5
 40
0.1058
 41
0.1058
 66
1
 10
0
 20
0
 30
0
  0
VERTEX
  8
LAYER_5
 10
92.8908
 20
162.6058
  0
VERTEX
  8
LAYER_5
 10
92.8908
 20
140.6929
  0
SEQEND
  0
ENDBLK
  0
BLOCK
  8
LAYER_5
  2
AIGNBL0503026E
 70
64
 10
0
 20
0
 30
0
  3
AIGNBL0503026E
  0
POLYLINE
  8
LAYER_5
 40
0.1058
 41
0.1058
 66
1
 10
0
 20
0
 30
0
  0
VERTEX
  8
LAYER_5
 10
119.8907
 20
138.6996
  0
VERTEX
  8
LAYER_5
 10
92.2479
 20
138.6996
  0
SEQEND
  0
ENDBLK
  0
BLOCK
  8
LAYER_5
  2
AIGNBL0503026F
 70
64
 10
0
 20
0
 30
0
  3
AIGNBL0503026F
  0
POLYLINE
  8
LAYER_5
 40
0.1058
 41
0.1058
 66
1
 10
0
 20
0
 30
0
  0
VERTEX
  8
LAYER_5
 10
119.8907
 20
140.6929
  0
VERTEX
  8
LAYER_5
 10
92.2479
 20
140.6929
  0
SEQEND
  0
ENDBLK
  0
BLOCK
  8
LAYER_5
  2
AIGNBL05030270
 70
64
 10
0
 20
0
 30
0
  3
AIGNBL05030270
  0
POLYLINE
  8
LAYER_5
 40
0.05
 41
0.05
 66
1
 10
0
 20
0
 30
0
 70
1
  0
VERTEX
  8
LAYER_5
 10
92.5952
 20
142.9432
  0
VERTEX
  8
LAYER_5
 10
93.1864
 20
142.9432
  0
VERTEX
  8
LAYER_5
 10
92.8908
 20
140.6929
  0
SEQEND
  0
ENDBLK
  0
BLOCK
  8
LAYER_5
  2
AIGNBL05030271
 70
64
 10
0
 20
0
 30
0
  3
AIGNBL05030271
  0
POLYLINE
  8
LAYER_5
 40
0.05
 41
0.05
 66
1
 10
0
 20
0
 30
0
 70
1
  0
VERTEX
  8
LAYER_5
 10
93.1864
 20
136.4506
  0
VERTEX
  8
LAYER_5
 10
92.5952
 20
136.4506
  0
VERTEX
  8
LAYER_5
 10
92.8908
 20
138.6996
  0
SEQEND
  0
ENDBLK
  0
BLOCK
  8
LAYER_5
  2
AIGNBL05030272
 70
64
 10
0
 20
0
 30
0
  3
AIGNBL05030272
  0
TEXT
  8
LAYER_5
 10
91.9096
 20
123.1026
 11
91.9096
 21
123.1026
 40
4.5696
 41
0.5
 50
89.99999999
  1
MAX30
  0
ENDBLK
  0
BLOCK
  8
LAYER_5
  2
AIGNBL05030274
 70
64
 10
0
 20
0
 30
0
  3
AIGNBL05030274
  0
POLYLINE
  8
LAYER_5
 40
0.1058
 41
0.1058
 66
1
 10
0
 20
0
 30
0
  0
VERTEX
  8
LAYER_5
 10
124.9047
 20
186.4093
  0
VERTEX
  8
LAYER_5
 10
109.6553
 20
186.4093
  0
SEQEND
  0
ENDBLK
  0
BLOCK
  8
LAYER_5
  2
AIGNBL05030275
 70
64
 10
0
 20
0
 30
0
  3
AIGNBL05030275
  0
POLYLINE
  8
LAYER_5
 40
0.1058
 41
0.1058
 66
1
 10
0
 20
0
 30
0
  0
VERTEX
  8
LAYER_5
 10
109.6553
 20
167.0161
  0
VERTEX
  8
LAYER_5
 10
109.6553
 20
187.0528
  0
SEQEND
  0
ENDBLK
  0
BLOCK
  8
LAYER_5
  2
AIGNBL05030276
 70
64
 10
0
 20
0
 30
0
  3
AIGNBL05030276
  0
POLYLINE
  8
LAYER_5
 40
0.1058
 41
0.1058
 66
1
 10
0
 20
0
 30
0
  0
VERTEX
  8
LAYER_5
 10
124.9047
 20
174.4555
  0
VERTEX
  8
LAYER_5
 10
124.9047
 20
187.0528
  0
SEQEND
  0
ENDBLK
  0
BLOCK
  8
LAYER_5
  2
AIGNBL05030277
 70
64
 10
0
 20
0
 30
0
  3
AIGNBL05030277
  0
POLYLINE
  8
LAYER_5
 40
0.05
 41
0.05
 66
1
 10
0
 20
0
 30
0
 70
1
  0
VERTEX
  8
LAYER_5
 10
122.6543
 20
186.1137
  0
VERTEX
  8
LAYER_5
 10
122.6543
 20
186.7056
  0
VERTEX
  8
LAYER_5
 10
124.9047
 20
186.4093
  0
SEQEND
  0
ENDBLK
  0
BLOCK
  8
LAYER_5
  2
AIGNBL05030278
 70
64
 10
0
 20
0
 30
0
  3
AIGNBL05030278
  0
POLYLINE
  8
LAYER_5
 40
0.05
 41
0.05
 66
1
 10
0
 20
0
 30
0
 70
1
  0
VERTEX
  8
LAYER_5
 10
111.9057
 20
186.7056
  0
VERTEX
  8
LAYER_5
 10
111.9057
 20
186.1137
  0
VERTEX
  8
LAYER_5
 10
109.6553
 20
186.4093
  0
SEQEND
  0
ENDBLK
  0
BLOCK
  8
LAYER_5
  2
AIGNBL05030279
 70
64
 10
0
 20
0
 30
0
  3
AIGNBL05030279
  0
TEXT
  8
LAYER_5
 10
114.6755
 20
186.9354
 11
114.6755
 21
186.9354
 40
4.5696
 41
0.5
  1
118
  0
ENDBLK
  0
BLOCK
  8
LAYER_5
  2
AIGNBL0503027B
 70
64
 10
0
 20
0
 30
0
  3
AIGNBL0503027B
  0
POLYLINE
  8
LAYER_5
 40
0.1058
 41
0.1058
 66
1
 10
0
 20
0
 30
0
  0
VERTEX
  8
LAYER_5
 10
118.0903
 20
123.5935
  0
VERTEX
  8
LAYER_5
 10
122.591
 20
123.5935
  0
SEQEND
  0
ENDBLK
  0
BLOCK
  8
LAYER_5
  2
AIGNBL0503027C
 70
64
 10
0
 20
0
 30
0
  3
AIGNBL0503027C
  0
POLYLINE
  8
LAYER_5
 40
0.1058
 41
0.1058
 66
1
 10
0
 20
0
 30
0
  0
VERTEX
  8
LAYER_5
 10
122.591
 20
123.5935
  0
VERTEX
  8
LAYER_5
 10
127.2198
 20
123.5935
  0
SEQEND
  0
ENDBLK
  0
BLOCK
  8
LAYER_5
  2
AIGNBL0503027D
 70
64
 10
0
 20
0
 30
0
  3
AIGNBL0503027D
  0
POLYLINE
  8
LAYER_5
 40
0.1058
 41
0.1058
 66
1
 10
0
 20
0
 30
0
  0
VERTEX
  8
LAYER_5
 10
127.2198
 20
123.5935
  0
VERTEX
  8
LAYER_5
 10
151.29
 20
123.5935
  0
SEQEND
  0
ENDBLK
  0
BLOCK
  8
LAYER_5
  2
AIGNBL0503027E
 70
64
 10
0
 20
0
 30
0
  3
AIGNBL0503027E
  0
POLYLINE
  8
LAYER_5
 40
0.1058
 41
0.1058
 66
1
 10
0
 20
0
 30
0
  0
VERTEX
  8
LAYER_5
 10
122.591
 20
137.5427
  0
VERTEX
  8
LAYER_5
 10
122.591
 20
122.9506
  0
SEQEND
  0
ENDBLK
  0
BLOCK
  8
LAYER_5
  2
AIGNBL0503027F
 70
64
 10
0
 20
0
 30
0
  3
AIGNBL0503027F
  0
POLYLINE
  8
LAYER_5
 40
0.1058
 41
0.1058
 66
1
 10
0
 20
0
 30
0
  0
VERTEX
  8
LAYER_5
 10
127.2198
 20
137.5427
  0
VERTEX
  8
LAYER_5
 10
127.2198
 20
122.9506
  0
SEQEND
  0
ENDBLK
  0
BLOCK
  8
LAYER_5
  2
AIGNBL05030280
 70
64
 10
0
 20
0
 30
0
  3
AIGNBL05030280
  0
POLYLINE
  8
LAYER_5
 40
0.05
 41
0.05
 66
1
 10
0
 20
0
 30
0
 70
1
  0
VERTEX
  8
LAYER_5
 10
120.3406
 20
123.2965
  0
VERTEX
  8
LAYER_5
 10
120.3406
 20
123.8891
  0
VERTEX
  8
LAYER_5
 10
122.591
 20
123.5935
  0
SEQEND
  0
ENDBLK
  0
BLOCK
  8
LAYER_5
  2
AIGNBL05030281
 70
64
 10
0
 20
0
 30
0
  3
AIGNBL05030281
  0
POLYLINE
  8
LAYER_5
 40
0.05
 41
0.05
 66
1
 10
0
 20
0
 30
0
 70
1
  0
VERTEX
  8
LAYER_5
 10
129.4694
 20
123.8891
  0
VERTEX
  8
LAYER_5
 10
129.4694
 20
123.2965
  0
VERTEX
  8
LAYER_5
 10
127.2198
 20
123.5935
  0
SEQEND
  0
ENDBLK
  0
BLOCK
  8
LAYER_5
  2
AIGNBL05030282
 70
64
 10
0
 20
0
 30
0
  3
AIGNBL05030282
  0
TEXT
  8
LAYER_5
 10
132.759
 20
124.2346
 11
132.759
 21
124.2346
 40
4.5696
 41
0.5
  1
ロックナット対辺36
  0
ENDBLK
  0
BLOCK
  8
LAYER_5
  2
AIGNBL05030284
 70
64
 10
0
 20
0
 30
0
  3
AIGNBL05030284
  0
POLYLINE
  8
LAYER_5
 40
0.1058
 41
0.1058
 66
1
 10
0
 20
0
 30
0
  0
VERTEX
  8
LAYER_5
 10
128.2623
 20
186.4093
  0
VERTEX
  8
LAYER_5
 10
132.7623
 20
186.4093
  0
SEQEND
  0
ENDBLK
  0
BLOCK
  8
LAYER_5
  2
AIGNBL05030285
 70
64
 10
0
 20
0
 30
0
  3
AIGNBL05030285
  0
POLYLINE
  8
LAYER_5
 40
0.1058
 41
0.1058
 66
1
 10
0
 20
0
 30
0
  0
VERTEX
  8
LAYER_5
 10
124.9047
 20
186.4093
  0
VERTEX
  8
LAYER_5
 10
128.2623
 20
186.4093
  0
SEQEND
  0
ENDBLK
  0
BLOCK
  8
LAYER_5
  2
AIGNBL05030286
 70
64
 10
0
 20
0
 30
0
  3
AIGNBL05030286
  0
POLYLINE
  8
LAYER_5
 40
0.1058
 41
0.1058
 66
1
 10
0
 20
0
 30
0
  0
VERTEX
  8
LAYER_5
 10
120.4054
 20
186.4093
  0
VERTEX
  8
LAYER_5
 10
124.9047
 20
186.4093
  0
SEQEND
  0
ENDBLK
  0
BLOCK
  8
LAYER_5
  2
AIGNBL05030287
 70
64
 10
0
 20
0
 30
0
  3
AIGNBL05030287
  0
POLYLINE
  8
LAYER_5
 40
0.1058
 41
0.1058
 66
1
 10
0
 20
0
 30
0
  0
VERTEX
  8
LAYER_5
 10
128.2623
 20
172.9031
  0
VERTEX
  8
LAYER_5
 10
128.2623
 20
187.0528
  0
SEQEND
  0
ENDBLK
  0
BLOCK
  8
LAYER_5
  2
AIGNBL05030288
 70
64
 10
0
 20
0
 30
0
  3
AIGNBL05030288
  0
POLYLINE
  8
LAYER_5
 40
0.1058
 41
0.1058
 66
1
 10
0
 20
0
 30
0
  0
VERTEX
  8
LAYER_5
 10
124.9047
 20
174.4555
  0
VERTEX
  8
LAYER_5
 10
124.9047
 20
187.0528
  0
SEQEND
  0
ENDBLK
  0
BLOCK
  8
LAYER_5
  2
AIGNBL05030289
 70
64
 10
0
 20
0
 30
0
  3
AIGNBL05030289
  0
POLYLINE
  8
LAYER_5
 40
0.05
 41
0.05
 66
1
 10
0
 20
0
 30
0
 70
1
  0
VERTEX
  8
LAYER_5
 10
122.6543
 20
186.1137
  0
VERTEX
  8
LAYER_5
 10
122.6543
 20
186.7056
  0
VERTEX
  8
LAYER_5
 10
124.9047
 20
186.4093
  0
SEQEND
  0
ENDBLK
  0
BLOCK
  8
LAYER_5
  2
AIGNBL0503028A
 70
64
 10
0
 20
0
 30
0
  3
AIGNBL0503028A
  0
POLYLINE
  8
LAYER_5
 40
0.05
 41
0.05
 66
1
 10
0
 20
0
 30
0
 70
1
  0
VERTEX
  8
LAYER_5
 10
130.5126
 20
186.7056
  0
VERTEX
  8
LAYER_5
 10
130.5126
 20
186.1137
  0
VERTEX
  8
LAYER_5
 10
128.2623
 20
186.4093
  0
SEQEND
  0
ENDBLK
  0
BLOCK
  8
LAYER_5
  2
AIGNBL0503028B
 70
64
 10
0
 20
0
 30
0
  3
AIGNBL0503028B
  0
TEXT
  8
LAYER_5
 10
125.4931
 20
186.9354
 11
125.4931
 21
186.9354
 40
4.5696
 41
0.5
  1
27
  0
ENDBLK
  0
BLOCK
  8
LAYER_5
  2
AIGNBL0503028D
 70
64
 10
0
 20
0
 30
0
  3
AIGNBL0503028D
  0
POLYLINE
  8
LAYER_5
 40
0.1058
 41
0.1058
 66
1
 10
0
 20
0
 30
0
  0
VERTEX
  8
LAYER_5
 10
127.7979
 20
144.0973
  0
VERTEX
  8
LAYER_5
 10
132.2985
 20
144.0973
  0
SEQEND
  0
ENDBLK
  0
BLOCK
  8
LAYER_5
  2
AIGNBL0503028E
 70
64
 10
0
 20
0
 30
0
  3
AIGNBL0503028E
  0
POLYLINE
  8
LAYER_5
 40
0.1058
 41
0.1058
 66
1
 10
0
 20
0
 30
0
  0
VERTEX
  8
LAYER_5
 10
122.0122
 20
144.0973
  0
VERTEX
  8
LAYER_5
 10
127.7979
 20
144.0973
  0
SEQEND
  0
ENDBLK
  0
BLOCK
  8
LAYER_5
  2
AIGNBL0503028F
 70
64
 10
0
 20
0
 30
0
  3
AIGNBL0503028F
  0
POLYLINE
  8
LAYER_5
 40
0.1058
 41
0.1058
 66
1
 10
0
 20
0
 30
0
  0
VERTEX
  8
LAYER_5
 10
108.5301
 20
144.0973
  0
VERTEX
  8
LAYER_5
 10
122.0122
 20
144.0973
  0
SEQEND
  0
ENDBLK
  0
BLOCK
  8
LAYER_5
  2
AIGNBL05030290
 70
64
 10
0
 20
0
 30
0
  3
AIGNBL05030290
  0
POLYLINE
  8
LAYER_5
 40
0.1058
 41
0.1058
 66
1
 10
0
 20
0
 30
0
  0
VERTEX
  8
LAYER_5
 10
127.7979
 20
141.2331
  0
VERTEX
  8
LAYER_5
 10
127.7979
 20
144.7402
  0
SEQEND
  0
ENDBLK
  0
BLOCK
  8
LAYER_5
  2
AIGNBL05030291
 70
64
 10
0
 20
0
 30
0
  3
AIGNBL05030291
  0
POLYLINE
  8
LAYER_5
 40
0.1058
 41
0.1058
 66
1
 10
0
 20
0
 30
0
  0
VERTEX
  8
LAYER_5
 10
122.0122
 20
141.2331
  0
VERTEX
  8
LAYER_5
 10
122.0122
 20
144.7402
  0
SEQEND
  0
ENDBLK
  0
BLOCK
  8
LAYER_5
  2
AIGNBL05030292
 70
64
 10
0
 20
0
 30
0
  3
AIGNBL05030292
  0
POLYLINE
  8
LAYER_5
 40
0.05
 41
0.05
 66
1
 10
0
 20
0
 30
0
 70
1
  0
VERTEX
  8
LAYER_5
 10
119.7625
 20
143.8003
  0
VERTEX
  8
LAYER_5
 10
119.7625
 20
144.3943
  0
VERTEX
  8
LAYER_5
 10
122.0122
 20
144.0973
  0
SEQEND
  0
ENDBLK
  0
BLOCK
  8
LAYER_5
  2
AIGNBL05030293
 70
64
 10
0
 20
0
 30
0
  3
AIGNBL05030293
  0
POLYLINE
  8
LAYER_5
 40
0.05
 41
0.05
 66
1
 10
0
 20
0
 30
0
 70
1
  0
VERTEX
  8
LAYER_5
 10
130.0482
 20
144.3943
  0
VERTEX
  8
LAYER_5
 10
130.0482
 20
143.8003
  0
VERTEX
  8
LAYER_5
 10
127.7979
 20
144.0973
  0
SEQEND
  0
ENDBLK
  0
BLOCK
  8
LAYER_5
  2
AIGNBL05030294
 70
64
 10
0
 20
0
 30
0
  3
AIGNBL05030294
  0
TEXT
  8
LAYER_5
 10
111.6025
 20
144.9452
 11
111.6025
 21
144.9452
 40
4.5696
 41
0.5
  1
45
  0
ENDBLK
  0
BLOCK
  8
LAYER_5
  2
AIGNBL05030296
 70
64
 10
0
 20
0
 30
0
  3
AIGNBL05030296
  0
POLYLINE
  8
LAYER_5
 40
0.1058
 41
0.1058
 66
1
 10
0
 20
0
 30
0
  0
VERTEX
  8
LAYER_5
 10
126.9621
 20
128.735
  0
VERTEX
  8
LAYER_5
 10
139.3851
 20
128.735
  0
SEQEND
  0
ENDBLK
  0
BLOCK
  8
LAYER_5
  2
AIGNBL05030297
 70
64
 10
0
 20
0
 30
0
  3
AIGNBL05030297
  0
POLYLINE
  8
LAYER_5
 40
0.1058
 41
0.1058
 66
1
 10
0
 20
0
 30
0
  0
VERTEX
  8
LAYER_5
 10
122.848
 20
128.735
  0
VERTEX
  8
LAYER_5
 10
126.9621
 20
128.735
  0
SEQEND
  0
ENDBLK
  0
BLOCK
  8
LAYER_5
  2
AIGNBL05030298
 70
64
 10
0
 20
0
 30
0
  3
AIGNBL05030298
  0
POLYLINE
  8
LAYER_5
 40
0.1058
 41
0.1058
 66
1
 10
0
 20
0
 30
0
  0
VERTEX
  8
LAYER_5
 10
118.3473
 20
128.735
  0
VERTEX
  8
LAYER_5
 10
122.848
 20
128.735
  0
SEQEND
  0
ENDBLK
  0
BLOCK
  8
LAYER_5
  2
AIGNBL05030299
 70
64
 10
0
 20
0
 30
0
  3
AIGNBL05030299
  0
POLYLINE
  8
LAYER_5
 40
0.1058
 41
0.1058
 66
1
 10
0
 20
0
 30
0
  0
VERTEX
  8
LAYER_5
 10
126.9621
 20
135.2924
  0
VERTEX
  8
LAYER_5
 10
126.9621
 20
128.0928
  0
SEQEND
  0
ENDBLK
  0
BLOCK
  8
LAYER_5
  2
AIGNBL0503029A
 70
64
 10
0
 20
0
 30
0
  3
AIGNBL0503029A
  0
POLYLINE
  8
LAYER_5
 40
0.1058
 41
0.1058
 66
1
 10
0
 20
0
 30
0
  0
VERTEX
  8
LAYER_5
 10
122.848
 20
135.2924
  0
VERTEX
  8
LAYER_5
 10
122.848
 20
128.0928
  0
SEQEND
  0
ENDBLK
  0
BLOCK
  8
LAYER_5
  2
AIGNBL0503029B
 70
64
 10
0
 20
0
 30
0
  3
AIGNBL0503029B
  0
POLYLINE
  8
LAYER_5
 40
0.05
 41
0.05
 66
1
 10
0
 20
0
 30
0
 70
1
  0
VERTEX
  8
LAYER_5
 10
120.5976
 20
128.4394
  0
VERTEX
  8
LAYER_5
 10
120.5976
 20
129.0319
  0
VERTEX
  8
LAYER_5
 10
122.848
 20
128.735
  0
SEQEND
  0
ENDBLK
  0
BLOCK
  8
LAYER_5
  2
AIGNBL0503029C
 70
64
 10
0
 20
0
 30
0
  3
AIGNBL0503029C
  0
POLYLINE
  8
LAYER_5
 40
0.05
 41
0.05
 66
1
 10
0
 20
0
 30
0
 70
1
  0
VERTEX
  8
LAYER_5
 10
129.2117
 20
129.0319
  0
VERTEX
  8
LAYER_5
 10
129.2117
 20
128.4394
  0
VERTEX
  8
LAYER_5
 10
126.9621
 20
128.735
  0
SEQEND
  0
ENDBLK
  0
BLOCK
  8
LAYER_5
  2
AIGNBL0503029D
 70
64
 10
0
 20
0
 30
0
  3
AIGNBL0503029D
  0
TEXT
  8
LAYER_5
 10
131.5737
 20
129.5835
 11
131.5737
 21
129.5835
 40
4.5696
 41
0.5
  1
32
  0
ENDBLK
  0
BLOCK
  8
LAYER_5
  2
AIGNBL0503029F
 70
64
 10
0
 20
0
 30
0
  3
AIGNBL0503029F
  0
POLYLINE
  8
LAYER_5
 40
0.1058
 41
0.1058
 66
1
 10
0
 20
0
 30
0
  0
VERTEX
  8
LAYER_5
 10
141.4914
 20
141.0147
  0
VERTEX
  8
LAYER_5
 10
141.4914
 20
175.4794
  0
SEQEND
  0
ENDBLK
  0
BLOCK
  8
LAYER_5
  2
AIGNBL050302A0
 70
64
 10
0
 20
0
 30
0
  3
AIGNBL050302A0
  0
POLYLINE
  8
LAYER_5
 40
0.1058
 41
0.1058
 66
1
 10
0
 20
0
 30
0
  0
VERTEX
  8
LAYER_5
 10
127.7593
 20
141.0147
  0
VERTEX
  8
LAYER_5
 10
142.1336
 20
141.0147
  0
SEQEND
  0
ENDBLK
  0
BLOCK
  8
LAYER_5
  2
AIGNBL050302A1
 70
64
 10
0
 20
0
 30
0
  3
AIGNBL050302A1
  0
POLYLINE
  8
LAYER_5
 40
0.1058
 41
0.1058
 66
1
 10
0
 20
0
 30
0
  0
VERTEX
  8
LAYER_5
 10
122.0756
 20
175.4794
  0
VERTEX
  8
LAYER_5
 10
142.1336
 20
175.4794
  0
SEQEND
  0
ENDBLK
  0
BLOCK
  8
LAYER_5
  2
AIGNBL050302A2
 70
64
 10
0
 20
0
 30
0
  3
AIGNBL050302A2
  0
POLYLINE
  8
LAYER_5
 40
0.05
 41
0.05
 66
1
 10
0
 20
0
 30
0
 70
1
  0
VERTEX
  8
LAYER_5
 10
141.1945
 20
143.2643
  0
VERTEX
  8
LAYER_5
 10
141.787
 20
143.2643
  0
VERTEX
  8
LAYER_5
 10
141.4914
 20
141.0147
  0
SEQEND
  0
ENDBLK
  0
BLOCK
  8
LAYER_5
  2
AIGNBL050302A3
 70
64
 10
0
 20
0
 30
0
  3
AIGNBL050302A3
  0
POLYLINE
  8
LAYER_5
 40
0.05
 41
0.05
 66
1
 10
0
 20
0
 30
0
 70
1
  0
VERTEX
  8
LAYER_5
 10
141.787
 20
173.2304
  0
VERTEX
  8
LAYER_5
 10
141.1945
 20
173.2304
  0
VERTEX
  8
LAYER_5
 10
141.4914
 20
175.4794
  0
SEQEND
  0
ENDBLK
  0
BLOCK
  8
LAYER_5
  2
AIGNBL050302A4
 70
64
 10
0
 20
0
 30
0
  3
AIGNBL050302A4
  0
TEXT
  8
LAYER_5
 10
146.708
 20
154.7802
 11
146.708
 21
154.7802
 40
4.5696
 41
0.5
 50
89.99999999
  1
269
  0
ENDBLK
  0
BLOCK
  8
LAYER_5
  2
AIGNBL050302A6
 70
64
 10
0
 20
0
 30
0
  3
AIGNBL050302A6
  0
POLYLINE
  8
LAYER_5
 40
0.1058
 41
0.1058
 66
1
 10
0
 20
0
 30
0
  0
VERTEX
  8
LAYER_5
 10
141.4914
 20
135.1649
  0
VERTEX
  8
LAYER_5
 10
141.4914
 20
130.6649
  0
SEQEND
  0
ENDBLK
  0
BLOCK
  8
LAYER_5
  2
AIGNBL050302A7
 70
64
 10
0
 20
0
 30
0
  3
AIGNBL050302A7
  0
POLYLINE
  8
LAYER_5
 40
0.1058
 41
0.1058
 66
1
 10
0
 20
0
 30
0
  0
VERTEX
  8
LAYER_5
 10
141.4914
 20
141.0147
  0
VERTEX
  8
LAYER_5
 10
141.4914
 20
135.1649
  0
SEQEND
  0
ENDBLK
  0
BLOCK
  8
LAYER_5
  2
AIGNBL050302A8
 70
64
 10
0
 20
0
 30
0
  3
AIGNBL050302A8
  0
POLYLINE
  8
LAYER_5
 40
0.1058
 41
0.1058
 66
1
 10
0
 20
0
 30
0
  0
VERTEX
  8
LAYER_5
 10
141.4914
 20
145.514
  0
VERTEX
  8
LAYER_5
 10
141.4914
 20
141.0147
  0
SEQEND
  0
ENDBLK
  0
BLOCK
  8
LAYER_5
  2
AIGNBL050302A9
 70
64
 10
0
 20
0
 30
0
  3
AIGNBL050302A9
  0
POLYLINE
  8
LAYER_5
 40
0.1058
 41
0.1058
 66
1
 10
0
 20
0
 30
0
  0
VERTEX
  8
LAYER_5
 10
126.8339
 20
135.1649
  0
VERTEX
  8
LAYER_5
 10
142.1336
 20
135.1649
  0
SEQEND
  0
ENDBLK
  0
BLOCK
  8
LAYER_5
  2
AIGNBL050302AA
 70
64
 10
0
 20
0
 30
0
  3
AIGNBL050302AA
  0
POLYLINE
  8
LAYER_5
 40
0.1058
 41
0.1058
 66
1
 10
0
 20
0
 30
0
  0
VERTEX
  8
LAYER_5
 10
127.7593
 20
141.0147
  0
VERTEX
  8
LAYER_5
 10
142.1336
 20
141.0147
  0
SEQEND
  0
ENDBLK
  0
BLOCK
  8
LAYER_5
  2
AIGNBL050302AB
 70
64
 10
0
 20
0
 30
0
  3
AIGNBL050302AB
  0
POLYLINE
  8
LAYER_5
 40
0.05
 41
0.05
 66
1
 10
0
 20
0
 30
0
 70
1
  0
VERTEX
  8
LAYER_5
 10
141.1945
 20
143.2643
  0
VERTEX
  8
LAYER_5
 10
141.787
 20
143.2643
  0
VERTEX
  8
LAYER_5
 10
141.4914
 20
141.0147
  0
SEQEND
  0
ENDBLK
  0
BLOCK
  8
LAYER_5
  2
AIGNBL050302AC
 70
64
 10
0
 20
0
 30
0
  3
AIGNBL050302AC
  0
POLYLINE
  8
LAYER_5
 40
0.05
 41
0.05
 66
1
 10
0
 20
0
 30
0
 70
1
  0
VERTEX
  8
LAYER_5
 10
141.787
 20
132.9145
  0
VERTEX
  8
LAYER_5
 10
141.1945
 20
132.9145
  0
VERTEX
  8
LAYER_5
 10
141.4914
 20
135.1649
  0
SEQEND
  0
ENDBLK
  0
BLOCK
  8
LAYER_5
  2
AIGNBL050302AD
 70
64
 10
0
 20
0
 30
0
  3
AIGNBL050302AD
  0
TEXT
  8
LAYER_5
 10
140.9637
 20
135.6868
 11
140.9637
 21
135.6868
 40
4.5696
 41
0.5
 50
89.99999999
  1
46
  0
ENDBLK
  0
BLOCK
  8
LAYER_5
  2
AIGNBL050302AF
 70
64
 10
0
 20
0
 30
0
  3
AIGNBL050302AF
  0
POLYLINE
  8
LAYER_5
 40
0.1058
 41
0.1058
 66
1
 10
0
 20
0
 30
0
  0
VERTEX
  8
LAYER_5
 10
136.3486
 20
141.0147
  0
VERTEX
  8
LAYER_5
 10
136.3486
 20
174.071
  0
SEQEND
  0
ENDBLK
  0
BLOCK
  8
LAYER_5
  2
AIGNBL050302B0
 70
64
 10
0
 20
0
 30
0
  3
AIGNBL050302B0
  0
POLYLINE
  8
LAYER_5
 40
0.1058
 41
0.1058
 66
1
 10
0
 20
0
 30
0
  0
VERTEX
  8
LAYER_5
 10
127.7593
 20
141.0147
  0
VERTEX
  8
LAYER_5
 10
136.9908
 20
141.0147
  0
SEQEND
  0
ENDBLK
  0
BLOCK
  8
LAYER_5
  2
AIGNBL050302B1
 70
64
 10
0
 20
0
 30
0
  3
AIGNBL050302B1
  0
POLYLINE
  8
LAYER_5
 40
0.1058
 41
0.1058
 66
1
 10
0
 20
0
 30
0
  0
VERTEX
  8
LAYER_5
 10
127.0786
 20
174.071
  0
VERTEX
  8
LAYER_5
 10
136.9908
 20
174.071
  0
SEQEND
  0
ENDBLK
  0
BLOCK
  8
LAYER_5
  2
AIGNBL050302B2
 70
64
 10
0
 20
0
 30
0
  3
AIGNBL050302B2
  0
POLYLINE
  8
LAYER_5
 40
0.05
 41
0.05
 66
1
 10
0
 20
0
 30
0
 70
1
  0
VERTEX
  8
LAYER_5
 10
136.0516
 20
143.2643
  0
VERTEX
  8
LAYER_5
 10
136.6442
 20
143.2643
  0
VERTEX
  8
LAYER_5
 10
136.3486
 20
141.0147
  0
SEQEND
  0
ENDBLK
  0
BLOCK
  8
LAYER_5
  2
AIGNBL050302B3
 70
64
 10
0
 20
0
 30
0
  3
AIGNBL050302B3
  0
POLYLINE
  8
LAYER_5
 40
0.05
 41
0.05
 66
1
 10
0
 20
0
 30
0
 70
1
  0
VERTEX
  8
LAYER_5
 10
136.6442
 20
171.8207
  0
VERTEX
  8
LAYER_5
 10
136.0516
 20
171.8207
  0
VERTEX
  8
LAYER_5
 10
136.3486
 20
174.071
  0
SEQEND
  0
ENDBLK
  0
BLOCK
  8
LAYER_5
  2
AIGNBL050302B4
 70
64
 10
0
 20
0
 30
0
  3
AIGNBL050302B4
  0
TEXT
  8
LAYER_5
 10
134.7928
 20
155.2632
 11
134.7928
 21
155.2632
 40
4.5696
 41
0.5
 50
89.99999999
  1
258
  0
ENDBLK
  0
BLOCK
  8
LAYER_5
  2
AIGNBL050302B6
 70
64
 10
0
 20
0
 30
0
  3
AIGNBL050302B6
  0
POLYLINE
  8
LAYER_5
 40
0.1058
 41
0.1058
 66
1
 10
0
 20
0
 30
0
  0
VERTEX
  8
LAYER_5
 10
87.748
 20
167.0161
  0
VERTEX
  8
LAYER_5
 10
87.748
 20
141.0147
  0
SEQEND
  0
ENDBLK
  0
BLOCK
  8
LAYER_5
  2
AIGNBL050302B7
 70
64
 10
0
 20
0
 30
0
  3
AIGNBL050302B7
  0
POLYLINE
  8
LAYER_5
 40
0.1058
 41
0.1058
 66
1
 10
0
 20
0
 30
0
  0
VERTEX
  8
LAYER_5
 10
122.0508
 20
141.0147
  0
VERTEX
  8
LAYER_5
 10
87.1051
 20
141.0147
  0
SEQEND
  0
ENDBLK
  0
BLOCK
  8
LAYER_5
  2
AIGNBL050302B8
 70
64
 10
0
 20
0
 30
0
  3
AIGNBL050302B8
  0
POLYLINE
  8
LAYER_5
 40
0.1058
 41
0.1058
 66
1
 10
0
 20
0
 30
0
  0
VERTEX
  8
LAYER_5
 10
109.6553
 20
167.0161
  0
VERTEX
  8
LAYER_5
 10
87.1051
 20
167.0161
  0
SEQEND
  0
ENDBLK
  0
BLOCK
  8
LAYER_5
  2
AIGNBL050302B9
 70
64
 10
0
 20
0
 30
0
  3
AIGNBL050302B9
  0
POLYLINE
  8
LAYER_5
 40
0.05
 41
0.05
 66
1
 10
0
 20
0
 30
0
 70
1
  0
VERTEX
  8
LAYER_5
 10
88.0442
 20
164.7658
  0
VERTEX
  8
LAYER_5
 10
87.4517
 20
164.7658
  0
VERTEX
  8
LAYER_5
 10
87.748
 20
167.0161
  0
SEQEND
  0
ENDBLK
  0
BLOCK
  8
LAYER_5
  2
AIGNBL050302BA
 70
64
 10
0
 20
0
 30
0
  3
AIGNBL050302BA
  0
POLYLINE
  8
LAYER_5
 40
0.05
 41
0.05
 66
1
 10
0
 20
0
 30
0
 70
1
  0
VERTEX
  8
LAYER_5
 10
87.4517
 20
143.2643
  0
VERTEX
  8
LAYER_5
 10
88.0442
 20
143.2643
  0
VERTEX
  8
LAYER_5
 10
87.748
 20
141.0147
  0
SEQEND
  0
ENDBLK
  0
BLOCK
  8
LAYER_5
  2
AIGNBL050302BB
 70
64
 10
0
 20
0
 30
0
  3
AIGNBL050302BB
  0
TEXT
  8
LAYER_5
 10
86.0867
 20
149.9502
 11
86.0867
 21
149.9502
 40
4.5696
 41
0.5
 50
89.99999999
  1
202
  0
ENDBLK
  0
BLOCK
  8
LAYER_5
  2
AIGNBL050302BD
 70
64
 10
0
 20
0
 30
0
  3
AIGNBL050302BD
  0
POLYLINE
  8
LAYER_5
 40
0.1058
 41
0.1058
 66
1
 10
0
 20
0
 30
0
  0
VERTEX
  8
LAYER_5
 10
87.748
 20
141.0147
  0
VERTEX
  8
LAYER_5
 10
87.748
 20
90.1637
  0
SEQEND
  0
ENDBLK
  0
BLOCK
  8
LAYER_5
  2
AIGNBL050302BE
 70
64
 10
0
 20
0
 30
0
  3
AIGNBL050302BE
  0
POLYLINE
  8
LAYER_5
 40
0.1058
 41
0.1058
 66
1
 10
0
 20
0
 30
0
  0
VERTEX
  8
LAYER_5
 10
122.0508
 20
141.0147
  0
VERTEX
  8
LAYER_5
 10
87.1051
 20
141.0147
  0
SEQEND
  0
ENDBLK
  0
BLOCK
  8
LAYER_5
  2
AIGNBL050302BF
 70
64
 10
0
 20
0
 30
0
  3
AIGNBL050302BF
  0
POLYLINE
  8
LAYER_5
 40
0.1058
 41
0.1058
 66
1
 10
0
 20
0
 30
0
  0
VERTEX
  8
LAYER_5
 10
122.5786
 20
90.1637
  0
VERTEX
  8
LAYER_5
 10
87.1051
 20
90.1637
  0
SEQEND
  0
ENDBLK
  0
BLOCK
  8
LAYER_5
  2
AIGNBL050302C0
 70
64
 10
0
 20
0
 30
0
  3
AIGNBL050302C0
  0
POLYLINE
  8
LAYER_5
 40
0.05
 41
0.05
 66
1
 10
0
 20
0
 30
0
 70
1
  0
VERTEX
  8
LAYER_5
 10
88.0442
 20
138.7643
  0
VERTEX
  8
LAYER_5
 10
87.4517
 20
138.7643
  0
VERTEX
  8
LAYER_5
 10
87.748
 20
141.0147
  0
SEQEND
  0
ENDBLK
  0
BLOCK
  8
LAYER_5
  2
AIGNBL050302C1
 70
64
 10
0
 20
0
 30
0
  3
AIGNBL050302C1
  0
POLYLINE
  8
LAYER_5
 40
0.05
 41
0.05
 66
1
 10
0
 20
0
 30
0
 70
1
  0
VERTEX
  8
LAYER_5
 10
87.4517
 20
92.414
  0
VERTEX
  8
LAYER_5
 10
88.0442
 20
92.414
  0
VERTEX
  8
LAYER_5
 10
87.748
 20
90.1637
  0
SEQEND
  0
ENDBLK
  0
BLOCK
  8
LAYER_5
  2
AIGNBL050302C2
 70
64
 10
0
 20
0
 30
0
  3
AIGNBL050302C2
  0
TEXT
  8
LAYER_5
 10
86.4705
 20
112.0717
 11
86.4705
 21
112.0717
 40
4.5696
 41
0.5
 50
89.99999999
  1
393
  0
ENDBLK
  0
BLOCK
  8
LAYER_5
  2
AIGNBL050302C4
 70
64
 10
0
 20
0
 30
0
  3
AIGNBL050302C4
  0
POLYLINE
  8
LAYER_5
 40
0.1058
 41
0.1058
 66
1
 10
0
 20
0
 30
0
  0
VERTEX
  8
LAYER_5
 10
109.6553
 20
166.6206
  0
VERTEX
  8
LAYER_5
 10
109.6553
 20
159.9875
  0
SEQEND
  0
ENDBLK
  0
BLOCK
  8
LAYER_5
  2
AIGNBL050302C5
 70
64
 10
0
 20
0
 30
0
  3
AIGNBL050302C5
  0
POLYLINE
  8
LAYER_5
 40
0.1058
 41
0.1058
 66
1
 10
0
 20
0
 30
0
  0
VERTEX
  8
LAYER_5
 10
109.5747
 20
166.6379
  0
VERTEX
  8
LAYER_5
 10
108.1932
 20
160.1404
  0
SEQEND
  0
ENDBLK
  0
BLOCK
  8
LAYER_5
  2
AIGNBL050302C6
 70
64
 10
0
 20
0
 30
0
  3
AIGNBL050302C6
  0
POLYLINE
  8
LAYER_5
 40
0.1058
 41
0.1058
 66
1
 10
0
 20
0
 30
0
  0
VERTEX
  8
LAYER_5
 10
109.6553
 20
159.9875
  0
VERTEX
  8
LAYER_5
 10
109.6553
 20
159.3439
  0
SEQEND
  0
ENDBLK
  0
BLOCK
  8
LAYER_5
  2
AIGNBL050302C7
 70
64
 10
0
 20
0
 30
0
  3
AIGNBL050302C7
  0
POLYLINE
  8
LAYER_5
 40
0.1058
 41
0.1058
 66
1
 10
0
 20
0
 30
0
  0
VERTEX
  8
LAYER_5
 10
108.1932
 20
160.1404
  0
VERTEX
  8
LAYER_5
 10
108.0609
 20
159.5114
  0
SEQEND
  0
ENDBLK
  0
BLOCK
  8
LAYER_5
  2
AIGNBL050302C8
 70
64
 10
0
 20
0
 30
0
  3
AIGNBL050302C8
  0
POLYLINE
  8
LAYER_5
 40
0.1058
 41
0.1058
 66
1
 10
0
 20
0
 30
0
  0
VERTEX
  8
LAYER_5
 10
102.7713
 20
165.5982
 42
0.4141777817
  0
VERTEX
  8
LAYER_5
 10
111.0706
 20
160.1308
 42
0.0695775519
  0
VERTEX
  8
LAYER_5
 10
112.902
 20
160.7819
  0
SEQEND
  0
ENDBLK
  0
BLOCK
  8
LAYER_5
  2
AIGNBL050302C9
 70
64
 10
0
 20
0
 30
0
  3
AIGNBL050302C9
  0
POLYLINE
  8
LAYER_5
 40
0.05
 41
0.05
 66
1
 10
0
 20
0
 30
0
 70
1
  0
VERTEX
  8
LAYER_5
 10
105.9884
 20
160.6765
  0
VERTEX
  8
LAYER_5
 10
106.2019
 20
161.2291
  0
VERTEX
  8
LAYER_5
 10
108.1932
 20
160.1404
  0
SEQEND
  0
ENDBLK
  0
BLOCK
  8
LAYER_5
  2
AIGNBL050302CA
 70
64
 10
0
 20
0
 30
0
  3
AIGNBL050302CA
  0
POLYLINE
  8
LAYER_5
 40
0.05
 41
0.05
 66
1
 10
0
 20
0
 30
0
 70
1
  0
VERTEX
  8
LAYER_5
 10
111.8292
 20
160.6372
  0
VERTEX
  8
LAYER_5
 10
111.9229
 20
160.0529
  0
VERTEX
  8
LAYER_5
 10
109.6553
 20
159.9875
  0
SEQEND
  0
ENDBLK
  0
BLOCK
  8
LAYER_5
  2
AIGNBL050302CB
 70
64
 10
0
 20
0
 30
0
  3
AIGNBL050302CB
  0
TEXT
  8
LAYER_5
 10
102.9159
 20
165.046
 11
102.9159
 21
165.046
 40
4.5696
 41
0.5
 50
308.9623448
  1
12
  0
TEXT
  8
LAYER_5
 10
105.3413
 20
162.0469
 11
105.3413
 21
162.0469
 40
4.5696
 41
0.5
 50
308.9623448
  1
~
  0
ENDBLK
  0
BLOCK
  8
LAYER_5
  2
AIGNBL050302CD
 70
64
 10
0
 20
0
 30
0
  3
AIGNBL050302CD
  0
POLYLINE
  8
LAYER_5
 40
0.1058
 41
0.1058
 66
1
 10
0
 20
0
 30
0
  0
VERTEX
  8
LAYER_5
 10
65.8909
 20
139.6883
  0
VERTEX
  8
LAYER_5
 10
66.8955
 20
140.6929
  0
SEQEND
  0
POLYLINE
  8
LAYER_5
 40
0.1058
 41
0.1058
 66
1
 10
0
 20
0
 30
0
  0
VERTEX
  8
LAYER_5
 10
65.9936
 20
138.6996
  0
VERTEX
  8
LAYER_5
 10
67.9869
 20
140.6929
  0
SEQEND
  0
POLYLINE
  8
LAYER_5
 40
0.1058
 41
0.1058
 66
1
 10
0
 20
0
 30
0
  0
VERTEX
  8
LAYER_5
 10
67.085
 20
138.6996
  0
VERTEX
  8
LAYER_5
 10
68.4616
 20
140.0783
  0
SEQEND
  0
POLYLINE
  8
LAYER_5
 40
0.1058
 41
0.1058
 66
1
 10
0
 20
0
 30
0
  0
VERTEX
  8
LAYER_5
 10
68.1764
 20
138.6996
  0
VERTEX
  8
LAYER_5
 10
68.4616
 20
138.9869
  0
SEQEND
  0
POLYLINE
  8
LAYER_5
 40
0.1058
 41
0.1058
 66
1
 10
0
 20
0
 30
0
  0
VERTEX
  8
LAYER_5
 10
65.8909
 20
140.4152
  0
VERTEX
  8
LAYER_5
 10
66.1693
 20
140.6929
  0
SEQEND
  0
POLYLINE
  8
LAYER_5
 40
0.1058
 41
0.1058
 66
1
 10
0
 20
0
 30
0
  0
VERTEX
  8
LAYER_5
 10
65.8909
 20
139.3252
  0
VERTEX
  8
LAYER_5
 10
67.2586
 20
140.6929
  0
SEQEND
  0
POLYLINE
  8
LAYER_5
 40
0.1058
 41
0.1058
 66
1
 10
0
 20
0
 30
0
  0
VERTEX
  8
LAYER_5
 10
66.3567
 20
138.6996
  0
VERTEX
  8
LAYER_5
 10
68.35
 20
140.6929
  0
SEQEND
  0
POLYLINE
  8
LAYER_5
 40
0.1058
 41
0.1058
 66
1
 10
0
 20
0
 30
0
  0
VERTEX
  8
LAYER_5
 10
67.4481
 20
138.6996
  0
VERTEX
  8
LAYER_5
 10
68.4616
 20
139.7138
  0
SEQEND
  0
ENDBLK
  0
BLOCK
  8
LAYER_5
  2
AIGNBL050302CF
 70
64
 10
0
 20
0
 30
0
  3
AIGNBL050302CF
  0
POLYLINE
  8
LAYER_5
 40
0.1058
 41
0.1058
 66
1
 10
0
 20
0
 30
0
  0
VERTEX
  8
LAYER_5
 10
73.3481
 20
140.5999
  0
VERTEX
  8
LAYER_5
 10
73.4418
 20
140.6929
  0
SEQEND
  0
POLYLINE
  8
LAYER_5
 40
0.1058
 41
0.1058
 66
1
 10
0
 20
0
 30
0
  0
VERTEX
  8
LAYER_5
 10
73.3481
 20
139.5091
  0
VERTEX
  8
LAYER_5
 10
74.5319
 20
140.6929
  0
SEQEND
  0
POLYLINE
  8
LAYER_5
 40
0.1058
 41
0.1058
 66
1
 10
0
 20
0
 30
0
  0
VERTEX
  8
LAYER_5
 10
73.6299
 20
138.6996
  0
VERTEX
  8
LAYER_5
 10
75.6233
 20
140.6929
  0
SEQEND
  0
POLYLINE
  8
LAYER_5
 40
0.1058
 41
0.1058
 66
1
 10
0
 20
0
 30
0
  0
VERTEX
  8
LAYER_5
 10
74.7214
 20
138.6996
  0
VERTEX
  8
LAYER_5
 10
75.9189
 20
139.8984
  0
SEQEND
  0
POLYLINE
  8
LAYER_5
 40
0.1058
 41
0.1058
 66
1
 10
0
 20
0
 30
0
  0
VERTEX
  8
LAYER_5
 10
75.8128
 20
138.6996
  0
VERTEX
  8
LAYER_5
 10
75.9189
 20
138.8077
  0
SEQEND
  0
POLYLINE
  8
LAYER_5
 40
0.1058
 41
0.1058
 66
1
 10
0
 20
0
 30
0
  0
VERTEX
  8
LAYER_5
 10
73.3481
 20
140.2354
  0
VERTEX
  8
LAYER_5
 10
73.8057
 20
140.6929
  0
SEQEND
  0
POLYLINE
  8
LAYER_5
 40
0.1058
 41
0.1058
 66
1
 10
0
 20
0
 30
0
  0
VERTEX
  8
LAYER_5
 10
73.3481
 20
139.1439
  0
VERTEX
  8
LAYER_5
 10
74.897
 20
140.6929
  0
SEQEND
  0
POLYLINE
  8
LAYER_5
 40
0.1058
 41
0.1058
 66
1
 10
0
 20
0
 30
0
  0
VERTEX
  8
LAYER_5
 10
73.9951
 20
138.6996
  0
VERTEX
  8
LAYER_5
 10
75.9189
 20
140.6253
  0
SEQEND
  0
POLYLINE
  8
LAYER_5
 40
0.1058
 41
0.1058
 66
1
 10
0
 20
0
 30
0
  0
VERTEX
  8
LAYER_5
 10
75.0845
 20
138.6996
  0
VERTEX
  8
LAYER_5
 10
75.9189
 20
139.5339
  0
SEQEND
  0
ENDBLK
  0
BLOCK
  8
LAYER_5
  2
AIGNBL050302D1
 70
64
 10
0
 20
0
 30
0
  3
AIGNBL050302D1
  0
POLYLINE
  8
LAYER_5
 40
0.1058
 41
0.1058
 66
1
 10
0
 20
0
 30
0
  0
VERTEX
  8
LAYER_5
 10
119.8907
 20
140.2305
  0
VERTEX
  8
LAYER_5
 10
120.353
 20
140.6929
  0
SEQEND
  0
POLYLINE
  8
LAYER_5
 40
0.1058
 41
0.1058
 66
1
 10
0
 20
0
 30
0
  0
VERTEX
  8
LAYER_5
 10
119.8907
 20
139.1398
  0
VERTEX
  8
LAYER_5
 10
121.4445
 20
140.6929
  0
SEQEND
  0
POLYLINE
  8
LAYER_5
 40
0.1058
 41
0.1058
 66
1
 10
0
 20
0
 30
0
  0
VERTEX
  8
LAYER_5
 10
120.5425
 20
138.6996
  0
VERTEX
  8
LAYER_5
 10
122.4621
 20
140.6198
  0
SEQEND
  0
POLYLINE
  8
LAYER_5
 40
0.1058
 41
0.1058
 66
1
 10
0
 20
0
 30
0
  0
VERTEX
  8
LAYER_5
 10
121.6332
 20
138.6996
  0
VERTEX
  8
LAYER_5
 10
122.4621
 20
139.5298
  0
SEQEND
  0
POLYLINE
  8
LAYER_5
 40
0.1058
 41
0.1058
 66
1
 10
0
 20
0
 30
0
  0
VERTEX
  8
LAYER_5
 10
119.8907
 20
139.8674
  0
VERTEX
  8
LAYER_5
 10
120.7161
 20
140.6929
  0
SEQEND
  0
POLYLINE
  8
LAYER_5
 40
0.1058
 41
0.1058
 66
1
 10
0
 20
0
 30
0
  0
VERTEX
  8
LAYER_5
 10
119.8907
 20
138.776
  0
VERTEX
  8
LAYER_5
 10
121.8076
 20
140.6929
  0
SEQEND
  0
POLYLINE
  8
LAYER_5
 40
0.1058
 41
0.1058
 66
1
 10
0
 20
0
 30
0
  0
VERTEX
  8
LAYER_5
 10
120.9056
 20
138.6996
  0
VERTEX
  8
LAYER_5
 10
122.4621
 20
140.2567
  0
SEQEND
  0
POLYLINE
  8
LAYER_5
 40
0.1058
 41
0.1058
 66
1
 10
0
 20
0
 30
0
  0
VERTEX
  8
LAYER_5
 10
121.997
 20
138.6996
  0
VERTEX
  8
LAYER_5
 10
122.4621
 20
139.1653
  0
SEQEND
  0
ENDBLK
  0
BLOCK
  8
LAYER_5
  2
AIGNBL050302D3
 70
64
 10
0
 20
0
 30
0
  3
AIGNBL050302D3
  0
POLYLINE
  8
LAYER_5
 40
0.1058
 41
0.1058
 66
1
 10
0
 20
0
 30
0
  0
VERTEX
  8
LAYER_5
 10
127.3479
 20
140.0514
  0
VERTEX
  8
LAYER_5
 10
127.9894
 20
140.6929
  0
SEQEND
  0
POLYLINE
  8
LAYER_5
 40
0.1058
 41
0.1058
 66
1
 10
0
 20
0
 30
0
  0
VERTEX
  8
LAYER_5
 10
127.3479
 20
138.96
  0
VERTEX
  8
LAYER_5
 10
129.0808
 20
140.6929
  0
SEQEND
  0
POLYLINE
  8
LAYER_5
 40
0.1058
 41
0.1058
 66
1
 10
0
 20
0
 30
0
  0
VERTEX
  8
LAYER_5
 10
128.1789
 20
138.6996
  0
VERTEX
  8
LAYER_5
 10
129.92
 20
140.4414
  0
SEQEND
  0
POLYLINE
  8
LAYER_5
 40
0.1058
 41
0.1058
 66
1
 10
0
 20
0
 30
0
  0
VERTEX
  8
LAYER_5
 10
129.2703
 20
138.6996
  0
VERTEX
  8
LAYER_5
 10
129.92
 20
139.35
  0
SEQEND
  0
POLYLINE
  8
LAYER_5
 40
0.1058
 41
0.1058
 66
1
 10
0
 20
0
 30
0
  0
VERTEX
  8
LAYER_5
 10
127.3479
 20
139.6883
  0
VERTEX
  8
LAYER_5
 10
128.3532
 20
140.6929
  0
SEQEND
  0
POLYLINE
  8
LAYER_5
 40
0.1058
 41
0.1058
 66
1
 10
0
 20
0
 30
0
  0
VERTEX
  8
LAYER_5
 10
127.452
 20
138.6996
  0
VERTEX
  8
LAYER_5
 10
129.4439
 20
140.6929
  0
SEQEND
  0
POLYLINE
  8
LAYER_5
 40
0.1058
 41
0.1058
 66
1
 10
0
 20
0
 30
0
  0
VERTEX
  8
LAYER_5
 10
128.542
 20
138.6996
  0
VERTEX
  8
LAYER_5
 10
129.92
 20
140.0769
  0
SEQEND
  0
POLYLINE
  8
LAYER_5
 40
0.1058
 41
0.1058
 66
1
 10
0
 20
0
 30
0
  0
VERTEX
  8
LAYER_5
 10
129.6334
 20
138.6996
  0
VERTEX
  8
LAYER_5
 10
129.92
 20
138.9869
  0
SEQEND
  0
ENDBLK
  0
BLOCK
  8
LAYER_5
  2
AIGNBL05020004
 70
64
 10
0
 20
0
 30
0
  3
AIGNBL05020004
  0
INSERT
  8
LAYER_5
  2
AIGNBL05030005
 10
0
 20
0
 30
0
  0
ENDBLK
  0
BLOCK
  8
LAYER_5
  2
AIGNBL0502000D
 70
64
 10
0
 20
0
 30
0
  3
AIGNBL0502000D
  0
INSERT
  8
LAYER_5
  2
AIGNBL0503000E
 10
0
 20
0
 30
0
  0
INSERT
  8
LAYER_5
  2
AIGNBL0503000F
 10
0
 20
0
 30
0
  0
INSERT
  8
LAYER_5
  2
AIGNBL05030010
 10
0
 20
0
 30
0
  0
INSERT
  8
LAYER_5
  2
AIGNBL05030011
 10
0
 20
0
 30
0
  0
INSERT
  8
LAYER_5
  2
AIGNBL05030012
 10
0
 20
0
 30
0
  0
INSERT
  8
LAYER_5
  2
AIGNBL05030013
 10
0
 20
0
 30
0
  0
INSERT
  8
LAYER_5
  2
AIGNBL05030014
 10
0
 20
0
 30
0
  0
INSERT
  8
LAYER_5
  2
AIGNBL05030015
 10
0
 20
0
 30
0
  0
INSERT
  8
LAYER_5
  2
AIGNBL05030016
 10
0
 20
0
 30
0
  0
INSERT
  8
LAYER_5
  2
AIGNBL05030017
 10
0
 20
0
 30
0
  0
INSERT
  8
LAYER_5
  2
AIGNBL05030018
 10
0
 20
0
 30
0
  0
INSERT
  8
LAYER_5
  2
AIGNBL05030019
 10
0
 20
0
 30
0
  0
INSERT
  8
LAYER_5
  2
AIGNBL0503001A
 10
0
 20
0
 30
0
  0
INSERT
  8
LAYER_5
  2
AIGNBL0503001B
 10
0
 20
0
 30
0
  0
INSERT
  8
LAYER_5
  2
AIGNBL0503001C
 10
0
 20
0
 30
0
  0
INSERT
  8
LAYER_5
  2
AIGNBL0503001D
 10
0
 20
0
 30
0
  0
INSERT
  8
LAYER_5
  2
AIGNBL0503001E
 10
0
 20
0
 30
0
  0
INSERT
  8
LAYER_5
  2
AIGNBL0503001F
 10
0
 20
0
 30
0
  0
INSERT
  8
LAYER_5
  2
AIGNBL05030020
 10
0
 20
0
 30
0
  0
INSERT
  8
LAYER_5
  2
AIGNBL05030021
 10
0
 20
0
 30
0
  0
INSERT
  8
LAYER_5
  2
AIGNBL05030022
 10
0
 20
0
 30
0
  0
INSERT
  8
LAYER_5
  2
AIGNBL05030023
 10
0
 20
0
 30
0
  0
INSERT
  8
LAYER_5
  2
AIGNBL05030024
 10
0
 20
0
 30
0
  0
ENDBLK
  0
BLOCK
  8
LAYER_5
  2
AIGNBL05020026
 70
64
 10
0
 20
0
 30
0
  3
AIGNBL05020026
  0
POLYLINE
  8
LAYER_5
 40
0.1058
 41
0.1058
 66
1
 10
0
 20
0
 30
0
  0
VERTEX
  8
LAYER_5
 10
159.3019
 20
93.9298
  0
VERTEX
  8
LAYER_5
 10
152.0004
 20
101.2321
  0
SEQEND
  0
TEXT
  8
LAYER_5
 10
158.2264
 20
89.6951
 11
158.2264
 21
89.6951
 40
4.0084
 41
0.5
 72
1
  1
水栓取り付け穴
  0
TEXT
  8
LAYER_5
 10
158.1939
 20
84.9509
 11
158.1939
 21
84.9509
 40
4.5696
 41
0.5
 72
1
  1
33-35
  0
CIRCLE
  8
LAYER_5
 10
154.6614
 20
98.6517
 40
2.6241
  0
POLYLINE
  8
LAYER_5
 40
0.1058
 41
0.1058
 66
1
 10
0
 20
0
 30
0
  0
VERTEX
  8
LAYER_5
 10
149.2243
 20
98.6427
  0
VERTEX
  8
LAYER_5
 10
152.615
 20
98.6482
  0
SEQEND
  0
POLYLINE
  8
LAYER_5
 40
0.1058
 41
0.1058
 66
1
 10
0
 20
0
 30
0
  0
VERTEX
  8
LAYER_5
 10
153.2868
 20
98.6496
  0
VERTEX
  8
LAYER_5
 10
153.9882
 20
98.6496
  0
SEQEND
  0
POLYLINE
  8
LAYER_5
 40
0.1058
 41
0.1058
 66
1
 10
0
 20
0
 30
0
  0
VERTEX
  8
LAYER_5
 10
154.6614
 20
98.6517
  0
VERTEX
  8
LAYER_5
 10
158.0506
 20
98.6565
  0
SEQEND
  0
POLYLINE
  8
LAYER_5
 40
0.1058
 41
0.1058
 66
1
 10
0
 20
0
 30
0
  0
VERTEX
  8
LAYER_5
 10
154.6813
 20
103.7132
  0
VERTEX
  8
LAYER_5
 10
154.6689
 20
100.6981
  0
SEQEND
  0
POLYLINE
  8
LAYER_5
 40
0.1058
 41
0.1058
 66
1
 10
0
 20
0
 30
0
  0
VERTEX
  8
LAYER_5
 10
154.6669
 20
100.0263
  0
VERTEX
  8
LAYER_5
 10
154.6634
 20
99.3242
  0
SEQEND
  0
POLYLINE
  8
LAYER_5
 40
0.1058
 41
0.1058
 66
1
 10
0
 20
0
 30
0
  0
VERTEX
  8
LAYER_5
 10
154.6614
 20
98.6517
  0
VERTEX
  8
LAYER_5
 10
154.649
 20
95.261
  0
SEQEND
  0
ENDBLK
  0
BLOCK
  8
LAYER_5
  2
AIGNBL05020027
 70
64
 10
0
 20
0
 30
0
  3
AIGNBL05020027
  0
INSERT
  8
LAYER_5
  2
AIGNBL05030028
 10
0
 20
0
 30
0
  0
INSERT
  8
LAYER_5
  2
AIGNBL05030029
 10
0
 20
0
 30
0
  0
INSERT
  8
LAYER_5
  2
AIGNBL0503002A
 10
0
 20
0
 30
0
  0
INSERT
  8
LAYER_5
  2
AIGNBL0503002B
 10
0
 20
0
 30
0
  0
INSERT
  8
LAYER_5
  2
AIGNBL0503002C
 10
0
 20
0
 30
0
  0
INSERT
  8
LAYER_5
  2
AIGNBL0503002D
 10
0
 20
0
 30
0
  0
INSERT
  8
LAYER_5
  2
AIGNBL0503002E
 10
0
 20
0
 30
0
  0
INSERT
  8
LAYER_5
  2
AIGNBL0503002F
 10
0
 20
0
 30
0
  0
ENDBLK
  0
BLOCK
  8
LAYER_5
  2
AIGNBL05020030
 70
64
 10
0
 20
0
 30
0
  3
AIGNBL05020030
  0
INSERT
  8
LAYER_5
  2
AIGNBL05030031
 10
0
 20
0
 30
0
  0
INSERT
  8
LAYER_5
  2
AIGNBL05030032
 10
0
 20
0
 30
0
  0
INSERT
  8
LAYER_5
  2
AIGNBL05030033
 10
0
 20
0
 30
0
  0
INSERT
  8
LAYER_5
  2
AIGNBL05030034
 10
0
 20
0
 30
0
  0
INSERT
  8
LAYER_5
  2
AIGNBL05030035
 10
0
 20
0
 30
0
  0
INSERT
  8
LAYER_5
  2
AIGNBL05030036
 10
0
 20
0
 30
0
  0
ENDBLK
  0
BLOCK
  8
LAYER_5
  2
AIGNBL05020037
 70
64
 10
0
 20
0
 30
0
  3
AIGNBL05020037
  0
INSERT
  8
LAYER_5
  2
AIGNBL05030038
 10
0
 20
0
 30
0
  0
INSERT
  8
LAYER_5
  2
AIGNBL05030039
 10
0
 20
0
 30
0
  0
INSERT
  8
LAYER_5
  2
AIGNBL0503003A
 10
0
 20
0
 30
0
  0
INSERT
  8
LAYER_5
  2
AIGNBL0503003B
 10
0
 20
0
 30
0
  0
INSERT
  8
LAYER_5
  2
AIGNBL0503003C
 10
0
 20
0
 30
0
  0
INSERT
  8
LAYER_5
  2
AIGNBL0503003D
 10
0
 20
0
 30
0
  0
INSERT
  8
LAYER_5
  2
AIGNBL0503003E
 10
0
 20
0
 30
0
  0
INSERT
  8
LAYER_5
  2
AIGNBL0503003F
 10
0
 20
0
 30
0
  0
INSERT
  8
LAYER_5
  2
AIGNBL05030040
 10
0
 20
0
 30
0
  0
INSERT
  8
LAYER_5
  2
AIGNBL05030041
 10
0
 20
0
 30
0
  0
INSERT
  8
LAYER_5
  2
AIGNBL05030042
 10
0
 20
0
 30
0
  0
INSERT
  8
LAYER_5
  2
AIGNBL05030043
 10
0
 20
0
 30
0
  0
INSERT
  8
LAYER_5
  2
AIGNBL05030044
 10
0
 20
0
 30
0
  0
INSERT
  8
LAYER_5
  2
AIGNBL05030045
 10
0
 20
0
 30
0
  0
INSERT
  8
LAYER_5
  2
AIGNBL05030046
 10
0
 20
0
 30
0
  0
INSERT
  8
LAYER_5
  2
AIGNBL05030047
 10
0
 20
0
 30
0
  0
INSERT
  8
LAYER_5
  2
AIGNBL05030048
 10
0
 20
0
 30
0
  0
INSERT
  8
LAYER_5
  2
AIGNBL05030049
 10
0
 20
0
 30
0
  0
ENDBLK
  0
BLOCK
  8
LAYER_5
  2
AIGNBL0502004A
 70
64
 10
0
 20
0
 30
0
  3
AIGNBL0502004A
  0
INSERT
  8
LAYER_5
  2
AIGNBL0503004B
 10
0
 20
0
 30
0
  0
INSERT
  8
LAYER_5
  2
AIGNBL0503004C
 10
0
 20
0
 30
0
  0
INSERT
  8
LAYER_5
  2
AIGNBL0503004D
 10
0
 20
0
 30
0
  0
INSERT
  8
LAYER_5
  2
AIGNBL0503004E
 10
0
 20
0
 30
0
  0
INSERT
  8
LAYER_5
  2
AIGNBL0503004F
 10
0
 20
0
 30
0
  0
INSERT
  8
LAYER_5
  2
AIGNBL05030050
 10
0
 20
0
 30
0
  0
INSERT
  8
LAYER_5
  2
AIGNBL05030051
 10
0
 20
0
 30
0
  0
INSERT
  8
LAYER_5
  2
AIGNBL05030052
 10
0
 20
0
 30
0
  0
INSERT
  8
LAYER_5
  2
AIGNBL05030053
 10
0
 20
0
 30
0
  0
INSERT
  8
LAYER_5
  2
AIGNBL05030054
 10
0
 20
0
 30
0
  0
INSERT
  8
LAYER_5
  2
AIGNBL05030055
 10
0
 20
0
 30
0
  0
INSERT
  8
LAYER_5
  2
AIGNBL05030056
 10
0
 20
0
 30
0
  0
INSERT
  8
LAYER_5
  2
AIGNBL05030057
 10
0
 20
0
 30
0
  0
INSERT
  8
LAYER_5
  2
AIGNBL05030058
 10
0
 20
0
 30
0
  0
INSERT
  8
LAYER_5
  2
AIGNBL05030059
 10
0
 20
0
 30
0
  0
INSERT
  8
LAYER_5
  2
AIGNBL0503005A
 10
0
 20
0
 30
0
  0
INSERT
  8
LAYER_5
  2
AIGNBL0503005B
 10
0
 20
0
 30
0
  0
INSERT
  8
LAYER_5
  2
AIGNBL0503005C
 10
0
 20
0
 30
0
  0
INSERT
  8
LAYER_5
  2
AIGNBL0503005D
 10
0
 20
0
 30
0
  0
INSERT
  8
LAYER_5
  2
AIGNBL0503005E
 10
0
 20
0
 30
0
  0
INSERT
  8
LAYER_5
  2
AIGNBL0503005F
 10
0
 20
0
 30
0
  0
INSERT
  8
LAYER_5
  2
AIGNBL05030060
 10
0
 20
0
 30
0
  0
INSERT
  8
LAYER_5
  2
AIGNBL05030061
 10
0
 20
0
 30
0
  0
INSERT
  8
LAYER_5
  2
AIGNBL05030062
 10
0
 20
0
 30
0
  0
INSERT
  8
LAYER_5
  2
AIGNBL05030063
 10
0
 20
0
 30
0
  0
INSERT
  8
LAYER_5
  2
AIGNBL05030064
 10
0
 20
0
 30
0
  0
INSERT
  8
LAYER_5
  2
AIGNBL05030065
 10
0
 20
0
 30
0
  0
INSERT
  8
LAYER_5
  2
AIGNBL05030066
 10
0
 20
0
 30
0
  0
INSERT
  8
LAYER_5
  2
AIGNBL05030067
 10
0
 20
0
 30
0
  0
INSERT
  8
LAYER_5
  2
AIGNBL05030068
 10
0
 20
0
 30
0
  0
INSERT
  8
LAYER_5
  2
AIGNBL05030069
 10
0
 20
0
 30
0
  0
INSERT
  8
LAYER_5
  2
AIGNBL0503006A
 10
0
 20
0
 30
0
  0
INSERT
  8
LAYER_5
  2
AIGNBL0503006B
 10
0
 20
0
 30
0
  0
INSERT
  8
LAYER_5
  2
AIGNBL0503006C
 10
0
 20
0
 30
0
  0
INSERT
  8
LAYER_5
  2
AIGNBL0503006D
 10
0
 20
0
 30
0
  0
INSERT
  8
LAYER_5
  2
AIGNBL0503006E
 10
0
 20
0
 30
0
  0
INSERT
  8
LAYER_5
  2
AIGNBL0503006F
 10
0
 20
0
 30
0
  0
INSERT
  8
LAYER_5
  2
AIGNBL05030070
 10
0
 20
0
 30
0
  0
INSERT
  8
LAYER_5
  2
AIGNBL05030071
 10
0
 20
0
 30
0
  0
INSERT
  8
LAYER_5
  2
AIGNBL05030072
 10
0
 20
0
 30
0
  0
INSERT
  8
LAYER_5
  2
AIGNBL05030073
 10
0
 20
0
 30
0
  0
INSERT
  8
LAYER_5
  2
AIGNBL05030074
 10
0
 20
0
 30
0
  0
INSERT
  8
LAYER_5
  2
AIGNBL05030075
 10
0
 20
0
 30
0
  0
INSERT
  8
LAYER_5
  2
AIGNBL05030076
 10
0
 20
0
 30
0
  0
INSERT
  8
LAYER_5
  2
AIGNBL05030077
 10
0
 20
0
 30
0
  0
INSERT
  8
LAYER_5
  2
AIGNBL05030078
 10
0
 20
0
 30
0
  0
INSERT
  8
LAYER_5
  2
AIGNBL05030079
 10
0
 20
0
 30
0
  0
INSERT
  8
LAYER_5
  2
AIGNBL0503007A
 10
0
 20
0
 30
0
  0
INSERT
  8
LAYER_5
  2
AIGNBL0503007B
 10
0
 20
0
 30
0
  0
INSERT
  8
LAYER_5
  2
AIGNBL0503007C
 10
0
 20
0
 30
0
  0
INSERT
  8
LAYER_5
  2
AIGNBL0503007D
 10
0
 20
0
 30
0
  0
INSERT
  8
LAYER_5
  2
AIGNBL0503007E
 10
0
 20
0
 30
0
  0
INSERT
  8
LAYER_5
  2
AIGNBL0503007F
 10
0
 20
0
 30
0
  0
INSERT
  8
LAYER_5
  2
AIGNBL05030080
 10
0
 20
0
 30
0
  0
INSERT
  8
LAYER_5
  2
AIGNBL05030081
 10
0
 20
0
 30
0
  0
INSERT
  8
LAYER_5
  2
AIGNBL05030082
 10
0
 20
0
 30
0
  0
INSERT
  8
LAYER_5
  2
AIGNBL05030083
 10
0
 20
0
 30
0
  0
INSERT
  8
LAYER_5
  2
AIGNBL05030084
 10
0
 20
0
 30
0
  0
INSERT
  8
LAYER_5
  2
AIGNBL05030085
 10
0
 20
0
 30
0
  0
INSERT
  8
LAYER_5
  2
AIGNBL05030086
 10
0
 20
0
 30
0
  0
INSERT
  8
LAYER_5
  2
AIGNBL05030087
 10
0
 20
0
 30
0
  0
INSERT
  8
LAYER_5
  2
AIGNBL05030088
 10
0
 20
0
 30
0
  0
INSERT
  8
LAYER_5
  2
AIGNBL05030089
 10
0
 20
0
 30
0
  0
INSERT
  8
LAYER_5
  2
AIGNBL0503008A
 10
0
 20
0
 30
0
  0
INSERT
  8
LAYER_5
  2
AIGNBL0503008B
 10
0
 20
0
 30
0
  0
INSERT
  8
LAYER_5
  2
AIGNBL0503008C
 10
0
 20
0
 30
0
  0
INSERT
  8
LAYER_5
  2
AIGNBL0503008D
 10
0
 20
0
 30
0
  0
INSERT
  8
LAYER_5
  2
AIGNBL0503008E
 10
0
 20
0
 30
0
  0
INSERT
  8
LAYER_5
  2
AIGNBL0503008F
 10
0
 20
0
 30
0
  0
INSERT
  8
LAYER_5
  2
AIGNBL05030090
 10
0
 20
0
 30
0
  0
INSERT
  8
LAYER_5
  2
AIGNBL05030091
 10
0
 20
0
 30
0
  0
INSERT
  8
LAYER_5
  2
AIGNBL05030092
 10
0
 20
0
 30
0
  0
INSERT
  8
LAYER_5
  2
AIGNBL05030093
 10
0
 20
0
 30
0
  0
INSERT
  8
LAYER_5
  2
AIGNBL05030094
 10
0
 20
0
 30
0
  0
INSERT
  8
LAYER_5
  2
AIGNBL05030095
 10
0
 20
0
 30
0
  0
INSERT
  8
LAYER_5
  2
AIGNBL05030096
 10
0
 20
0
 30
0
  0
INSERT
  8
LAYER_5
  2
AIGNBL05030097
 10
0
 20
0
 30
0
  0
INSERT
  8
LAYER_5
  2
AIGNBL05030098
 10
0
 20
0
 30
0
  0
INSERT
  8
LAYER_5
  2
AIGNBL05030099
 10
0
 20
0
 30
0
  0
INSERT
  8
LAYER_5
  2
AIGNBL0503009A
 10
0
 20
0
 30
0
  0
INSERT
  8
LAYER_5
  2
AIGNBL0503009B
 10
0
 20
0
 30
0
  0
INSERT
  8
LAYER_5
  2
AIGNBL0503009C
 10
0
 20
0
 30
0
  0
INSERT
  8
LAYER_5
  2
AIGNBL0503009D
 10
0
 20
0
 30
0
  0
INSERT
  8
LAYER_5
  2
AIGNBL0503009E
 10
0
 20
0
 30
0
  0
INSERT
  8
LAYER_5
  2
AIGNBL0503009F
 10
0
 20
0
 30
0
  0
INSERT
  8
LAYER_5
  2
AIGNBL050300A0
 10
0
 20
0
 30
0
  0
INSERT
  8
LAYER_5
  2
AIGNBL050300A1
 10
0
 20
0
 30
0
  0
INSERT
  8
LAYER_5
  2
AIGNBL050300A2
 10
0
 20
0
 30
0
  0
INSERT
  8
LAYER_5
  2
AIGNBL050300A3
 10
0
 20
0
 30
0
  0
INSERT
  8
LAYER_5
  2
AIGNBL050300A4
 10
0
 20
0
 30
0
  0
INSERT
  8
LAYER_5
  2
AIGNBL050300A5
 10
0
 20
0
 30
0
  0
INSERT
  8
LAYER_5
  2
AIGNBL050300A6
 10
0
 20
0
 30
0
  0
INSERT
  8
LAYER_5
  2
AIGNBL050300A7
 10
0
 20
0
 30
0
  0
INSERT
  8
LAYER_5
  2
AIGNBL050300A8
 10
0
 20
0
 30
0
  0
INSERT
  8
LAYER_5
  2
AIGNBL050300A9
 10
0
 20
0
 30
0
  0
INSERT
  8
LAYER_5
  2
AIGNBL050300AA
 10
0
 20
0
 30
0
  0
INSERT
  8
LAYER_5
  2
AIGNBL050300AB
 10
0
 20
0
 30
0
  0
INSERT
  8
LAYER_5
  2
AIGNBL050300AC
 10
0
 20
0
 30
0
  0
INSERT
  8
LAYER_5
  2
AIGNBL050300AD
 10
0
 20
0
 30
0
  0
INSERT
  8
LAYER_5
  2
AIGNBL050300AE
 10
0
 20
0
 30
0
  0
INSERT
  8
LAYER_5
  2
AIGNBL050300AF
 10
0
 20
0
 30
0
  0
INSERT
  8
LAYER_5
  2
AIGNBL050300B0
 10
0
 20
0
 30
0
  0
INSERT
  8
LAYER_5
  2
AIGNBL050300B1
 10
0
 20
0
 30
0
  0
INSERT
  8
LAYER_5
  2
AIGNBL050300B2
 10
0
 20
0
 30
0
  0
INSERT
  8
LAYER_5
  2
AIGNBL050300B3
 10
0
 20
0
 30
0
  0
INSERT
  8
LAYER_5
  2
AIGNBL050300B4
 10
0
 20
0
 30
0
  0
INSERT
  8
LAYER_5
  2
AIGNBL050300B5
 10
0
 20
0
 30
0
  0
INSERT
  8
LAYER_5
  2
AIGNBL050300B6
 10
0
 20
0
 30
0
  0
INSERT
  8
LAYER_5
  2
AIGNBL050300B7
 10
0
 20
0
 30
0
  0
INSERT
  8
LAYER_5
  2
AIGNBL050300B8
 10
0
 20
0
 30
0
  0
INSERT
  8
LAYER_5
  2
AIGNBL050300B9
 10
0
 20
0
 30
0
  0
INSERT
  8
LAYER_5
  2
AIGNBL050300BA
 10
0
 20
0
 30
0
  0
INSERT
  8
LAYER_5
  2
AIGNBL050300BB
 10
0
 20
0
 30
0
  0
INSERT
  8
LAYER_5
  2
AIGNBL050300BC
 10
0
 20
0
 30
0
  0
INSERT
  8
LAYER_5
  2
AIGNBL050300BD
 10
0
 20
0
 30
0
  0
INSERT
  8
LAYER_5
  2
AIGNBL050300BE
 10
0
 20
0
 30
0
  0
INSERT
  8
LAYER_5
  2
AIGNBL050300BF
 10
0
 20
0
 30
0
  0
INSERT
  8
LAYER_5
  2
AIGNBL050300C0
 10
0
 20
0
 30
0
  0
INSERT
  8
LAYER_5
  2
AIGNBL050300C1
 10
0
 20
0
 30
0
  0
INSERT
  8
LAYER_5
  2
AIGNBL050300C2
 10
0
 20
0
 30
0
  0
INSERT
  8
LAYER_5
  2
AIGNBL050300C3
 10
0
 20
0
 30
0
  0
INSERT
  8
LAYER_5
  2
AIGNBL050300C4
 10
0
 20
0
 30
0
  0
INSERT
  8
LAYER_5
  2
AIGNBL050300C5
 10
0
 20
0
 30
0
  0
INSERT
  8
LAYER_5
  2
AIGNBL050300C6
 10
0
 20
0
 30
0
  0
INSERT
  8
LAYER_5
  2
AIGNBL050300C7
 10
0
 20
0
 30
0
  0
INSERT
  8
LAYER_5
  2
AIGNBL050300C8
 10
0
 20
0
 30
0
  0
INSERT
  8
LAYER_5
  2
AIGNBL050300C9
 10
0
 20
0
 30
0
  0
INSERT
  8
LAYER_5
  2
AIGNBL050300CA
 10
0
 20
0
 30
0
  0
INSERT
  8
LAYER_5
  2
AIGNBL050300CB
 10
0
 20
0
 30
0
  0
INSERT
  8
LAYER_5
  2
AIGNBL050300CC
 10
0
 20
0
 30
0
  0
INSERT
  8
LAYER_5
  2
AIGNBL050300CD
 10
0
 20
0
 30
0
  0
INSERT
  8
LAYER_5
  2
AIGNBL050300CE
 10
0
 20
0
 30
0
  0
INSERT
  8
LAYER_5
  2
AIGNBL050300CF
 10
0
 20
0
 30
0
  0
INSERT
  8
LAYER_5
  2
AIGNBL050300D0
 10
0
 20
0
 30
0
  0
INSERT
  8
LAYER_5
  2
AIGNBL050300D1
 10
0
 20
0
 30
0
  0
INSERT
  8
LAYER_5
  2
AIGNBL050300D2
 10
0
 20
0
 30
0
  0
INSERT
  8
LAYER_5
  2
AIGNBL050300D3
 10
0
 20
0
 30
0
  0
INSERT
  8
LAYER_5
  2
AIGNBL050300D4
 10
0
 20
0
 30
0
  0
INSERT
  8
LAYER_5
  2
AIGNBL050300D5
 10
0
 20
0
 30
0
  0
INSERT
  8
LAYER_5
  2
AIGNBL050300D6
 10
0
 20
0
 30
0
  0
INSERT
  8
LAYER_5
  2
AIGNBL050300D7
 10
0
 20
0
 30
0
  0
INSERT
  8
LAYER_5
  2
AIGNBL050300D8
 10
0
 20
0
 30
0
  0
INSERT
  8
LAYER_5
  2
AIGNBL050300D9
 10
0
 20
0
 30
0
  0
INSERT
  8
LAYER_5
  2
AIGNBL050300DA
 10
0
 20
0
 30
0
  0
ENDBLK
  0
BLOCK
  8
LAYER_5
  2
AIGNBL050200DB
 70
64
 10
0
 20
0
 30
0
  3
AIGNBL050200DB
  0
INSERT
  8
LAYER_5
  2
AIGNBL050300DC
 10
0
 20
0
 30
0
  0
INSERT
  8
LAYER_5
  2
AIGNBL050300DD
 10
0
 20
0
 30
0
  0
INSERT
  8
LAYER_5
  2
AIGNBL050300DE
 10
0
 20
0
 30
0
  0
INSERT
  8
LAYER_5
  2
AIGNBL050300DF
 10
0
 20
0
 30
0
  0
INSERT
  8
LAYER_5
  2
AIGNBL050300E0
 10
0
 20
0
 30
0
  0
INSERT
  8
LAYER_5
  2
AIGNBL050300E1
 10
0
 20
0
 30
0
  0
INSERT
  8
LAYER_5
  2
AIGNBL050300E2
 10
0
 20
0
 30
0
  0
INSERT
  8
LAYER_5
  2
AIGNBL050300E3
 10
0
 20
0
 30
0
  0
INSERT
  8
LAYER_5
  2
AIGNBL050300E4
 10
0
 20
0
 30
0
  0
INSERT
  8
LAYER_5
  2
AIGNBL050300E5
 10
0
 20
0
 30
0
  0
INSERT
  8
LAYER_5
  2
AIGNBL050300E6
 10
0
 20
0
 30
0
  0
ENDBLK
  0
BLOCK
  8
LAYER_5
  2
AIGNBL050200E7
 70
64
 10
0
 20
0
 30
0
  3
AIGNBL050200E7
  0
INSERT
  8
LAYER_5
  2
AIGNBL050300E8
 10
0
 20
0
 30
0
  0
INSERT
  8
LAYER_5
  2
AIGNBL050300E9
 10
0
 20
0
 30
0
  0
INSERT
  8
LAYER_5
  2
AIGNBL050300EA
 10
0
 20
0
 30
0
  0
INSERT
  8
LAYER_5
  2
AIGNBL050300EB
 10
0
 20
0
 30
0
  0
INSERT
  8
LAYER_5
  2
AIGNBL050300EC
 10
0
 20
0
 30
0
  0
INSERT
  8
LAYER_5
  2
AIGNBL050300ED
 10
0
 20
0
 30
0
  0
INSERT
  8
LAYER_5
  2
AIGNBL050300EE
 10
0
 20
0
 30
0
  0
INSERT
  8
LAYER_5
  2
AIGNBL050300EF
 10
0
 20
0
 30
0
  0
INSERT
  8
LAYER_5
  2
AIGNBL050300F0
 10
0
 20
0
 30
0
  0
INSERT
  8
LAYER_5
  2
AIGNBL050300F1
 10
0
 20
0
 30
0
  0
INSERT
  8
LAYER_5
  2
AIGNBL050300F2
 10
0
 20
0
 30
0
  0
INSERT
  8
LAYER_5
  2
AIGNBL050300F3
 10
0
 20
0
 30
0
  0
INSERT
  8
LAYER_5
  2
AIGNBL050300F4
 10
0
 20
0
 30
0
  0
INSERT
  8
LAYER_5
  2
AIGNBL050300F5
 10
0
 20
0
 30
0
  0
INSERT
  8
LAYER_5
  2
AIGNBL050300F6
 10
0
 20
0
 30
0
  0
INSERT
  8
LAYER_5
  2
AIGNBL050300F7
 10
0
 20
0
 30
0
  0
INSERT
  8
LAYER_5
  2
AIGNBL050300F8
 10
0
 20
0
 30
0
  0
INSERT
  8
LAYER_5
  2
AIGNBL050300F9
 10
0
 20
0
 30
0
  0
INSERT
  8
LAYER_5
  2
AIGNBL050300FA
 10
0
 20
0
 30
0
  0
INSERT
  8
LAYER_5
  2
AIGNBL050300FB
 10
0
 20
0
 30
0
  0
INSERT
  8
LAYER_5
  2
AIGNBL050300FC
 10
0
 20
0
 30
0
  0
INSERT
  8
LAYER_5
  2
AIGNBL050300FD
 10
0
 20
0
 30
0
  0
INSERT
  8
LAYER_5
  2
AIGNBL050300FE
 10
0
 20
0
 30
0
  0
ENDBLK
  0
BLOCK
  8
LAYER_5
  2
AIGNBL050200FF
 70
64
 10
0
 20
0
 30
0
  3
AIGNBL050200FF
  0
INSERT
  8
LAYER_5
  2
AIGNBL05030100
 10
0
 20
0
 30
0
  0
INSERT
  8
LAYER_5
  2
AIGNBL05030101
 10
0
 20
0
 30
0
  0
INSERT
  8
LAYER_5
  2
AIGNBL05030102
 10
0
 20
0
 30
0
  0
INSERT
  8
LAYER_5
  2
AIGNBL05030103
 10
0
 20
0
 30
0
  0
INSERT
  8
LAYER_5
  2
AIGNBL05030104
 10
0
 20
0
 30
0
  0
INSERT
  8
LAYER_5
  2
AIGNBL05030105
 10
0
 20
0
 30
0
  0
INSERT
  8
LAYER_5
  2
AIGNBL05030106
 10
0
 20
0
 30
0
  0
INSERT
  8
LAYER_5
  2
AIGNBL05030107
 10
0
 20
0
 30
0
  0
ENDBLK
  0
BLOCK
  8
LAYER_5
  2
AIGNBL05020108
 70
64
 10
0
 20
0
 30
0
  3
AIGNBL05020108
  0
INSERT
  8
LAYER_5
  2
AIGNBL05030109
 10
0
 20
0
 30
0
  0
INSERT
  8
LAYER_5
  2
AIGNBL05030163
 10
0
 20
0
 30
0
  0
ENDBLK
  0
BLOCK
  8
LAYER_5
  2
AIGNBL05020196
 70
64
 10
0
 20
0
 30
0
  3
AIGNBL05020196
  0
INSERT
  8
LAYER_5
  2
AIGNBL05030197
 10
0
 20
0
 30
0
  0
INSERT
  8
LAYER_5
  2
AIGNBL05030198
 10
0
 20
0
 30
0
  0
INSERT
  8
LAYER_5
  2
AIGNBL05030199
 10
0
 20
0
 30
0
  0
INSERT
  8
LAYER_5
  2
AIGNBL0503019A
 10
0
 20
0
 30
0
  0
INSERT
  8
LAYER_5
  2
AIGNBL0503019B
 10
0
 20
0
 30
0
  0
INSERT
  8
LAYER_5
  2
AIGNBL0503019C
 10
0
 20
0
 30
0
  0
INSERT
  8
LAYER_5
  2
AIGNBL0503019D
 10
0
 20
0
 30
0
  0
INSERT
  8
LAYER_5
  2
AIGNBL0503019E
 10
0
 20
0
 30
0
  0
INSERT
  8
LAYER_5
  2
AIGNBL0503019F
 10
0
 20
0
 30
0
  0
INSERT
  8
LAYER_5
  2
AIGNBL050301A0
 10
0
 20
0
 30
0
  0
INSERT
  8
LAYER_5
  2
AIGNBL050301A1
 10
0
 20
0
 30
0
  0
INSERT
  8
LAYER_5
  2
AIGNBL050301A2
 10
0
 20
0
 30
0
  0
INSERT
  8
LAYER_5
  2
AIGNBL050301A3
 10
0
 20
0
 30
0
  0
INSERT
  8
LAYER_5
  2
AIGNBL050301A4
 10
0
 20
0
 30
0
  0
INSERT
  8
LAYER_5
  2
AIGNBL050301A5
 10
0
 20
0
 30
0
  0
INSERT
  8
LAYER_5
  2
AIGNBL050301A6
 10
0
 20
0
 30
0
  0
INSERT
  8
LAYER_5
  2
AIGNBL050301A7
 10
0
 20
0
 30
0
  0
INSERT
  8
LAYER_5
  2
AIGNBL050301A8
 10
0
 20
0
 30
0
  0
INSERT
  8
LAYER_5
  2
AIGNBL050301A9
 10
0
 20
0
 30
0
  0
INSERT
  8
LAYER_5
  2
AIGNBL050301AA
 10
0
 20
0
 30
0
  0
INSERT
  8
LAYER_5
  2
AIGNBL050301AB
 10
0
 20
0
 30
0
  0
INSERT
  8
LAYER_5
  2
AIGNBL050301AC
 10
0
 20
0
 30
0
  0
INSERT
  8
LAYER_5
  2
AIGNBL050301AD
 10
0
 20
0
 30
0
  0
INSERT
  8
LAYER_5
  2
AIGNBL050301AE
 10
0
 20
0
 30
0
  0
INSERT
  8
LAYER_5
  2
AIGNBL050301AF
 10
0
 20
0
 30
0
  0
INSERT
  8
LAYER_5
  2
AIGNBL050301B0
 10
0
 20
0
 30
0
  0
INSERT
  8
LAYER_5
  2
AIGNBL050301B1
 10
0
 20
0
 30
0
  0
INSERT
  8
LAYER_5
  2
AIGNBL050301B2
 10
0
 20
0
 30
0
  0
INSERT
  8
LAYER_5
  2
AIGNBL050301B3
 10
0
 20
0
 30
0
  0
INSERT
  8
LAYER_5
  2
AIGNBL050301B4
 10
0
 20
0
 30
0
  0
INSERT
  8
LAYER_5
  2
AIGNBL050301B5
 10
0
 20
0
 30
0
  0
INSERT
  8
LAYER_5
  2
AIGNBL050301B6
 10
0
 20
0
 30
0
  0
INSERT
  8
LAYER_5
  2
AIGNBL050301B7
 10
0
 20
0
 30
0
  0
INSERT
  8
LAYER_5
  2
AIGNBL050301B8
 10
0
 20
0
 30
0
  0
INSERT
  8
LAYER_5
  2
AIGNBL050301B9
 10
0
 20
0
 30
0
  0
INSERT
  8
LAYER_5
  2
AIGNBL050301BA
 10
0
 20
0
 30
0
  0
INSERT
  8
LAYER_5
  2
AIGNBL050301BB
 10
0
 20
0
 30
0
  0
INSERT
  8
LAYER_5
  2
AIGNBL050301BC
 10
0
 20
0
 30
0
  0
INSERT
  8
LAYER_5
  2
AIGNBL050301BD
 10
0
 20
0
 30
0
  0
INSERT
  8
LAYER_5
  2
AIGNBL050301BE
 10
0
 20
0
 30
0
  0
INSERT
  8
LAYER_5
  2
AIGNBL050301BF
 10
0
 20
0
 30
0
  0
INSERT
  8
LAYER_5
  2
AIGNBL050301C0
 10
0
 20
0
 30
0
  0
ENDBLK
  0
BLOCK
  8
LAYER_5
  2
AIGNBL050201C1
 70
64
 10
0
 20
0
 30
0
  3
AIGNBL050201C1
  0
INSERT
  8
LAYER_5
  2
AIGNBL050301C2
 10
0
 20
0
 30
0
  0
INSERT
  8
LAYER_5
  2
AIGNBL050301C3
 10
0
 20
0
 30
0
  0
INSERT
  8
LAYER_5
  2
AIGNBL050301C4
 10
0
 20
0
 30
0
  0
INSERT
  8
LAYER_5
  2
AIGNBL050301C5
 10
0
 20
0
 30
0
  0
INSERT
  8
LAYER_5
  2
AIGNBL050301C6
 10
0
 20
0
 30
0
  0
INSERT
  8
LAYER_5
  2
AIGNBL050301C7
 10
0
 20
0
 30
0
  0
INSERT
  8
LAYER_5
  2
AIGNBL050301C8
 10
0
 20
0
 30
0
  0
INSERT
  8
LAYER_5
  2
AIGNBL050301C9
 10
0
 20
0
 30
0
  0
INSERT
  8
LAYER_5
  2
AIGNBL050301CA
 10
0
 20
0
 30
0
  0
INSERT
  8
LAYER_5
  2
AIGNBL050301CB
 10
0
 20
0
 30
0
  0
INSERT
  8
LAYER_5
  2
AIGNBL050301CC
 10
0
 20
0
 30
0
  0
INSERT
  8
LAYER_5
  2
AIGNBL050301CD
 10
0
 20
0
 30
0
  0
ENDBLK
  0
BLOCK
  8
LAYER_5
  2
AIGNBL050201CE
 70
64
 10
0
 20
0
 30
0
  3
AIGNBL050201CE
  0
INSERT
  8
LAYER_5
  2
AIGNBL050301CF
 10
0
 20
0
 30
0
  0
INSERT
  8
LAYER_5
  2
AIGNBL050301DD
 10
0
 20
0
 30
0
  0
INSERT
  8
LAYER_5
  2
AIGNBL050301DE
 10
0
 20
0
 30
0
  0
INSERT
  8
LAYER_5
  2
AIGNBL050301DF
 10
0
 20
0
 30
0
  0
INSERT
  8
LAYER_5
  2
AIGNBL050301E0
 10
0
 20
0
 30
0
  0
INSERT
  8
LAYER_5
  2
AIGNBL050301E1
 10
0
 20
0
 30
0
  0
INSERT
  8
LAYER_5
  2
AIGNBL050301E2
 10
0
 20
0
 30
0
  0
INSERT
  8
LAYER_5
  2
AIGNBL050301E3
 10
0
 20
0
 30
0
  0
INSERT
  8
LAYER_5
  2
AIGNBL050301E4
 10
0
 20
0
 30
0
  0
INSERT
  8
LAYER_5
  2
AIGNBL050301E5
 10
0
 20
0
 30
0
  0
INSERT
  8
LAYER_5
  2
AIGNBL050301E6
 10
0
 20
0
 30
0
  0
INSERT
  8
LAYER_5
  2
AIGNBL050301E7
 10
0
 20
0
 30
0
  0
INSERT
  8
LAYER_5
  2
AIGNBL050301E8
 10
0
 20
0
 30
0
  0
INSERT
  8
LAYER_5
  2
AIGNBL050301E9
 10
0
 20
0
 30
0
  0
INSERT
  8
LAYER_5
  2
AIGNBL050301EA
 10
0
 20
0
 30
0
  0
INSERT
  8
LAYER_5
  2
AIGNBL050301EB
 10
0
 20
0
 30
0
  0
INSERT
  8
LAYER_5
  2
AIGNBL050301EC
 10
0
 20
0
 30
0
  0
INSERT
  8
LAYER_5
  2
AIGNBL050301ED
 10
0
 20
0
 30
0
  0
INSERT
  8
LAYER_5
  2
AIGNBL050301EE
 10
0
 20
0
 30
0
  0
INSERT
  8
LAYER_5
  2
AIGNBL050301EF
 10
0
 20
0
 30
0
  0
INSERT
  8
LAYER_5
  2
AIGNBL050301F0
 10
0
 20
0
 30
0
  0
INSERT
  8
LAYER_5
  2
AIGNBL050301F1
 10
0
 20
0
 30
0
  0
INSERT
  8
LAYER_5
  2
AIGNBL050301F2
 10
0
 20
0
 30
0
  0
INSERT
  8
LAYER_5
  2
AIGNBL050301F3
 10
0
 20
0
 30
0
  0
INSERT
  8
LAYER_5
  2
AIGNBL050301F4
 10
0
 20
0
 30
0
  0
INSERT
  8
LAYER_5
  2
AIGNBL050301F5
 10
0
 20
0
 30
0
  0
INSERT
  8
LAYER_5
  2
AIGNBL050301F6
 10
0
 20
0
 30
0
  0
INSERT
  8
LAYER_5
  2
AIGNBL050301F7
 10
0
 20
0
 30
0
  0
INSERT
  8
LAYER_5
  2
AIGNBL050301F8
 10
0
 20
0
 30
0
  0
INSERT
  8
LAYER_5
  2
AIGNBL050301F9
 10
0
 20
0
 30
0
  0
INSERT
  8
LAYER_5
  2
AIGNBL050301FA
 10
0
 20
0
 30
0
  0
INSERT
  8
LAYER_5
  2
AIGNBL050301FB
 10
0
 20
0
 30
0
  0
INSERT
  8
LAYER_5
  2
AIGNBL050301FC
 10
0
 20
0
 30
0
  0
INSERT
  8
LAYER_5
  2
AIGNBL050301FD
 10
0
 20
0
 30
0
  0
INSERT
  8
LAYER_5
  2
AIGNBL050301FE
 10
0
 20
0
 30
0
  0
INSERT
  8
LAYER_5
  2
AIGNBL050301FF
 10
0
 20
0
 30
0
  0
INSERT
  8
LAYER_5
  2
AIGNBL05030200
 10
0
 20
0
 30
0
  0
INSERT
  8
LAYER_5
  2
AIGNBL05030201
 10
0
 20
0
 30
0
  0
INSERT
  8
LAYER_5
  2
AIGNBL05030202
 10
0
 20
0
 30
0
  0
INSERT
  8
LAYER_5
  2
AIGNBL05030203
 10
0
 20
0
 30
0
  0
INSERT
  8
LAYER_5
  2
AIGNBL05030204
 10
0
 20
0
 30
0
  0
INSERT
  8
LAYER_5
  2
AIGNBL05030205
 10
0
 20
0
 30
0
  0
INSERT
  8
LAYER_5
  2
AIGNBL05030206
 10
0
 20
0
 30
0
  0
INSERT
  8
LAYER_5
  2
AIGNBL05030207
 10
0
 20
0
 30
0
  0
INSERT
  8
LAYER_5
  2
AIGNBL05030208
 10
0
 20
0
 30
0
  0
INSERT
  8
LAYER_5
  2
AIGNBL05030209
 10
0
 20
0
 30
0
  0
INSERT
  8
LAYER_5
  2
AIGNBL0503020A
 10
0
 20
0
 30
0
  0
INSERT
  8
LAYER_5
  2
AIGNBL0503020B
 10
0
 20
0
 30
0
  0
INSERT
  8
LAYER_5
  2
AIGNBL0503020C
 10
0
 20
0
 30
0
  0
INSERT
  8
LAYER_5
  2
AIGNBL0503020D
 10
0
 20
0
 30
0
  0
ENDBLK
  0
BLOCK
  8
LAYER_5
  2
AIGNBL0502020E
 70
64
 10
0
 20
0
 30
0
  3
AIGNBL0502020E
  0
INSERT
  8
LAYER_5
  2
AIGNBL0503020F
 10
0
 20
0
 30
0
  0
INSERT
  8
LAYER_5
  2
AIGNBL05030210
 10
0
 20
0
 30
0
  0
INSERT
  8
LAYER_5
  2
AIGNBL05030211
 10
0
 20
0
 30
0
  0
INSERT
  8
LAYER_5
  2
AIGNBL05030212
 10
0
 20
0
 30
0
  0
INSERT
  8
LAYER_5
  2
AIGNBL05030213
 10
0
 20
0
 30
0
  0
INSERT
  8
LAYER_5
  2
AIGNBL05030214
 10
0
 20
0
 30
0
  0
INSERT
  8
LAYER_5
  2
AIGNBL05030215
 10
0
 20
0
 30
0
  0
INSERT
  8
LAYER_5
  2
AIGNBL05030216
 10
0
 20
0
 30
0
  0
INSERT
  8
LAYER_5
  2
AIGNBL05030217
 10
0
 20
0
 30
0
  0
INSERT
  8
LAYER_5
  2
AIGNBL05030218
 10
0
 20
0
 30
0
  0
INSERT
  8
LAYER_5
  2
AIGNBL05030219
 10
0
 20
0
 30
0
  0
INSERT
  8
LAYER_5
  2
AIGNBL0503021A
 10
0
 20
0
 30
0
  0
INSERT
  8
LAYER_5
  2
AIGNBL0503021B
 10
0
 20
0
 30
0
  0
INSERT
  8
LAYER_5
  2
AIGNBL0503021C
 10
0
 20
0
 30
0
  0
INSERT
  8
LAYER_5
  2
AIGNBL0503021D
 10
0
 20
0
 30
0
  0
INSERT
  8
LAYER_5
  2
AIGNBL0503021E
 10
0
 20
0
 30
0
  0
INSERT
  8
LAYER_5
  2
AIGNBL0503021F
 10
0
 20
0
 30
0
  0
INSERT
  8
LAYER_5
  2
AIGNBL05030220
 10
0
 20
0
 30
0
  0
INSERT
  8
LAYER_5
  2
AIGNBL05030221
 10
0
 20
0
 30
0
  0
INSERT
  8
LAYER_5
  2
AIGNBL05030222
 10
0
 20
0
 30
0
  0
INSERT
  8
LAYER_5
  2
AIGNBL05030223
 10
0
 20
0
 30
0
  0
INSERT
  8
LAYER_5
  2
AIGNBL05030224
 10
0
 20
0
 30
0
  0
INSERT
  8
LAYER_5
  2
AIGNBL05030225
 10
0
 20
0
 30
0
  0
INSERT
  8
LAYER_5
  2
AIGNBL05030226
 10
0
 20
0
 30
0
  0
INSERT
  8
LAYER_5
  2
AIGNBL05030227
 10
0
 20
0
 30
0
  0
INSERT
  8
LAYER_5
  2
AIGNBL05030228
 10
0
 20
0
 30
0
  0
INSERT
  8
LAYER_5
  2
AIGNBL05030229
 10
0
 20
0
 30
0
  0
INSERT
  8
LAYER_5
  2
AIGNBL0503022A
 10
0
 20
0
 30
0
  0
INSERT
  8
LAYER_5
  2
AIGNBL0503022B
 10
0
 20
0
 30
0
  0
INSERT
  8
LAYER_5
  2
AIGNBL0503022C
 10
0
 20
0
 30
0
  0
INSERT
  8
LAYER_5
  2
AIGNBL0503022D
 10
0
 20
0
 30
0
  0
INSERT
  8
LAYER_5
  2
AIGNBL0503022E
 10
0
 20
0
 30
0
  0
INSERT
  8
LAYER_5
  2
AIGNBL0503022F
 10
0
 20
0
 30
0
  0
INSERT
  8
LAYER_5
  2
AIGNBL05030230
 10
0
 20
0
 30
0
  0
INSERT
  8
LAYER_5
  2
AIGNBL05030231
 10
0
 20
0
 30
0
  0
INSERT
  8
LAYER_5
  2
AIGNBL05030232
 10
0
 20
0
 30
0
  0
INSERT
  8
LAYER_5
  2
AIGNBL05030233
 10
0
 20
0
 30
0
  0
INSERT
  8
LAYER_5
  2
AIGNBL05030234
 10
0
 20
0
 30
0
  0
INSERT
  8
LAYER_5
  2
AIGNBL05030235
 10
0
 20
0
 30
0
  0
INSERT
  8
LAYER_5
  2
AIGNBL05030236
 10
0
 20
0
 30
0
  0
INSERT
  8
LAYER_5
  2
AIGNBL05030237
 10
0
 20
0
 30
0
  0
INSERT
  8
LAYER_5
  2
AIGNBL05030238
 10
0
 20
0
 30
0
  0
INSERT
  8
LAYER_5
  2
AIGNBL05030239
 10
0
 20
0
 30
0
  0
INSERT
  8
LAYER_5
  2
AIGNBL0503023A
 10
0
 20
0
 30
0
  0
INSERT
  8
LAYER_5
  2
AIGNBL0503023B
 10
0
 20
0
 30
0
  0
INSERT
  8
LAYER_5
  2
AIGNBL0503023C
 10
0
 20
0
 30
0
  0
INSERT
  8
LAYER_5
  2
AIGNBL0503023D
 10
0
 20
0
 30
0
  0
INSERT
  8
LAYER_5
  2
AIGNBL0503023E
 10
0
 20
0
 30
0
  0
ENDBLK
  0
BLOCK
  8
LAYER_5
  2
AIGNBL0502023F
 70
64
 10
0
 20
0
 30
0
  3
AIGNBL0502023F
  0
INSERT
  8
LAYER_5
  2
AIGNBL05030240
 10
0
 20
0
 30
0
  0
ENDBLK
  0
BLOCK
  8
LAYER_5
  2
AIGNBL05020246
 70
64
 10
0
 20
0
 30
0
  3
AIGNBL05020246
  0
POLYLINE
  8
LAYER_5
  6
AIGENLINE002
 40
0.1058
 41
0.1058
 66
1
 10
0
 20
0
 30
0
 70
128
  0
VERTEX
  8
LAYER_5
 10
128.8266
 20
197.9455
  0
VERTEX
  8
LAYER_5
 10
106.5334
 20
197.9455
  0
SEQEND
  0
ENDBLK
  0
BLOCK
  8
LAYER_5
  2
AIGNBL05020247
 70
64
 10
0
 20
0
 30
0
  3
AIGNBL05020247
  0
POLYLINE
  8
LAYER_5
  6
AIGENLINE002
 40
0.1058
 41
0.1058
 66
1
 10
0
 20
0
 30
0
 70
128
  0
VERTEX
  8
LAYER_5
 10
124.9047
 20
201.8674
  0
VERTEX
  8
LAYER_5
 10
124.9047
 20
194.0243
  0
SEQEND
  0
ENDBLK
  0
BLOCK
  8
LAYER_5
  2
AIGNBL05020248
 70
64
 10
0
 20
0
 30
0
  3
AIGNBL05020248
  0
POLYLINE
  8
LAYER_5
 40
0.1058
 41
0.1058
 66
1
 10
0
 20
0
 30
0
  0
VERTEX
  8
LAYER_5
 10
110.0908
 20
171.1151
  0
VERTEX
  8
LAYER_5
 10
114.8485
 20
171.1151
  0
SEQEND
  0
ENDBLK
  0
BLOCK
  8
LAYER_5
  2
AIGNBL05020249
 70
64
 10
0
 20
0
 30
0
  3
AIGNBL05020249
  0
POLYLINE
  8
LAYER_5
  6
AIGENLINE001
 40
0.1058
 41
0.1058
 66
1
 10
0
 20
0
 30
0
 70
128
  0
VERTEX
  8
LAYER_5
 10
75.9189
 20
140.6929
  0
VERTEX
  8
LAYER_5
 10
75.9189
 20
138.6996
  0
SEQEND
  0
ENDBLK
  0
BLOCK
  8
LAYER_5
  2
AIGNBL0502024A
 70
64
 10
0
 20
0
 30
0
  3
AIGNBL0502024A
  0
POLYLINE
  8
LAYER_5
 40
0.1058
 41
0.1058
 66
1
 10
0
 20
0
 30
0
  0
VERTEX
  8
LAYER_5
 10
73.3481
 20
138.6996
  0
VERTEX
  8
LAYER_5
 10
75.9189
 20
138.6996
  0
SEQEND
  0
ENDBLK
  0
BLOCK
  8
LAYER_5
  2
AIGNBL0502024B
 70
64
 10
0
 20
0
 30
0
  3
AIGNBL0502024B
  0
POLYLINE
  8
LAYER_5
 40
0.1058
 41
0.1058
 66
1
 10
0
 20
0
 30
0
  0
VERTEX
  8
LAYER_5
 10
73.3481
 20
138.6996
  0
VERTEX
  8
LAYER_5
 10
73.3481
 20
140.6929
  0
SEQEND
  0
ENDBLK
  0
BLOCK
  8
LAYER_5
  2
AIGNBL0502024C
 70
64
 10
0
 20
0
 30
0
  3
AIGNBL0502024C
  0
POLYLINE
  8
LAYER_5
 40
0.1058
 41
0.1058
 66
1
 10
0
 20
0
 30
0
  0
VERTEX
  8
LAYER_5
 10
73.3481
 20
140.6929
  0
VERTEX
  8
LAYER_5
 10
75.9189
 20
140.6929
  0
SEQEND
  0
ENDBLK
  0
BLOCK
  8
LAYER_5
  2
AIGNBL0502024D
 70
64
 10
0
 20
0
 30
0
  3
AIGNBL0502024D
  0
POLYLINE
  8
LAYER_5
  6
AIGENLINE001
 40
0.1058
 41
0.1058
 66
1
 10
0
 20
0
 30
0
 70
128
  0
VERTEX
  8
LAYER_5
 10
65.8909
 20
140.6929
  0
VERTEX
  8
LAYER_5
 10
65.8909
 20
138.6996
  0
SEQEND
  0
ENDBLK
  0
BLOCK
  8
LAYER_5
  2
AIGNBL0502024E
 70
64
 10
0
 20
0
 30
0
  3
AIGNBL0502024E
  0
POLYLINE
  8
LAYER_5
 40
0.1058
 41
0.1058
 66
1
 10
0
 20
0
 30
0
  0
VERTEX
  8
LAYER_5
 10
68.4616
 20
138.6996
  0
VERTEX
  8
LAYER_5
 10
65.8909
 20
138.6996
  0
SEQEND
  0
ENDBLK
  0
BLOCK
  8
LAYER_5
  2
AIGNBL0502024F
 70
64
 10
0
 20
0
 30
0
  3
AIGNBL0502024F
  0
POLYLINE
  8
LAYER_5
 40
0.1058
 41
0.1058
 66
1
 10
0
 20
0
 30
0
  0
VERTEX
  8
LAYER_5
 10
68.4616
 20
140.6929
  0
VERTEX
  8
LAYER_5
 10
68.4616
 20
138.6996
  0
SEQEND
  0
ENDBLK
  0
BLOCK
  8
LAYER_5
  2
AIGNBL05020250
 70
64
 10
0
 20
0
 30
0
  3
AIGNBL05020250
  0
POLYLINE
  8
LAYER_5
 40
0.1058
 41
0.1058
 66
1
 10
0
 20
0
 30
0
  0
VERTEX
  8
LAYER_5
 10
65.8909
 20
140.6929
  0
VERTEX
  8
LAYER_5
 10
68.4616
 20
140.6929
  0
SEQEND
  0
ENDBLK
  0
BLOCK
  8
LAYER_5
  2
AIGNBL05020251
 70
64
 10
0
 20
0
 30
0
  3
AIGNBL05020251
  0
POLYLINE
  8
LAYER_5
 40
0.1058
 41
0.1058
 66
1
 10
0
 20
0
 30
0
  0
VERTEX
  8
LAYER_5
 10
119.8907
 20
140.6929
  0
VERTEX
  8
LAYER_5
 10
122.4621
 20
140.6929
  0
SEQEND
  0
ENDBLK
  0
BLOCK
  8
LAYER_5
  2
AIGNBL05020252
 70
64
 10
0
 20
0
 30
0
  3
AIGNBL05020252
  0
POLYLINE
  8
LAYER_5
 40
0.1058
 41
0.1058
 66
1
 10
0
 20
0
 30
0
  0
VERTEX
  8
LAYER_5
 10
122.4621
 20
140.6929
  0
VERTEX
  8
LAYER_5
 10
122.4621
 20
138.6996
  0
SEQEND
  0
ENDBLK
  0
BLOCK
  8
LAYER_5
  2
AIGNBL05020253
 70
64
 10
0
 20
0
 30
0
  3
AIGNBL05020253
  0
POLYLINE
  8
LAYER_5
 40
0.1058
 41
0.1058
 66
1
 10
0
 20
0
 30
0
  0
VERTEX
  8
LAYER_5
 10
122.4621
 20
138.6996
  0
VERTEX
  8
LAYER_5
 10
119.8907
 20
138.6996
  0
SEQEND
  0
ENDBLK
  0
BLOCK
  8
LAYER_5
  2
AIGNBL05020254
 70
64
 10
0
 20
0
 30
0
  3
AIGNBL05020254
  0
POLYLINE
  8
LAYER_5
  6
AIGENLINE001
 40
0.1058
 41
0.1058
 66
1
 10
0
 20
0
 30
0
 70
128
  0
VERTEX
  8
LAYER_5
 10
119.8907
 20
140.6929
  0
VERTEX
  8
LAYER_5
 10
119.8907
 20
138.6996
  0
SEQEND
  0
ENDBLK
  0
BLOCK
  8
LAYER_5
  2
AIGNBL05020255
 70
64
 10
0
 20
0
 30
0
  3
AIGNBL05020255
  0
POLYLINE
  8
LAYER_5
 40
0.1058
 41
0.1058
 66
1
 10
0
 20
0
 30
0
  0
VERTEX
  8
LAYER_5
 10
127.3479
 20
140.6929
  0
VERTEX
  8
LAYER_5
 10
129.92
 20
140.6929
  0
SEQEND
  0
ENDBLK
  0
BLOCK
  8
LAYER_5
  2
AIGNBL05020256
 70
64
 10
0
 20
0
 30
0
  3
AIGNBL05020256
  0
POLYLINE
  8
LAYER_5
 40
0.1058
 41
0.1058
 66
1
 10
0
 20
0
 30
0
  0
VERTEX
  8
LAYER_5
 10
127.3479
 20
138.6996
  0
VERTEX
  8
LAYER_5
 10
127.3479
 20
140.6929
  0
SEQEND
  0
ENDBLK
  0
BLOCK
  8
LAYER_5
  2
AIGNBL05020257
 70
64
 10
0
 20
0
 30
0
  3
AIGNBL05020257
  0
POLYLINE
  8
LAYER_5
 40
0.1058
 41
0.1058
 66
1
 10
0
 20
0
 30
0
  0
VERTEX
  8
LAYER_5
 10
127.3479
 20
138.6996
  0
VERTEX
  8
LAYER_5
 10
129.92
 20
138.6996
  0
SEQEND
  0
ENDBLK
  0
BLOCK
  8
LAYER_5
  2
AIGNBL05020258
 70
64
 10
0
 20
0
 30
0
  3
AIGNBL05020258
  0
POLYLINE
  8
LAYER_5
  6
AIGENLINE001
 40
0.1058
 41
0.1058
 66
1
 10
0
 20
0
 30
0
 70
128
  0
VERTEX
  8
LAYER_5
 10
129.92
 20
140.6929
  0
VERTEX
  8
LAYER_5
 10
129.92
 20
138.6996
  0
SEQEND
  0
ENDBLK
  0
BLOCK
  8
LAYER_5
  2
AIGNBL05020259
 70
64
 10
0
 20
0
 30
0
  3
AIGNBL05020259
  0
POLYLINE
  8
LAYER_5
  6
AIGENLINE002
 40
0.1058
 41
0.1058
 66
1
 10
0
 20
0
 30
0
 70
128
  0
VERTEX
  8
LAYER_5
 10
70.9049
 20
174.4555
  0
VERTEX
  8
LAYER_5
 10
70.9049
 20
88.7608
  0
SEQEND
  0
ENDBLK
  0
BLOCK
  8
LAYER_5
  2
AIGNBL0502025A
 70
64
 10
0
 20
0
 30
0
  3
AIGNBL0502025A
  0
POLYLINE
  8
LAYER_5
  6
AIGENLINE002
 40
0.1058
 41
0.1058
 66
1
 10
0
 20
0
 30
0
 70
128
  0
VERTEX
  8
LAYER_5
 10
124.9047
 20
174.4555
  0
VERTEX
  8
LAYER_5
 10
124.9047
 20
134.7783
  0
SEQEND
  0
ENDBLK
  0
BLOCK
  8
LAYER_5
  2
AIGNBL0502025B
 70
64
 10
0
 20
0
 30
0
  3
AIGNBL0502025B
  0
POLYLINE
  8
LAYER_5
  6
AIGENLINE002
 40
0.1058
 41
0.1058
 66
1
 10
0
 20
0
 30
0
 70
128
  0
VERTEX
  8
LAYER_5
 10
109.5747
 20
166.6379
  0
VERTEX
  8
LAYER_5
 10
109.7807
 20
167.6067
  0
SEQEND
  0
ENDBLK
  0
BLOCK
  8
LAYER_5
  2
AIGNBL0502025C
 70
64
 10
0
 20
0
 30
0
  3
AIGNBL0502025C
  0
POLYLINE
  8
LAYER_5
  6
AIGENLINE002
 40
0.1058
 41
0.1058
 66
1
 10
0
 20
0
 30
0
 70
128
  0
VERTEX
  8
LAYER_5
 10
109.6553
 20
166.6206
  0
VERTEX
  8
LAYER_5
 10
109.6553
 20
167.0161
  0
SEQEND
  0
ENDBLK
  0
BLOCK
  8
LAYER_5
  2
AIGNBL0502025D
 70
64
 10
0
 20
0
 30
0
  3
AIGNBL0502025D
  0
POLYLINE
  8
LAYER_5
  6
AIGENLINE002
 40
0.1058
 41
0.1058
 66
1
 10
0
 20
0
 30
0
 70
128
  0
VERTEX
  8
LAYER_5
 10
109.7807
 20
167.6067
  0
VERTEX
  8
LAYER_5
 10
110.4505
 20
170.7562
  0
SEQEND
  0
ENDBLK
  0
BLOCK
  8
LAYER_5
  2
AIGNBL0502025E
 70
64
 10
0
 20
0
 30
0
  3
AIGNBL0502025E
  0
POLYLINE
  8
LAYER_5
  6
AIGENLINE002
 40
0.1058
 41
0.1058
 66
1
 10
0
 20
0
 30
0
 70
128
  0
VERTEX
  8
LAYER_5
 10
125.2237
 20
165.5789
  0
VERTEX
  8
LAYER_5
 10
107.4201
 20
169.3636
  0
SEQEND
  0
ENDBLK
  0
BLOCK
  8
LAYER_5
  2
AIGNBL0502025F
 70
64
 10
0
 20
0
 30
0
  3
AIGNBL0502025F
  0
POLYLINE
  8
LAYER_5
  6
AIGENLINE002
 40
0.1058
 41
0.1058
 66
1
 10
0
 20
0
 30
0
 70
128
  0
VERTEX
  8
LAYER_5
 10
124.7124
 20
172.6565
  0
VERTEX
  8
LAYER_5
 10
122.2044
 20
172.6565
  0
SEQEND
  0
ENDBLK
  0
BLOCK
  8
LAYER_5
  2
AIGNBL05020260
 70
64
 10
0
 20
0
 30
0
  3
AIGNBL05020260
  0
POLYLINE
  8
LAYER_5
  6
AIGENLINE002
 40
0.1058
 41
0.1058
 66
1
 10
0
 20
0
 30
0
 70
128
  0
VERTEX
  8
LAYER_5
 10
126.3503
 20
174.1758
  0
VERTEX
  8
LAYER_5
 10
124.7614
 20
170.2422
  0
SEQEND
  0
ENDBLK
  0
BLOCK
  8
LAYER_5
  2
AIGNBL05020261
 70
64
 10
0
 20
0
 30
0
  3
AIGNBL05020261
  0
POLYLINE
  8
LAYER_5
  6
AIGENLINE002
 40
0.1058
 41
0.1058
 66
1
 10
0
 20
0
 30
0
 70
128
  0
VERTEX
  8
LAYER_5
 10
123.2076
 20
171.6278
  0
VERTEX
  8
LAYER_5
 10
122.5138
 20
171.6278
  0
SEQEND
  0
ENDBLK
  0
BLOCK
  8
LAYER_5
  2
AIGNBL05020262
 70
64
 10
0
 20
0
 30
0
  3
AIGNBL05020262
  0
POLYLINE
  8
LAYER_5
  6
AIGENLINE002
 40
0.1058
 41
0.1058
 66
1
 10
0
 20
0
 30
0
 70
128
  0
VERTEX
  8
LAYER_5
 10
124.1206
 20
88.7608
  0
VERTEX
  8
LAYER_5
 10
124.1206
 20
135.1649
  0
SEQEND
  0
ENDBLK
  0
BLOCK
  8
LAYER_5
  2
AIGNBL05020263
 70
64
 10
0
 20
0
 30
0
  3
AIGNBL05020263
  0
POLYLINE
  8
LAYER_5
  6
AIGENLINE002
 40
0.1058
 41
0.1058
 66
1
 10
0
 20
0
 30
0
 70
128
  0
VERTEX
  8
LAYER_5
 10
71.7854
 20
172.6565
  0
VERTEX
  8
LAYER_5
 10
70.0243
 20
172.6565
  0
SEQEND
  0
ENDBLK
  0
BLOCK
  8
LAYER_5
  2
AIGNBL05020264
 70
64
 10
0
 20
0
 30
0
  3
AIGNBL05020264
  0
POLYLINE
  8
LAYER_5
 40
0.05
 41
0.05
 66
1
 10
0
 20
0
 30
0
 70
1
  0
VERTEX
  8
LAYER_5
 10
121.7862
 20
133.8957
  0
VERTEX
  8
LAYER_5
 10
121.2736
 20
134.192
  0
VERTEX
  8
LAYER_5
 10
122.6543
 20
135.9924
  0
SEQEND
  0
ENDBLK
  0
BLOCK
  8
LAYER_5
  2
AIGNBL05020265
 70
64
 10
0
 20
0
 30
0
  3
AIGNBL05020265
  0
POLYLINE
  8
LAYER_5
 40
0.1058
 41
0.1058
 66
1
 10
0
 20
0
 30
0
  0
VERTEX
  8
LAYER_5
 10
122.6543
 20
135.9924
  0
VERTEX
  8
LAYER_5
 10
114.9952
 20
122.7246
  0
SEQEND
  0
POLYLINE
  8
LAYER_5
 40
0.1058
 41
0.1058
 66
1
 10
0
 20
0
 30
0
  0
VERTEX
  8
LAYER_5
 10
114.9952
 20
122.7246
  0
VERTEX
  8
LAYER_5
 10
101.866
 20
122.7246
  0
SEQEND
  0
ENDBLK
  0
BLOCK
  8
LAYER_5
  2
AIGNBL05020266
 70
64
 10
0
 20
0
 30
0
  3
AIGNBL05020266
  0
POLYLINE
  8
LAYER_5
 40
0.05
 41
0.05
 66
1
 10
0
 20
0
 30
0
 70
1
  0
VERTEX
  8
LAYER_5
 10
72.9106
 20
87.3449
  0
VERTEX
  8
LAYER_5
 10
72.3966
 20
87.0493
  0
VERTEX
  8
LAYER_5
 10
71.5284
 20
89.146
  0
SEQEND
  0
ENDBLK
  0
BLOCK
  8
LAYER_5
  2
AIGNBL05020267
 70
64
 10
0
 20
0
 30
0
  3
AIGNBL05020267
  0
POLYLINE
  8
LAYER_5
 40
0.1058
 41
0.1058
 66
1
 10
0
 20
0
 30
0
  0
VERTEX
  8
LAYER_5
 10
71.5284
 20
89.146
  0
VERTEX
  8
LAYER_5
 10
73.7561
 20
85.2889
  0
SEQEND
  0
POLYLINE
  8
LAYER_5
 40
0.1058
 41
0.1058
 66
1
 10
0
 20
0
 30
0
  0
VERTEX
  8
LAYER_5
 10
73.7561
 20
85.2889
  0
VERTEX
  8
LAYER_5
 10
80.9473
 20
85.2889
  0
SEQEND
  0
ENDBLK
  0
BLOCK
  8
LAYER_5
  2
AIGNBL05020268
 70
64
 10
0
 20
0
 30
0
  3
AIGNBL05020268
  0
TEXT
  8
LAYER_5
 10
73.6141
 20
86.1374
 11
73.6141
 21
86.1374
 40
4.5696
 41
0.5
  1
G1/2
  0
ENDBLK
  0
BLOCK
  8
LAYER_5
  2
AIGNBL05020269
 70
64
 10
0
 20
0
 30
0
  3
AIGNBL05020269
  0
TEXT
  8
LAYER_5
 10
97.2227
 20
117.9573
 11
97.2227
 21
117.9573
 40
4.5696
 41
0.5
  1
M32X1,5
  0
ENDBLK
  0
BLOCK
  8
LAYER_5
  2
AIGNBL0502026A
 70
64
 10
0
 20
0
 30
0
  3
AIGNBL0502026A
  0
INSERT
  8
LAYER_5
  2
AIGNBL0503026B
 10
0
 20
0
 30
0
  0
INSERT
  8
LAYER_5
  2
AIGNBL0503026C
 10
0
 20
0
 30
0
  0
INSERT
  8
LAYER_5
  2
AIGNBL0503026D
 10
0
 20
0
 30
0
  0
INSERT
  8
LAYER_5
  2
AIGNBL0503026E
 10
0
 20
0
 30
0
  0
INSERT
  8
LAYER_5
  2
AIGNBL0503026F
 10
0
 20
0
 30
0
  0
INSERT
  8
LAYER_5
  2
AIGNBL05030270
 10
0
 20
0
 30
0
  0
INSERT
  8
LAYER_5
  2
AIGNBL05030271
 10
0
 20
0
 30
0
  0
INSERT
  8
LAYER_5
  2
AIGNBL05030272
 10
0
 20
0
 30
0
  0
ENDBLK
  0
BLOCK
  8
LAYER_5
  2
AIGNBL05020273
 70
64
 10
0
 20
0
 30
0
  3
AIGNBL05020273
  0
INSERT
  8
LAYER_5
  2
AIGNBL05030274
 10
0
 20
0
 30
0
  0
INSERT
  8
LAYER_5
  2
AIGNBL05030275
 10
0
 20
0
 30
0
  0
INSERT
  8
LAYER_5
  2
AIGNBL05030276
 10
0
 20
0
 30
0
  0
INSERT
  8
LAYER_5
  2
AIGNBL05030277
 10
0
 20
0
 30
0
  0
INSERT
  8
LAYER_5
  2
AIGNBL05030278
 10
0
 20
0
 30
0
  0
INSERT
  8
LAYER_5
  2
AIGNBL05030279
 10
0
 20
0
 30
0
  0
ENDBLK
  0
BLOCK
  8
LAYER_5
  2
AIGNBL0502027A
 70
64
 10
0
 20
0
 30
0
  3
AIGNBL0502027A
  0
INSERT
  8
LAYER_5
  2
AIGNBL0503027B
 10
0
 20
0
 30
0
  0
INSERT
  8
LAYER_5
  2
AIGNBL0503027C
 10
0
 20
0
 30
0
  0
INSERT
  8
LAYER_5
  2
AIGNBL0503027D
 10
0
 20
0
 30
0
  0
INSERT
  8
LAYER_5
  2
AIGNBL0503027E
 10
0
 20
0
 30
0
  0
INSERT
  8
LAYER_5
  2
AIGNBL0503027F
 10
0
 20
0
 30
0
  0
INSERT
  8
LAYER_5
  2
AIGNBL05030280
 10
0
 20
0
 30
0
  0
INSERT
  8
LAYER_5
  2
AIGNBL05030281
 10
0
 20
0
 30
0
  0
INSERT
  8
LAYER_5
  2
AIGNBL05030282
 10
0
 20
0
 30
0
  0
ENDBLK
  0
BLOCK
  8
LAYER_5
  2
AIGNBL05020283
 70
64
 10
0
 20
0
 30
0
  3
AIGNBL05020283
  0
INSERT
  8
LAYER_5
  2
AIGNBL05030284
 10
0
 20
0
 30
0
  0
INSERT
  8
LAYER_5
  2
AIGNBL05030285
 10
0
 20
0
 30
0
  0
INSERT
  8
LAYER_5
  2
AIGNBL05030286
 10
0
 20
0
 30
0
  0
INSERT
  8
LAYER_5
  2
AIGNBL05030287
 10
0
 20
0
 30
0
  0
INSERT
  8
LAYER_5
  2
AIGNBL05030288
 10
0
 20
0
 30
0
  0
INSERT
  8
LAYER_5
  2
AIGNBL05030289
 10
0
 20
0
 30
0
  0
INSERT
  8
LAYER_5
  2
AIGNBL0503028A
 10
0
 20
0
 30
0
  0
INSERT
  8
LAYER_5
  2
AIGNBL0503028B
 10
0
 20
0
 30
0
  0
ENDBLK
  0
BLOCK
  8
LAYER_5
  2
AIGNBL0502028C
 70
64
 10
0
 20
0
 30
0
  3
AIGNBL0502028C
  0
INSERT
  8
LAYER_5
  2
AIGNBL0503028D
 10
0
 20
0
 30
0
  0
INSERT
  8
LAYER_5
  2
AIGNBL0503028E
 10
0
 20
0
 30
0
  0
INSERT
  8
LAYER_5
  2
AIGNBL0503028F
 10
0
 20
0
 30
0
  0
INSERT
  8
LAYER_5
  2
AIGNBL05030290
 10
0
 20
0
 30
0
  0
INSERT
  8
LAYER_5
  2
AIGNBL05030291
 10
0
 20
0
 30
0
  0
INSERT
  8
LAYER_5
  2
AIGNBL05030292
 10
0
 20
0
 30
0
  0
INSERT
  8
LAYER_5
  2
AIGNBL05030293
 10
0
 20
0
 30
0
  0
INSERT
  8
LAYER_5
  2
AIGNBL05030294
 10
0
 20
0
 30
0
  0
ENDBLK
  0
BLOCK
  8
LAYER_5
  2
AIGNBL05020295
 70
64
 10
0
 20
0
 30
0
  3
AIGNBL05020295
  0
INSERT
  8
LAYER_5
  2
AIGNBL05030296
 10
0
 20
0
 30
0
  0
INSERT
  8
LAYER_5
  2
AIGNBL05030297
 10
0
 20
0
 30
0
  0
INSERT
  8
LAYER_5
  2
AIGNBL05030298
 10
0
 20
0
 30
0
  0
INSERT
  8
LAYER_5
  2
AIGNBL05030299
 10
0
 20
0
 30
0
  0
INSERT
  8
LAYER_5
  2
AIGNBL0503029A
 10
0
 20
0
 30
0
  0
INSERT
  8
LAYER_5
  2
AIGNBL0503029B
 10
0
 20
0
 30
0
  0
INSERT
  8
LAYER_5
  2
AIGNBL0503029C
 10
0
 20
0
 30
0
  0
INSERT
  8
LAYER_5
  2
AIGNBL0503029D
 10
0
 20
0
 30
0
  0
ENDBLK
  0
BLOCK
  8
LAYER_5
  2
AIGNBL0502029E
 70
64
 10
0
 20
0
 30
0
  3
AIGNBL0502029E
  0
INSERT
  8
LAYER_5
  2
AIGNBL0503029F
 10
0
 20
0
 30
0
  0
INSERT
  8
LAYER_5
  2
AIGNBL050302A0
 10
0
 20
0
 30
0
  0
INSERT
  8
LAYER_5
  2
AIGNBL050302A1
 10
0
 20
0
 30
0
  0
INSERT
  8
LAYER_5
  2
AIGNBL050302A2
 10
0
 20
0
 30
0
  0
INSERT
  8
LAYER_5
  2
AIGNBL050302A3
 10
0
 20
0
 30
0
  0
INSERT
  8
LAYER_5
  2
AIGNBL050302A4
 10
0
 20
0
 30
0
  0
ENDBLK
  0
BLOCK
  8
LAYER_5
  2
AIGNBL050202A5
 70
64
 10
0
 20
0
 30
0
  3
AIGNBL050202A5
  0
INSERT
  8
LAYER_5
  2
AIGNBL050302A6
 10
0
 20
0
 30
0
  0
INSERT
  8
LAYER_5
  2
AIGNBL050302A7
 10
0
 20
0
 30
0
  0
INSERT
  8
LAYER_5
  2
AIGNBL050302A8
 10
0
 20
0
 30
0
  0
INSERT
  8
LAYER_5
  2
AIGNBL050302A9
 10
0
 20
0
 30
0
  0
INSERT
  8
LAYER_5
  2
AIGNBL050302AA
 10
0
 20
0
 30
0
  0
INSERT
  8
LAYER_5
  2
AIGNBL050302AB
 10
0
 20
0
 30
0
  0
INSERT
  8
LAYER_5
  2
AIGNBL050302AC
 10
0
 20
0
 30
0
  0
INSERT
  8
LAYER_5
  2
AIGNBL050302AD
 10
0
 20
0
 30
0
  0
ENDBLK
  0
BLOCK
  8
LAYER_5
  2
AIGNBL050202AE
 70
64
 10
0
 20
0
 30
0
  3
AIGNBL050202AE
  0
INSERT
  8
LAYER_5
  2
AIGNBL050302AF
 10
0
 20
0
 30
0
  0
INSERT
  8
LAYER_5
  2
AIGNBL050302B0
 10
0
 20
0
 30
0
  0
INSERT
  8
LAYER_5
  2
AIGNBL050302B1
 10
0
 20
0
 30
0
  0
INSERT
  8
LAYER_5
  2
AIGNBL050302B2
 10
0
 20
0
 30
0
  0
INSERT
  8
LAYER_5
  2
AIGNBL050302B3
 10
0
 20
0
 30
0
  0
INSERT
  8
LAYER_5
  2
AIGNBL050302B4
 10
0
 20
0
 30
0
  0
ENDBLK
  0
BLOCK
  8
LAYER_5
  2
AIGNBL050202B5
 70
64
 10
0
 20
0
 30
0
  3
AIGNBL050202B5
  0
INSERT
  8
LAYER_5
  2
AIGNBL050302B6
 10
0
 20
0
 30
0
  0
INSERT
  8
LAYER_5
  2
AIGNBL050302B7
 10
0
 20
0
 30
0
  0
INSERT
  8
LAYER_5
  2
AIGNBL050302B8
 10
0
 20
0
 30
0
  0
INSERT
  8
LAYER_5
  2
AIGNBL050302B9
 10
0
 20
0
 30
0
  0
INSERT
  8
LAYER_5
  2
AIGNBL050302BA
 10
0
 20
0
 30
0
  0
INSERT
  8
LAYER_5
  2
AIGNBL050302BB
 10
0
 20
0
 30
0
  0
ENDBLK
  0
BLOCK
  8
LAYER_5
  2
AIGNBL050202BC
 70
64
 10
0
 20
0
 30
0
  3
AIGNBL050202BC
  0
INSERT
  8
LAYER_5
  2
AIGNBL050302BD
 10
0
 20
0
 30
0
  0
INSERT
  8
LAYER_5
  2
AIGNBL050302BE
 10
0
 20
0
 30
0
  0
INSERT
  8
LAYER_5
  2
AIGNBL050302BF
 10
0
 20
0
 30
0
  0
INSERT
  8
LAYER_5
  2
AIGNBL050302C0
 10
0
 20
0
 30
0
  0
INSERT
  8
LAYER_5
  2
AIGNBL050302C1
 10
0
 20
0
 30
0
  0
INSERT
  8
LAYER_5
  2
AIGNBL050302C2
 10
0
 20
0
 30
0
  0
ENDBLK
  0
BLOCK
  8
LAYER_5
  2
AIGNBL050202C3
 70
64
 10
0
 20
0
 30
0
  3
AIGNBL050202C3
  0
INSERT
  8
LAYER_5
  2
AIGNBL050302C4
 10
0
 20
0
 30
0
  0
INSERT
  8
LAYER_5
  2
AIGNBL050302C5
 10
0
 20
0
 30
0
  0
INSERT
  8
LAYER_5
  2
AIGNBL050302C6
 10
0
 20
0
 30
0
  0
INSERT
  8
LAYER_5
  2
AIGNBL050302C7
 10
0
 20
0
 30
0
  0
INSERT
  8
LAYER_5
  2
AIGNBL050302C8
 10
0
 20
0
 30
0
  0
INSERT
  8
LAYER_5
  2
AIGNBL050302C9
 10
0
 20
0
 30
0
  0
INSERT
  8
LAYER_5
  2
AIGNBL050302CA
 10
0
 20
0
 30
0
  0
INSERT
  8
LAYER_5
  2
AIGNBL050302CB
 10
0
 20
0
 30
0
  0
ENDBLK
  0
BLOCK
  8
LAYER_5
  2
AIGNBL050202CC
 70
64
 10
0
 20
0
 30
0
  3
AIGNBL050202CC
  0
POLYLINE
  8
LAYER_5
 40
0.05
 41
0.05
 66
1
 10
0
 20
0
 30
0
 70
1
  0
VERTEX
  8
LAYER_5
 10
68.4616
 20
140.6929
  0
VERTEX
  8
LAYER_5
 10
68.4616
 20
138.6996
  0
VERTEX
  8
LAYER_5
 10
65.8909
 20
138.6996
  0
VERTEX
  8
LAYER_5
 10
65.8909
 20
140.6929
  0
SEQEND
  0
INSERT
  8
LAYER_5
  2
AIGNBL050302CD
 10
0
 20
0
 30
0
  0
ENDBLK
  0
BLOCK
  8
LAYER_5
  2
AIGNBL050202CE
 70
64
 10
0
 20
0
 30
0
  3
AIGNBL050202CE
  0
POLYLINE
  8
LAYER_5
 40
0.05
 41
0.05
 66
1
 10
0
 20
0
 30
0
 70
1
  0
VERTEX
  8
LAYER_5
 10
75.9189
 20
140.6929
  0
VERTEX
  8
LAYER_5
 10
75.9189
 20
138.6996
  0
VERTEX
  8
LAYER_5
 10
73.3481
 20
138.6996
  0
VERTEX
  8
LAYER_5
 10
73.3481
 20
140.6929
  0
SEQEND
  0
INSERT
  8
LAYER_5
  2
AIGNBL050302CF
 10
0
 20
0
 30
0
  0
ENDBLK
  0
BLOCK
  8
LAYER_5
  2
AIGNBL050202D0
 70
64
 10
0
 20
0
 30
0
  3
AIGNBL050202D0
  0
POLYLINE
  8
LAYER_5
 40
0.05
 41
0.05
 66
1
 10
0
 20
0
 30
0
 70
1
  0
VERTEX
  8
LAYER_5
 10
122.4621
 20
140.6929
  0
VERTEX
  8
LAYER_5
 10
122.4621
 20
138.6996
  0
VERTEX
  8
LAYER_5
 10
119.8907
 20
138.6996
  0
VERTEX
  8
LAYER_5
 10
119.8907
 20
140.6929
  0
SEQEND
  0
INSERT
  8
LAYER_5
  2
AIGNBL050302D1
 10
0
 20
0
 30
0
  0
ENDBLK
  0
BLOCK
  8
LAYER_5
  2
AIGNBL050202D2
 70
64
 10
0
 20
0
 30
0
  3
AIGNBL050202D2
  0
POLYLINE
  8
LAYER_5
 40
0.05
 41
0.05
 66
1
 10
0
 20
0
 30
0
 70
1
  0
VERTEX
  8
LAYER_5
 10
129.92
 20
140.6929
  0
VERTEX
  8
LAYER_5
 10
129.92
 20
138.6996
  0
VERTEX
  8
LAYER_5
 10
127.3479
 20
138.6996
  0
VERTEX
  8
LAYER_5
 10
127.3479
 20
140.6929
  0
SEQEND
  0
INSERT
  8
LAYER_5
  2
AIGNBL050302D3
 10
0
 20
0
 30
0
  0
ENDBLK
  0
BLOCK
  8
LAYER_5
  2
AIGNBL05010002
 70
64
 10
0
 20
0
 30
0
  3
AIGNBL05010002
  0
POLYLINE
  8
LAYER_5
 40
0.7056
 41
0.7056
 66
1
 10
0
 20
0
 30
0
 70
1
  0
VERTEX
  8
LAYER_5
 10
251.6749
 20
230.337
  0
VERTEX
  8
LAYER_5
 10
251.6749
 20
33.3285
  0
VERTEX
  8
LAYER_5
 10
-30.3177
 20
33.3285
  0
VERTEX
  8
LAYER_5
 10
-30.3177
 20
230.337
  0
SEQEND
  0
ENDBLK
  0
BLOCK
  8
LAYER_5
  2
AIGNBL05010003
 70
64
 10
0
 20
0
 30
0
  3
AIGNBL05010003
  0
INSERT
  8
LAYER_5
  2
AIGNBL05020004
 10
0
 20
0
 30
0
  0
INSERT
  8
LAYER_5
  2
AIGNBL0502000D
 10
0
 20
0
 30
0
  0
ENDBLK
  0
BLOCK
  8
LAYER_5
  2
AIGNBL05010025
 70
64
 10
0
 20
0
 30
0
  3
AIGNBL05010025
  0
INSERT
  8
LAYER_5
  2
AIGNBL05020026
 10
0
 20
0
 30
0
  0
INSERT
  8
LAYER_5
  2
AIGNBL05020027
 10
0
 20
0
 30
0
  0
INSERT
  8
LAYER_5
  2
AIGNBL05020030
 10
0
 20
0
 30
0
  0
INSERT
  8
LAYER_5
  2
AIGNBL05020037
 10
0
 20
0
 30
0
  0
INSERT
  8
LAYER_5
  2
AIGNBL0502004A
 10
0
 20
0
 30
0
  0
INSERT
  8
LAYER_5
  2
AIGNBL050200DB
 10
0
 20
0
 30
0
  0
INSERT
  8
LAYER_5
  2
AIGNBL050200E7
 10
0
 20
0
 30
0
  0
INSERT
  8
LAYER_5
  2
AIGNBL050200FF
 10
0
 20
0
 30
0
  0
INSERT
  8
LAYER_5
  2
AIGNBL05020108
 10
0
 20
0
 30
0
  0
INSERT
  8
LAYER_5
  2
AIGNBL05020196
 10
0
 20
0
 30
0
  0
INSERT
  8
LAYER_5
  2
AIGNBL050201C1
 10
0
 20
0
 30
0
  0
INSERT
  8
LAYER_5
  2
AIGNBL050201CE
 10
0
 20
0
 30
0
  0
INSERT
  8
LAYER_5
  2
AIGNBL0502020E
 10
0
 20
0
 30
0
  0
INSERT
  8
LAYER_5
  2
AIGNBL0502023F
 10
0
 20
0
 30
0
  0
INSERT
  8
LAYER_5
  2
AIGNBL05020246
 10
0
 20
0
 30
0
  0
INSERT
  8
LAYER_5
  2
AIGNBL05020247
 10
0
 20
0
 30
0
  0
INSERT
  8
LAYER_5
  2
AIGNBL05020248
 10
0
 20
0
 30
0
  0
INSERT
  8
LAYER_5
  2
AIGNBL05020249
 10
0
 20
0
 30
0
  0
INSERT
  8
LAYER_5
  2
AIGNBL0502024A
 10
0
 20
0
 30
0
  0
INSERT
  8
LAYER_5
  2
AIGNBL0502024B
 10
0
 20
0
 30
0
  0
INSERT
  8
LAYER_5
  2
AIGNBL0502024C
 10
0
 20
0
 30
0
  0
INSERT
  8
LAYER_5
  2
AIGNBL0502024D
 10
0
 20
0
 30
0
  0
INSERT
  8
LAYER_5
  2
AIGNBL0502024E
 10
0
 20
0
 30
0
  0
INSERT
  8
LAYER_5
  2
AIGNBL0502024F
 10
0
 20
0
 30
0
  0
INSERT
  8
LAYER_5
  2
AIGNBL05020250
 10
0
 20
0
 30
0
  0
INSERT
  8
LAYER_5
  2
AIGNBL05020251
 10
0
 20
0
 30
0
  0
INSERT
  8
LAYER_5
  2
AIGNBL05020252
 10
0
 20
0
 30
0
  0
INSERT
  8
LAYER_5
  2
AIGNBL05020253
 10
0
 20
0
 30
0
  0
INSERT
  8
LAYER_5
  2
AIGNBL05020254
 10
0
 20
0
 30
0
  0
INSERT
  8
LAYER_5
  2
AIGNBL05020255
 10
0
 20
0
 30
0
  0
INSERT
  8
LAYER_5
  2
AIGNBL05020256
 10
0
 20
0
 30
0
  0
INSERT
  8
LAYER_5
  2
AIGNBL05020257
 10
0
 20
0
 30
0
  0
INSERT
  8
LAYER_5
  2
AIGNBL05020258
 10
0
 20
0
 30
0
  0
INSERT
  8
LAYER_5
  2
AIGNBL05020259
 10
0
 20
0
 30
0
  0
INSERT
  8
LAYER_5
  2
AIGNBL0502025A
 10
0
 20
0
 30
0
  0
INSERT
  8
LAYER_5
  2
AIGNBL0502025B
 10
0
 20
0
 30
0
  0
INSERT
  8
LAYER_5
  2
AIGNBL0502025C
 10
0
 20
0
 30
0
  0
INSERT
  8
LAYER_5
  2
AIGNBL0502025D
 10
0
 20
0
 30
0
  0
INSERT
  8
LAYER_5
  2
AIGNBL0502025E
 10
0
 20
0
 30
0
  0
INSERT
  8
LAYER_5
  2
AIGNBL0502025F
 10
0
 20
0
 30
0
  0
INSERT
  8
LAYER_5
  2
AIGNBL05020260
 10
0
 20
0
 30
0
  0
INSERT
  8
LAYER_5
  2
AIGNBL05020261
 10
0
 20
0
 30
0
  0
INSERT
  8
LAYER_5
  2
AIGNBL05020262
 10
0
 20
0
 30
0
  0
INSERT
  8
LAYER_5
  2
AIGNBL05020263
 10
0
 20
0
 30
0
  0
INSERT
  8
LAYER_5
  2
AIGNBL05020264
 10
0
 20
0
 30
0
  0
INSERT
  8
LAYER_5
  2
AIGNBL05020265
 10
0
 20
0
 30
0
  0
INSERT
  8
LAYER_5
  2
AIGNBL05020266
 10
0
 20
0
 30
0
  0
INSERT
  8
LAYER_5
  2
AIGNBL05020267
 10
0
 20
0
 30
0
  0
INSERT
  8
LAYER_5
  2
AIGNBL05020268
 10
0
 20
0
 30
0
  0
INSERT
  8
LAYER_5
  2
AIGNBL05020269
 10
0
 20
0
 30
0
  0
INSERT
  8
LAYER_5
  2
AIGNBL0502026A
 10
0
 20
0
 30
0
  0
INSERT
  8
LAYER_5
  2
AIGNBL05020273
 10
0
 20
0
 30
0
  0
INSERT
  8
LAYER_5
  2
AIGNBL0502027A
 10
0
 20
0
 30
0
  0
INSERT
  8
LAYER_5
  2
AIGNBL05020283
 10
0
 20
0
 30
0
  0
INSERT
  8
LAYER_5
  2
AIGNBL0502028C
 10
0
 20
0
 30
0
  0
INSERT
  8
LAYER_5
  2
AIGNBL05020295
 10
0
 20
0
 30
0
  0
INSERT
  8
LAYER_5
  2
AIGNBL0502029E
 10
0
 20
0
 30
0
  0
INSERT
  8
LAYER_5
  2
AIGNBL050202A5
 10
0
 20
0
 30
0
  0
INSERT
  8
LAYER_5
  2
AIGNBL050202AE
 10
0
 20
0
 30
0
  0
INSERT
  8
LAYER_5
  2
AIGNBL050202B5
 10
0
 20
0
 30
0
  0
INSERT
  8
LAYER_5
  2
AIGNBL050202BC
 10
0
 20
0
 30
0
  0
INSERT
  8
LAYER_5
  2
AIGNBL050202C3
 10
0
 20
0
 30
0
  0
INSERT
  8
LAYER_5
  2
AIGNBL050202CC
 10
0
 20
0
 30
0
  0
INSERT
  8
LAYER_5
  2
AIGNBL050202CE
 10
0
 20
0
 30
0
  0
INSERT
  8
LAYER_5
  2
AIGNBL050202D0
 10
0
 20
0
 30
0
  0
INSERT
  8
LAYER_5
  2
AIGNBL050202D2
 10
0
 20
0
 30
0
  0
ENDBLK
  0
ENDSEC
  0
SECTION
  2
ENTITIES
  0
TEXT
  8
LAYER_5
 10
-26.2556
 20
43.1712
 11
-26.2556
 21
43.1712
 40
3.2995
 41
0.5
  1
仕様
  0
POLYLINE
  8
LAYER_5
 40
0.3528
 41
0.3528
 66
1
 10
0
 20
0
 30
0
  0
VERTEX
  8
LAYER_5
 10
250.6748
 20
51.9507
  0
VERTEX
  8
LAYER_5
 10
-29.3178
 20
51.9507
  0
SEQEND
  0
INSERT
  8
LAYER_5
  2
AIGNBL05010002
 10
0
 20
0
 30
0
  0
POLYLINE
  8
LAYER_5
 40
0.3528
 41
0.3528
 66
1
 10
0
 20
0
 30
0
  0
VERTEX
  8
LAYER_5
 10
-29.3178
 20
229.3369
  0
VERTEX
  8
LAYER_5
 10
-29.3178
 20
34.3283
  0
VERTEX
  8
LAYER_5
 10
250.6748
 20
34.3283
  0
VERTEX
  8
LAYER_5
 10
250.6748
 20
229.3369
  0
VERTEX
  8
LAYER_5
 10
-29.3178
 20
229.3369
  0
SEQEND
  0
POLYLINE
  8
LAYER_5
 40
0.3528
 41
0.3528
 66
1
 10
0
 20
0
 30
0
  0
VERTEX
  8
LAYER_5
 10
250.6748
 20
60.4597
  0
VERTEX
  8
LAYER_5
 10
-29.3178
 20
60.4597
  0
SEQEND
  0
POLYLINE
  8
LAYER_5
 40
0.3528
 41
0.3528
 66
1
 10
0
 20
0
 30
0
  0
VERTEX
  8
LAYER_5
 10
250.6748
 20
43.4416
  0
VERTEX
  8
LAYER_5
 10
143.5341
 20
43.4416
  0
SEQEND
  0
TEXT
  8
LAYER_5
 10
188.1725
 20
45.7175
 11
188.1725
 21
45.7175
 40
3.7615
 41
0.5
  1
-
  0
TEXT
  8
LAYER_5
 10
182.8808
 20
49.4743
 11
182.8808
 21
49.4743
 40
2.1997
 41
0.5
  1
縮尺
  0
POLYLINE
  8
LAYER_5
 40
0.3528
 41
0.3528
 66
1
 10
0
 20
0
 30
0
  0
VERTEX
  8
LAYER_5
 10
181.3526
 20
43.4416
  0
VERTEX
  8
LAYER_5
 10
181.3526
 20
51.9507
  0
SEQEND
  0
TEXT
  8
LAYER_5
 10
144.2327
 20
57.9834
 11
144.2327
 21
57.9834
 40
2.1997
 41
0.5
  1
品番
  0
TEXT
  8
LAYER_5
 10
-28.1609
 20
57.9834
 11
-28.1609
 21
57.9834
 40
2.1997
 41
0.5
  1
品名
  0
TEXT
  8
LAYER_5
 10
144.2327
 20
49.4743
 11
144.2327
 21
49.4743
 40
2.1997
 41
0.5
  1
重量
  0
TEXT
  8
LAYER_5
 10
150.2547
 20
54.1617
 11
150.2547
 21
54.1617
 40
5.2926
 41
0.5
  1
AQ-Y50750H-2T-DJP-13/AQ-Y50750H-2T-13
  0
POLYLINE
  8
LAYER_5
 40
0.3528
 41
0.3528
 66
1
 10
0
 20
0
 30
0
  0
VERTEX
  8
LAYER_5
 10
143.5341
 20
34.9539
  0
VERTEX
  8
LAYER_5
 10
143.5341
 20
60.4597
  0
SEQEND
  0
TEXT
  8
LAYER_5
 10
-15.3736
 20
54.891
 11
-15.3736
 21
54.891
 40
3.6373
 41
0.5
  1
コラムトール単水栓
  0
TEXT
  8
LAYER_5
 10
-15.6835
 20
45.3736
 11
-15.6835
 21
45.3736
 40
3.5541
 41
0.5
  1
●泡沫吐水●定流量機能付（約5L/min）
  0
TEXT
  8
LAYER_5
 10
237.263
 20
63.2582
 11
237.263
 21
63.2582
 40
2.9618
 41
0.5
  1
単位：mm
  0
TEXT
  8
LAYER_5
 10
176.0254
 20
39.5359
 11
176.0254
 21
39.5359
 40
3.3853
 41
0.5
  1
●TEL 0120-65-1232●FAX 06-6532-1580
  0
TEXT
  8
LAYER_5
 10
176.0254
 20
36.0212
 11
176.0254
 21
36.0212
 40
3.3853
 41
0.5
  1
hits@hiratatile.co.jp
  0
TEXT
  8
LAYER_5
 10
240.3591
 20
225.8432
 11
240.3591
 21
225.8432
 40
2.0732
 41
0.5
  1
170616RT
  0
INSERT
  8
LAYER_5
  2
AIGNBL05010003
 10
0
 20
0
 30
0
  0
TEXT
  8
LAYER_5
 10
157.2803
 20
46.4933
 11
157.2803
 21
46.4933
 40
3.7615
 41
0.5
  1
-
  0
INSERT
  8
LAYER_5
  2
AIGNBL05010025
 10
0
 20
0
 30
0
  0
ENDSEC
  0
EOF
