  0
SECTION
  2
HEADER
  9
$ACADVER
  1
AC1009
  9
$INSBASE
 10
0.0
 20
0.0
 30
0.0
  9
$EXTMIN
 10
-4.70052
 20
-21.071400000000001
 30
0.0
  9
$EXTMAX
 10
205.30099999999999
 20
275.93099999999998
 30
0.0
  9
$LIMMIN
 10
0.0
 20
0.0
  9
$LIMMAX
 10
12.0
 20
9.0
  9
$ORTHOMODE
 70
     0
  9
$REGENMODE
 70
     1
  9
$FILLMODE
 70
     1
  9
$QTEXTMODE
 70
     0
  9
$MIRRTEXT
 70
     1
  9
$DRAGMODE
 70
     2
  9
$LTSCALE
 40
1.0
  9
$OSMODE
 70
    37
  9
$ATTMODE
 70
     1
  9
$TEXTSIZE
 40
0.0
  9
$TRACEWID
 40
0.05
  9
$TEXTSTYLE
  7
STANDARD
  9
$CLAYER
  8
0
  9
$CELTYPE
  6
CONTINUOUS
  9
$CECOLOR
 62
   256
  9
$DIMSCALE
 40
1.0
  9
$DIMASZ
 40
0.18
  9
$DIMEXO
 40
0.0625
  9
$DIMDLI
 40
0.38
  9
$DIMRND
 40
0.0
  9
$DIMDLE
 40
0.0
  9
$DIMEXE
 40
0.18
  9
$DIMTP
 40
0.0
  9
$DIMTM
 40
0.0
  9
$DIMTXT
 40
0.18
  9
$DIMCEN
 40
0.09
  9
$DIMTSZ
 40
0.0
  9
$DIMTOL
 70
     0
  9
$DIMLIM
 70
     0
  9
$DIMTIH
 70
     1
  9
$DIMTOH
 70
     1
  9
$DIMSE1
 70
     0
  9
$DIMSE2
 70
     0
  9
$DIMTAD
 70
     0
  9
$DIMZIN
 70
     0
  9
$DIMBLK
  1

  9
$DIMASO
 70
     1
  9
$DIMSHO
 70
     1
  9
$DIMPOST
  1

  9
$DIMAPOST
  1

  9
$DIMALT
 70
     0
  9
$DIMALTD
 70
     2
  9
$DIMALTF
 40
25.399999999999999
  9
$DIMLFAC
 40
1.0
  9
$DIMTOFL
 70
     0
  9
$DIMTVP
 40
0.0
  9
$DIMTIX
 70
     0
  9
$DIMSOXD
 70
     0
  9
$DIMSAH
 70
     0
  9
$DIMBLK1
  1

  9
$DIMBLK2
  1

  9
$DIMSTYLE
  2
STANDARD
  9
$DIMCLRD
 70
     0
  9
$DIMCLRE
 70
     0
  9
$DIMCLRT
 70
     0
  9
$DIMTFAC
 40
1.0
  9
$DIMGAP
 40
0.09
  9
$LUNITS
 70
     2
  9
$LUPREC
 70
     4
  9
$SKETCHINC
 40
0.1
  9
$FILLETRAD
 40
0.0
  9
$AUNITS
 70
     0
  9
$AUPREC
 70
     0
  9
$MENU
  1
.
  9
$ELEVATION
 40
0.0
  9
$PELEVATION
 40
0.0
  9
$THICKNESS
 40
0.0
  9
$LIMCHECK
 70
     0
  9
$BLIPMODE
 70
     0
  9
$CHAMFERA
 40
0.0
  9
$CHAMFERB
 40
0.0
  9
$SKPOLY
 70
     0
  9
$TDCREATE
 40
2444972.375
  9
$TDUPDATE
 40
2458034.248740695
  9
$TDINDWG
 40
0.0000319329
  9
$TDUSRTIMER
 40
0.0000319329
  9
$USRTIMER
 70
     1
  9
$ANGBASE
 50
0.0
  9
$ANGDIR
 70
     0
  9
$PDMODE
 70
     0
  9
$PDSIZE
 40
0.0
  9
$PLINEWID
 40
0.0
  9
$COORDS
 70
     1
  9
$SPLFRAME
 70
     0
  9
$SPLINETYPE
 70
     6
  9
$SPLINESEGS
 70
     8
  9
$ATTDIA
 70
     1
  9
$ATTREQ
 70
     1
  9
$HANDLING
 70
     1
  9
$HANDSEED
  5
54D
  9
$SURFTAB1
 70
     6
  9
$SURFTAB2
 70
     6
  9
$SURFTYPE
 70
     6
  9
$SURFU
 70
     6
  9
$SURFV
 70
     6
  9
$UCSNAME
  2

  9
$UCSORG
 10
0.0
 20
0.0
 30
0.0
  9
$UCSXDIR
 10
1.0
 20
0.0
 30
0.0
  9
$UCSYDIR
 10
0.0
 20
1.0
 30
0.0
  9
$PUCSNAME
  2

  9
$PUCSORG
 10
0.0
 20
0.0
 30
0.0
  9
$PUCSXDIR
 10
1.0
 20
0.0
 30
0.0
  9
$PUCSYDIR
 10
0.0
 20
1.0
 30
0.0
  9
$USERI1
 70
     0
  9
$USERI2
 70
     0
  9
$USERI3
 70
     0
  9
$USERI4
 70
     0
  9
$USERI5
 70
     0
  9
$USERR1
 40
0.0
  9
$USERR2
 40
0.0
  9
$USERR3
 40
0.0
  9
$USERR4
 40
0.0
  9
$USERR5
 40
0.0
  9
$WORLDVIEW
 70
     1
  9
$SHADEDGE
 70
     3
  9
$SHADEDIF
 70
    70
  9
$TILEMODE
 70
     1
  9
$MAXACTVP
 70
    48
  9
$PLIMCHECK
 70
     0
  9
$PEXTMIN
 10
1.0000000000000000E+020
 20
1.0000000000000000E+020
 30
1.0000000000000000E+020
  9
$PEXTMAX
 10
-1.0000000000000000E+020
 20
-1.0000000000000000E+020
 30
-1.0000000000000000E+020
  9
$PLIMMIN
 10
0.0
 20
0.0
  9
$PLIMMAX
 10
12.0
 20
9.0
  9
$UNITMODE
 70
     0
  9
$VISRETAIN
 70
     1
  9
$PLINEGEN
 70
     0
  9
$PSLTSCALE
 70
     1
  0
ENDSEC
  0
SECTION
  2
TABLES
  0
TABLE
  2
VPORT
 70
     1
  0
VPORT
  2
*ACTIVE
 70
     0
 10
0.0
 20
0.0
 11
1.0
 21
1.0
 12
190.8818955579932
 22
127.4298
 13
0.0
 23
0.0
 14
1.0
 24
1.0
 15
0.0
 25
0.0
 16
0.0
 26
0.0
 36
1.0
 17
0.0
 27
0.0
 37
0.0
 40
280.9492874949953
 41
2.298642533936651
 42
50.0
 43
0.0
 44
0.0
 50
0.0
 51
0.0
 71
     0
 72
   100
 73
     1
 74
     1
 75
     0
 76
     0
 77
     0
 78
     0
  0
ENDTAB
  0
TABLE
  2
LTYPE
 70
     4
  0
LTYPE
  2
CONTINUOUS
 70
     0
  3
Solid line
 72
    65
 73
     0
 40
0.0
  0
LTYPE
  2
AIGENLINE001
 70
     0
  3
generate AI->DXF Converter
 72
    65
 73
     2
 40
1.5522299999999991
 49
0.776115
 49
-0.776115
  0
LTYPE
  2
AIGENLINE002
 70
     0
  3
generate AI->DXF Converter
 72
    65
 73
     4
 40
5.8561449999999988
 49
3.5278
 49
-0.776115
 49
0.776115
 49
-0.776115
  0
LTYPE
  2
AIGENLINE003
 70
     0
  3
generate AI->DXF Converter
 72
    65
 73
     6
 40
7.4083750000000004
 49
3.5278
 49
-0.776115
 49
0.776115
 49
-0.776115
 49
0.776115
 49
-0.776115
  0
ENDTAB
  0
TABLE
  2
LAYER
 70
     4
  0
LAYER
  2
0
 70
     0
 62
     7
  6
CONTINUOUS
  0
LAYER
  2
____
 70
     0
 62
     7
  6
CONTINUOUS
  0
LAYER
  2
_________1
 70
     0
 62
     7
  6
CONTINUOUS
  0
LAYER
  2
_________2
 70
     0
 62
     7
  6
CONTINUOUS
  0
ENDTAB
  0
TABLE
  2
STYLE
 70
     1
  0
STYLE
  2
STANDARD
 70
     0
 40
0.0
 41
0.0
 50
0.0
 71
     0
 42
0.0
  3
TXT
  4
EXTFONT.SHX
  0
ENDTAB
  0
TABLE
  2
VIEW
 70
     0
  0
ENDTAB
  0
TABLE
  2
UCS
 70
     0
  0
ENDTAB
  0
TABLE
  2
APPID
 70
     3
  0
APPID
  2
ACAD
 70
     0
  0
APPID
  2
ACAD_NAV_VCDISPLAY
 70
     0
  0
APPID
  2
ACAD_MLEADERVER
 70
     0
  0
ENDTAB
  0
TABLE
  2
DIMSTYLE
 70
     1
  0
DIMSTYLE
  2
STANDARD
 70
     0
  3

  4

  5

  6

  7

 40
1.0
 41
0.18
 42
0.0625
 43
0.38
 44
0.18
 45
0.0
 46
0.0
 47
0.0
 48
0.0
140
0.18
141
0.09
142
0.0
143
25.399999999999999
144
1.0
145
0.0
146
1.0
147
0.09
 71
     0
 72
     0
 73
     1
 74
     1
 75
     0
 76
     0
 77
     0
 78
     0
170
     0
171
     2
172
     0
173
     0
174
     0
175
     0
176
     0
177
     0
178
     0
  0
ENDTAB
  0
ENDSEC
  0
SECTION
  2
BLOCKS
  0
BLOCK
  8
0
  2
$MODEL_SPACE
 70
     0
 10
0.0
 20
0.0
 30
0.0
  3
$MODEL_SPACE
  1

  0
ENDBLK
  5
1A
  8
0
  0
BLOCK
 67
     1
  8
0
  2
$PAPER_SPACE
 70
     0
 10
0.0
 20
0.0
 30
0.0
  3
$PAPER_SPACE
  1

  0
ENDBLK
  5
17
 67
     1
  8
0
  0
BLOCK
  8
____
  2
AIGNBL01010002
 70
     0
 10
0.0
 20
0.0
 30
0.0
  3
AIGNBL01010002
  1

  0
TEXT
  5
28
  8
____
 62
     7
 10
142.44213500000001
 20
75.721299999999999
 30
0.0
 40
3.0923400000000001
  1
200
 41
0.5
 72
     1
 11
144.24600000000001
 21
75.721299999999999
 31
0.0
  0
ENDBLK
  5
29
  8
____
  0
BLOCK
  8
____
  2
AIGNBL01010003
 70
     0
 10
0.0
 20
0.0
 30
0.0
  3
AIGNBL01010003
  1

  0
TEXT
  5
2C
  8
____
 62
     7
 10
46.000934999999991
 20
75.721299999999999
 30
0.0
 40
3.0923400000000001
  1
200
 41
0.5
 72
     1
 11
47.804799999999993
 21
75.721299999999999
 31
0.0
  0
ENDBLK
  5
2D
  8
____
  0
BLOCK
  8
____
  2
AIGNBL01010004
 70
     0
 10
0.0
 20
0.0
 30
0.0
  3
AIGNBL01010004
  1

  0
TEXT
  5
30
  8
____
 62
     7
 10
78.813599999999994
 20
105.28005
 30
0.0
 40
3.0923400000000001
  1
29
 50
90.0
 41
0.5
 72
     2
 11
78.813599999999994
 21
107.857
 31
0.0
  0
ENDBLK
  5
31
  8
____
  0
BLOCK
  8
____
  2
AIGNBL01010005
 70
     0
 10
0.0
 20
0.0
 30
0.0
  3
AIGNBL01010005
  1

  0
TEXT
  5
34
  8
____
 62
     7
 10
95.030499999999989
 20
93.714034999999996
 30
0.0
 40
3.0923400000000001
  1
125
 50
90.0
 41
0.5
 72
     1
 11
95.030499999999989
 21
95.517899999999997
 31
0.0
  0
ENDBLK
  5
35
  8
____
  0
BLOCK
  8
____
  2
AIGNBL01010006
 70
     0
 10
0.0
 20
0.0
 30
0.0
  3
AIGNBL01010006
  1

  0
TEXT
  5
38
  8
____
 62
     7
 10
30.98
 20
74.532399999999996
 30
0.0
 40
3.0923400000000001
  1
max.40
 50
90.0
 41
0.5
  0
ENDBLK
  5
39
  8
____
  0
BLOCK
  8
____
  2
AIGNBL01010007
 70
     0
 10
0.0
 20
0.0
 30
0.0
  3
AIGNBL01010007
  1

  0
TEXT
  5
3C
  8
____
 62
     7
 10
106.94199999999999
 20
92.720534999999998
 30
0.0
 40
3.0923400000000001
  1
145
 50
90.0
 41
0.5
 72
     1
 11
106.94199999999999
 21
94.524400000000014
 31
0.0
  0
ENDBLK
  5
3D
  8
____
  0
BLOCK
  8
____
  2
AIGNBL01010008
 70
     0
 10
0.0
 20
0.0
 30
0.0
  3
AIGNBL01010008
  1

  0
TEXT
  5
40
  8
____
 62
     7
 10
55.1477
 20
94.944982500000009
 30
0.0
 40
3.0923400000000001
  1
105
 50
90.0
 41
0.5
 72
     1
 11
55.1477
 21
96.620000000000005
 31
0.0
  0
ENDBLK
  5
41
  8
____
  0
BLOCK
  8
____
  2
AIGNBL01010009
 70
     0
 10
0.0
 20
0.0
 30
0.0
  3
AIGNBL01010009
  1

  0
TEXT
  5
44
  8
____
 62
     7
 10
151.786
 20
178.31399999999999
 30
0.0
 40
3.0923400000000001
  1
9
 41
0.5
  0
ENDBLK
  5
45
  8
____
  0
BLOCK
  8
____
  2
AIGNBL0101000A
 70
     0
 10
0.0
 20
0.0
 30
0.0
  3
AIGNBL0101000A
  1

  0
TEXT
  5
48
  8
____
 62
     7
 10
144.87544
 20
169.41
 30
0.0
 40
3.0923400000000001
  1
254
 41
0.5
 72
     1
 11
146.93700000000001
 21
169.41
 31
0.0
  0
ENDBLK
  5
49
  8
____
  0
BLOCK
  8
____
  2
AIGNBL0101000B
 70
     0
 10
0.0
 20
0.0
 30
0.0
  3
AIGNBL0101000B
  1

  0
TEXT
  5
4C
  8
____
 62
     7
 10
144.154
 20
201.346
 30
0.0
 40
3.0923400000000001
  1
R46
 41
0.5
  0
ENDBLK
  5
4D
  8
____
  0
BLOCK
  8
____
  2
AIGNBL0101000C
 70
     0
 10
0.0
 20
0.0
 30
0.0
  3
AIGNBL0101000C
  1

  0
TEXT
  5
50
  8
____
 62
     7
 10
148.393
 20
189.02099999999999
 30
0.0
 40
3.0923400000000001
  1
R40
 41
0.5
  0
ENDBLK
  5
51
  8
____
  0
BLOCK
  8
____
  2
AIGNBL0101000D
 70
     0
 10
0.0
 20
0.0
 30
0.0
  3
AIGNBL0101000D
  1

  0
TEXT
  5
54
  8
____
 62
     7
 10
161.7844399999999
 20
205.09100000000001
 30
0.0
 40
3.0923400000000001
  1
13
 41
0.5
 72
     2
 11
163.846
 21
205.09100000000001
 31
0.0
  0
ENDBLK
  5
55
  8
____
  0
BLOCK
  8
____
  2
AIGNBL0101000E
 70
     0
 10
0.0
 20
0.0
 30
0.0
  3
AIGNBL0101000E
  1

  0
TEXT
  5
58
  8
____
 62
     7
 10
143.7942875
 20
210.57599999999999
 30
0.0
 40
3.0923400000000001
  1
230
 41
0.5
 72
     1
 11
145.727
 21
210.57599999999999
 31
0.0
  0
ENDBLK
  5
59
  8
____
  0
BLOCK
  8
____
  2
AIGNBL0101000F
 70
     0
 10
0.0
 20
0.0
 30
0.0
  3
AIGNBL0101000F
  1

  0
TEXT
  5
5C
  8
____
 62
     7
 10
134.79234450000001
 20
162.62299999999999
 30
0.0
 40
3.0923400000000001
  1
（420）
 41
0.5
 72
     1
 11
138.63200000000001
 21
162.62299999999999
 31
0.0
  0
ENDBLK
  5
5D
  8
____
  0
BLOCK
  8
____
  2
AIGNBL01010010
 70
     0
 10
0.0
 20
0.0
 30
0.0
  3
AIGNBL01010010
  1

  0
TEXT
  5
60
  8
____
 62
     7
 10
167.63800000000001
 20
184.71752499999991
 30
0.0
 40
3.0923400000000001
  1
56
 50
90.0
 41
0.5
 72
     1
 11
167.63800000000001
 21
186.006
 31
0.0
  0
ENDBLK
  5
61
  8
____
  0
BLOCK
  8
____
  2
AIGNBL01010011
 70
     0
 10
0.0
 20
0.0
 30
0.0
  3
AIGNBL01010011
  1

  0
TEXT
  5
64
  8
____
 62
     7
 10
176.572
 20
199.8100499999999
 30
0.0
 40
3.0923400000000001
  1
27
 50
90.0
 41
0.5
 72
     2
 11
176.572
 21
202.387
 31
0.0
  0
ENDBLK
  5
65
  8
____
  0
BLOCK
  8
____
  2
AIGNBL01010012
 70
     0
 10
0.0
 20
0.0
 30
0.0
  3
AIGNBL01010012
  1

  0
TEXT
  5
68
  8
____
 62
     7
 10
176.572
 20
187.009525
 30
0.0
 40
3.0923400000000001
  1
97
 50
90.0
 41
0.5
 72
     1
 11
176.572
 21
188.298
 31
0.0
  0
ENDBLK
  5
69
  8
____
  0
BLOCK
  8
____
  2
AIGNBL01010013
 70
     0
 10
0.0
 20
0.0
 30
0.0
  3
AIGNBL01010013
  1

  0
TEXT
  5
6C
  8
____
 62
     7
 10
94.115399999999994
 20
196.90483
 30
0.0
 40
3.0923400000000001
  1
100
 50
90.0
 41
0.5
 72
     1
 11
94.115399999999994
 21
198.45099999999999
 31
0.0
  0
ENDBLK
  5
6D
  8
____
  0
BLOCK
  8
____
  2
AIGNBL01010014
 70
     0
 10
0.0
 20
0.0
 30
0.0
  3
AIGNBL01010014
  1

  0
TEXT
  5
70
  8
____
 62
     7
 10
35.535587999999997
 20
215.50399999999999
 30
0.0
 40
3.0923400000000001
  1
メーカーロゴ
 41
0.5
 72
     2
 11
46.25569999999999
 21
215.50399999999999
 31
0.0
  0
ENDBLK
  5
71
  8
____
  0
BLOCK
  8
____
  2
AIGNBL01010015
 70
     0
 10
0.0
 20
0.0
 30
0.0
  3
AIGNBL01010015
  1

  0
TEXT
  5
74
  8
____
 62
     7
 10
126.116
 20
171.60499999999999
 30
0.0
 40
3.0923400000000001
  1
R73
 41
0.5
  0
ENDBLK
  5
75
  8
____
  0
BLOCK
  8
____
  2
AIGNBL01010016
 70
     0
 10
0.0
 20
0.0
 30
0.0
  3
AIGNBL01010016
  1

  0
TEXT
  5
78
  8
____
 62
     7
 10
55.885687500000003
 20
156.11699999999999
 30
0.0
 40
3.0923400000000001
  1
390
 41
0.5
 72
     1
 11
57.81839999999999
 21
156.11699999999999
 31
0.0
  0
ENDBLK
  5
79
  8
____
  0
BLOCK
  8
____
  2
AIGNBL01010017
 70
     0
 10
0.0
 20
0.0
 30
0.0
  3
AIGNBL01010017
  1

  0
TEXT
  5
7C
  8
____
 62
     7
 10
55.506740000000001
 20
149.41499999999999
 30
0.0
 40
3.0923400000000001
  1
395
 41
0.5
 72
     1
 11
57.568300000000001
 21
149.41499999999999
 31
0.0
  0
ENDBLK
  5
7D
  8
____
  0
BLOCK
  8
____
  2
AIGNBL01010018
 70
     0
 10
0.0
 20
0.0
 30
0.0
  3
AIGNBL01010018
  1

  0
TEXT
  5
80
  8
____
 62
     7
 10
57.506540000000001
 20
210.78
 30
0.0
 40
3.0923400000000001
  1
435
 41
0.5
 72
     1
 11
59.568100000000001
 21
210.78
 31
0.0
  0
ENDBLK
  5
81
  8
____
  0
BLOCK
  8
____
  2
AIGNBL01010019
 70
     0
 10
0.0
 20
0.0
 30
0.0
  3
AIGNBL01010019
  1

  0
TEXT
  5
84
  8
____
 62
     7
 10
59.299034999999989
 20
142.636
 30
0.0
 40
3.0923400000000001
  1
500
 41
0.5
 72
     1
 11
61.102899999999991
 21
142.636
 31
0.0
  0
ENDBLK
  5
85
  8
____
  0
BLOCK
  8
____
  2
AIGNBL0101001A
 70
     0
 10
0.0
 20
0.0
 30
0.0
  3
AIGNBL0101001A
  1

  0
TEXT
  5
88
  8
____
 62
     7
 10
30.544799999999999
 20
181.51328749999999
 30
0.0
 40
3.0923400000000001
  1
390
 50
90.0
 41
0.5
 72
     1
 11
30.544799999999999
 21
183.446
 31
0.0
  0
ENDBLK
  5
89
  8
____
  0
BLOCK
  8
____
  2
AIGNBL0101001B
 70
     0
 10
0.0
 20
0.0
 30
0.0
  3
AIGNBL0101001B
  1

  0
TEXT
  5
8C
  8
____
 62
     7
 10
24.144600000000001
 20
181.642135
 30
0.0
 40
3.0923400000000001
  1
400
 50
90.0
 41
0.5
 72
     1
 11
24.144600000000001
 21
183.446
 31
0.0
  0
ENDBLK
  5
8D
  8
____
  0
BLOCK
  8
____
  2
AIGNBL0101001C
 70
     0
 10
0.0
 20
0.0
 30
0.0
  3
AIGNBL0101001C
  1

  0
TEXT
  5
90
  8
____
 62
     7
 10
100.09699999999999
 20
186.53643999999991
 30
0.0
 40
3.0923400000000001
  1
295
 50
90.0
 41
0.5
 72
     1
 11
100.09699999999999
 21
188.59800000000001
 31
0.0
  0
ENDBLK
  5
91
  8
____
  0
BLOCK
  8
____
  2
AIGNBL0101001D
 70
     0
 10
0.0
 20
0.0
 30
0.0
  3
AIGNBL0101001D
  1

  0
TEXT
  5
94
  8
____
 62
     7
 10
159.304
 20
214.97900000000001
 30
0.0
 40
3.0923400000000001
  1
水栓取付穴
 41
0.5
  0
ENDBLK
  5
95
  8
____
  0
BLOCK
  8
____
  2
AIGNBL0101001E
 70
     0
 10
0.0
 20
0.0
 30
0.0
  3
AIGNBL0101001E
  1

  0
TEXT
  5
98
  8
____
 62
     7
 10
123.326178
 20
198.02600000000001
 30
0.0
 40
3.0923400000000001
  1
排水口
 41
0.5
 72
     2
 11
128.37700000000001
 21
198.02600000000001
 31
0.0
  0
ENDBLK
  5
99
  8
____
  0
BLOCK
  8
____
  2
AIGNBL0101001F
 70
     0
 10
0.0
 20
0.0
 30
0.0
  3
AIGNBL0101001F
  1

  0
TEXT
  5
9C
  8
____
 62
     7
 10
170.35626999999999
 20
175.42099999999999
 30
0.0
 40
3.0923400000000001
  1
%%c16
 41
0.5
 72
     2
 11
173.964
 21
175.42099999999999
 31
0.0
  0
ENDBLK
  5
9D
  8
____
  0
BLOCK
  8
____
  2
AIGNBL01010020
 70
     0
 10
0.0
 20
0.0
 30
0.0
  3
AIGNBL01010020
  1

  0
TEXT
  5
A0
  8
____
 62
     7
 10
112.99827000000001
 20
190.21700000000001
 30
0.0
 40
3.0923400000000001
  1
%%c16
 41
0.5
 72
     2
 11
116.60599999999999
 21
190.21700000000001
 31
0.0
  0
ENDBLK
  5
A1
  8
____
  0
BLOCK
  8
_________1
  2
AIGNBL02010002
 70
     0
 10
0.0
 20
0.0
 30
0.0
  3
AIGNBL02010002
  1

  0
ARC
  5
A4
  8
_________1
 62
     7
 10
84.014068999999992
 20
85.608276000000004
 30
0.0
 40
0.051495
 50
91.985318000000007
 51
176.40079399999999
  0
ARC
  5
A5
  8
_________1
 62
     7
 10
83.762360999999984
 20
85.607545999999999
 30
0.0
 40
0.052217
 50
91.722341
 51
173.36956699999999
  0
LINE
  5
A6
  8
_________1
 62
     7
 10
84.863900000000001
 20
85.659700000000001
 30
0.0
 11
84.012299999999996
 21
85.659700000000001
 31
0.0
  0
LINE
  5
A7
  8
_________1
 62
     7
 10
84.012299999999996
 20
85.659700000000001
 30
0.0
 11
83.760799999999989
 21
85.659700000000001
 31
0.0
  0
LINE
  5
A8
  8
_________1
 62
     7
 10
83.913799999999995
 20
84.259600000000006
 30
0.0
 11
83.962699999999984
 21
85.611500000000007
 31
0.0
  0
LINE
  5
A9
  8
_________1
 62
     7
 10
83.61399999999999
 20
84.259600000000006
 30
0.0
 11
83.710499999999996
 21
85.613600000000005
 31
0.0
  0
LINE
  5
AA
  8
_________1
 62
     7
 10
84.914199999999994
 20
86.060100000000006
 30
0.0
 11
84.863900000000001
 21
85.659700000000001
 31
0.0
  0
LINE
  5
AB
  8
_________1
 62
     7
 10
83.913799999999995
 20
84.259600000000006
 30
0.0
 11
83.61399999999999
 21
84.259600000000006
 31
0.0
  0
LINE
  5
AC
  8
_________1
 62
     7
 10
83.61399999999999
 20
84.259600000000006
 30
0.0
 11
83.314300000000003
 21
84.259600000000006
 31
0.0
  0
LINE
  5
AD
  8
_________1
 62
     7
 10
84.914199999999994
 20
86.060100000000006
 30
0.0
 11
83.314300000000003
 21
86.060100000000006
 31
0.0
  0
LINE
  5
AE
  8
_________1
 62
     7
 10
83.713899999999995
 20
89.360100000000017
 30
0.0
 11
83.713899999999995
 21
86.060100000000006
 31
0.0
  0
LINE
  5
AF
  8
_________1
 62
     7
 10
83.713899999999995
 20
82.459900000000005
 30
0.0
 11
83.314300000000003
 21
82.459900000000005
 31
0.0
  0
LINE
  5
B0
  8
_________1
 62
     7
 10
83.713899999999995
 20
84.259600000000006
 30
0.0
 11
83.713899999999995
 21
82.459900000000005
 31
0.0
  0
ARC
  5
B1
  8
_________1
 62
     7
 10
82.614086999999998
 20
85.607782999999998
 30
0.0
 40
0.05198
 50
4.1101479999999997
 51
88.293508000000003
  0
ARC
  5
B2
  8
_________1
 62
     7
 10
82.866262000000006
 20
85.608331000000007
 30
0.0
 40
0.051433
 50
5.8528669999999989
 51
88.267343999999994
  0
LINE
  5
B3
  8
_________1
 62
     7
 10
81.763999999999996
 20
85.659700000000001
 30
0.0
 11
82.615600000000015
 21
85.659700000000001
 31
0.0
  0
LINE
  5
B4
  8
_________1
 62
     7
 10
82.615600000000015
 20
85.659700000000001
 30
0.0
 11
82.867800000000003
 21
85.659700000000001
 31
0.0
  0
LINE
  5
B5
  8
_________1
 62
     7
 10
82.714200000000005
 20
84.259600000000006
 30
0.0
 11
82.665899999999979
 21
85.611500000000007
 31
0.0
  0
LINE
  5
B6
  8
_________1
 62
     7
 10
83.013900000000007
 20
84.259600000000006
 30
0.0
 11
82.917400000000001
 21
85.613600000000005
 31
0.0
  0
LINE
  5
B7
  8
_________1
 62
     7
 10
81.714399999999998
 20
86.060100000000006
 30
0.0
 11
81.763999999999996
 21
85.659700000000001
 31
0.0
  0
LINE
  5
B8
  8
_________1
 62
     7
 10
82.714200000000005
 20
84.259600000000006
 30
0.0
 11
83.013900000000007
 21
84.259600000000006
 31
0.0
  0
LINE
  5
B9
  8
_________1
 62
     7
 10
83.013900000000007
 20
84.259600000000006
 30
0.0
 11
83.314300000000003
 21
84.259600000000006
 31
0.0
  0
LINE
  5
BA
  8
_________1
 62
     7
 10
81.714399999999998
 20
86.060100000000006
 30
0.0
 11
83.314300000000003
 21
86.060100000000006
 31
0.0
  0
LINE
  5
BB
  8
_________1
 62
     7
 10
82.914000000000016
 20
89.360100000000017
 30
0.0
 11
82.914000000000016
 21
86.060100000000006
 31
0.0
  0
LINE
  5
BC
  8
_________1
 62
     7
 10
82.914000000000016
 20
82.459900000000005
 30
0.0
 11
83.314300000000003
 21
82.459900000000005
 31
0.0
  0
LINE
  5
BD
  8
_________1
 62
     7
 10
82.914000000000016
 20
84.259600000000006
 30
0.0
 11
82.914000000000016
 21
82.459900000000005
 31
0.0
  0
ENDBLK
  5
BE
  8
_________1
  0
BLOCK
  8
_________1
  2
AIGNBL02010003
 70
     0
 10
0.0
 20
0.0
 30
0.0
  3
AIGNBL02010003
  1

  0
ARC
  5
C1
  8
_________1
 62
     7
 10
42.013787999999991
 20
85.608271000000002
 30
0.0
 40
0.051501
 50
91.990864000000016
 51
176.3952469999999
  0
ARC
  5
C2
  8
_________1
 62
     7
 10
41.762075000000003
 20
85.607545999999999
 30
0.0
 40
0.052217
 50
91.722341
 51
173.36956699999999
  0
LINE
  5
C3
  8
_________1
 62
     7
 10
42.863599999999998
 20
85.659700000000001
 30
0.0
 11
42.012
 21
85.659700000000001
 31
0.0
  0
LINE
  5
C4
  8
_________1
 62
     7
 10
42.012
 20
85.659700000000001
 30
0.0
 11
41.7605
 21
85.659700000000001
 31
0.0
  0
LINE
  5
C5
  8
_________1
 62
     7
 10
41.913499999999992
 20
84.259600000000006
 30
0.0
 11
41.962400000000002
 21
85.611500000000007
 31
0.0
  0
LINE
  5
C6
  8
_________1
 62
     7
 10
41.613700000000001
 20
84.259600000000006
 30
0.0
 11
41.7102
 21
85.613600000000005
 31
0.0
  0
LINE
  5
C7
  8
_________1
 62
     7
 10
42.913899999999991
 20
86.060100000000006
 30
0.0
 11
42.863599999999998
 21
85.659700000000001
 31
0.0
  0
LINE
  5
C8
  8
_________1
 62
     7
 10
41.913499999999992
 20
84.259600000000006
 30
0.0
 11
41.613700000000001
 21
84.259600000000006
 31
0.0
  0
LINE
  5
C9
  8
_________1
 62
     7
 10
41.613700000000001
 20
84.259600000000006
 30
0.0
 11
41.313999999999993
 21
84.259600000000006
 31
0.0
  0
LINE
  5
CA
  8
_________1
 62
     7
 10
42.913899999999991
 20
86.060100000000006
 30
0.0
 11
41.313999999999993
 21
86.060100000000006
 31
0.0
  0
LINE
  5
CB
  8
_________1
 62
     7
 10
41.713700000000003
 20
89.360100000000017
 30
0.0
 11
41.713700000000003
 21
86.060100000000006
 31
0.0
  0
LINE
  5
CC
  8
_________1
 62
     7
 10
41.713700000000003
 20
82.459900000000005
 30
0.0
 11
41.313999999999993
 21
82.459900000000005
 31
0.0
  0
LINE
  5
CD
  8
_________1
 62
     7
 10
41.713700000000003
 20
84.259600000000006
 30
0.0
 11
41.713700000000003
 21
82.459900000000005
 31
0.0
  0
ARC
  5
CE
  8
_________1
 62
     7
 10
40.613801000000002
 20
85.607782999999998
 30
0.0
 40
0.05198
 50
4.1101479999999997
 51
88.293508000000003
  0
ARC
  5
CF
  8
_________1
 62
     7
 10
40.865976000000003
 20
85.608331000000007
 30
0.0
 40
0.051433
 50
5.8528669999999989
 51
88.267343999999994
  0
LINE
  5
D0
  8
_________1
 62
     7
 10
39.7637
 20
85.659700000000001
 30
0.0
 11
40.615299999999998
 21
85.659700000000001
 31
0.0
  0
LINE
  5
D1
  8
_________1
 62
     7
 10
40.615299999999998
 20
85.659700000000001
 30
0.0
 11
40.8675
 21
85.659700000000001
 31
0.0
  0
LINE
  5
D2
  8
_________1
 62
     7
 10
40.713900000000002
 20
84.259600000000006
 30
0.0
 11
40.665599999999991
 21
85.611500000000007
 31
0.0
  0
LINE
  5
D3
  8
_________1
 62
     7
 10
41.01359999999999
 20
84.259600000000006
 30
0.0
 11
40.917099999999991
 21
85.613600000000005
 31
0.0
  0
LINE
  5
D4
  8
_________1
 62
     7
 10
39.714100000000002
 20
86.060100000000006
 30
0.0
 11
39.7637
 21
85.659700000000001
 31
0.0
  0
LINE
  5
D5
  8
_________1
 62
     7
 10
40.713900000000002
 20
84.259600000000006
 30
0.0
 11
41.01359999999999
 21
84.259600000000006
 31
0.0
  0
LINE
  5
D6
  8
_________1
 62
     7
 10
41.01359999999999
 20
84.259600000000006
 30
0.0
 11
41.313999999999993
 21
84.259600000000006
 31
0.0
  0
LINE
  5
D7
  8
_________1
 62
     7
 10
39.714100000000002
 20
86.060100000000006
 30
0.0
 11
41.313999999999993
 21
86.060100000000006
 31
0.0
  0
LINE
  5
D8
  8
_________1
 62
     7
 10
40.913699999999999
 20
89.360100000000017
 30
0.0
 11
40.913699999999999
 21
86.060100000000006
 31
0.0
  0
LINE
  5
D9
  8
_________1
 62
     7
 10
40.913699999999999
 20
82.459900000000005
 30
0.0
 11
41.313999999999993
 21
82.459900000000005
 31
0.0
  0
LINE
  5
DA
  8
_________1
 62
     7
 10
40.913699999999999
 20
84.259600000000006
 30
0.0
 11
40.913699999999999
 21
82.459900000000005
 31
0.0
  0
ENDBLK
  5
DB
  8
_________1
  0
BLOCK
  8
_________1
  2
AIGNBL02010004
 70
     0
 10
0.0
 20
0.0
 30
0.0
  3
AIGNBL02010004
  1

  0
LINE
  5
DE
  8
_________1
 62
     7
 10
136.536
 20
75.613799999999983
 30
0.0
 11
134.3239999999999
 21
75.021199999999993
 31
0.0
  0
LINE
  5
DF
  8
_________1
 62
     7
 10
134.3239999999999
 20
75.021199999999993
 30
0.0
 11
136.536
 21
74.428700000000006
 31
0.0
  0
LINE
  5
E0
  8
_________1
 62
     7
 10
136.536
 20
74.428700000000006
 30
0.0
 11
136.536
 21
75.613799999999983
 31
0.0
  0
LINE
  5
E1
  8
_________1
 62
     7
 10
152.14599999999999
 20
74.428700000000006
 30
0.0
 11
154.357
 21
75.021199999999993
 31
0.0
  0
LINE
  5
E2
  8
_________1
 62
     7
 10
154.357
 20
75.021199999999993
 30
0.0
 11
152.14599999999999
 21
75.613799999999983
 31
0.0
  0
LINE
  5
E3
  8
_________1
 62
     7
 10
152.14599999999999
 20
75.613799999999983
 30
0.0
 11
152.14599999999999
 21
74.428700000000006
 31
0.0
  0
LINE
  5
E4
  8
_________1
 62
     7
 10
134.3239999999999
 20
75.021199999999993
 30
0.0
 11
154.357
 21
75.021199999999993
 31
0.0
  0
ENDBLK
  5
E5
  8
_________1
  0
BLOCK
  8
_________1
  2
AIGNBL02010005
 70
     0
 10
0.0
 20
0.0
 30
0.0
  3
AIGNBL02010005
  1

  0
LINE
  5
E8
  8
_________1
 62
     7
 10
40.097399999999993
 20
75.613799999999983
 30
0.0
 11
37.886000000000003
 21
75.021199999999993
 31
0.0
  0
LINE
  5
E9
  8
_________1
 62
     7
 10
37.886000000000003
 20
75.021199999999993
 30
0.0
 11
40.097399999999993
 21
74.428700000000006
 31
0.0
  0
LINE
  5
EA
  8
_________1
 62
     7
 10
40.097399999999993
 20
74.428700000000006
 30
0.0
 11
40.097399999999993
 21
75.613799999999983
 31
0.0
  0
LINE
  5
EB
  8
_________1
 62
     7
 10
55.702399999999997
 20
74.428700000000006
 30
0.0
 11
57.913800000000002
 21
75.021199999999993
 31
0.0
  0
LINE
  5
EC
  8
_________1
 62
     7
 10
57.913800000000002
 20
75.021199999999993
 30
0.0
 11
55.702399999999997
 21
75.613799999999983
 31
0.0
  0
LINE
  5
ED
  8
_________1
 62
     7
 10
55.702399999999997
 20
75.613799999999983
 30
0.0
 11
55.702399999999997
 21
74.428700000000006
 31
0.0
  0
LINE
  5
EE
  8
_________1
 62
     7
 10
37.886000000000003
 20
75.021199999999993
 30
0.0
 11
57.913800000000002
 21
75.021199999999993
 31
0.0
  0
ENDBLK
  5
EF
  8
_________1
  0
BLOCK
  8
_________1
  2
AIGNBL02010006
 70
     0
 10
0.0
 20
0.0
 30
0.0
  3
AIGNBL02010006
  1

  0
LINE
  5
F2
  8
_________1
 62
     7
 10
78.194199999999995
 20
191.06899999999999
 30
0.0
 11
80.175799999999995
 21
192.214
 31
0.0
  0
LINE
  5
F3
  8
_________1
 62
     7
 10
80.175799999999995
 20
192.214
 30
0.0
 11
79.031999999999996
 21
190.232
 31
0.0
  0
LINE
  5
F4
  8
_________1
 62
     7
 10
79.031999999999996
 20
190.232
 30
0.0
 11
78.194199999999995
 21
191.06899999999999
 31
0.0
  0
LINE
  5
F5
  8
_________1
 62
     7
 10
84.632400000000004
 20
195.833
 30
0.0
 11
82.650800000000004
 21
194.68899999999999
 31
0.0
  0
LINE
  5
F6
  8
_________1
 62
     7
 10
82.650800000000004
 20
194.68899999999999
 30
0.0
 11
83.794599999999988
 21
196.67099999999999
 31
0.0
  0
LINE
  5
F7
  8
_________1
 62
     7
 10
83.794599999999988
 20
196.67099999999999
 30
0.0
 11
84.632400000000004
 21
195.833
 31
0.0
  0
LINE
  5
F8
  8
_________1
 62
     7
 10
94.510900000000007
 20
206.54900000000001
 30
0.0
 11
77.3446
 21
189.38200000000001
 31
0.0
  0
ENDBLK
  5
F9
  8
_________1
  0
BLOCK
  8
_________1
  2
AIGNBL02010007
 70
     0
 10
0.0
 20
0.0
 30
0.0
  3
AIGNBL02010007
  1

  0
LINE
  5
FC
  8
_________1
 62
     7
 10
61.521900000000002
 20
180.678
 30
0.0
 11
59.540199999999992
 21
181.822
 31
0.0
  0
LINE
  5
FD
  8
_________1
 62
     7
 10
59.540199999999992
 20
181.822
 30
0.0
 11
60.683999999999997
 21
179.84
 31
0.0
  0
LINE
  5
FE
  8
_________1
 62
     7
 10
60.683999999999997
 20
179.84
 30
0.0
 11
61.521900000000002
 21
180.678
 31
0.0
  0
LINE
  5
FF
  8
_________1
 62
     7
 10
54.305700000000002
 20
186.21899999999999
 30
0.0
 11
56.287399999999998
 21
185.07499999999999
 31
0.0
  0
LINE
  5
100
  8
_________1
 62
     7
 10
56.287399999999998
 20
185.07499999999999
 30
0.0
 11
55.143599999999992
 21
187.05699999999999
 31
0.0
  0
LINE
  5
101
  8
_________1
 62
     7
 10
55.143599999999992
 20
187.05699999999999
 30
0.0
 11
54.305700000000002
 21
186.21899999999999
 31
0.0
  0
LINE
  5
102
  8
_________1
 62
     7
 10
53.481699999999989
 20
187.88099999999989
 30
0.0
 11
63.618600000000001
 21
177.744
 31
0.0
  0
ENDBLK
  5
103
  8
_________1
  0
BLOCK
  8
_________1
  2
AIGNBL02010008
 70
     0
 10
0.0
 20
0.0
 30
0.0
  3
AIGNBL02010008
  1

  0
LINE
  5
106
  8
_________1
 62
     7
 10
155.983
 20
198.30799999999999
 30
0.0
 11
154.84700000000001
 21
200.29599999999999
 31
0.0
  0
LINE
  5
107
  8
_________1
 62
     7
 10
154.84700000000001
 20
200.29599999999999
 30
0.0
 11
154.83699999999999
 21
198.00599999999989
 31
0.0
  0
LINE
  5
108
  8
_________1
 62
     7
 10
154.83699999999999
 20
198.00599999999989
 30
0.0
 11
155.983
 21
198.30799999999999
 31
0.0
  0
LINE
  5
109
  8
_________1
 62
     7
 10
154.85599999999999
 20
200.298
 30
0.0
 11
156.02600000000001
 21
195.84899999999999
 31
0.0
  0
ENDBLK
  5
10A
  8
_________1
  0
BLOCK
  8
_________1
  2
AIGNBL02010009
 70
     0
 10
0.0
 20
0.0
 30
0.0
  3
AIGNBL02010009
  1

  0
LINE
  5
10D
  8
_________1
 62
     7
 10
100.20399999999999
 20
176.15000000000001
 30
0.0
 11
100.797
 21
173.93899999999999
 31
0.0
  0
LINE
  5
10E
  8
_________1
 62
     7
 10
100.797
 20
173.93899999999999
 30
0.0
 11
101.389
 21
176.15000000000001
 31
0.0
  0
LINE
  5
10F
  8
_________1
 62
     7
 10
101.389
 20
176.15000000000001
 30
0.0
 11
100.20399999999999
 21
176.15000000000001
 31
0.0
  0
LINE
  5
110
  8
_________1
 62
     7
 10
101.389
 20
201.24000000000001
 30
0.0
 11
100.797
 21
203.45099999999999
 31
0.0
  0
LINE
  5
111
  8
_________1
 62
     7
 10
100.797
 20
203.45099999999999
 30
0.0
 11
100.20399999999999
 21
201.24000000000001
 31
0.0
  0
LINE
  5
112
  8
_________1
 62
     7
 10
100.20399999999999
 20
201.24000000000001
 30
0.0
 11
101.389
 21
201.24000000000001
 31
0.0
  0
LINE
  5
113
  8
_________1
 62
     7
 10
100.797
 20
173.93899999999999
 30
0.0
 11
100.797
 21
203.45099999999999
 31
0.0
  0
ENDBLK
  5
114
  8
_________1
  0
BLOCK
  8
_________1
  2
AIGNBL0201000A
 70
     0
 10
0.0
 20
0.0
 30
0.0
  3
AIGNBL0201000A
  1

  0
LINE
  5
117
  8
_________1
  6
AIGENLINE001
 62
     7
 10
137.78
 20
97.370000000000005
 30
0.0
 11
144.53700000000001
 21
97.370000000000005
 31
0.0
  0
ARC
  5
118
  8
_________1
  6
AIGENLINE001
 62
     7
 10
144.51792
 20
96.858046000000002
 30
0.0
 40
0.512366
 50
1.392417
 51
87.811810999999992
  0
ARC
  5
119
  8
_________1
  6
AIGENLINE001
 62
     7
 10
144.51076900000001
 20
96.889284000000004
 30
0.0
 40
0.5197060000000001
 50
272.94647400000002
 51
357.92826300000002
  0
LINE
  5
11A
  8
_________1
  6
AIGENLINE001
 62
     7
 10
144.53700000000001
 20
96.370300000000015
 30
0.0
 11
137.78
 21
96.370300000000015
 31
0.0
  0
ARC
  5
11B
  8
_________1
  6
AIGENLINE001
 62
     7
 10
137.799498
 20
96.882289
 30
0.0
 40
0.5124
 50
181.31881799999999
 51
267.80648500000001
  0
ARC
  5
11C
  8
_________1
  6
AIGENLINE001
 62
     7
 10
137.805913
 20
96.85167100000001
 30
0.0
 40
0.519021
 50
92.874415999999997
 51
177.92131599999999
  0
ENDBLK
  5
11D
  8
_________1
  0
BLOCK
  8
_________1
  2
AIGNBL0201000B
 70
     0
 10
0.0
 20
0.0
 30
0.0
  3
AIGNBL0201000B
  1

  0
LINE
  5
120
  8
_________1
 62
     7
 10
159.24700000000001
 20
196.601
 30
0.0
 11
158.50700000000001
 21
194.434
 31
0.0
  0
LINE
  5
121
  8
_________1
 62
     7
 10
158.50700000000001
 20
194.434
 30
0.0
 11
160.232
 21
195.941
 31
0.0
  0
LINE
  5
122
  8
_________1
 62
     7
 10
160.232
 20
195.941
 30
0.0
 11
159.24700000000001
 21
196.601
 31
0.0
  0
LINE
  5
123
  8
_________1
 62
     7
 10
171.83000000000001
 20
214.279
 30
0.0
 11
158.51300000000001
 21
194.43100000000001
 31
0.0
  0
ENDBLK
  5
124
  8
_________1
  0
BLOCK
  8
_________1
  2
AIGNBL0201000C
 70
     0
 10
0.0
 20
0.0
 30
0.0
  3
AIGNBL0201000C
  1

  0
LINE
  5
127
  8
_________1
 62
     7
 10
129.85599999999999
 20
187.04900000000001
 30
0.0
 11
131.83799999999999
 21
185.90199999999999
 31
0.0
  0
LINE
  5
128
  8
_________1
 62
     7
 10
131.83799999999999
 20
185.90199999999999
 30
0.0
 11
130.69399999999999
 21
187.886
 31
0.0
  0
LINE
  5
129
  8
_________1
 62
     7
 10
130.69399999999999
 20
187.886
 30
0.0
 11
129.85599999999999
 21
187.04900000000001
 31
0.0
  0
LINE
  5
12A
  8
_________1
 62
     7
 10
120.438
 20
197.327
 30
0.0
 11
131.84200000000001
 21
185.90700000000001
 31
0.0
  0
ENDBLK
  5
12B
  8
_________1
  0
BLOCK
  8
_________1
  2
AIGNBL0201000D
 70
     0
 10
0.0
 20
0.0
 30
0.0
  3
AIGNBL0201000D
  1

  0
LINE
  5
12E
  8
_________1
 62
     7
 10
129.85299999999989
 20
180.904
 30
0.0
 11
128.43199999999999
 21
179.10900000000001
 31
0.0
  0
LINE
  5
12F
  8
_________1
 62
     7
 10
128.43199999999999
 20
179.10900000000001
 30
0.0
 11
130.56
 21
179.953
 31
0.0
  0
LINE
  5
130
  8
_________1
 62
     7
 10
130.56
 20
179.953
 30
0.0
 11
129.85299999999989
 21
180.904
 31
0.0
  0
LINE
  5
131
  8
_________1
 62
     7
 10
134.31200000000001
 20
183.43299999999999
 30
0.0
 11
128.45699999999999
 21
179.07900000000001
 31
0.0
  0
ENDBLK
  5
132
  8
_________1
  0
BLOCK
  8
_________1
  2
AIGNBL0201000E
 70
     0
 10
0.0
 20
0.0
 30
0.0
  3
AIGNBL0201000E
  1

  0
LINE
  5
135
  8
_________1
 62
     7
 10
136.535
 20
169.303
 30
0.0
 11
134.32300000000001
 21
168.71000000000001
 31
0.0
  0
LINE
  5
136
  8
_________1
 62
     7
 10
134.32300000000001
 20
168.71000000000001
 30
0.0
 11
136.535
 21
168.11699999999999
 31
0.0
  0
LINE
  5
137
  8
_________1
 62
     7
 10
136.535
 20
168.11699999999999
 30
0.0
 11
136.535
 21
169.303
 31
0.0
  0
LINE
  5
138
  8
_________1
 62
     7
 10
157.53399999999999
 20
168.11699999999999
 30
0.0
 11
159.74600000000001
 21
168.71000000000001
 31
0.0
  0
LINE
  5
139
  8
_________1
 62
     7
 10
159.74600000000001
 20
168.71000000000001
 30
0.0
 11
157.53399999999999
 21
169.303
 31
0.0
  0
LINE
  5
13A
  8
_________1
 62
     7
 10
157.53399999999999
 20
169.303
 30
0.0
 11
157.53399999999999
 21
168.11699999999999
 31
0.0
  0
LINE
  5
13B
  8
_________1
 62
     7
 10
134.32300000000001
 20
168.71000000000001
 30
0.0
 11
159.74600000000001
 21
168.71000000000001
 31
0.0
  0
ENDBLK
  5
13C
  8
_________1
  0
BLOCK
  8
_________1
  2
AIGNBL0201000F
 70
     0
 10
0.0
 20
0.0
 30
0.0
  3
AIGNBL0201000F
  1

  0
LINE
  5
13F
  8
_________1
 62
     7
 10
136.535
 20
210.62100000000001
 30
0.0
 11
134.32300000000001
 21
210.02799999999999
 31
0.0
  0
LINE
  5
140
  8
_________1
 62
     7
 10
134.32300000000001
 20
210.02799999999999
 30
0.0
 11
136.535
 21
209.43600000000001
 31
0.0
  0
LINE
  5
141
  8
_________1
 62
     7
 10
136.535
 20
209.43600000000001
 30
0.0
 11
136.535
 21
210.62100000000001
 31
0.0
  0
LINE
  5
142
  8
_________1
 62
     7
 10
155.11199999999999
 20
209.43600000000001
 30
0.0
 11
157.32400000000001
 21
210.02799999999999
 31
0.0
  0
LINE
  5
143
  8
_________1
 62
     7
 10
157.32400000000001
 20
210.02799999999999
 30
0.0
 11
155.11199999999999
 21
210.62100000000001
 31
0.0
  0
LINE
  5
144
  8
_________1
 62
     7
 10
155.11199999999999
 20
210.62100000000001
 30
0.0
 11
155.11199999999999
 21
209.43600000000001
 31
0.0
  0
LINE
  5
145
  8
_________1
 62
     7
 10
134.32300000000001
 20
210.02799999999999
 30
0.0
 11
157.32400000000001
 21
210.02799999999999
 31
0.0
  0
ENDBLK
  5
146
  8
_________1
  0
BLOCK
  8
_________1
  2
AIGNBL02010010
 70
     0
 10
0.0
 20
0.0
 30
0.0
  3
AIGNBL02010010
  1

  0
LINE
  5
149
  8
_________1
 62
     7
 10
119.92400000000001
 20
162.51499999999999
 30
0.0
 11
117.712
 21
161.923
 31
0.0
  0
LINE
  5
14A
  8
_________1
 62
     7
 10
117.712
 20
161.923
 30
0.0
 11
119.92400000000001
 21
161.33000000000001
 31
0.0
  0
LINE
  5
14B
  8
_________1
 62
     7
 10
119.92400000000001
 20
161.33000000000001
 30
0.0
 11
119.92400000000001
 21
162.51499999999999
 31
0.0
  0
LINE
  5
14C
  8
_________1
 62
     7
 10
157.53399999999999
 20
161.33000000000001
 30
0.0
 11
159.74600000000001
 21
161.923
 31
0.0
  0
LINE
  5
14D
  8
_________1
 62
     7
 10
159.74600000000001
 20
161.923
 30
0.0
 11
157.53399999999999
 21
162.51499999999999
 31
0.0
  0
LINE
  5
14E
  8
_________1
 62
     7
 10
157.53399999999999
 20
162.51499999999999
 30
0.0
 11
157.53399999999999
 21
161.33000000000001
 31
0.0
  0
LINE
  5
14F
  8
_________1
 62
     7
 10
117.712
 20
161.923
 30
0.0
 11
159.74600000000001
 21
161.923
 31
0.0
  0
ENDBLK
  5
150
  8
_________1
  0
BLOCK
  8
_________1
  2
AIGNBL02010011
 70
     0
 10
0.0
 20
0.0
 30
0.0
  3
AIGNBL02010011
  1

  0
LINE
  5
153
  8
_________1
 62
     7
 10
40.624799999999993
 20
156.00999999999999
 30
0.0
 11
38.413400000000003
 21
155.417
 31
0.0
  0
LINE
  5
154
  8
_________1
 62
     7
 10
38.413400000000003
 20
155.417
 30
0.0
 11
40.624799999999993
 21
154.82499999999999
 31
0.0
  0
LINE
  5
155
  8
_________1
 62
     7
 10
40.624799999999993
 20
154.82499999999999
 30
0.0
 11
40.624799999999993
 21
156.00999999999999
 31
0.0
  0
LINE
  5
156
  8
_________1
 62
     7
 10
75.202100000000002
 20
154.82499999999999
 30
0.0
 11
77.413499999999999
 21
155.417
 31
0.0
  0
LINE
  5
157
  8
_________1
 62
     7
 10
77.413499999999999
 20
155.417
 30
0.0
 11
75.202100000000002
 21
156.00999999999999
 31
0.0
  0
LINE
  5
158
  8
_________1
 62
     7
 10
75.202100000000002
 20
156.00999999999999
 30
0.0
 11
75.202100000000002
 21
154.82499999999999
 31
0.0
  0
LINE
  5
159
  8
_________1
 62
     7
 10
38.413400000000003
 20
155.417
 30
0.0
 11
77.413499999999999
 21
155.417
 31
0.0
  0
ENDBLK
  5
15A
  8
_________1
  0
BLOCK
  8
_________1
  2
AIGNBL02010012
 70
     0
 10
0.0
 20
0.0
 30
0.0
  3
AIGNBL02010012
  1

  0
LINE
  5
15D
  8
_________1
 62
     7
 10
40.124599999999987
 20
149.30699999999999
 30
0.0
 11
37.91320000000001
 21
148.715
 31
0.0
  0
LINE
  5
15E
  8
_________1
 62
     7
 10
37.91320000000001
 20
148.715
 30
0.0
 11
40.124599999999987
 21
148.12200000000001
 31
0.0
  0
LINE
  5
15F
  8
_________1
 62
     7
 10
40.124599999999987
 20
148.12200000000001
 30
0.0
 11
40.124599999999987
 21
149.30699999999999
 31
0.0
  0
LINE
  5
160
  8
_________1
 62
     7
 10
75.202100000000002
 20
148.12200000000001
 30
0.0
 11
77.413499999999999
 21
148.715
 31
0.0
  0
LINE
  5
161
  8
_________1
 62
     7
 10
77.413499999999999
 20
148.715
 30
0.0
 11
75.202100000000002
 21
149.30699999999999
 31
0.0
  0
LINE
  5
162
  8
_________1
 62
     7
 10
75.202100000000002
 20
149.30699999999999
 30
0.0
 11
75.202100000000002
 21
148.12200000000001
 31
0.0
  0
LINE
  5
163
  8
_________1
 62
     7
 10
37.91320000000001
 20
148.715
 30
0.0
 11
77.413499999999999
 21
148.715
 31
0.0
  0
ENDBLK
  5
164
  8
_________1
  0
BLOCK
  8
_________1
  2
AIGNBL02010013
 70
     0
 10
0.0
 20
0.0
 30
0.0
  3
AIGNBL02010013
  1

  0
LINE
  5
167
  8
_________1
 62
     7
 10
40.124599999999987
 20
210.673
 30
0.0
 11
37.91320000000001
 21
210.08000000000001
 31
0.0
  0
LINE
  5
168
  8
_________1
 62
     7
 10
37.91320000000001
 20
210.08000000000001
 30
0.0
 11
40.124599999999987
 21
209.488
 31
0.0
  0
LINE
  5
169
  8
_________1
 62
     7
 10
40.124599999999987
 20
209.488
 30
0.0
 11
40.124599999999987
 21
210.673
 31
0.0
  0
LINE
  5
16A
  8
_________1
 62
     7
 10
79.201899999999995
 20
209.488
 30
0.0
 11
81.413300000000007
 21
210.08000000000001
 31
0.0
  0
LINE
  5
16B
  8
_________1
 62
     7
 10
81.413300000000007
 20
210.08000000000001
 30
0.0
 11
79.201899999999995
 21
210.673
 31
0.0
  0
LINE
  5
16C
  8
_________1
 62
     7
 10
79.201899999999995
 20
210.673
 30
0.0
 11
79.201899999999995
 21
209.488
 31
0.0
  0
LINE
  5
16D
  8
_________1
 62
     7
 10
37.91320000000001
 20
210.08000000000001
 30
0.0
 11
81.413300000000007
 21
210.08000000000001
 31
0.0
  0
ENDBLK
  5
16E
  8
_________1
  0
BLOCK
  8
_________1
  2
AIGNBL02010014
 70
     0
 10
0.0
 20
0.0
 30
0.0
  3
AIGNBL02010014
  1

  0
LINE
  5
171
  8
_________1
 62
     7
 10
40.124599999999987
 20
142.52799999999999
 30
0.0
 11
37.91320000000001
 21
141.93600000000001
 31
0.0
  0
LINE
  5
172
  8
_________1
 62
     7
 10
37.91320000000001
 20
141.93600000000001
 30
0.0
 11
40.124599999999987
 21
141.34299999999999
 31
0.0
  0
LINE
  5
173
  8
_________1
 62
     7
 10
40.124599999999987
 20
141.34299999999999
 30
0.0
 11
40.124599999999987
 21
142.52799999999999
 31
0.0
  0
LINE
  5
174
  8
_________1
 62
     7
 10
85.708299999999994
 20
141.34299999999999
 30
0.0
 11
87.919700000000006
 21
141.93600000000001
 31
0.0
  0
LINE
  5
175
  8
_________1
 62
     7
 10
87.919700000000006
 20
141.93600000000001
 30
0.0
 11
85.708299999999994
 21
142.52799999999999
 31
0.0
  0
LINE
  5
176
  8
_________1
 62
     7
 10
85.708299999999994
 20
142.52799999999999
 30
0.0
 11
85.708299999999994
 21
141.34299999999999
 31
0.0
  0
LINE
  5
177
  8
_________1
 62
     7
 10
37.91320000000001
 20
141.93600000000001
 30
0.0
 11
87.919700000000006
 21
141.93600000000001
 31
0.0
  0
ENDBLK
  5
178
  8
_________1
  0
BLOCK
  8
_________1
  2
AIGNBL02010015
 70
     0
 10
0.0
 20
0.0
 30
0.0
  3
AIGNBL02010015
  1

  0
LINE
  5
17B
  8
_________1
 62
     7
 10
35.983199999999997
 20
183.06299999999999
 30
0.0
 11
37.970399999999998
 21
181.92500000000001
 31
0.0
  0
LINE
  5
17C
  8
_________1
 62
     7
 10
37.970399999999998
 20
181.92500000000001
 30
0.0
 11
36.818300000000001
 21
183.904
 31
0.0
  0
LINE
  5
17D
  8
_________1
 62
     7
 10
36.818300000000001
 20
183.904
 30
0.0
 11
35.983199999999997
 21
183.06299999999999
 31
0.0
  0
LINE
  5
17E
  8
_________1
 62
     7
 10
33.559100000000001
 20
186.292
 30
0.0
 11
37.970700000000001
 21
181.92500000000001
 31
0.0
  0
ENDBLK
  5
17F
  8
_________1
  0
BLOCK
  8
_________1
  2
AIGNBL02010016
 70
     0
 10
0.0
 20
0.0
 30
0.0
  3
AIGNBL02010016
  1

  0
LINE
  5
182
  8
_________1
 62
     7
 10
162.32400000000001
 20
181.77099999999999
 30
0.0
 11
160.34100000000001
 21
182.916
 31
0.0
  0
LINE
  5
183
  8
_________1
 62
     7
 10
160.34100000000001
 20
182.916
 30
0.0
 11
161.48599999999999
 21
180.93299999999999
 31
0.0
  0
LINE
  5
184
  8
_________1
 62
     7
 10
161.48599999999999
 20
180.93299999999999
 30
0.0
 11
162.32400000000001
 21
181.77099999999999
 31
0.0
  0
LINE
  5
185
  8
_________1
 62
     7
 10
168.53700000000001
 20
174.72099999999989
 30
0.0
 11
160.34100000000001
 21
182.916
 31
0.0
  0
ENDBLK
  5
186
  8
_________1
  0
BLOCK
  8
_________1
  2
AIGNBL02010017
 70
     0
 10
0.0
 20
0.0
 30
0.0
  3
AIGNBL02010017
  1

  0
LINE
  5
189
  8
_________1
 62
     7
 10
115.026
 20
184.95099999999999
 30
0.0
 11
117.009
 21
183.80600000000001
 31
0.0
  0
LINE
  5
18A
  8
_________1
 62
     7
 10
117.009
 20
183.80600000000001
 30
0.0
 11
115.864
 21
185.78899999999999
 31
0.0
  0
LINE
  5
18B
  8
_________1
 62
     7
 10
115.864
 20
185.78899999999999
 30
0.0
 11
115.026
 21
184.95099999999999
 31
0.0
  0
LINE
  5
18C
  8
_________1
 62
     7
 10
111.355
 20
189.46000000000001
 30
0.0
 11
117.009
 21
183.80600000000001
 31
0.0
  0
ENDBLK
  5
18D
  8
_________1
  0
BLOCK
  8
_________1
  2
AIGNBL02010018
 70
     0
 10
0.0
 20
0.0
 30
0.0
  3
AIGNBL02010018
  1

  0
LINE
  5
190
  8
_________1
 62
     7
 10
94.222899999999996
 20
195.66300000000001
 30
0.0
 11
94.8155
 21
193.45099999999999
 31
0.0
  0
LINE
  5
191
  8
_________1
 62
     7
 10
94.8155
 20
193.45099999999999
 30
0.0
 11
95.407999999999987
 21
195.66300000000001
 31
0.0
  0
LINE
  5
192
  8
_________1
 62
     7
 10
95.407999999999987
 20
195.66300000000001
 30
0.0
 11
94.222899999999996
 21
195.66300000000001
 31
0.0
  0
LINE
  5
193
  8
_________1
 62
     7
 10
95.407999999999987
 20
201.24000000000001
 30
0.0
 11
94.8155
 21
203.45099999999999
 31
0.0
  0
LINE
  5
194
  8
_________1
 62
     7
 10
94.8155
 20
203.45099999999999
 30
0.0
 11
94.222899999999996
 21
201.24000000000001
 31
0.0
  0
LINE
  5
195
  8
_________1
 62
     7
 10
94.222899999999996
 20
201.24000000000001
 30
0.0
 11
95.407999999999987
 21
201.24000000000001
 31
0.0
  0
LINE
  5
196
  8
_________1
 62
     7
 10
94.8155
 20
203.45099999999999
 30
0.0
 11
94.8155
 21
193.45099999999999
 31
0.0
  0
ENDBLK
  5
197
  8
_________1
  0
BLOCK
  8
_________1
  2
AIGNBL02010019
 70
     0
 10
0.0
 20
0.0
 30
0.0
  3
AIGNBL02010019
  1

  0
LINE
  5
19A
  8
_________1
 62
     7
 10
153.815
 20
203.798
 30
0.0
 11
156.02600000000001
 21
204.39099999999999
 31
0.0
  0
LINE
  5
19B
  8
_________1
 62
     7
 10
156.02600000000001
 20
204.39099999999999
 30
0.0
 11
153.815
 21
204.983
 31
0.0
  0
LINE
  5
19C
  8
_________1
 62
     7
 10
153.815
 20
204.983
 30
0.0
 11
153.815
 21
203.798
 31
0.0
  0
LINE
  5
19D
  8
_________1
 62
     7
 10
159.535
 20
204.983
 30
0.0
 11
157.32400000000001
 21
204.39099999999999
 31
0.0
  0
LINE
  5
19E
  8
_________1
 62
     7
 10
157.32400000000001
 20
204.39099999999999
 30
0.0
 11
159.535
 21
203.798
 31
0.0
  0
LINE
  5
19F
  8
_________1
 62
     7
 10
159.535
 20
203.798
 30
0.0
 11
159.535
 21
204.983
 31
0.0
  0
LINE
  5
1A0
  8
_________1
 62
     7
 10
163.846
 20
204.39099999999999
 30
0.0
 11
152.55699999999999
 21
204.39099999999999
 31
0.0
  0
ENDBLK
  5
1A1
  8
_________1
  0
BLOCK
  8
_________1
  2
AIGNBL0201001A
 70
     0
 10
0.0
 20
0.0
 30
0.0
  3
AIGNBL0201001A
  1

  0
LINE
  5
1A4
  8
_________1
 62
     7
 10
55.255200000000002
 20
93.581100000000006
 30
0.0
 11
55.847799999999999
 21
91.370000000000005
 31
0.0
  0
LINE
  5
1A5
  8
_________1
 62
     7
 10
55.847799999999999
 20
91.370000000000005
 30
0.0
 11
56.440300000000001
 21
93.581100000000006
 31
0.0
  0
LINE
  5
1A6
  8
_________1
 62
     7
 10
56.440300000000001
 20
93.581100000000006
 30
0.0
 11
55.255200000000002
 21
93.581100000000006
 31
0.0
  0
LINE
  5
1A7
  8
_________1
 62
     7
 10
56.440300000000001
 20
99.658299999999997
 30
0.0
 11
55.847799999999999
 21
101.87
 31
0.0
  0
LINE
  5
1A8
  8
_________1
 62
     7
 10
55.847799999999999
 20
101.87
 30
0.0
 11
55.255200000000002
 21
99.658299999999997
 31
0.0
  0
LINE
  5
1A9
  8
_________1
 62
     7
 10
55.255200000000002
 20
99.658299999999997
 30
0.0
 11
56.440300000000001
 21
99.658299999999997
 31
0.0
  0
LINE
  5
1AA
  8
_________1
 62
     7
 10
55.847799999999999
 20
91.370000000000005
 30
0.0
 11
55.847799999999999
 21
101.87
 31
0.0
  0
ENDBLK
  5
1AB
  8
_________1
  0
BLOCK
  8
_________1
  2
AIGNBL0201001B
 70
     0
 10
0.0
 20
0.0
 30
0.0
  3
AIGNBL0201001B
  1

  0
LINE
  5
1AE
  8
_________1
 62
     7
 10
168.46799999999999
 20
185.66
 30
0.0
 11
169.06
 21
183.44800000000001
 31
0.0
  0
LINE
  5
1AF
  8
_________1
 62
     7
 10
169.06
 20
183.44800000000001
 30
0.0
 11
169.65299999999999
 21
185.66
 31
0.0
  0
LINE
  5
1B0
  8
_________1
 62
     7
 10
169.65299999999999
 20
185.66
 30
0.0
 11
168.46799999999999
 21
185.66
 31
0.0
  0
LINE
  5
1B1
  8
_________1
 62
     7
 10
169.65299999999999
 20
186.83699999999999
 30
0.0
 11
169.06
 21
189.048
 31
0.0
  0
LINE
  5
1B2
  8
_________1
 62
     7
 10
169.06
 20
189.048
 30
0.0
 11
168.46799999999999
 21
186.83699999999999
 31
0.0
  0
LINE
  5
1B3
  8
_________1
 62
     7
 10
168.46799999999999
 20
186.83699999999999
 30
0.0
 11
169.65299999999999
 21
186.83699999999999
 31
0.0
  0
LINE
  5
1B4
  8
_________1
 62
     7
 10
169.06
 20
183.44800000000001
 30
0.0
 11
169.06
 21
189.048
 31
0.0
  0
ENDBLK
  5
1B5
  8
_________1
  0
BLOCK
  8
_________1
  2
AIGNBL0201001C
 70
     0
 10
0.0
 20
0.0
 30
0.0
  3
AIGNBL0201001C
  1

  0
LINE
  5
1B8
  8
_________1
 62
     7
 10
176.68000000000001
 20
198.06
 30
0.0
 11
177.27199999999999
 21
195.84899999999999
 31
0.0
  0
LINE
  5
1B9
  8
_________1
 62
     7
 10
177.27199999999999
 20
195.84899999999999
 30
0.0
 11
177.86500000000001
 21
198.06
 31
0.0
  0
LINE
  5
1BA
  8
_________1
 62
     7
 10
177.86500000000001
 20
198.06
 30
0.0
 11
176.68000000000001
 21
198.06
 31
0.0
  0
LINE
  5
1BB
  8
_________1
 62
     7
 10
176.68000000000001
 20
185.66
 30
0.0
 11
177.27199999999999
 21
183.44800000000001
 31
0.0
  0
LINE
  5
1BC
  8
_________1
 62
     7
 10
177.27199999999999
 20
183.44800000000001
 30
0.0
 11
177.86500000000001
 21
185.66
 31
0.0
  0
LINE
  5
1BD
  8
_________1
 62
     7
 10
177.86500000000001
 20
185.66
 30
0.0
 11
176.68000000000001
 21
185.66
 31
0.0
  0
LINE
  5
1BE
  8
_________1
 62
     7
 10
177.86500000000001
 20
190.93700000000001
 30
0.0
 11
177.27199999999999
 21
193.148
 31
0.0
  0
LINE
  5
1BF
  8
_________1
 62
     7
 10
177.27199999999999
 20
193.148
 30
0.0
 11
176.68000000000001
 21
190.93700000000001
 31
0.0
  0
LINE
  5
1C0
  8
_________1
 62
     7
 10
176.68000000000001
 20
190.93700000000001
 30
0.0
 11
177.86500000000001
 21
190.93700000000001
 31
0.0
  0
LINE
  5
1C1
  8
_________1
 62
     7
 10
177.27199999999999
 20
183.44800000000001
 30
0.0
 11
177.27199999999999
 21
202.387
 31
0.0
  0
ENDBLK
  5
1C2
  8
_________1
  0
BLOCK
  8
_________2
  2
AIGNBL03010002
 70
     0
 10
0.0
 20
0.0
 30
0.0
  3
AIGNBL03010002
  1

  0
LINE
  5
1C5
  8
_________2
 62
     7
 10
76.741
 20
29.8047
 30
0.0
 11
74.554699999999997
 21
29.8047
 31
0.0
  0
LINE
  5
1C6
  8
_________2
 62
     7
 10
77.233699999999999
 20
29.8047
 30
0.0
 11
76.981499999999997
 21
29.8047
 31
0.0
  0
LINE
  5
1C7
  8
_________2
 62
     7
 10
77.726299999999995
 20
29.8047
 30
0.0
 11
80.651200000000003
 21
29.8047
 31
0.0
  0
LINE
  5
1C8
  8
_________2
 62
     7
 10
77.233699999999999
 20
29.8047
 30
0.0
 11
77.485500000000002
 21
29.8047
 31
0.0
  0
LINE
  5
1C9
  8
_________2
 62
     7
 10
70.837100000000007
 20
29.8047
 30
0.0
 11
68.650499999999994
 21
29.8047
 31
0.0
  0
LINE
  5
1CA
  8
_________2
 62
     7
 10
71.329400000000007
 20
29.8047
 30
0.0
 11
71.077600000000004
 21
29.8047
 31
0.0
  0
LINE
  5
1CB
  8
_________2
 62
     7
 10
71.329400000000007
 20
30.2974
 30
0.0
 11
71.329400000000007
 21
32.484400000000001
 31
0.0
  0
LINE
  5
1CC
  8
_________2
 62
     7
 10
71.329400000000007
 20
29.8047
 30
0.0
 11
71.329400000000007
 21
30.056899999999999
 31
0.0
  0
LINE
  5
1CD
  8
_________2
 62
     7
 10
71.822100000000006
 20
29.8047
 30
0.0
 11
74.009
 21
29.8047
 31
0.0
  0
LINE
  5
1CE
  8
_________2
 62
     7
 10
71.329400000000007
 20
29.8047
 30
0.0
 11
71.581599999999995
 21
29.8047
 31
0.0
  0
LINE
  5
1CF
  8
_________2
 62
     7
 10
71.329400000000007
 20
29.312799999999999
 30
0.0
 11
71.329400000000007
 21
27.125800000000002
 31
0.0
  0
LINE
  5
1D0
  8
_________2
 62
     7
 10
71.329400000000007
 20
29.8047
 30
0.0
 11
71.329400000000007
 21
29.5532
 31
0.0
  0
LINE
  5
1D1
  8
_________2
 62
     7
 10
75.040499999999994
 20
28.5852
 30
0.0
 11
80.218500000000006
 21
27.720400000000001
 31
0.0
  0
LINE
  5
1D2
  8
_________2
 62
     7
 10
75.040499999999994
 20
31.0243
 30
0.0
 11
80.218500000000006
 21
31.889700000000001
 31
0.0
  0
LINE
  5
1D3
  8
_________2
 62
     7
 10
80.218500000000006
 20
27.720400000000001
 30
0.0
 11
80.218500000000006
 21
31.889700000000001
 31
0.0
  0
LINE
  5
1D4
  8
_________2
 62
     7
 10
75.040499999999994
 20
28.5852
 30
0.0
 11
75.040499999999994
 21
31.0243
 31
0.0
  0
ARC
  5
1D5
  8
_________2
 62
     7
 10
71.28285600000001
 20
29.757811
 30
0.0
 40
1.2673589999999999
 50
2.122214
 51
87.893958999999995
  0
ARC
  5
1D6
  8
_________2
 62
     7
 10
71.375959999999992
 20
29.758213000000001
 30
0.0
 40
1.2669559999999991
 50
92.104701000000006
 51
177.89526900000001
  0
ARC
  5
1D7
  8
_________2
 62
     7
 10
71.376357999999996
 20
29.851671
 30
0.0
 40
1.2673680000000001
 50
182.12203600000001
 51
267.877993
  0
ARC
  5
1D8
  8
_________2
 62
     7
 10
71.282531999999989
 20
29.851998999999999
 30
0.0
 40
1.267695999999999
 50
272.12015300000002
 51
357.863674
  0
ARC
  5
1D9
  8
_________2
 62
     7
 10
71.329430000000002
 20
29.804742999999998
 30
0.0
 40
2.0849849999999992
 50
0.00001
 51
89.999980000000008
  0
ARC
  5
1DA
  8
_________2
 62
     7
 10
71.329603000000006
 20
29.804915000000001
 30
0.0
 40
2.084813
 50
90.004733999999999
 51
180.00474399999999
  0
ARC
  5
1DB
  8
_________2
 62
     7
 10
71.409106000000008
 20
29.884775999999999
 30
0.0
 40
2.1657950000000001
 50
182.11776599999999
 51
267.89173399999999
  0
ARC
  5
1DC
  8
_________2
 62
     7
 10
71.249459000000002
 20
29.885429999999999
 30
0.0
 40
2.1664590000000001
 50
272.11546800000002
 51
357.86560400000002
  0
ENDBLK
  5
1DD
  8
_________2
  0
ENDSEC
  0
SECTION
  2
ENTITIES
  0
INSERT
  5
1DE
  8
____
 62
     7
  2
AIGNBL01010002
 10
0.0
 20
0.0
 30
0.0
  0
INSERT
  5
1DF
  8
____
 62
     7
  2
AIGNBL01010003
 10
0.0
 20
0.0
 30
0.0
  0
INSERT
  5
1E0
  8
____
 62
     7
  2
AIGNBL01010004
 10
0.0
 20
0.0
 30
0.0
  0
INSERT
  5
1E1
  8
____
 62
     7
  2
AIGNBL01010005
 10
0.0
 20
0.0
 30
0.0
  0
INSERT
  5
1E2
  8
____
 62
     7
  2
AIGNBL01010006
 10
0.0
 20
0.0
 30
0.0
  0
INSERT
  5
1E3
  8
____
 62
     7
  2
AIGNBL01010007
 10
0.0
 20
0.0
 30
0.0
  0
INSERT
  5
1E4
  8
____
 62
     7
  2
AIGNBL01010008
 10
0.0
 20
0.0
 30
0.0
  0
INSERT
  5
1E5
  8
____
 62
     7
  2
AIGNBL01010009
 10
0.0
 20
0.0
 30
0.0
  0
INSERT
  5
1E6
  8
____
 62
     7
  2
AIGNBL0101000A
 10
0.0
 20
0.0
 30
0.0
  0
INSERT
  5
1E7
  8
____
 62
     7
  2
AIGNBL0101000B
 10
0.0
 20
0.0
 30
0.0
  0
INSERT
  5
1E8
  8
____
 62
     7
  2
AIGNBL0101000C
 10
0.0
 20
0.0
 30
0.0
  0
INSERT
  5
1E9
  8
____
 62
     7
  2
AIGNBL0101000D
 10
0.0
 20
0.0
 30
0.0
  0
INSERT
  5
1EA
  8
____
 62
     7
  2
AIGNBL0101000E
 10
0.0
 20
0.0
 30
0.0
  0
INSERT
  5
1EB
  8
____
 62
     7
  2
AIGNBL0101000F
 10
0.0
 20
0.0
 30
0.0
  0
INSERT
  5
1EC
  8
____
 62
     7
  2
AIGNBL01010010
 10
0.0
 20
0.0
 30
0.0
  0
INSERT
  5
1ED
  8
____
 62
     7
  2
AIGNBL01010011
 10
0.0
 20
0.0
 30
0.0
  0
INSERT
  5
1EE
  8
____
 62
     7
  2
AIGNBL01010012
 10
0.0
 20
0.0
 30
0.0
  0
INSERT
  5
1EF
  8
____
 62
     7
  2
AIGNBL01010013
 10
0.0
 20
0.0
 30
0.0
  0
INSERT
  5
1F0
  8
____
 62
     7
  2
AIGNBL01010014
 10
0.0
 20
0.0
 30
0.0
  0
INSERT
  5
1F1
  8
____
 62
     7
  2
AIGNBL01010015
 10
0.0
 20
0.0
 30
0.0
  0
INSERT
  5
1F2
  8
____
 62
     7
  2
AIGNBL01010016
 10
0.0
 20
0.0
 30
0.0
  0
INSERT
  5
1F3
  8
____
 62
     7
  2
AIGNBL01010017
 10
0.0
 20
0.0
 30
0.0
  0
INSERT
  5
1F4
  8
____
 62
     7
  2
AIGNBL01010018
 10
0.0
 20
0.0
 30
0.0
  0
INSERT
  5
1F5
  8
____
 62
     7
  2
AIGNBL01010019
 10
0.0
 20
0.0
 30
0.0
  0
INSERT
  5
1F6
  8
____
 62
     7
  2
AIGNBL0101001A
 10
0.0
 20
0.0
 30
0.0
  0
INSERT
  5
1F7
  8
____
 62
     7
  2
AIGNBL0101001B
 10
0.0
 20
0.0
 30
0.0
  0
INSERT
  5
1F8
  8
____
 62
     7
  2
AIGNBL0101001C
 10
0.0
 20
0.0
 30
0.0
  0
INSERT
  5
1F9
  8
____
 62
     7
  2
AIGNBL0101001D
 10
0.0
 20
0.0
 30
0.0
  0
INSERT
  5
1FA
  8
____
 62
     7
  2
AIGNBL0101001E
 10
0.0
 20
0.0
 30
0.0
  0
INSERT
  5
1FB
  8
____
 62
     7
  2
AIGNBL0101001F
 10
0.0
 20
0.0
 30
0.0
  0
INSERT
  5
1FC
  8
____
 62
     7
  2
AIGNBL01010020
 10
0.0
 20
0.0
 30
0.0
  0
TEXT
  5
1FD
  8
____
 62
     7
 10
95.671279999999996
 20
207.249
 30
0.0
 40
3.0923400000000001
  1
%%c35
 41
0.5
 72
     2
 11
99.794399999999996
 21
207.249
 31
0.0
  0
TEXT
  5
1FE
  8
____
 62
     7
 10
65.522379999999998
 20
178.44399999999999
 30
0.0
 40
3.0923400000000001
  1
%%c46
 41
0.5
 72
     2
 11
69.645499999999998
 21
178.44399999999999
 31
0.0
  0
TEXT
  5
1FF
  8
____
 62
     7
 10
121.167
 20
144.40799999999999
 30
0.0
 40
3.0923400000000001
  1
※（　）内寸法は参考寸法です。
 41
0.5
  0
TEXT
  5
200
  8
____
 62
     7
 10
121.167
 20
140.54300000000001
 30
0.0
 40
3.0923400000000001
  1
　陶器に寸法公差がありますので、
 41
0.5
  0
TEXT
  5
201
  8
____
 62
     7
 10
121.167
 20
136.67699999999999
 30
0.0
 40
3.0923400000000001
  1
　取付時に現品に合わせて調整ください。
 41
0.5
  0
TEXT
  5
202
  8
____
 62
     7
 10
133.58876000000001
 20
152.21000000000001
 30
0.0
 40
3.0923400000000001
  1
カウンター切込寸法
 41
0.5
 72
     1
 11
141.83500000000001
 21
152.21000000000001
 31
0.0
  0
LINE
  5
203
  8
_________1
 62
     7
 10
132.72300000000001
 20
86.060100000000006
 30
0.0
 11
132.773
 21
84.259600000000006
 31
0.0
  0
LINE
  5
204
  8
_________1
 62
     7
 10
132.773
 20
84.259600000000006
 30
0.0
 11
134.32300000000001
 21
84.259600000000006
 31
0.0
  0
LINE
  5
205
  8
_________1
 62
     7
 10
132.73400000000001
 20
85.659700000000001
 30
0.0
 11
134.32300000000001
 21
85.659700000000001
 31
0.0
  0
LINE
  5
206
  8
_________1
 62
     7
 10
132.72300000000001
 20
86.060100000000006
 30
0.0
 11
134.32300000000001
 21
86.060100000000006
 31
0.0
  0
LINE
  5
207
  8
_________1
 62
     7
 10
134.32300000000001
 20
82.459900000000005
 30
0.0
 11
133.923
 21
82.459900000000005
 31
0.0
  0
LINE
  5
208
  8
_________1
 62
     7
 10
133.923
 20
84.259600000000006
 30
0.0
 11
133.923
 21
82.459900000000005
 31
0.0
  0
LINE
  5
209
  8
_________1
 62
     7
 10
133.923
 20
89.387699999999995
 30
0.0
 11
133.923
 21
86.060100000000006
 31
0.0
  0
LINE
  5
20A
  8
_________1
 62
     7
 10
135.923
 20
86.060100000000006
 30
0.0
 11
135.87299999999999
 21
84.259600000000006
 31
0.0
  0
LINE
  5
20B
  8
_________1
 62
     7
 10
135.87299999999999
 20
84.259600000000006
 30
0.0
 11
134.32300000000001
 21
84.259600000000006
 31
0.0
  0
LINE
  5
20C
  8
_________1
 62
     7
 10
135.91200000000001
 20
85.659700000000001
 30
0.0
 11
134.32300000000001
 21
85.659700000000001
 31
0.0
  0
LINE
  5
20D
  8
_________1
 62
     7
 10
135.923
 20
86.060100000000006
 30
0.0
 11
134.32300000000001
 21
86.060100000000006
 31
0.0
  0
LINE
  5
20E
  8
_________1
 62
     7
 10
134.32300000000001
 20
82.459900000000005
 30
0.0
 11
134.72300000000001
 21
82.459900000000005
 31
0.0
  0
LINE
  5
20F
  8
_________1
 62
     7
 10
134.72300000000001
 20
84.259600000000006
 30
0.0
 11
134.72300000000001
 21
82.459900000000005
 31
0.0
  0
LINE
  5
210
  8
_________1
 62
     7
 10
134.72300000000001
 20
89.387699999999995
 30
0.0
 11
134.72300000000001
 21
86.060100000000006
 31
0.0
  0
INSERT
  5
211
  8
_________1
 62
     7
  2
AIGNBL02010002
 10
0.0
 20
0.0
 30
0.0
  0
LINE
  5
212
  8
_________1
  6
AIGENLINE002
 62
     7
 10
83.313999999999993
 20
91.918800000000005
 30
0.0
 11
83.313999999999993
 21
81.136999999999986
 31
0.0
  0
INSERT
  5
213
  8
_________1
 62
     7
  2
AIGNBL02010003
 10
0.0
 20
0.0
 30
0.0
  0
LINE
  5
214
  8
_________1
  6
AIGENLINE002
 62
     7
 10
41.31369999999999
 20
91.918800000000005
 30
0.0
 11
41.31369999999999
 21
81.136999999999986
 31
0.0
  0
LINE
  5
215
  8
_________1
 62
     7
 10
30.544799999999999
 20
202.946
 30
0.0
 11
51.361899999999999
 21
202.946
 31
0.0
  0
LINE
  5
216
  8
_________1
 62
     7
 10
30.544799999999999
 20
163.946
 30
0.0
 11
51.361899999999999
 21
163.946
 31
0.0
  0
LINE
  5
217
  8
_________1
 62
     7
 10
30.652200000000001
 20
166.15700000000001
 30
0.0
 11
31.244800000000001
 21
163.946
 31
0.0
  0
LINE
  5
218
  8
_________1
 62
     7
 10
31.244800000000001
 20
163.946
 30
0.0
 11
31.837399999999999
 21
166.15700000000001
 31
0.0
  0
LINE
  5
219
  8
_________1
 62
     7
 10
31.837399999999999
 20
166.15700000000001
 30
0.0
 11
30.652200000000001
 21
166.15700000000001
 31
0.0
  0
LINE
  5
21A
  8
_________1
 62
     7
 10
31.837399999999999
 20
200.73400000000001
 30
0.0
 11
31.244800000000001
 21
202.946
 31
0.0
  0
LINE
  5
21B
  8
_________1
 62
     7
 10
31.244800000000001
 20
202.946
 30
0.0
 11
30.652200000000001
 21
200.73400000000001
 31
0.0
  0
LINE
  5
21C
  8
_________1
 62
     7
 10
30.652200000000001
 20
200.73400000000001
 30
0.0
 11
31.837399999999999
 21
200.73400000000001
 31
0.0
  0
LINE
  5
21D
  8
_________1
 62
     7
 10
31.244800000000001
 20
202.946
 30
0.0
 11
31.244800000000001
 21
163.946
 31
0.0
  0
LINE
  5
21E
  8
_________1
 62
     7
 10
24.252099999999999
 20
165.65700000000001
 30
0.0
 11
24.8446
 21
163.446
 31
0.0
  0
LINE
  5
21F
  8
_________1
 62
     7
 10
24.8446
 20
163.446
 30
0.0
 11
25.437200000000001
 21
165.65700000000001
 31
0.0
  0
LINE
  5
220
  8
_________1
 62
     7
 10
25.437200000000001
 20
165.65700000000001
 30
0.0
 11
24.252099999999999
 21
165.65700000000001
 31
0.0
  0
LINE
  5
221
  8
_________1
 62
     7
 10
25.437200000000001
 20
201.23400000000001
 30
0.0
 11
24.8446
 21
203.446
 31
0.0
  0
LINE
  5
222
  8
_________1
 62
     7
 10
24.8446
 20
203.446
 30
0.0
 11
24.252099999999999
 21
201.23400000000001
 31
0.0
  0
LINE
  5
223
  8
_________1
 62
     7
 10
24.252099999999999
 20
201.23400000000001
 30
0.0
 11
25.437200000000001
 21
201.23400000000001
 31
0.0
  0
LINE
  5
224
  8
_________1
 62
     7
 10
24.144600000000001
 20
203.446
 30
0.0
 11
53.60649999999999
 21
203.446
 31
0.0
  0
LINE
  5
225
  8
_________1
 62
     7
 10
24.144600000000001
 20
163.446
 30
0.0
 11
53.60649999999999
 21
163.446
 31
0.0
  0
LINE
  5
226
  8
_________1
 62
     7
 10
154.21199999999999
 20
177.02099999999999
 30
0.0
 11
156.423
 21
177.614
 31
0.0
  0
LINE
  5
227
  8
_________1
 62
     7
 10
156.423
 20
177.614
 30
0.0
 11
154.21199999999999
 21
178.20599999999999
 31
0.0
  0
LINE
  5
228
  8
_________1
 62
     7
 10
154.21199999999999
 20
178.20599999999999
 30
0.0
 11
154.21199999999999
 21
177.02099999999999
 31
0.0
  0
LINE
  5
229
  8
_________1
 62
     7
 10
159.535
 20
178.20599999999999
 30
0.0
 11
157.32300000000001
 21
177.614
 31
0.0
  0
LINE
  5
22A
  8
_________1
 62
     7
 10
157.32300000000001
 20
177.614
 30
0.0
 11
159.535
 21
177.02099999999999
 31
0.0
  0
LINE
  5
22B
  8
_________1
 62
     7
 10
159.535
 20
177.02099999999999
 30
0.0
 11
159.535
 21
178.20599999999999
 31
0.0
  0
ARC
  5
22C
  8
_________1
 62
     7
 10
80.531456000000006
 20
191.35540900000001
 30
0.0
 40
0.6545860000000001
 50
98.728661000000017
 51
178.44576900000001
  0
ARC
  5
22D
  8
_________1
 62
     7
 10
80.535785999999987
 20
191.39757900000001
 30
0.0
 40
0.659127
 50
182.122873
 51
267.84602599999999
  0
ARC
  5
22E
  8
_________1
 62
     7
 10
80.487326999999993
 20
191.39613399999999
 30
0.0
 40
0.657644
 50
272.06398300000001
 51
357.99830500000002
  0
ARC
  5
22F
  8
_________1
 62
     7
 10
80.502830999999986
 20
191.37107700000001
 30
0.0
 40
0.641742
 50
0.186296
 51
35.645513999999999
  0
ARC
  5
230
  8
_________1
 62
     7
 10
81.346230000000006
 20
193.518496
 30
0.0
 40
1.818422
 50
272.11340300000001
 51
357.880968
  0
ARC
  5
231
  8
_________1
 62
     7
 10
81.480896999999985
 20
193.51904500000001
 30
0.0
 40
1.818991
 50
182.13570999999999
 51
267.86995999999999
  0
ARC
  5
232
  8
_________1
 62
     7
 10
81.480346999999995
 20
193.3840209999999
 30
0.0
 40
1.818420999999999
 50
92.113365999999999
 51
177.880965
  0
ARC
  5
233
  8
_________1
 62
     7
 10
81.345680999999999
 20
193.38347099999999
 30
0.0
 40
1.818991
 50
2.1356899999999999
 51
87.869939999999986
  0
LINE
  5
234
  8
_________1
 62
     7
 10
63.618600000000001
 20
177.744
 30
0.0
 11
69.645499999999998
 21
177.744
 31
0.0
  0
ARC
  5
235
  8
_________1
 62
     7
 10
83.920472000000004
 20
199.45127400000001
 30
0.0
 40
3.500067
 50
0.00283
 51
90.002800000000008
  0
LINE
  5
236
  8
_________1
 62
     7
 10
87.419899999999984
 20
176.78299999999999
 30
0.0
 11
87.419899999999984
 21
199.494
 31
0.0
  0
LINE
  5
237
  8
_________1
 62
     7
 10
87.919700000000006
 20
176.58600000000001
 30
0.0
 11
87.919700000000006
 21
199.45099999999999
 31
0.0
  0
LINE
  5
238
  8
_________1
 62
     7
 10
57.913499999999999
 20
203.45099999999999
 30
0.0
 11
83.919600000000003
 21
203.45099999999999
 31
0.0
  0
LINE
  5
239
  8
_________1
 62
     7
 10
57.913499999999999
 20
202.95099999999999
 30
0.0
 11
83.920299999999997
 21
202.95099999999999
 31
0.0
  0
ARC
  5
23A
  8
_________1
 62
     7
 10
83.919696999999999
 20
199.45135999999999
 30
0.0
 40
4.0000400000000003
 50
0.001244
 51
90.001214000000004
  0
LINE
  5
23B
  8
_________1
 62
     7
 10
31.087499999999999
 20
91.571200000000005
 30
0.0
 11
31.680099999999999
 21
89.360100000000017
 31
0.0
  0
LINE
  5
23C
  8
_________1
 62
     7
 10
31.680099999999999
 20
89.360100000000017
 30
0.0
 11
32.2727
 21
91.571200000000005
 31
0.0
  0
LINE
  5
23D
  8
_________1
 62
     7
 10
32.2727
 20
91.571200000000005
 30
0.0
 11
31.087499999999999
 21
91.571200000000005
 31
0.0
  0
LINE
  5
23E
  8
_________1
 62
     7
 10
32.2727
 20
83.849000000000004
 30
0.0
 11
31.680099999999999
 21
86.060100000000006
 31
0.0
  0
LINE
  5
23F
  8
_________1
 62
     7
 10
31.680099999999999
 20
86.060100000000006
 30
0.0
 11
31.087499999999999
 21
83.849000000000004
 31
0.0
  0
LINE
  5
240
  8
_________1
 62
     7
 10
31.087499999999999
 20
83.849000000000004
 30
0.0
 11
32.2727
 21
83.849000000000004
 31
0.0
  0
LINE
  5
241
  8
_________1
 62
     7
 10
31.680099999999999
 20
74.532399999999996
 30
0.0
 11
31.680099999999999
 21
93.266199999999998
 31
0.0
  0
LINE
  5
242
  8
_________1
 62
     7
 10
30.98
 20
86.060100000000006
 30
0.0
 11
35.325499999999998
 21
86.060100000000006
 31
0.0
  0
LINE
  5
243
  8
_________1
 62
     7
 10
30.98
 20
89.360100000000017
 30
0.0
 11
38.223199999999999
 21
89.360100000000017
 31
0.0
  0
LINE
  5
244
  8
_________1
 62
     7
 10
107.05
 20
89.580999999999989
 30
0.0
 11
107.642
 21
87.369900000000001
 31
0.0
  0
LINE
  5
245
  8
_________1
 62
     7
 10
107.642
 20
87.369900000000001
 30
0.0
 11
108.235
 21
89.580999999999989
 31
0.0
  0
LINE
  5
246
  8
_________1
 62
     7
 10
108.235
 20
89.580999999999989
 30
0.0
 11
107.05
 21
89.580999999999989
 31
0.0
  0
LINE
  5
247
  8
_________1
 62
     7
 10
108.235
 20
99.658999999999992
 30
0.0
 11
107.642
 21
101.87
 31
0.0
  0
LINE
  5
248
  8
_________1
 62
     7
 10
107.642
 20
101.87
 30
0.0
 11
107.05
 21
99.658999999999992
 31
0.0
  0
LINE
  5
249
  8
_________1
 62
     7
 10
107.05
 20
99.658999999999992
 30
0.0
 11
108.235
 21
99.658999999999992
 31
0.0
  0
LINE
  5
24A
  8
_________1
 62
     7
 10
78.921099999999996
 20
104.081
 30
0.0
 11
79.5137
 21
101.87
 31
0.0
  0
LINE
  5
24B
  8
_________1
 62
     7
 10
79.5137
 20
101.87
 30
0.0
 11
80.106200000000015
 21
104.081
 31
0.0
  0
LINE
  5
24C
  8
_________1
 62
     7
 10
80.106200000000015
 20
104.081
 30
0.0
 11
78.921099999999996
 21
104.081
 31
0.0
  0
LINE
  5
24D
  8
_________1
 62
     7
 10
80.106200000000015
 20
96.711699999999993
 30
0.0
 11
79.5137
 21
98.923400000000001
 31
0.0
  0
LINE
  5
24E
  8
_________1
 62
     7
 10
79.5137
 20
98.923400000000001
 30
0.0
 11
78.921099999999996
 21
96.711699999999993
 31
0.0
  0
LINE
  5
24F
  8
_________1
 62
     7
 10
78.921099999999996
 20
96.711699999999993
 30
0.0
 11
80.106200000000015
 21
96.711699999999993
 31
0.0
  0
LINE
  5
250
  8
_________1
 62
     7
 10
79.5137
 20
95.579999999999984
 30
0.0
 11
79.5137
 21
107.857
 31
0.0
  0
LINE
  5
251
  8
_________1
 62
     7
 10
95.137900000000002
 20
91.571200000000005
 30
0.0
 11
95.730500000000006
 21
89.360100000000017
 31
0.0
  0
LINE
  5
252
  8
_________1
 62
     7
 10
95.730500000000006
 20
89.360100000000017
 30
0.0
 11
96.323099999999997
 21
91.571200000000005
 31
0.0
  0
LINE
  5
253
  8
_________1
 62
     7
 10
96.323099999999997
 20
91.571200000000005
 30
0.0
 11
95.137900000000002
 21
91.571200000000005
 31
0.0
  0
LINE
  5
254
  8
_________1
 62
     7
 10
96.323099999999997
 20
99.658299999999997
 30
0.0
 11
95.730500000000006
 21
101.87
 31
0.0
  0
LINE
  5
255
  8
_________1
 62
     7
 10
95.730500000000006
 20
101.87
 30
0.0
 11
95.137900000000002
 21
99.658299999999997
 31
0.0
  0
LINE
  5
256
  8
_________1
 62
     7
 10
95.137900000000002
 20
99.658299999999997
 30
0.0
 11
96.323099999999997
 21
99.658299999999997
 31
0.0
  0
INSERT
  5
257
  8
_________1
 62
     7
  2
AIGNBL02010004
 10
0.0
 20
0.0
 30
0.0
  0
INSERT
  5
258
  8
_________1
 62
     7
  2
AIGNBL02010005
 10
0.0
 20
0.0
 30
0.0
  0
INSERT
  5
259
  8
_________1
 62
     7
  2
AIGNBL02010006
 10
0.0
 20
0.0
 30
0.0
  0
INSERT
  5
25A
  8
_________1
 62
     7
  2
AIGNBL02010007
 10
0.0
 20
0.0
 30
0.0
  0
ARC
  5
25B
  8
_________1
 62
     7
 10
57.770095999999988
 20
183.592063
 30
0.0
 40
3.8963640000000002
 50
272.11363399999999
 51
357.88637599999998
  0
ARC
  5
25C
  8
_________1
 62
     7
 10
58.057118999999993
 20
183.59168
 30
0.0
 40
3.8959669999999988
 50
182.10821899999999
 51
267.89181000000002
  0
ARC
  5
25D
  8
_________1
 62
     7
 10
58.057501000000002
 20
183.30465799999999
 30
0.0
 40
3.8963629999999991
 50
92.113596999999999
 51
177.88637299999999
  0
ARC
  5
25E
  8
_________1
 62
     7
 10
57.770477999999997
 20
183.30503899999999
 30
0.0
 40
3.895967999999999
 50
2.1082169999999989
 51
87.891773000000001
  0
ARC
  5
25F
  8
_________1
 62
     7
 10
57.825654999999998
 20
183.53650400000001
 30
0.0
 40
2.3897300000000001
 50
272.113811
 51
357.88619899999998
  0
ARC
  5
260
  8
_________1
 62
     7
 10
58.00235
 20
183.536911
 30
0.0
 40
2.3901520000000001
 50
182.12321700000001
 51
267.87681300000003
  0
ARC
  5
261
  8
_________1
 62
     7
 10
58.001942
 20
183.36021700000001
 30
0.0
 40
2.3897289999999991
 50
92.113772999999981
 51
177.88619700000001
  0
ARC
  5
262
  8
_________1
 62
     7
 10
57.825248000000002
 20
183.35980900000001
 30
0.0
 40
2.3901520000000001
 50
2.1231969999999998
 51
87.876793000000006
  0
LINE
  5
263
  8
_________1
  6
AIGENLINE002
 62
     7
 10
57.913800000000002
 20
178.715
 30
0.0
 11
57.913800000000002
 21
188.161
 31
0.0
  0
LINE
  5
264
  8
_________1
  6
AIGENLINE002
 62
     7
 10
52.574599999999997
 20
183.44800000000001
 30
0.0
 11
63.276499999999999
 21
183.44800000000001
 31
0.0
  0
ARC
  5
265
  8
_________1
 62
     7
 10
57.913364999999992
 20
183.45120600000001
 30
0.0
 40
19.500142
 50
270.00027299999999
 51
0.000243
  0
ARC
  5
266
  8
_________1
 62
     7
 10
57.913538000000003
 20
183.451199
 30
0.0
 40
19.500135
 50
179.999717
 51
269.99976700000002
  0
ARC
  5
267
  8
_________1
 62
     7
 10
57.913457999999999
 20
183.45128500000001
 30
0.0
 40
19.500056000000001
 50
90.0
 51
179.99996999999999
  0
ARC
  5
268
  8
_________1
 62
     7
 10
57.913451000000002
 20
183.45128500000001
 30
0.0
 40
19.500056000000001
 50
0.00001
 51
89.999980000000008
  0
ARC
  5
269
  8
_________1
 62
     7
 10
134.31952699999999
 20
183.42176499999999
 30
0.0
 40
7.2884250000000002
 50
269.94649299999998
 51
293.7523930000001
  0
ARC
  5
26A
  8
_________1
 62
     7
 10
134.31263200000001
 20
183.433459
 30
0.0
 40
7.300116
 50
180.000686
 51
270.000696
  0
ARC
  5
26B
  8
_________1
 62
     7
 10
134.507676
 20
183.298509
 30
0.0
 40
7.4963729999999993
 50
110.88725599999999
 51
178.96913499999999
  0
ARC
  5
26C
  8
_________1
 62
     7
 10
156.02434299999999
 20
195.86129500000001
 30
0.0
 40
4.6061170000000002
 50
89.976144999999988
 51
113.12745099999999
  0
ARC
  5
26D
  8
_________1
 62
     7
 10
156.02634599999999
 20
195.867232
 30
0.0
 40
4.600179999999999
 50
0.001083
 51
90.001052999999985
  0
ARC
  5
26E
  8
_________1
 62
     7
 10
156.39397299999999
 20
195.86574899999999
 30
0.0
 40
4.2325530000000002
 50
358.209137
 51
0.02125
  0
ARC
  5
26F
  8
_________1
 62
     7
 10
156.31882400000001
 20
189.11967100000001
 30
0.0
 40
4.1054019999999989
 50
291.63103599999999
 51
359.00525399999998
  0
LINE
  5
270
  8
_________1
 62
     7
 10
158.24700000000001
 20
187.91900000000001
 30
0.0
 11
159.23699999999999
 21
186.20500000000001
 31
0.0
  0
LINE
  5
271
  8
_________1
 62
     7
 10
159.23699999999999
 20
186.20500000000001
 30
0.0
 11
157.52199999999999
 21
187.19499999999999
 31
0.0
  0
LINE
  5
272
  8
_________1
 62
     7
 10
157.52199999999999
 20
187.19499999999999
 30
0.0
 11
158.24700000000001
 21
187.91900000000001
 31
0.0
  0
LINE
  5
273
  8
_________1
 62
     7
 10
159.23699999999999
 20
186.20500000000001
 30
0.0
 11
156.42400000000001
 21
189.048
 31
0.0
  0
INSERT
  5
274
  8
_________1
 62
     7
  2
AIGNBL02010008
 10
0.0
 20
0.0
 30
0.0
  0
INSERT
  5
275
  8
_________1
 62
     7
  2
AIGNBL02010009
 10
0.0
 20
0.0
 30
0.0
  0
LINE
  5
276
  8
_________1
  6
AIGENLINE001
 62
     7
 10
117.2
 20
99.165599999999998
 30
0.0
 11
152.87799999999999
 21
99.165599999999998
 31
0.0
  0
ARC
  5
277
  8
_________1
  6
AIGENLINE001
 62
     7
 10
144.40183500000001
 20
64.881274000000005
 30
0.0
 40
27.102395000000001
 50
94.863144999999975
 51
96.954506000000023
  0
ARC
  5
278
  8
_________1
  6
AIGENLINE001
 62
     7
 10
142.75530599999999
 20
78.820307
 30
0.0
 40
13.066661
 50
97.188408999999993
 51
100.80143099999999
  0
ARC
  5
279
  8
_________1
  6
AIGENLINE001
 62
     7
 10
141.77090200000001
 20
84.094965999999999
 30
0.0
 40
7.701003
 50
100.961688
 51
105.5776409999999
  0
ARC
  5
27A
  8
_________1
  6
AIGENLINE001
 62
     7
 10
140.85807700000001
 20
87.401116999999985
 30
0.0
 40
4.2711709999999989
 50
105.692375
 51
114.87106300000001
  0
ARC
  5
27B
  8
_________1
  6
AIGENLINE001
 62
     7
 10
139.99217899999999
 20
89.347899999999996
 30
0.0
 40
2.141019
 50
115.759102
 51
125.179789
  0
LINE
  5
27C
  8
_________1
  6
AIGENLINE001
 62
     7
 10
150.845
 20
92.338800000000006
 30
0.0
 11
142.10400000000001
 21
91.886099999999999
 31
0.0
  0
ARC
  5
27D
  8
_________1
  6
AIGENLINE001
 62
     7
 10
154.198215
 20
101.718636
 30
0.0
 40
0.134125
 50
75.847341
 51
130.96664100000001
  0
ARC
  5
27E
  8
_________1
  6
AIGENLINE001
 62
     7
 10
154.28872699999999
 20
101.613055
 30
0.0
 40
0.273192
 50
130.782779
 51
153.48332199999999
  0
ARC
  5
27F
  8
_________1
  6
AIGENLINE001
 62
     7
 10
154.58728400000001
 20
101.43734499999999
 30
0.0
 40
0.619252
 50
151.268406
 51
157.51481899999999
  0
ARC
  5
280
  8
_________1
  6
AIGENLINE001
 62
     7
 10
155.05676199999999
 20
101.247489
 30
0.0
 40
1.1256559999999991
 50
157.72483399999999
 51
163.82147900000001
  0
ARC
  5
281
  8
_________1
  6
AIGENLINE001
 62
     7
 10
156.06153900000001
 20
100.96053000000001
 30
0.0
 40
2.1706020000000001
 50
163.93675300000001
 51
169.07100299999999
  0
ARC
  5
282
  8
_________1
  6
AIGENLINE001
 62
     7
 10
158.13125500000001
 20
100.55170099999999
 30
0.0
 40
4.2803000000000004
 50
168.95036200000001
 51
172.068352
  0
ARC
  5
283
  8
_________1
  6
AIGENLINE001
 62
     7
 10
162.01150999999999
 20
100.00672
 30
0.0
 40
8.1986380000000008
 50
172.03812600000001
 51
174.42370700000001
  0
ARC
  5
284
  8
_________1
  6
AIGENLINE001
 62
     7
 10
172.02117699999999
 20
99.017226000000008
 30
0.0
 40
18.257089999999991
 50
174.38552899999999
 51
175.877702
  0
ARC
  5
285
  8
_________1
  6
AIGENLINE001
 62
     7
 10
224.97242700000001
 20
95.244230999999985
 30
0.0
 40
71.342586999999995
 50
175.91238200000001
 51
176.65397100000001
  0
ARC
  5
286
  8
_________1
  6
AIGENLINE001
 62
     7
 10
103.53139400000001
 20
102.22614400000001
 30
0.0
 40
50.299064999999999
 50
354.59698700000001
 51
356.78838200000001
  0
ARC
  5
287
  8
_________1
  6
AIGENLINE001
 62
     7
 10
132.37303499999999
 20
99.576867000000007
 30
0.0
 40
21.336252999999999
 50
350.47772500000002
 51
354.38687599999997
  0
ARC
  5
288
  8
_________1
  6
AIGENLINE001
 62
     7
 10
141.46962500000001
 20
98.104821999999999
 30
0.0
 40
12.121594999999999
 50
344.61849100000001
 51
350.22675400000003
  0
ARC
  5
289
  8
_________1
  6
AIGENLINE001
 62
     7
 10
146.24034599999999
 20
96.834806000000015
 30
0.0
 40
7.185007999999999
 50
337.10611999999998
 51
344.29245800000001
  0
ARC
  5
28A
  8
_________1
  6
AIGENLINE001
 62
     7
 10
148.838167
 20
95.761937000000003
 30
0.0
 40
4.3745079999999996
 50
326.06402700000001
 51
336.81452899999999
  0
ARC
  5
28B
  8
_________1
  6
AIGENLINE001
 62
     7
 10
150.169094
 20
94.904352999999986
 30
0.0
 40
2.791706
 50
311.7420140000001
 51
325.41737599999999
  0
ARC
  5
28C
  8
_________1
  6
AIGENLINE001
 62
     7
 10
150.72322500000001
 20
94.327955000000003
 30
0.0
 40
1.9929209999999991
 50
273.517382
 51
310.887764
  0
ARC
  5
28D
  8
_________1
  6
AIGENLINE001
 62
     7
 10
123.45947
 20
61.538722
 30
0.0
 40
30.516694000000001
 50
82.033414000000008
 51
85.13239200000001
  0
ARC
  5
28E
  8
_________1
  6
AIGENLINE001
 62
     7
 10
125.40231199999999
 20
75.950839999999985
 30
0.0
 40
15.974567
 50
78.504405000000006
 51
81.770290000000003
  0
ARC
  5
28F
  8
_________1
  6
AIGENLINE001
 62
     7
 10
126.817646
 20
83.016413
 30
0.0
 40
8.7686890000000002
 50
73.961472999999984
 51
78.366057999999995
  0
ARC
  5
290
  8
_________1
  6
AIGENLINE001
 62
     7
 10
127.990077
 20
87.162018999999987
 30
0.0
 40
4.4605610000000002
 50
67.706997999999999
 51
73.722967000000011
  0
ARC
  5
291
  8
_________1
  6
AIGENLINE001
 62
     7
 10
128.92234999999999
 20
89.453344999999985
 30
0.0
 40
1.986856999999999
 50
55.862733999999989
 51
67.516479000000004
  0
LINE
  5
292
  8
_________1
  6
AIGENLINE001
 62
     7
 10
117.803
 20
92.338800000000006
 30
0.0
 11
126.04900000000001
 21
91.945400000000006
 31
0.0
  0
LINE
  5
293
  8
_________1
  6
AIGENLINE001
 62
     7
 10
130.24000000000001
 20
90.953199999999995
 30
0.0
 11
138.41999999999999
 21
90.953199999999995
 31
0.0
  0
ARC
  5
294
  8
_________1
  6
AIGENLINE001
 62
     7
 10
131.287452
 20
105.99565
 30
0.0
 40
23.257570000000001
 50
344.549935
 51
345.44533100000001
  0
ARC
  5
295
  8
_________1
  6
AIGENLINE001
 62
     7
 10
152.32359
 20
100.234235
 30
0.0
 40
1.447675
 50
331.70930199999998
 51
342.53973300000001
  0
ARC
  5
296
  8
_________1
  6
AIGENLINE001
 62
     7
 10
152.94938500000001
 20
99.916442000000004
 30
0.0
 40
0.7462
 50
275.60105199999998
 51
330.42245600000001
  0
ARC
  5
297
  8
_________1
  6
AIGENLINE001
 62
     7
 10
152.881833
 20
100.37472699999999
 30
0.0
 40
1.2091000000000001
 50
269.82367799999997
 51
276.66733499999998
  0
ARC
  5
298
  8
_________1
  6
AIGENLINE001
 62
     7
 10
115.75682
 20
101.783512
 30
0.0
 40
0.086539
 50
47.434541000000003
 51
89.898313999999985
  0
ARC
  5
299
  8
_________1
  6
AIGENLINE001
 62
     7
 10
115.714336
 20
101.73569999999999
 30
0.0
 40
0.150494
 50
31.776122999999998
 51
47.835009999999997
  0
ARC
  5
29A
  8
_________1
  6
AIGENLINE001
 62
     7
 10
115.583533
 20
101.654284
 30
0.0
 40
0.304564
 50
19.638041000000001
 51
31.838464999999999
  0
ARC
  5
29B
  8
_________1
  6
AIGENLINE001
 62
     7
 10
115.180391
 20
101.506978
 30
0.0
 40
0.733771
 50
12.264443999999999
 51
19.891964000000002
  0
ARC
  5
29C
  8
_________1
  6
AIGENLINE001
 62
     7
 10
114.172451
 20
101.283186
 30
0.0
 40
1.766252999999999
 50
7.8566279999999988
 51
12.412791
  0
ARC
  5
29D
  8
_________1
  6
AIGENLINE001
 62
     7
 10
109.821504
 20
100.68517300000001
 30
0.0
 40
6.1581039999999989
 50
5.3237249999999987
 51
7.8347480000000003
  0
ARC
  5
29E
  8
_________1
  6
AIGENLINE001
 62
     7
 10
124.82306800000001
 20
101.952483
 30
0.0
 40
8.8972839999999991
 50
184.486266
 51
188.70465200000001
  0
ARC
  5
29F
  8
_________1
  6
AIGENLINE001
 62
     7
 10
119.829758
 20
101.18355699999999
 30
0.0
 40
3.845121999999999
 50
188.63941399999999
 51
195.73182499999999
  0
ARC
  5
2A0
  8
_________1
  6
AIGENLINE001
 62
     7
 10
118.115109
 20
100.712608
 30
0.0
 40
2.0670419999999989
 50
196.05317400000001
 51
209.61282
  0
ARC
  5
2A1
  8
_________1
  6
AIGENLINE001
 62
     7
 10
117.32498099999999
 20
100.290026
 30
0.0
 40
1.171530999999999
 50
210.73991899999999
 51
233.46319700000001
  0
ARC
  5
2A2
  8
_________1
  6
AIGENLINE001
 62
     7
 10
117.197289
 20
100.16250100000001
 30
0.0
 40
0.9934059999999998
 50
235.00197499999999
 51
263.97022500000003
  0
ARC
  5
2A3
  8
_________1
  6
AIGENLINE001
 62
     7
 10
117.25738800000001
 20
100.498943
 30
0.0
 40
1.334524
 50
262.92155000000008
 51
267.55593399999998
  0
ARC
  5
2A4
  8
_________1
  6
AIGENLINE001
 62
     7
 10
114.449962
 20
101.718636
 30
0.0
 40
0.134125
 50
49.033338999999991
 51
104.15263899999999
  0
ARC
  5
2A5
  8
_________1
  6
AIGENLINE001
 62
     7
 10
114.35945
 20
101.613055
 30
0.0
 40
0.273192
 50
26.51665800000001
 51
49.217201000000003
  0
ARC
  5
2A6
  8
_________1
  6
AIGENLINE001
 62
     7
 10
114.06089299999999
 20
101.43734499999999
 30
0.0
 40
0.619252
 50
22.485161000000002
 51
28.731573999999998
  0
ARC
  5
2A7
  8
_________1
  6
AIGENLINE001
 62
     7
 10
113.591416
 20
101.247489
 30
0.0
 40
1.1256559999999991
 50
16.178501000000001
 51
22.275145999999999
  0
ARC
  5
2A8
  8
_________1
  6
AIGENLINE001
 62
     7
 10
112.58663799999999
 20
100.96053000000001
 30
0.0
 40
2.1706020000000001
 50
10.928977
 51
16.063226999999991
  0
ARC
  5
2A9
  8
_________1
  6
AIGENLINE001
 62
     7
 10
110.51692300000001
 20
100.55170099999999
 30
0.0
 40
4.2803000000000004
 50
7.931627999999999
 51
11.049618000000001
  0
ARC
  5
2AA
  8
_________1
  6
AIGENLINE001
 62
     7
 10
106.636667
 20
100.00672
 30
0.0
 40
8.1986380000000008
 50
5.5762729999999996
 51
7.9618539999999998
  0
ARC
  5
2AB
  8
_________1
  6
AIGENLINE001
 62
     7
 10
96.627001000000021
 20
99.017226000000008
 30
0.0
 40
18.257089999999991
 50
4.1222779999999988
 51
5.614450999999999
  0
ARC
  5
2AC
  8
_________1
  6
AIGENLINE001
 62
     7
 10
43.675750000000001
 20
95.244230999999985
 30
0.0
 40
71.342586999999995
 50
3.3460089999999991
 51
4.0875979999999998
  0
ARC
  5
2AD
  8
_________1
  6
AIGENLINE001
 62
     7
 10
165.116784
 20
102.22614400000001
 30
0.0
 40
50.299064999999999
 50
183.211637
 51
185.40303299999999
  0
ARC
  5
2AE
  8
_________1
  6
AIGENLINE001
 62
     7
 10
136.27514199999999
 20
99.576867000000007
 30
0.0
 40
21.336252999999999
 50
185.61314400000001
 51
189.52229500000001
  0
ARC
  5
2AF
  8
_________1
  6
AIGENLINE001
 62
     7
 10
127.178552
 20
98.104821999999999
 30
0.0
 40
12.121594999999999
 50
189.77326599999989
 51
195.381529
  0
ARC
  5
2B0
  8
_________1
  6
AIGENLINE001
 62
     7
 10
122.407832
 20
96.834806000000015
 30
0.0
 40
7.185007999999999
 50
195.707561
 51
202.8939
  0
ARC
  5
2B1
  8
_________1
  6
AIGENLINE001
 62
     7
 10
119.81001000000001
 20
95.761937000000003
 30
0.0
 40
4.3745079999999996
 50
203.18548999999999
 51
213.935993
  0
ARC
  5
2B2
  8
_________1
  6
AIGENLINE001
 62
     7
 10
118.479083
 20
94.904352999999986
 30
0.0
 40
2.791706
 50
214.58264399999999
 51
228.25800599999999
  0
ARC
  5
2B3
  8
_________1
  6
AIGENLINE001
 62
     7
 10
117.924952
 20
94.327955000000003
 30
0.0
 40
1.9929209999999991
 50
229.112256
 51
266.48263700000001
  0
ARC
  5
2B4
  8
_________1
  6
AIGENLINE001
 62
     7
 10
129.70650599999999
 20
90.506155000000007
 30
0.0
 40
0.6779060000000001
 50
54.689573000000003
 51
60.790323000000001
  0
ARC
  5
2B5
  8
_________1
  6
AIGENLINE001
 62
     7
 10
128.646672
 20
88.967365000000015
 30
0.0
 40
2.5463169999999988
 50
47.18535700000001
 51
55.242447999999989
  0
ARC
  5
2B6
  8
_________1
  6
AIGENLINE001
 62
     7
 10
129.973288
 20
90.377564000000007
 30
0.0
 40
0.610428
 50
37.913780000000003
 51
48.568646999999999
  0
ARC
  5
2B7
  8
_________1
  6
AIGENLINE001
 62
     7
 10
129.96140199999999
 20
90.410200000000003
 30
0.0
 40
0.600662
 50
4.8047269999999989
 51
34.759521999999997
  0
ARC
  5
2B8
  8
_________1
  6
AIGENLINE001
 62
     7
 10
480.75911900000011
 20
120.509022
 30
0.0
 40
351.48594300000002
 50
184.90421799999999
 51
185.07976300000001
  0
LINE
  5
2B9
  8
_________1
  6
AIGENLINE001
 62
     7
 10
137.994
 20
89.387699999999995
 30
0.0
 11
138.102
 21
90.460499999999996
 31
0.0
  0
ARC
  5
2BA
  8
_________1
  6
AIGENLINE001
 62
     7
 10
138.71804700000001
 20
90.404387999999997
 30
0.0
 40
0.618937
 50
145.757993
 51
174.797416
  0
ARC
  5
2BB
  8
_________1
  6
AIGENLINE001
 62
     7
 10
138.62497500000001
 20
90.461039999999997
 30
0.0
 40
0.51015
 50
128.51414
 51
145.136043
  0
ARC
  5
2BC
  8
_________1
  6
AIGENLINE001
 62
     7
 10
139.01381799999999
 20
90.015815000000003
 30
0.0
 40
1.1009850000000001
 50
117.210516
 51
129.91969
  0
ARC
  5
2BD
  8
_________1
  6
AIGENLINE001
 62
     7
 10
139.161609
 20
89.774713000000006
 30
0.0
 40
1.3831459999999991
 50
106.938151
 51
118.088269
  0
LINE
  5
2BE
  8
_________1
  6
AIGENLINE001
 62
     7
 10
74.649500000000003
 20
98.823199999999986
 30
0.0
 11
86.425899999999999
 21
99.065700000000021
 31
0.0
  0
ARC
  5
2BF
  8
_________1
  6
AIGENLINE001
 62
     7
 10
64.496178999999984
 20
84.971885
 30
0.0
 40
7.1855019999999996
 50
91.531396000000015
 51
93.444003000000009
  0
ARC
  5
2C0
  8
_________1
  6
AIGENLINE001
 62
     7
 10
64.792511000000005
 20
78.050364000000002
 30
0.0
 40
14.112833
 50
92.956814000000008
 51
98.044731999999996
  0
ARC
  5
2C1
  8
_________1
  6
AIGENLINE001
 62
     7
 10
63.665714999999999
 20
86.343231000000003
 30
0.0
 40
5.7440600000000002
 50
98.492093000000011
 51
103.857784
  0
ARC
  5
2C2
  8
_________1
  6
AIGENLINE001
 62
     7
 10
62.863810999999991
 20
89.646602000000001
 30
0.0
 40
2.344808
 50
104.166571
 51
112.402687
  0
ARC
  5
2C3
  8
_________1
  6
AIGENLINE001
 62
     7
 10
62.300759999999997
 20
91.035200000000003
 30
0.0
 40
0.8464669999999999
 50
112.98872299999999
 51
127.04970299999999
  0
ARC
  5
2C4
  8
_________1
  6
AIGENLINE001
 62
     7
 10
62.013819999999988
 20
91.434493999999987
 30
0.0
 40
0.35509
 50
128.91656399999999
 51
140.12079199999999
  0
LINE
  5
2C5
  8
_________1
  6
AIGENLINE001
 62
     7
 10
71.3108
 20
92.555499999999995
 30
0.0
 11
64.304100000000005
 21
92.154799999999994
 31
0.0
  0
ARC
  5
2C6
  8
_________1
  6
AIGENLINE001
 62
     7
 10
87.651818999999989
 20
101.605104
 30
0.0
 40
0.26443
 50
82.538331999999997
 51
107.671413
  0
ARC
  5
2C7
  8
_________1
  6
AIGENLINE001
 62
     7
 10
87.647415000000009
 20
101.64666699999999
 30
0.0
 40
0.223649
 50
109.829306
 51
141.49632199999999
  0
ARC
  5
2C8
  8
_________1
  6
AIGENLINE001
 62
     7
 10
87.795536999999996
 20
101.52178499999999
 30
0.0
 40
0.417349
 50
140.73930899999999
 51
160.68092999999999
  0
ARC
  5
2C9
  8
_________1
  6
AIGENLINE001
 62
     7
 10
88.230136999999999
 20
101.34295
 30
0.0
 40
0.886993
 50
159.06668300000001
 51
166.027039
  0
ARC
  5
2CA
  8
_________1
  6
AIGENLINE001
 62
     7
 10
88.917406
 20
101.170079
 30
0.0
 40
1.595669
 50
165.96222399999999
 51
171.236626
  0
ARC
  5
2CB
  8
_________1
  6
AIGENLINE001
 62
     7
 10
90.329692000000009
 20
100.94926700000001
 30
0.0
 40
3.025110999999999
 50
171.17854
 51
174.837571
  0
ARC
  5
2CC
  8
_________1
  6
AIGENLINE001
 62
     7
 10
94.915186000000006
 20
100.533756
 30
0.0
 40
7.6293920000000002
 50
174.82835800000001
 51
177.13974400000001
  0
ARC
  5
2CD
  8
_________1
  6
AIGENLINE001
 62
     7
 10
78.411893000000006
 20
101.13974
 30
0.0
 40
8.8862620000000003
 50
353.59389099999999
 51
358.54731800000002
  0
ARC
  5
2CE
  8
_________1
  6
AIGENLINE001
 62
     7
 10
84.058811000000006
 20
100.499062
 30
0.0
 40
3.2031259999999988
 50
346.298428
 51
353.71235900000011
  0
ARC
  5
2CF
  8
_________1
  6
AIGENLINE001
 62
     7
 10
85.786318000000009
 20
100.086439
 30
0.0
 40
1.427068
 50
330.14492300000001
 51
345.96501000000001
  0
ARC
  5
2D0
  8
_________1
  6
AIGENLINE001
 62
     7
 10
86.422492000000005
 20
99.745239999999995
 30
0.0
 40
0.7057760000000001
 50
304.09778599999999
 51
328.45810999999998
  0
ARC
  5
2D1
  8
_________1
  6
AIGENLINE001
 62
     7
 10
86.492307999999994
 20
99.674934999999991
 30
0.0
 40
0.6086970000000002
 50
272.418027
 51
302.365612
  0
ARC
  5
2D2
  8
_________1
  6
AIGENLINE001
 62
     7
 10
86.461967000000001
 20
99.938310000000001
 30
0.0
 40
0.873328
 50
267.63539100000003
 51
273.67794199999997
  0
ARC
  5
2D3
  8
_________1
  6
AIGENLINE001
 62
     7
 10
74.651495999999995
 20
98.584314000000006
 30
0.0
 40
0.238883
 50
90.481267000000003
 51
146.27627200000001
  0
ARC
  5
2D4
  8
_________1
  6
AIGENLINE001
 62
     7
 10
74.943058999999991
 20
98.349613000000005
 30
0.0
 40
0.612594
 50
143.156961
 51
159.91004599999999
  0
ARC
  5
2D5
  8
_________1
  6
AIGENLINE001
 62
     7
 10
75.650017000000005
 20
98.059685000000002
 30
0.0
 40
1.376439999999999
 50
158.68403000000001
 51
164.77163999999999
  0
ARC
  5
2D6
  8
_________1
  6
AIGENLINE001
 62
     7
 10
76.640055000000004
 20
97.786248999999998
 30
0.0
 40
2.4035410000000001
 50
164.68141199999999
 51
168.68959599999999
  0
ARC
  5
2D7
  8
_________1
  6
AIGENLINE001
 62
     7
 10
78.464276999999996
 20
97.419282999999993
 30
0.0
 40
4.2643059999999986
 50
168.661843
 51
171.87889899999999
  0
ARC
  5
2D8
  8
_________1
  6
AIGENLINE001
 62
     7
 10
83.131473
 20
96.746779000000004
 30
0.0
 40
8.9797019999999996
 50
171.837773
 51
173.91872499999999
  0
ARC
  5
2D9
  8
_________1
  6
AIGENLINE001
 62
     7
 10
111.920676
 20
93.730473000000003
 30
0.0
 40
37.926476000000001
 50
173.99510699999999
 51
175.033536
  0
ARC
  5
2DA
  8
_________1
  6
AIGENLINE001
 62
     7
 10
53.645878000000003
 20
98.765652000000017
 30
0.0
 40
20.565460999999999
 50
351.76001400000001
 51
355.11354
  0
ARC
  5
2DB
  8
_________1
  6
AIGENLINE001
 62
     7
 10
65.050946999999994
 20
97.162226000000004
 30
0.0
 40
9.0484559999999998
 50
345.409267
 51
351.457988
  0
ARC
  5
2DC
  8
_________1
  6
AIGENLINE001
 62
     7
 10
68.710126000000002
 20
96.245575000000017
 30
0.0
 40
5.2764839999999991
 50
335.71805899999998
 51
345.03240899999997
  0
ARC
  5
2DD
  8
_________1
  6
AIGENLINE001
 62
     7
 10
70.598108999999994
 20
95.431606000000002
 30
0.0
 40
3.2209819999999989
 50
318.191644
 51
335.105592
  0
ARC
  5
2DE
  8
_________1
  6
AIGENLINE001
 62
     7
 10
71.334869999999995
 20
94.852161999999993
 30
0.0
 40
2.2863029999999989
 50
277.73974900000002
 51
316.70664900000003
  0
ARC
  5
2DF
  8
_________1
  6
AIGENLINE001
 62
     7
 10
71.195559000000003
 20
95.563327000000001
 30
0.0
 40
3.0100479999999989
 50
272.19464199999999
 51
278.54431099999999
  0
ARC
  5
2E0
  8
_________1
  6
AIGENLINE001
 62
     7
 10
52.811643999999987
 20
121.626524
 30
0.0
 40
29.786908
 50
266.13222500000001
 51
267.049915
  0
ARC
  5
2E1
  8
_________1
  6
AIGENLINE001
 62
     7
 10
49.784421000000002
 20
61.778962
 30
0.0
 40
30.137194999999998
 50
85.247631999999996
 51
87.158091999999996
  0
ARC
  5
2E2
  8
_________1
  6
AIGENLINE001
 62
     7
 10
51.262695000000001
 20
79.338336999999996
 30
0.0
 40
12.515727
 50
81.511037000000002
 51
85.331918000000002
  0
ARC
  5
2E3
  8
_________1
  6
AIGENLINE001
 62
     7
 10
52.339218000000002
 20
86.676134999999988
 30
0.0
 40
5.0994369999999991
 50
75.255456999999993
 51
81.303535999999994
  0
ARC
  5
2E4
  8
_________1
  6
AIGENLINE001
 62
     7
 10
53.101459999999989
 20
89.630077999999983
 30
0.0
 40
2.048821999999999
 50
65.732414000000006
 51
74.845329000000007
  0
ARC
  5
2E5
  8
_________1
  6
AIGENLINE001
 62
     7
 10
53.62010999999999
 20
90.799770999999978
 30
0.0
 40
0.7693630000000001
 50
47.833579
 51
65.142420000000001
  0
LINE
  5
2E6
  8
_________1
  6
AIGENLINE001
 62
     7
 10
41.501600000000003
 20
92.360100000000003
 30
0.0
 11
50.802399999999992
 21
91.907499999999985
 31
0.0
  0
LINE
  5
2E7
  8
_________1
 62
     7
 10
157.08199999999999
 20
195.84899999999999
 30
0.0
 11
155.02600000000001
 21
195.84899999999999
 31
0.0
  0
LINE
  5
2E8
  8
_________1
 62
     7
 10
156.02699999999999
 20
194.91800000000001
 30
0.0
 11
156.02699999999999
 21
196.779
 31
0.0
  0
LINE
  5
2E9
  8
_________1
 62
     7
 10
157.447
 20
189.048
 30
0.0
 11
155.40000000000001
 21
189.048
 31
0.0
  0
LINE
  5
2EA
  8
_________1
 62
     7
 10
156.423
 20
188.08000000000001
 30
0.0
 11
156.423
 21
189.94
 31
0.0
  0
ARC
  5
2EB
  8
_________1
  6
AIGENLINE001
 62
     7
 10
134.32339899999999
 20
183.441126
 30
0.0
 40
3.4985169999999992
 50
270.00002000000001
 51
359.99999000000003
  0
ARC
  5
2EC
  8
_________1
  6
AIGENLINE001
 62
     7
 10
134.32339899999999
 20
183.441125
 30
0.0
 40
3.498516
 50
179.99996999999999
 51
270.00002000000001
  0
ARC
  5
2ED
  8
_________1
  6
AIGENLINE001
 62
     7
 10
134.32339999999999
 20
183.441125
 30
0.0
 40
3.4985169999999992
 50
90.0
 51
179.99996999999999
  0
ARC
  5
2EE
  8
_________1
  6
AIGENLINE001
 62
     7
 10
134.32339899999999
 20
183.441125
 30
0.0
 40
3.4985169999999992
 50
0.00001
 51
89.999980000000008
  0
INSERT
  5
2EF
  8
_________1
 62
     7
  2
AIGNBL0201000A
 10
0.0
 20
0.0
 30
0.0
  0
LINE
  5
2F0
  8
_________1
  6
AIGENLINE001
 62
     7
 10
54.136600000000001
 20
91.370000000000005
 30
0.0
 11
61.636600000000001
 21
91.370000000000005
 31
0.0
  0
ARC
  5
2F1
  8
_________1
  6
AIGENLINE001
 62
     7
 10
38.148883000000012
 20
101.739996
 30
0.0
 40
0.134125
 50
49.033338999999991
 51
104.15263899999999
  0
ARC
  5
2F2
  8
_________1
  6
AIGENLINE001
 62
     7
 10
38.058317000000002
 20
101.63435699999999
 30
0.0
 40
0.273271
 50
26.521894
 51
49.21649399999999
  0
ARC
  5
2F3
  8
_________1
  6
AIGENLINE001
 62
     7
 10
37.756856999999997
 20
101.457285
 30
0.0
 40
0.622532
 50
22.501629999999999
 51
28.715105999999999
  0
ARC
  5
2F4
  8
_________1
  6
AIGENLINE001
 62
     7
 10
37.282840999999998
 20
101.266233
 30
0.0
 40
1.1335879999999989
 50
16.199852
 51
22.253795
  0
ARC
  5
2F5
  8
_________1
  6
AIGENLINE001
 62
     7
 10
36.280473000000001
 20
100.980667
 30
0.0
 40
2.1758329999999999
 50
10.935153
 51
16.057051000000001
  0
ARC
  5
2F6
  8
_________1
  6
AIGENLINE001
 62
     7
 10
34.208484000000013
 20
100.571929
 30
0.0
 40
4.2877450000000001
 50
7.9330350000000003
 51
11.045598
  0
ARC
  5
2F7
  8
_________1
  6
AIGENLINE001
 62
     7
 10
30.335588000000001
 20
100.02808
 30
0.0
 40
8.1986380000000008
 50
5.5762729999999996
 51
7.9618539999999998
  0
ARC
  5
2F8
  8
_________1
  6
AIGENLINE001
 62
     7
 10
20.295414000000001
 20
99.035780000000017
 30
0.0
 40
18.287725999999999
 50
4.124174
 51
5.6138479999999991
  0
ARC
  5
2F9
  8
_________1
  6
AIGENLINE001
 62
     7
 10
-32.522075999999998
 20
95.272714000000008
 30
0.0
 40
71.239093999999994
 50
3.3451369999999998
 51
4.0878030000000001
  0
ARC
  5
2FA
  8
_________1
  6
AIGENLINE001
 62
     7
 10
88.845018999999994
 20
102.249712
 30
0.0
 40
50.328457999999998
 50
183.212277
 51
185.40239299999999
  0
ARC
  5
2FB
  8
_________1
  6
AIGENLINE001
 62
     7
 10
59.961250999999997
 20
99.596525
 30
0.0
 40
21.323335
 50
185.6119599999999
 51
189.52348000000001
  0
ARC
  5
2FC
  8
_________1
  6
AIGENLINE001
 62
     7
 10
50.876164000000003
 20
98.125944000000004
 30
0.0
 40
12.120264000000001
 50
189.77320800000001
 51
195.382094
  0
ARC
  5
2FD
  8
_________1
  6
AIGENLINE001
 62
     7
 10
46.108327000000003
 20
96.856632000000005
 30
0.0
 40
7.1866440000000003
 50
195.70774800000001
 51
202.89241999999999
  0
ARC
  5
2FE
  8
_________1
  6
AIGENLINE001
 62
     7
 10
43.511348999999989
 20
95.784643000000003
 30
0.0
 40
4.3772650000000004
 50
203.1892
 51
213.93294399999999
  0
ARC
  5
2FF
  8
_________1
  6
AIGENLINE001
 62
     7
 10
42.178004000000001
 20
94.925712999999988
 30
0.0
 40
2.791706
 50
214.58264399999999
 51
228.25800599999999
  0
ARC
  5
300
  8
_________1
  6
AIGENLINE001
 62
     7
 10
41.623872999999989
 20
94.349315000000004
 30
0.0
 40
1.9929209999999991
 50
229.112256
 51
266.48263700000001
  0
ARC
  5
301
  8
_________1
  6
AIGENLINE001
 62
     7
 10
53.643098000000002
 20
91.027564999999996
 30
0.0
 40
0.600662
 50
4.8047269999999989
 51
34.759521999999997
  0
LINE
  5
302
  8
_________1
  6
AIGENLINE001
 62
     7
 10
54.241599999999998
 20
91.077899999999985
 30
0.0
 11
54.343600000000002
 21
89.426299999999983
 31
0.0
  0
LINE
  5
303
  8
_________1
  6
AIGENLINE001
 62
     7
 10
61.484699999999989
 20
89.555099999999996
 30
0.0
 11
61.636600000000001
 21
91.370000000000005
 31
0.0
  0
ARC
  5
304
  8
_________1
  6
AIGENLINE001
 62
     7
 10
62.258010999999989
 20
91.312094999999999
 30
0.0
 40
0.6241120000000001
 50
145.880988
 51
174.674421
  0
LINE
  5
305
  8
_________1
 62
     7
 10
114.887
 20
89.586799999999997
 30
0.0
 11
153.7589999999999
 21
89.586799999999997
 31
0.0
  0
LINE
  5
306
  8
_________1
  6
AIGENLINE002
 62
     7
 10
134.32300000000001
 20
92.580600000000004
 30
0.0
 11
134.32300000000001
 21
81.724699999999999
 31
0.0
  0
LINE
  5
307
  8
_________1
 62
     7
 10
137.994
 20
89.387699999999995
 30
0.0
 11
137.84299999999999
 21
87.644099999999995
 31
0.0
  0
ARC
  5
308
  8
_________1
 62
     7
 10
137.533613
 20
87.681279000000004
 30
0.0
 40
0.311541
 50
271.82791400000002
 51
353.15117800000002
  0
LINE
  5
309
  8
_________1
 62
     7
 10
137.5439999999999
 20
87.369900000000001
 30
0.0
 11
134.72300000000001
 21
87.369900000000001
 31
0.0
  0
LINE
  5
30A
  8
_________1
 62
     7
 10
133.923
 20
87.369900000000001
 30
0.0
 11
131.10300000000001
 21
87.369900000000001
 31
0.0
  0
ARC
  5
30B
  8
_________1
 62
     7
 10
131.11298400000001
 20
87.681059000000005
 30
0.0
 40
0.311315
 50
186.81306900000001
 51
268.20787899999999
  0
LINE
  5
30C
  8
_________1
 62
     7
 10
130.804
 20
87.644099999999995
 30
0.0
 11
130.654
 21
89.387699999999995
 31
0.0
  0
ARC
  5
30D
  8
_________1
 62
     7
 10
141.39559299999999
 20
93.065225999999996
 30
0.0
 40
4.5562809999999994
 50
288.536856
 51
306.183266
  0
ARC
  5
30E
  8
_________1
 62
     7
 10
141.68358699999999
 20
92.343118999999987
 30
0.0
 40
3.7803300000000002
 50
277.835217
 51
287.87777999999997
  0
ARC
  5
30F
  8
_________1
 62
     7
 10
15.88237
 20
1018.352
 30
0.0
 40
938.29580799999985
 50
277.47038800000001
 51
277.736852
  0
LINE
  5
310
  8
_________1
 62
     7
 10
114.559
 20
101.87
 30
0.0
 11
114.55
 21
101.87
 31
0.0
  0
ARC
  5
311
  8
_________1
 62
     7
 10
114.56647100000001
 20
101.663877
 30
0.0
 40
0.206846
 50
94.621681000000009
 51
180.529493
  0
LINE
  5
312
  8
_________1
 62
     7
 10
114.36
 20
101.66200000000001
 30
0.0
 11
114.887
 21
89.586799999999997
 31
0.0
  0
LINE
  5
313
  8
_________1
 62
     7
 10
114.887
 20
89.586799999999997
 30
0.0
 11
115.395
 21
89.387699999999995
 31
0.0
  0
LINE
  5
314
  8
_________1
 62
     7
 10
115.395
 20
89.387699999999995
 30
0.0
 11
153.25200000000001
 21
89.387699999999995
 31
0.0
  0
LINE
  5
315
  8
_________1
 62
     7
 10
153.25200000000001
 20
89.387699999999995
 30
0.0
 11
153.7589999999999
 21
89.586799999999997
 31
0.0
  0
LINE
  5
316
  8
_________1
 62
     7
 10
153.7589999999999
 20
89.586799999999997
 30
0.0
 11
154.28700000000001
 21
101.66200000000001
 31
0.0
  0
LINE
  5
317
  8
_________1
 62
     7
 10
154.28700000000001
 20
101.66200000000001
 30
0.0
 11
154.28700000000001
 21
101.667
 31
0.0
  0
ARC
  5
318
  8
_________1
 62
     7
 10
154.08225999999999
 20
101.665397
 30
0.0
 40
0.20491
 50
0.389085
 51
87.130955999999998
  0
LINE
  5
319
  8
_________1
 62
     7
 10
154.09299999999999
 20
101.87
 30
0.0
 11
114.559
 21
101.87
 31
0.0
  0
ARC
  5
31A
  8
_________1
 62
     7
 10
60.400477999999993
 20
89.22065400000001
 30
0.0
 40
1.391106999999999
 50
252.479432
 51
274.189911
  0
ARC
  5
31B
  8
_________1
 62
     7
 10
60.585447999999992
 20
89.944047999999995
 30
0.0
 40
2.137027999999999
 50
239.500362
 51
253.58915099999999
  0
ARC
  5
31C
  8
_________1
 62
     7
 10
61.011730999999997
 20
90.736735999999993
 30
0.0
 40
3.0365880000000001
 50
230.24062599999999
 51
240.16107
  0
ARC
  5
31D
  8
_________1
 62
     7
 10
60.811131000000003
 20
90.501277999999999
 30
0.0
 40
2.7272880000000002
 50
219.59607700000001
 51
230.316642
  0
ARC
  5
31E
  8
_________1
 62
     7
 10
60.006151000000003
 20
89.814802999999984
 30
0.0
 40
1.669541999999999
 50
195.82743099999999
 51
219.050524
  0
ARC
  5
31F
  8
_________1
 62
     7
 10
81.370377999999988
 20
15009.620000000001
 30
0.0
 40
14920.059999999999
 50
269.98005999999998
 51
270.02309700000001
  0
LINE
  5
320
  8
_________1
 62
     7
 10
76.175399999999996
 20
89.559700000000007
 30
0.0
 11
38.413699999999999
 21
89.560000000000016
 31
0.0
  0
ARC
  5
321
  8
_________1
 62
     7
 10
38.102038
 20
101.706185
 30
0.0
 40
0.164467
 50
85.099260000000001
 51
113.223938
  0
ARC
  5
322
  8
_________1
 62
     7
 10
38.136676000000001
 20
101.624225
 30
0.0
 40
0.253444
 50
113.11372299999999
 51
171.59382199999999
  0
LINE
  5
323
  8
_________1
 62
     7
 10
37.886000000000003
 20
101.661
 30
0.0
 11
38.413699999999999
 21
89.560000000000016
 31
0.0
  0
LINE
  5
324
  8
_________1
 62
     7
 10
38.413699999999999
 20
89.560000000000016
 30
0.0
 11
38.923299999999998
 21
89.360100000000017
 31
0.0
  0
LINE
  5
325
  8
_________1
 62
     7
 10
38.923299999999998
 20
89.360100000000017
 30
0.0
 11
86.871700000000004
 21
89.360100000000017
 31
0.0
  0
LINE
  5
326
  8
_________1
 62
     7
 10
86.871700000000004
 20
89.360100000000017
 30
0.0
 11
87.382299999999987
 21
89.560000000000016
 31
0.0
  0
LINE
  5
327
  8
_________1
 62
     7
 10
87.382299999999987
 20
89.560000000000016
 30
0.0
 11
87.910099999999986
 21
101.661
 31
0.0
  0
LINE
  5
328
  8
_________1
 62
     7
 10
87.910099999999986
 20
101.661
 30
0.0
 11
87.910099999999986
 21
101.67
 31
0.0
  0
ARC
  5
329
  8
_________1
 62
     7
 10
87.701943999999983
 20
101.661931
 30
0.0
 40
0.208286
 50
2.0947650000000002
 51
87.707993999999985
  0
LINE
  5
32A
  8
_________1
 62
     7
 10
87.710300000000004
 20
101.87
 30
0.0
 11
38.116100000000003
 21
101.87
 31
0.0
  0
ARC
  5
32B
  8
_________1
 62
     7
 10
61.990181
 20
84.815064000000007
 30
0.0
 40
3.104549
 50
90.682513
 51
93.483999999999995
  0
ARC
  5
32C
  8
_________1
 62
     7
 10
63.653767000000002
 20
52.934370999999999
 30
0.0
 40
35.028511000000002
 50
93.031109999999984
 51
94.018321
  0
ARC
  5
32D
  8
_________1
 62
     7
 10
43.072198999999991
 20
372.68589400000002
 30
0.0
 40
285.38539300000002
 50
273.501529
 51
273.64173699999998
  0
LINE
  5
32E
  8
_________1
  6
AIGENLINE002
 62
     7
 10
57.913800000000002
 20
92.360100000000003
 30
0.0
 11
57.913800000000002
 21
84.357100000000003
 31
0.0
  0
ARC
  5
32F
  8
_________1
 62
     7
 10
70.217755000000011
 20
97.856141000000008
 30
0.0
 40
9.3231579999999994
 50
274.20817599999998
 51
294.31727999999998
  0
LINE
  5
330
  8
_________1
 62
     7
 10
70.901899999999983
 20
88.558099999999996
 30
0.0
 11
70.901899999999983
 21
88.558800000000005
 31
0.0
  0
ARC
  5
331
  8
_________1
 62
     7
 10
-711.77376100000004
 20
10979.280000000001
 30
0.0
 40
10918.809999999999
 50
274.06349799999998
 51
274.11057599999998
  0
LINE
  5
332
  8
_________1
 62
     7
 10
61.953200000000002
 20
87.919399999999996
 30
0.0
 11
61.952899999999993
 21
87.918700000000015
 31
0.0
  0
ARC
  5
333
  8
_________1
 62
     7
 10
62.005468999999991
 20
87.298711999999995
 30
0.0
 40
0.62222
 50
94.850662999999983
 51
155.44245699999999
  0
ARC
  5
334
  8
_________1
 62
     7
 10
61.156146
 20
87.677757999999997
 30
0.0
 40
0.307921
 50
271.12662
 51
336.97319099999999
  0
LINE
  5
335
  8
_________1
 62
     7
 10
61.162199999999999
 20
87.369900000000001
 30
0.0
 11
54.805300000000003
 21
87.369900000000001
 31
0.0
  0
ARC
  5
336
  8
_________1
 62
     7
 10
54.815031000000012
 20
87.680310999999989
 30
0.0
 40
0.310568
 50
186.69053099999999
 51
268.198893
  0
LINE
  5
337
  8
_________1
 62
     7
 10
54.506599999999999
 20
87.644099999999995
 30
0.0
 11
54.355299999999993
 21
89.360100000000017
 31
0.0
  0
ARC
  5
338
  8
_________1
 62
     7
 10
41.744103000000003
 20
225.774744
 30
0.0
 40
64.811976000000001
 50
291.23096099999998
 51
291.297303
  0
LINE
  5
339
  8
_________1
 62
     7
 10
65.284300000000002
 20
165.38900000000001
 30
0.0
 11
84.886999999999986
 21
173.084
 31
0.0
  0
ARC
  5
33A
  8
_________1
 62
     7
 10
83.329931999999999
 20
176.86726999999999
 30
0.0
 40
4.0907770000000001
 50
292.37265000000002
 51
358.82574
  0
ARC
  5
33B
  8
_________1
 62
     7
 10
78.929725000000005
 20
174.275701
 30
0.0
 40
0.6584360000000001
 50
272.12709899999999
 51
357.9040589999999
  0
ARC
  5
33C
  8
_________1
 62
     7
 10
78.929755
 20
174.22721000000001
 30
0.0
 40
0.658419
 50
2.124579999999999
 51
87.875410000000016
  0
ARC
  5
33D
  8
_________1
 62
     7
 10
78.978560000000002
 20
174.226507
 30
0.0
 40
0.659121
 50
92.121192000000008
 51
177.81649999999999
  0
ARC
  5
33E
  8
_________1
 62
     7
 10
78.978264999999993
 20
174.27607900000001
 30
0.0
 40
0.6588020000000001
 50
182.12771100000001
 51
267.90344900000008
  0
ARC
  5
33F
  8
_________1
 62
     7
 10
82.042732999999998
 20
180.501372
 30
0.0
 40
0.6584360000000001
 50
272.12709899999999
 51
357.9040589999999
  0
ARC
  5
340
  8
_________1
 62
     7
 10
82.042413999999994
 20
180.45289099999999
 30
0.0
 40
0.6587670000000001
 50
2.1226759999999989
 51
87.846165999999997
  0
ARC
  5
341
  8
_________1
 62
     7
 10
82.090808999999993
 20
180.45329599999999
 30
0.0
 40
0.6583210000000001
 50
92.057652999999988
 51
177.91118700000001
  0
ARC
  5
342
  8
_________1
 62
     7
 10
82.091294000000005
 20
180.50177099999999
 30
0.0
 40
0.6588230000000001
 50
182.129424
 51
267.90173600000003
  0
ARC
  5
343
  8
_________1
 62
     7
 10
78.929700999999994
 20
177.38872000000001
 30
0.0
 40
0.658448
 50
272.12917999999991
 51
357.933108
  0
ARC
  5
344
  8
_________1
 62
     7
 10
78.929395999999997
 20
177.34056200000001
 30
0.0
 40
0.658778
 50
2.1235319999999991
 51
87.845310999999995
  0
ARC
  5
345
  8
_________1
 62
     7
 10
78.978584999999995
 20
177.340194
 30
0.0
 40
0.659133
 50
92.123271000000017
 51
177.84556900000001
  0
ARC
  5
346
  8
_________1
 62
     7
 10
78.978613999999993
 20
177.389422
 30
0.0
 40
0.65915
 50
182.12580600000001
 51
267.87422299999997
  0
ARC
  5
347
  8
_________1
 62
     7
 10
82.042709000000002
 20
177.38872000000001
 30
0.0
 40
0.658448
 50
272.12917999999991
 51
357.933108
  0
ARC
  5
348
  8
_________1
 62
     7
 10
82.042404000000005
 20
177.34056200000001
 30
0.0
 40
0.658778
 50
2.1235319999999991
 51
87.845310999999995
  0
ARC
  5
349
  8
_________1
 62
     7
 10
82.091593000000003
 20
177.340194
 30
0.0
 40
0.659133
 50
92.123271000000017
 51
177.84556900000001
  0
ARC
  5
34A
  8
_________1
 62
     7
 10
82.091621999999987
 20
177.389422
 30
0.0
 40
0.65915
 50
182.12580600000001
 51
267.87422299999997
  0
ARC
  5
34B
  8
_________1
 62
     7
 10
77.373552000000004
 20
175.831861
 30
0.0
 40
0.658094
 50
272.129434
 51
357.93288799999999
  0
ARC
  5
34C
  8
_________1
 62
     7
 10
77.372912999999997
 20
175.783748
 30
0.0
 40
0.658756
 50
2.1205970000000001
 51
87.817081000000016
  0
ARC
  5
34D
  8
_________1
 62
     7
 10
77.422430000000006
 20
175.7833399999999
 30
0.0
 40
0.659138
 50
92.123698000000019
 51
177.84514100000001
  0
ARC
  5
34E
  8
_________1
 62
     7
 10
77.422116000000003
 20
175.832593
 30
0.0
 40
0.658812
 50
182.12856699999989
 51
267.90259300000002
  0
ARC
  5
34F
  8
_________1
 62
     7
 10
83.598888000000002
 20
178.94521800000001
 30
0.0
 40
0.6584410000000001
 50
272.12752699999999
 51
357.90363100000002
  0
ARC
  5
350
  8
_________1
 62
     7
 10
83.598572999999988
 20
178.89673099999999
 30
0.0
 40
0.6587670000000001
 50
2.1226759999999989
 51
87.846165999999997
  0
ARC
  5
351
  8
_________1
 62
     7
 10
83.647743000000006
 20
178.896004
 30
0.0
 40
0.6594810000000001
 50
92.121369999999999
 51
177.81635600000001
  0
ARC
  5
352
  8
_________1
 62
     7
 10
83.647099999999995
 20
178.945615
 30
0.0
 40
0.658814
 50
182.12979100000001
 51
267.93248299999999
  0
ARC
  5
353
  8
_________1
 62
     7
 10
85.155358000000007
 20
177.38837699999999
 30
0.0
 40
0.6581060000000001
 50
272.13151699999997
 51
357.96193599999998
  0
ARC
  5
354
  8
_________1
 62
     7
 10
85.154732999999993
 20
177.340586
 30
0.0
 40
0.658766
 50
2.1214520000000001
 51
87.816226
  0
ARC
  5
355
  8
_________1
 62
     7
 10
85.204254999999989
 20
177.340553
 30
0.0
 40
0.6587740000000001
 50
92.124319
 51
177.875651
  0
ARC
  5
356
  8
_________1
 62
     7
 10
85.204618999999994
 20
177.389398
 30
0.0
 40
0.659138
 50
182.123728
 51
267.84517099999999
  0
ARC
  5
357
  8
_________1
 62
     7
 10
80.486602999999988
 20
182.05746500000001
 30
0.0
 40
0.6576550000000001
 50
272.06700499999999
 51
358.05749300000008
  0
ARC
  5
358
  8
_________1
 62
     7
 10
80.485893999999988
 20
182.01074299999999
 30
0.0
 40
0.6584399999999999
 50
2.126291999999999
 51
87.873698000000005
  0
ARC
  5
359
  8
_________1
 62
     7
 10
80.533950000000004
 20
182.011189
 30
0.0
 40
0.6579660000000001
 50
92.057861000000003
 51
177.91096200000001
  0
ARC
  5
35A
  8
_________1
 62
     7
 10
80.535775000000015
 20
182.05955
 30
0.0
 40
0.6598030000000001
 50
182.117368
 51
267.78932099999997
  0
ARC
  5
35B
  8
_________1
 62
     7
 10
83.598888000000002
 20
175.83221
 30
0.0
 40
0.6584410000000001
 50
272.12752699999999
 51
357.90363100000002
  0
ARC
  5
35C
  8
_________1
 62
     7
 10
83.598572999999988
 20
175.78372300000001
 30
0.0
 40
0.6587670000000001
 50
2.1226759999999989
 51
87.846165999999997
  0
ARC
  5
35D
  8
_________1
 62
     7
 10
83.647743000000006
 20
175.782996
 30
0.0
 40
0.6594810000000001
 50
92.121369999999999
 51
177.81635600000001
  0
ARC
  5
35E
  8
_________1
 62
     7
 10
83.647109999999984
 20
175.832617
 30
0.0
 40
0.6588250000000001
 50
182.13064700000001
 51
267.93162700000011
  0
ARC
  5
35F
  8
_________1
 62
     7
 10
82.042732999999998
 20
174.275701
 30
0.0
 40
0.6584360000000001
 50
272.12709899999999
 51
357.9040589999999
  0
ARC
  5
360
  8
_________1
 62
     7
 10
82.042762999999994
 20
174.22721000000001
 30
0.0
 40
0.658419
 50
2.124579999999999
 51
87.875410000000016
  0
ARC
  5
361
  8
_________1
 62
     7
 10
82.091567999999995
 20
174.226507
 30
0.0
 40
0.659121
 50
92.121192000000008
 51
177.81649999999999
  0
ARC
  5
362
  8
_________1
 62
     7
 10
82.091273000000001
 20
174.27607900000001
 30
0.0
 40
0.6588020000000001
 50
182.12771100000001
 51
267.90344900000008
  0
ARC
  5
363
  8
_________1
 62
     7
 10
77.373552000000004
 20
172.71919800000001
 30
0.0
 40
0.658094
 50
272.129434
 51
357.93288799999999
  0
ARC
  5
364
  8
_________1
 62
     7
 10
77.373251999999994
 20
172.671065
 30
0.0
 40
0.6584180000000001
 50
2.1233550000000001
 51
87.845470999999989
  0
ARC
  5
365
  8
_________1
 62
     7
 10
77.422406000000009
 20
172.670343
 30
0.0
 40
0.6591260000000001
 50
92.121619999999993
 51
177.81607199999999
  0
ARC
  5
366
  8
_________1
 62
     7
 10
77.422105999999985
 20
172.719919
 30
0.0
 40
0.6588020000000001
 50
182.12771100000001
 51
267.90344900000008
  0
ARC
  5
367
  8
_________1
 62
     7
 10
85.155383000000015
 20
180.50102899999999
 30
0.0
 40
0.658094
 50
272.129434
 51
357.93288799999999
  0
ARC
  5
368
  8
_________1
 62
     7
 10
85.154743999999994
 20
180.45291499999999
 30
0.0
 40
0.658756
 50
2.1205970000000001
 51
87.817081000000016
  0
ARC
  5
369
  8
_________1
 62
     7
 10
85.203473000000002
 20
180.453654
 30
0.0
 40
0.657964
 50
92.058793000000023
 51
177.94117700000001
  0
ARC
  5
36A
  8
_________1
 62
     7
 10
85.204290999999984
 20
180.501746
 30
0.0
 40
0.658811
 50
182.12734499999991
 51
267.87268499999999
  0
ARC
  5
36B
  8
_________1
 62
     7
 10
83.599597000000003
 20
182.057479
 30
0.0
 40
0.65767
 50
272.06815799999998
 51
358.05633999999998
  0
ARC
  5
36C
  8
_________1
 62
     7
 10
83.598901999999995
 20
182.01074299999999
 30
0.0
 40
0.6584399999999999
 50
2.126291999999999
 51
87.873698000000005
  0
ARC
  5
36D
  8
_________1
 62
     7
 10
83.646934999999985
 20
182.01049699999999
 30
0.0
 40
0.6586570000000001
 50
92.053679999999986
 51
177.85289900000001
  0
ARC
  5
36E
  8
_________1
 62
     7
 10
83.648115000000004
 20
182.05959899999999
 30
0.0
 40
0.6598270000000001
 50
182.12152
 51
267.84741300000002
  0
ARC
  5
36F
  8
_________1
 62
     7
 10
80.485894999999999
 20
178.94520199999999
 30
0.0
 40
0.6584260000000001
 50
272.12624399999999
 51
357.90491300000002
  0
ARC
  5
370
  8
_________1
 62
     7
 10
80.485565000000008
 20
178.89673099999999
 30
0.0
 40
0.6587670000000001
 50
2.1226759999999989
 51
87.846165999999997
  0
ARC
  5
371
  8
_________1
 62
     7
 10
80.534757999999997
 20
178.89669699999999
 30
0.0
 40
0.65879
 50
92.125601000000003
 51
177.874369
  0
ARC
  5
372
  8
_________1
 62
     7
 10
80.534757999999997
 20
178.9455659999999
 30
0.0
 40
0.65879
 50
182.12563099999991
 51
267.87439899999998
  0
ARC
  5
373
  8
_________1
 62
     7
 10
80.485894999999999
 20
175.83219399999999
 30
0.0
 40
0.6584260000000001
 50
272.12624399999999
 51
357.90491300000002
  0
ARC
  5
374
  8
_________1
 62
     7
 10
80.485565000000008
 20
175.78372300000001
 30
0.0
 40
0.6587670000000001
 50
2.1226759999999989
 51
87.846165999999997
  0
ARC
  5
375
  8
_________1
 62
     7
 10
80.534757999999997
 20
175.78368900000001
 30
0.0
 40
0.65879
 50
92.125601000000003
 51
177.874369
  0
ARC
  5
376
  8
_________1
 62
     7
 10
80.534768
 20
175.83256900000001
 30
0.0
 40
0.6588000000000001
 50
182.126487
 51
267.8735430000001
  0
ARC
  5
377
  8
_________1
 62
     7
 10
78.929725000000005
 20
180.501372
 30
0.0
 40
0.6584360000000001
 50
272.12709899999999
 51
357.9040589999999
  0
ARC
  5
378
  8
_________1
 62
     7
 10
78.929406
 20
180.45289099999999
 30
0.0
 40
0.6587670000000001
 50
2.1226759999999989
 51
87.846165999999997
  0
ARC
  5
379
  8
_________1
 62
     7
 10
78.977800999999999
 20
180.45329599999999
 30
0.0
 40
0.6583210000000001
 50
92.057652999999988
 51
177.91118700000001
  0
ARC
  5
37A
  8
_________1
 62
     7
 10
78.978285999999997
 20
180.50177099999999
 30
0.0
 40
0.6588230000000001
 50
182.129424
 51
267.90173600000003
  0
ARC
  5
37B
  8
_________1
 62
     7
 10
78.930507999999989
 20
186.72798399999999
 30
0.0
 40
0.6576260000000002
 50
272.06151
 51
357.96964700000001
  0
ARC
  5
37C
  8
_________1
 62
     7
 10
78.930082999999996
 20
186.68024600000001
 30
0.0
 40
0.658092
 50
2.1281989999999991
 51
87.902956000000003
  0
ARC
  5
37D
  8
_________1
 62
     7
 10
78.977753000000007
 20
186.68002300000001
 30
0.0
 40
0.6582970000000001
 50
92.053500999999997
 51
177.853027
  0
ARC
  5
37E
  8
_________1
 62
     7
 10
78.978255000000004
 20
186.72913399999999
 30
0.0
 40
0.658791
 50
182.126856
 51
267.90430400000002
  0
ARC
  5
37F
  8
_________1
 62
     7
 10
85.156165000000001
 20
186.72764100000001
 30
0.0
 40
0.657284
 50
272.06380899999999
 51
357.998513
  0
ARC
  5
380
  8
_________1
 62
     7
 10
85.15542099999999
 20
186.680271
 30
0.0
 40
0.65808
 50
2.1261169999999989
 51
87.873874000000001
  0
ARC
  5
381
  8
_________1
 62
     7
 10
85.203423999999998
 20
186.68038100000001
 30
0.0
 40
0.6579390000000001
 50
92.054621000000012
 51
177.883037
  0
ARC
  5
382
  8
_________1
 62
     7
 10
85.204259999999977
 20
186.72910999999999
 30
0.0
 40
0.658779
 50
182.12477599999991
 51
267.87525399999998
  0
ARC
  5
383
  8
_________1
 62
     7
 10
83.599671000000001
 20
185.17114000000001
 30
0.0
 40
0.6576310000000002
 50
272.06189499999999
 51
357.96926200000001
  0
ARC
  5
384
  8
_________1
 62
     7
 10
83.59855300000001
 20
185.12341599999999
 30
0.0
 40
0.6587880000000002
 50
2.1243880000000002
 51
87.844455000000025
  0
ARC
  5
385
  8
_________1
 62
     7
 10
83.646958999999995
 20
185.12349399999999
 30
0.0
 40
0.6586680000000001
 50
92.055746000000013
 51
177.88198
  0
ARC
  5
386
  8
_________1
 62
     7
 10
83.647089000000008
 20
185.17231000000001
 30
0.0
 40
0.658803
 50
182.12893600000001
 51
267.93333799999999
  0
ARC
  5
387
  8
_________1
 62
     7
 10
82.043515999999997
 20
186.72798399999999
 30
0.0
 40
0.6576260000000002
 50
272.06151
 51
357.96964700000001
  0
ARC
  5
388
  8
_________1
 62
     7
 10
82.043091000000004
 20
186.68024600000001
 30
0.0
 40
0.658092
 50
2.1281989999999991
 51
87.902956000000003
  0
ARC
  5
389
  8
_________1
 62
     7
 10
82.090761000000001
 20
186.68002300000001
 30
0.0
 40
0.6582970000000001
 50
92.053500999999997
 51
177.853027
  0
ARC
  5
38A
  8
_________1
 62
     7
 10
82.091262999999984
 20
186.72913399999999
 30
0.0
 40
0.658791
 50
182.126856
 51
267.90430400000002
  0
ARC
  5
38B
  8
_________1
 62
     7
 10
85.156115999999983
 20
183.613968
 30
0.0
 40
0.6573100000000001
 50
272.06798700000002
 51
358.056579
  0
ARC
  5
38C
  8
_________1
 62
     7
 10
85.15542099999999
 20
183.567263
 30
0.0
 40
0.65808
 50
2.1261169999999989
 51
87.873874000000001
  0
ARC
  5
38D
  8
_________1
 62
     7
 10
85.203423999999998
 20
183.567373
 30
0.0
 40
0.6579390000000001
 50
92.054621000000012
 51
177.883037
  0
ARC
  5
38E
  8
_________1
 62
     7
 10
85.204957999999991
 20
183.616084
 30
0.0
 40
0.6594760000000001
 50
182.12097199999999
 51
267.81681299999991
  0
ARC
  5
38F
  8
_________1
 62
     7
 10
78.930458999999999
 20
183.61431099999999
 30
0.0
 40
0.6576520000000001
 50
272.06568600000003
 51
358.027716
  0
ARC
  5
390
  8
_________1
 62
     7
 10
78.930082999999996
 20
183.567238
 30
0.0
 40
0.658092
 50
2.1281989999999991
 51
87.902956000000003
  0
ARC
  5
391
  8
_________1
 62
     7
 10
78.977753000000007
 20
183.567016
 30
0.0
 40
0.6582970000000001
 50
92.053500999999997
 51
177.853027
  0
ARC
  5
392
  8
_________1
 62
     7
 10
78.978953000000004
 20
183.616108
 30
0.0
 40
0.659488
 50
182.12305000000001
 51
267.845866
  0
ARC
  5
393
  8
_________1
 62
     7
 10
82.043467000000007
 20
183.61431099999999
 30
0.0
 40
0.6576520000000001
 50
272.06568600000003
 51
358.027716
  0
ARC
  5
394
  8
_________1
 62
     7
 10
82.043091000000004
 20
183.567238
 30
0.0
 40
0.658092
 50
2.1281989999999991
 51
87.902956000000003
  0
ARC
  5
395
  8
_________1
 62
     7
 10
82.090761000000001
 20
183.567016
 30
0.0
 40
0.6582970000000001
 50
92.053500999999997
 51
177.853027
  0
ARC
  5
396
  8
_________1
 62
     7
 10
82.091960999999984
 20
183.616108
 30
0.0
 40
0.659488
 50
182.12305000000001
 51
267.845866
  0
ARC
  5
397
  8
_________1
 62
     7
 10
80.486675999999989
 20
185.17112599999999
 30
0.0
 40
0.6576170000000001
 50
272.06074100000001
 51
357.970416
  0
ARC
  5
398
  8
_________1
 62
     7
 10
80.485544999999988
 20
185.12341599999999
 30
0.0
 40
0.6587880000000002
 50
2.1243880000000002
 51
87.844455000000025
  0
ARC
  5
399
  8
_________1
 62
     7
 10
80.533974999999998
 20
185.12418500000001
 30
0.0
 40
0.657978
 50
92.059945999999982
 51
177.94002399999999
  0
ARC
  5
39A
  8
_________1
 62
     7
 10
80.534747999999993
 20
185.17226099999999
 30
0.0
 40
0.658779
 50
182.12477599999991
 51
267.87525399999998
  0
ARC
  5
39B
  8
_________1
 62
     7
 10
80.486675999999989
 20
188.28413399999999
 30
0.0
 40
0.6576170000000001
 50
272.06074100000001
 51
357.970416
  0
ARC
  5
39C
  8
_________1
 62
     7
 10
80.485544999999988
 20
188.236424
 30
0.0
 40
0.6587880000000002
 50
2.1243880000000002
 51
87.844455000000025
  0
ARC
  5
39D
  8
_________1
 62
     7
 10
80.533974999999998
 20
188.23719299999999
 30
0.0
 40
0.657978
 50
92.059945999999982
 51
177.94002399999999
  0
ARC
  5
39E
  8
_________1
 62
     7
 10
80.534768
 20
188.28529
 30
0.0
 40
0.6588000000000001
 50
182.126487
 51
267.8735430000001
  0
ARC
  5
39F
  8
_________1
 62
     7
 10
83.599671000000001
 20
194.50981899999999
 30
0.0
 40
0.6576310000000002
 50
272.06189499999999
 51
357.96926200000001
  0
ARC
  5
3A0
  8
_________1
 62
     7
 10
83.597853999999984
 20
194.46211299999999
 30
0.0
 40
0.6594860000000001
 50
2.120585999999999
 51
87.786011999999999
  0
ARC
  5
3A1
  8
_________1
 62
     7
 10
83.647007999999985
 20
194.462839
 30
0.0
 40
0.6586930000000001
 50
92.059912999999995
 51
177.940057
  0
ARC
  5
3A2
  8
_________1
 62
     7
 10
83.647109999999984
 20
194.51101
 30
0.0
 40
0.6588250000000001
 50
182.13064700000001
 51
267.93162700000011
  0
ARC
  5
3A3
  8
_________1
 62
     7
 10
85.156141000000005
 20
189.83997199999999
 30
0.0
 40
0.657297
 50
272.065898
 51
358.02755500000001
  0
ARC
  5
3A4
  8
_________1
 62
     7
 10
85.154723000000004
 20
189.79295200000001
 30
0.0
 40
0.6587770000000001
 50
2.122309
 51
87.815370000000001
  0
ARC
  5
3A5
  8
_________1
 62
     7
 10
85.203473000000002
 20
189.793711
 30
0.0
 40
0.657964
 50
92.058793000000023
 51
177.94117700000001
  0
ARC
  5
3A6
  8
_________1
 62
     7
 10
85.204608999999991
 20
189.84176400000001
 30
0.0
 40
0.659127
 50
182.122873
 51
267.84602599999999
  0
ARC
  5
3A7
  8
_________1
 62
     7
 10
82.043490999999989
 20
189.840315
 30
0.0
 40
0.6576390000000001
 50
272.06359800000001
 51
357.99869000000001
  0
ARC
  5
3A8
  8
_________1
 62
     7
 10
82.042393000000004
 20
189.7929279999999
 30
0.0
 40
0.6587880000000002
 50
2.1243880000000002
 51
87.844455000000025
  0
ARC
  5
3A9
  8
_________1
 62
     7
 10
82.090808999999993
 20
189.79335399999999
 30
0.0
 40
0.6583210000000001
 50
92.057652999999988
 51
177.91118700000001
  0
ARC
  5
3AA
  8
_________1
 62
     7
 10
82.091611999999998
 20
189.84178800000001
 30
0.0
 40
0.6591390000000001
 50
182.12495200000001
 51
267.87507799999997
  0
ARC
  5
3AB
  8
_________1
 62
     7
 10
83.599671000000001
 20
188.28414799999999
 30
0.0
 40
0.6576310000000002
 50
272.06189499999999
 51
357.96926200000001
  0
ARC
  5
3AC
  8
_________1
 62
     7
 10
83.59855300000001
 20
188.236424
 30
0.0
 40
0.6587880000000002
 50
2.1243880000000002
 51
87.844455000000025
  0
ARC
  5
3AD
  8
_________1
 62
     7
 10
83.646958999999995
 20
188.236502
 30
0.0
 40
0.6586680000000001
 50
92.055746000000013
 51
177.88198
  0
ARC
  5
3AE
  8
_________1
 62
     7
 10
83.647109999999984
 20
188.285338
 30
0.0
 40
0.6588250000000001
 50
182.13064700000001
 51
267.93162700000011
  0
ARC
  5
3AF
  8
_________1
 62
     7
 10
83.599671000000001
 20
191.397156
 30
0.0
 40
0.6576310000000002
 50
272.06189499999999
 51
357.96926200000001
  0
ARC
  5
3B0
  8
_________1
 62
     7
 10
83.598204000000024
 20
191.34944100000001
 30
0.0
 40
0.659137
 50
2.122485999999999
 51
87.815225999999996
  0
ARC
  5
3B1
  8
_________1
 62
     7
 10
83.646982999999977
 20
191.34984299999999
 30
0.0
 40
0.6586800000000002
 50
92.057828999999984
 51
177.91102699999999
  0
ARC
  5
3B2
  8
_________1
 62
     7
 10
83.647089000000008
 20
191.398326
 30
0.0
 40
0.658803
 50
182.12893600000001
 51
267.93333799999999
  0
ARC
  5
3B3
  8
_________1
 62
     7
 10
85.156141000000005
 20
192.95298
 30
0.0
 40
0.657297
 50
272.065898
 51
358.02755500000001
  0
ARC
  5
3B4
  8
_________1
 62
     7
 10
85.154723000000004
 20
192.90595999999999
 30
0.0
 40
0.6587770000000001
 50
2.122309
 51
87.815370000000001
  0
ARC
  5
3B5
  8
_________1
 62
     7
 10
85.203473000000002
 20
192.9067189999999
 30
0.0
 40
0.657964
 50
92.058793000000023
 51
177.94117700000001
  0
ARC
  5
3B6
  8
_________1
 62
     7
 10
85.204628999999997
 20
192.954792
 30
0.0
 40
0.6591490000000001
 50
182.124584
 51
267.84431499999999
  0
ARC
  5
3B7
  8
_________1
 62
     7
 10
83.599671000000001
 20
197.623516
 30
0.0
 40
0.6576310000000002
 50
272.06189499999999
 51
357.96926200000001
  0
ARC
  5
3B8
  8
_________1
 62
     7
 10
83.59855300000001
 20
197.57579199999989
 30
0.0
 40
0.6587880000000002
 50
2.1243880000000002
 51
87.844455000000025
  0
ARC
  5
3B9
  8
_________1
 62
     7
 10
83.646958999999995
 20
197.57587000000001
 30
0.0
 40
0.6586680000000001
 50
92.055746000000013
 51
177.88198
  0
ARC
  5
3BA
  8
_________1
 62
     7
 10
83.647109999999984
 20
197.624707
 30
0.0
 40
0.6588250000000001
 50
182.13064700000001
 51
267.93162700000011
  0
ARC
  5
3BB
  8
_________1
 62
     7
 10
85.156141000000005
 20
196.06633199999999
 30
0.0
 40
0.657297
 50
272.065898
 51
358.02755500000001
  0
ARC
  5
3BC
  8
_________1
 62
     7
 10
85.154393999999996
 20
196.01934199999999
 30
0.0
 40
0.6591040000000001
 50
2.1186970000000001
 51
87.787851000000018
  0
ARC
  5
3BD
  8
_________1
 62
     7
 10
85.203496999999999
 20
196.02040400000001
 30
0.0
 40
0.6579760000000001
 50
92.060878999999986
 51
177.97022100000001
  0
ARC
  5
3BE
  8
_________1
 62
     7
 10
85.204608999999991
 20
196.06812500000001
 30
0.0
 40
0.659127
 50
182.122873
 51
267.84602599999999
  0
ARC
  5
3BF
  8
_________1
 62
     7
 10
80.486675999999989
 20
197.623503
 30
0.0
 40
0.6576170000000001
 50
272.06074100000001
 51
357.970416
  0
ARC
  5
3C0
  8
_________1
 62
     7
 10
80.485544999999988
 20
197.57579199999989
 30
0.0
 40
0.6587880000000002
 50
2.1243880000000002
 51
87.844455000000025
  0
ARC
  5
3C1
  8
_________1
 62
     7
 10
80.533974999999998
 20
197.576562
 30
0.0
 40
0.657978
 50
92.059945999999982
 51
177.94002399999999
  0
ARC
  5
3C2
  8
_________1
 62
     7
 10
80.534768
 20
197.62465800000001
 30
0.0
 40
0.6588000000000001
 50
182.126487
 51
267.8735430000001
  0
ARC
  5
3C3
  8
_________1
 62
     7
 10
82.043490999999989
 20
196.066675
 30
0.0
 40
0.6576390000000001
 50
272.06359800000001
 51
357.99869000000001
  0
ARC
  5
3C4
  8
_________1
 62
     7
 10
82.042065000000008
 20
196.019318
 30
0.0
 40
0.6591160000000002
 50
2.1207750000000001
 51
87.816936999999996
  0
ARC
  5
3C5
  8
_________1
 62
     7
 10
82.090832999999989
 20
196.02004700000001
 30
0.0
 40
0.658333
 50
92.059736999999984
 51
177.94023300000001
  0
ARC
  5
3C6
  8
_________1
 62
     7
 10
82.091611999999998
 20
196.06814900000001
 30
0.0
 40
0.6591390000000001
 50
182.12495200000001
 51
267.87507799999997
  0
ARC
  5
3C7
  8
_________1
 62
     7
 10
78.930482999999995
 20
189.840315
 30
0.0
 40
0.6576390000000001
 50
272.06359800000001
 51
357.99869000000001
  0
ARC
  5
3C8
  8
_________1
 62
     7
 10
78.929384999999996
 20
189.7929279999999
 30
0.0
 40
0.6587880000000002
 50
2.1243880000000002
 51
87.844455000000025
  0
ARC
  5
3C9
  8
_________1
 62
     7
 10
78.977800999999999
 20
189.79335399999999
 30
0.0
 40
0.6583210000000001
 50
92.057652999999988
 51
177.91118700000001
  0
ARC
  5
3CA
  8
_________1
 62
     7
 10
78.978604000000004
 20
189.84178800000001
 30
0.0
 40
0.6591390000000001
 50
182.12495200000001
 51
267.87507799999997
  0
ARC
  5
3CB
  8
_________1
 62
     7
 10
83.599671000000001
 20
200.736524
 30
0.0
 40
0.6576310000000002
 50
272.06189499999999
 51
357.96926200000001
  0
ARC
  5
3CC
  8
_________1
 62
     7
 10
83.59855300000001
 20
200.68879999999999
 30
0.0
 40
0.6587880000000002
 50
2.1243880000000002
 51
87.844455000000025
  0
ARC
  5
3CD
  8
_________1
 62
     7
 10
83.646958999999995
 20
200.68887799999999
 30
0.0
 40
0.6586680000000001
 50
92.055746000000013
 51
177.88198
  0
ARC
  5
3CE
  8
_________1
 62
     7
 10
83.647109999999984
 20
200.73771500000001
 30
0.0
 40
0.6588250000000001
 50
182.13064700000001
 51
267.93162700000011
  0
ARC
  5
3CF
  8
_________1
 62
     7
 10
78.930482999999995
 20
196.066675
 30
0.0
 40
0.6576390000000001
 50
272.06359800000001
 51
357.99869000000001
  0
ARC
  5
3D0
  8
_________1
 62
     7
 10
78.929057
 20
196.019318
 30
0.0
 40
0.6591160000000002
 50
2.1207750000000001
 51
87.816936999999996
  0
ARC
  5
3D1
  8
_________1
 62
     7
 10
78.977824999999996
 20
196.02004700000001
 30
0.0
 40
0.658333
 50
92.059736999999984
 51
177.94023300000001
  0
ARC
  5
3D2
  8
_________1
 62
     7
 10
78.978604000000004
 20
196.06814900000001
 30
0.0
 40
0.6591390000000001
 50
182.12495200000001
 51
267.87507799999997
  0
ARC
  5
3D3
  8
_________1
 62
     7
 10
74.261024000000006
 20
200.73720700000001
 30
0.0
 40
0.658311
 50
272.05692099999999
 51
357.91195800000003
  0
ARC
  5
3D4
  8
_________1
 62
     7
 10
74.260540000000006
 20
200.68875199999999
 30
0.0
 40
0.658812
 50
2.1285470000000002
 51
87.902573999999987
  0
ARC
  5
3D5
  8
_________1
 62
     7
 10
74.308303000000009
 20
200.68957
 30
0.0
 40
0.657978
 50
92.059945999999982
 51
177.94002399999999
  0
ARC
  5
3D6
  8
_________1
 62
     7
 10
74.309096999999994
 20
200.73766599999999
 30
0.0
 40
0.6588000000000001
 50
182.126487
 51
267.8735430000001
  0
ARC
  5
3D7
  8
_________1
 62
     7
 10
77.37433399999999
 20
200.736177
 30
0.0
 40
0.657284
 50
272.06380899999999
 51
357.998513
  0
ARC
  5
3D8
  8
_________1
 62
     7
 10
77.372892000000007
 20
200.68882500000001
 30
0.0
 40
0.6587770000000001
 50
2.122309
 51
87.815370000000001
  0
ARC
  5
3D9
  8
_________1
 62
     7
 10
77.421645999999996
 20
200.689222
 30
0.0
 40
0.6583250000000001
 50
92.058036999999999
 51
177.91080199999999
  0
ARC
  5
3DA
  8
_________1
 62
     7
 10
77.422116000000003
 20
200.73768999999999
 30
0.0
 40
0.658812
 50
182.12856699999989
 51
267.90259300000002
  0
ARC
  5
3DB
  8
_________1
 62
     7
 10
77.37433399999999
 20
197.62316899999999
 30
0.0
 40
0.657284
 50
272.06380899999999
 51
357.998513
  0
ARC
  5
3DC
  8
_________1
 62
     7
 10
77.372892000000007
 20
197.575817
 30
0.0
 40
0.6587770000000001
 50
2.122309
 51
87.815370000000001
  0
ARC
  5
3DD
  8
_________1
 62
     7
 10
77.421645999999996
 20
197.57621399999999
 30
0.0
 40
0.6583250000000001
 50
92.058036999999999
 51
177.91080199999999
  0
ARC
  5
3DE
  8
_________1
 62
     7
 10
77.422116000000003
 20
197.62468200000001
 30
0.0
 40
0.658812
 50
182.12856699999989
 51
267.90259300000002
  0
ARC
  5
3DF
  8
_________1
 62
     7
 10
82.043490999999989
 20
199.18002799999999
 30
0.0
 40
0.6576390000000001
 50
272.06359800000001
 51
357.99869000000001
  0
ARC
  5
3E0
  8
_________1
 62
     7
 10
82.042393000000004
 20
199.13264100000001
 30
0.0
 40
0.6587880000000002
 50
2.1243880000000002
 51
87.844455000000025
  0
ARC
  5
3E1
  8
_________1
 62
     7
 10
82.090808999999993
 20
199.13306700000001
 30
0.0
 40
0.6583210000000001
 50
92.057652999999988
 51
177.91118700000001
  0
ARC
  5
3E2
  8
_________1
 62
     7
 10
82.091631999999976
 20
199.181522
 30
0.0
 40
0.6591600000000001
 50
182.12666200000001
 51
267.87336699999997
  0
ARC
  5
3E3
  8
_________1
 62
     7
 10
78.930482999999995
 20
199.18002799999999
 30
0.0
 40
0.6576390000000001
 50
272.06359800000001
 51
357.99869000000001
  0
ARC
  5
3E4
  8
_________1
 62
     7
 10
78.929384999999996
 20
199.13264100000001
 30
0.0
 40
0.6587880000000002
 50
2.1243880000000002
 51
87.844455000000025
  0
ARC
  5
3E5
  8
_________1
 62
     7
 10
78.977800999999999
 20
199.13306700000001
 30
0.0
 40
0.6583210000000001
 50
92.057652999999988
 51
177.91118700000001
  0
ARC
  5
3E6
  8
_________1
 62
     7
 10
78.978623999999996
 20
199.181522
 30
0.0
 40
0.6591600000000001
 50
182.12666200000001
 51
267.87336699999997
  0
ARC
  5
3E7
  8
_________1
 62
     7
 10
85.156141000000005
 20
199.17968500000001
 30
0.0
 40
0.657297
 50
272.065898
 51
358.02755500000001
  0
ARC
  5
3E8
  8
_________1
 62
     7
 10
85.154723000000004
 20
199.132665
 30
0.0
 40
0.6587770000000001
 50
2.122309
 51
87.815370000000001
  0
ARC
  5
3E9
  8
_________1
 62
     7
 10
85.203473000000002
 20
199.13342399999999
 30
0.0
 40
0.657964
 50
92.058793000000023
 51
177.94117700000001
  0
ARC
  5
3EA
  8
_________1
 62
     7
 10
85.204628999999997
 20
199.18149700000001
 30
0.0
 40
0.6591490000000001
 50
182.124584
 51
267.84431499999999
  0
ARC
  5
3EB
  8
_________1
 62
     7
 10
71.148328000000006
 20
200.736524
 30
0.0
 40
0.6576310000000002
 50
272.06189499999999
 51
357.96926200000001
  0
ARC
  5
3EC
  8
_________1
 62
     7
 10
71.147210000000001
 20
200.68879999999999
 30
0.0
 40
0.6587880000000002
 50
2.1243880000000002
 51
87.844455000000025
  0
ARC
  5
3ED
  8
_________1
 62
     7
 10
71.195639999999997
 20
200.68957
 30
0.0
 40
0.657978
 50
92.059945999999982
 51
177.94002399999999
  0
ARC
  5
3EE
  8
_________1
 62
     7
 10
71.196433999999996
 20
200.73766599999999
 30
0.0
 40
0.6588000000000001
 50
182.126487
 51
267.8735430000001
  0
ARC
  5
3EF
  8
_________1
 62
     7
 10
80.486675999999989
 20
200.73651100000001
 30
0.0
 40
0.6576170000000001
 50
272.06074100000001
 51
357.970416
  0
ARC
  5
3F0
  8
_________1
 62
     7
 10
80.485544999999988
 20
200.68879999999999
 30
0.0
 40
0.6587880000000002
 50
2.1243880000000002
 51
87.844455000000025
  0
ARC
  5
3F1
  8
_________1
 62
     7
 10
80.533974999999998
 20
200.68957
 30
0.0
 40
0.657978
 50
92.059945999999982
 51
177.94002399999999
  0
ARC
  5
3F2
  8
_________1
 62
     7
 10
80.534768
 20
200.73766599999999
 30
0.0
 40
0.6588000000000001
 50
182.126487
 51
267.8735430000001
  0
ARC
  5
3F3
  8
_________1
 62
     7
 10
74.261024000000006
 20
197.624199
 30
0.0
 40
0.658311
 50
272.05692099999999
 51
357.91195800000003
  0
ARC
  5
3F4
  8
_________1
 62
     7
 10
74.260540000000006
 20
197.57574399999999
 30
0.0
 40
0.658812
 50
2.1285470000000002
 51
87.902573999999987
  0
ARC
  5
3F5
  8
_________1
 62
     7
 10
74.308303000000009
 20
197.576562
 30
0.0
 40
0.657978
 50
92.059945999999982
 51
177.94002399999999
  0
ARC
  5
3F6
  8
_________1
 62
     7
 10
74.309096999999994
 20
197.62465800000001
 30
0.0
 40
0.6588000000000001
 50
182.126487
 51
267.8735430000001
  0
ARC
  5
3F7
  8
_________1
 62
     7
 10
72.704817000000006
 20
199.18038000000001
 30
0.0
 40
0.657991
 50
272.06207000000001
 51
357.96907099999999
  0
ARC
  5
3F8
  8
_________1
 62
     7
 10
72.704048
 20
199.13261600000001
 30
0.0
 40
0.6588000000000001
 50
2.126466999999999
 51
87.873523000000006
  0
ARC
  5
3F9
  8
_________1
 62
     7
 10
72.752144000000001
 20
199.13341
 30
0.0
 40
0.657978
 50
92.059945999999982
 51
177.94002399999999
  0
ARC
  5
3FA
  8
_________1
 62
     7
 10
72.753286000000003
 20
199.18149700000001
 30
0.0
 40
0.6591490000000001
 50
182.124584
 51
267.84431499999999
  0
ARC
  5
3FB
  8
_________1
 62
     7
 10
78.930823000000004
 20
192.95298299999999
 30
0.0
 40
0.657644
 50
272.06398300000001
 51
357.99830500000002
  0
ARC
  5
3FC
  8
_________1
 62
     7
 10
78.929400999999999
 20
192.905621
 30
0.0
 40
0.6591160000000002
 50
2.1207750000000001
 51
87.816936999999996
  0
ARC
  5
3FD
  8
_________1
 62
     7
 10
78.978183999999999
 20
192.90669399999999
 30
0.0
 40
0.65799
 50
92.062033
 51
177.96906799999999
  0
ARC
  5
3FE
  8
_________1
 62
     7
 10
78.979281999999984
 20
192.95442800000001
 30
0.0
 40
0.659127
 50
182.122873
 51
267.84602599999999
  0
ARC
  5
3FF
  8
_________1
 62
     7
 10
77.374319
 20
194.50983099999999
 30
0.0
 40
0.657644
 50
272.06398300000001
 51
357.99830500000002
  0
ARC
  5
400
  8
_________1
 62
     7
 10
77.372896999999995
 20
194.462469
 30
0.0
 40
0.6591160000000002
 50
2.1207750000000001
 51
87.816936999999996
  0
ARC
  5
401
  8
_________1
 62
     7
 10
77.421680000000009
 20
194.46354199999999
 30
0.0
 40
0.65799
 50
92.062033
 51
177.96906799999999
  0
ARC
  5
402
  8
_________1
 62
     7
 10
77.422777999999994
 20
194.51127600000001
 30
0.0
 40
0.659127
 50
182.122873
 51
267.84602599999999
  0
ARC
  5
403
  8
_________1
 62
     7
 10
75.817814999999996
 20
196.06667999999999
 30
0.0
 40
0.657644
 50
272.06398300000001
 51
357.99830500000002
  0
ARC
  5
404
  8
_________1
 62
     7
 10
75.816393000000005
 20
196.019318
 30
0.0
 40
0.6591160000000002
 50
2.1207750000000001
 51
87.816936999999996
  0
ARC
  5
405
  8
_________1
 62
     7
 10
75.865176000000005
 20
196.02039099999999
 30
0.0
 40
0.65799
 50
92.062033
 51
177.96906799999999
  0
ARC
  5
406
  8
_________1
 62
     7
 10
75.866274000000004
 20
196.06812500000001
 30
0.0
 40
0.659127
 50
182.122873
 51
267.84602599999999
  0
ARC
  5
407
  8
_________1
 62
     7
 10
77.37433399999999
 20
191.39680799999999
 30
0.0
 40
0.657284
 50
272.06380899999999
 51
357.998513
  0
ARC
  5
408
  8
_________1
 62
     7
 10
77.372542999999993
 20
191.34946500000001
 30
0.0
 40
0.659125
 50
2.1204079999999998
 51
87.786140000000003
  0
ARC
  5
409
  8
_________1
 62
     7
 10
77.421670999999989
 20
191.35018600000001
 30
0.0
 40
0.658338
 50
92.060121999999978
 51
177.93984800000001
  0
ARC
  5
40A
  8
_________1
 62
     7
 10
77.422095999999996
 20
191.398301
 30
0.0
 40
0.658791
 50
182.126856
 51
267.90430400000002
  0
ARC
  5
40B
  8
_________1
 62
     7
 10
75.817814999999996
 20
199.18003200000001
 30
0.0
 40
0.657644
 50
272.06398300000001
 51
357.99830500000002
  0
ARC
  5
40C
  8
_________1
 62
     7
 10
75.816721999999984
 20
199.13264100000001
 30
0.0
 40
0.6587880000000002
 50
2.1243880000000002
 51
87.844455000000025
  0
ARC
  5
40D
  8
_________1
 62
     7
 10
75.865151999999995
 20
199.13341
 30
0.0
 40
0.657978
 50
92.059945999999982
 51
177.94002399999999
  0
ARC
  5
40E
  8
_________1
 62
     7
 10
75.866293999999996
 20
199.18149700000001
 30
0.0
 40
0.6591490000000001
 50
182.124584
 51
267.84431499999999
  0
LINE
  5
40F
  8
_________1
  6
AIGENLINE002
 62
     7
 10
81.413300000000007
 20
196.88900000000001
 30
0.0
 11
81.413300000000007
 21
189.87799999999999
 31
0.0
  0
LINE
  5
410
  8
_________1
  6
AIGENLINE002
 62
     7
 10
84.243799999999993
 20
193.45099999999999
 30
0.0
 11
78.0398
 21
193.45099999999999
 31
0.0
  0
ARC
  5
411
  8
_________1
 62
     7
 10
57.915181000000011
 20
183.44938999999999
 30
0.0
 40
20.002009999999999
 50
90.001974000000004
 51
180.00198399999999
  0
ARC
  5
412
  8
_________1
 62
     7
 10
57.915260000000004
 20
183.447926
 30
0.0
 40
20.002089000000002
 50
179.99775
 51
269.99779899999999
  0
ARC
  5
413
  8
_________1
 62
     7
 10
57.903677999999999
 20
183.505078
 30
0.0
 40
20.059244
 50
270.03088700000001
 51
291.528347
  0
LINE
  5
414
  8
_________1
 62
     7
 10
65.264600000000002
 20
164.845
 30
0.0
 11
85.327600000000004
 21
172.77500000000001
 31
0.0
  0
ARC
  5
415
  8
_________1
 62
     7
 10
83.718906000000004
 20
176.656263
 30
0.0
 40
4.2014120000000004
 50
292.51349800000003
 51
359.04688900000002
  0
INSERT
  5
416
  8
_________1
 62
     7
  2
AIGNBL0201000B
 10
0.0
 20
0.0
 30
0.0
  0
INSERT
  5
417
  8
_________1
 62
     7
  2
AIGNBL0201000C
 10
0.0
 20
0.0
 30
0.0
  0
INSERT
  5
418
  8
_________1
 62
     7
  2
AIGNBL0201000D
 10
0.0
 20
0.0
 30
0.0
  0
LINE
  5
419
  8
_________1
 62
     7
 10
177.97200000000001
 20
183.44800000000001
 30
0.0
 11
162.655
 21
183.44800000000001
 31
0.0
  0
LINE
  5
41A
  8
_________1
 62
     7
 10
169.75999999999999
 20
189.048
 30
0.0
 11
157.58799999999999
 21
189.048
 31
0.0
  0
LINE
  5
41B
  8
_________1
 62
     7
 10
177.97200000000001
 20
195.84899999999999
 30
0.0
 11
157.78999999999999
 21
195.84899999999999
 31
0.0
  0
LINE
  5
41C
  8
_________1
 62
     7
 10
177.97200000000001
 20
193.148
 30
0.0
 11
161.58000000000001
 21
193.148
 31
0.0
  0
LINE
  5
41D
  8
_________1
 62
     7
 10
171.83000000000001
 20
214.279
 30
0.0
 11
159.304
 21
214.279
 31
0.0
  0
LINE
  5
41E
  8
_________1
 62
     7
 10
128.37700000000001
 20
197.32599999999999
 30
0.0
 11
120.44499999999999
 21
197.32599999999999
 31
0.0
  0
LINE
  5
41F
  8
_________1
  6
AIGENLINE002
 62
     7
 10
134.31999999999999
 20
188.816
 30
0.0
 11
134.31999999999999
 21
177.50899999999999
 31
0.0
  0
INSERT
  5
420
  8
_________1
 62
     7
  2
AIGNBL0201000E
 10
0.0
 20
0.0
 30
0.0
  0
INSERT
  5
421
  8
_________1
 62
     7
  2
AIGNBL0201000F
 10
0.0
 20
0.0
 30
0.0
  0
INSERT
  5
422
  8
_________1
 62
     7
  2
AIGNBL02010010
 10
0.0
 20
0.0
 30
0.0
  0
LINE
  5
423
  8
_________1
 62
     7
 10
57.913800000000002
 20
83.657099999999986
 30
0.0
 11
57.913800000000002
 21
74.321200000000005
 31
0.0
  0
LINE
  5
424
  8
_________1
 62
     7
 10
37.886000000000003
 20
93.477099999999993
 30
0.0
 11
37.886000000000003
 21
74.321200000000005
 31
0.0
  0
LINE
  5
425
  8
_________1
 62
     7
 10
154.357
 20
91.886099999999999
 30
0.0
 11
154.357
 21
74.321200000000005
 31
0.0
  0
LINE
  5
426
  8
_________1
 62
     7
 10
134.3239999999999
 20
81.024699999999996
 30
0.0
 11
134.3239999999999
 21
74.321200000000005
 31
0.0
  0
INSERT
  5
427
  8
_________1
 62
     7
  2
AIGNBL02010011
 10
0.0
 20
0.0
 30
0.0
  0
INSERT
  5
428
  8
_________1
 62
     7
  2
AIGNBL02010012
 10
0.0
 20
0.0
 30
0.0
  0
INSERT
  5
429
  8
_________1
 62
     7
  2
AIGNBL02010013
 10
0.0
 20
0.0
 30
0.0
  0
INSERT
  5
42A
  8
_________1
 62
     7
  2
AIGNBL02010014
 10
0.0
 20
0.0
 30
0.0
  0
LINE
  5
42B
  8
_________1
 62
     7
 10
84.404300000000006
 20
196.435
 30
0.0
 11
85.507800000000003
 21
197.53800000000001
 31
0.0
  0
LINE
  5
42C
  8
_________1
 62
     7
 10
94.510900000000007
 20
206.54900000000001
 30
0.0
 11
99.794399999999996
 21
206.54900000000001
 31
0.0
  0
INSERT
  5
42D
  8
_________1
 62
     7
  2
AIGNBL02010015
 10
0.0
 20
0.0
 30
0.0
  0
LINE
  5
42E
  8
_________1
 62
     7
 10
46.25569999999999
 20
214.804
 30
0.0
 11
33.559100000000001
 21
214.804
 31
0.0
  0
INSERT
  5
42F
  8
_________1
 62
     7
  2
AIGNBL02010016
 10
0.0
 20
0.0
 30
0.0
  0
LINE
  5
430
  8
_________1
 62
     7
 10
173.964
 20
174.72099999999989
 30
0.0
 11
168.53700000000001
 21
174.72099999999989
 31
0.0
  0
INSERT
  5
431
  8
_________1
 62
     7
  2
AIGNBL02010017
 10
0.0
 20
0.0
 30
0.0
  0
LINE
  5
432
  8
_________1
 62
     7
 10
149.898
 20
200.64599999999999
 30
0.0
 11
144.154
 21
200.64599999999999
 31
0.0
  0
LINE
  5
433
  8
_________1
 62
     7
 10
157.14400000000001
 20
188.321
 30
0.0
 11
148.393
 21
188.321
 31
0.0
  0
LINE
  5
434
  8
_________1
 62
     7
 10
149.88900000000001
 20
200.64599999999999
 30
0.0
 11
155.66900000000001
 21
197.20699999999999
 31
0.0
  0
LINE
  5
435
  8
_________1
 62
     7
 10
116.60599999999999
 20
189.517
 30
0.0
 11
111.355
 21
189.517
 31
0.0
  0
LINE
  5
436
  8
_________1
 62
     7
 10
132.09
 20
170.905
 30
0.0
 11
126.116
 21
170.905
 31
0.0
  0
INSERT
  5
437
  8
_________1
 62
     7
  2
AIGNBL02010018
 10
0.0
 20
0.0
 30
0.0
  0
LINE
  5
438
  8
_________1
 62
     7
 10
160.67099999999999
 20
177.614
 30
0.0
 11
151.786
 21
177.614
 31
0.0
  0
INSERT
  5
439
  8
_________1
 62
     7
  2
AIGNBL02010019
 10
0.0
 20
0.0
 30
0.0
  0
INSERT
  5
43A
  8
_________1
 62
     7
  2
AIGNBL0201001A
 10
0.0
 20
0.0
 30
0.0
  0
LINE
  5
43B
  8
_________1
 62
     7
 10
95.730500000000006
 20
89.360100000000017
 30
0.0
 11
95.730500000000006
 21
101.87
 31
0.0
  0
LINE
  5
43C
  8
_________1
 62
     7
 10
107.642
 20
87.369900000000001
 30
0.0
 11
107.642
 21
101.87
 31
0.0
  0
INSERT
  5
43D
  8
_________1
 62
     7
  2
AIGNBL0201001B
 10
0.0
 20
0.0
 30
0.0
  0
INSERT
  5
43E
  8
_________1
 62
     7
  2
AIGNBL0201001C
 10
0.0
 20
0.0
 30
0.0
  0
LINE
  5
43F
  8
_________1
 62
     7
 10
84.943799999999996
 20
193.45099999999999
 30
0.0
 11
95.515500000000003
 21
193.45099999999999
 31
0.0
  0
LINE
  5
440
  8
_________1
 62
     7
 10
87.371600000000015
 20
173.93899999999999
 30
0.0
 11
101.497
 21
173.93899999999999
 31
0.0
  0
LINE
  5
441
  8
_________1
 62
     7
 10
86.591300000000004
 20
203.45099999999999
 30
0.0
 11
101.497
 21
203.45099999999999
 31
0.0
  0
LINE
  5
442
  8
_________1
  6
AIGENLINE002
 62
     7
 10
71.858900000000006
 20
96.870500000000007
 30
0.0
 11
76.5291
 21
96.870500000000007
 31
0.0
  0
LINE
  5
443
  8
_________1
 62
     7
 10
106.94199999999999
 20
87.369900000000001
 30
0.0
 11
129.88999999999999
 21
87.369900000000001
 31
0.0
  0
LINE
  5
444
  8
_________1
  6
AIGENLINE003
 62
     7
 10
90.801199999999994
 20
86.060100000000006
 30
0.0
 11
36.025599999999997
 21
86.060100000000006
 31
0.0
  0
LINE
  5
445
  8
_________1
 62
     7
 10
87.943200000000004
 20
89.360100000000017
 30
0.0
 11
96.430599999999998
 21
89.360100000000017
 31
0.0
  0
LINE
  5
446
  8
_________1
 62
     7
 10
106.94199999999999
 20
101.87
 30
0.0
 11
113.363
 21
101.87
 31
0.0
  0
LINE
  5
447
  8
_________1
 62
     7
 10
88.839200000000005
 20
101.87
 30
0.0
 11
96.430599999999998
 21
101.87
 31
0.0
  0
LINE
  5
448
  8
_________1
 62
     7
 10
38.413400000000003
 20
175.76599999999999
 30
0.0
 11
38.413400000000003
 21
154.71700000000001
 31
0.0
  0
LINE
  5
449
  8
_________1
 62
     7
 10
77.413499999999999
 20
178.96000000000001
 30
0.0
 11
77.413499999999999
 21
148.01400000000001
 31
0.0
  0
LINE
  5
44A
  8
_________1
  6
AIGENLINE002
 62
     7
 10
144.23099999999999
 20
101.075
 30
0.0
 11
144.23099999999999
 21
97.161299999999983
 31
0.0
  0
LINE
  5
44B
  8
_________1
  6
AIGENLINE002
 62
     7
 10
81.397800000000004
 20
101.017
 30
0.0
 11
81.397800000000004
 21
96.497000000000014
 31
0.0
  0
LINE
  5
44C
  8
_________1
 62
     7
 10
81.413300000000007
 20
210.78
 30
0.0
 11
81.413300000000007
 21
197.589
 31
0.0
  0
LINE
  5
44D
  8
_________1
 62
     7
 10
24.8446
 20
203.446
 30
0.0
 11
24.8446
 21
163.446
 31
0.0
  0
LINE
  5
44E
  8
_________1
 62
     7
 10
37.91320000000001
 20
210.78
 30
0.0
 11
37.91320000000001
 21
188.3549999999999
 31
0.0
  0
LINE
  5
44F
  8
_________1
 62
     7
 10
33.559100000000001
 20
214.804
 30
0.0
 11
33.559100000000001
 21
186.297
 31
0.0
  0
LINE
  5
450
  8
_________1
 62
     7
 10
87.919700000000006
 20
174.667
 30
0.0
 11
87.919700000000006
 21
141.23599999999999
 31
0.0
  0
LINE
  5
451
  8
_________1
 62
     7
 10
37.91320000000001
 20
177.95099999999999
 30
0.0
 11
37.91320000000001
 21
141.23599999999999
 31
0.0
  0
LINE
  5
452
  8
_________1
 62
     7
 10
137.077
 20
176.67599999999999
 30
0.0
 11
157.99700000000001
 21
185.36000000000001
 31
0.0
  0
LINE
  5
453
  8
_________1
 62
     7
 10
131.33000000000001
 20
190.09700000000001
 30
0.0
 11
154.34700000000001
 21
200.15000000000001
 31
0.0
  0
LINE
  5
454
  8
_________1
 62
     7
 10
160.62700000000001
 20
196.09700000000001
 30
0.0
 11
160.441
 21
189.04900000000001
 31
0.0
  0
ARC
  5
455
  8
_________1
 62
     7
 10
117.681826
 20
183.46396999999999
 30
0.0
 40
0.8311159999999999
 50
272.109737
 51
357.89027299999998
  0
ARC
  5
456
  8
_________1
 62
     7
 10
117.743008
 20
183.46395999999999
 30
0.0
 40
0.8311049999999999
 50
182.10906800000001
 51
267.890962
  0
ARC
  5
457
  8
_________1
 62
     7
 10
117.74319199999999
 20
183.402783
 30
0.0
 40
0.8312899999999999
 50
92.12128100000001
 51
177.89102600000001
  0
ARC
  5
458
  8
_________1
 62
     7
 10
117.681804
 20
183.40293399999999
 30
0.0
 40
0.831132
 50
2.098876999999999
 51
87.888777000000005
  0
ARC
  5
459
  8
_________1
 62
     7
 10
159.715013
 20
183.47895600000001
 30
0.0
 40
0.8311159999999999
 50
272.109737
 51
357.89027299999998
  0
ARC
  5
45A
  8
_________1
 62
     7
 10
159.776205
 20
183.47895600000001
 30
0.0
 40
0.8311149999999999
 50
182.10972899999999
 51
267.89030000000002
  0
ARC
  5
45B
  8
_________1
 62
     7
 10
159.77637899999999
 20
183.41776899999999
 30
0.0
 40
0.8312899999999999
 50
92.12128100000001
 51
177.89102600000001
  0
ARC
  5
45C
  8
_________1
 62
     7
 10
159.715011
 20
183.41794100000001
 30
0.0
 40
0.8311110000000002
 50
2.0975540000000001
 51
87.890100000000004
  0
LINE
  5
45D
  8
_________1
  6
AIGENLINE002
 62
     7
 10
159.74600000000001
 20
181.11500000000001
 30
0.0
 11
159.74600000000001
 21
185.70599999999999
 31
0.0
  0
LINE
  5
45E
  8
_________1
  6
AIGENLINE002
 62
     7
 10
117.712
 20
182.07400000000001
 30
0.0
 11
117.712
 21
184.80799999999999
 31
0.0
  0
LINE
  5
45F
  8
_________1
 62
     7
 10
159.74600000000001
 20
180.32300000000001
 30
0.0
 11
159.74600000000001
 21
161.22300000000001
 31
0.0
  0
LINE
  5
460
  8
_________1
 62
     7
 10
156.02600000000001
 20
205.09100000000001
 30
0.0
 11
156.02600000000001
 21
197.31299999999999
 31
0.0
  0
LINE
  5
461
  8
_________1
 62
     7
 10
134.32300000000001
 20
176.809
 30
0.0
 11
134.32300000000001
 21
168.00999999999999
 31
0.0
  0
LINE
  5
462
  8
_________1
 62
     7
 10
132.09
 20
181.703
 30
0.0
 11
132.09
 21
170.905
 31
0.0
  0
LINE
  5
463
  8
_________1
 62
     7
 10
157.32300000000001
 20
188.62299999999999
 30
0.0
 11
157.32300000000001
 21
176.91300000000001
 31
0.0
  0
LINE
  5
464
  8
_________1
 62
     7
 10
156.423
 20
187.601
 30
0.0
 11
156.423
 21
176.91300000000001
 31
0.0
  0
LINE
  5
465
  8
_________1
 62
     7
 10
157.32400000000001
 20
210.72800000000001
 30
0.0
 11
157.32400000000001
 21
197.75700000000001
 31
0.0
  0
LINE
  5
466
  8
_________1
 62
     7
 10
134.32300000000001
 20
210.72800000000001
 30
0.0
 11
134.32300000000001
 21
189.64599999999999
 31
0.0
  0
LINE
  5
467
  8
_________1
 62
     7
 10
117.712
 20
181.423
 30
0.0
 11
117.712
 21
161.22300000000001
 31
0.0
  0
ARC
  5
468
  8
_________1
  6
AIGENLINE001
 62
     7
 10
157.323519
 20
193.14843300000001
 30
0.0
 40
1.7499480000000001
 50
269.99437999999998
 51
359.99435
  0
ARC
  5
469
  8
_________1
  6
AIGENLINE001
 62
     7
 10
157.32334700000001
 20
193.14825999999999
 30
0.0
 40
1.7497750000000001
 50
179.99996999999999
 51
270.00002000000001
  0
ARC
  5
46A
  8
_________1
  6
AIGENLINE001
 62
     7
 10
157.32352
 20
193.14843200000001
 30
0.0
 40
1.7499480000000001
 50
90.005639999999985
 51
180.00565
  0
ARC
  5
46B
  8
_________1
  6
AIGENLINE001
 62
     7
 10
157.32334700000001
 20
193.14825999999999
 30
0.0
 40
1.7501199999999999
 50
0.00001
 51
89.999980000000008
  0
LINE
  5
46C
  8
_________1
  6
AIGENLINE002
 62
     7
 10
161.01499999999999
 20
193.148
 30
0.0
 11
153.215
 21
193.148
 31
0.0
  0
LINE
  5
46D
  8
_________1
  6
AIGENLINE002
 62
     7
 10
157.32400000000001
 20
197.31700000000001
 30
0.0
 11
157.32400000000001
 21
189.517
 31
0.0
  0
LINE
  5
46E
  8
_________1
  6
AIGENLINE002
 62
     7
 10
115.809
 20
183.44800000000001
 30
0.0
 11
162.655
 21
183.44800000000001
 31
0.0
  0
ARC
  5
46F
  8
_________1
  6
AIGENLINE001
 62
     7
 10
134.312375
 20
183.433201
 30
0.0
 40
2.2999610000000001
 50
0.00001
 51
89.999980000000008
  0
ARC
  5
470
  8
_________1
  6
AIGENLINE001
 62
     7
 10
134.312376
 20
183.433201
 30
0.0
 40
2.2999610000000001
 50
90.0
 51
179.99996999999999
  0
ARC
  5
471
  8
_________1
  6
AIGENLINE001
 62
     7
 10
134.31220300000001
 20
183.43337399999999
 30
0.0
 40
2.2997879999999991
 50
180.00430099999991
 51
270.00431099999997
  0
ARC
  5
472
  8
_________1
  6
AIGENLINE001
 62
     7
 10
134.312547
 20
183.43337399999999
 30
0.0
 40
2.2997879999999991
 50
269.99572799999999
 51
359.995699
  0
TEXT
  5
473
  8
_________2
 62
     7
 10
24.5868
 20
0.707283
 30
0.0
 40
3.9357000000000002
  1
実容量：3.8L、重量：8.0Kg、オーバーフロー付
 41
0.5
  0
LINE
  5
474
  8
_________2
 62
     7
 10
205.30099999999999
 20
127.411
 30
0.0
 11
183.55000000000001
 21
127.411
 31
0.0
  0
LINE
  5
475
  8
_________2
 62
     7
 10
100.3
 20
-4.0910799999999998
 30
0.0
 11
100.3
 21
-21.071400000000001
 31
0.0
  0
LINE
  5
476
  8
_________2
 62
     7
 10
100.3
 20
275.93099999999998
 30
0.0
 11
100.3
 21
258.911
 31
0.0
  0
LINE
  5
477
  8
_________2
 62
     7
 10
17.049499999999998
 20
127.411
 30
0.0
 11
-4.70052
 21
127.411
 31
0.0
  0
INSERT
  5
478
  8
_________2
 62
     7
  2
AIGNBL03010002
 10
0.0
 20
0.0
 30
0.0
  0
TEXT
  5
479
  8
_________2
 62
     7
 10
104.605
 20
1.6794899999999999
 30
0.0
 40
3.0923400000000001
  1
図番
 41
0.5
  0
LINE
  5
47A
  8
_________2
 62
     7
 10
103.55
 20
5.9087199999999989
 30
0.0
 11
183.55099999999999
 21
5.9087199999999989
 31
0.0
  0
TEXT
  5
47B
  8
_________2
 62
     7
 10
104.605
 20
11.6793
 30
0.0
 40
3.0923400000000001
  1
品番
 41
0.5
  0
TEXT
  5
47C
  8
_________2
 62
     7
 10
104.605
 20
31.818100000000001
 30
0.0
 40
3.0923400000000001
  1
名称
 41
0.5
  0
TEXT
  5
47D
  8
_________2
 62
     7
 10
91.845058333333341
 20
26.821999999999999
 30
0.0
 40
3.6545800000000002
  1
mm
 41
0.5
 72
     1
 11
93.367800000000003
 21
26.821999999999999
 31
0.0
  0
TEXT
  5
47E
  8
_________2
 62
     7
 10
85.643199999999993
 20
31.818100000000001
 30
0.0
 40
3.0923400000000001
  1
単位
 41
0.5
  0
TEXT
  5
47F
  8
_________2
 62
     7
 10
85.643199999999993
 20
19.410799999999998
 30
0.0
 40
3.0923400000000001
  1
尺度
 41
0.5
  0
TEXT
  5
480
  8
_________2
 62
     7
 10
90.09193616666667
 20
13.2179
 30
0.0
 40
3.6545800000000002
  1
1 ： 10
 41
0.5
 72
     1
 11
93.959699999999998
 21
13.2179
 31
0.0
  0
TEXT
  5
481
  8
_________2
 62
     7
 10
137.64644999999999
 20
9.1078600000000005
 30
0.0
 40
3.9357000000000002
  1
AU12281
 41
0.5
 72
     1
 11
143.55000000000001
 21
9.1078600000000005
 31
0.0
  0
TEXT
  5
482
  8
_________2
 62
     7
 10
137.64644999999999
 20
-0.8926299999999999
 30
0.0
 40
3.9357000000000002
  1
AU12281
 41
0.5
 72
     1
 11
143.55000000000001
 21
-0.8926299999999999
 31
0.0
  0
TEXT
  5
483
  8
_________2
 62
     7
 10
109.179
 20
24.2257
 30
0.0
 40
3.9357000000000002
  1
バル　洗面器
 41
0.5
  0
TEXT
  5
484
  8
_________2
 62
     7
 10
39.364390666666672
 20
13.603
 30
0.0
 40
3.6545800000000002
  1
篠崎
 41
0.5
 72
     1
 11
41.313499999999998
 21
13.603
 31
0.0
  0
TEXT
  5
485
  8
_________2
 62
     7
 10
20.851000333333339
 20
13.603
 30
0.0
 40
3.6545800000000002
  1
早川
 41
0.5
 72
     1
 11
22.7392
 21
13.603
 31
0.0
  0
TEXT
  5
486
  8
_________2
 62
     7
 10
67.785399999999996
 20
13.2179
 30
0.0
 40
3.6545800000000002
  1
17.10.02
 41
0.5
  0
TEXT
  5
487
  8
_________2
 62
     7
 10
66.593100000000007
 20
19.410799999999998
 30
0.0
 40
3.0923400000000001
  1
日付
 41
0.5
  0
TEXT
  5
488
  8
_________2
 62
     7
 10
29.639399999999998
 20
19.410799999999998
 30
0.0
 40
3.0923400000000001
  1
検図
 41
0.5
  0
TEXT
  5
489
  8
_________2
 62
     7
 10
18.021100000000001
 20
5.21143
 30
0.0
 40
3.0923400000000001
  1
備考
 41
0.5
  0
TEXT
  5
48A
  8
_________2
 62
     7
 10
18.021100000000001
 20
19.410799999999998
 30
0.0
 40
3.0923400000000001
  1
製図
 41
0.5
  0
TEXT
  5
48B
  8
_________2
 62
     7
 10
23.788465333333338
 20
27.936800000000002
 30
0.0
 40
4.4979399999999989
  1
セラトレーディング株式会社
 41
0.5
 72
     1
 11
41.180500000000002
 21
27.936800000000002
 31
0.0
  0
LINE
  5
48C
  8
_________2
 62
     7
 10
183.55099999999999
 20
-4.0910799999999998
 30
0.0
 11
17.049499999999998
 21
-4.0910799999999998
 31
0.0
  0
LINE
  5
48D
  8
_________2
 62
     7
 10
17.049499999999998
 20
-4.0910799999999998
 30
0.0
 11
17.049499999999998
 21
258.911
 31
0.0
  0
LINE
  5
48E
  8
_________2
 62
     7
 10
17.049499999999998
 20
258.911
 30
0.0
 11
183.55099999999999
 21
258.911
 31
0.0
  0
LINE
  5
48F
  8
_________2
 62
     7
 10
183.55099999999999
 20
258.911
 30
0.0
 11
183.55099999999999
 21
-4.0910799999999998
 31
0.0
  0
LINE
  5
490
  8
_________2
 62
     7
 10
65.549599999999998
 20
9.4089600000000004
 30
0.0
 11
65.549599999999998
 21
35.908799999999999
 31
0.0
  0
LINE
  5
491
  8
_________2
 62
     7
 10
84.549700000000016
 20
9.4089600000000004
 30
0.0
 11
84.549700000000016
 21
35.908799999999999
 31
0.0
  0
LINE
  5
492
  8
_________2
 62
     7
 10
103.55
 20
-4.0910799999999998
 30
0.0
 11
103.55
 21
35.908799999999999
 31
0.0
  0
LINE
  5
493
  8
_________2
 62
     7
 10
28.549299999999999
 20
9.4089600000000004
 30
0.0
 11
28.549299999999999
 21
23.409199999999998
 31
0.0
  0
LINE
  5
494
  8
_________2
 62
     7
 10
17.049499999999998
 20
9.4089600000000004
 30
0.0
 11
103.55
 21
9.4089600000000004
 31
0.0
  0
LINE
  5
495
  8
_________2
 62
     7
 10
17.049499999999998
 20
23.409199999999998
 30
0.0
 11
103.55
 21
23.409199999999998
 31
0.0
  0
LINE
  5
496
  8
_________2
 62
     7
 10
103.55
 20
15.9085
 30
0.0
 11
183.55099999999999
 21
15.9085
 31
0.0
  0
LINE
  5
497
  8
_________2
 62
     7
 10
17.049499999999998
 20
35.908799999999999
 30
0.0
 11
183.55099999999999
 21
35.908799999999999
 31
0.0
  0
ENDSEC
  0
EOF
