  0
SECTION
  2
HEADER
  9
$ACADVER
  1
AC1015
  9
$ACADMAINTVER
 70
     6
  9
$DWGCODEPAGE
  3
ANSI_932
  9
$INSBASE
 10
0.0
 20
0.0
 30
0.0
  9
$EXTMIN
 10
0.2341831664686538
 20
0.4447932284687113
 30
-0.0015258207003583
  9
$EXTMAX
 10
210.2447164532519
 20
297.4572780912428
 30
0.0000000349246037
  9
$LIMMIN
 10
0.0
 20
0.0
  9
$LIMMAX
 10
12.0
 20
9.0
  9
$ORTHOMODE
 70
     0
  9
$REGENMODE
 70
     1
  9
$FILLMODE
 70
     1
  9
$QTEXTMODE
 70
     0
  9
$MIRRTEXT
 70
     0
  9
$LTSCALE
 40
1.0
  9
$ATTMODE
 70
     1
  9
$TEXTSIZE
 40
0.2
  9
$TRACEWID
 40
0.05
  9
$TEXTSTYLE
  7
STANDARD
  9
$CLAYER
  8
0
  9
$CELTYPE
  6
Continuous
  9
$CECOLOR
 62
   256
  9
$CELTSCALE
 40
1.0
  9
$DISPSILH
 70
     0
  9
$DIMSCALE
 40
1.0
  9
$DIMASZ
 40
0.18
  9
$DIMEXO
 40
0.0625
  9
$DIMDLI
 40
0.38
  9
$DIMRND
 40
0.0
  9
$DIMDLE
 40
0.0
  9
$DIMEXE
 40
0.18
  9
$DIMTP
 40
0.0
  9
$DIMTM
 40
0.0
  9
$DIMTXT
 40
0.18
  9
$DIMCEN
 40
0.09
  9
$DIMTSZ
 40
0.0
  9
$DIMTOL
 70
     0
  9
$DIMLIM
 70
     0
  9
$DIMTIH
 70
     1
  9
$DIMTOH
 70
     1
  9
$DIMSE1
 70
     0
  9
$DIMSE2
 70
     0
  9
$DIMTAD
 70
     0
  9
$DIMZIN
 70
     0
  9
$DIMBLK
  1

  9
$DIMASO
 70
     1
  9
$DIMSHO
 70
     1
  9
$DIMPOST
  1

  9
$DIMAPOST
  1

  9
$DIMALT
 70
     0
  9
$DIMALTD
 70
     2
  9
$DIMALTF
 40
25.4
  9
$DIMLFAC
 40
1.0
  9
$DIMTOFL
 70
     0
  9
$DIMTVP
 40
0.0
  9
$DIMTIX
 70
     0
  9
$DIMSOXD
 70
     0
  9
$DIMSAH
 70
     0
  9
$DIMBLK1
  1

  9
$DIMBLK2
  1

  9
$DIMSTYLE
  2
Standard
  9
$DIMCLRD
 70
     0
  9
$DIMCLRE
 70
     0
  9
$DIMCLRT
 70
     0
  9
$DIMTFAC
 40
1.0
  9
$DIMGAP
 40
0.09
  9
$DIMJUST
 70
     0
  9
$DIMSD1
 70
     0
  9
$DIMSD2
 70
     0
  9
$DIMTOLJ
 70
     1
  9
$DIMTZIN
 70
     0
  9
$DIMALTZ
 70
     0
  9
$DIMALTTZ
 70
     0
  9
$DIMUPT
 70
     0
  9
$DIMDEC
 70
     4
  9
$DIMTDEC
 70
     4
  9
$DIMALTU
 70
     2
  9
$DIMALTTD
 70
     2
  9
$DIMTXSTY
  7
STANDARD
  9
$DIMAUNIT
 70
     0
  9
$DIMADEC
 70
     0
  9
$DIMALTRND
 40
0.0
  9
$DIMAZIN
 70
     0
  9
$DIMDSEP
 70
    46
  9
$DIMATFIT
 70
     3
  9
$DIMFRAC
 70
     0
  9
$DIMLDRBLK
  1

  9
$DIMLUNIT
 70
     2
  9
$DIMLWD
 70
    -2
  9
$DIMLWE
 70
    -2
  9
$DIMTMOVE
 70
     0
  9
$LUNITS
 70
     2
  9
$LUPREC
 70
     4
  9
$SKETCHINC
 40
0.1
  9
$FILLETRAD
 40
0.0
  9
$AUNITS
 70
     0
  9
$AUPREC
 70
     0
  9
$MENU
  1
.
  9
$ELEVATION
 40
0.0
  9
$PELEVATION
 40
0.0
  9
$THICKNESS
 40
0.0
  9
$LIMCHECK
 70
     0
  9
$CHAMFERA
 40
0.0
  9
$CHAMFERB
 40
0.0
  9
$CHAMFERC
 40
0.0
  9
$CHAMFERD
 40
0.0
  9
$SKPOLY
 70
     0
  9
$TDCREATE
 40
2459787.611469907
  9
$TDUCREATE
 40
2459787.236469907
  9
$TDUPDATE
 40
2459916.717432824
  9
$TDUUPDATE
 40
2459916.342432824
  9
$TDINDWG
 40
0.0001736111
  9
$TDUSRTIMER
 40
0.0001736111
  9
$USRTIMER
 70
     1
  9
$ANGBASE
 50
0.0
  9
$ANGDIR
 70
     0
  9
$PDMODE
 70
     0
  9
$PDSIZE
 40
0.0
  9
$PLINEWID
 40
0.0
  9
$SPLFRAME
 70
     0
  9
$SPLINETYPE
 70
     6
  9
$SPLINESEGS
 70
     8
  9
$HANDSEED
  5
54F
  9
$SURFTAB1
 70
     6
  9
$SURFTAB2
 70
     6
  9
$SURFTYPE
 70
     6
  9
$SURFU
 70
     6
  9
$SURFV
 70
     6
  9
$UCSBASE
  2

  9
$UCSNAME
  2

  9
$UCSORG
 10
0.0
 20
0.0
 30
0.0
  9
$UCSXDIR
 10
1.0
 20
0.0
 30
0.0
  9
$UCSYDIR
 10
0.0
 20
1.0
 30
0.0
  9
$UCSORTHOREF
  2

  9
$UCSORTHOVIEW
 70
     0
  9
$UCSORGTOP
 10
0.0
 20
0.0
 30
0.0
  9
$UCSORGBOTTOM
 10
0.0
 20
0.0
 30
0.0
  9
$UCSORGLEFT
 10
0.0
 20
0.0
 30
0.0
  9
$UCSORGRIGHT
 10
0.0
 20
0.0
 30
0.0
  9
$UCSORGFRONT
 10
0.0
 20
0.0
 30
0.0
  9
$UCSORGBACK
 10
0.0
 20
0.0
 30
0.0
  9
$PUCSBASE
  2

  9
$PUCSNAME
  2

  9
$PUCSORG
 10
0.0
 20
0.0
 30
0.0
  9
$PUCSXDIR
 10
1.0
 20
0.0
 30
0.0
  9
$PUCSYDIR
 10
0.0
 20
1.0
 30
0.0
  9
$PUCSORTHOREF
  2

  9
$PUCSORTHOVIEW
 70
     0
  9
$PUCSORGTOP
 10
0.0
 20
0.0
 30
0.0
  9
$PUCSORGBOTTOM
 10
0.0
 20
0.0
 30
0.0
  9
$PUCSORGLEFT
 10
0.0
 20
0.0
 30
0.0
  9
$PUCSORGRIGHT
 10
0.0
 20
0.0
 30
0.0
  9
$PUCSORGFRONT
 10
0.0
 20
0.0
 30
0.0
  9
$PUCSORGBACK
 10
0.0
 20
0.0
 30
0.0
  9
$USERI1
 70
     0
  9
$USERI2
 70
     0
  9
$USERI3
 70
     0
  9
$USERI4
 70
     0
  9
$USERI5
 70
     0
  9
$USERR1
 40
0.0
  9
$USERR2
 40
0.0
  9
$USERR3
 40
0.0
  9
$USERR4
 40
0.0
  9
$USERR5
 40
0.0
  9
$WORLDVIEW
 70
     1
  9
$SHADEDGE
 70
     3
  9
$SHADEDIF
 70
    70
  9
$TILEMODE
 70
     1
  9
$MAXACTVP
 70
    64
  9
$PINSBASE
 10
0.0
 20
0.0
 30
0.0
  9
$PLIMCHECK
 70
     0
  9
$PEXTMIN
 10
1.000000000000000E+20
 20
1.000000000000000E+20
 30
1.000000000000000E+20
  9
$PEXTMAX
 10
-1.000000000000000E+20
 20
-1.000000000000000E+20
 30
-1.000000000000000E+20
  9
$PLIMMIN
 10
0.0
 20
0.0
  9
$PLIMMAX
 10
12.0
 20
9.0
  9
$UNITMODE
 70
     0
  9
$VISRETAIN
 70
     1
  9
$PLINEGEN
 70
     0
  9
$PSLTSCALE
 70
     1
  9
$TREEDEPTH
 70
  3020
  9
$CMLSTYLE
  2
Standard
  9
$CMLJUST
 70
     0
  9
$CMLSCALE
 40
1.0
  9
$PROXYGRAPHICS
 70
     1
  9
$MEASUREMENT
 70
     0
  9
$CELWEIGHT
370
    -1
  9
$ENDCAPS
280
     0
  9
$JOINSTYLE
280
     0
  9
$LWDISPLAY
290
     0
  9
$INSUNITS
 70
     0
  9
$HYPERLINKBASE
  1

  9
$STYLESHEET
  1

  9
$XEDIT
290
     1
  9
$CEPSNTYPE
380
     0
  9
$PSTYLEMODE
290
     1
  9
$FINGERPRINTGUID
  2
{B3AC80BB-DBDC-3749-BF24-F11ECA037BF3}
  9
$VERSIONGUID
  2
{B3E6686B-1B55-CC45-896D-7772E6F80A61}
  9
$EXTNAMES
290
     1
  9
$PSVPSCALE
 40
0.0
  9
$OLESTARTUP
290
     0
  0
ENDSEC
  0
SECTION
  2
CLASSES
  0
CLASS
  1
ACDBDICTIONARYWDFLT
  2
AcDbDictionaryWithDefault
  3
ObjectDBX Classes
 90
        0
280
     0
281
     0
  0
CLASS
  1
MATERIAL
  2
AcDbMaterial
  3
ObjectDBX Classes
 90
     1153
280
     0
281
     0
  0
CLASS
  1
VISUALSTYLE
  2
AcDbVisualStyle
  3
ObjectDBX Classes
 90
     4095
280
     0
281
     0
  0
CLASS
  1
SCALE
  2
AcDbScale
  3
ObjectDBX Classes
 90
     1153
280
     0
281
     0
  0
CLASS
  1
TABLESTYLE
  2
AcDbTableStyle
  3
ObjectDBX Classes
 90
     4095
280
     0
281
     0
  0
CLASS
  1
MLEADERSTYLE
  2
AcDbMLeaderStyle
  3
ACDB_MLEADERSTYLE_CLASS
 90
     4095
280
     0
281
     0
  0
CLASS
  1
ACDBSECTIONVIEWSTYLE
  2
AcDbSectionViewStyle
  3
ObjectDBX Classes
 90
     1025
280
     0
281
     0
  0
CLASS
  1
ACDBDETAILVIEWSTYLE
  2
AcDbDetailViewStyle
  3
ObjectDBX Classes
 90
     1025
280
     0
281
     0
  0
CLASS
  1
CELLSTYLEMAP
  2
AcDbCellStyleMap
  3
ObjectDBX Classes
 90
     1152
280
     0
281
     0
  0
CLASS
  1
DICTIONARYVAR
  2
AcDbDictionaryVar
  3
ObjectDBX Classes
 90
        0
280
     0
281
     0
  0
CLASS
  1
ACDBPLACEHOLDER
  2
AcDbPlaceHolder
  3
ObjectDBX Classes
 90
        0
280
     0
281
     0
  0
CLASS
  1
LAYOUT
  2
AcDbLayout
  3
ObjectDBX Classes
 90
        0
280
     0
281
     0
  0
ENDSEC
  0
SECTION
  2
TABLES
  0
TABLE
  2
VPORT
  5
8
102
{ACAD_XDICTIONARY
360
512
102
}
330
0
100
AcDbSymbolTable
 70
     1
  0
VPORT
  5
7B
330
8
100
AcDbSymbolTableRecord
100
AcDbViewportTableRecord
  2
*Active
 70
     0
 10
0.0
 20
0.0
 11
1.0
 21
1.0
 12
105.2394498098602
 22
148.9510356598558
 13
0.0
 23
0.0
 14
1.0
 24
1.0
 15
0.0
 25
0.0
 16
0.0
 26
0.0
 36
1.0
 17
0.0
 27
0.0
 37
0.0
 40
299.0561487494446
 41
1.714121699196326
 42
50.0
 43
0.0
 44
0.0
 50
0.0
 51
0.0
 71
     0
 72
   100
 73
     1
 74
     0
 75
     1
 76
     0
 77
     0
 78
     0
281
     0
 65
     1
110
0.0
120
0.0
130
0.0
111
1.0
121
0.0
131
0.0
112
0.0
122
1.0
132
0.0
 79
     0
146
0.0
1001
ACAD_NAV_VCDISPLAY
1070
     3
  0
ENDTAB
  0
TABLE
  2
LTYPE
  5
5
330
0
100
AcDbSymbolTable
 70
     4
  0
LTYPE
  5
5A
330
5
100
AcDbSymbolTableRecord
100
AcDbLinetypeTableRecord
  2
ByBlock
 70
     0
  3

 72
    65
 73
     0
 40
0.0
  0
LTYPE
  5
5B
330
5
100
AcDbSymbolTableRecord
100
AcDbLinetypeTableRecord
  2
ByLayer
 70
     0
  3

 72
    65
 73
     0
 40
0.0
  0
LTYPE
  5
5C
330
5
100
AcDbSymbolTableRecord
100
AcDbLinetypeTableRecord
  2
Continuous
 70
     0
  3
Solid line
 72
    65
 73
     0
 40
0.0
  0
LTYPE
  5
73
330
5
100
AcDbSymbolTableRecord
100
AcDbLinetypeTableRecord
  2
AIGENLINE001
 70
     0
  3
generate AI->DXF Converter
 72
    65
 73
     2
 40
1.5522
 49
0.7761
 74
     0
 49
-0.7761
 74
     0
  0
LTYPE
  5
74
330
5
100
AcDbSymbolTableRecord
100
AcDbLinetypeTableRecord
  2
AIGENLINE002
 70
     0
  3
generate AI->DXF Converter
 72
    65
 73
     4
 40
5.8561
 49
3.5278
 74
     0
 49
-0.7761
 74
     0
 49
0.7761
 74
     0
 49
-0.7761
 74
     0
  0
LTYPE
  5
75
330
5
100
AcDbSymbolTableRecord
100
AcDbLinetypeTableRecord
  2
AIGENLINE003
 70
     0
  3
generate AI->DXF Converter
 72
    65
 73
     6
 40
7.4083
 49
3.5278
 74
     0
 49
-0.7761
 74
     0
 49
0.7761
 74
     0
 49
-0.7761
 74
     0
 49
0.7761
 74
     0
 49
-0.7761
 74
     0
  0
ENDTAB
  0
TABLE
  2
LAYER
  5
2
330
0
100
AcDbSymbolTable
 70
     5
  0
LAYER
  5
54
102
{ACAD_XDICTIONARY
360
4B4
102
}
330
2
100
AcDbSymbolTableRecord
100
AcDbLayerTableRecord
  2
0
 70
     0
 62
     7
  6
Continuous
370
    -3
390
F
  0
LAYER
  5
76
102
{ACAD_XDICTIONARY
360
4B6
102
}
330
2
100
AcDbSymbolTableRecord
100
AcDbLayerTableRecord
  2
LAYER_1
 70
     0
 62
     7
  6
Continuous
370
    -3
390
F
  0
LAYER
  5
77
102
{ACAD_XDICTIONARY
360
4B8
102
}
330
2
100
AcDbSymbolTableRecord
100
AcDbLayerTableRecord
  2
LAYER_2
 70
     0
 62
     7
  6
Continuous
370
    -3
390
F
  0
LAYER
  5
78
102
{ACAD_XDICTIONARY
360
4BA
102
}
330
2
100
AcDbSymbolTableRecord
100
AcDbLayerTableRecord
  2
LAYER_3
 70
     0
 62
     7
  6
Continuous
370
    -3
390
F
  0
LAYER
  5
4B3
102
{ACAD_XDICTIONARY
360
4BC
102
}
330
2
100
AcDbSymbolTableRecord
100
AcDbLayerTableRecord
  2
11
 70
     0
 62
     8
  6
Continuous
370
    -3
390
F
  0
ENDTAB
  0
TABLE
  2
STYLE
  5
3
330
0
100
AcDbSymbolTable
 70
     2
  0
STYLE
  5
55
330
3
100
AcDbSymbolTableRecord
100
AcDbTextStyleTableRecord
  2
STANDARD
 70
     0
 40
0.0
 41
1.0
 50
0.0
 71
     0
 42
0.0
  3
TXT
  4
BIGFONT
  0
STYLE
  5
59
330
3
100
AcDbSymbolTableRecord
100
AcDbTextStyleTableRecord
  2
Annotative
 70
     0
 40
0.0
 41
1.0
 50
0.0
 71
     0
 42
0.2
  3
txt
  4

1001
AcadAnnotative
1000
AnnotativeData
1002
{
1070
     1
1070
     1
1002
}
  0
ENDTAB
  0
TABLE
  2
VIEW
  5
6
330
0
100
AcDbSymbolTable
 70
     0
  0
ENDTAB
  0
TABLE
  2
UCS
  5
7
330
0
100
AcDbSymbolTable
 70
     0
  0
ENDTAB
  0
TABLE
  2
APPID
  5
9
330
0
100
AcDbSymbolTable
 70
     4
  0
APPID
  5
56
330
9
100
AcDbSymbolTableRecord
100
AcDbRegAppTableRecord
  2
ACAD
 70
     0
  0
APPID
  5
5D
330
9
100
AcDbSymbolTableRecord
100
AcDbRegAppTableRecord
  2
AcadAnnotative
 70
     0
  0
APPID
  5
4BE
330
9
100
AcDbSymbolTableRecord
100
AcDbRegAppTableRecord
  2
ACAD_NAV_VCDISPLAY
 70
     0
  0
APPID
  5
4F9
330
9
100
AcDbSymbolTableRecord
100
AcDbRegAppTableRecord
  2
ACAD_MLEADERVER
 70
     0
  0
ENDTAB
  0
TABLE
  2
DIMSTYLE
  5
A
330
0
100
AcDbSymbolTable
 70
     2
100
AcDbDimStyleTable
  0
DIMSTYLE
105
57
330
A
100
AcDbSymbolTableRecord
100
AcDbDimStyleTableRecord
  2
Standard
 70
     0
178
     0
340
55
  0
DIMSTYLE
105
58
330
A
100
AcDbSymbolTableRecord
100
AcDbDimStyleTableRecord
  2
Annotative
 70
     0
178
     0
340
55
1001
AcadAnnotative
1000
AnnotativeData
1002
{
1070
     1
1070
     1
1002
}
  0
ENDTAB
  0
TABLE
  2
BLOCK_RECORD
  5
1
330
0
100
AcDbSymbolTable
 70
   131
  0
BLOCK_RECORD
  5
6F
330
1
100
AcDbSymbolTableRecord
100
AcDbBlockTableRecord
  2
*Model_Space
340
72
  0
BLOCK_RECORD
  5
6B
330
1
100
AcDbSymbolTableRecord
100
AcDbBlockTableRecord
  2
*Paper_Space
340
6E
  0
BLOCK_RECORD
  5
7C
330
1
100
AcDbSymbolTableRecord
100
AcDbBlockTableRecord
  2
AIGNBL0202007E
340
0
102
{BLKREFS
331
31C
102
}
  0
BLOCK_RECORD
  5
80
330
1
100
AcDbSymbolTableRecord
100
AcDbBlockTableRecord
  2
AIGNBL02020081
340
0
102
{BLKREFS
331
327
102
}
  0
BLOCK_RECORD
  5
84
330
1
100
AcDbSymbolTableRecord
100
AcDbBlockTableRecord
  2
AIGNBL01010002
340
0
102
{BLKREFS
331
361
102
}
  0
BLOCK_RECORD
  5
88
330
1
100
AcDbSymbolTableRecord
100
AcDbBlockTableRecord
  2
AIGNBL01010003
340
0
102
{BLKREFS
331
362
102
}
  0
BLOCK_RECORD
  5
8C
330
1
100
AcDbSymbolTableRecord
100
AcDbBlockTableRecord
  2
AIGNBL02010002
340
0
102
{BLKREFS
331
365
102
}
  0
BLOCK_RECORD
  5
90
330
1
100
AcDbSymbolTableRecord
100
AcDbBlockTableRecord
  2
AIGNBL02010003
340
0
102
{BLKREFS
331
366
102
}
  0
BLOCK_RECORD
  5
94
330
1
100
AcDbSymbolTableRecord
100
AcDbBlockTableRecord
  2
AIGNBL02010004
340
0
102
{BLKREFS
331
36A
102
}
  0
BLOCK_RECORD
  5
98
330
1
100
AcDbSymbolTableRecord
100
AcDbBlockTableRecord
  2
AIGNBL02010005
340
0
102
{BLKREFS
331
36B
102
}
  0
BLOCK_RECORD
  5
9C
330
1
100
AcDbSymbolTableRecord
100
AcDbBlockTableRecord
  2
AIGNBL02010006
340
0
102
{BLKREFS
331
36C
102
}
  0
BLOCK_RECORD
  5
A0
330
1
100
AcDbSymbolTableRecord
100
AcDbBlockTableRecord
  2
AIGNBL02010007
340
0
102
{BLKREFS
331
379
102
}
  0
BLOCK_RECORD
  5
AA
330
1
100
AcDbSymbolTableRecord
100
AcDbBlockTableRecord
  2
AIGNBL02010008
340
0
102
{BLKREFS
331
37A
102
}
  0
BLOCK_RECORD
  5
BA
330
1
100
AcDbSymbolTableRecord
100
AcDbBlockTableRecord
  2
AIGNBL02010009
340
0
102
{BLKREFS
331
37B
102
}
  0
BLOCK_RECORD
  5
C4
330
1
100
AcDbSymbolTableRecord
100
AcDbBlockTableRecord
  2
AIGNBL0201000A
340
0
102
{BLKREFS
331
386
102
}
  0
BLOCK_RECORD
  5
C8
330
1
100
AcDbSymbolTableRecord
100
AcDbBlockTableRecord
  2
AIGNBL0201000B
340
0
102
{BLKREFS
331
387
102
}
  0
BLOCK_RECORD
  5
D0
330
1
100
AcDbSymbolTableRecord
100
AcDbBlockTableRecord
  2
AIGNBL0201000C
340
0
102
{BLKREFS
331
39A
102
}
  0
BLOCK_RECORD
  5
D4
330
1
100
AcDbSymbolTableRecord
100
AcDbBlockTableRecord
  2
AIGNBL0201000D
340
0
102
{BLKREFS
331
39B
102
}
  0
BLOCK_RECORD
  5
D8
330
1
100
AcDbSymbolTableRecord
100
AcDbBlockTableRecord
  2
AIGNBL0201000E
340
0
102
{BLKREFS
331
39C
102
}
  0
BLOCK_RECORD
  5
E2
330
1
100
AcDbSymbolTableRecord
100
AcDbBlockTableRecord
  2
AIGNBL0201000F
340
0
102
{BLKREFS
331
39D
102
}
  0
BLOCK_RECORD
  5
F3
330
1
100
AcDbSymbolTableRecord
100
AcDbBlockTableRecord
  2
AIGNBL02010010
340
0
102
{BLKREFS
331
39E
102
}
  0
BLOCK_RECORD
  5
FD
330
1
100
AcDbSymbolTableRecord
100
AcDbBlockTableRecord
  2
AIGNBL02010011
340
0
102
{BLKREFS
331
39F
102
}
  0
BLOCK_RECORD
  5
104
330
1
100
AcDbSymbolTableRecord
100
AcDbBlockTableRecord
  2
AIGNBL02010012
340
0
102
{BLKREFS
331
3A0
102
}
  0
BLOCK_RECORD
  5
10B
330
1
100
AcDbSymbolTableRecord
100
AcDbBlockTableRecord
  2
AIGNBL02010013
340
0
102
{BLKREFS
331
3A1
102
}
  0
BLOCK_RECORD
  5
112
330
1
100
AcDbSymbolTableRecord
100
AcDbBlockTableRecord
  2
AIGNBL02010014
340
0
102
{BLKREFS
331
3A2
102
}
  0
BLOCK_RECORD
  5
11C
330
1
100
AcDbSymbolTableRecord
100
AcDbBlockTableRecord
  2
AIGNBL02010015
340
0
102
{BLKREFS
331
3A3
102
}
  0
BLOCK_RECORD
  5
126
330
1
100
AcDbSymbolTableRecord
100
AcDbBlockTableRecord
  2
AIGNBL02010016
340
0
102
{BLKREFS
331
3A8
102
}
  0
BLOCK_RECORD
  5
13A
330
1
100
AcDbSymbolTableRecord
100
AcDbBlockTableRecord
  2
AIGNBL02010017
340
0
102
{BLKREFS
331
3AD
102
}
  0
BLOCK_RECORD
  5
144
330
1
100
AcDbSymbolTableRecord
100
AcDbBlockTableRecord
  2
AIGNBL02010018
340
0
102
{BLKREFS
331
3B1
102
}
  0
BLOCK_RECORD
  5
14E
330
1
100
AcDbSymbolTableRecord
100
AcDbBlockTableRecord
  2
AIGNBL02010019
340
0
102
{BLKREFS
331
3B2
102
}
  0
BLOCK_RECORD
  5
158
330
1
100
AcDbSymbolTableRecord
100
AcDbBlockTableRecord
  2
AIGNBL0201001A
340
0
102
{BLKREFS
331
3B3
102
}
  0
BLOCK_RECORD
  5
162
330
1
100
AcDbSymbolTableRecord
100
AcDbBlockTableRecord
  2
AIGNBL0201001B
340
0
102
{BLKREFS
331
3BA
102
}
  0
BLOCK_RECORD
  5
16C
330
1
100
AcDbSymbolTableRecord
100
AcDbBlockTableRecord
  2
AIGNBL0201001C
340
0
102
{BLKREFS
331
3C2
102
}
  0
BLOCK_RECORD
  5
170
330
1
100
AcDbSymbolTableRecord
100
AcDbBlockTableRecord
  2
AIGNBL0201001D
340
0
102
{BLKREFS
331
3C3
102
}
  0
BLOCK_RECORD
  5
174
330
1
100
AcDbSymbolTableRecord
100
AcDbBlockTableRecord
  2
AIGNBL0201001E
340
0
102
{BLKREFS
331
3C4
102
}
  0
BLOCK_RECORD
  5
178
330
1
100
AcDbSymbolTableRecord
100
AcDbBlockTableRecord
  2
AIGNBL0201001F
340
0
102
{BLKREFS
331
3C5
102
}
  0
BLOCK_RECORD
  5
17C
330
1
100
AcDbSymbolTableRecord
100
AcDbBlockTableRecord
  2
AIGNBL02010020
340
0
102
{BLKREFS
331
3C6
102
}
  0
BLOCK_RECORD
  5
180
330
1
100
AcDbSymbolTableRecord
100
AcDbBlockTableRecord
  2
AIGNBL02010021
340
0
102
{BLKREFS
331
3C7
102
}
  0
BLOCK_RECORD
  5
184
330
1
100
AcDbSymbolTableRecord
100
AcDbBlockTableRecord
  2
AIGNBL02010022
340
0
102
{BLKREFS
331
3C8
102
}
  0
BLOCK_RECORD
  5
188
330
1
100
AcDbSymbolTableRecord
100
AcDbBlockTableRecord
  2
AIGNBL02010023
340
0
102
{BLKREFS
331
3C9
102
}
  0
BLOCK_RECORD
  5
18C
330
1
100
AcDbSymbolTableRecord
100
AcDbBlockTableRecord
  2
AIGNBL02010024
340
0
102
{BLKREFS
331
3CA
102
}
  0
BLOCK_RECORD
  5
190
330
1
100
AcDbSymbolTableRecord
100
AcDbBlockTableRecord
  2
AIGNBL02010025
340
0
102
{BLKREFS
331
3CB
102
}
  0
BLOCK_RECORD
  5
194
330
1
100
AcDbSymbolTableRecord
100
AcDbBlockTableRecord
  2
AIGNBL02010026
340
0
102
{BLKREFS
331
3CC
102
}
  0
BLOCK_RECORD
  5
198
330
1
100
AcDbSymbolTableRecord
100
AcDbBlockTableRecord
  2
AIGNBL02010027
340
0
102
{BLKREFS
331
3CD
102
}
  0
BLOCK_RECORD
  5
19C
330
1
100
AcDbSymbolTableRecord
100
AcDbBlockTableRecord
  2
AIGNBL02010028
340
0
102
{BLKREFS
331
3CE
102
}
  0
BLOCK_RECORD
  5
1A0
330
1
100
AcDbSymbolTableRecord
100
AcDbBlockTableRecord
  2
AIGNBL02010029
340
0
102
{BLKREFS
331
3CF
102
}
  0
BLOCK_RECORD
  5
1A4
330
1
100
AcDbSymbolTableRecord
100
AcDbBlockTableRecord
  2
AIGNBL0201002A
340
0
102
{BLKREFS
331
3D0
102
}
  0
BLOCK_RECORD
  5
1A8
330
1
100
AcDbSymbolTableRecord
100
AcDbBlockTableRecord
  2
AIGNBL0201002B
340
0
102
{BLKREFS
331
3D6
102
}
  0
BLOCK_RECORD
  5
1AC
330
1
100
AcDbSymbolTableRecord
100
AcDbBlockTableRecord
  2
AIGNBL0201002C
340
0
102
{BLKREFS
331
3D7
102
}
  0
BLOCK_RECORD
  5
1B0
330
1
100
AcDbSymbolTableRecord
100
AcDbBlockTableRecord
  2
AIGNBL0201002D
340
0
102
{BLKREFS
331
3D8
102
}
  0
BLOCK_RECORD
  5
1B5
330
1
100
AcDbSymbolTableRecord
100
AcDbBlockTableRecord
  2
AIGNBL0201002E
340
0
102
{BLKREFS
331
3D9
102
}
  0
BLOCK_RECORD
  5
1B9
330
1
100
AcDbSymbolTableRecord
100
AcDbBlockTableRecord
  2
AIGNBL0201002F
340
0
102
{BLKREFS
331
3DA
102
}
  0
BLOCK_RECORD
  5
1BD
330
1
100
AcDbSymbolTableRecord
100
AcDbBlockTableRecord
  2
AIGNBL02010030
340
0
102
{BLKREFS
331
3DE
102
}
  0
BLOCK_RECORD
  5
1C1
330
1
100
AcDbSymbolTableRecord
100
AcDbBlockTableRecord
  2
AIGNBL02010031
340
0
102
{BLKREFS
331
3DF
102
}
  0
BLOCK_RECORD
  5
1C5
330
1
100
AcDbSymbolTableRecord
100
AcDbBlockTableRecord
  2
AIGNBL02010032
340
0
102
{BLKREFS
331
3E0
102
}
  0
BLOCK_RECORD
  5
1C9
330
1
100
AcDbSymbolTableRecord
100
AcDbBlockTableRecord
  2
AIGNBL02010033
340
0
102
{BLKREFS
331
3E1
102
}
  0
BLOCK_RECORD
  5
1CD
330
1
100
AcDbSymbolTableRecord
100
AcDbBlockTableRecord
  2
AIGNBL02010034
340
0
102
{BLKREFS
331
3E2
102
}
  0
BLOCK_RECORD
  5
1D1
330
1
100
AcDbSymbolTableRecord
100
AcDbBlockTableRecord
  2
AIGNBL02010035
340
0
102
{BLKREFS
331
3E3
102
}
  0
BLOCK_RECORD
  5
1D5
330
1
100
AcDbSymbolTableRecord
100
AcDbBlockTableRecord
  2
AIGNBL02010036
340
0
102
{BLKREFS
331
3E4
102
}
  0
BLOCK_RECORD
  5
1D9
330
1
100
AcDbSymbolTableRecord
100
AcDbBlockTableRecord
  2
AIGNBL02010037
340
0
102
{BLKREFS
331
3E5
102
}
  0
BLOCK_RECORD
  5
1DD
330
1
100
AcDbSymbolTableRecord
100
AcDbBlockTableRecord
  2
AIGNBL02010038
340
0
102
{BLKREFS
331
3E6
102
}
  0
BLOCK_RECORD
  5
1E1
330
1
100
AcDbSymbolTableRecord
100
AcDbBlockTableRecord
  2
AIGNBL02010039
340
0
102
{BLKREFS
331
3E7
102
}
  0
BLOCK_RECORD
  5
1E5
330
1
100
AcDbSymbolTableRecord
100
AcDbBlockTableRecord
  2
AIGNBL0201003A
340
0
102
{BLKREFS
331
3E8
102
}
  0
BLOCK_RECORD
  5
1ED
330
1
100
AcDbSymbolTableRecord
100
AcDbBlockTableRecord
  2
AIGNBL0201003B
340
0
102
{BLKREFS
331
3E9
102
}
  0
BLOCK_RECORD
  5
1F1
330
1
100
AcDbSymbolTableRecord
100
AcDbBlockTableRecord
  2
AIGNBL0201003C
340
0
102
{BLKREFS
331
3EA
102
}
  0
BLOCK_RECORD
  5
1F5
330
1
100
AcDbSymbolTableRecord
100
AcDbBlockTableRecord
  2
AIGNBL0201003D
340
0
102
{BLKREFS
331
3EF
102
}
  0
BLOCK_RECORD
  5
1F9
330
1
100
AcDbSymbolTableRecord
100
AcDbBlockTableRecord
  2
AIGNBL0201003E
340
0
102
{BLKREFS
331
3F0
102
}
  0
BLOCK_RECORD
  5
1FD
330
1
100
AcDbSymbolTableRecord
100
AcDbBlockTableRecord
  2
AIGNBL0201003F
340
0
102
{BLKREFS
331
3F1
102
}
  0
BLOCK_RECORD
  5
202
330
1
100
AcDbSymbolTableRecord
100
AcDbBlockTableRecord
  2
AIGNBL02010040
340
0
102
{BLKREFS
331
3F2
102
}
  0
BLOCK_RECORD
  5
206
330
1
100
AcDbSymbolTableRecord
100
AcDbBlockTableRecord
  2
AIGNBL02010041
340
0
102
{BLKREFS
331
3F3
102
}
  0
BLOCK_RECORD
  5
20A
330
1
100
AcDbSymbolTableRecord
100
AcDbBlockTableRecord
  2
AIGNBL02010042
340
0
102
{BLKREFS
331
3F5
102
}
  0
BLOCK_RECORD
  5
20E
330
1
100
AcDbSymbolTableRecord
100
AcDbBlockTableRecord
  2
AIGNBL02010043
340
0
102
{BLKREFS
331
3F6
102
}
  0
BLOCK_RECORD
  5
216
330
1
100
AcDbSymbolTableRecord
100
AcDbBlockTableRecord
  2
AIGNBL02010044
340
0
102
{BLKREFS
331
3F7
102
}
  0
BLOCK_RECORD
  5
21A
330
1
100
AcDbSymbolTableRecord
100
AcDbBlockTableRecord
  2
AIGNBL02010045
340
0
102
{BLKREFS
331
3F8
102
}
  0
BLOCK_RECORD
  5
21E
330
1
100
AcDbSymbolTableRecord
100
AcDbBlockTableRecord
  2
AIGNBL02010046
340
0
102
{BLKREFS
331
3F9
102
}
  0
BLOCK_RECORD
  5
222
330
1
100
AcDbSymbolTableRecord
100
AcDbBlockTableRecord
  2
AIGNBL02010047
340
0
102
{BLKREFS
331
3FA
102
}
  0
BLOCK_RECORD
  5
226
330
1
100
AcDbSymbolTableRecord
100
AcDbBlockTableRecord
  2
AIGNBL02010048
340
0
102
{BLKREFS
331
3FB
102
}
  0
BLOCK_RECORD
  5
22A
330
1
100
AcDbSymbolTableRecord
100
AcDbBlockTableRecord
  2
AIGNBL02010049
340
0
102
{BLKREFS
331
3FC
102
}
  0
BLOCK_RECORD
  5
22E
330
1
100
AcDbSymbolTableRecord
100
AcDbBlockTableRecord
  2
AIGNBL0201004A
340
0
102
{BLKREFS
331
3FD
102
}
  0
BLOCK_RECORD
  5
233
330
1
100
AcDbSymbolTableRecord
100
AcDbBlockTableRecord
  2
AIGNBL0201004B
340
0
102
{BLKREFS
331
3FE
102
}
  0
BLOCK_RECORD
  5
238
330
1
100
AcDbSymbolTableRecord
100
AcDbBlockTableRecord
  2
AIGNBL0201004C
340
0
102
{BLKREFS
331
3FF
102
}
  0
BLOCK_RECORD
  5
23C
330
1
100
AcDbSymbolTableRecord
100
AcDbBlockTableRecord
  2
AIGNBL0201004D
340
0
102
{BLKREFS
331
400
102
}
  0
BLOCK_RECORD
  5
240
330
1
100
AcDbSymbolTableRecord
100
AcDbBlockTableRecord
  2
AIGNBL0201004E
340
0
102
{BLKREFS
331
401
102
}
  0
BLOCK_RECORD
  5
247
330
1
100
AcDbSymbolTableRecord
100
AcDbBlockTableRecord
  2
AIGNBL0201004F
340
0
102
{BLKREFS
331
402
102
}
  0
BLOCK_RECORD
  5
24B
330
1
100
AcDbSymbolTableRecord
100
AcDbBlockTableRecord
  2
AIGNBL02010050
340
0
102
{BLKREFS
331
403
102
}
  0
BLOCK_RECORD
  5
24F
330
1
100
AcDbSymbolTableRecord
100
AcDbBlockTableRecord
  2
AIGNBL02010051
340
0
102
{BLKREFS
331
404
102
}
  0
BLOCK_RECORD
  5
253
330
1
100
AcDbSymbolTableRecord
100
AcDbBlockTableRecord
  2
AIGNBL02010052
340
0
102
{BLKREFS
331
405
102
}
  0
BLOCK_RECORD
  5
257
330
1
100
AcDbSymbolTableRecord
100
AcDbBlockTableRecord
  2
AIGNBL02010053
340
0
102
{BLKREFS
331
406
102
}
  0
BLOCK_RECORD
  5
25B
330
1
100
AcDbSymbolTableRecord
100
AcDbBlockTableRecord
  2
AIGNBL02010054
340
0
102
{BLKREFS
331
407
102
}
  0
BLOCK_RECORD
  5
25F
330
1
100
AcDbSymbolTableRecord
100
AcDbBlockTableRecord
  2
AIGNBL02010055
340
0
102
{BLKREFS
331
408
102
}
  0
BLOCK_RECORD
  5
263
330
1
100
AcDbSymbolTableRecord
100
AcDbBlockTableRecord
  2
AIGNBL02010056
340
0
102
{BLKREFS
331
409
102
}
  0
BLOCK_RECORD
  5
267
330
1
100
AcDbSymbolTableRecord
100
AcDbBlockTableRecord
  2
AIGNBL02010057
340
0
102
{BLKREFS
331
40A
102
}
  0
BLOCK_RECORD
  5
26B
330
1
100
AcDbSymbolTableRecord
100
AcDbBlockTableRecord
  2
AIGNBL02010058
340
0
102
{BLKREFS
331
40B
102
}
  0
BLOCK_RECORD
  5
26F
330
1
100
AcDbSymbolTableRecord
100
AcDbBlockTableRecord
  2
AIGNBL02010059
340
0
102
{BLKREFS
331
40C
102
}
  0
BLOCK_RECORD
  5
273
330
1
100
AcDbSymbolTableRecord
100
AcDbBlockTableRecord
  2
AIGNBL0201005A
340
0
102
{BLKREFS
331
40E
102
}
  0
BLOCK_RECORD
  5
277
330
1
100
AcDbSymbolTableRecord
100
AcDbBlockTableRecord
  2
AIGNBL0201005B
340
0
102
{BLKREFS
331
40F
102
}
  0
BLOCK_RECORD
  5
27B
330
1
100
AcDbSymbolTableRecord
100
AcDbBlockTableRecord
  2
AIGNBL0201005C
340
0
102
{BLKREFS
331
410
102
}
  0
BLOCK_RECORD
  5
283
330
1
100
AcDbSymbolTableRecord
100
AcDbBlockTableRecord
  2
AIGNBL0201005D
340
0
102
{BLKREFS
331
411
102
}
  0
BLOCK_RECORD
  5
287
330
1
100
AcDbSymbolTableRecord
100
AcDbBlockTableRecord
  2
AIGNBL0201005E
340
0
102
{BLKREFS
331
412
102
}
  0
BLOCK_RECORD
  5
28B
330
1
100
AcDbSymbolTableRecord
100
AcDbBlockTableRecord
  2
AIGNBL0201005F
340
0
102
{BLKREFS
331
417
102
}
  0
BLOCK_RECORD
  5
28F
330
1
100
AcDbSymbolTableRecord
100
AcDbBlockTableRecord
  2
AIGNBL02010060
340
0
102
{BLKREFS
331
418
102
}
  0
BLOCK_RECORD
  5
293
330
1
100
AcDbSymbolTableRecord
100
AcDbBlockTableRecord
  2
AIGNBL02010061
340
0
102
{BLKREFS
331
419
102
}
  0
BLOCK_RECORD
  5
298
330
1
100
AcDbSymbolTableRecord
100
AcDbBlockTableRecord
  2
AIGNBL02010062
340
0
102
{BLKREFS
331
41A
102
}
  0
BLOCK_RECORD
  5
29C
330
1
100
AcDbSymbolTableRecord
100
AcDbBlockTableRecord
  2
AIGNBL02010063
340
0
102
{BLKREFS
331
41E
102
}
  0
BLOCK_RECORD
  5
2A0
330
1
100
AcDbSymbolTableRecord
100
AcDbBlockTableRecord
  2
AIGNBL02010064
340
0
102
{BLKREFS
331
41F
102
}
  0
BLOCK_RECORD
  5
2A4
330
1
100
AcDbSymbolTableRecord
100
AcDbBlockTableRecord
  2
AIGNBL02010065
340
0
102
{BLKREFS
331
420
102
}
  0
BLOCK_RECORD
  5
2A8
330
1
100
AcDbSymbolTableRecord
100
AcDbBlockTableRecord
  2
AIGNBL02010066
340
0
102
{BLKREFS
331
421
102
}
  0
BLOCK_RECORD
  5
2AC
330
1
100
AcDbSymbolTableRecord
100
AcDbBlockTableRecord
  2
AIGNBL02010067
340
0
102
{BLKREFS
331
422
102
}
  0
BLOCK_RECORD
  5
2B0
330
1
100
AcDbSymbolTableRecord
100
AcDbBlockTableRecord
  2
AIGNBL02010068
340
0
102
{BLKREFS
331
423
102
}
  0
BLOCK_RECORD
  5
2B4
330
1
100
AcDbSymbolTableRecord
100
AcDbBlockTableRecord
  2
AIGNBL02010069
340
0
102
{BLKREFS
331
424
102
}
  0
BLOCK_RECORD
  5
2B8
330
1
100
AcDbSymbolTableRecord
100
AcDbBlockTableRecord
  2
AIGNBL0201006A
340
0
102
{BLKREFS
331
425
102
}
  0
BLOCK_RECORD
  5
2BC
330
1
100
AcDbSymbolTableRecord
100
AcDbBlockTableRecord
  2
AIGNBL0201006B
340
0
102
{BLKREFS
331
42A
102
}
  0
BLOCK_RECORD
  5
2C0
330
1
100
AcDbSymbolTableRecord
100
AcDbBlockTableRecord
  2
AIGNBL0201006C
340
0
102
{BLKREFS
331
42B
102
}
  0
BLOCK_RECORD
  5
2C4
330
1
100
AcDbSymbolTableRecord
100
AcDbBlockTableRecord
  2
AIGNBL0201006D
340
0
102
{BLKREFS
331
42C
102
}
  0
BLOCK_RECORD
  5
2C9
330
1
100
AcDbSymbolTableRecord
100
AcDbBlockTableRecord
  2
AIGNBL0201006E
340
0
102
{BLKREFS
331
42D
102
}
  0
BLOCK_RECORD
  5
2CD
330
1
100
AcDbSymbolTableRecord
100
AcDbBlockTableRecord
  2
AIGNBL0201006F
340
0
102
{BLKREFS
331
42E
102
}
  0
BLOCK_RECORD
  5
2D1
330
1
100
AcDbSymbolTableRecord
100
AcDbBlockTableRecord
  2
AIGNBL02010070
340
0
102
{BLKREFS
331
430
102
}
  0
BLOCK_RECORD
  5
2D5
330
1
100
AcDbSymbolTableRecord
100
AcDbBlockTableRecord
  2
AIGNBL02010071
340
0
102
{BLKREFS
331
431
102
}
  0
BLOCK_RECORD
  5
2DD
330
1
100
AcDbSymbolTableRecord
100
AcDbBlockTableRecord
  2
AIGNBL02010072
340
0
102
{BLKREFS
331
432
102
}
  0
BLOCK_RECORD
  5
2E1
330
1
100
AcDbSymbolTableRecord
100
AcDbBlockTableRecord
  2
AIGNBL02010073
340
0
102
{BLKREFS
331
433
102
}
  0
BLOCK_RECORD
  5
2E7
330
1
100
AcDbSymbolTableRecord
100
AcDbBlockTableRecord
  2
AIGNBL02010074
340
0
102
{BLKREFS
331
434
102
}
  0
BLOCK_RECORD
  5
2EB
330
1
100
AcDbSymbolTableRecord
100
AcDbBlockTableRecord
  2
AIGNBL02010075
340
0
102
{BLKREFS
331
435
102
}
  0
BLOCK_RECORD
  5
2F4
330
1
100
AcDbSymbolTableRecord
100
AcDbBlockTableRecord
  2
AIGNBL02010076
340
0
102
{BLKREFS
331
436
102
}
  0
BLOCK_RECORD
  5
2F8
330
1
100
AcDbSymbolTableRecord
100
AcDbBlockTableRecord
  2
AIGNBL02010077
340
0
102
{BLKREFS
331
438
102
}
  0
BLOCK_RECORD
  5
2FC
330
1
100
AcDbSymbolTableRecord
100
AcDbBlockTableRecord
  2
AIGNBL02010078
340
0
102
{BLKREFS
331
439
102
}
  0
BLOCK_RECORD
  5
300
330
1
100
AcDbSymbolTableRecord
100
AcDbBlockTableRecord
  2
AIGNBL02010079
340
0
102
{BLKREFS
331
43A
102
}
  0
BLOCK_RECORD
  5
304
330
1
100
AcDbSymbolTableRecord
100
AcDbBlockTableRecord
  2
AIGNBL0201007A
340
0
102
{BLKREFS
331
43D
102
}
  0
BLOCK_RECORD
  5
30A
330
1
100
AcDbSymbolTableRecord
100
AcDbBlockTableRecord
  2
AIGNBL0201007B
340
0
102
{BLKREFS
331
43E
102
}
  0
BLOCK_RECORD
  5
316
330
1
100
AcDbSymbolTableRecord
100
AcDbBlockTableRecord
  2
AIGNBL0201007C
340
0
102
{BLKREFS
331
485
102
}
  0
BLOCK_RECORD
  5
31A
330
1
100
AcDbSymbolTableRecord
100
AcDbBlockTableRecord
  2
AIGNBL0201007D
340
0
102
{BLKREFS
331
486
102
}
  0
BLOCK_RECORD
  5
321
330
1
100
AcDbSymbolTableRecord
100
AcDbBlockTableRecord
  2
AIGNBL0201007F
340
0
102
{BLKREFS
331
487
102
}
  0
BLOCK_RECORD
  5
325
330
1
100
AcDbSymbolTableRecord
100
AcDbBlockTableRecord
  2
AIGNBL02010080
340
0
102
{BLKREFS
331
488
102
}
  0
BLOCK_RECORD
  5
32C
330
1
100
AcDbSymbolTableRecord
100
AcDbBlockTableRecord
  2
AIGNBL03010002
340
0
102
{BLKREFS
331
4A9
102
}
  0
ENDTAB
  0
ENDSEC
  0
SECTION
  2
BLOCKS
  0
BLOCK
  5
70
330
6F
100
AcDbEntity
  8
0
100
AcDbBlockBegin
  2
*Model_Space
 70
     0
 10
0.0
 20
0.0
 30
0.0
  3
*Model_Space
  1

  0
ENDBLK
  5
71
330
6F
100
AcDbEntity
  8
0
100
AcDbBlockEnd
  0
BLOCK
  5
6C
330
6B
100
AcDbEntity
 67
     1
  8
0
100
AcDbBlockBegin
  2
*Paper_Space
 70
     0
 10
0.0
 20
0.0
 30
0.0
  3
*Paper_Space
  1

  0
ENDBLK
  5
6D
330
6B
100
AcDbEntity
 67
     1
  8
0
100
AcDbBlockEnd
  0
BLOCK
  5
7D
330
7C
100
AcDbEntity
  8
LAYER_2
100
AcDbBlockBegin
  2
AIGNBL0202007E
 70
     0
 10
0.0
 20
0.0
 30
0.0
  3
AIGNBL0202007E
  1

  0
LINE
  5
7E
330
7C
100
AcDbEntity
  8
LAYER_2
100
AcDbLine
 10
55.1971
 20
228.5993
 30
0.0
 11
64.5808
 21
219.3112
 31
0.0
  0
ENDBLK
  5
7F
330
7C
100
AcDbEntity
  8
0
100
AcDbBlockEnd
  0
BLOCK
  5
81
330
80
100
AcDbEntity
  8
LAYER_2
100
AcDbBlockBegin
  2
AIGNBL02020081
 70
     0
 10
0.0
 20
0.0
 30
0.0
  3
AIGNBL02020081
  1

  0
LINE
  5
82
330
80
100
AcDbEntity
  8
LAYER_2
100
AcDbLine
 10
55.1971
 20
135.2716
 30
0.0
 11
64.5808
 21
125.9835
 31
0.0
  0
ENDBLK
  5
83
330
80
100
AcDbEntity
  8
0
100
AcDbBlockEnd
  0
BLOCK
  5
85
330
84
100
AcDbEntity
  8
LAYER_1
100
AcDbBlockBegin
  2
AIGNBL01010002
 70
     0
 10
0.0
 20
0.0
 30
0.0
  3
AIGNBL01010002
  1

  0
TEXT
  5
86
330
84
100
AcDbEntity
  8
LAYER_1
100
AcDbText
 10
44.2061
 20
229.2995
 30
0.0
 40
3.0923
  1
メーカーロゴ
 41
0.5
100
AcDbText
  0
ENDBLK
  5
87
330
84
100
AcDbEntity
  8
0
100
AcDbBlockEnd
  0
BLOCK
  5
89
330
88
100
AcDbEntity
  8
LAYER_1
100
AcDbBlockBegin
  2
AIGNBL01010003
 70
     0
 10
0.0
 20
0.0
 30
0.0
  3
AIGNBL01010003
  1

  0
TEXT
  5
8A
330
88
100
AcDbEntity
  8
LAYER_1
100
AcDbText
 10
44.2061
 20
135.9721
 30
0.0
 40
3.0923
  1
メーカーロゴ
 41
0.5
100
AcDbText
  0
ENDBLK
  5
8B
330
88
100
AcDbEntity
  8
0
100
AcDbBlockEnd
  0
BLOCK
  5
8D
330
8C
100
AcDbEntity
  8
LAYER_2
100
AcDbBlockBegin
  2
AIGNBL02010002
 70
     0
 10
0.0
 20
0.0
 30
0.0
  3
AIGNBL02010002
  1

  0
LINE
  5
8E
330
8C
100
AcDbEntity
  8
LAYER_2
100
AcDbLine
 10
174.42
 20
205.7707
 30
0.0
 11
186.3369
 21
205.7707
 31
0.0
  0
ENDBLK
  5
8F
330
8C
100
AcDbEntity
  8
0
100
AcDbBlockEnd
  0
BLOCK
  5
91
330
90
100
AcDbEntity
  8
LAYER_2
100
AcDbBlockBegin
  2
AIGNBL02010003
 70
     0
 10
0.0
 20
0.0
 30
0.0
  3
AIGNBL02010003
  1

  0
LINE
  5
92
330
90
100
AcDbEntity
  8
LAYER_2
100
AcDbLine
 10
39.44
 20
220.3114
 30
0.0
 11
87.4398
 21
220.3114
 31
0.0
  0
ENDBLK
  5
93
330
90
100
AcDbEntity
  8
0
100
AcDbBlockEnd
  0
BLOCK
  5
95
330
94
100
AcDbEntity
  8
LAYER_2
100
AcDbBlockBegin
  2
AIGNBL02010004
 70
     0
 10
0.0
 20
0.0
 30
0.0
  3
AIGNBL02010004
  1

  0
LINE
  5
96
330
94
100
AcDbEntity
  8
LAYER_2
100
AcDbLine
 10
39.44
 20
184.3114
 30
0.0
 11
87.4398
 21
184.3114
 31
0.0
  0
ENDBLK
  5
97
330
94
100
AcDbEntity
  8
0
100
AcDbBlockEnd
  0
BLOCK
  5
99
330
98
100
AcDbEntity
  8
LAYER_2
100
AcDbBlockBegin
  2
AIGNBL02010005
 70
     0
 10
0.0
 20
0.0
 30
0.0
  3
AIGNBL02010005
  1

  0
LINE
  5
9A
330
98
100
AcDbEntity
  8
LAYER_2
100
AcDbLine
 10
39.1399
 20
185.3113
 30
0.0
 11
87.7399
 21
185.3113
 31
0.0
  0
ENDBLK
  5
9B
330
98
100
AcDbEntity
  8
0
100
AcDbBlockEnd
  0
BLOCK
  5
9D
330
9C
100
AcDbEntity
  8
LAYER_2
100
AcDbBlockBegin
  2
AIGNBL02010006
 70
     0
 10
0.0
 20
0.0
 30
0.0
  3
AIGNBL02010006
  1

  0
LINE
  5
9E
330
9C
100
AcDbEntity
  8
LAYER_2
100
AcDbLine
 10
39.1399
 20
219.3115
 30
0.0
 11
87.7399
 21
219.3115
 31
0.0
  0
ENDBLK
  5
9F
330
9C
100
AcDbEntity
  8
0
100
AcDbBlockEnd
  0
BLOCK
  5
A1
330
A0
100
AcDbEntity
  8
LAYER_2
100
AcDbBlockBegin
  2
AIGNBL02010007
 70
     0
 10
0.0
 20
0.0
 30
0.0
  3
AIGNBL02010007
  1

  0
LINE
  5
A2
330
A0
100
AcDbEntity
  8
LAYER_2
100
AcDbLine
 10
105.9722
 20
219.3115
 30
0.0
 11
105.9722
 21
185.3113
 31
0.0
  0
LINE
  5
A3
330
A0
100
AcDbEntity
  8
LAYER_2
100
AcDbLine
 10
105.3799
 20
187.5219
 30
0.0
 11
105.9722
 21
185.3113
 31
0.0
  0
LINE
  5
A4
330
A0
100
AcDbEntity
  8
LAYER_2
100
AcDbLine
 10
105.9722
 20
185.3113
 30
0.0
 11
106.5647
 21
187.5219
 31
0.0
  0
LINE
  5
A5
330
A0
100
AcDbEntity
  8
LAYER_2
100
AcDbLine
 10
106.5647
 20
187.5219
 30
0.0
 11
105.3799
 21
187.5219
 31
0.0
  0
LINE
  5
A6
330
A0
100
AcDbEntity
  8
LAYER_2
100
AcDbLine
 10
106.5644
 20
217.101
 30
0.0
 11
105.9722
 21
219.3113
 31
0.0
  0
LINE
  5
A7
330
A0
100
AcDbEntity
  8
LAYER_2
100
AcDbLine
 10
105.9722
 20
219.3113
 30
0.0
 11
105.3799
 21
217.101
 31
0.0
  0
LINE
  5
A8
330
A0
100
AcDbEntity
  8
LAYER_2
100
AcDbLine
 10
105.3799
 20
217.101
 30
0.0
 11
106.5644
 21
217.101
 31
0.0
  0
ENDBLK
  5
A9
330
A0
100
AcDbEntity
  8
0
100
AcDbBlockEnd
  0
BLOCK
  5
AB
330
AA
100
AcDbEntity
  8
LAYER_2
100
AcDbBlockBegin
  2
AIGNBL02010008
 70
     0
 10
0.0
 20
0.0
 30
0.0
  3
AIGNBL02010008
  1

  0
LINE
  5
AC
330
AA
100
AcDbEntity
  8
LAYER_2
100
AcDbLine
 10
99.9321
 20
220.3114
 30
0.0
 11
99.9321
 21
202.3115
 31
0.0
  0
LINE
  5
AD
330
AA
100
AcDbEntity
  8
LAYER_2
100
AcDbLine
 10
99.3399
 20
204.5221
 30
0.0
 11
99.9321
 21
202.3115
 31
0.0
  0
LINE
  5
AE
330
AA
100
AcDbEntity
  8
LAYER_2
100
AcDbLine
 10
99.9321
 20
202.3115
 30
0.0
 11
100.5244
 21
204.5221
 31
0.0
  0
LINE
  5
AF
330
AA
100
AcDbEntity
  8
LAYER_2
100
AcDbLine
 10
100.5244
 20
204.5221
 30
0.0
 11
99.3399
 21
204.5221
 31
0.0
  0
LINE
  5
B0
330
AA
100
AcDbEntity
  8
LAYER_2
100
AcDbLine
 10
100.5243
 20
218.1007
 30
0.0
 11
99.9321
 21
220.3113
 31
0.0
  0
LINE
  5
B1
330
AA
100
AcDbEntity
  8
LAYER_2
100
AcDbLine
 10
99.9321
 20
220.3113
 30
0.0
 11
99.3397
 21
218.1007
 31
0.0
  0
LINE
  5
B2
330
AA
100
AcDbEntity
  8
LAYER_2
100
AcDbLine
 10
99.3397
 20
218.1007
 30
0.0
 11
100.5243
 21
218.1007
 31
0.0
  0
LINE
  5
B3
330
AA
100
AcDbEntity
  8
LAYER_2
100
AcDbLine
 10
94.4225
 20
207.6468
 30
0.0
 11
93.1914
 21
209.5758
 31
0.0
  0
LINE
  5
B4
330
AA
100
AcDbEntity
  8
LAYER_2
100
AcDbLine
 10
93.1914
 20
209.5758
 30
0.0
 11
93.29299999999999
 21
207.2895
 31
0.0
  0
LINE
  5
B5
330
AA
100
AcDbEntity
  8
LAYER_2
100
AcDbLine
 10
93.29299999999999
 20
207.2895
 30
0.0
 11
94.4225
 21
207.6468
 31
0.0
  0
LINE
  5
B6
330
AA
100
AcDbEntity
  8
LAYER_2
100
AcDbLine
 10
94.4235
 20
196.9787
 30
0.0
 11
93.1924
 21
195.0496
 31
0.0
  0
LINE
  5
B7
330
AA
100
AcDbEntity
  8
LAYER_2
100
AcDbLine
 10
93.1924
 20
195.0496
 30
0.0
 11
93.2941
 21
197.3359
 31
0.0
  0
LINE
  5
B8
330
AA
100
AcDbEntity
  8
LAYER_2
100
AcDbLine
 10
93.2941
 20
197.3359
 30
0.0
 11
94.4235
 21
196.9787
 31
0.0
  0
ENDBLK
  5
B9
330
AA
100
AcDbEntity
  8
0
100
AcDbBlockEnd
  0
BLOCK
  5
BB
330
BA
100
AcDbEntity
  8
LAYER_2
100
AcDbBlockBegin
  2
AIGNBL02010009
 70
     0
 10
0.0
 20
0.0
 30
0.0
  3
AIGNBL02010009
  1

  0
LINE
  5
BC
330
BA
100
AcDbEntity
  8
LAYER_2
100
AcDbLine
 10
111.72
 20
220.3114
 30
0.0
 11
111.72
 21
184.3114
 31
0.0
  0
LINE
  5
BD
330
BA
100
AcDbEntity
  8
LAYER_2
100
AcDbLine
 10
111.135
 20
186.5219
 30
0.0
 11
111.7272
 21
184.3114
 31
0.0
  0
LINE
  5
BE
330
BA
100
AcDbEntity
  8
LAYER_2
100
AcDbLine
 10
111.7272
 20
184.3114
 30
0.0
 11
112.3194
 21
186.5219
 31
0.0
  0
LINE
  5
BF
330
BA
100
AcDbEntity
  8
LAYER_2
100
AcDbLine
 10
112.3194
 20
186.5219
 30
0.0
 11
111.135
 21
186.5219
 31
0.0
  0
LINE
  5
C0
330
BA
100
AcDbEntity
  8
LAYER_2
100
AcDbLine
 10
112.3122
 20
218.1007
 30
0.0
 11
111.72
 21
220.3113
 31
0.0
  0
LINE
  5
C1
330
BA
100
AcDbEntity
  8
LAYER_2
100
AcDbLine
 10
111.72
 20
220.3113
 30
0.0
 11
111.1277
 21
218.1007
 31
0.0
  0
LINE
  5
C2
330
BA
100
AcDbEntity
  8
LAYER_2
100
AcDbLine
 10
111.1277
 20
218.1007
 30
0.0
 11
112.3122
 21
218.1007
 31
0.0
  0
ENDBLK
  5
C3
330
BA
100
AcDbEntity
  8
0
100
AcDbBlockEnd
  0
BLOCK
  5
C5
330
C4
100
AcDbEntity
  8
LAYER_2
100
AcDbBlockBegin
  2
AIGNBL0201000A
 70
     0
 10
0.0
 20
0.0
 30
0.0
  3
AIGNBL0201000A
  1

  0
LINE
  5
C6
330
C4
100
AcDbEntity
  8
LAYER_2
  6
AIGENLINE001
100
AcDbLine
 10
55.44
 20
124.3245
 30
0.0
 11
55.44
 21
119.9996
 31
0.0
  0
ENDBLK
  5
C7
330
C4
100
AcDbEntity
  8
0
100
AcDbBlockEnd
  0
BLOCK
  5
C9
330
C8
100
AcDbEntity
  8
LAYER_2
100
AcDbBlockBegin
  2
AIGNBL0201000B
 70
     0
 10
0.0
 20
0.0
 30
0.0
  3
AIGNBL0201000B
  1

  0
LINE
  5
CA
330
C8
100
AcDbEntity
  8
LAYER_2
  6
AIGENLINE001
100
AcDbLine
 10
56.0398
 20
124.3245
 30
0.0
 11
56.0398
 21
119.9996
 31
0.0
  0
ARC
  5
CB
330
C8
100
AcDbEntity
  8
LAYER_2
  6
AIGENLINE001
100
AcDbCircle
 10
60.02399999999999
 20
120.3405
 30
0.0
 40
3.9988
100
AcDbArc
 50
184.8910359
 51
215.4216238
  0
ARC
  5
CC
330
C8
100
AcDbEntity
  8
LAYER_2
  6
AIGENLINE001
100
AcDbCircle
 10
59.1504
 20
119.8008
 30
0.0
 40
2.9748
100
AcDbArc
 50
216.7031721
 51
253.2676045
  0
ARC
  5
CD
330
C8
100
AcDbEntity
  8
LAYER_2
  6
AIGENLINE001
100
AcDbCircle
 10
59.3988
 20
120.629
 30
0.0
 40
3.8394
100
AcDbArc
 50
253.2751665
 51
265.563136
  0
LINE
  5
CE
330
C8
100
AcDbEntity
  8
LAYER_2
  6
AIGENLINE001
100
AcDbLine
 10
59.1018
 20
116.8011
 30
0.0
 11
70.4896
 21
115.8248
 31
0.0
  0
ENDBLK
  5
CF
330
C8
100
AcDbEntity
  8
0
100
AcDbBlockEnd
  0
BLOCK
  5
D1
330
D0
100
AcDbEntity
  8
LAYER_2
100
AcDbBlockBegin
  2
AIGNBL0201000C
 70
     0
 10
0.0
 20
0.0
 30
0.0
  3
AIGNBL0201000C
  1

  0
CIRCLE
  5
D2
330
D0
100
AcDbEntity
  8
LAYER_2
100
AcDbCircle
 10
73.2402
 20
202.3115
 30
0.0
 40
3.4999
  0
ENDBLK
  5
D3
330
D0
100
AcDbEntity
  8
0
100
AcDbBlockEnd
  0
BLOCK
  5
D5
330
D4
100
AcDbEntity
  8
LAYER_2
100
AcDbBlockBegin
  2
AIGNBL0201000D
 70
     0
 10
0.0
 20
0.0
 30
0.0
  3
AIGNBL0201000D
  1

  0
CIRCLE
  5
D6
330
D4
100
AcDbEntity
  8
LAYER_2
100
AcDbCircle
 10
158.4503
 20
202.3115
 30
0.0
 40
3.4998
  0
ENDBLK
  5
D7
330
D4
100
AcDbEntity
  8
0
100
AcDbBlockEnd
  0
BLOCK
  5
D9
330
D8
100
AcDbEntity
  8
LAYER_2
100
AcDbBlockBegin
  2
AIGNBL0201000E
 70
     0
 10
0.0
 20
0.0
 30
0.0
  3
AIGNBL0201000E
  1

  0
LINE
  5
DA
330
D8
100
AcDbEntity
  8
LAYER_2
100
AcDbLine
 10
73.2402
 20
175.5507
 30
0.0
 11
90.24
 21
175.5507
 31
0.0
  0
LINE
  5
DB
330
D8
100
AcDbEntity
  8
LAYER_2
100
AcDbLine
 10
88.0294
 20
174.9657
 30
0.0
 11
90.24
 21
175.5579
 31
0.0
  0
LINE
  5
DC
330
D8
100
AcDbEntity
  8
LAYER_2
100
AcDbLine
 10
90.24
 20
175.5579
 30
0.0
 11
88.0294
 21
176.1503
 31
0.0
  0
LINE
  5
DD
330
D8
100
AcDbEntity
  8
LAYER_2
100
AcDbLine
 10
88.0294
 20
176.1503
 30
0.0
 11
88.0294
 21
174.9657
 31
0.0
  0
LINE
  5
DE
330
D8
100
AcDbEntity
  8
LAYER_2
100
AcDbLine
 10
75.4505
 20
176.1429
 30
0.0
 11
73.2402
 21
175.5507
 31
0.0
  0
LINE
  5
DF
330
D8
100
AcDbEntity
  8
LAYER_2
100
AcDbLine
 10
73.2402
 20
175.5507
 30
0.0
 11
75.4505
 21
174.9583
 31
0.0
  0
LINE
  5
E0
330
D8
100
AcDbEntity
  8
LAYER_2
100
AcDbLine
 10
75.4505
 20
174.9583
 30
0.0
 11
75.4505
 21
176.1429
 31
0.0
  0
ENDBLK
  5
E1
330
D8
100
AcDbEntity
  8
0
100
AcDbBlockEnd
  0
BLOCK
  5
E3
330
E2
100
AcDbEntity
  8
LAYER_2
100
AcDbBlockBegin
  2
AIGNBL0201000F
 70
     0
 10
0.0
 20
0.0
 30
0.0
  3
AIGNBL0201000F
  1

  0
LINE
  5
E4
330
E2
100
AcDbEntity
  8
LAYER_2
100
AcDbLine
 10
68.7438
 20
197.6005
 30
0.0
 11
77.9132
 21
207.1898
 31
0.0
  0
LINE
  5
E5
330
E2
100
AcDbEntity
  8
LAYER_2
100
AcDbLine
 10
42.1948
 20
193.3749
 30
0.0
 11
59.6136
 21
211.6202
 31
0.0
  0
LINE
  5
E6
330
E2
100
AcDbEntity
  8
LAYER_2
100
AcDbLine
 10
70.5335
 20
198.6568
 30
0.0
 11
71.643
 21
200.6582
 31
0.0
  0
LINE
  5
E7
330
E2
100
AcDbEntity
  8
LAYER_2
100
AcDbLine
 10
71.643
 20
200.6582
 30
0.0
 11
69.6814
 21
199.4796
 31
0.0
  0
LINE
  5
E8
330
E2
100
AcDbEntity
  8
LAYER_2
100
AcDbLine
 10
69.6814
 20
199.4796
 30
0.0
 11
70.5335
 21
198.6568
 31
0.0
  0
LINE
  5
E9
330
E2
100
AcDbEntity
  8
LAYER_2
100
AcDbLine
 10
75.9458
 20
205.9666
 30
0.0
 11
74.8363
 21
203.9651
 31
0.0
  0
LINE
  5
EA
330
E2
100
AcDbEntity
  8
LAYER_2
100
AcDbLine
 10
74.8363
 20
203.9651
 30
0.0
 11
76.7979
 21
205.1437
 31
0.0
  0
LINE
  5
EB
330
E2
100
AcDbEntity
  8
LAYER_2
100
AcDbLine
 10
76.7979
 20
205.1437
 30
0.0
 11
75.9458
 21
205.9666
 31
0.0
  0
LINE
  5
EC
330
E2
100
AcDbEntity
  8
LAYER_2
100
AcDbLine
 10
43.654
 20
194.0598
 30
0.0
 11
44.7635
 21
196.0613
 31
0.0
  0
LINE
  5
ED
330
E2
100
AcDbEntity
  8
LAYER_2
100
AcDbLine
 10
44.7635
 20
196.0613
 30
0.0
 11
42.8019
 21
194.8827
 31
0.0
  0
LINE
  5
EE
330
E2
100
AcDbEntity
  8
LAYER_2
100
AcDbLine
 10
42.8019
 20
194.8827
 30
0.0
 11
43.654
 21
194.0598
 31
0.0
  0
LINE
  5
EF
330
E2
100
AcDbEntity
  8
LAYER_2
100
AcDbLine
 10
57.8263
 20
210.5634
 30
0.0
 11
56.7168
 21
208.5619
 31
0.0
  0
LINE
  5
F0
330
E2
100
AcDbEntity
  8
LAYER_2
100
AcDbLine
 10
56.7168
 20
208.5619
 30
0.0
 11
58.6784
 21
209.7405
 31
0.0
  0
LINE
  5
F1
330
E2
100
AcDbEntity
  8
LAYER_2
100
AcDbLine
 10
58.6784
 20
209.7405
 30
0.0
 11
57.8263
 21
210.5634
 31
0.0
  0
ENDBLK
  5
F2
330
E2
100
AcDbEntity
  8
0
100
AcDbBlockEnd
  0
BLOCK
  5
F4
330
F3
100
AcDbEntity
  8
LAYER_2
100
AcDbBlockBegin
  2
AIGNBL02010010
 70
     0
 10
0.0
 20
0.0
 30
0.0
  3
AIGNBL02010010
  1

  0
LINE
  5
F5
330
F3
100
AcDbEntity
  8
LAYER_2
100
AcDbLine
 10
167.3435
 20
198.3891
 30
0.0
 11
174.42
 21
205.7707
 31
0.0
  0
LINE
  5
F6
330
F3
100
AcDbEntity
  8
LAYER_2
100
AcDbLine
 10
169.6248
 20
199.8791
 30
0.0
 11
170.7345
 21
201.8805
 31
0.0
  0
LINE
  5
F7
330
F3
100
AcDbEntity
  8
LAYER_2
100
AcDbLine
 10
170.7345
 20
201.8805
 30
0.0
 11
168.7725
 21
200.7019
 31
0.0
  0
LINE
  5
F8
330
F3
100
AcDbEntity
  8
LAYER_2
100
AcDbLine
 10
168.7725
 20
200.7019
 30
0.0
 11
169.6248
 21
199.8791
 31
0.0
  0
LINE
  5
F9
330
F3
100
AcDbEntity
  8
LAYER_2
100
AcDbLine
 10
172.6765
 20
204.7439
 30
0.0
 11
171.5668
 21
202.7425
 31
0.0
  0
LINE
  5
FA
330
F3
100
AcDbEntity
  8
LAYER_2
100
AcDbLine
 10
171.5668
 20
202.7425
 30
0.0
 11
173.5288
 21
203.921
 31
0.0
  0
LINE
  5
FB
330
F3
100
AcDbEntity
  8
LAYER_2
100
AcDbLine
 10
173.5288
 20
203.921
 30
0.0
 11
172.6765
 21
204.7439
 31
0.0
  0
ENDBLK
  5
FC
330
F3
100
AcDbEntity
  8
0
100
AcDbBlockEnd
  0
BLOCK
  5
FE
330
FD
100
AcDbEntity
  8
LAYER_2
100
AcDbBlockBegin
  2
AIGNBL02010011
 70
     0
 10
0.0
 20
0.0
 30
0.0
  3
AIGNBL02010011
  1

  0
LINE
  5
FF
330
FD
100
AcDbEntity
  8
LAYER_2
100
AcDbLine
 10
161.1716
 20
205.1506
 30
0.0
 11
167.6366
 21
211.8281
 31
0.0
  0
LINE
  5
100
330
FD
100
AcDbEntity
  8
LAYER_2
100
AcDbLine
 10
162.551
 20
205.704
 30
0.0
 11
163.6606
 21
207.7055
 31
0.0
  0
LINE
  5
101
330
FD
100
AcDbEntity
  8
LAYER_2
100
AcDbLine
 10
163.6606
 20
207.7055
 30
0.0
 11
161.6987
 21
206.5271
 31
0.0
  0
LINE
  5
102
330
FD
100
AcDbEntity
  8
LAYER_2
100
AcDbLine
 10
161.6987
 20
206.5271
 30
0.0
 11
162.551
 21
205.704
 31
0.0
  0
ENDBLK
  5
103
330
FD
100
AcDbEntity
  8
0
100
AcDbBlockEnd
  0
BLOCK
  5
105
330
104
100
AcDbEntity
  8
LAYER_2
100
AcDbBlockBegin
  2
AIGNBL02010012
 70
     0
 10
0.0
 20
0.0
 30
0.0
  3
AIGNBL02010012
  1

  0
LINE
  5
106
330
104
100
AcDbEntity
  8
LAYER_2
100
AcDbLine
 10
136.9756
 20
208.7865
 30
0.0
 11
139.4499
 21
206.2027
 31
0.0
  0
LINE
  5
107
330
104
100
AcDbEntity
  8
LAYER_2
100
AcDbLine
 10
138.9324
 20
207.5996
 30
0.0
 11
136.9756
 21
208.7865
 31
0.0
  0
LINE
  5
108
330
104
100
AcDbEntity
  8
LAYER_2
100
AcDbLine
 10
136.9756
 20
208.7865
 30
0.0
 11
138.0767
 21
206.7803
 31
0.0
  0
LINE
  5
109
330
104
100
AcDbEntity
  8
LAYER_2
100
AcDbLine
 10
138.0767
 20
206.7803
 30
0.0
 11
138.9324
 21
207.5996
 31
0.0
  0
ENDBLK
  5
10A
330
104
100
AcDbEntity
  8
0
100
AcDbBlockEnd
  0
BLOCK
  5
10C
330
10B
100
AcDbEntity
  8
LAYER_2
100
AcDbBlockBegin
  2
AIGNBL02010013
 70
     0
 10
0.0
 20
0.0
 30
0.0
  3
AIGNBL02010013
  1

  0
LINE
  5
10D
330
10B
100
AcDbEntity
  8
LAYER_2
100
AcDbLine
 10
153.0291
 20
212.8183
 30
0.0
 11
157.3961
 21
204.3553
 31
0.0
  0
LINE
  5
10E
330
10B
100
AcDbEntity
  8
LAYER_2
100
AcDbLine
 10
155.8561
 20
206.0482
 30
0.0
 11
157.3961
 21
204.3553
 31
0.0
  0
LINE
  5
10F
330
10B
100
AcDbEntity
  8
LAYER_2
100
AcDbLine
 10
157.3961
 20
204.3553
 30
0.0
 11
156.909
 21
206.5915
 31
0.0
  0
LINE
  5
110
330
10B
100
AcDbEntity
  8
LAYER_2
100
AcDbLine
 10
156.909
 20
206.5915
 30
0.0
 11
155.8561
 21
206.0482
 31
0.0
  0
ENDBLK
  5
111
330
10B
100
AcDbEntity
  8
0
100
AcDbBlockEnd
  0
BLOCK
  5
113
330
112
100
AcDbEntity
  8
LAYER_2
100
AcDbBlockBegin
  2
AIGNBL02010014
 70
     0
 10
0.0
 20
0.0
 30
0.0
  3
AIGNBL02010014
  1

  0
LINE
  5
114
330
112
100
AcDbEntity
  8
LAYER_2
100
AcDbLine
 10
36.6398
 20
169.0209
 30
0.0
 11
90.24
 21
169.0209
 31
0.0
  0
LINE
  5
115
330
112
100
AcDbEntity
  8
LAYER_2
100
AcDbLine
 10
88.0294
 20
168.4359
 30
0.0
 11
90.24
 21
169.0281
 31
0.0
  0
LINE
  5
116
330
112
100
AcDbEntity
  8
LAYER_2
100
AcDbLine
 10
90.24
 20
169.0281
 30
0.0
 11
88.0294
 21
169.6205
 31
0.0
  0
LINE
  5
117
330
112
100
AcDbEntity
  8
LAYER_2
100
AcDbLine
 10
88.0294
 20
169.6205
 30
0.0
 11
88.0294
 21
168.4359
 31
0.0
  0
LINE
  5
118
330
112
100
AcDbEntity
  8
LAYER_2
100
AcDbLine
 10
38.8502
 20
169.6131
 30
0.0
 11
36.6398
 21
169.0209
 31
0.0
  0
LINE
  5
119
330
112
100
AcDbEntity
  8
LAYER_2
100
AcDbLine
 10
36.6398
 20
169.0209
 30
0.0
 11
38.8502
 21
168.4285
 31
0.0
  0
LINE
  5
11A
330
112
100
AcDbEntity
  8
LAYER_2
100
AcDbLine
 10
38.8502
 20
168.4285
 30
0.0
 11
38.8502
 21
169.6131
 31
0.0
  0
ENDBLK
  5
11B
330
112
100
AcDbEntity
  8
0
100
AcDbBlockEnd
  0
BLOCK
  5
11D
330
11C
100
AcDbEntity
  8
LAYER_2
100
AcDbBlockBegin
  2
AIGNBL02010015
 70
     0
 10
0.0
 20
0.0
 30
0.0
  3
AIGNBL02010015
  1

  0
LINE
  5
11E
330
11C
100
AcDbEntity
  8
LAYER_2
100
AcDbLine
 10
50.7402
 20
175.5507
 30
0.0
 11
73.2402
 21
175.5507
 31
0.0
  0
LINE
  5
11F
330
11C
100
AcDbEntity
  8
LAYER_2
100
AcDbLine
 10
71.0296
 20
174.9657
 30
0.0
 11
73.2402
 21
175.5579
 31
0.0
  0
LINE
  5
120
330
11C
100
AcDbEntity
  8
LAYER_2
100
AcDbLine
 10
73.2402
 20
175.5579
 30
0.0
 11
71.0296
 21
176.1503
 31
0.0
  0
LINE
  5
121
330
11C
100
AcDbEntity
  8
LAYER_2
100
AcDbLine
 10
71.0296
 20
176.1503
 30
0.0
 11
71.0296
 21
174.9657
 31
0.0
  0
LINE
  5
122
330
11C
100
AcDbEntity
  8
LAYER_2
100
AcDbLine
 10
52.9506
 20
176.1429
 30
0.0
 11
50.7402
 21
175.5507
 31
0.0
  0
LINE
  5
123
330
11C
100
AcDbEntity
  8
LAYER_2
100
AcDbLine
 10
50.7402
 20
175.5507
 30
0.0
 11
52.9506
 21
174.9583
 31
0.0
  0
LINE
  5
124
330
11C
100
AcDbEntity
  8
LAYER_2
100
AcDbLine
 10
52.9506
 20
174.9583
 30
0.0
 11
52.9506
 21
176.1429
 31
0.0
  0
ENDBLK
  5
125
330
11C
100
AcDbEntity
  8
0
100
AcDbBlockEnd
  0
BLOCK
  5
127
330
126
100
AcDbEntity
  8
LAYER_2
100
AcDbBlockBegin
  2
AIGNBL02010016
 70
     0
 10
0.0
 20
0.0
 30
0.0
  3
AIGNBL02010016
  1

  0
LINE
  5
128
330
126
100
AcDbEntity
  8
LAYER_2
100
AcDbLine
 10
173.3296
 20
128.8245
 30
0.0
 11
173.3296
 21
116.3243
 31
0.0
  0
LINE
  5
129
330
126
100
AcDbEntity
  8
LAYER_2
100
AcDbLine
 10
172.7374
 20
118.5347
 30
0.0
 11
173.3296
 21
116.3243
 31
0.0
  0
LINE
  5
12A
330
126
100
AcDbEntity
  8
LAYER_2
100
AcDbLine
 10
173.3296
 20
116.3243
 30
0.0
 11
173.9218
 21
118.5347
 31
0.0
  0
LINE
  5
12B
330
126
100
AcDbEntity
  8
LAYER_2
100
AcDbLine
 10
173.9218
 20
118.5347
 30
0.0
 11
172.7374
 21
118.5347
 31
0.0
  0
LINE
  5
12C
330
126
100
AcDbEntity
  8
LAYER_2
100
AcDbLine
 10
173.9218
 20
126.6138
 30
0.0
 11
173.3296
 21
128.8245
 31
0.0
  0
LINE
  5
12D
330
126
100
AcDbEntity
  8
LAYER_2
100
AcDbLine
 10
173.3296
 20
128.8245
 30
0.0
 11
172.7374
 21
126.6138
 31
0.0
  0
LINE
  5
12E
330
126
100
AcDbEntity
  8
LAYER_2
100
AcDbLine
 10
172.7374
 20
126.6138
 30
0.0
 11
173.9218
 21
126.6138
 31
0.0
  0
LINE
  5
12F
330
126
100
AcDbEntity
  8
LAYER_2
100
AcDbLine
 10
71.7572
 20
128.8245
 30
0.0
 11
71.7572
 21
118.3249
 31
0.0
  0
LINE
  5
130
330
126
100
AcDbEntity
  8
LAYER_2
100
AcDbLine
 10
71.165
 20
120.5353
 30
0.0
 11
71.7572
 21
118.3249
 31
0.0
  0
LINE
  5
131
330
126
100
AcDbEntity
  8
LAYER_2
100
AcDbLine
 10
71.7572
 20
118.3249
 30
0.0
 11
72.3494
 21
120.5353
 31
0.0
  0
LINE
  5
132
330
126
100
AcDbEntity
  8
LAYER_2
100
AcDbLine
 10
72.3494
 20
120.5353
 30
0.0
 11
71.165
 21
120.5353
 31
0.0
  0
LINE
  5
133
330
126
100
AcDbEntity
  8
LAYER_2
100
AcDbLine
 10
72.3494
 20
126.6138
 30
0.0
 11
71.7572
 21
128.8245
 31
0.0
  0
LINE
  5
134
330
126
100
AcDbEntity
  8
LAYER_2
100
AcDbLine
 10
71.7572
 20
128.8245
 30
0.0
 11
71.165
 21
126.6138
 31
0.0
  0
LINE
  5
135
330
126
100
AcDbEntity
  8
LAYER_2
100
AcDbLine
 10
71.165
 20
126.6138
 30
0.0
 11
72.3494
 21
126.6138
 31
0.0
  0
LINE
  5
136
330
126
100
AcDbEntity
  8
LAYER_2
100
AcDbLine
 10
173.9218
 20
112.1141
 30
0.0
 11
173.3296
 21
114.3248
 31
0.0
  0
LINE
  5
137
330
126
100
AcDbEntity
  8
LAYER_2
100
AcDbLine
 10
173.3296
 20
114.3248
 30
0.0
 11
172.7374
 21
112.1141
 31
0.0
  0
LINE
  5
138
330
126
100
AcDbEntity
  8
LAYER_2
100
AcDbLine
 10
172.7374
 20
112.1141
 30
0.0
 11
173.9218
 21
112.1141
 31
0.0
  0
ENDBLK
  5
139
330
126
100
AcDbEntity
  8
0
100
AcDbBlockEnd
  0
BLOCK
  5
13B
330
13A
100
AcDbEntity
  8
LAYER_2
100
AcDbBlockBegin
  2
AIGNBL02010017
 70
     0
 10
0.0
 20
0.0
 30
0.0
  3
AIGNBL02010017
  1

  0
LINE
  5
13C
330
13A
100
AcDbEntity
  8
LAYER_2
100
AcDbLine
 10
121.4693
 20
209.8115
 30
0.0
 11
121.4693
 21
194.8115
 31
0.0
  0
LINE
  5
13D
330
13A
100
AcDbEntity
  8
LAYER_2
100
AcDbLine
 10
120.877
 20
197.0221
 30
0.0
 11
121.4693
 21
194.8115
 31
0.0
  0
LINE
  5
13E
330
13A
100
AcDbEntity
  8
LAYER_2
100
AcDbLine
 10
121.4693
 20
194.8115
 30
0.0
 11
122.0615
 21
197.0221
 31
0.0
  0
LINE
  5
13F
330
13A
100
AcDbEntity
  8
LAYER_2
100
AcDbLine
 10
122.0615
 20
197.0221
 30
0.0
 11
120.877
 21
197.0221
 31
0.0
  0
LINE
  5
140
330
13A
100
AcDbEntity
  8
LAYER_2
100
AcDbLine
 10
122.0615
 20
207.6008
 30
0.0
 11
121.4693
 21
209.8113
 31
0.0
  0
LINE
  5
141
330
13A
100
AcDbEntity
  8
LAYER_2
100
AcDbLine
 10
121.4693
 20
209.8113
 30
0.0
 11
120.877
 21
207.6008
 31
0.0
  0
LINE
  5
142
330
13A
100
AcDbEntity
  8
LAYER_2
100
AcDbLine
 10
120.877
 20
207.6008
 30
0.0
 11
122.0615
 21
207.6008
 31
0.0
  0
ENDBLK
  5
143
330
13A
100
AcDbEntity
  8
0
100
AcDbBlockEnd
  0
BLOCK
  5
145
330
144
100
AcDbEntity
  8
LAYER_2
100
AcDbBlockBegin
  2
AIGNBL02010018
 70
     0
 10
0.0
 20
0.0
 30
0.0
  3
AIGNBL02010018
  1

  0
LINE
  5
146
330
144
100
AcDbEntity
  8
LAYER_2
100
AcDbLine
 10
171.1506
 20
179.7454
 30
0.0
 11
124.8499
 21
179.7454
 31
0.0
  0
LINE
  5
147
330
144
100
AcDbEntity
  8
LAYER_2
100
AcDbLine
 10
127.0603
 20
180.3377
 30
0.0
 11
124.8499
 21
179.7454
 31
0.0
  0
LINE
  5
148
330
144
100
AcDbEntity
  8
LAYER_2
100
AcDbLine
 10
124.8499
 20
179.7454
 30
0.0
 11
127.0603
 21
179.153
 31
0.0
  0
LINE
  5
149
330
144
100
AcDbEntity
  8
LAYER_2
100
AcDbLine
 10
127.0603
 20
179.153
 30
0.0
 11
127.0603
 21
180.3377
 31
0.0
  0
LINE
  5
14A
330
144
100
AcDbEntity
  8
LAYER_2
100
AcDbLine
 10
168.9402
 20
179.1604
 30
0.0
 11
171.1506
 21
179.7527
 31
0.0
  0
LINE
  5
14B
330
144
100
AcDbEntity
  8
LAYER_2
100
AcDbLine
 10
171.1506
 20
179.7527
 30
0.0
 11
168.9402
 21
180.3451
 31
0.0
  0
LINE
  5
14C
330
144
100
AcDbEntity
  8
LAYER_2
100
AcDbLine
 10
168.9402
 20
180.3451
 30
0.0
 11
168.9402
 21
179.1604
 31
0.0
  0
ENDBLK
  5
14D
330
144
100
AcDbEntity
  8
0
100
AcDbBlockEnd
  0
BLOCK
  5
14F
330
14E
100
AcDbEntity
  8
LAYER_2
100
AcDbBlockBegin
  2
AIGNBL02010019
 70
     0
 10
0.0
 20
0.0
 30
0.0
  3
AIGNBL02010019
  1

  0
LINE
  5
150
330
14E
100
AcDbEntity
  8
LAYER_2
100
AcDbLine
 10
165.9503
 20
187.3982
 30
0.0
 11
135.9504
 21
187.3982
 31
0.0
  0
LINE
  5
151
330
14E
100
AcDbEntity
  8
LAYER_2
100
AcDbLine
 10
138.1607
 20
187.9904
 30
0.0
 11
135.9504
 21
187.3984
 31
0.0
  0
LINE
  5
152
330
14E
100
AcDbEntity
  8
LAYER_2
100
AcDbLine
 10
135.9504
 20
187.3984
 30
0.0
 11
138.1607
 21
186.8058
 31
0.0
  0
LINE
  5
153
330
14E
100
AcDbEntity
  8
LAYER_2
100
AcDbLine
 10
138.1607
 20
186.8058
 30
0.0
 11
138.1607
 21
187.9904
 31
0.0
  0
LINE
  5
154
330
14E
100
AcDbEntity
  8
LAYER_2
100
AcDbLine
 10
163.7399
 20
186.8132
 30
0.0
 11
165.9503
 21
187.4054
 31
0.0
  0
LINE
  5
155
330
14E
100
AcDbEntity
  8
LAYER_2
100
AcDbLine
 10
165.9503
 20
187.4054
 30
0.0
 11
163.7399
 21
187.9978
 31
0.0
  0
LINE
  5
156
330
14E
100
AcDbEntity
  8
LAYER_2
100
AcDbLine
 10
163.7399
 20
187.9978
 30
0.0
 11
163.7399
 21
186.8132
 31
0.0
  0
ENDBLK
  5
157
330
14E
100
AcDbEntity
  8
0
100
AcDbBlockEnd
  0
BLOCK
  5
159
330
158
100
AcDbEntity
  8
LAYER_2
100
AcDbBlockBegin
  2
AIGNBL0201001A
 70
     0
 10
0.0
 20
0.0
 30
0.0
  3
AIGNBL0201001A
  1

  0
LINE
  5
15A
330
158
100
AcDbEntity
  8
LAYER_2
100
AcDbLine
 10
171.1506
 20
218.634
 30
0.0
 11
158.4509
 21
218.634
 31
0.0
  0
LINE
  5
15B
330
158
100
AcDbEntity
  8
LAYER_2
100
AcDbLine
 10
160.6617
 20
219.2261
 30
0.0
 11
158.4509
 21
218.634
 31
0.0
  0
LINE
  5
15C
330
158
100
AcDbEntity
  8
LAYER_2
100
AcDbLine
 10
158.4509
 20
218.634
 30
0.0
 11
160.6617
 21
218.0415
 31
0.0
  0
LINE
  5
15D
330
158
100
AcDbEntity
  8
LAYER_2
100
AcDbLine
 10
160.6617
 20
218.0415
 30
0.0
 11
160.6617
 21
219.2261
 31
0.0
  0
LINE
  5
15E
330
158
100
AcDbEntity
  8
LAYER_2
100
AcDbLine
 10
168.9402
 20
218.049
 30
0.0
 11
171.1506
 21
218.6413
 31
0.0
  0
LINE
  5
15F
330
158
100
AcDbEntity
  8
LAYER_2
100
AcDbLine
 10
171.1506
 20
218.6413
 30
0.0
 11
168.9402
 21
219.2336
 31
0.0
  0
LINE
  5
160
330
158
100
AcDbEntity
  8
LAYER_2
100
AcDbLine
 10
168.9402
 20
219.2336
 30
0.0
 11
168.9402
 21
218.049
 31
0.0
  0
ENDBLK
  5
161
330
158
100
AcDbEntity
  8
0
100
AcDbBlockEnd
  0
BLOCK
  5
163
330
162
100
AcDbEntity
  8
LAYER_2
100
AcDbBlockBegin
  2
AIGNBL0201001B
 70
     0
 10
0.0
 20
0.0
 30
0.0
  3
AIGNBL0201001B
  1

  0
LINE
  5
164
330
162
100
AcDbEntity
  8
LAYER_2
100
AcDbLine
 10
35.9394
 20
162.1226
 30
0.0
 11
90.9393
 21
162.1226
 31
0.0
  0
LINE
  5
165
330
162
100
AcDbEntity
  8
LAYER_2
100
AcDbLine
 10
88.7289
 20
161.5376
 30
0.0
 11
90.9393
 21
162.1298
 31
0.0
  0
LINE
  5
166
330
162
100
AcDbEntity
  8
LAYER_2
100
AcDbLine
 10
90.9393
 20
162.1298
 30
0.0
 11
88.7289
 21
162.7222
 31
0.0
  0
LINE
  5
167
330
162
100
AcDbEntity
  8
LAYER_2
100
AcDbLine
 10
88.7289
 20
162.7222
 30
0.0
 11
88.7289
 21
161.5376
 31
0.0
  0
LINE
  5
168
330
162
100
AcDbEntity
  8
LAYER_2
100
AcDbLine
 10
38.1498
 20
162.7148
 30
0.0
 11
35.9394
 21
162.1227
 31
0.0
  0
LINE
  5
169
330
162
100
AcDbEntity
  8
LAYER_2
100
AcDbLine
 10
35.9394
 20
162.1227
 30
0.0
 11
38.1498
 21
161.5302
 31
0.0
  0
LINE
  5
16A
330
162
100
AcDbEntity
  8
LAYER_2
100
AcDbLine
 10
38.1498
 20
161.5302
 30
0.0
 11
38.1498
 21
162.7148
 31
0.0
  0
ENDBLK
  5
16B
330
162
100
AcDbEntity
  8
0
100
AcDbBlockEnd
  0
BLOCK
  5
16D
330
16C
100
AcDbEntity
  8
LAYER_2
100
AcDbBlockBegin
  2
AIGNBL0201001C
 70
     0
 10
0.0
 20
0.0
 30
0.0
  3
AIGNBL0201001C
  1

  0
LINE
  5
16E
330
16C
100
AcDbEntity
  8
LAYER_2
100
AcDbLine
 10
128.8769
 20
128.8245
 30
0.0
 11
164.1774
 21
128.8245
 31
0.0
  0
ENDBLK
  5
16F
330
16C
100
AcDbEntity
  8
0
100
AcDbBlockEnd
  0
BLOCK
  5
171
330
170
100
AcDbEntity
  8
LAYER_2
100
AcDbBlockBegin
  2
AIGNBL0201001D
 70
     0
 10
0.0
 20
0.0
 30
0.0
  3
AIGNBL0201001D
  1

  0
LINE
  5
172
330
170
100
AcDbEntity
  8
LAYER_2
  6
AIGENLINE001
100
AcDbLine
 10
142.4767
 20
123.7244
 30
0.0
 11
150.5768
 21
123.7244
 31
0.0
  0
ENDBLK
  5
173
330
170
100
AcDbEntity
  8
0
100
AcDbBlockEnd
  0
BLOCK
  5
175
330
174
100
AcDbEntity
  8
LAYER_2
100
AcDbBlockBegin
  2
AIGNBL0201001E
 70
     0
 10
0.0
 20
0.0
 30
0.0
  3
AIGNBL0201001E
  1

  0
LINE
  5
176
330
174
100
AcDbEntity
  8
LAYER_2
  6
AIGENLINE001
100
AcDbLine
 10
142.4767
 20
122.8246
 30
0.0
 11
150.5768
 21
122.8246
 31
0.0
  0
ENDBLK
  5
177
330
174
100
AcDbEntity
  8
0
100
AcDbBlockEnd
  0
BLOCK
  5
179
330
178
100
AcDbEntity
  8
LAYER_2
100
AcDbBlockBegin
  2
AIGNBL0201001F
 70
     0
 10
0.0
 20
0.0
 30
0.0
  3
AIGNBL0201001F
  1

  0
LINE
  5
17A
330
178
100
AcDbEntity
  8
LAYER_2
  6
AIGENLINE001
100
AcDbLine
 10
138.3771
 20
125.5248
 30
0.0
 11
154.6772
 21
125.5248
 31
0.0
  0
ENDBLK
  5
17B
330
178
100
AcDbEntity
  8
0
100
AcDbBlockEnd
  0
BLOCK
  5
17D
330
17C
100
AcDbEntity
  8
LAYER_2
100
AcDbBlockBegin
  2
AIGNBL02010020
 70
     0
 10
0.0
 20
0.0
 30
0.0
  3
AIGNBL02010020
  1

  0
LINE
  5
17E
330
17C
100
AcDbEntity
  8
LAYER_2
  6
AIGENLINE001
100
AcDbLine
 10
41.68
 20
125.5248
 30
0.0
 11
58.2895
 21
125.5248
 31
0.0
  0
ENDBLK
  5
17F
330
17C
100
AcDbEntity
  8
0
100
AcDbBlockEnd
  0
BLOCK
  5
181
330
180
100
AcDbEntity
  8
LAYER_2
100
AcDbBlockBegin
  2
AIGNBL02010021
 70
     0
 10
0.0
 20
0.0
 30
0.0
  3
AIGNBL02010021
  1

  0
LINE
  5
182
330
180
100
AcDbEntity
  8
LAYER_2
  6
AIGENLINE001
100
AcDbLine
 10
42.4458
 20
124.3245
 30
0.0
 11
55.44
 21
124.3245
 31
0.0
  0
ENDBLK
  5
183
330
180
100
AcDbEntity
  8
0
100
AcDbBlockEnd
  0
BLOCK
  5
185
330
184
100
AcDbEntity
  8
LAYER_2
100
AcDbBlockBegin
  2
AIGNBL02010022
 70
     0
 10
0.0
 20
0.0
 30
0.0
  3
AIGNBL02010022
  1

  0
LINE
  5
186
330
184
100
AcDbEntity
  8
LAYER_2
  6
AIGENLINE001
100
AcDbLine
 10
56.0398
 20
124.3245
 30
0.0
 11
57.8147
 21
124.3245
 31
0.0
  0
ENDBLK
  5
187
330
184
100
AcDbEntity
  8
0
100
AcDbBlockEnd
  0
BLOCK
  5
189
330
188
100
AcDbEntity
  8
LAYER_2
100
AcDbBlockBegin
  2
AIGNBL02010023
 70
     0
 10
0.0
 20
0.0
 30
0.0
  3
AIGNBL02010023
  1

  0
LINE
  5
18A
330
188
100
AcDbEntity
  8
LAYER_2
  6
AIGENLINE001
100
AcDbLine
 10
134.4056
 20
119.3298
 30
0.0
 11
143.0273
 21
118.3249
 31
0.0
  0
ENDBLK
  5
18B
330
188
100
AcDbEntity
  8
0
100
AcDbBlockEnd
  0
BLOCK
  5
18D
330
18C
100
AcDbEntity
  8
LAYER_2
100
AcDbBlockBegin
  2
AIGNBL02010024
 70
     0
 10
0.0
 20
0.0
 30
0.0
  3
AIGNBL02010024
  1

  0
LINE
  5
18E
330
18C
100
AcDbEntity
  8
LAYER_2
  6
AIGENLINE001
100
AcDbLine
 10
143.0273
 20
118.3249
 30
0.0
 11
150.027
 21
118.3249
 31
0.0
  0
ENDBLK
  5
18F
330
18C
100
AcDbEntity
  8
0
100
AcDbBlockEnd
  0
BLOCK
  5
191
330
190
100
AcDbEntity
  8
LAYER_2
100
AcDbBlockBegin
  2
AIGNBL02010025
 70
     0
 10
0.0
 20
0.0
 30
0.0
  3
AIGNBL02010025
  1

  0
LINE
  5
192
330
190
100
AcDbEntity
  8
LAYER_2
  6
AIGENLINE001
100
AcDbLine
 10
144.2268
 20
117.3244
 30
0.0
 11
148.8274
 21
117.3244
 31
0.0
  0
ENDBLK
  5
193
330
190
100
AcDbEntity
  8
0
100
AcDbBlockEnd
  0
BLOCK
  5
195
330
194
100
AcDbEntity
  8
LAYER_2
100
AcDbBlockBegin
  2
AIGNBL02010026
 70
     0
 10
0.0
 20
0.0
 30
0.0
  3
AIGNBL02010026
  1

  0
LINE
  5
196
330
194
100
AcDbEntity
  8
LAYER_2
  6
AIGENLINE001
100
AcDbLine
 10
143.7769
 20
116.8246
 30
0.0
 11
149.2773
 21
116.8246
 31
0.0
  0
ENDBLK
  5
197
330
194
100
AcDbEntity
  8
0
100
AcDbBlockEnd
  0
BLOCK
  5
199
330
198
100
AcDbEntity
  8
LAYER_2
100
AcDbBlockBegin
  2
AIGNBL02010027
 70
     0
 10
0.0
 20
0.0
 30
0.0
  3
AIGNBL02010027
  1

  0
LINE
  5
19A
330
198
100
AcDbEntity
  8
LAYER_2
  6
AIGENLINE001
100
AcDbLine
 10
143.7769
 20
114.8243
 30
0.0
 11
149.2773
 21
114.8243
 31
0.0
  0
ENDBLK
  5
19B
330
198
100
AcDbEntity
  8
0
100
AcDbBlockEnd
  0
BLOCK
  5
19D
330
19C
100
AcDbEntity
  8
LAYER_2
100
AcDbBlockBegin
  2
AIGNBL02010028
 70
     0
 10
0.0
 20
0.0
 30
0.0
  3
AIGNBL02010028
  1

  0
LINE
  5
19E
330
19C
100
AcDbEntity
  8
LAYER_2
100
AcDbLine
 10
129.1773
 20
116.3243
 30
0.0
 11
163.877
 21
116.3243
 31
0.0
  0
ENDBLK
  5
19F
330
19C
100
AcDbEntity
  8
0
100
AcDbBlockEnd
  0
BLOCK
  5
1A1
330
1A0
100
AcDbEntity
  8
LAYER_2
100
AcDbBlockBegin
  2
AIGNBL02010029
 70
     0
 10
0.0
 20
0.0
 30
0.0
  3
AIGNBL02010029
  1

  0
LINE
  5
1A2
330
1A0
100
AcDbEntity
  8
LAYER_2
100
AcDbLine
 10
146.9271
 20
114.3248
 30
0.0
 11
149.5771
 21
114.3248
 31
0.0
  0
ENDBLK
  5
1A3
330
1A0
100
AcDbEntity
  8
0
100
AcDbBlockEnd
  0
BLOCK
  5
1A5
330
1A4
100
AcDbEntity
  8
LAYER_2
100
AcDbBlockBegin
  2
AIGNBL0201002A
 70
     0
 10
0.0
 20
0.0
 30
0.0
  3
AIGNBL0201002A
  1

  0
LINE
  5
1A6
330
1A4
100
AcDbEntity
  8
LAYER_2
100
AcDbLine
 10
143.4772
 20
114.3248
 30
0.0
 11
146.1272
 21
114.3248
 31
0.0
  0
ENDBLK
  5
1A7
330
1A4
100
AcDbEntity
  8
0
100
AcDbBlockEnd
  0
BLOCK
  5
1A9
330
1A8
100
AcDbEntity
  8
LAYER_2
100
AcDbBlockBegin
  2
AIGNBL0201002B
 70
     0
 10
0.0
 20
0.0
 30
0.0
  3
AIGNBL0201002B
  1

  0
LINE
  5
1AA
330
1A8
100
AcDbEntity
  8
LAYER_2
  6
AIGENLINE001
100
AcDbLine
 10
129.6355
 20
124.1977
 30
0.0
 11
129.5266
 21
128.4745
 31
0.0
  0
ENDBLK
  5
1AB
330
1A8
100
AcDbEntity
  8
0
100
AcDbBlockEnd
  0
BLOCK
  5
1AD
330
1AC
100
AcDbEntity
  8
LAYER_2
100
AcDbBlockBegin
  2
AIGNBL0201002C
 70
     0
 10
0.0
 20
0.0
 30
0.0
  3
AIGNBL0201002C
  1

  0
ARC
  5
1AE
330
1AC
100
AcDbEntity
  8
LAYER_2
  6
AIGENLINE001
100
AcDbCircle
 10
129.164
 20
128.4619
 30
0.0
 40
0.3629
100
AcDbArc
 50
1.991507467
 51
87.89378629
  0
ENDBLK
  5
1AF
330
1AC
100
AcDbEntity
  8
0
100
AcDbBlockEnd
  0
BLOCK
  5
1B1
330
1B0
100
AcDbEntity
  8
LAYER_2
100
AcDbBlockBegin
  2
AIGNBL0201002D
 70
     0
 10
0.0
 20
0.0
 30
0.0
  3
AIGNBL0201002D
  1

  0
ARC
  5
1B2
330
1B0
100
AcDbEntity
  8
LAYER_2
  6
AIGENLINE001
100
AcDbCircle
 10
129.7191
 20
116.0186
 30
0.0
 40
0.5062
100
AcDbArc
 50
90.26092578000001
 51
127.9069328
  0
ARC
  5
1B3
330
1B0
100
AcDbEntity
  8
LAYER_2
  6
AIGENLINE001
100
AcDbCircle
 10
129.7132
 20
116.0182
 30
0.0
 40
0.5066
100
AcDbArc
 50
37.27210742
 51
89.59779021
  0
ENDBLK
  5
1B4
330
1B0
100
AcDbEntity
  8
0
100
AcDbBlockEnd
  0
BLOCK
  5
1B6
330
1B5
100
AcDbEntity
  8
LAYER_2
100
AcDbBlockBegin
  2
AIGNBL0201002E
 70
     0
 10
0.0
 20
0.0
 30
0.0
  3
AIGNBL0201002E
  1

  0
ARC
  5
1B7
330
1B5
100
AcDbEntity
  8
LAYER_2
  6
AIGENLINE001
100
AcDbCircle
 10
129.176
 20
116.6769
 30
0.0
 40
0.3526
100
AcDbArc
 50
270.218739
 51
311.9349185
  0
ENDBLK
  5
1B8
330
1B5
100
AcDbEntity
  8
0
100
AcDbBlockEnd
  0
BLOCK
  5
1BA
330
1B9
100
AcDbEntity
  8
LAYER_2
100
AcDbBlockBegin
  2
AIGNBL0201002F
 70
     0
 10
0.0
 20
0.0
 30
0.0
  3
AIGNBL0201002F
  1

  0
LINE
  5
1BB
330
1B9
100
AcDbEntity
  8
LAYER_2
  6
AIGENLINE001
100
AcDbLine
 10
143.1768
 20
116.3243
 30
0.0
 11
143.1768
 21
117.3482
 31
0.0
  0
ENDBLK
  5
1BC
330
1B9
100
AcDbEntity
  8
0
100
AcDbBlockEnd
  0
BLOCK
  5
1BE
330
1BD
100
AcDbEntity
  8
LAYER_2
100
AcDbBlockBegin
  2
AIGNBL02010030
 70
     0
 10
0.0
 20
0.0
 30
0.0
  3
AIGNBL02010030
  1

  0
LINE
  5
1BF
330
1BD
100
AcDbEntity
  8
LAYER_2
  6
AIGENLINE001
100
AcDbLine
 10
144.2268
 20
117.3244
 30
0.0
 11
143.0273
 21
118.3249
 31
0.0
  0
ENDBLK
  5
1C0
330
1BD
100
AcDbEntity
  8
0
100
AcDbBlockEnd
  0
BLOCK
  5
1C2
330
1C1
100
AcDbEntity
  8
LAYER_2
100
AcDbBlockBegin
  2
AIGNBL02010031
 70
     0
 10
0.0
 20
0.0
 30
0.0
  3
AIGNBL02010031
  1

  0
LINE
  5
1C3
330
1C1
100
AcDbEntity
  8
LAYER_2
  6
AIGENLINE001
100
AcDbLine
 10
150.027
 20
118.3249
 30
0.0
 11
148.8274
 21
117.3244
 31
0.0
  0
ENDBLK
  5
1C4
330
1C1
100
AcDbEntity
  8
0
100
AcDbBlockEnd
  0
BLOCK
  5
1C6
330
1C5
100
AcDbEntity
  8
LAYER_2
100
AcDbBlockBegin
  2
AIGNBL02010032
 70
     0
 10
0.0
 20
0.0
 30
0.0
  3
AIGNBL02010032
  1

  0
LINE
  5
1C7
330
1C5
100
AcDbEntity
  8
LAYER_2
  6
AIGENLINE001
100
AcDbLine
 10
144.2268
 20
116.8246
 30
0.0
 11
144.2268
 21
117.3244
 31
0.0
  0
ENDBLK
  5
1C8
330
1C5
100
AcDbEntity
  8
0
100
AcDbBlockEnd
  0
BLOCK
  5
1CA
330
1C9
100
AcDbEntity
  8
LAYER_2
100
AcDbBlockBegin
  2
AIGNBL02010033
 70
     0
 10
0.0
 20
0.0
 30
0.0
  3
AIGNBL02010033
  1

  0
LINE
  5
1CB
330
1C9
100
AcDbEntity
  8
LAYER_2
  6
AIGENLINE001
100
AcDbLine
 10
137.8768
 20
120.0416
 30
0.0
 11
137.8768
 21
125.0246
 31
0.0
  0
ENDBLK
  5
1CC
330
1C9
100
AcDbEntity
  8
0
100
AcDbBlockEnd
  0
BLOCK
  5
1CE
330
1CD
100
AcDbEntity
  8
LAYER_2
100
AcDbBlockBegin
  2
AIGNBL02010034
 70
     0
 10
0.0
 20
0.0
 30
0.0
  3
AIGNBL02010034
  1

  0
LINE
  5
1CF
330
1CD
100
AcDbEntity
  8
LAYER_2
  6
AIGENLINE001
100
AcDbLine
 10
143.7769
 20
114.8243
 30
0.0
 11
143.7769
 21
116.8246
 31
0.0
  0
ENDBLK
  5
1D0
330
1CD
100
AcDbEntity
  8
0
100
AcDbBlockEnd
  0
BLOCK
  5
1D2
330
1D1
100
AcDbEntity
  8
LAYER_2
100
AcDbBlockBegin
  2
AIGNBL02010035
 70
     0
 10
0.0
 20
0.0
 30
0.0
  3
AIGNBL02010035
  1

  0
LINE
  5
1D3
330
1D1
100
AcDbEntity
  8
LAYER_2
  6
AIGENLINE001
100
AcDbLine
 10
149.2773
 20
114.8243
 30
0.0
 11
149.2773
 21
116.8246
 31
0.0
  0
ENDBLK
  5
1D4
330
1D1
100
AcDbEntity
  8
0
100
AcDbBlockEnd
  0
BLOCK
  5
1D6
330
1D5
100
AcDbEntity
  8
LAYER_2
100
AcDbBlockBegin
  2
AIGNBL02010036
 70
     0
 10
0.0
 20
0.0
 30
0.0
  3
AIGNBL02010036
  1

  0
LINE
  5
1D7
330
1D5
100
AcDbEntity
  8
LAYER_2
  6
AIGENLINE001
100
AcDbLine
 10
148.8274
 20
116.8246
 30
0.0
 11
148.8274
 21
117.3244
 31
0.0
  0
ENDBLK
  5
1D8
330
1D5
100
AcDbEntity
  8
0
100
AcDbBlockEnd
  0
BLOCK
  5
1DA
330
1D9
100
AcDbEntity
  8
LAYER_2
100
AcDbBlockBegin
  2
AIGNBL02010037
 70
     0
 10
0.0
 20
0.0
 30
0.0
  3
AIGNBL02010037
  1

  0
LINE
  5
1DB
330
1D9
100
AcDbEntity
  8
LAYER_2
  6
AIGENLINE001
100
AcDbLine
 10
144.2268
 20
114.3248
 30
0.0
 11
144.2268
 21
114.8243
 31
0.0
  0
ENDBLK
  5
1DC
330
1D9
100
AcDbEntity
  8
0
100
AcDbBlockEnd
  0
BLOCK
  5
1DE
330
1DD
100
AcDbEntity
  8
LAYER_2
100
AcDbBlockBegin
  2
AIGNBL02010038
 70
     0
 10
0.0
 20
0.0
 30
0.0
  3
AIGNBL02010038
  1

  0
LINE
  5
1DF
330
1DD
100
AcDbEntity
  8
LAYER_2
  6
AIGENLINE001
100
AcDbLine
 10
148.8274
 20
114.3248
 30
0.0
 11
148.8274
 21
114.8243
 31
0.0
  0
ENDBLK
  5
1E0
330
1DD
100
AcDbEntity
  8
0
100
AcDbBlockEnd
  0
BLOCK
  5
1E2
330
1E1
100
AcDbEntity
  8
LAYER_2
100
AcDbBlockBegin
  2
AIGNBL02010039
 70
     0
 10
0.0
 20
0.0
 30
0.0
  3
AIGNBL02010039
  1

  0
ARC
  5
1E3
330
1E1
100
AcDbEntity
  8
LAYER_2
  6
AIGENLINE001
100
AcDbCircle
 10
142.6767
 20
117.3482
 30
0.0
 40
0.5001
100
AcDbArc
 50
359.9980667
 51
87.16975128
  0
ENDBLK
  5
1E4
330
1E1
100
AcDbEntity
  8
0
100
AcDbBlockEnd
  0
BLOCK
  5
1E6
330
1E5
100
AcDbEntity
  8
LAYER_2
100
AcDbBlockBegin
  2
AIGNBL0201003A
 70
     0
 10
0.0
 20
0.0
 30
0.0
  3
AIGNBL0201003A
  1

  0
ARC
  5
1E7
330
1E5
100
AcDbEntity
  8
LAYER_2
  6
AIGENLINE001
100
AcDbCircle
 10
131.2812
 20
116.8385
 30
0.0
 40
0.5144
100
AcDbArc
 50
271.2658306
 51
344.8365343
  0
LINE
  5
1E8
330
1E5
100
AcDbEntity
  8
LAYER_2
  6
AIGENLINE001
100
AcDbLine
 10
131.7777
 20
116.704
 30
0.0
 11
131.9837
 21
117.5287
 31
0.0
  0
ARC
  5
1E9
330
1E5
100
AcDbEntity
  8
LAYER_2
  6
AIGENLINE001
100
AcDbCircle
 10
132.9793
 20
117.2543
 30
0.0
 40
1.0327
100
AcDbArc
 50
91.37399756999999
 51
164.5913917
  0
LINE
  5
1EA
330
1E5
100
AcDbEntity
  8
LAYER_2
  6
AIGENLINE001
100
AcDbLine
 10
132.9545
 20
118.2867
 30
0.0
 11
133.0027
 21
118.2853
 31
0.0
  0
LINE
  5
1EB
330
1E5
100
AcDbEntity
  8
LAYER_2
  6
AIGENLINE001
100
AcDbLine
 10
133.0027
 20
118.2853
 30
0.0
 11
142.7014
 21
117.8477
 31
0.0
  0
ENDBLK
  5
1EC
330
1E5
100
AcDbEntity
  8
0
100
AcDbBlockEnd
  0
BLOCK
  5
1EE
330
1ED
100
AcDbEntity
  8
LAYER_2
100
AcDbBlockBegin
  2
AIGNBL0201003B
 70
     0
 10
0.0
 20
0.0
 30
0.0
  3
AIGNBL0201003B
  1

  0
ARC
  5
1EF
330
1ED
100
AcDbEntity
  8
LAYER_2
  6
AIGENLINE001
100
AcDbCircle
 10
134.8036
 20
124.4908
 30
0.0
 40
5.1764
100
AcDbArc
 50
183.2465163
 51
265.5907248
  0
ENDBLK
  5
1F0
330
1ED
100
AcDbEntity
  8
0
100
AcDbBlockEnd
  0
BLOCK
  5
1F2
330
1F1
100
AcDbEntity
  8
LAYER_2
100
AcDbBlockBegin
  2
AIGNBL0201003C
 70
     0
 10
0.0
 20
0.0
 30
0.0
  3
AIGNBL0201003C
  1

  0
LINE
  5
1F3
330
1F1
100
AcDbEntity
  8
LAYER_2
  6
AIGENLINE001
100
AcDbLine
 10
158.6487
 20
119.3298
 30
0.0
 11
150.027
 21
118.3249
 31
0.0
  0
ENDBLK
  5
1F4
330
1F1
100
AcDbEntity
  8
0
100
AcDbBlockEnd
  0
BLOCK
  5
1F6
330
1F5
100
AcDbEntity
  8
LAYER_2
100
AcDbBlockBegin
  2
AIGNBL0201003D
 70
     0
 10
0.0
 20
0.0
 30
0.0
  3
AIGNBL0201003D
  1

  0
LINE
  5
1F7
330
1F5
100
AcDbEntity
  8
LAYER_2
  6
AIGENLINE001
100
AcDbLine
 10
163.4188
 20
124.1977
 30
0.0
 11
163.5277
 21
128.4745
 31
0.0
  0
ENDBLK
  5
1F8
330
1F5
100
AcDbEntity
  8
0
100
AcDbBlockEnd
  0
BLOCK
  5
1FA
330
1F9
100
AcDbEntity
  8
LAYER_2
100
AcDbBlockBegin
  2
AIGNBL0201003E
 70
     0
 10
0.0
 20
0.0
 30
0.0
  3
AIGNBL0201003E
  1

  0
ARC
  5
1FB
330
1F9
100
AcDbEntity
  8
LAYER_2
  6
AIGENLINE001
100
AcDbCircle
 10
163.8903
 20
128.4619
 30
0.0
 40
0.3629
100
AcDbArc
 50
92.10621365999998
 51
178.0084925
  0
ENDBLK
  5
1FC
330
1F9
100
AcDbEntity
  8
0
100
AcDbBlockEnd
  0
BLOCK
  5
1FE
330
1FD
100
AcDbEntity
  8
LAYER_2
100
AcDbBlockBegin
  2
AIGNBL0201003F
 70
     0
 10
0.0
 20
0.0
 30
0.0
  3
AIGNBL0201003F
  1

  0
ARC
  5
1FF
330
1FD
100
AcDbEntity
  8
LAYER_2
  6
AIGENLINE001
100
AcDbCircle
 10
163.3352
 20
116.0186
 30
0.0
 40
0.5062
100
AcDbArc
 50
52.09306715
 51
89.7390742
  0
ARC
  5
200
330
1FD
100
AcDbEntity
  8
LAYER_2
  6
AIGENLINE001
100
AcDbCircle
 10
163.3411
 20
116.0182
 30
0.0
 40
0.5066
100
AcDbArc
 50
90.40220976999998
 51
142.7278926
  0
ENDBLK
  5
201
330
1FD
100
AcDbEntity
  8
0
100
AcDbBlockEnd
  0
BLOCK
  5
203
330
202
100
AcDbEntity
  8
LAYER_2
100
AcDbBlockBegin
  2
AIGNBL02010040
 70
     0
 10
0.0
 20
0.0
 30
0.0
  3
AIGNBL02010040
  1

  0
ARC
  5
204
330
202
100
AcDbEntity
  8
LAYER_2
  6
AIGENLINE001
100
AcDbCircle
 10
163.8783
 20
116.6767
 30
0.0
 40
0.3524
100
AcDbArc
 50
228.0544221
 51
269.7919204
  0
ENDBLK
  5
205
330
202
100
AcDbEntity
  8
0
100
AcDbBlockEnd
  0
BLOCK
  5
207
330
206
100
AcDbEntity
  8
LAYER_2
100
AcDbBlockBegin
  2
AIGNBL02010041
 70
     0
 10
0.0
 20
0.0
 30
0.0
  3
AIGNBL02010041
  1

  0
LINE
  5
208
330
206
100
AcDbEntity
  8
LAYER_2
  6
AIGENLINE001
100
AcDbLine
 10
149.8775
 20
116.3243
 30
0.0
 11
149.8775
 21
117.3482
 31
0.0
  0
ENDBLK
  5
209
330
206
100
AcDbEntity
  8
0
100
AcDbBlockEnd
  0
BLOCK
  5
20B
330
20A
100
AcDbEntity
  8
LAYER_2
100
AcDbBlockBegin
  2
AIGNBL02010042
 70
     0
 10
0.0
 20
0.0
 30
0.0
  3
AIGNBL02010042
  1

  0
ARC
  5
20C
330
20A
100
AcDbEntity
  8
LAYER_2
  6
AIGENLINE001
100
AcDbCircle
 10
150.3776
 20
117.3482
 30
0.0
 40
0.5001
100
AcDbArc
 50
92.82977742
 51
180.0024045999999
  0
ENDBLK
  5
20D
330
20A
100
AcDbEntity
  8
0
100
AcDbBlockEnd
  0
BLOCK
  5
20F
330
20E
100
AcDbEntity
  8
LAYER_2
100
AcDbBlockBegin
  2
AIGNBL02010043
 70
     0
 10
0.0
 20
0.0
 30
0.0
  3
AIGNBL02010043
  1

  0
ARC
  5
210
330
20E
100
AcDbEntity
  8
LAYER_2
  6
AIGENLINE001
100
AcDbCircle
 10
161.1288
 20
116.8385
 30
0.0
 40
0.5143
100
AcDbArc
 50
195.1610007
 51
268.7366345
  0
LINE
  5
211
330
20E
100
AcDbEntity
  8
LAYER_2
  6
AIGENLINE001
100
AcDbLine
 10
160.6324
 20
116.704
 30
0.0
 11
160.4264
 21
117.5287
 31
0.0
  0
ARC
  5
212
330
20E
100
AcDbEntity
  8
LAYER_2
  6
AIGENLINE001
100
AcDbCircle
 10
159.4307
 20
117.2541
 30
0.0
 40
1.0329
100
AcDbArc
 50
15.41638877
 51
88.61822196
  0
LINE
  5
213
330
20E
100
AcDbEntity
  8
LAYER_2
  6
AIGENLINE001
100
AcDbLine
 10
159.4556
 20
118.2867
 30
0.0
 11
159.4073
 21
118.2853
 31
0.0
  0
LINE
  5
214
330
20E
100
AcDbEntity
  8
LAYER_2
  6
AIGENLINE001
100
AcDbLine
 10
159.4073
 20
118.2853
 30
0.0
 11
150.3529
 21
117.8477
 31
0.0
  0
ENDBLK
  5
215
330
20E
100
AcDbEntity
  8
0
100
AcDbBlockEnd
  0
BLOCK
  5
217
330
216
100
AcDbEntity
  8
LAYER_2
100
AcDbBlockBegin
  2
AIGNBL02010044
 70
     0
 10
0.0
 20
0.0
 30
0.0
  3
AIGNBL02010044
  1

  0
ARC
  5
218
330
216
100
AcDbEntity
  8
LAYER_2
  6
AIGENLINE001
100
AcDbCircle
 10
158.2507
 20
124.4908
 30
0.0
 40
5.1764
100
AcDbArc
 50
274.4092752
 51
356.7534837
  0
ENDBLK
  5
219
330
216
100
AcDbEntity
  8
0
100
AcDbBlockEnd
  0
BLOCK
  5
21B
330
21A
100
AcDbEntity
  8
LAYER_2
100
AcDbBlockBegin
  2
AIGNBL02010045
 70
     0
 10
0.0
 20
0.0
 30
0.0
  3
AIGNBL02010045
  1

  0
ARC
  5
21C
330
21A
100
AcDbEntity
  8
LAYER_2
  6
AIGENLINE001
100
AcDbCircle
 10
138.3771
 20
125.0245
 30
0.0
 40
0.5003
100
AcDbArc
 50
89.99432677000001
 51
179.9942198
  0
ENDBLK
  5
21D
330
21A
100
AcDbEntity
  8
0
100
AcDbBlockEnd
  0
BLOCK
  5
21F
330
21E
100
AcDbEntity
  8
LAYER_2
100
AcDbBlockBegin
  2
AIGNBL02010046
 70
     0
 10
0.0
 20
0.0
 30
0.0
  3
AIGNBL02010046
  1

  0
ARC
  5
220
330
21E
100
AcDbEntity
  8
LAYER_2
  6
AIGENLINE001
100
AcDbCircle
 10
136.877
 20
120.0416
 30
0.0
 40
0.9998
100
AcDbArc
 50
270.0035586
 51
0.002172375213
  0
ENDBLK
  5
221
330
21E
100
AcDbEntity
  8
0
100
AcDbBlockEnd
  0
BLOCK
  5
223
330
222
100
AcDbEntity
  8
LAYER_2
100
AcDbBlockBegin
  2
AIGNBL02010047
 70
     0
 10
0.0
 20
0.0
 30
0.0
  3
AIGNBL02010047
  1

  0
LINE
  5
224
330
222
100
AcDbEntity
  8
LAYER_2
  6
AIGENLINE001
100
AcDbLine
 10
155.1767
 20
120.0416
 30
0.0
 11
155.1767
 21
125.0246
 31
0.0
  0
ENDBLK
  5
225
330
222
100
AcDbEntity
  8
0
100
AcDbBlockEnd
  0
BLOCK
  5
227
330
226
100
AcDbEntity
  8
LAYER_2
100
AcDbBlockBegin
  2
AIGNBL02010048
 70
     0
 10
0.0
 20
0.0
 30
0.0
  3
AIGNBL02010048
  1

  0
ARC
  5
228
330
226
100
AcDbEntity
  8
LAYER_2
  6
AIGENLINE001
100
AcDbCircle
 10
154.658
 20
125.0062
 30
0.0
 40
0.519
100
AcDbArc
 50
2.036827932
 51
87.88293390999999
  0
ENDBLK
  5
229
330
226
100
AcDbEntity
  8
0
100
AcDbBlockEnd
  0
BLOCK
  5
22B
330
22A
100
AcDbEntity
  8
LAYER_2
100
AcDbBlockBegin
  2
AIGNBL02010049
 70
     0
 10
0.0
 20
0.0
 30
0.0
  3
AIGNBL02010049
  1

  0
ARC
  5
22C
330
22A
100
AcDbEntity
  8
LAYER_2
  6
AIGENLINE001
100
AcDbCircle
 10
156.1768
 20
120.0419
 30
0.0
 40
1.0001
100
AcDbArc
 50
180.019709
 51
270.0203921
  0
ENDBLK
  5
22D
330
22A
100
AcDbEntity
  8
0
100
AcDbBlockEnd
  0
BLOCK
  5
22F
330
22E
100
AcDbEntity
  8
LAYER_2
100
AcDbBlockBegin
  2
AIGNBL0201004A
 70
     0
 10
0.0
 20
0.0
 30
0.0
  3
AIGNBL0201004A
  1

  0
ARC
  5
230
330
22E
100
AcDbEntity
  8
LAYER_2
  6
AIGENLINE001
100
AcDbCircle
 10
150.5769
 20
123.2745
 30
0.0
 40
0.4499
100
AcDbArc
 50
0.004354218699
 51
90.00837958000001
  0
ARC
  5
231
330
22E
100
AcDbEntity
  8
LAYER_2
  6
AIGENLINE001
100
AcDbCircle
 10
150.5769
 20
123.2745
 30
0.0
 40
0.4499
100
AcDbArc
 50
269.9899857
 51
359.9972805
  0
ENDBLK
  5
232
330
22E
100
AcDbEntity
  8
0
100
AcDbBlockEnd
  0
BLOCK
  5
234
330
233
100
AcDbEntity
  8
LAYER_2
100
AcDbBlockBegin
  2
AIGNBL0201004B
 70
     0
 10
0.0
 20
0.0
 30
0.0
  3
AIGNBL0201004B
  1

  0
ARC
  5
235
330
233
100
AcDbEntity
  8
LAYER_2
  6
AIGENLINE001
100
AcDbCircle
 10
142.4767
 20
123.2745
 30
0.0
 40
0.4499
100
AcDbArc
 50
180.0020844
 51
269.9979157
  0
ARC
  5
236
330
233
100
AcDbEntity
  8
LAYER_2
  6
AIGENLINE001
100
AcDbCircle
 10
142.4767
 20
123.2745
 30
0.0
 40
0.4499
100
AcDbArc
 50
90.00371876
 51
179.9962812
  0
ENDBLK
  5
237
330
233
100
AcDbEntity
  8
0
100
AcDbBlockEnd
  0
BLOCK
  5
239
330
238
100
AcDbEntity
  8
LAYER_2
100
AcDbBlockBegin
  2
AIGNBL0201004C
 70
     0
 10
0.0
 20
0.0
 30
0.0
  3
AIGNBL0201004C
  1

  0
LINE
  5
23A
330
238
100
AcDbEntity
  8
LAYER_2
  6
AIGENLINE001
100
AcDbLine
 10
57.8147
 20
123.7244
 30
0.0
 11
58.7894
 21
123.7244
 31
0.0
  0
ENDBLK
  5
23B
330
238
100
AcDbEntity
  8
0
100
AcDbBlockEnd
  0
BLOCK
  5
23D
330
23C
100
AcDbEntity
  8
LAYER_2
100
AcDbBlockBegin
  2
AIGNBL0201004D
 70
     0
 10
0.0
 20
0.0
 30
0.0
  3
AIGNBL0201004D
  1

  0
LINE
  5
23E
330
23C
100
AcDbEntity
  8
LAYER_2
  6
AIGENLINE001
100
AcDbLine
 10
57.8147
 20
122.8246
 30
0.0
 11
58.7894
 21
122.8246
 31
0.0
  0
ENDBLK
  5
23F
330
23C
100
AcDbEntity
  8
0
100
AcDbBlockEnd
  0
BLOCK
  5
241
330
240
100
AcDbEntity
  8
LAYER_2
100
AcDbBlockBegin
  2
AIGNBL0201004E
 70
     0
 10
0.0
 20
0.0
 30
0.0
  3
AIGNBL0201004E
  1

  0
ARC
  5
242
330
240
100
AcDbEntity
  8
LAYER_2
  6
AIGENLINE001
100
AcDbCircle
 10
57.8336
 20
123.1275
 30
0.0
 40
0.3035
100
AcDbArc
 50
208.2049586
 51
266.4255319
  0
ARC
  5
243
330
240
100
AcDbEntity
  8
LAYER_2
  6
AIGENLINE001
100
AcDbCircle
 10
58.0642
 20
123.2709
 30
0.0
 40
0.5747
100
AcDbArc
 50
179.6415451
 51
209.9420598
  0
ARC
  5
244
330
240
100
AcDbEntity
  8
LAYER_2
  6
AIGENLINE001
100
AcDbCircle
 10
58.0129
 20
123.2883
 30
0.0
 40
0.5236
100
AcDbArc
 50
137.5856212
 51
181.507656
  0
ARC
  5
245
330
240
100
AcDbEntity
  8
LAYER_2
  6
AIGENLINE001
100
AcDbCircle
 10
57.819
 20
123.4594
 30
0.0
 40
0.2651
100
AcDbArc
 50
90.92647064
 51
136.6088292
  0
ENDBLK
  5
246
330
240
100
AcDbEntity
  8
0
100
AcDbBlockEnd
  0
BLOCK
  5
248
330
247
100
AcDbEntity
  8
LAYER_2
100
AcDbBlockBegin
  2
AIGNBL0201004F
 70
     0
 10
0.0
 20
0.0
 30
0.0
  3
AIGNBL0201004F
  1

  0
LINE
  5
249
330
247
100
AcDbEntity
  8
LAYER_2
100
AcDbLine
 10
36.2894
 20
128.8245
 30
0.0
 11
90.59
 21
128.8245
 31
0.0
  0
ENDBLK
  5
24A
330
247
100
AcDbEntity
  8
0
100
AcDbBlockEnd
  0
BLOCK
  5
24C
330
24B
100
AcDbEntity
  8
LAYER_2
100
AcDbBlockBegin
  2
AIGNBL02010050
 70
     0
 10
0.0
 20
0.0
 30
0.0
  3
AIGNBL02010050
  1

  0
LINE
  5
24D
330
24B
100
AcDbEntity
  8
LAYER_2
  6
AIGENLINE001
100
AcDbLine
 10
59.7894
 20
118.8248
 30
0.0
 11
69.7399
 21
118.3249
 31
0.0
  0
ENDBLK
  5
24E
330
24B
100
AcDbEntity
  8
0
100
AcDbBlockEnd
  0
BLOCK
  5
250
330
24F
100
AcDbEntity
  8
LAYER_2
100
AcDbBlockBegin
  2
AIGNBL02010051
 70
     0
 10
0.0
 20
0.0
 30
0.0
  3
AIGNBL02010051
  1

  0
LINE
  5
251
330
24F
100
AcDbEntity
  8
LAYER_2
  6
AIGENLINE001
100
AcDbLine
 10
76.7397
 20
118.3249
 30
0.0
 11
85.2053
 21
119.4855
 31
0.0
  0
ENDBLK
  5
252
330
24F
100
AcDbEntity
  8
0
100
AcDbBlockEnd
  0
BLOCK
  5
254
330
253
100
AcDbEntity
  8
LAYER_2
100
AcDbBlockBegin
  2
AIGNBL02010052
 70
     0
 10
0.0
 20
0.0
 30
0.0
  3
AIGNBL02010052
  1

  0
LINE
  5
255
330
253
100
AcDbEntity
  8
LAYER_2
  6
AIGENLINE001
100
AcDbLine
 10
39.3001
 20
119.3671
 30
0.0
 11
39.7232
 21
119.3595
 31
0.0
  0
ENDBLK
  5
256
330
253
100
AcDbEntity
  8
0
100
AcDbBlockEnd
  0
BLOCK
  5
258
330
257
100
AcDbEntity
  8
LAYER_2
100
AcDbBlockBegin
  2
AIGNBL02010053
 70
     0
 10
0.0
 20
0.0
 30
0.0
  3
AIGNBL02010053
  1

  0
LINE
  5
259
330
257
100
AcDbEntity
  8
LAYER_2
  6
AIGENLINE001
100
AcDbLine
 10
69.7399
 20
118.3249
 30
0.0
 11
76.7397
 21
118.3249
 31
0.0
  0
ENDBLK
  5
25A
330
257
100
AcDbEntity
  8
0
100
AcDbBlockEnd
  0
BLOCK
  5
25C
330
25B
100
AcDbEntity
  8
LAYER_2
100
AcDbBlockBegin
  2
AIGNBL02010054
 70
     0
 10
0.0
 20
0.0
 30
0.0
  3
AIGNBL02010054
  1

  0
LINE
  5
25D
330
25B
100
AcDbEntity
  8
LAYER_2
  6
AIGENLINE001
100
AcDbLine
 10
70.9395
 20
117.3244
 30
0.0
 11
75.5401
 21
117.3244
 31
0.0
  0
ENDBLK
  5
25E
330
25B
100
AcDbEntity
  8
0
100
AcDbBlockEnd
  0
BLOCK
  5
260
330
25F
100
AcDbEntity
  8
LAYER_2
100
AcDbBlockBegin
  2
AIGNBL02010055
 70
     0
 10
0.0
 20
0.0
 30
0.0
  3
AIGNBL02010055
  1

  0
LINE
  5
261
330
25F
100
AcDbEntity
  8
LAYER_2
  6
AIGENLINE001
100
AcDbLine
 10
70.4896
 20
116.8246
 30
0.0
 11
75.99
 21
116.8246
 31
0.0
  0
ENDBLK
  5
262
330
25F
100
AcDbEntity
  8
0
100
AcDbBlockEnd
  0
BLOCK
  5
264
330
263
100
AcDbEntity
  8
LAYER_2
100
AcDbBlockBegin
  2
AIGNBL02010056
 70
     0
 10
0.0
 20
0.0
 30
0.0
  3
AIGNBL02010056
  1

  0
LINE
  5
265
330
263
100
AcDbEntity
  8
LAYER_2
  6
AIGENLINE001
100
AcDbLine
 10
70.4896
 20
114.8243
 30
0.0
 11
75.99
 21
114.8243
 31
0.0
  0
ENDBLK
  5
266
330
263
100
AcDbEntity
  8
0
100
AcDbBlockEnd
  0
BLOCK
  5
268
330
267
100
AcDbEntity
  8
LAYER_2
100
AcDbBlockBegin
  2
AIGNBL02010057
 70
     0
 10
0.0
 20
0.0
 30
0.0
  3
AIGNBL02010057
  1

  0
LINE
  5
269
330
267
100
AcDbEntity
  8
LAYER_2
100
AcDbLine
 10
36.5898
 20
116.3243
 30
0.0
 11
90.2896
 21
116.3243
 31
0.0
  0
ENDBLK
  5
26A
330
267
100
AcDbEntity
  8
0
100
AcDbBlockEnd
  0
BLOCK
  5
26C
330
26B
100
AcDbEntity
  8
LAYER_2
100
AcDbBlockBegin
  2
AIGNBL02010058
 70
     0
 10
0.0
 20
0.0
 30
0.0
  3
AIGNBL02010058
  1

  0
LINE
  5
26D
330
26B
100
AcDbEntity
  8
LAYER_2
100
AcDbLine
 10
70.1899
 20
114.3248
 30
0.0
 11
76.2897
 21
114.3248
 31
0.0
  0
ENDBLK
  5
26E
330
26B
100
AcDbEntity
  8
0
100
AcDbBlockEnd
  0
BLOCK
  5
270
330
26F
100
AcDbEntity
  8
LAYER_2
100
AcDbBlockBegin
  2
AIGNBL02010059
 70
     0
 10
0.0
 20
0.0
 30
0.0
  3
AIGNBL02010059
  1

  0
LINE
  5
271
330
26F
100
AcDbEntity
  8
LAYER_2
100
AcDbLine
 10
59.1018
 20
116.0136
 30
0.0
 11
69.8894
 21
115.1248
 31
0.0
  0
ENDBLK
  5
272
330
26F
100
AcDbEntity
  8
0
100
AcDbBlockEnd
  0
BLOCK
  5
274
330
273
100
AcDbEntity
  8
LAYER_2
100
AcDbBlockBegin
  2
AIGNBL0201005A
 70
     0
 10
0.0
 20
0.0
 30
0.0
  3
AIGNBL0201005A
  1

  0
LINE
  5
275
330
273
100
AcDbEntity
  8
LAYER_2
  6
AIGENLINE001
100
AcDbLine
 10
58.7894
 20
125.0246
 30
0.0
 11
58.7894
 21
119.8246
 31
0.0
  0
ENDBLK
  5
276
330
273
100
AcDbEntity
  8
0
100
AcDbBlockEnd
  0
BLOCK
  5
278
330
277
100
AcDbEntity
  8
LAYER_2
100
AcDbBlockBegin
  2
AIGNBL0201005B
 70
     0
 10
0.0
 20
0.0
 30
0.0
  3
AIGNBL0201005B
  1

  0
LINE
  5
279
330
277
100
AcDbEntity
  8
LAYER_2
  6
AIGENLINE001
100
AcDbLine
 10
57.8147
 20
124.3245
 30
0.0
 11
57.8147
 21
123.7244
 31
0.0
  0
ENDBLK
  5
27A
330
277
100
AcDbEntity
  8
0
100
AcDbBlockEnd
  0
BLOCK
  5
27C
330
27B
100
AcDbEntity
  8
LAYER_2
100
AcDbBlockBegin
  2
AIGNBL0201005C
 70
     0
 10
0.0
 20
0.0
 30
0.0
  3
AIGNBL0201005C
  1

  0
LINE
  5
27D
330
27B
100
AcDbEntity
  8
LAYER_2
  6
AIGENLINE001
100
AcDbLine
 10
57.8147
 20
122.8246
 30
0.0
 11
57.8147
 21
119.9996
 31
0.0
  0
ARC
  5
27E
330
27B
100
AcDbEntity
  8
LAYER_2
  6
AIGENLINE001
100
AcDbCircle
 10
60.2665
 20
120.1338
 30
0.0
 40
2.4555
100
AcDbArc
 50
183.1335734
 51
202.6630465
  0
ARC
  5
27F
330
27B
100
AcDbEntity
  8
LAYER_2
  6
AIGENLINE001
100
AcDbCircle
 10
59.4798
 20
119.7938
 30
0.0
 40
1.5986
100
AcDbArc
 50
202.2811168
 51
226.7601777
  0
ARC
  5
280
330
27B
100
AcDbEntity
  8
LAYER_2
  6
AIGENLINE001
100
AcDbCircle
 10
59.2841
 20
119.6323
 30
0.0
 40
1.3472
100
AcDbArc
 50
228.1169341
 51
268.9265709000001
  0
LINE
  5
281
330
27B
100
AcDbEntity
  8
LAYER_2
  6
AIGENLINE001
100
AcDbLine
 10
59.2589
 20
118.2853
 30
0.0
 11
70.9395
 21
117.3244
 31
0.0
  0
ENDBLK
  5
282
330
27B
100
AcDbEntity
  8
0
100
AcDbBlockEnd
  0
BLOCK
  5
284
330
283
100
AcDbEntity
  8
LAYER_2
100
AcDbBlockBegin
  2
AIGNBL0201005D
 70
     0
 10
0.0
 20
0.0
 30
0.0
  3
AIGNBL0201005D
  1

  0
LINE
  5
285
330
283
100
AcDbEntity
  8
LAYER_2
  6
AIGENLINE001
100
AcDbLine
 10
41.1821
 20
125.0721
 30
0.0
 11
40.7129
 21
120.2166
 31
0.0
  0
ENDBLK
  5
286
330
283
100
AcDbEntity
  8
0
100
AcDbBlockEnd
  0
BLOCK
  5
288
330
287
100
AcDbEntity
  8
LAYER_2
100
AcDbBlockBegin
  2
AIGNBL0201005E
 70
     0
 10
0.0
 20
0.0
 30
0.0
  3
AIGNBL0201005E
  1

  0
LINE
  5
289
330
287
100
AcDbEntity
  8
LAYER_2
  6
AIGENLINE001
100
AcDbLine
 10
42.4458
 20
124.3245
 30
0.0
 11
42.0345
 21
120.0464
 31
0.0
  0
ENDBLK
  5
28A
330
287
100
AcDbEntity
  8
0
100
AcDbBlockEnd
  0
BLOCK
  5
28C
330
28B
100
AcDbEntity
  8
LAYER_2
100
AcDbBlockBegin
  2
AIGNBL0201005F
 70
     0
 10
0.0
 20
0.0
 30
0.0
  3
AIGNBL0201005F
  1

  0
LINE
  5
28D
330
28B
100
AcDbEntity
  8
LAYER_2
  6
AIGENLINE001
100
AcDbLine
 10
37.0973
 20
122.2713
 30
0.0
 11
36.9395
 21
128.4745
 31
0.0
  0
ENDBLK
  5
28E
330
28B
100
AcDbEntity
  8
0
100
AcDbBlockEnd
  0
BLOCK
  5
290
330
28F
100
AcDbEntity
  8
LAYER_2
100
AcDbBlockBegin
  2
AIGNBL02010060
 70
     0
 10
0.0
 20
0.0
 30
0.0
  3
AIGNBL02010060
  1

  0
ARC
  5
291
330
28F
100
AcDbEntity
  8
LAYER_2
  6
AIGENLINE001
100
AcDbCircle
 10
36.5895
 20
128.4745
 30
0.0
 40
0.35
100
AcDbArc
 50
359.9989771
 51
90.00102286000002
  0
ENDBLK
  5
292
330
28F
100
AcDbEntity
  8
0
100
AcDbBlockEnd
  0
BLOCK
  5
294
330
293
100
AcDbEntity
  8
LAYER_2
100
AcDbBlockBegin
  2
AIGNBL02010061
 70
     0
 10
0.0
 20
0.0
 30
0.0
  3
AIGNBL02010061
  1

  0
ARC
  5
295
330
293
100
AcDbEntity
  8
LAYER_2
  6
AIGENLINE001
100
AcDbCircle
 10
37.1317
 20
116.0174
 30
0.0
 40
0.5074
100
AcDbArc
 50
90.22561522
 51
127.8621179
  0
ARC
  5
296
330
293
100
AcDbEntity
  8
LAYER_2
  6
AIGENLINE001
100
AcDbCircle
 10
37.1258
 20
116.0175
 30
0.0
 40
0.5073
100
AcDbArc
 50
37.31160173999999
 51
89.55829589000001
  0
ENDBLK
  5
297
330
293
100
AcDbEntity
  8
0
100
AcDbBlockEnd
  0
BLOCK
  5
299
330
298
100
AcDbEntity
  8
LAYER_2
100
AcDbBlockBegin
  2
AIGNBL02010062
 70
     0
 10
0.0
 20
0.0
 30
0.0
  3
AIGNBL02010062
  1

  0
ARC
  5
29A
330
298
100
AcDbEntity
  8
LAYER_2
  6
AIGENLINE001
100
AcDbCircle
 10
36.5883
 20
116.6765
 30
0.0
 40
0.3522
100
AcDbArc
 50
270.2399996
 51
311.9629478
  0
ENDBLK
  5
29B
330
298
100
AcDbEntity
  8
0
100
AcDbBlockEnd
  0
BLOCK
  5
29D
330
29C
100
AcDbEntity
  8
LAYER_2
100
AcDbBlockBegin
  2
AIGNBL02010063
 70
     0
 10
0.0
 20
0.0
 30
0.0
  3
AIGNBL02010063
  1

  0
LINE
  5
29E
330
29C
100
AcDbEntity
  8
LAYER_2
  6
AIGENLINE001
100
AcDbLine
 10
70.9395
 20
117.3244
 30
0.0
 11
69.7399
 21
118.3249
 31
0.0
  0
ENDBLK
  5
29F
330
29C
100
AcDbEntity
  8
0
100
AcDbBlockEnd
  0
BLOCK
  5
2A1
330
2A0
100
AcDbEntity
  8
LAYER_2
100
AcDbBlockBegin
  2
AIGNBL02010064
 70
     0
 10
0.0
 20
0.0
 30
0.0
  3
AIGNBL02010064
  1

  0
LINE
  5
2A2
330
2A0
100
AcDbEntity
  8
LAYER_2
  6
AIGENLINE001
100
AcDbLine
 10
76.7397
 20
118.3249
 30
0.0
 11
75.5401
 21
117.3244
 31
0.0
  0
ENDBLK
  5
2A3
330
2A0
100
AcDbEntity
  8
0
100
AcDbBlockEnd
  0
BLOCK
  5
2A5
330
2A4
100
AcDbEntity
  8
LAYER_2
100
AcDbBlockBegin
  2
AIGNBL02010065
 70
     0
 10
0.0
 20
0.0
 30
0.0
  3
AIGNBL02010065
  1

  0
LINE
  5
2A6
330
2A4
100
AcDbEntity
  8
LAYER_2
  6
AIGENLINE001
100
AcDbLine
 10
70.9395
 20
116.8246
 30
0.0
 11
70.9395
 21
117.3244
 31
0.0
  0
ENDBLK
  5
2A7
330
2A4
100
AcDbEntity
  8
0
100
AcDbBlockEnd
  0
BLOCK
  5
2A9
330
2A8
100
AcDbEntity
  8
LAYER_2
100
AcDbBlockBegin
  2
AIGNBL02010066
 70
     0
 10
0.0
 20
0.0
 30
0.0
  3
AIGNBL02010066
  1

  0
LINE
  5
2AA
330
2A8
100
AcDbEntity
  8
LAYER_2
  6
AIGENLINE001
100
AcDbLine
 10
70.4896
 20
114.8243
 30
0.0
 11
70.4896
 21
116.8246
 31
0.0
  0
ENDBLK
  5
2AB
330
2A8
100
AcDbEntity
  8
0
100
AcDbBlockEnd
  0
BLOCK
  5
2AD
330
2AC
100
AcDbEntity
  8
LAYER_2
100
AcDbBlockBegin
  2
AIGNBL02010067
 70
     0
 10
0.0
 20
0.0
 30
0.0
  3
AIGNBL02010067
  1

  0
LINE
  5
2AE
330
2AC
100
AcDbEntity
  8
LAYER_2
  6
AIGENLINE001
100
AcDbLine
 10
75.99
 20
114.8243
 30
0.0
 11
75.99
 21
116.8246
 31
0.0
  0
ENDBLK
  5
2AF
330
2AC
100
AcDbEntity
  8
0
100
AcDbBlockEnd
  0
BLOCK
  5
2B1
330
2B0
100
AcDbEntity
  8
LAYER_2
100
AcDbBlockBegin
  2
AIGNBL02010068
 70
     0
 10
0.0
 20
0.0
 30
0.0
  3
AIGNBL02010068
  1

  0
LINE
  5
2B2
330
2B0
100
AcDbEntity
  8
LAYER_2
  6
AIGENLINE001
100
AcDbLine
 10
75.5401
 20
116.8246
 30
0.0
 11
75.5401
 21
117.3244
 31
0.0
  0
ENDBLK
  5
2B3
330
2B0
100
AcDbEntity
  8
0
100
AcDbBlockEnd
  0
BLOCK
  5
2B5
330
2B4
100
AcDbEntity
  8
LAYER_2
100
AcDbBlockBegin
  2
AIGNBL02010069
 70
     0
 10
0.0
 20
0.0
 30
0.0
  3
AIGNBL02010069
  1

  0
LINE
  5
2B6
330
2B4
100
AcDbEntity
  8
LAYER_2
  6
AIGENLINE001
100
AcDbLine
 10
70.9395
 20
114.3248
 30
0.0
 11
70.9395
 21
114.8243
 31
0.0
  0
ENDBLK
  5
2B7
330
2B4
100
AcDbEntity
  8
0
100
AcDbBlockEnd
  0
BLOCK
  5
2B9
330
2B8
100
AcDbEntity
  8
LAYER_2
100
AcDbBlockBegin
  2
AIGNBL0201006A
 70
     0
 10
0.0
 20
0.0
 30
0.0
  3
AIGNBL0201006A
  1

  0
LINE
  5
2BA
330
2B8
100
AcDbEntity
  8
LAYER_2
  6
AIGENLINE001
100
AcDbLine
 10
75.5401
 20
114.3248
 30
0.0
 11
75.5401
 21
114.8243
 31
0.0
  0
ENDBLK
  5
2BB
330
2B8
100
AcDbEntity
  8
0
100
AcDbBlockEnd
  0
BLOCK
  5
2BD
330
2BC
100
AcDbEntity
  8
LAYER_2
100
AcDbBlockBegin
  2
AIGNBL0201006B
 70
     0
 10
0.0
 20
0.0
 30
0.0
  3
AIGNBL0201006B
  1

  0
LINE
  5
2BE
330
2BC
100
AcDbEntity
  8
LAYER_2
  6
AIGENLINE001
100
AcDbLine
 10
89.8272
 20
124.3328
 30
0.0
 11
89.9402
 21
128.4745
 31
0.0
  0
ENDBLK
  5
2BF
330
2BC
100
AcDbEntity
  8
0
100
AcDbBlockEnd
  0
BLOCK
  5
2C1
330
2C0
100
AcDbEntity
  8
LAYER_2
100
AcDbBlockBegin
  2
AIGNBL0201006C
 70
     0
 10
0.0
 20
0.0
 30
0.0
  3
AIGNBL0201006C
  1

  0
ARC
  5
2C2
330
2C0
100
AcDbEntity
  8
LAYER_2
  6
AIGENLINE001
100
AcDbCircle
 10
90.3029
 20
128.4618
 30
0.0
 40
0.363
100
AcDbArc
 50
92.10564465
 51
177.9926609
  0
ENDBLK
  5
2C3
330
2C0
100
AcDbEntity
  8
0
100
AcDbBlockEnd
  0
BLOCK
  5
2C5
330
2C4
100
AcDbEntity
  8
LAYER_2
100
AcDbBlockBegin
  2
AIGNBL0201006D
 70
     0
 10
0.0
 20
0.0
 30
0.0
  3
AIGNBL0201006D
  1

  0
ARC
  5
2C6
330
2C4
100
AcDbEntity
  8
LAYER_2
  6
AIGENLINE001
100
AcDbCircle
 10
89.7478
 20
116.0186
 30
0.0
 40
0.5062
100
AcDbArc
 50
52.09306715
 51
89.7390742
  0
ARC
  5
2C7
330
2C4
100
AcDbEntity
  8
LAYER_2
  6
AIGENLINE001
100
AcDbCircle
 10
89.7537
 20
116.0182
 30
0.0
 40
0.5066
100
AcDbArc
 50
90.40220976999998
 51
142.7278926
  0
ENDBLK
  5
2C8
330
2C4
100
AcDbEntity
  8
0
100
AcDbBlockEnd
  0
BLOCK
  5
2CA
330
2C9
100
AcDbEntity
  8
LAYER_2
100
AcDbBlockBegin
  2
AIGNBL0201006E
 70
     0
 10
0.0
 20
0.0
 30
0.0
  3
AIGNBL0201006E
  1

  0
ARC
  5
2CB
330
2C9
100
AcDbEntity
  8
LAYER_2
  6
AIGENLINE001
100
AcDbCircle
 10
90.2909
 20
116.6767
 30
0.0
 40
0.3524
100
AcDbArc
 50
228.0544221
 51
269.7919204
  0
ENDBLK
  5
2CC
330
2C9
100
AcDbEntity
  8
0
100
AcDbBlockEnd
  0
BLOCK
  5
2CE
330
2CD
100
AcDbEntity
  8
LAYER_2
100
AcDbBlockBegin
  2
AIGNBL0201006F
 70
     0
 10
0.0
 20
0.0
 30
0.0
  3
AIGNBL0201006F
  1

  0
LINE
  5
2CF
330
2CD
100
AcDbEntity
  8
LAYER_2
  6
AIGENLINE001
100
AcDbLine
 10
76.5902
 20
116.3243
 30
0.0
 11
76.5902
 21
117.3482
 31
0.0
  0
ENDBLK
  5
2D0
330
2CD
100
AcDbEntity
  8
0
100
AcDbBlockEnd
  0
BLOCK
  5
2D2
330
2D1
100
AcDbEntity
  8
LAYER_2
100
AcDbBlockBegin
  2
AIGNBL02010070
 70
     0
 10
0.0
 20
0.0
 30
0.0
  3
AIGNBL02010070
  1

  0
ARC
  5
2D3
330
2D1
100
AcDbEntity
  8
LAYER_2
  6
AIGENLINE001
100
AcDbCircle
 10
77.0903
 20
117.3482
 30
0.0
 40
0.5001
100
AcDbArc
 50
92.82659025000001
 51
180.0055918
  0
ENDBLK
  5
2D4
330
2D1
100
AcDbEntity
  8
0
100
AcDbBlockEnd
  0
BLOCK
  5
2D6
330
2D5
100
AcDbEntity
  8
LAYER_2
100
AcDbBlockBegin
  2
AIGNBL02010071
 70
     0
 10
0.0
 20
0.0
 30
0.0
  3
AIGNBL02010071
  1

  0
LINE
  5
2D7
330
2D5
100
AcDbEntity
  8
LAYER_2
  6
AIGENLINE001
100
AcDbLine
 10
77.0656
 20
117.8477
 30
0.0
 11
85.8199
 21
118.2853
 31
0.0
  0
LINE
  5
2D8
330
2D5
100
AcDbEntity
  8
LAYER_2
  6
AIGENLINE001
100
AcDbLine
 10
85.8199
 20
118.2853
 30
0.0
 11
85.8682
 21
118.2867
 31
0.0
  0
ARC
  5
2D9
330
2D5
100
AcDbEntity
  8
LAYER_2
  6
AIGENLINE001
100
AcDbCircle
 10
85.8453
 20
117.2567
 30
0.0
 40
1.0303
100
AcDbArc
 50
15.3102962
 51
88.72431453
  0
LINE
  5
2DA
330
2D5
100
AcDbEntity
  8
LAYER_2
  6
AIGENLINE001
100
AcDbLine
 10
86.839
 20
117.5287
 30
0.0
 11
87.045
 21
116.704
 31
0.0
  0
ARC
  5
2DB
330
2D5
100
AcDbEntity
  8
LAYER_2
  6
AIGENLINE001
100
AcDbCircle
 10
87.5421
 20
116.8393
 30
0.0
 40
0.5152
100
AcDbArc
 50
195.2291954
 51
268.6684398
  0
ENDBLK
  5
2DC
330
2D5
100
AcDbEntity
  8
0
100
AcDbBlockEnd
  0
BLOCK
  5
2DE
330
2DD
100
AcDbEntity
  8
LAYER_2
100
AcDbBlockBegin
  2
AIGNBL02010072
 70
     0
 10
0.0
 20
0.0
 30
0.0
  3
AIGNBL02010072
  1

  0
ARC
  5
2DF
330
2DD
100
AcDbEntity
  8
LAYER_2
  6
AIGENLINE001
100
AcDbCircle
 10
84.6637
 20
124.6291
 30
0.0
 40
5.172000000000001
100
AcDbArc
 50
276.0111268
 51
356.7160372
  0
ENDBLK
  5
2E0
330
2DD
100
AcDbEntity
  8
0
100
AcDbBlockEnd
  0
BLOCK
  5
2E2
330
2E1
100
AcDbEntity
  8
LAYER_2
100
AcDbBlockBegin
  2
AIGNBL02010073
 70
     0
 10
0.0
 20
0.0
 30
0.0
  3
AIGNBL02010073
  1

  0
ARC
  5
2E3
330
2E1
100
AcDbEntity
  8
LAYER_2
  6
AIGENLINE001
100
AcDbCircle
 10
41.7257
 20
122.3501
 30
0.0
 40
4.629
100
AcDbArc
 50
180.9748952
 51
195.79766
  0
ARC
  5
2E4
330
2E1
100
AcDbEntity
  8
LAYER_2
  6
AIGENLINE001
100
AcDbCircle
 10
39.98
 20
121.8538
 30
0.0
 40
2.8142
100
AcDbArc
 50
195.7505194
 51
215.0988237
  0
ARC
  5
2E5
330
2E1
100
AcDbEntity
  8
LAYER_2
  6
AIGENLINE001
100
AcDbCircle
 10
39.3854
 20
121.4764
 30
0.0
 40
2.1111
100
AcDbArc
 50
215.999092
 51
267.6829639
  0
ENDBLK
  5
2E6
330
2E1
100
AcDbEntity
  8
0
100
AcDbBlockEnd
  0
BLOCK
  5
2E8
330
2E7
100
AcDbEntity
  8
LAYER_2
100
AcDbBlockBegin
  2
AIGNBL02010074
 70
     0
 10
0.0
 20
0.0
 30
0.0
  3
AIGNBL02010074
  1

  0
ARC
  5
2E9
330
2E7
100
AcDbEntity
  8
LAYER_2
  6
AIGENLINE001
100
AcDbCircle
 10
39.6951
 20
120.3919
 30
0.0
 40
1.0328
100
AcDbArc
 50
271.5602937
 51
350.2261422
  0
ENDBLK
  5
2EA
330
2E7
100
AcDbEntity
  8
0
100
AcDbBlockEnd
  0
BLOCK
  5
2EC
330
2EB
100
AcDbEntity
  8
LAYER_2
100
AcDbBlockBegin
  2
AIGNBL02010075
 70
     0
 10
0.0
 20
0.0
 30
0.0
  3
AIGNBL02010075
  1

  0
ARC
  5
2ED
330
2EB
100
AcDbEntity
  8
LAYER_2
  6
AIGENLINE001
100
AcDbCircle
 10
39.99
 20
120.3516
 30
0.0
 40
2.0672
100
AcDbArc
 50
271.6188401
 51
351.5087801
  0
LINE
  5
2EE
330
2EB
100
AcDbEntity
  8
LAYER_2
  6
AIGENLINE001
100
AcDbLine
 10
40.0484
 20
118.2853
 30
0.0
 11
39.8485
 21
118.2853
 31
0.0
  0
LINE
  5
2EF
330
2EB
100
AcDbEntity
  8
LAYER_2
  6
AIGENLINE001
100
AcDbLine
 10
39.8485
 20
118.2853
 30
0.0
 11
39.8003
 21
118.2867
 31
0.0
  0
ARC
  5
2F0
330
2EB
100
AcDbEntity
  8
LAYER_2
  6
AIGENLINE001
100
AcDbCircle
 10
39.8232
 20
117.2567
 30
0.0
 40
1.0303
100
AcDbArc
 50
91.27568545
 51
164.6897038
  0
LINE
  5
2F1
330
2EB
100
AcDbEntity
  8
LAYER_2
  6
AIGENLINE001
100
AcDbLine
 10
38.8295
 20
117.5287
 30
0.0
 11
38.6235
 21
116.704
 31
0.0
  0
ARC
  5
2F2
330
2EB
100
AcDbEntity
  8
LAYER_2
  6
AIGENLINE001
100
AcDbCircle
 10
38.1263
 20
116.8395
 30
0.0
 40
0.5153
100
AcDbArc
 50
271.3443901000001
 51
344.7579747
  0
ENDBLK
  5
2F3
330
2EB
100
AcDbEntity
  8
0
100
AcDbBlockEnd
  0
BLOCK
  5
2F5
330
2F4
100
AcDbEntity
  8
LAYER_2
100
AcDbBlockBegin
  2
AIGNBL02010076
 70
     0
 10
0.0
 20
0.0
 30
0.0
  3
AIGNBL02010076
  1

  0
ARC
  5
2F6
330
2F4
100
AcDbEntity
  8
LAYER_2
  6
AIGENLINE001
100
AcDbCircle
 10
59.5435
 20
120.0662
 30
0.0
 40
4.104
100
AcDbArc
 50
180.9301236
 51
245.7747618000001
  0
ENDBLK
  5
2F7
330
2F4
100
AcDbEntity
  8
0
100
AcDbBlockEnd
  0
BLOCK
  5
2F9
330
2F8
100
AcDbEntity
  8
LAYER_2
100
AcDbBlockBegin
  2
AIGNBL02010077
 70
     0
 10
0.0
 20
0.0
 30
0.0
  3
AIGNBL02010077
  1

  0
ARC
  5
2FA
330
2F8
100
AcDbEntity
  8
LAYER_2
  6
AIGENLINE001
100
AcDbCircle
 10
59.7893
 20
119.8247
 30
0.0
 40
0.9999
100
AcDbArc
 50
180.0061337
 51
270.0053266
  0
ENDBLK
  5
2FB
330
2F8
100
AcDbEntity
  8
0
100
AcDbBlockEnd
  0
BLOCK
  5
2FD
330
2FC
100
AcDbEntity
  8
LAYER_2
100
AcDbBlockBegin
  2
AIGNBL02010078
 70
     0
 10
0.0
 20
0.0
 30
0.0
  3
AIGNBL02010078
  1

  0
ARC
  5
2FE
330
2FC
100
AcDbEntity
  8
LAYER_2
  6
AIGENLINE001
100
AcDbCircle
 10
41.697
 20
125.006
 30
0.0
 40
0.5191
100
AcDbArc
 50
91.871418
 51
172.6839783
  0
ENDBLK
  5
2FF
330
2FC
100
AcDbEntity
  8
0
100
AcDbBlockEnd
  0
BLOCK
  5
301
330
300
100
AcDbEntity
  8
LAYER_2
100
AcDbBlockBegin
  2
AIGNBL02010079
 70
     0
 10
0.0
 20
0.0
 30
0.0
  3
AIGNBL02010079
  1

  0
ARC
  5
302
330
300
100
AcDbEntity
  8
LAYER_2
  6
AIGENLINE001
100
AcDbCircle
 10
58.2893
 20
125.0247
 30
0.0
 40
0.5001
100
AcDbArc
 50
359.9854126
 51
89.98021339
  0
ENDBLK
  5
303
330
300
100
AcDbEntity
  8
0
100
AcDbBlockEnd
  0
BLOCK
  5
305
330
304
100
AcDbEntity
  8
LAYER_2
100
AcDbBlockBegin
  2
AIGNBL0201007A
 70
     0
 10
0.0
 20
0.0
 30
0.0
  3
AIGNBL0201007A
  1

  0
ARC
  5
306
330
304
100
AcDbEntity
  8
LAYER_2
100
AcDbCircle
 10
73.2736
 20
202.3338
 30
0.0
 40
21.1936
100
AcDbArc
 50
359.939662
 51
19.9808948
  0
ARC
  5
307
330
304
100
AcDbEntity
  8
LAYER_2
100
AcDbCircle
 10
73.1102
 20
202.3065
 30
0.0
 40
21.3569
100
AcDbArc
 50
346.232768
 51
0.01344878524
  0
ARC
  5
308
330
304
100
AcDbEntity
  8
LAYER_2
100
AcDbCircle
 10
73.3996
 20
202.2553
 30
0.0
 40
21.0636
100
AcDbArc
 50
339.9956071
 51
346.1806252
  0
ENDBLK
  5
309
330
304
100
AcDbEntity
  8
0
100
AcDbBlockEnd
  0
BLOCK
  5
30B
330
30A
100
AcDbEntity
  8
LAYER_2
100
AcDbBlockBegin
  2
AIGNBL0201007B
 70
     0
 10
0.0
 20
0.0
 30
0.0
  3
AIGNBL0201007B
  1

  0
LINE
  5
30C
330
30A
100
AcDbEntity
  8
LAYER_2
100
AcDbLine
 10
103.758
 20
116.3243
 30
0.0
 11
97.5816
 21
116.3243
 31
0.0
  0
LINE
  5
30D
330
30A
100
AcDbEntity
  8
LAYER_2
100
AcDbLine
 10
103.758
 20
113.3244
 30
0.0
 11
97.5816
 21
113.3244
 31
0.0
  0
LINE
  5
30E
330
30A
100
AcDbEntity
  8
LAYER_2
100
AcDbLine
 10
103.0511
 20
102.9512
 30
0.0
 11
103.0511
 21
120.5887
 31
0.0
  0
LINE
  5
30F
330
30A
100
AcDbEntity
  8
LAYER_2
100
AcDbLine
 10
103.6361
 20
111.114
 30
0.0
 11
103.0438
 21
113.3244
 31
0.0
  0
LINE
  5
310
330
30A
100
AcDbEntity
  8
LAYER_2
100
AcDbLine
 10
103.0438
 20
113.3244
 30
0.0
 11
102.4516
 21
111.114
 31
0.0
  0
LINE
  5
311
330
30A
100
AcDbEntity
  8
LAYER_2
100
AcDbLine
 10
102.4516
 20
111.114
 30
0.0
 11
103.6361
 21
111.114
 31
0.0
  0
LINE
  5
312
330
30A
100
AcDbEntity
  8
LAYER_2
100
AcDbLine
 10
102.4661
 20
118.5354
 30
0.0
 11
103.058
 21
116.3243
 31
0.0
  0
LINE
  5
313
330
30A
100
AcDbEntity
  8
LAYER_2
100
AcDbLine
 10
103.058
 20
116.3243
 30
0.0
 11
103.6505
 21
118.5354
 31
0.0
  0
LINE
  5
314
330
30A
100
AcDbEntity
  8
LAYER_2
100
AcDbLine
 10
103.6505
 20
118.5354
 30
0.0
 11
102.4661
 21
118.5354
 31
0.0
  0
ENDBLK
  5
315
330
30A
100
AcDbEntity
  8
0
100
AcDbBlockEnd
  0
BLOCK
  5
317
330
316
100
AcDbEntity
  8
LAYER_2
100
AcDbBlockBegin
  2
AIGNBL0201007C
 70
     0
 10
0.0
 20
0.0
 30
0.0
  3
AIGNBL0201007C
  1

  0
LINE
  5
318
330
316
100
AcDbEntity
  8
LAYER_2
100
AcDbLine
 10
55.1971
 20
228.5993
 30
0.0
 11
44.2061
 21
228.5993
 31
0.0
  0
ENDBLK
  5
319
330
316
100
AcDbEntity
  8
0
100
AcDbBlockEnd
  0
BLOCK
  5
31B
330
31A
100
AcDbEntity
  8
LAYER_2
100
AcDbBlockBegin
  2
AIGNBL0201007D
 70
     0
 10
0.0
 20
0.0
 30
0.0
  3
AIGNBL0201007D
  1

  0
INSERT
  5
31C
330
31A
100
AcDbEntity
  8
LAYER_2
100
AcDbBlockReference
  2
AIGNBL0202007E
 10
0.0
 20
0.0
 30
0.0
  0
LINE
  5
31D
330
31A
100
AcDbEntity
  8
LAYER_2
100
AcDbLine
 10
62.5933
 20
220.4492
 30
0.0
 11
64.5805
 21
219.3115
 31
0.0
  0
LINE
  5
31E
330
31A
100
AcDbEntity
  8
LAYER_2
100
AcDbLine
 10
64.5805
 20
219.3115
 30
0.0
 11
63.4284
 21
221.2904
 31
0.0
  0
LINE
  5
31F
330
31A
100
AcDbEntity
  8
LAYER_2
100
AcDbLine
 10
63.4284
 20
221.2904
 30
0.0
 11
62.5933
 21
220.4492
 31
0.0
  0
ENDBLK
  5
320
330
31A
100
AcDbEntity
  8
0
100
AcDbBlockEnd
  0
BLOCK
  5
322
330
321
100
AcDbEntity
  8
LAYER_2
100
AcDbBlockBegin
  2
AIGNBL0201007F
 70
     0
 10
0.0
 20
0.0
 30
0.0
  3
AIGNBL0201007F
  1

  0
LINE
  5
323
330
321
100
AcDbEntity
  8
LAYER_2
100
AcDbLine
 10
55.1971
 20
135.2716
 30
0.0
 11
44.2061
 21
135.2716
 31
0.0
  0
ENDBLK
  5
324
330
321
100
AcDbEntity
  8
0
100
AcDbBlockEnd
  0
BLOCK
  5
326
330
325
100
AcDbEntity
  8
LAYER_2
100
AcDbBlockBegin
  2
AIGNBL02010080
 70
     0
 10
0.0
 20
0.0
 30
0.0
  3
AIGNBL02010080
  1

  0
INSERT
  5
327
330
325
100
AcDbEntity
  8
LAYER_2
100
AcDbBlockReference
  2
AIGNBL02020081
 10
0.0
 20
0.0
 30
0.0
  0
LINE
  5
328
330
325
100
AcDbEntity
  8
LAYER_2
100
AcDbLine
 10
62.5933
 20
127.1215
 30
0.0
 11
64.5805
 21
125.9838
 31
0.0
  0
LINE
  5
329
330
325
100
AcDbEntity
  8
LAYER_2
100
AcDbLine
 10
64.5805
 20
125.9838
 30
0.0
 11
63.4284
 21
127.9627
 31
0.0
  0
LINE
  5
32A
330
325
100
AcDbEntity
  8
LAYER_2
100
AcDbLine
 10
63.4284
 20
127.9627
 30
0.0
 11
62.5933
 21
127.1215
 31
0.0
  0
ENDBLK
  5
32B
330
325
100
AcDbEntity
  8
0
100
AcDbBlockEnd
  0
BLOCK
  5
32D
330
32C
100
AcDbEntity
  8
LAYER_3
100
AcDbBlockBegin
  2
AIGNBL03010002
 70
     0
 10
0.0
 20
0.0
 30
0.0
  3
AIGNBL03010002
  1

  0
ARC
  5
32E
330
32C
100
AcDbEntity
  8
LAYER_3
100
AcDbCircle
 10
76.2679
 20
51.3237
 30
0.0
 40
2.0849
100
AcDbArc
 50
0.0008992613682
 51
89.99910073
  0
ARC
  5
32F
330
32C
100
AcDbEntity
  8
LAYER_3
100
AcDbCircle
 10
76.268
 20
51.3238
 30
0.0
 40
2.0848
100
AcDbArc
 50
90.00289234
 51
180.0026042
  0
ARC
  5
330
330
32C
100
AcDbEntity
  8
LAYER_3
100
AcDbCircle
 10
76.2677
 20
51.3239
 30
0.0
 40
2.0845
100
AcDbArc
 50
180.0045979
 51
270.0063968000001
  0
ARC
  5
331
330
32C
100
AcDbEntity
  8
LAYER_3
100
AcDbCircle
 10
76.2682
 20
51.324
 30
0.0
 40
2.0846
100
AcDbArc
 50
269.9916106
 51
359.9918983
  0
ARC
  5
332
330
32C
100
AcDbEntity
  8
LAYER_3
100
AcDbCircle
 10
76.2681
 20
51.3235
 30
0.0
 40
1.2197
100
AcDbArc
 50
0.01093215228
 51
90.00785796
  0
ARC
  5
333
330
32C
100
AcDbEntity
  8
LAYER_3
100
AcDbCircle
 10
76.2679
 20
51.3236
 30
0.0
 40
1.2196
100
AcDbArc
 50
89.99789713
 51
179.9974047
  0
ARC
  5
334
330
32C
100
AcDbEntity
  8
LAYER_3
100
AcDbCircle
 10
76.2679
 20
51.3237
 30
0.0
 40
1.2196
100
AcDbArc
 50
179.9984626
 51
270.0015373
  0
ARC
  5
335
330
32C
100
AcDbEntity
  8
LAYER_3
100
AcDbCircle
 10
76.2681
 20
51.3238
 30
0.0
 40
1.2197
100
AcDbArc
 50
269.9927081
 51
359.9931999
  0
LINE
  5
336
330
32C
100
AcDbEntity
  8
LAYER_3
100
AcDbLine
 10
79.9789
 20
50.1041
 30
0.0
 11
79.9789
 21
52.5432
 31
0.0
  0
LINE
  5
337
330
32C
100
AcDbEntity
  8
LAYER_3
100
AcDbLine
 10
85.1569
 20
49.2394
 30
0.0
 11
85.1569
 21
53.4086
 31
0.0
  0
LINE
  5
338
330
32C
100
AcDbEntity
  8
LAYER_3
100
AcDbLine
 10
79.9789
 20
52.5432
 30
0.0
 11
85.1569
 21
53.4086
 31
0.0
  0
LINE
  5
339
330
32C
100
AcDbEntity
  8
LAYER_3
100
AcDbLine
 10
79.9789
 20
50.1041
 30
0.0
 11
85.1569
 21
49.2394
 31
0.0
  0
LINE
  5
33A
330
32C
100
AcDbEntity
  8
LAYER_3
100
AcDbLine
 10
76.2679
 20
51.3237
 30
0.0
 11
76.2679
 21
51.0722
 31
0.0
  0
LINE
  5
33B
330
32C
100
AcDbEntity
  8
LAYER_3
100
AcDbLine
 10
76.2679
 20
50.8317
 30
0.0
 11
76.2679
 21
48.6447
 31
0.0
  0
LINE
  5
33C
330
32C
100
AcDbEntity
  8
LAYER_3
100
AcDbLine
 10
76.2679
 20
51.3237
 30
0.0
 11
76.52
 21
51.3237
 31
0.0
  0
LINE
  5
33D
330
32C
100
AcDbEntity
  8
LAYER_3
100
AcDbLine
 10
76.7605
 20
51.3237
 30
0.0
 11
78.9475
 21
51.3237
 31
0.0
  0
LINE
  5
33E
330
32C
100
AcDbEntity
  8
LAYER_3
100
AcDbLine
 10
76.2679
 20
51.3237
 30
0.0
 11
76.2679
 21
51.5758
 31
0.0
  0
LINE
  5
33F
330
32C
100
AcDbEntity
  8
LAYER_3
100
AcDbLine
 10
76.2679
 20
51.8163
 30
0.0
 11
76.2679
 21
54.0033
 31
0.0
  0
LINE
  5
340
330
32C
100
AcDbEntity
  8
LAYER_3
100
AcDbLine
 10
76.2679
 20
51.3237
 30
0.0
 11
76.016
 21
51.3237
 31
0.0
  0
LINE
  5
341
330
32C
100
AcDbEntity
  8
LAYER_3
100
AcDbLine
 10
75.7756
 20
51.3237
 30
0.0
 11
73.5889
 21
51.3237
 31
0.0
  0
LINE
  5
342
330
32C
100
AcDbEntity
  8
LAYER_3
100
AcDbLine
 10
82.1721
 20
51.3237
 30
0.0
 11
82.4239
 21
51.3237
 31
0.0
  0
LINE
  5
343
330
32C
100
AcDbEntity
  8
LAYER_3
100
AcDbLine
 10
82.6647
 20
51.3237
 30
0.0
 11
85.5896
 21
51.3237
 31
0.0
  0
LINE
  5
344
330
32C
100
AcDbEntity
  8
LAYER_3
100
AcDbLine
 10
82.1721
 20
51.3237
 30
0.0
 11
81.9199
 21
51.3237
 31
0.0
  0
LINE
  5
345
330
32C
100
AcDbEntity
  8
LAYER_3
100
AcDbLine
 10
81.6794
 20
51.3237
 30
0.0
 11
79.4932
 21
51.3237
 31
0.0
  0
ENDBLK
  5
346
330
32C
100
AcDbEntity
  8
0
100
AcDbBlockEnd
  0
ENDSEC
  0
SECTION
  2
ENTITIES
  0
TEXT
  5
347
330
6F
100
AcDbEntity
  8
LAYER_1
100
AcDbText
 10
144.213005
 20
169.4673
 30
0.0
 40
3.0923
  1
カウンター切込寸法
 41
0.5
 72
     1
 11
152.4076
 21
169.4673
 31
0.0
100
AcDbText
  0
TEXT
  5
348
330
6F
100
AcDbEntity
  8
LAYER_1
100
AcDbText
 10
123.9607
 20
161.9043
 30
0.0
 40
3.0923
  1
※（　）内寸法は参考寸法です。
 41
0.5
100
AcDbText
  0
TEXT
  5
349
330
6F
100
AcDbEntity
  8
LAYER_1
100
AcDbText
 10
123.9607
 20
157.2477
 30
0.0
 40
3.0923
  1
　陶器に寸法公差がありますので、
 41
0.5
100
AcDbText
  0
TEXT
  5
34A
330
6F
100
AcDbEntity
  8
LAYER_1
100
AcDbText
 10
123.9607
 20
152.591
 30
0.0
 40
3.0923
  1
　取付時に現品に合わせて調整ください。
 41
0.5
100
AcDbText
  0
TEXT
  5
34B
330
6F
100
AcDbEntity
  8
LAYER_1
100
AcDbText
 10
59.92866666666667
 20
176.2507
 30
0.0
 40
3.0923
  1
225
 41
0.5
 72
     1
 11
61.9902
 21
176.2507
 31
0.0
100
AcDbText
  0
TEXT
  5
34C
330
6F
100
AcDbEntity
  8
LAYER_1
100
AcDbText
 10
80.06510416666667
 20
176.2507
 30
0.0
 40
3.0923
  1
170
 41
0.5
 72
     1
 11
81.7401
 21
176.2507
 31
0.0
100
AcDbText
  0
TEXT
  5
34D
330
6F
100
AcDbEntity
  8
LAYER_1
100
AcDbText
 10
94.5381
 20
197.9983
 30
0.0
 40
3.0923
  1
※40%%d
 41
0.5
100
AcDbText
  0
TEXT
  5
34E
330
6F
100
AcDbEntity
  8
LAYER_1
100
AcDbText
 10
61.37836666666666
 20
169.7209
 30
0.0
 40
3.0923
  1
536
 41
0.5
 72
     1
 11
63.4399
 21
169.7209
 31
0.0
100
AcDbText
  0
TEXT
  5
34F
330
6F
100
AcDbEntity
  8
LAYER_1
100
AcDbText
 10
61.5067125
 20
162.8226
 30
0.0
 40
3.0923
  1
550
 41
0.5
 72
     1
 11
63.4394
 21
162.8226
 31
0.0
100
AcDbText
  0
TEXT
  5
350
330
6F
100
AcDbEntity
  8
LAYER_1
100
AcDbText
 10
99.23199999970767
 20
209.6365041666667
 30
0.0
 40
3.0923
  1
180
 50
89.99999999
 41
0.5
 72
     1
 11
99.23200000000001
 21
211.3115
 31
0.0
100
AcDbText
  0
TEXT
  5
351
330
6F
100
AcDbEntity
  8
LAYER_1
100
AcDbText
 10
105.2722999996402
 20
200.2499666666667
 30
0.0
 40
3.0923
  1
346
 50
89.99999999
 41
0.5
 72
     1
 11
105.2723
 21
202.3115
 31
0.0
100
AcDbText
  0
TEXT
  5
352
330
6F
100
AcDbEntity
  8
LAYER_1
100
AcDbText
 10
111.0198999996627
 20
200.3788125
 30
0.0
 40
3.0923
  1
360
 50
89.99999999
 41
0.5
 72
     1
 11
111.0199
 21
202.3115
 31
0.0
100
AcDbText
  0
TEXT
  5
353
330
6F
100
AcDbEntity
  8
LAYER_1
100
AcDbText
 10
172.6295999996852
 20
120.7705583333333
 30
0.0
 40
3.0923
  1
125
 50
89.99999999
 41
0.5
 72
     1
 11
172.6296
 21
122.5744
 31
0.0
100
AcDbText
  0
TEXT
  5
354
330
6F
100
AcDbEntity
  8
LAYER_1
100
AcDbText
 10
71.05719999970765
 20
121.8999041666667
 30
0.0
 40
3.0923
  1
105
 50
89.99999999
 41
0.5
 72
     1
 11
71.0572
 21
123.5749
 31
0.0
100
AcDbText
  0
TEXT
  5
355
330
6F
100
AcDbEntity
  8
LAYER_1
100
AcDbText
 10
172.6296
 20
108.8781
 30
0.0
 40
3.0923
  1
20
 50
89.99999999
 41
0.5
100
AcDbText
  0
TEXT
  5
356
330
6F
100
AcDbEntity
  8
LAYER_1
100
AcDbText
 10
78.22603333333333
 20
207.8898
 30
0.0
 40
3.0923
  1
%%c46
 41
0.5
 72
     2
 11
82.3491
 21
207.8898
 31
0.0
100
AcDbText
  0
TEXT
  5
357
330
6F
100
AcDbEntity
  8
LAYER_1
100
AcDbText
 10
60.71136666666667
 20
212.3202
 30
0.0
 40
3.0923
  1
%%c173
 41
0.5
 72
     2
 11
65.8652
 21
212.3202
 31
0.0
100
AcDbText
  0
TEXT
  5
358
330
6F
100
AcDbEntity
  8
LAYER_1
100
AcDbText
 10
149.1464583333333
 20
188.0983
 30
0.0
 40
3.0923
  1
300
 41
0.5
 72
     1
 11
150.9503
 21
188.0983
 31
0.0
100
AcDbText
  0
TEXT
  5
359
330
6F
100
AcDbEntity
  8
LAYER_1
100
AcDbText
 10
161.1665783333333
 20
219.3341
 30
0.0
 40
3.0923
  1
（127）
 41
0.5
 72
     1
 11
164.8258
 21
219.3341
 31
0.0
100
AcDbText
  0
TEXT
  5
35A
330
6F
100
AcDbEntity
  8
LAYER_1
100
AcDbText
 10
139.9201
 20
203.7767
 30
0.0
 40
3.0923
  1
R35
 41
0.5
100
AcDbText
  0
TEXT
  5
35B
330
6F
100
AcDbEntity
  8
LAYER_1
100
AcDbText
 10
144.0333866666667
 20
180.4455
 30
0.0
 40
3.0923
  1
（463）
 41
0.5
 72
     1
 11
147.9503
 21
180.4455
 31
0.0
100
AcDbText
  0
TEXT
  5
35C
330
6F
100
AcDbEntity
  8
LAYER_1
100
AcDbText
 10
120.7691999997077
 20
200.6365041666667
 30
0.0
 40
3.0923
  1
150
 50
89.99999999
 41
0.5
 72
     1
 11
120.7692
 21
202.3115
 31
0.0
100
AcDbText
  0
TEXT
  5
35D
330
6F
100
AcDbEntity
  8
LAYER_1
100
AcDbText
 10
174.29665
 20
206.4708
 30
0.0
 40
3.0923
  1
%%c12×2ヶ所
 41
0.5
 72
     2
 11
185.1197
 21
206.4708
 31
0.0
100
AcDbText
  0
TEXT
  5
35E
330
6F
100
AcDbEntity
  8
LAYER_1
100
AcDbText
 10
142.5305
 20
213.5184
 30
0.0
 40
3.0923
  1
排水口
 41
0.5
100
AcDbText
  0
TEXT
  5
35F
330
6F
100
AcDbEntity
  8
LAYER_1
100
AcDbText
 10
164.1165516002069
 20
209.1947516012246
 30
0.0
 40
3.0923
  1
R75
 50
44.99999999
 41
0.5
 72
     2
 11
167.032
 21
212.1102
 31
0.0
100
AcDbText
  0
TEXT
  5
360
330
6F
100
AcDbEntity
  8
LAYER_1
100
AcDbText
 10
102.351
 20
102.9512
 30
0.0
 40
3.0923
  1
max.30
 50
89.99999999
 41
0.5
100
AcDbText
  0
INSERT
  5
361
330
6F
100
AcDbEntity
  8
LAYER_1
100
AcDbBlockReference
  2
AIGNBL01010002
 10
0.0
 20
0.0
 30
0.0
  0
INSERT
  5
362
330
6F
100
AcDbEntity
  8
LAYER_1
100
AcDbBlockReference
  2
AIGNBL01010003
 10
0.0
 20
0.0
 30
0.0
  0
LINE
  5
363
330
6F
100
AcDbEntity
  8
LAYER_2
100
AcDbLine
 10
83.5739
 20
207.1898
 30
0.0
 11
77.9132
 21
207.1898
 31
0.0
  0
LINE
  5
364
330
6F
100
AcDbEntity
  8
LAYER_2
100
AcDbLine
 10
67.09
 20
211.6202
 30
0.0
 11
59.6136
 21
211.6202
 31
0.0
  0
INSERT
  5
365
330
6F
100
AcDbEntity
  8
LAYER_2
100
AcDbBlockReference
  2
AIGNBL02010002
 10
0.0
 20
0.0
 30
0.0
  0
INSERT
  5
366
330
6F
100
AcDbEntity
  8
LAYER_2
100
AcDbBlockReference
  2
AIGNBL02010003
 10
0.0
 20
0.0
 30
0.0
  0
LINE
  5
367
330
6F
100
AcDbEntity
  8
LAYER_2
  6
AIGENLINE002
100
AcDbLine
 10
32.9222
 20
202.3115
 30
0.0
 11
93.5679
 21
202.3115
 31
0.0
  0
LINE
  5
368
330
6F
100
AcDbEntity
  8
LAYER_2
  6
AIGENLINE003
100
AcDbLine
 10
73.2402
 20
202.3115
 30
0.0
 11
93.9552
 21
209.8513
 31
0.0
  0
LINE
  5
369
330
6F
100
AcDbEntity
  8
LAYER_2
  6
AIGENLINE003
100
AcDbLine
 10
73.2402
 20
202.3115
 30
0.0
 11
93.8749
 21
194.8012
 31
0.0
  0
INSERT
  5
36A
330
6F
100
AcDbEntity
  8
LAYER_2
100
AcDbBlockReference
  2
AIGNBL02010004
 10
0.0
 20
0.0
 30
0.0
  0
INSERT
  5
36B
330
6F
100
AcDbEntity
  8
LAYER_2
100
AcDbBlockReference
  2
AIGNBL02010005
 10
0.0
 20
0.0
 30
0.0
  0
INSERT
  5
36C
330
6F
100
AcDbEntity
  8
LAYER_2
100
AcDbBlockReference
  2
AIGNBL02010006
 10
0.0
 20
0.0
 30
0.0
  0
LINE
  5
36D
330
6F
100
AcDbEntity
  8
LAYER_2
100
AcDbLine
 10
35.9398
 20
216.8114
 30
0.0
 11
35.9398
 21
187.8114
 31
0.0
  0
LINE
  5
36E
330
6F
100
AcDbEntity
  8
LAYER_2
100
AcDbLine
 10
36.6398
 20
216.8114
 30
0.0
 11
36.6398
 21
187.8114
 31
0.0
  0
ARC
  5
36F
330
6F
100
AcDbEntity
  8
LAYER_2
100
AcDbCircle
 10
39.4399
 20
216.8113
 30
0.0
 40
3.5001
100
AcDbArc
 50
89.99802682
 51
179.9986992
  0
ARC
  5
370
330
6F
100
AcDbEntity
  8
LAYER_2
100
AcDbCircle
 10
39.1399
 20
216.8114
 30
0.0
 40
2.5001
100
AcDbArc
 50
90.00024559000002
 51
179.9997544
  0
ARC
  5
371
330
6F
100
AcDbEntity
  8
LAYER_2
100
AcDbCircle
 10
39.4399
 20
187.8115
 30
0.0
 40
3.5001
100
AcDbArc
 50
180.0015991
 51
270.0016749000001
  0
ARC
  5
372
330
6F
100
AcDbEntity
  8
LAYER_2
100
AcDbCircle
 10
39.1399
 20
187.8114
 30
0.0
 40
2.5001
100
AcDbArc
 50
180.0006632
 51
269.9993368
  0
LINE
  5
373
330
6F
100
AcDbEntity
  8
LAYER_2
100
AcDbLine
 10
90.94
 20
216.8114
 30
0.0
 11
90.94
 21
187.8114
 31
0.0
  0
LINE
  5
374
330
6F
100
AcDbEntity
  8
LAYER_2
100
AcDbLine
 10
90.24
 20
216.8114
 30
0.0
 11
90.24
 21
187.8114
 31
0.0
  0
LINE
  5
375
330
6F
100
AcDbEntity
  8
LAYER_2
  6
AIGENLINE002
100
AcDbLine
 10
73.2402
 20
207.6114
 30
0.0
 11
73.2402
 21
197.1456
 31
0.0
  0
LINE
  5
376
330
6F
100
AcDbEntity
  8
LAYER_2
100
AcDbLine
 10
73.2402
 20
196.4455
 30
0.0
 11
73.2402
 21
174.8506
 31
0.0
  0
LINE
  5
377
330
6F
100
AcDbEntity
  8
LAYER_2
100
AcDbLine
 10
90.24
 20
186.211
 30
0.0
 11
90.24
 21
168.3208
 31
0.0
  0
LINE
  5
378
330
6F
100
AcDbEntity
  8
LAYER_2
100
AcDbLine
 10
90.9393
 20
185.8614
 30
0.0
 11
90.9393
 21
161.4225
 31
0.0
  0
INSERT
  5
379
330
6F
100
AcDbEntity
  8
LAYER_2
100
AcDbBlockReference
  2
AIGNBL02010007
 10
0.0
 20
0.0
 30
0.0
  0
INSERT
  5
37A
330
6F
100
AcDbEntity
  8
LAYER_2
100
AcDbBlockReference
  2
AIGNBL02010008
 10
0.0
 20
0.0
 30
0.0
  0
INSERT
  5
37B
330
6F
100
AcDbEntity
  8
LAYER_2
100
AcDbBlockReference
  2
AIGNBL02010009
 10
0.0
 20
0.0
 30
0.0
  0
LINE
  5
37C
330
6F
100
AcDbEntity
  8
LAYER_2
100
AcDbLine
 10
35.9394
 20
185.8614
 30
0.0
 11
35.9394
 21
161.4225
 31
0.0
  0
LINE
  5
37D
330
6F
100
AcDbEntity
  8
LAYER_2
100
AcDbLine
 10
36.6398
 20
186.211
 30
0.0
 11
36.6398
 21
168.3208
 31
0.0
  0
LINE
  5
37E
330
6F
100
AcDbEntity
  8
LAYER_2
  6
AIGENLINE002
100
AcDbLine
 10
85.9398
 20
203.8485
 30
0.0
 11
85.9398
 21
200.791
 31
0.0
  0
ARC
  5
37F
330
6F
100
AcDbEntity
  8
LAYER_2
100
AcDbCircle
 10
87.4399
 20
216.8113
 30
0.0
 40
3.5001
100
AcDbArc
 50
0.001834040859
 51
90.00143990000001
  0
ARC
  5
380
330
6F
100
AcDbEntity
  8
LAYER_2
100
AcDbCircle
 10
87.7399
 20
216.8114
 30
0.0
 40
2.5001
100
AcDbArc
 50
0.0005878952851
 51
89.99941209
  0
ARC
  5
381
330
6F
100
AcDbEntity
  8
LAYER_2
100
AcDbCircle
 10
87.4399
 20
187.8115
 30
0.0
 40
3.5001
100
AcDbArc
 50
269.9988584
 51
359.9978677
  0
ARC
  5
382
330
6F
100
AcDbEntity
  8
LAYER_2
100
AcDbCircle
 10
87.7399
 20
187.8114
 30
0.0
 40
2.5001
100
AcDbArc
 50
270.0010055
 51
359.9989945
  0
CIRCLE
  5
383
330
6F
100
AcDbEntity
  8
LAYER_2
100
AcDbCircle
 10
73.2402
 20
202.3115
 30
0.0
 40
2.2999
  0
LINE
  5
384
330
6F
100
AcDbEntity
  8
LAYER_2
  6
AIGENLINE002
100
AcDbLine
 10
50.7402
 20
212.2175
 30
0.0
 11
50.7402
 21
192.227
 31
0.0
  0
LINE
  5
385
330
6F
100
AcDbEntity
  8
LAYER_2
  6
AIGENLINE002
100
AcDbLine
 10
50.7402
 20
131.0835
 30
0.0
 11
50.7402
 21
114.3861
 31
0.0
  0
INSERT
  5
386
330
6F
100
AcDbEntity
  8
LAYER_2
100
AcDbBlockReference
  2
AIGNBL0201000A
 10
0.0
 20
0.0
 30
0.0
  0
INSERT
  5
387
330
6F
100
AcDbEntity
  8
LAYER_2
100
AcDbBlockReference
  2
AIGNBL0201000B
 10
0.0
 20
0.0
 30
0.0
  0
LINE
  5
388
330
6F
100
AcDbEntity
  8
LAYER_2
100
AcDbLine
 10
50.7402
 20
191.527
 30
0.0
 11
50.7402
 21
174.8506
 31
0.0
  0
CIRCLE
  5
389
330
6F
100
AcDbEntity
  8
LAYER_2
100
AcDbCircle
 10
50.7402
 20
202.3115
 30
0.0
 40
1.1499
  0
CIRCLE
  5
38A
330
6F
100
AcDbEntity
  8
LAYER_2
100
AcDbCircle
 10
50.7402
 20
202.3115
 30
0.0
 40
2.4998
  0
CIRCLE
  5
38B
330
6F
100
AcDbEntity
  8
LAYER_2
100
AcDbCircle
 10
50.7402
 20
202.3115
 30
0.0
 40
3.7498
  0
CIRCLE
  5
38C
330
6F
100
AcDbEntity
  8
LAYER_2
100
AcDbCircle
 10
50.7402
 20
202.3115
 30
0.0
 40
4.9999
  0
CIRCLE
  5
38D
330
6F
100
AcDbEntity
  8
LAYER_2
100
AcDbCircle
 10
50.7402
 20
202.3115
 30
0.0
 40
6.2499
  0
CIRCLE
  5
38E
330
6F
100
AcDbEntity
  8
LAYER_2
100
AcDbCircle
 10
50.7402
 20
202.3115
 30
0.0
 40
7.4999
  0
CIRCLE
  5
38F
330
6F
100
AcDbEntity
  8
LAYER_2
100
AcDbCircle
 10
50.7402
 20
202.3115
 30
0.0
 40
8.6499
  0
CIRCLE
  5
390
330
6F
100
AcDbEntity
  8
LAYER_2
  6
AIGENLINE001
100
AcDbCircle
 10
85.9398
 20
202.3115
 30
0.0
 40
0.6
  0
LINE
  5
391
330
6F
100
AcDbEntity
  8
LAYER_2
  6
AIGENLINE002
100
AcDbLine
 10
39.6398
 20
203.8485
 30
0.0
 11
39.6398
 21
200.791
 31
0.0
  0
CIRCLE
  5
392
330
6F
100
AcDbEntity
  8
LAYER_2
  6
AIGENLINE001
100
AcDbCircle
 10
39.6398
 20
202.3115
 30
0.0
 40
0.6
  0
LINE
  5
393
330
6F
100
AcDbEntity
  8
LAYER_2
  6
AIGENLINE002
100
AcDbLine
 10
123.2321
 20
202.3115
 30
0.0
 11
172.7843
 21
202.3115
 31
0.0
  0
LINE
  5
394
330
6F
100
AcDbEntity
  8
LAYER_2
  6
AIGENLINE002
100
AcDbLine
 10
158.4503
 20
211.8744
 30
0.0
 11
158.4503
 21
192.4708
 31
0.0
  0
LINE
  5
395
330
6F
100
AcDbEntity
  8
LAYER_2
  6
AIGENLINE002
100
AcDbLine
 10
171.1506
 20
203.8485
 30
0.0
 11
171.1506
 21
200.791
 31
0.0
  0
CIRCLE
  5
396
330
6F
100
AcDbEntity
  8
LAYER_2
100
AcDbCircle
 10
158.4503
 20
202.3115
 30
0.0
 40
2.2999
  0
CIRCLE
  5
397
330
6F
100
AcDbEntity
  8
LAYER_2
100
AcDbCircle
 10
171.1506
 20
202.3115
 30
0.0
 40
0.5997
  0
LINE
  5
398
330
6F
100
AcDbEntity
  8
LAYER_2
  6
AIGENLINE002
100
AcDbLine
 10
124.8499
 20
203.8485
 30
0.0
 11
124.8499
 21
200.791
 31
0.0
  0
CIRCLE
  5
399
330
6F
100
AcDbEntity
  8
LAYER_2
100
AcDbCircle
 10
124.8499
 20
202.3115
 30
0.0
 40
0.6
  0
INSERT
  5
39A
330
6F
100
AcDbEntity
  8
LAYER_2
100
AcDbBlockReference
  2
AIGNBL0201000C
 10
0.0
 20
0.0
 30
0.0
  0
INSERT
  5
39B
330
6F
100
AcDbEntity
  8
LAYER_2
100
AcDbBlockReference
  2
AIGNBL0201000D
 10
0.0
 20
0.0
 30
0.0
  0
INSERT
  5
39C
330
6F
100
AcDbEntity
  8
LAYER_2
100
AcDbBlockReference
  2
AIGNBL0201000E
 10
0.0
 20
0.0
 30
0.0
  0
INSERT
  5
39D
330
6F
100
AcDbEntity
  8
LAYER_2
100
AcDbBlockReference
  2
AIGNBL0201000F
 10
0.0
 20
0.0
 30
0.0
  0
INSERT
  5
39E
330
6F
100
AcDbEntity
  8
LAYER_2
100
AcDbBlockReference
  2
AIGNBL02010010
 10
0.0
 20
0.0
 30
0.0
  0
INSERT
  5
39F
330
6F
100
AcDbEntity
  8
LAYER_2
100
AcDbBlockReference
  2
AIGNBL02010011
 10
0.0
 20
0.0
 30
0.0
  0
INSERT
  5
3A0
330
6F
100
AcDbEntity
  8
LAYER_2
100
AcDbBlockReference
  2
AIGNBL02010012
 10
0.0
 20
0.0
 30
0.0
  0
INSERT
  5
3A1
330
6F
100
AcDbEntity
  8
LAYER_2
100
AcDbBlockReference
  2
AIGNBL02010013
 10
0.0
 20
0.0
 30
0.0
  0
INSERT
  5
3A2
330
6F
100
AcDbEntity
  8
LAYER_2
100
AcDbBlockReference
  2
AIGNBL02010014
 10
0.0
 20
0.0
 30
0.0
  0
INSERT
  5
3A3
330
6F
100
AcDbEntity
  8
LAYER_2
100
AcDbBlockReference
  2
AIGNBL02010015
 10
0.0
 20
0.0
 30
0.0
  0
LINE
  5
3A4
330
6F
100
AcDbEntity
  8
LAYER_2
100
AcDbLine
 10
89.14
 20
220.3114
 30
0.0
 11
112.42
 21
220.3114
 31
0.0
  0
LINE
  5
3A5
330
6F
100
AcDbEntity
  8
LAYER_2
100
AcDbLine
 10
89.44
 20
219.3115
 30
0.0
 11
106.6722
 21
219.3115
 31
0.0
  0
LINE
  5
3A6
330
6F
100
AcDbEntity
  8
LAYER_2
100
AcDbLine
 10
94.26799999999999
 20
202.3115
 30
0.0
 11
100.6321
 21
202.3115
 31
0.0
  0
LINE
  5
3A7
330
6F
100
AcDbEntity
  8
LAYER_2
100
AcDbLine
 10
89.14
 20
184.3114
 30
0.0
 11
112.42
 21
184.3114
 31
0.0
  0
INSERT
  5
3A8
330
6F
100
AcDbEntity
  8
LAYER_2
100
AcDbBlockReference
  2
AIGNBL02010016
 10
0.0
 20
0.0
 30
0.0
  0
LINE
  5
3A9
330
6F
100
AcDbEntity
  8
LAYER_2
100
AcDbLine
 10
165.1531
 20
128.8245
 30
0.0
 11
174.0297
 21
128.8245
 31
0.0
  0
LINE
  5
3AA
330
6F
100
AcDbEntity
  8
LAYER_2
100
AcDbLine
 10
165.0531
 20
116.3243
 30
0.0
 11
174.0297
 21
116.3243
 31
0.0
  0
LINE
  5
3AB
330
6F
100
AcDbEntity
  8
LAYER_2
100
AcDbLine
 10
150.5776
 20
114.3248
 30
0.0
 11
174.0297
 21
114.3248
 31
0.0
  0
LINE
  5
3AC
330
6F
100
AcDbEntity
  8
LAYER_2
100
AcDbLine
 10
89.14
 20
185.3113
 30
0.0
 11
106.6722
 21
185.3113
 31
0.0
  0
INSERT
  5
3AD
330
6F
100
AcDbEntity
  8
LAYER_2
100
AcDbBlockReference
  2
AIGNBL02010017
 10
0.0
 20
0.0
 30
0.0
  0
LINE
  5
3AE
330
6F
100
AcDbEntity
  8
LAYER_2
100
AcDbLine
 10
136.7503
 20
209.8115
 30
0.0
 11
120.7692
 21
209.8115
 31
0.0
  0
LINE
  5
3AF
330
6F
100
AcDbEntity
  8
LAYER_2
100
AcDbLine
 10
153.0291
 20
212.8183
 30
0.0
 11
142.5305
 21
212.8183
 31
0.0
  0
LINE
  5
3B0
330
6F
100
AcDbEntity
  8
LAYER_2
100
AcDbLine
 10
136.7503
 20
194.8115
 30
0.0
 11
120.7692
 21
194.8115
 31
0.0
  0
INSERT
  5
3B1
330
6F
100
AcDbEntity
  8
LAYER_2
100
AcDbBlockReference
  2
AIGNBL02010018
 10
0.0
 20
0.0
 30
0.0
  0
INSERT
  5
3B2
330
6F
100
AcDbEntity
  8
LAYER_2
100
AcDbBlockReference
  2
AIGNBL02010019
 10
0.0
 20
0.0
 30
0.0
  0
INSERT
  5
3B3
330
6F
100
AcDbEntity
  8
LAYER_2
100
AcDbBlockReference
  2
AIGNBL0201001A
 10
0.0
 20
0.0
 30
0.0
  0
LINE
  5
3B4
330
6F
100
AcDbEntity
  8
LAYER_2
100
AcDbLine
 10
171.1506
 20
204.5486
 30
0.0
 11
171.1506
 21
219.3341
 31
0.0
  0
LINE
  5
3B5
330
6F
100
AcDbEntity
  8
LAYER_2
100
AcDbLine
 10
158.4509
 20
212.5744
 30
0.0
 11
158.4509
 21
219.3341
 31
0.0
  0
LINE
  5
3B6
330
6F
100
AcDbEntity
  8
LAYER_2
100
AcDbLine
 10
165.9503
 20
199.3115
 30
0.0
 11
165.9503
 21
186.6981
 31
0.0
  0
LINE
  5
3B7
330
6F
100
AcDbEntity
  8
LAYER_2
100
AcDbLine
 10
171.1506
 20
200.091
 30
0.0
 11
171.1506
 21
179.0454
 31
0.0
  0
LINE
  5
3B8
330
6F
100
AcDbEntity
  8
LAYER_2
100
AcDbLine
 10
124.8499
 20
200.091
 30
0.0
 11
124.8499
 21
179.0454
 31
0.0
  0
LINE
  5
3B9
330
6F
100
AcDbEntity
  8
LAYER_2
100
AcDbLine
 10
135.9504
 20
196.1114
 30
0.0
 11
135.9504
 21
186.6981
 31
0.0
  0
INSERT
  5
3BA
330
6F
100
AcDbEntity
  8
LAYER_2
100
AcDbBlockReference
  2
AIGNBL0201001B
 10
0.0
 20
0.0
 30
0.0
  0
ARC
  5
3BB
330
6F
100
AcDbEntity
  8
LAYER_2
100
AcDbCircle
 10
158.4503
 20
202.3115
 30
0.0
 40
7.5
100
AcDbArc
 50
0.0001345599969
 51
89.99986543
  0
ARC
  5
3BC
330
6F
100
AcDbEntity
  8
LAYER_2
100
AcDbCircle
 10
158.4503
 20
202.3115
 30
0.0
 40
7.5
100
AcDbArc
 50
270.0000488
 51
359.9999512
  0
LINE
  5
3BD
330
6F
100
AcDbEntity
  8
LAYER_2
100
AcDbLine
 10
139.4499
 20
194.8115
 30
0.0
 11
158.4503
 21
194.8115
 31
0.0
  0
LINE
  5
3BE
330
6F
100
AcDbEntity
  8
LAYER_2
100
AcDbLine
 10
139.4499
 20
209.8115
 30
0.0
 11
158.4503
 21
209.8115
 31
0.0
  0
LINE
  5
3BF
330
6F
100
AcDbEntity
  8
LAYER_2
100
AcDbLine
 10
135.9504
 20
206.3114
 30
0.0
 11
135.9504
 21
198.3116
 31
0.0
  0
ARC
  5
3C0
330
6F
100
AcDbEntity
  8
LAYER_2
100
AcDbCircle
 10
139.4502
 20
206.3117
 30
0.0
 40
3.4998
100
AcDbArc
 50
90.00455380000001
 51
180.0052689
  0
ARC
  5
3C1
330
6F
100
AcDbEntity
  8
LAYER_2
100
AcDbCircle
 10
139.4502
 20
198.3113
 30
0.0
 40
3.4998
100
AcDbArc
 50
179.9948362
 51
269.9953411
  0
INSERT
  5
3C2
330
6F
100
AcDbEntity
  8
LAYER_2
100
AcDbBlockReference
  2
AIGNBL0201001C
 10
0.0
 20
0.0
 30
0.0
  0
INSERT
  5
3C3
330
6F
100
AcDbEntity
  8
LAYER_2
100
AcDbBlockReference
  2
AIGNBL0201001D
 10
0.0
 20
0.0
 30
0.0
  0
INSERT
  5
3C4
330
6F
100
AcDbEntity
  8
LAYER_2
100
AcDbBlockReference
  2
AIGNBL0201001E
 10
0.0
 20
0.0
 30
0.0
  0
INSERT
  5
3C5
330
6F
100
AcDbEntity
  8
LAYER_2
100
AcDbBlockReference
  2
AIGNBL0201001F
 10
0.0
 20
0.0
 30
0.0
  0
INSERT
  5
3C6
330
6F
100
AcDbEntity
  8
LAYER_2
100
AcDbBlockReference
  2
AIGNBL02010020
 10
0.0
 20
0.0
 30
0.0
  0
INSERT
  5
3C7
330
6F
100
AcDbEntity
  8
LAYER_2
100
AcDbBlockReference
  2
AIGNBL02010021
 10
0.0
 20
0.0
 30
0.0
  0
INSERT
  5
3C8
330
6F
100
AcDbEntity
  8
LAYER_2
100
AcDbBlockReference
  2
AIGNBL02010022
 10
0.0
 20
0.0
 30
0.0
  0
INSERT
  5
3C9
330
6F
100
AcDbEntity
  8
LAYER_2
100
AcDbBlockReference
  2
AIGNBL02010023
 10
0.0
 20
0.0
 30
0.0
  0
INSERT
  5
3CA
330
6F
100
AcDbEntity
  8
LAYER_2
100
AcDbBlockReference
  2
AIGNBL02010024
 10
0.0
 20
0.0
 30
0.0
  0
INSERT
  5
3CB
330
6F
100
AcDbEntity
  8
LAYER_2
100
AcDbBlockReference
  2
AIGNBL02010025
 10
0.0
 20
0.0
 30
0.0
  0
INSERT
  5
3CC
330
6F
100
AcDbEntity
  8
LAYER_2
100
AcDbBlockReference
  2
AIGNBL02010026
 10
0.0
 20
0.0
 30
0.0
  0
INSERT
  5
3CD
330
6F
100
AcDbEntity
  8
LAYER_2
100
AcDbBlockReference
  2
AIGNBL02010027
 10
0.0
 20
0.0
 30
0.0
  0
INSERT
  5
3CE
330
6F
100
AcDbEntity
  8
LAYER_2
100
AcDbBlockReference
  2
AIGNBL02010028
 10
0.0
 20
0.0
 30
0.0
  0
INSERT
  5
3CF
330
6F
100
AcDbEntity
  8
LAYER_2
100
AcDbBlockReference
  2
AIGNBL02010029
 10
0.0
 20
0.0
 30
0.0
  0
INSERT
  5
3D0
330
6F
100
AcDbEntity
  8
LAYER_2
100
AcDbBlockReference
  2
AIGNBL0201002A
 10
0.0
 20
0.0
 30
0.0
  0
LINE
  5
3D1
330
6F
100
AcDbEntity
  8
LAYER_2
  6
AIGENLINE002
100
AcDbLine
 10
146.5268
 20
130.8123
 30
0.0
 11
146.5268
 21
108.608
 31
0.0
  0
ARC
  5
3D2
330
6F
100
AcDbEntity
  8
LAYER_2
100
AcDbCircle
 10
128.8904
 20
128.4617
 30
0.0
 40
0.3631
100
AcDbArc
 50
92.13828905
 51
177.9764171
  0
ARC
  5
3D3
330
6F
100
AcDbEntity
  8
LAYER_2
100
AcDbCircle
 10
129.1773
 20
116.6743
 30
0.0
 40
0.35
100
AcDbArc
 50
179.9896706
 51
269.9939615
  0
LINE
  5
3D4
330
6F
100
AcDbEntity
  8
LAYER_2
100
AcDbLine
 10
128.828
 20
116.6654
 30
0.0
 11
128.8169
 21
117.0898
 31
0.0
  0
LINE
  5
3D5
330
6F
100
AcDbEntity
  8
LAYER_2
100
AcDbLine
 10
128.8169
 20
117.0898
 30
0.0
 11
128.5276
 21
128.4655
 31
0.0
  0
INSERT
  5
3D6
330
6F
100
AcDbEntity
  8
LAYER_2
100
AcDbBlockReference
  2
AIGNBL0201002B
 10
0.0
 20
0.0
 30
0.0
  0
INSERT
  5
3D7
330
6F
100
AcDbEntity
  8
LAYER_2
100
AcDbBlockReference
  2
AIGNBL0201002C
 10
0.0
 20
0.0
 30
0.0
  0
INSERT
  5
3D8
330
6F
100
AcDbEntity
  8
LAYER_2
100
AcDbBlockReference
  2
AIGNBL0201002D
 10
0.0
 20
0.0
 30
0.0
  0
INSERT
  5
3D9
330
6F
100
AcDbEntity
  8
LAYER_2
100
AcDbBlockReference
  2
AIGNBL0201002E
 10
0.0
 20
0.0
 30
0.0
  0
INSERT
  5
3DA
330
6F
100
AcDbEntity
  8
LAYER_2
100
AcDbBlockReference
  2
AIGNBL0201002F
 10
0.0
 20
0.0
 30
0.0
  0
LINE
  5
3DB
330
6F
100
AcDbEntity
  8
LAYER_2
100
AcDbLine
 10
143.1768
 20
114.6245
 30
0.0
 11
143.1768
 21
116.3243
 31
0.0
  0
ARC
  5
3DC
330
6F
100
AcDbEntity
  8
LAYER_2
100
AcDbCircle
 10
143.4884
 20
114.6364
 30
0.0
 40
0.3118
100
AcDbArc
 50
182.1839104
 51
267.9497574
  0
ARC
  5
3DD
330
6F
100
AcDbEntity
  8
LAYER_2
100
AcDbCircle
 10
149.5771
 20
114.6245
 30
0.0
 40
0.2997
100
AcDbArc
 50
270.0043165
 51
359.9956835
  0
INSERT
  5
3DE
330
6F
100
AcDbEntity
  8
LAYER_2
100
AcDbBlockReference
  2
AIGNBL02010030
 10
0.0
 20
0.0
 30
0.0
  0
INSERT
  5
3DF
330
6F
100
AcDbEntity
  8
LAYER_2
100
AcDbBlockReference
  2
AIGNBL02010031
 10
0.0
 20
0.0
 30
0.0
  0
INSERT
  5
3E0
330
6F
100
AcDbEntity
  8
LAYER_2
100
AcDbBlockReference
  2
AIGNBL02010032
 10
0.0
 20
0.0
 30
0.0
  0
INSERT
  5
3E1
330
6F
100
AcDbEntity
  8
LAYER_2
100
AcDbBlockReference
  2
AIGNBL02010033
 10
0.0
 20
0.0
 30
0.0
  0
INSERT
  5
3E2
330
6F
100
AcDbEntity
  8
LAYER_2
100
AcDbBlockReference
  2
AIGNBL02010034
 10
0.0
 20
0.0
 30
0.0
  0
INSERT
  5
3E3
330
6F
100
AcDbEntity
  8
LAYER_2
100
AcDbBlockReference
  2
AIGNBL02010035
 10
0.0
 20
0.0
 30
0.0
  0
INSERT
  5
3E4
330
6F
100
AcDbEntity
  8
LAYER_2
100
AcDbBlockReference
  2
AIGNBL02010036
 10
0.0
 20
0.0
 30
0.0
  0
INSERT
  5
3E5
330
6F
100
AcDbEntity
  8
LAYER_2
100
AcDbBlockReference
  2
AIGNBL02010037
 10
0.0
 20
0.0
 30
0.0
  0
INSERT
  5
3E6
330
6F
100
AcDbEntity
  8
LAYER_2
100
AcDbBlockReference
  2
AIGNBL02010038
 10
0.0
 20
0.0
 30
0.0
  0
INSERT
  5
3E7
330
6F
100
AcDbEntity
  8
LAYER_2
100
AcDbBlockReference
  2
AIGNBL02010039
 10
0.0
 20
0.0
 30
0.0
  0
INSERT
  5
3E8
330
6F
100
AcDbEntity
  8
LAYER_2
100
AcDbBlockReference
  2
AIGNBL0201003A
 10
0.0
 20
0.0
 30
0.0
  0
INSERT
  5
3E9
330
6F
100
AcDbEntity
  8
LAYER_2
100
AcDbBlockReference
  2
AIGNBL0201003B
 10
0.0
 20
0.0
 30
0.0
  0
INSERT
  5
3EA
330
6F
100
AcDbEntity
  8
LAYER_2
100
AcDbBlockReference
  2
AIGNBL0201003C
 10
0.0
 20
0.0
 30
0.0
  0
ARC
  5
3EB
330
6F
100
AcDbEntity
  8
LAYER_2
100
AcDbCircle
 10
164.1774
 20
128.4745
 30
0.0
 40
0.35
100
AcDbArc
 50
359.9988999
 51
90.00110009
  0
ARC
  5
3EC
330
6F
100
AcDbEntity
  8
LAYER_2
100
AcDbCircle
 10
163.877
 20
116.6743
 30
0.0
 40
0.35
100
AcDbArc
 50
270.0067126
 51
0.009655259254
  0
LINE
  5
3ED
330
6F
100
AcDbEntity
  8
LAYER_2
100
AcDbLine
 10
164.227
 20
116.6654
 30
0.0
 11
164.2373
 21
117.0898
 31
0.0
  0
LINE
  5
3EE
330
6F
100
AcDbEntity
  8
LAYER_2
100
AcDbLine
 10
164.2373
 20
117.0898
 30
0.0
 11
164.5274
 21
128.4655
 31
0.0
  0
INSERT
  5
3EF
330
6F
100
AcDbEntity
  8
LAYER_2
100
AcDbBlockReference
  2
AIGNBL0201003D
 10
0.0
 20
0.0
 30
0.0
  0
INSERT
  5
3F0
330
6F
100
AcDbEntity
  8
LAYER_2
100
AcDbBlockReference
  2
AIGNBL0201003E
 10
0.0
 20
0.0
 30
0.0
  0
INSERT
  5
3F1
330
6F
100
AcDbEntity
  8
LAYER_2
100
AcDbBlockReference
  2
AIGNBL0201003F
 10
0.0
 20
0.0
 30
0.0
  0
INSERT
  5
3F2
330
6F
100
AcDbEntity
  8
LAYER_2
100
AcDbBlockReference
  2
AIGNBL02010040
 10
0.0
 20
0.0
 30
0.0
  0
INSERT
  5
3F3
330
6F
100
AcDbEntity
  8
LAYER_2
100
AcDbBlockReference
  2
AIGNBL02010041
 10
0.0
 20
0.0
 30
0.0
  0
LINE
  5
3F4
330
6F
100
AcDbEntity
  8
LAYER_2
100
AcDbLine
 10
149.8775
 20
114.6245
 30
0.0
 11
149.8775
 21
116.3243
 31
0.0
  0
INSERT
  5
3F5
330
6F
100
AcDbEntity
  8
LAYER_2
100
AcDbBlockReference
  2
AIGNBL02010042
 10
0.0
 20
0.0
 30
0.0
  0
INSERT
  5
3F6
330
6F
100
AcDbEntity
  8
LAYER_2
100
AcDbBlockReference
  2
AIGNBL02010043
 10
0.0
 20
0.0
 30
0.0
  0
INSERT
  5
3F7
330
6F
100
AcDbEntity
  8
LAYER_2
100
AcDbBlockReference
  2
AIGNBL02010044
 10
0.0
 20
0.0
 30
0.0
  0
INSERT
  5
3F8
330
6F
100
AcDbEntity
  8
LAYER_2
100
AcDbBlockReference
  2
AIGNBL02010045
 10
0.0
 20
0.0
 30
0.0
  0
INSERT
  5
3F9
330
6F
100
AcDbEntity
  8
LAYER_2
100
AcDbBlockReference
  2
AIGNBL02010046
 10
0.0
 20
0.0
 30
0.0
  0
INSERT
  5
3FA
330
6F
100
AcDbEntity
  8
LAYER_2
100
AcDbBlockReference
  2
AIGNBL02010047
 10
0.0
 20
0.0
 30
0.0
  0
INSERT
  5
3FB
330
6F
100
AcDbEntity
  8
LAYER_2
100
AcDbBlockReference
  2
AIGNBL02010048
 10
0.0
 20
0.0
 30
0.0
  0
INSERT
  5
3FC
330
6F
100
AcDbEntity
  8
LAYER_2
100
AcDbBlockReference
  2
AIGNBL02010049
 10
0.0
 20
0.0
 30
0.0
  0
INSERT
  5
3FD
330
6F
100
AcDbEntity
  8
LAYER_2
100
AcDbBlockReference
  2
AIGNBL0201004A
 10
0.0
 20
0.0
 30
0.0
  0
INSERT
  5
3FE
330
6F
100
AcDbEntity
  8
LAYER_2
100
AcDbBlockReference
  2
AIGNBL0201004B
 10
0.0
 20
0.0
 30
0.0
  0
INSERT
  5
3FF
330
6F
100
AcDbEntity
  8
LAYER_2
100
AcDbBlockReference
  2
AIGNBL0201004C
 10
0.0
 20
0.0
 30
0.0
  0
INSERT
  5
400
330
6F
100
AcDbEntity
  8
LAYER_2
100
AcDbBlockReference
  2
AIGNBL0201004D
 10
0.0
 20
0.0
 30
0.0
  0
INSERT
  5
401
330
6F
100
AcDbEntity
  8
LAYER_2
100
AcDbBlockReference
  2
AIGNBL0201004E
 10
0.0
 20
0.0
 30
0.0
  0
INSERT
  5
402
330
6F
100
AcDbEntity
  8
LAYER_2
100
AcDbBlockReference
  2
AIGNBL0201004F
 10
0.0
 20
0.0
 30
0.0
  0
INSERT
  5
403
330
6F
100
AcDbEntity
  8
LAYER_2
100
AcDbBlockReference
  2
AIGNBL02010050
 10
0.0
 20
0.0
 30
0.0
  0
INSERT
  5
404
330
6F
100
AcDbEntity
  8
LAYER_2
100
AcDbBlockReference
  2
AIGNBL02010051
 10
0.0
 20
0.0
 30
0.0
  0
INSERT
  5
405
330
6F
100
AcDbEntity
  8
LAYER_2
100
AcDbBlockReference
  2
AIGNBL02010052
 10
0.0
 20
0.0
 30
0.0
  0
INSERT
  5
406
330
6F
100
AcDbEntity
  8
LAYER_2
100
AcDbBlockReference
  2
AIGNBL02010053
 10
0.0
 20
0.0
 30
0.0
  0
INSERT
  5
407
330
6F
100
AcDbEntity
  8
LAYER_2
100
AcDbBlockReference
  2
AIGNBL02010054
 10
0.0
 20
0.0
 30
0.0
  0
INSERT
  5
408
330
6F
100
AcDbEntity
  8
LAYER_2
100
AcDbBlockReference
  2
AIGNBL02010055
 10
0.0
 20
0.0
 30
0.0
  0
INSERT
  5
409
330
6F
100
AcDbEntity
  8
LAYER_2
100
AcDbBlockReference
  2
AIGNBL02010056
 10
0.0
 20
0.0
 30
0.0
  0
INSERT
  5
40A
330
6F
100
AcDbEntity
  8
LAYER_2
100
AcDbBlockReference
  2
AIGNBL02010057
 10
0.0
 20
0.0
 30
0.0
  0
INSERT
  5
40B
330
6F
100
AcDbEntity
  8
LAYER_2
100
AcDbBlockReference
  2
AIGNBL02010058
 10
0.0
 20
0.0
 30
0.0
  0
INSERT
  5
40C
330
6F
100
AcDbEntity
  8
LAYER_2
100
AcDbBlockReference
  2
AIGNBL02010059
 10
0.0
 20
0.0
 30
0.0
  0
LINE
  5
40D
330
6F
100
AcDbEntity
  8
LAYER_2
  6
AIGENLINE002
100
AcDbLine
 10
73.2395
 20
120.8188
 30
0.0
 11
73.2395
 21
112.3225
 31
0.0
  0
INSERT
  5
40E
330
6F
100
AcDbEntity
  8
LAYER_2
100
AcDbBlockReference
  2
AIGNBL0201005A
 10
0.0
 20
0.0
 30
0.0
  0
INSERT
  5
40F
330
6F
100
AcDbEntity
  8
LAYER_2
100
AcDbBlockReference
  2
AIGNBL0201005B
 10
0.0
 20
0.0
 30
0.0
  0
INSERT
  5
410
330
6F
100
AcDbEntity
  8
LAYER_2
100
AcDbBlockReference
  2
AIGNBL0201005C
 10
0.0
 20
0.0
 30
0.0
  0
INSERT
  5
411
330
6F
100
AcDbEntity
  8
LAYER_2
100
AcDbBlockReference
  2
AIGNBL0201005D
 10
0.0
 20
0.0
 30
0.0
  0
INSERT
  5
412
330
6F
100
AcDbEntity
  8
LAYER_2
100
AcDbBlockReference
  2
AIGNBL0201005E
 10
0.0
 20
0.0
 30
0.0
  0
ARC
  5
413
330
6F
100
AcDbEntity
  8
LAYER_2
100
AcDbCircle
 10
36.2894
 20
128.4745
 30
0.0
 40
0.35
100
AcDbArc
 50
90.00291899999999
 51
179.997081
  0
ARC
  5
414
330
6F
100
AcDbEntity
  8
LAYER_2
100
AcDbCircle
 10
36.5898
 20
116.6743
 30
0.0
 40
0.35
100
AcDbArc
 50
179.9914761
 51
269.992156
  0
LINE
  5
415
330
6F
100
AcDbEntity
  8
LAYER_2
100
AcDbLine
 10
36.2402
 20
116.6654
 30
0.0
 11
36.2291
 21
117.0898
 31
0.0
  0
LINE
  5
416
330
6F
100
AcDbEntity
  8
LAYER_2
100
AcDbLine
 10
36.2291
 20
117.0898
 30
0.0
 11
35.9398
 21
128.4655
 31
0.0
  0
INSERT
  5
417
330
6F
100
AcDbEntity
  8
LAYER_2
100
AcDbBlockReference
  2
AIGNBL0201005F
 10
0.0
 20
0.0
 30
0.0
  0
INSERT
  5
418
330
6F
100
AcDbEntity
  8
LAYER_2
100
AcDbBlockReference
  2
AIGNBL02010060
 10
0.0
 20
0.0
 30
0.0
  0
INSERT
  5
419
330
6F
100
AcDbEntity
  8
LAYER_2
100
AcDbBlockReference
  2
AIGNBL02010061
 10
0.0
 20
0.0
 30
0.0
  0
INSERT
  5
41A
330
6F
100
AcDbEntity
  8
LAYER_2
100
AcDbBlockReference
  2
AIGNBL02010062
 10
0.0
 20
0.0
 30
0.0
  0
LINE
  5
41B
330
6F
100
AcDbEntity
  8
LAYER_2
100
AcDbLine
 10
69.8894
 20
114.6245
 30
0.0
 11
69.8894
 21
115.1248
 31
0.0
  0
ARC
  5
41C
330
6F
100
AcDbEntity
  8
LAYER_2
100
AcDbCircle
 10
70.2011
 20
114.6365
 30
0.0
 40
0.3119
100
AcDbArc
 50
182.2021314
 51
267.9506063
  0
ARC
  5
41D
330
6F
100
AcDbEntity
  8
LAYER_2
100
AcDbCircle
 10
76.2898
 20
114.6245
 30
0.0
 40
0.2997
100
AcDbArc
 50
269.9878277
 51
359.9930578
  0
INSERT
  5
41E
330
6F
100
AcDbEntity
  8
LAYER_2
100
AcDbBlockReference
  2
AIGNBL02010063
 10
0.0
 20
0.0
 30
0.0
  0
INSERT
  5
41F
330
6F
100
AcDbEntity
  8
LAYER_2
100
AcDbBlockReference
  2
AIGNBL02010064
 10
0.0
 20
0.0
 30
0.0
  0
INSERT
  5
420
330
6F
100
AcDbEntity
  8
LAYER_2
100
AcDbBlockReference
  2
AIGNBL02010065
 10
0.0
 20
0.0
 30
0.0
  0
INSERT
  5
421
330
6F
100
AcDbEntity
  8
LAYER_2
100
AcDbBlockReference
  2
AIGNBL02010066
 10
0.0
 20
0.0
 30
0.0
  0
INSERT
  5
422
330
6F
100
AcDbEntity
  8
LAYER_2
100
AcDbBlockReference
  2
AIGNBL02010067
 10
0.0
 20
0.0
 30
0.0
  0
INSERT
  5
423
330
6F
100
AcDbEntity
  8
LAYER_2
100
AcDbBlockReference
  2
AIGNBL02010068
 10
0.0
 20
0.0
 30
0.0
  0
INSERT
  5
424
330
6F
100
AcDbEntity
  8
LAYER_2
100
AcDbBlockReference
  2
AIGNBL02010069
 10
0.0
 20
0.0
 30
0.0
  0
INSERT
  5
425
330
6F
100
AcDbEntity
  8
LAYER_2
100
AcDbBlockReference
  2
AIGNBL0201006A
 10
0.0
 20
0.0
 30
0.0
  0
ARC
  5
426
330
6F
100
AcDbEntity
  8
LAYER_2
100
AcDbCircle
 10
90.59
 20
128.4745
 30
0.0
 40
0.35
100
AcDbArc
 50
0.001498873311
 51
89.99850111
  0
ARC
  5
427
330
6F
100
AcDbEntity
  8
LAYER_2
100
AcDbCircle
 10
90.2896
 20
116.6743
 30
0.0
 40
0.35
100
AcDbArc
 50
270.0062374
 51
0.01013048309
  0
LINE
  5
428
330
6F
100
AcDbEntity
  8
LAYER_2
100
AcDbLine
 10
90.6396
 20
116.6654
 30
0.0
 11
90.6499
 21
117.0898
 31
0.0
  0
LINE
  5
429
330
6F
100
AcDbEntity
  8
LAYER_2
100
AcDbLine
 10
90.6499
 20
117.0898
 30
0.0
 11
90.94
 21
128.4655
 31
0.0
  0
INSERT
  5
42A
330
6F
100
AcDbEntity
  8
LAYER_2
100
AcDbBlockReference
  2
AIGNBL0201006B
 10
0.0
 20
0.0
 30
0.0
  0
INSERT
  5
42B
330
6F
100
AcDbEntity
  8
LAYER_2
100
AcDbBlockReference
  2
AIGNBL0201006C
 10
0.0
 20
0.0
 30
0.0
  0
INSERT
  5
42C
330
6F
100
AcDbEntity
  8
LAYER_2
100
AcDbBlockReference
  2
AIGNBL0201006D
 10
0.0
 20
0.0
 30
0.0
  0
INSERT
  5
42D
330
6F
100
AcDbEntity
  8
LAYER_2
100
AcDbBlockReference
  2
AIGNBL0201006E
 10
0.0
 20
0.0
 30
0.0
  0
INSERT
  5
42E
330
6F
100
AcDbEntity
  8
LAYER_2
100
AcDbBlockReference
  2
AIGNBL0201006F
 10
0.0
 20
0.0
 30
0.0
  0
LINE
  5
42F
330
6F
100
AcDbEntity
  8
LAYER_2
100
AcDbLine
 10
76.5902
 20
114.6245
 30
0.0
 11
76.5902
 21
116.3243
 31
0.0
  0
INSERT
  5
430
330
6F
100
AcDbEntity
  8
LAYER_2
100
AcDbBlockReference
  2
AIGNBL02010070
 10
0.0
 20
0.0
 30
0.0
  0
INSERT
  5
431
330
6F
100
AcDbEntity
  8
LAYER_2
100
AcDbBlockReference
  2
AIGNBL02010071
 10
0.0
 20
0.0
 30
0.0
  0
INSERT
  5
432
330
6F
100
AcDbEntity
  8
LAYER_2
100
AcDbBlockReference
  2
AIGNBL02010072
 10
0.0
 20
0.0
 30
0.0
  0
INSERT
  5
433
330
6F
100
AcDbEntity
  8
LAYER_2
100
AcDbBlockReference
  2
AIGNBL02010073
 10
0.0
 20
0.0
 30
0.0
  0
INSERT
  5
434
330
6F
100
AcDbEntity
  8
LAYER_2
100
AcDbBlockReference
  2
AIGNBL02010074
 10
0.0
 20
0.0
 30
0.0
  0
INSERT
  5
435
330
6F
100
AcDbEntity
  8
LAYER_2
100
AcDbBlockReference
  2
AIGNBL02010075
 10
0.0
 20
0.0
 30
0.0
  0
INSERT
  5
436
330
6F
100
AcDbEntity
  8
LAYER_2
100
AcDbBlockReference
  2
AIGNBL02010076
 10
0.0
 20
0.0
 30
0.0
  0
ARC
  5
437
330
6F
100
AcDbEntity
  8
LAYER_2
100
AcDbCircle
 10
59.4344
 20
119.9905
 30
0.0
 40
3.9908
100
AcDbArc
 50
246.7576156
 51
265.2198219
  0
INSERT
  5
438
330
6F
100
AcDbEntity
  8
LAYER_2
100
AcDbBlockReference
  2
AIGNBL02010077
 10
0.0
 20
0.0
 30
0.0
  0
INSERT
  5
439
330
6F
100
AcDbEntity
  8
LAYER_2
100
AcDbBlockReference
  2
AIGNBL02010078
 10
0.0
 20
0.0
 30
0.0
  0
INSERT
  5
43A
330
6F
100
AcDbEntity
  8
LAYER_2
100
AcDbBlockReference
  2
AIGNBL02010079
 10
0.0
 20
0.0
 30
0.0
  0
LINE
  5
43B
330
6F
100
AcDbEntity
  8
LAYER_2
100
AcDbLine
 10
173.3296
 20
114.3248
 30
0.0
 11
173.3296
 21
116.3243
 31
0.0
  0
LINE
  5
43C
330
6F
100
AcDbEntity
  8
LAYER_2
100
AcDbLine
 10
173.3296
 20
114.3248
 30
0.0
 11
173.3296
 21
108.8781
 31
0.0
  0
INSERT
  5
43D
330
6F
100
AcDbEntity
  8
LAYER_2
100
AcDbBlockReference
  2
AIGNBL0201007A
 10
0.0
 20
0.0
 30
0.0
  0
INSERT
  5
43E
330
6F
100
AcDbEntity
  8
LAYER_2
100
AcDbBlockReference
  2
AIGNBL0201007B
 10
0.0
 20
0.0
 30
0.0
  0
LINE
  5
43F
330
6F
100
AcDbEntity
  8
LAYER_2
  6
AIGENLINE003
100
AcDbLine
 10
96.8816
 20
113.3244
 30
0.0
 11
30.4619
 21
113.3244
 31
0.0
  0
LINE
  5
440
330
6F
100
AcDbEntity
  8
LAYER_2
  6
AIGENLINE003
100
AcDbLine
 10
96.8816
 20
116.3243
 30
0.0
 11
30.4619
 21
116.3243
 31
0.0
  0
LINE
  5
441
330
6F
100
AcDbEntity
  8
LAYER_2
  6
AIGENLINE002
100
AcDbLine
 10
85.9398
 20
117.6342
 30
0.0
 11
85.9398
 21
108.6741
 31
0.0
  0
LINE
  5
442
330
6F
100
AcDbEntity
  8
LAYER_2
100
AcDbLine
 10
85.5395
 20
111.524
 30
0.0
 11
85.5395
 21
109.7242
 31
0.0
  0
LINE
  5
443
330
6F
100
AcDbEntity
  8
LAYER_2
100
AcDbLine
 10
85.5395
 20
109.7242
 30
0.0
 11
85.9398
 21
109.7242
 31
0.0
  0
LINE
  5
444
330
6F
100
AcDbEntity
  8
LAYER_2
100
AcDbLine
 10
85.5395
 20
116.3243
 30
0.0
 11
85.5395
 21
113.3244
 31
0.0
  0
LINE
  5
445
330
6F
100
AcDbEntity
  8
LAYER_2
100
AcDbLine
 10
84.3399
 20
113.3244
 30
0.0
 11
85.9398
 21
113.3244
 31
0.0
  0
LINE
  5
446
330
6F
100
AcDbEntity
  8
LAYER_2
100
AcDbLine
 10
85.6397
 20
111.524
 30
0.0
 11
85.9398
 21
111.524
 31
0.0
  0
LINE
  5
447
330
6F
100
AcDbEntity
  8
LAYER_2
100
AcDbLine
 10
85.3397
 20
111.524
 30
0.0
 11
85.6397
 21
111.524
 31
0.0
  0
LINE
  5
448
330
6F
100
AcDbEntity
  8
LAYER_2
100
AcDbLine
 10
84.3399
 20
113.3244
 30
0.0
 11
84.3895
 21
112.924
 31
0.0
  0
LINE
  5
449
330
6F
100
AcDbEntity
  8
LAYER_2
100
AcDbLine
 10
85.6397
 20
111.524
 30
0.0
 11
85.5429
 21
112.8779
 31
0.0
  0
LINE
  5
44A
330
6F
100
AcDbEntity
  8
LAYER_2
100
AcDbLine
 10
85.3397
 20
111.524
 30
0.0
 11
85.2914
 21
112.8758
 31
0.0
  0
LINE
  5
44B
330
6F
100
AcDbEntity
  8
LAYER_2
100
AcDbLine
 10
85.2415
 20
112.924
 30
0.0
 11
85.4933
 21
112.924
 31
0.0
  0
LINE
  5
44C
330
6F
100
AcDbEntity
  8
LAYER_2
100
AcDbLine
 10
84.3895
 20
112.924
 30
0.0
 11
85.2415
 21
112.924
 31
0.0
  0
ARC
  5
44D
330
6F
100
AcDbEntity
  8
LAYER_2
  6
AIGENLINE002
100
AcDbCircle
 10
85.4921
 20
112.873
 30
0.0
 40
0.051
100
AcDbArc
 50
5.537191944000001
 51
88.65185488
  0
ARC
  5
44E
330
6F
100
AcDbEntity
  8
LAYER_2
100
AcDbCircle
 10
85.2397
 20
112.8723
 30
0.0
 40
0.0518
100
AcDbArc
 50
3.929407022
 51
88.05618067
  0
LINE
  5
44F
330
6F
100
AcDbEntity
  8
LAYER_2
100
AcDbLine
 10
86.3394
 20
111.524
 30
0.0
 11
86.3394
 21
109.7242
 31
0.0
  0
LINE
  5
450
330
6F
100
AcDbEntity
  8
LAYER_2
100
AcDbLine
 10
86.3394
 20
109.7242
 30
0.0
 11
85.9398
 21
109.7242
 31
0.0
  0
LINE
  5
451
330
6F
100
AcDbEntity
  8
LAYER_2
100
AcDbLine
 10
86.3394
 20
116.3243
 30
0.0
 11
86.3394
 21
113.3244
 31
0.0
  0
LINE
  5
452
330
6F
100
AcDbEntity
  8
LAYER_2
100
AcDbLine
 10
87.5397
 20
113.3244
 30
0.0
 11
85.9398
 21
113.3244
 31
0.0
  0
LINE
  5
453
330
6F
100
AcDbEntity
  8
LAYER_2
100
AcDbLine
 10
86.2395
 20
111.524
 30
0.0
 11
85.9398
 21
111.524
 31
0.0
  0
LINE
  5
454
330
6F
100
AcDbEntity
  8
LAYER_2
100
AcDbLine
 10
86.5396
 20
111.524
 30
0.0
 11
86.2395
 21
111.524
 31
0.0
  0
LINE
  5
455
330
6F
100
AcDbEntity
  8
LAYER_2
100
AcDbLine
 10
87.5397
 20
113.3244
 30
0.0
 11
87.4897
 21
112.924
 31
0.0
  0
LINE
  5
456
330
6F
100
AcDbEntity
  8
LAYER_2
100
AcDbLine
 10
86.2395
 20
111.524
 30
0.0
 11
86.3363
 21
112.8779
 31
0.0
  0
LINE
  5
457
330
6F
100
AcDbEntity
  8
LAYER_2
100
AcDbLine
 10
86.5396
 20
111.524
 30
0.0
 11
86.5882
 21
112.8758
 31
0.0
  0
LINE
  5
458
330
6F
100
AcDbEntity
  8
LAYER_2
100
AcDbLine
 10
86.6378
 20
112.924
 30
0.0
 11
86.3863
 21
112.924
 31
0.0
  0
LINE
  5
459
330
6F
100
AcDbEntity
  8
LAYER_2
100
AcDbLine
 10
87.4897
 20
112.924
 30
0.0
 11
86.6378
 21
112.924
 31
0.0
  0
ARC
  5
45A
330
6F
100
AcDbEntity
  8
LAYER_2
  6
AIGENLINE002
100
AcDbCircle
 10
86.3873
 20
112.8728
 30
0.0
 40
0.0512
100
AcDbArc
 50
91.10813328
 51
174.2439793
  0
ARC
  5
45B
330
6F
100
AcDbEntity
  8
LAYER_2
100
AcDbCircle
 10
86.6393
 20
112.8728
 30
0.0
 40
0.0512
100
AcDbArc
 50
91.67331589000001
 51
176.6864261
  0
LINE
  5
45C
330
6F
100
AcDbEntity
  8
LAYER_2
  6
AIGENLINE002
100
AcDbLine
 10
39.6398
 20
117.6342
 30
0.0
 11
39.6398
 21
108.6741
 31
0.0
  0
LINE
  5
45D
330
6F
100
AcDbEntity
  8
LAYER_2
100
AcDbLine
 10
39.2395
 20
111.524
 30
0.0
 11
39.2395
 21
109.7242
 31
0.0
  0
LINE
  5
45E
330
6F
100
AcDbEntity
  8
LAYER_2
100
AcDbLine
 10
39.2395
 20
109.7242
 30
0.0
 11
39.6398
 21
109.7242
 31
0.0
  0
LINE
  5
45F
330
6F
100
AcDbEntity
  8
LAYER_2
100
AcDbLine
 10
39.2395
 20
116.3243
 30
0.0
 11
39.2395
 21
113.3244
 31
0.0
  0
LINE
  5
460
330
6F
100
AcDbEntity
  8
LAYER_2
100
AcDbLine
 10
38.0399
 20
113.3244
 30
0.0
 11
39.6398
 21
113.3244
 31
0.0
  0
LINE
  5
461
330
6F
100
AcDbEntity
  8
LAYER_2
100
AcDbLine
 10
39.3397
 20
111.524
 30
0.0
 11
39.6398
 21
111.524
 31
0.0
  0
LINE
  5
462
330
6F
100
AcDbEntity
  8
LAYER_2
100
AcDbLine
 10
39.0397
 20
111.524
 30
0.0
 11
39.3397
 21
111.524
 31
0.0
  0
LINE
  5
463
330
6F
100
AcDbEntity
  8
LAYER_2
100
AcDbLine
 10
38.0399
 20
113.3244
 30
0.0
 11
38.0895
 21
112.924
 31
0.0
  0
LINE
  5
464
330
6F
100
AcDbEntity
  8
LAYER_2
100
AcDbLine
 10
39.3397
 20
111.524
 30
0.0
 11
39.2429
 21
112.8779
 31
0.0
  0
LINE
  5
465
330
6F
100
AcDbEntity
  8
LAYER_2
100
AcDbLine
 10
39.0397
 20
111.524
 30
0.0
 11
38.9914
 21
112.8758
 31
0.0
  0
LINE
  5
466
330
6F
100
AcDbEntity
  8
LAYER_2
100
AcDbLine
 10
38.9415
 20
112.924
 30
0.0
 11
39.1933
 21
112.924
 31
0.0
  0
LINE
  5
467
330
6F
100
AcDbEntity
  8
LAYER_2
100
AcDbLine
 10
38.0895
 20
112.924
 30
0.0
 11
38.9415
 21
112.924
 31
0.0
  0
ARC
  5
468
330
6F
100
AcDbEntity
  8
LAYER_2
  6
AIGENLINE002
100
AcDbCircle
 10
39.1921
 20
112.873
 30
0.0
 40
0.051
100
AcDbArc
 50
5.537191944000001
 51
88.65185488
  0
ARC
  5
469
330
6F
100
AcDbEntity
  8
LAYER_2
100
AcDbCircle
 10
38.9397
 20
112.8723
 30
0.0
 40
0.0518
100
AcDbArc
 50
3.929407022
 51
88.05618067
  0
LINE
  5
46A
330
6F
100
AcDbEntity
  8
LAYER_2
100
AcDbLine
 10
40.0394
 20
111.524
 30
0.0
 11
40.0394
 21
109.7242
 31
0.0
  0
LINE
  5
46B
330
6F
100
AcDbEntity
  8
LAYER_2
100
AcDbLine
 10
40.0394
 20
109.7242
 30
0.0
 11
39.6398
 21
109.7242
 31
0.0
  0
LINE
  5
46C
330
6F
100
AcDbEntity
  8
LAYER_2
100
AcDbLine
 10
40.0394
 20
116.3243
 30
0.0
 11
40.0394
 21
113.3244
 31
0.0
  0
LINE
  5
46D
330
6F
100
AcDbEntity
  8
LAYER_2
100
AcDbLine
 10
41.2397
 20
113.3244
 30
0.0
 11
39.6398
 21
113.3244
 31
0.0
  0
LINE
  5
46E
330
6F
100
AcDbEntity
  8
LAYER_2
100
AcDbLine
 10
39.9395
 20
111.524
 30
0.0
 11
39.6398
 21
111.524
 31
0.0
  0
LINE
  5
46F
330
6F
100
AcDbEntity
  8
LAYER_2
100
AcDbLine
 10
40.2396
 20
111.524
 30
0.0
 11
39.9395
 21
111.524
 31
0.0
  0
LINE
  5
470
330
6F
100
AcDbEntity
  8
LAYER_2
100
AcDbLine
 10
41.2397
 20
113.3244
 30
0.0
 11
41.1897
 21
112.924
 31
0.0
  0
LINE
  5
471
330
6F
100
AcDbEntity
  8
LAYER_2
100
AcDbLine
 10
39.9395
 20
111.524
 30
0.0
 11
40.0363
 21
112.8779
 31
0.0
  0
LINE
  5
472
330
6F
100
AcDbEntity
  8
LAYER_2
100
AcDbLine
 10
40.2396
 20
111.524
 30
0.0
 11
40.2881
 21
112.8758
 31
0.0
  0
LINE
  5
473
330
6F
100
AcDbEntity
  8
LAYER_2
100
AcDbLine
 10
40.3378
 20
112.924
 30
0.0
 11
40.0863
 21
112.924
 31
0.0
  0
LINE
  5
474
330
6F
100
AcDbEntity
  8
LAYER_2
100
AcDbLine
 10
41.1897
 20
112.924
 30
0.0
 11
40.3378
 21
112.924
 31
0.0
  0
ARC
  5
475
330
6F
100
AcDbEntity
  8
LAYER_2
  6
AIGENLINE002
100
AcDbCircle
 10
40.0873
 20
112.8728
 30
0.0
 40
0.0512
100
AcDbArc
 50
91.10813328
 51
174.2439793
  0
ARC
  5
476
330
6F
100
AcDbEntity
  8
LAYER_2
100
AcDbCircle
 10
40.3394
 20
112.8727
 30
0.0
 40
0.0514
100
AcDbArc
 50
91.74306669
 51
176.5013266
  0
LINE
  5
477
330
6F
100
AcDbEntity
  8
LAYER_2
100
AcDbLine
 10
146.9271
 20
116.3243
 30
0.0
 11
146.9271
 21
113.3244
 31
0.0
  0
LINE
  5
478
330
6F
100
AcDbEntity
  8
LAYER_2
100
AcDbLine
 10
146.9271
 20
111.524
 30
0.0
 11
146.9271
 21
109.7242
 31
0.0
  0
LINE
  5
479
330
6F
100
AcDbEntity
  8
LAYER_2
100
AcDbLine
 10
146.5268
 20
109.7242
 30
0.0
 11
146.9271
 21
109.7242
 31
0.0
  0
LINE
  5
47A
330
6F
100
AcDbEntity
  8
LAYER_2
100
AcDbLine
 10
148.1267
 20
113.3244
 30
0.0
 11
146.5268
 21
113.3244
 31
0.0
  0
LINE
  5
47B
330
6F
100
AcDbEntity
  8
LAYER_2
100
AcDbLine
 10
148.1157
 20
112.924
 30
0.0
 11
146.5268
 21
112.924
 31
0.0
  0
LINE
  5
47C
330
6F
100
AcDbEntity
  8
LAYER_2
100
AcDbLine
 10
148.0771
 20
111.524
 30
0.0
 11
146.5268
 21
111.524
 31
0.0
  0
LINE
  5
47D
330
6F
100
AcDbEntity
  8
LAYER_2
100
AcDbLine
 10
148.1267
 20
113.3244
 30
0.0
 11
148.0771
 21
111.524
 31
0.0
  0
LINE
  5
47E
330
6F
100
AcDbEntity
  8
LAYER_2
100
AcDbLine
 10
146.1272
 20
116.3243
 30
0.0
 11
146.1272
 21
113.3244
 31
0.0
  0
LINE
  5
47F
330
6F
100
AcDbEntity
  8
LAYER_2
100
AcDbLine
 10
146.1272
 20
111.524
 30
0.0
 11
146.1272
 21
109.7242
 31
0.0
  0
LINE
  5
480
330
6F
100
AcDbEntity
  8
LAYER_2
100
AcDbLine
 10
146.5268
 20
109.7242
 30
0.0
 11
146.1272
 21
109.7242
 31
0.0
  0
LINE
  5
481
330
6F
100
AcDbEntity
  8
LAYER_2
100
AcDbLine
 10
144.9269
 20
113.3244
 30
0.0
 11
146.5268
 21
113.3244
 31
0.0
  0
LINE
  5
482
330
6F
100
AcDbEntity
  8
LAYER_2
100
AcDbLine
 10
144.9379
 20
112.924
 30
0.0
 11
146.5268
 21
112.924
 31
0.0
  0
LINE
  5
483
330
6F
100
AcDbEntity
  8
LAYER_2
100
AcDbLine
 10
144.9772
 20
111.524
 30
0.0
 11
146.5268
 21
111.524
 31
0.0
  0
LINE
  5
484
330
6F
100
AcDbEntity
  8
LAYER_2
100
AcDbLine
 10
144.9269
 20
113.3244
 30
0.0
 11
144.9772
 21
111.524
 31
0.0
  0
INSERT
  5
485
330
6F
100
AcDbEntity
  8
LAYER_2
100
AcDbBlockReference
  2
AIGNBL0201007C
 10
0.0
 20
0.0
 30
0.0
  0
INSERT
  5
486
330
6F
100
AcDbEntity
  8
LAYER_2
100
AcDbBlockReference
  2
AIGNBL0201007D
 10
0.0
 20
0.0
 30
0.0
  0
INSERT
  5
487
330
6F
100
AcDbEntity
  8
LAYER_2
100
AcDbBlockReference
  2
AIGNBL0201007F
 10
0.0
 20
0.0
 30
0.0
  0
INSERT
  5
488
330
6F
100
AcDbEntity
  8
LAYER_2
100
AcDbBlockReference
  2
AIGNBL02010080
 10
0.0
 20
0.0
 30
0.0
  0
LINE
  5
489
330
6F
100
AcDbEntity
  8
LAYER_3
100
AcDbLine
 10
21.9883
 20
57.4277
 30
0.0
 11
188.4887
 21
57.4277
 31
0.0
  0
LINE
  5
48A
330
6F
100
AcDbEntity
  8
LAYER_3
100
AcDbLine
 10
108.4881
 20
37.4275
 30
0.0
 11
188.4887
 21
37.4275
 31
0.0
  0
LINE
  5
48B
330
6F
100
AcDbEntity
  8
LAYER_3
100
AcDbLine
 10
21.9883
 20
44.9282
 30
0.0
 11
108.4881
 21
44.9282
 31
0.0
  0
LINE
  5
48C
330
6F
100
AcDbEntity
  8
LAYER_3
100
AcDbLine
 10
21.9883
 20
30.928
 30
0.0
 11
108.4881
 21
30.928
 31
0.0
  0
LINE
  5
48D
330
6F
100
AcDbEntity
  8
LAYER_3
100
AcDbLine
 10
33.4881
 20
30.928
 30
0.0
 11
33.4881
 21
44.9282
 31
0.0
  0
LINE
  5
48E
330
6F
100
AcDbEntity
  8
LAYER_3
100
AcDbLine
 10
108.4881
 20
17.428
 30
0.0
 11
108.4881
 21
57.4277
 31
0.0
  0
LINE
  5
48F
330
6F
100
AcDbEntity
  8
LAYER_3
100
AcDbLine
 10
89.4881
 20
30.928
 30
0.0
 11
89.4881
 21
57.4277
 31
0.0
  0
LINE
  5
490
330
6F
100
AcDbEntity
  8
LAYER_3
100
AcDbLine
 10
70.488
 20
30.928
 30
0.0
 11
70.488
 21
57.4277
 31
0.0
  0
LINE
  5
491
330
6F
100
AcDbEntity
  8
LAYER_3
100
AcDbLine
 10
188.4887
 20
17.428
 30
0.0
 11
21.9883
 21
17.428
 31
0.0
  0
LINE
  5
492
330
6F
100
AcDbEntity
  8
LAYER_3
100
AcDbLine
 10
21.9883
 20
17.428
 30
0.0
 11
21.9883
 21
280.4283
 31
0.0
  0
LINE
  5
493
330
6F
100
AcDbEntity
  8
LAYER_3
100
AcDbLine
 10
21.9883
 20
280.4283
 30
0.0
 11
188.4887
 21
280.4283
 31
0.0
  0
LINE
  5
494
330
6F
100
AcDbEntity
  8
LAYER_3
100
AcDbLine
 10
188.4887
 20
280.4283
 30
0.0
 11
188.4887
 21
17.428
 31
0.0
  0
TEXT
  5
495
330
6F
100
AcDbEntity
  8
LAYER_3
100
AcDbText
 10
31.17028499999999
 20
49.4557
 30
0.0
 40
4.4979
  1
セラトレーディング株式会社
 41
0.5
 72
     1
 11
48.4872
 21
49.4557
 31
0.0
100
AcDbText
  0
TEXT
  5
496
330
6F
100
AcDbEntity
  8
LAYER_3
100
AcDbText
 10
22.9598
 20
40.9298
 30
0.0
 40
3.0923
  1
製図
 41
0.5
100
AcDbText
  0
TEXT
  5
497
330
6F
100
AcDbEntity
  8
LAYER_3
100
AcDbText
 10
22.9598
 20
26.7305
 30
0.0
 40
3.0923
  1
備考
 41
0.5
100
AcDbText
  0
TEXT
  5
498
330
6F
100
AcDbEntity
  8
LAYER_3
100
AcDbText
 10
34.5781
 20
40.9298
 30
0.0
 40
3.0923
  1
検図
 41
0.5
100
AcDbText
  0
TEXT
  5
499
330
6F
100
AcDbEntity
  8
LAYER_3
100
AcDbText
 10
71.5316
 20
40.9298
 30
0.0
 40
3.0923
  1
日付
 41
0.5
100
AcDbText
  0
TEXT
  5
49A
330
6F
100
AcDbEntity
  8
LAYER_3
100
AcDbText
 10
72.7239
 20
34.7369
 30
0.0
 40
3.6546
  1
22.07.26
 41
0.5
100
AcDbText
  0
TEXT
  5
49B
330
6F
100
AcDbEntity
  8
LAYER_3
100
AcDbText
 10
25.72878
 20
35.1221
 30
0.0
 40
3.6546
  1
木場
 41
0.5
 72
     1
 11
27.6779
 21
35.1221
 31
0.0
100
AcDbText
  0
TEXT
  5
49C
330
6F
100
AcDbEntity
  8
LAYER_3
100
AcDbText
 10
44.36389
 20
35.1221
 30
0.0
 40
3.6546
  1
井田
 41
0.5
 72
     1
 11
46.2521
 21
35.1221
 31
0.0
100
AcDbText
  0
TEXT
  5
49D
330
6F
100
AcDbEntity
  8
LAYER_3
100
AcDbText
 10
114.1167
 20
45.7447
 30
0.0
 40
3.9357
  1
バル　洗面器
 41
0.5
100
AcDbText
  0
TEXT
  5
49E
330
6F
100
AcDbEntity
  8
LAYER_3
100
AcDbText
 10
29.5255
 20
22.2264
 30
0.0
 40
3.9357
  1
実容量：4.8L、重量：9.5kg、オーバーフロー付
 41
0.5
100
AcDbText
  0
TEXT
  5
49F
330
6F
100
AcDbEntity
  8
LAYER_3
100
AcDbText
 10
141.27235
 20
20.6265
 30
0.0
 40
3.9357
  1
AU12282R
 41
0.5
 72
     1
 11
148.4878
 21
20.6265
 31
0.0
100
AcDbText
  0
TEXT
  5
4A0
330
6F
100
AcDbEntity
  8
LAYER_3
100
AcDbText
 10
141.27235
 20
30.6269
 30
0.0
 40
3.9357
  1
AU12282R
 41
0.5
 72
     1
 11
148.4878
 21
30.6269
 31
0.0
100
AcDbText
  0
TEXT
  5
4A1
330
6F
100
AcDbEntity
  8
LAYER_3
100
AcDbText
 10
95.030215
 20
34.7369
 30
0.0
 40
3.6546
  1
1 ： 10
 41
0.5
 72
     1
 11
98.898
 21
34.7369
 31
0.0
100
AcDbText
  0
TEXT
  5
4A2
330
6F
100
AcDbEntity
  8
LAYER_3
100
AcDbText
 10
90.5816
 20
40.9298
 30
0.0
 40
3.0923
  1
尺度
 41
0.5
100
AcDbText
  0
TEXT
  5
4A3
330
6F
100
AcDbEntity
  8
LAYER_3
100
AcDbText
 10
90.5816
 20
53.337
 30
0.0
 40
3.0923
  1
単位
 41
0.5
100
AcDbText
  0
TEXT
  5
4A4
330
6F
100
AcDbEntity
  8
LAYER_3
100
AcDbText
 10
96.78335
 20
48.3409
 30
0.0
 40
3.6546
  1
mm
 41
0.5
 72
     1
 11
98.3061
 21
48.3409
 31
0.0
100
AcDbText
  0
TEXT
  5
4A5
330
6F
100
AcDbEntity
  8
LAYER_3
100
AcDbText
 10
109.543
 20
53.337
 30
0.0
 40
3.0923
  1
名称
 41
0.5
100
AcDbText
  0
TEXT
  5
4A6
330
6F
100
AcDbEntity
  8
LAYER_3
100
AcDbText
 10
109.543
 20
33.1983
 30
0.0
 40
3.0923
  1
品番
 41
0.5
100
AcDbText
  0
LINE
  5
4A7
330
6F
100
AcDbEntity
  8
LAYER_3
100
AcDbLine
 10
108.4881
 20
27.4278
 30
0.0
 11
188.4887
 21
27.4278
 31
0.0
  0
TEXT
  5
4A8
330
6F
100
AcDbEntity
  8
LAYER_3
100
AcDbText
 10
109.543
 20
23.1986
 30
0.0
 40
3.0923
  1
図番
 41
0.5
100
AcDbText
  0
INSERT
  5
4A9
330
6F
100
AcDbEntity
  8
LAYER_3
100
AcDbBlockReference
  2
AIGNBL03010002
 10
0.0
 20
0.0
 30
0.0
  0
LINE
  5
4AA
330
6F
100
AcDbEntity
  8
LAYER_3
100
AcDbLine
 10
21.9883
 20
148.9296
 30
0.0
 11
0.2384
 21
148.9296
 31
0.0
  0
LINE
  5
4AB
330
6F
100
AcDbEntity
  8
LAYER_3
100
AcDbLine
 10
105.2382
 20
297.4482
 30
0.0
 11
105.2382
 21
280.4283
 31
0.0
  0
LINE
  5
4AC
330
6F
100
AcDbEntity
  8
LAYER_3
100
AcDbLine
 10
105.2382
 20
17.428
 30
0.0
 11
105.2382
 21
0.4479
 31
0.0
  0
LINE
  5
4AD
330
6F
100
AcDbEntity
  8
LAYER_3
100
AcDbLine
 10
210.2383
 20
148.9296
 30
0.0
 11
188.4881
 21
148.9296
 31
0.0
  0
TEXT
  5
4AE
330
6F
100
AcDbEntity
  8
LAYER_3
100
AcDbText
 10
25.7941
 20
61.2138
 30
0.0
 40
4.2168
  1
※40%%d範囲内には、ポップアップ引棒付水栓・引棒部は設置できません。
 41
0.5
100
AcDbText
  0
TEXT
  5
4AF
330
6F
100
AcDbEntity
  8
LAYER_3
100
AcDbText
 10
25.7941
 20
67.4291
 30
0.0
 40
4.2168
  1
※（　）内寸法は参考寸法です。
 41
0.5
100
AcDbText
  0
TEXT
  5
4B0
330
6F
100
AcDbEntity
  8
LAYER_3
100
AcDbText
 10
25.7941
 20
73.6444
 30
0.0
 40
4.2168
  1
※カウンター取付金具（2本）付
 41
0.5
100
AcDbText
  0
ENDSEC
  0
SECTION
  2
OBJECTS
  0
DICTIONARY
  5
C
330
0
100
AcDbDictionary
281
     1
  3
ACAD_CIP_PREVIOUS_PRODUCT_INFO
350
4B2
  3
ACAD_COLOR
350
62
  3
ACAD_DETAILVIEWSTYLE
350
69
  3
ACAD_GROUP
350
D
  3
ACAD_LAYOUT
350
61
  3
ACAD_MATERIAL
350
10
  3
ACAD_MLEADERSTYLE
350
65
  3
ACAD_MLINESTYLE
350
5E
  3
ACAD_PLOTSETTINGS
350
60
  3
ACAD_PLOTSTYLENAME
350
E
  3
ACAD_SCALELIST
350
42
  3
ACAD_SECTIONVIEWSTYLE
350
67
  3
ACAD_TABLESTYLE
350
63
  3
ACAD_VISUALSTYLE
350
29
  3
ACDBHEADERROUNDTRIPXREC
350
50E
  3
AcDbVariableDictionary
350
502
  3
DWGPROPS
350
511
  0
DICTIONARY
  5
512
330
8
100
AcDbDictionary
280
     1
281
     1
  3
ACAD_XREC_ROUNDTRIP
360
513
  0
DICTIONARY
  5
4B4
330
54
100
AcDbDictionary
280
     1
281
     1
  3
ADSK_XREC_LAYER_RECONCILED
360
4B5
  0
DICTIONARY
  5
4B6
330
76
100
AcDbDictionary
280
     1
281
     1
  3
ADSK_XREC_LAYER_RECONCILED
360
4B7
  0
DICTIONARY
  5
4B8
330
77
100
AcDbDictionary
280
     1
281
     1
  3
ADSK_XREC_LAYER_RECONCILED
360
4B9
  0
DICTIONARY
  5
4BA
330
78
100
AcDbDictionary
280
     1
281
     1
  3
ADSK_XREC_LAYER_RECONCILED
360
4BB
  0
DICTIONARY
  5
4BC
330
4B3
100
AcDbDictionary
280
     1
281
     1
  3
ADSK_XREC_LAYER_RECONCILED
360
4BD
  0
XRECORD
  5
4B2
102
{ACAD_REACTORS
330
C
102
}
330
C
100
AcDbXrecord
280
     1
300
ACD
300
2020
300

  0
DICTIONARY
  5
62
102
{ACAD_REACTORS
330
C
102
}
330
C
100
AcDbDictionary
281
     1
  0
DICTIONARY
  5
69
102
{ACAD_REACTORS
330
C
102
}
330
C
100
AcDbDictionary
281
     1
  3
Imperial24
350
6A
  0
DICTIONARY
  5
D
102
{ACAD_REACTORS
330
C
102
}
330
C
100
AcDbDictionary
281
     1
  0
DICTIONARY
  5
61
102
{ACAD_REACTORS
330
C
102
}
330
C
100
AcDbDictionary
281
     1
  3
Model
350
72
  3
レイアウト1
350
6E
  0
DICTIONARY
  5
10
102
{ACAD_REACTORS
330
C
102
}
330
C
100
AcDbDictionary
281
     1
  3
ByBlock
350
19
  3
ByLayer
350
11
  3
Global
350
21
  0
DICTIONARY
  5
65
102
{ACAD_REACTORS
330
C
102
}
330
C
100
AcDbDictionary
281
     1
  3
Standard
350
66
  0
DICTIONARY
  5
5E
102
{ACAD_REACTORS
330
C
102
}
330
C
100
AcDbDictionary
281
     1
  3
Standard
350
5F
  0
DICTIONARY
  5
60
102
{ACAD_REACTORS
330
C
102
}
330
C
100
AcDbDictionary
281
     1
  0
ACDBDICTIONARYWDFLT
  5
E
102
{ACAD_REACTORS
330
C
102
}
330
C
100
AcDbDictionary
281
     1
  3
Normal
350
F
100
AcDbDictionaryWithDefault
340
F
  0
DICTIONARY
  5
42
102
{ACAD_REACTORS
330
C
102
}
330
C
100
AcDbDictionary
281
     1
  3
A0
350
43
  3
A1
350
44
  3
A2
350
45
  3
A3
350
46
  3
A4
350
47
  3
A5
350
48
  3
A6
350
49
  3
A7
350
4A
  3
A8
350
4B
  3
A9
350
4C
  3
B0
350
4D
  3
B1
350
4E
  3
B2
350
4F
  3
B3
350
50
  3
B4
350
51
  3
B5
350
52
  3
B6
350
53
  0
DICTIONARY
  5
67
102
{ACAD_REACTORS
330
C
102
}
330
C
100
AcDbDictionary
281
     1
  3
Imperial24
350
68
  0
DICTIONARY
  5
63
102
{ACAD_REACTORS
330
C
102
}
330
C
100
AcDbDictionary
281
     1
  3
Standard
350
64
  0
DICTIONARY
  5
29
102
{ACAD_REACTORS
330
C
102
}
330
C
100
AcDbDictionary
281
     1
  3
2dWireframe
350
2F
  3
Basic
350
2E
  3
Brighten
350
35
  3
ColorChange
350
39
  3
Conceptual
350
32
  3
Dim
350
34
  3
EdgeColorOff
350
41
  3
Facepattern
350
38
  3
Flat
350
2A
  3
FlatWithEdges
350
2B
  3
Gouraud
350
2C
  3
GouraudWithEdges
350
2D
  3
Hidden
350
31
  3
JitterOff
350
3F
  3
Linepattern
350
37
  3
OverhangOff
350
40
  3
Realistic
350
33
  3
Shaded
350
3E
  3
Shaded with edges
350
3D
  3
Shades of Gray
350
3A
  3
Sketchy
350
3B
  3
Thicken
350
36
  3
Wireframe
350
30
  3
X-Ray
350
3C
  0
DICTIONARY
  5
50E
102
{ACAD_REACTORS
330
C
102
}
330
C
100
AcDbDictionary
281
     1
  3
COLORDICT
350
50F
  3
MATERIALDICT
350
510
  0
DICTIONARY
  5
502
102
{ACAD_REACTORS
330
C
102
}
330
C
100
AcDbDictionary
281
     1
  3
CANNOSCALE
350
514
  3
CMLEADERSTYLE
350
504
  3
CTABLESTYLE
350
503
  3
CVIEWDETAILSTYLE
350
505
  3
CVIEWSECTIONSTYLE
350
506
  3
DIMASSOC
350
50A
  3
HIDETEXT
350
50D
  3
INDEXCTL
350
509
  3
MSLTSCALE
350
50C
  3
SORTENTS
350
508
  3
XCLIPFRAME
350
50B
  0
XRECORD
  5
511
102
{ACAD_REACTORS
330
C
102
}
330
C
100
AcDbXrecord
280
     1
  1
DWGPROPS COOKIE
  2

  3

  4

  6

  7

  8
SYSTEM
  9

300
=
301
=
302
=
303
=
304
=
305
=
306
=
307
=
308
=
309
=
 40
0.0
 41
2459787.236469907
 42
2459916.342432824
  1

 90
        0
  0
XRECORD
  5
513
102
{ACAD_REACTORS
330
512
102
}
330
512
100
AcDbXrecord
280
     1
102
VTR_0.000_0.000_1.000_1.000_VISUALSTYLE
340
2F
102
VTR_0.000_0.000_1.000_1.000_GRIDDISPLAY
 70
     3
102
VTR_0.000_0.000_1.000_1.000_GRIDMAJOR
 70
     5
102
VTR_0.000_0.000_1.000_1.000_DEFAULTLIGHTING
280
     1
102
VTR_0.000_0.000_1.000_1.000_DEFAULTLIGHTINGTYPE
 70
     1
102
VTR_0.000_0.000_1.000_1.000_BRIGHTNESS
141
0.0
102
VTR_0.000_0.000_1.000_1.000_CONTRAST
142
0.0
  0
XRECORD
  5
4B5
102
{ACAD_REACTORS
330
4B4
102
}
330
4B4
100
AcDbXrecord
280
     1
290
     1
  0
XRECORD
  5
4B7
102
{ACAD_REACTORS
330
4B6
102
}
330
4B6
100
AcDbXrecord
280
     1
290
     1
  0
XRECORD
  5
4B9
102
{ACAD_REACTORS
330
4B8
102
}
330
4B8
100
AcDbXrecord
280
     1
290
     1
  0
XRECORD
  5
4BB
102
{ACAD_REACTORS
330
4BA
102
}
330
4BA
100
AcDbXrecord
280
     1
290
     1
  0
XRECORD
  5
4BD
102
{ACAD_REACTORS
330
4BC
102
}
330
4BC
100
AcDbXrecord
280
     1
290
     1
  0
ACDBDETAILVIEWSTYLE
  5
6A
102
{ACAD_REACTORS
330
69
102
}
102
{ACAD_XDICTIONARY
360
4FC
102
}
330
69
100
AcDbModelDocViewStyle
 70
     0
  3
Imperial24
290
     0
100
AcDbDetailViewStyle
 70
     0
 71
     0
 90
        3
 71
     1
340
55
 40
0.24
340
0
 40
0.24
300

 40
0.36
280
     3
 71
     2
340
5C
 90
       25
 71
     3
340
55
 40
0.24
 90
        1
 40
0.75
 90
        1
300
%<\AcVar ViewType \f "%tc1">% %<\AcVar ViewDetailId>%\PSCALE %<\AcVar ViewScale \f "%sn">%
 71
     4
340
5C
 90
       25
340
5C
 90
       25
280
     0
  0
LAYOUT
  5
72
102
{ACAD_REACTORS
330
61
102
}
330
61
100
AcDbPlotSettings
  1

  2
RICOH IM C3500 JPN RPCS
  4

  6

 40
0.0
 41
0.0
 42
0.0
 43
0.0
 44
0.0
 45
0.0
 46
0.0
 47
0.0
 48
0.0
 49
0.0
140
0.0
141
0.0
142
1.0
143
1.0
 70
  1712
 72
     0
 73
     0
 74
     0
  7

 75
     0
147
1.0
148
0.0
149
0.0
100
AcDbLayout
  1
Model
 70
     1
 71
     0
 10
0.0
 20
0.0
 11
12.0
 21
9.0
 12
0.0
 22
0.0
 32
0.0
 14
0.0
 24
0.0
 34
0.0
 15
0.0
 25
0.0
 35
0.0
146
0.0
 13
0.0
 23
0.0
 33
0.0
 16
1.0
 26
0.0
 36
0.0
 17
0.0
 27
1.0
 37
0.0
 76
     0
330
6F
331
7B
  0
LAYOUT
  5
6E
102
{ACAD_REACTORS
330
61
102
}
330
61
100
AcDbPlotSettings
  1

  2
RICOH IM C3500 JPN RPCS
  4

  6

 40
0.0
 41
0.0
 42
0.0
 43
0.0
 44
0.0
 45
0.0
 46
0.0
 47
0.0
 48
0.0
 49
0.0
140
0.0
141
0.0
142
1.0
143
1.0
 70
   688
 72
     0
 73
     0
 74
     5
  7

 75
    16
147
1.0
148
0.0
149
0.0
100
AcDbLayout
  1
レイアウト1
 70
     1
 71
     1
 10
0.0
 20
0.0
 11
12.0
 21
9.0
 12
0.0
 22
0.0
 32
0.0
 14
1.000000000000000E+20
 24
1.000000000000000E+20
 34
1.000000000000000E+20
 15
-1.000000000000000E+20
 25
-1.000000000000000E+20
 35
-1.000000000000000E+20
146
0.0
 13
0.0
 23
0.0
 33
0.0
 16
1.0
 26
0.0
 36
0.0
 17
0.0
 27
1.0
 37
0.0
 76
     0
330
6B
  0
MATERIAL
  5
19
102
{ACAD_REACTORS
330
10
102
}
102
{ACAD_XDICTIONARY
360
516
102
}
330
10
100
AcDbMaterial
  1
ByBlock
 72
     0
 73
     2
 43
0.0208333333333333
 43
0.0
 43
0.0
 43
0.0
 43
0.0
 43
0.0208333333333333
 43
0.0
 43
0.0
 43
0.0
 43
0.0
 43
1.0
 43
0.0
 43
0.0
 43
0.0
 43
0.0
 43
1.0
 77
     0
 78
     2
 47
0.0208333333333333
 47
0.0
 47
0.0
 47
0.0
 47
0.0
 47
0.0208333333333333
 47
0.0
 47
0.0
 47
0.0
 47
0.0
 47
1.0
 47
0.0
 47
0.0
 47
0.0
 47
0.0
 47
1.0
171
     0
172
     2
 49
0.0208333333333333
 49
0.0
 49
0.0
 49
0.0
 49
0.0
 49
0.0208333333333333
 49
0.0
 49
0.0
 49
0.0
 49
0.0
 49
1.0
 49
0.0
 49
0.0
 49
0.0
 49
0.0
 49
1.0
175
     0
176
     2
142
0.0208333333333333
142
0.0
142
0.0
142
0.0
142
0.0
142
0.0208333333333333
142
0.0
142
0.0
142
0.0
142
0.0
142
1.0
142
0.0
142
0.0
142
0.0
142
0.0
142
1.0
179
     0
270
     2
144
0.0208333333333333
144
0.0
144
0.0
144
0.0
144
0.0
144
0.0208333333333333
144
0.0
144
0.0
144
0.0
144
0.0
144
1.0
144
0.0
144
0.0
144
0.0
144
0.0
144
1.0
274
     2
147
0.0208333333333333
147
0.0
147
0.0
147
0.0
147
0.0
147
0.0208333333333333
147
0.0
147
0.0
147
0.0
147
0.0
147
1.0
147
0.0
147
0.0
147
0.0
147
0.0
147
1.0
  0
MATERIAL
  5
11
102
{ACAD_REACTORS
330
10
102
}
102
{ACAD_XDICTIONARY
360
518
102
}
330
10
100
AcDbMaterial
  1
ByLayer
 72
     0
 73
     2
 43
0.0208333333333333
 43
0.0
 43
0.0
 43
0.0
 43
0.0
 43
0.0208333333333333
 43
0.0
 43
0.0
 43
0.0
 43
0.0
 43
1.0
 43
0.0
 43
0.0
 43
0.0
 43
0.0
 43
1.0
 77
     0
 78
     2
 47
0.0208333333333333
 47
0.0
 47
0.0
 47
0.0
 47
0.0
 47
0.0208333333333333
 47
0.0
 47
0.0
 47
0.0
 47
0.0
 47
1.0
 47
0.0
 47
0.0
 47
0.0
 47
0.0
 47
1.0
171
     0
172
     2
 49
0.0208333333333333
 49
0.0
 49
0.0
 49
0.0
 49
0.0
 49
0.0208333333333333
 49
0.0
 49
0.0
 49
0.0
 49
0.0
 49
1.0
 49
0.0
 49
0.0
 49
0.0
 49
0.0
 49
1.0
175
     0
176
     2
142
0.0208333333333333
142
0.0
142
0.0
142
0.0
142
0.0
142
0.0208333333333333
142
0.0
142
0.0
142
0.0
142
0.0
142
1.0
142
0.0
142
0.0
142
0.0
142
0.0
142
1.0
179
     0
270
     2
144
0.0208333333333333
144
0.0
144
0.0
144
0.0
144
0.0
144
0.0208333333333333
144
0.0
144
0.0
144
0.0
144
0.0
144
1.0
144
0.0
144
0.0
144
0.0
144
0.0
144
1.0
274
     2
147
0.0208333333333333
147
0.0
147
0.0
147
0.0
147
0.0
147
0.0208333333333333
147
0.0
147
0.0
147
0.0
147
0.0
147
1.0
147
0.0
147
0.0
147
0.0
147
0.0
147
1.0
  0
MATERIAL
  5
21
102
{ACAD_REACTORS
330
10
102
}
102
{ACAD_XDICTIONARY
360
51A
102
}
330
10
100
AcDbMaterial
  1
Global
 72
     0
 73
     2
 43
0.0208333333333333
 43
0.0
 43
0.0
 43
0.0
 43
0.0
 43
0.0208333333333333
 43
0.0
 43
0.0
 43
0.0
 43
0.0
 43
1.0
 43
0.0
 43
0.0
 43
0.0
 43
0.0
 43
1.0
 77
     0
 78
     2
 47
0.0208333333333333
 47
0.0
 47
0.0
 47
0.0
 47
0.0
 47
0.0208333333333333
 47
0.0
 47
0.0
 47
0.0
 47
0.0
 47
1.0
 47
0.0
 47
0.0
 47
0.0
 47
0.0
 47
1.0
171
     0
172
     2
 49
0.0208333333333333
 49
0.0
 49
0.0
 49
0.0
 49
0.0
 49
0.0208333333333333
 49
0.0
 49
0.0
 49
0.0
 49
0.0
 49
1.0
 49
0.0
 49
0.0
 49
0.0
 49
0.0
 49
1.0
175
     0
176
     2
142
0.0208333333333333
142
0.0
142
0.0
142
0.0
142
0.0
142
0.0208333333333333
142
0.0
142
0.0
142
0.0
142
0.0
142
1.0
142
0.0
142
0.0
142
0.0
142
0.0
142
1.0
179
     0
270
     2
144
0.0208333333333333
144
0.0
144
0.0
144
0.0
144
0.0
144
0.0208333333333333
144
0.0
144
0.0
144
0.0
144
0.0
144
1.0
144
0.0
144
0.0
144
0.0
144
0.0
144
1.0
274
     2
147
0.0208333333333333
147
0.0
147
0.0
147
0.0
147
0.0
147
0.0208333333333333
147
0.0
147
0.0
147
0.0
147
0.0
147
1.0
147
0.0
147
0.0
147
0.0
147
0.0
147
1.0
  0
MLEADERSTYLE
  5
66
102
{ACAD_REACTORS
330
65
102
}
102
{ACAD_XDICTIONARY
360
51C
102
}
330
65
100
AcDbMLeaderStyle
170
     2
171
     1
172
     0
 90
        2
 40
0.0
 41
0.0
173
     1
 91
-1056964608
340
5A
 92
       -2
290
     1
 42
0.09
291
     1
 43
0.36
  3
Standard
341
0
 44
0.18
300

342
55
174
     1
178
     6
175
     1
176
     0
 93
-1056964608
 45
0.18
292
     0
297
     0
 46
0.18
343
0
 94
-1056964608
 47
1.0
 49
1.0
140
1.0
293
     1
141
0.0
294
     1
177
     0
142
1.0
295
     0
296
     0
143
0.125
1001
ACAD_MLEADERVER
1070
     2
  0
MLINESTYLE
  5
5F
102
{ACAD_REACTORS
330
5E
102
}
330
5E
100
AcDbMlineStyle
  2
STANDARD
 70
     0
  3

 62
   256
 51
90.0
 52
90.0
 71
     2
 49
0.5
 62
   256
  6
BYLAYER
 49
-0.5
 62
   256
  6
BYLAYER
  0
ACDBPLACEHOLDER
  5
F
102
{ACAD_REACTORS
330
E
102
}
330
E
  0
SCALE
  5
43
102
{ACAD_REACTORS
330
42
102
}
330
42
100
AcDbScale
 70
     0
300
1:1
140
1.0
141
1.0
290
     1
  0
SCALE
  5
44
102
{ACAD_REACTORS
330
42
102
}
330
42
100
AcDbScale
 70
     0
300
1/128" = 1'-0"
140
0.0078125
141
12.0
290
     0
  0
SCALE
  5
45
102
{ACAD_REACTORS
330
42
102
}
330
42
100
AcDbScale
 70
     0
300
1/64" = 1'-0"
140
0.015625
141
12.0
290
     0
  0
SCALE
  5
46
102
{ACAD_REACTORS
330
42
102
}
330
42
100
AcDbScale
 70
     0
300
1/32" = 1'-0"
140
0.03125
141
12.0
290
     0
  0
SCALE
  5
47
102
{ACAD_REACTORS
330
42
102
}
330
42
100
AcDbScale
 70
     0
300
1/16" = 1'-0"
140
0.0625
141
12.0
290
     0
  0
SCALE
  5
48
102
{ACAD_REACTORS
330
42
102
}
330
42
100
AcDbScale
 70
     0
300
3/32" = 1'-0"
140
0.09375
141
12.0
290
     0
  0
SCALE
  5
49
102
{ACAD_REACTORS
330
42
102
}
330
42
100
AcDbScale
 70
     0
300
1/8" = 1'-0"
140
0.125
141
12.0
290
     0
  0
SCALE
  5
4A
102
{ACAD_REACTORS
330
42
102
}
330
42
100
AcDbScale
 70
     0
300
3/16" = 1'-0"
140
0.1875
141
12.0
290
     0
  0
SCALE
  5
4B
102
{ACAD_REACTORS
330
42
102
}
330
42
100
AcDbScale
 70
     0
300
1/4" = 1'-0"
140
0.25
141
12.0
290
     0
  0
SCALE
  5
4C
102
{ACAD_REACTORS
330
42
102
}
330
42
100
AcDbScale
 70
     0
300
3/8" = 1'-0"
140
0.375
141
12.0
290
     0
  0
SCALE
  5
4D
102
{ACAD_REACTORS
330
42
102
}
330
42
100
AcDbScale
 70
     0
300
1/2" = 1'-0"
140
0.5
141
12.0
290
     0
  0
SCALE
  5
4E
102
{ACAD_REACTORS
330
42
102
}
330
42
100
AcDbScale
 70
     0
300
3/4" = 1'-0"
140
0.75
141
12.0
290
     0
  0
SCALE
  5
4F
102
{ACAD_REACTORS
330
42
102
}
330
42
100
AcDbScale
 70
     0
300
1" = 1'-0"
140
1.0
141
12.0
290
     0
  0
SCALE
  5
50
102
{ACAD_REACTORS
330
42
102
}
330
42
100
AcDbScale
 70
     0
300
1-1/2" = 1'-0"
140
1.5
141
12.0
290
     0
  0
SCALE
  5
51
102
{ACAD_REACTORS
330
42
102
}
330
42
100
AcDbScale
 70
     0
300
3" = 1'-0"
140
3.0
141
12.0
290
     0
  0
SCALE
  5
52
102
{ACAD_REACTORS
330
42
102
}
330
42
100
AcDbScale
 70
     0
300
6" = 1'-0"
140
6.0
141
12.0
290
     0
  0
SCALE
  5
53
102
{ACAD_REACTORS
330
42
102
}
330
42
100
AcDbScale
 70
     0
300
1'-0" = 1'-0"
140
12.0
141
12.0
290
     0
  0
ACDBSECTIONVIEWSTYLE
  5
68
102
{ACAD_REACTORS
330
67
102
}
102
{ACAD_XDICTIONARY
360
4FA
102
}
330
67
100
AcDbModelDocViewStyle
 70
     0
  3
Imperial24
290
     0
100
AcDbSectionViewStyle
 70
     0
 71
     0
 90
       78
 71
     1
340
55
 40
0.24
340
0
340
0
 40
0.24
300
I, O, Q, S, X, Z
 40
0.48
 90
        3
 40
0.18
 90
        1
 71
     2
340
5C
 90
       25
340
5C
 90
       50
 40
0.24
 40
0.0
 40
0.24
 71
     3
340
55
 40
0.24
 90
        1
 40
0.75
 90
        1
300
%<\AcVar ViewType \f "%tc1">% %<\AcVar ViewSectionStartId>%-%<\AcVar ViewSectionEndId>%\PSCALE %<\AcVar ViewScale \f "%sn">%
 71
     4
300
ANSI31
 40
1.0
 90
        0
290
     0
290
     0
 90
        6
 40
0.0
 40
1.570796326794897
 40
0.2617993877991494
 40
1.308996938995747
 40
-0.2617993877991494
 40
1.832595714594046
  0
TABLESTYLE
  5
64
102
{ACAD_REACTORS
330
63
102
}
330
63
100
AcDbTableStyle
  3
Standard
 70
     0
 71
     0
 40
0.06
 41
0.06
280
     0
281
     0
  7
STANDARD
140
0.18
170
     2
 62
     0
 63
   257
283
     0
274
    -2
284
     1
 64
     0
275
    -2
285
     1
 65
     0
276
    -2
286
     1
 66
     0
277
    -2
287
     1
 67
     0
278
    -2
288
     1
 68
     0
279
    -2
289
     1
 69
     0
  7
STANDARD
140
0.25
170
     5
 62
     0
 63
   257
283
     0
274
    -2
284
     1
 64
     0
275
    -2
285
     1
 65
     0
276
    -2
286
     1
 66
     0
277
    -2
287
     1
 67
     0
278
    -2
288
     1
 68
     0
279
    -2
289
     1
 69
     0
  7
STANDARD
140
0.18
170
     5
 62
     0
 63
   257
283
     0
274
    -2
284
     1
 64
     0
275
    -2
285
     1
 65
     0
276
    -2
286
     1
 66
     0
277
    -2
287
     1
 67
     0
278
    -2
288
     1
 68
     0
279
    -2
289
     1
 69
     0
  0
VISUALSTYLE
  5
2F
102
{ACAD_REACTORS
330
29
102
}
102
{ACAD_XDICTIONARY
360
51F
102
}
330
29
100
AcDbVisualStyle
  2
2dWireframe
 70
     4
 71
     0
 72
     2
 73
     0
 90
        0
 40
-0.6
 41
-30.0
 62
     5
 63
     7
 74
     1
 91
        4
 64
     7
 65
   257
 75
     1
175
     1
 42
1.0
 92
        0
 66
   257
 43
1.0
 76
     1
 77
     6
 78
     2
 67
     7
 79
     5
170
     0
171
     0
290
     0
174
     0
 93
        1
 44
0.0
173
     0
291
     0
 45
0.0
1001
ACAD
1000
AcDbSavedByObjectVersion
1070
     0
  0
VISUALSTYLE
  5
2E
102
{ACAD_REACTORS
330
29
102
}
102
{ACAD_XDICTIONARY
360
521
102
}
330
29
100
AcDbVisualStyle
  2
Basic
 70
     7
 71
     1
 72
     0
 73
     1
 90
        0
 40
-0.6
 41
-30.0
 62
     5
 63
     7
 74
     0
 91
        4
 64
     7
 65
   257
 75
     1
175
     1
 42
1.0
 92
        8
 66
     7
 43
1.0
 76
     1
 77
     6
 78
     2
 67
     7
 79
     5
170
     0
171
     0
290
     0
174
     0
 93
        1
 44
0.0
173
     0
291
     1
 45
0.0
1001
ACAD
1000
AcDbSavedByObjectVersion
1070
     0
  0
VISUALSTYLE
  5
35
102
{ACAD_REACTORS
330
29
102
}
102
{ACAD_XDICTIONARY
360
523
102
}
330
29
100
AcDbVisualStyle
  2
Brighten
 70
    12
 71
     2
 72
     2
 73
     0
 90
        0
 40
-0.6
 41
-30.0
 62
     5
 63
     7
 74
     1
 91
        4
 64
     7
 65
   257
 75
     1
175
     1
 42
1.0
 92
        8
 66
     7
 43
1.0
 76
     1
 77
     6
 78
     2
 67
     7
 79
     5
170
     0
171
     0
290
     0
174
     0
 93
        1
 44
50.0
173
     0
291
     1
 45
0.0
1001
ACAD
1000
AcDbSavedByObjectVersion
1070
     0
  0
VISUALSTYLE
  5
39
102
{ACAD_REACTORS
330
29
102
}
102
{ACAD_XDICTIONARY
360
525
102
}
330
29
100
AcDbVisualStyle
  2
ColorChange
 70
    16
 71
     2
 72
     2
 73
     3
 90
        0
 40
-0.6
 41
-30.0
 62
     5
 63
     8
 74
     1
 91
        4
 64
     7
 65
   257
 75
     1
175
     1
 42
1.0
 92
        8
 66
     8
 43
1.0
 76
     1
 77
     6
 78
     2
 67
     7
 79
     5
170
     0
171
     0
290
     0
174
     0
 93
        1
 44
0.0
173
     0
291
     1
 45
0.0
1001
ACAD
1000
AcDbSavedByObjectVersion
1070
     0
  0
VISUALSTYLE
  5
32
102
{ACAD_REACTORS
330
29
102
}
102
{ACAD_XDICTIONARY
360
527
102
}
330
29
100
AcDbVisualStyle
  2
Conceptual
 70
     9
 71
     3
 72
     2
 73
     0
 90
        0
 40
-0.6
 41
-30.0
 62
     5
 63
     7
 74
     2
 91
        2
 64
     7
 65
   257
 75
     1
175
     1
 42
179.0
 92
        8
 66
     7
 43
1.0
 76
     1
 77
     6
 78
     2
 67
     7
 79
     3
170
     0
171
     0
290
     0
174
     0
 93
        1
 44
0.0
173
     0
291
     0
 45
0.0
1001
ACAD
1000
AcDbSavedByObjectVersion
1070
     0
  0
VISUALSTYLE
  5
34
102
{ACAD_REACTORS
330
29
102
}
102
{ACAD_XDICTIONARY
360
529
102
}
330
29
100
AcDbVisualStyle
  2
Dim
 70
    11
 71
     2
 72
     2
 73
     0
 90
        0
 40
-0.6
 41
-30.0
 62
     5
 63
     7
 74
     1
 91
        4
 64
     7
 65
   257
 75
     1
175
     1
 42
1.0
 92
        8
 66
     7
 43
1.0
 76
     1
 77
     6
 78
     2
 67
     7
 79
     5
170
     0
171
     0
290
     0
174
     0
 93
        1
 44
-50.0
173
     0
291
     1
 45
0.0
1001
ACAD
1000
AcDbSavedByObjectVersion
1070
     0
  0
VISUALSTYLE
  5
41
102
{ACAD_REACTORS
330
29
102
}
102
{ACAD_XDICTIONARY
360
52B
102
}
330
29
100
AcDbVisualStyle
  2
EdgeColorOff
 70
    22
 71
     2
 72
     2
 73
     0
 90
        0
 40
-0.6
 41
-30.0
 62
     5
 63
     7
 74
     1
 91
        4
 64
     7
 65
   257
 75
     1
175
     1
 42
1.0
 92
        8
 66
     7
 43
1.0
 76
     1
 77
     6
 78
     2
 67
     7
 79
     5
170
     0
171
     0
290
     0
174
     0
 93
        1
 44
0.0
173
     0
291
     1
 45
0.0
1001
ACAD
1000
AcDbSavedByObjectVersion
1070
     0
  0
VISUALSTYLE
  5
38
102
{ACAD_REACTORS
330
29
102
}
102
{ACAD_XDICTIONARY
360
52D
102
}
330
29
100
AcDbVisualStyle
  2
Facepattern
 70
    15
 71
     2
 72
     2
 73
     0
 90
        0
 40
-0.6
 41
-30.0
 62
     5
 63
     7
 74
     1
 91
        4
 64
     7
 65
   257
 75
     1
175
     1
 42
1.0
 92
        8
 66
     7
 43
1.0
 76
     1
 77
     6
 78
     2
 67
     7
 79
     5
170
     0
171
     0
290
     0
174
     0
 93
        1
 44
0.0
173
     0
291
     1
 45
0.0
1001
ACAD
1000
AcDbSavedByObjectVersion
1070
     0
  0
VISUALSTYLE
  5
2A
102
{ACAD_REACTORS
330
29
102
}
102
{ACAD_XDICTIONARY
360
52F
102
}
330
29
100
AcDbVisualStyle
  2
Flat
 70
     0
 71
     2
 72
     1
 73
     1
 90
        2
 40
-0.6
 41
30.0
 62
     5
 63
     7
 74
     0
 91
        0
 64
     7
 65
   257
 75
     1
175
     1
 42
1.0
 92
        8
 66
     7
 43
1.0
 76
     1
 77
     6
 78
     2
 67
     7
 79
     5
170
     0
171
     0
290
     0
174
     0
 93
       13
 44
0.0
173
     0
291
     1
 45
0.0
1001
ACAD
1000
AcDbSavedByObjectVersion
1070
     0
  0
VISUALSTYLE
  5
2B
102
{ACAD_REACTORS
330
29
102
}
102
{ACAD_XDICTIONARY
360
531
102
}
330
29
100
AcDbVisualStyle
  2
FlatWithEdges
 70
     1
 71
     2
 72
     1
 73
     1
 90
        2
 40
-0.6
 41
30.0
 62
     5
 63
     7
 74
     1
 91
        0
 64
     7
 65
   257
 75
     1
175
     1
 42
1.0
 92
        0
 66
   257
 43
1.0
 76
     1
 77
     6
 78
     2
 67
     7
 79
     5
170
     0
171
     0
290
     0
174
     0
 93
       13
 44
0.0
173
     0
291
     1
 45
0.0
1001
ACAD
1000
AcDbSavedByObjectVersion
1070
     0
  0
VISUALSTYLE
  5
2C
102
{ACAD_REACTORS
330
29
102
}
102
{ACAD_XDICTIONARY
360
533
102
}
330
29
100
AcDbVisualStyle
  2
Gouraud
 70
     2
 71
     2
 72
     2
 73
     1
 90
        2
 40
-0.6
 41
30.0
 62
     5
 63
     7
 74
     0
 91
        0
 64
     7
 65
   257
 75
     1
175
     1
 42
1.0
 92
        0
 66
     7
 43
1.0
 76
     1
 77
     6
 78
     2
 67
     7
 79
     5
170
     0
171
     0
290
     0
174
     0
 93
       13
 44
0.0
173
     0
291
     1
 45
0.0
1001
ACAD
1000
AcDbSavedByObjectVersion
1070
     0
  0
VISUALSTYLE
  5
2D
102
{ACAD_REACTORS
330
29
102
}
102
{ACAD_XDICTIONARY
360
535
102
}
330
29
100
AcDbVisualStyle
  2
GouraudWithEdges
 70
     3
 71
     2
 72
     2
 73
     1
 90
        2
 40
-0.6
 41
30.0
 62
     5
 63
     7
 74
     1
 91
        0
 64
     7
 65
   257
 75
     1
175
     1
 42
1.0
 92
        0
 66
   257
 43
1.0
 76
     1
 77
     6
 78
     2
 67
     7
 79
     5
170
     0
171
     0
290
     0
174
     0
 93
       13
 44
0.0
173
     0
291
     1
 45
0.0
1001
ACAD
1000
AcDbSavedByObjectVersion
1070
     0
  0
VISUALSTYLE
  5
31
102
{ACAD_REACTORS
330
29
102
}
102
{ACAD_XDICTIONARY
360
537
102
}
330
29
100
AcDbVisualStyle
  2
Hidden
 70
     6
 71
     1
 72
     2
 73
     2
 90
        0
 40
-0.6
 41
-30.0
 62
     5
 63
     7
 74
     2
 91
        2
 64
     7
 65
   257
 75
     2
175
     1
 42
40.0
 92
        0
 66
   257
 43
1.0
 76
     1
 77
     6
 78
     2
 67
     7
 79
     3
170
     0
171
     0
290
     0
174
     0
 93
        1
 44
0.0
173
     0
291
     0
 45
0.0
1001
ACAD
1000
AcDbSavedByObjectVersion
1070
     0
  0
VISUALSTYLE
  5
3F
102
{ACAD_REACTORS
330
29
102
}
102
{ACAD_XDICTIONARY
360
539
102
}
330
29
100
AcDbVisualStyle
  2
JitterOff
 70
    20
 71
     2
 72
     2
 73
     0
 90
        0
 40
-0.6
 41
-30.0
 62
     5
 63
     7
 74
     1
 91
        4
 64
     7
 65
   257
 75
     1
175
     1
 42
1.0
 92
       10
 66
     7
 43
1.0
 76
     1
 77
     6
 78
     2
 67
     7
 79
     5
170
     0
171
     0
290
     0
174
     0
 93
        1
 44
0.0
173
     0
291
     1
 45
0.0
1001
ACAD
1000
AcDbSavedByObjectVersion
1070
     0
  0
VISUALSTYLE
  5
37
102
{ACAD_REACTORS
330
29
102
}
102
{ACAD_XDICTIONARY
360
53B
102
}
330
29
100
AcDbVisualStyle
  2
Linepattern
 70
    14
 71
     2
 72
     2
 73
     0
 90
        0
 40
-0.6
 41
-30.0
 62
     5
 63
     7
 74
     1
 91
        4
 64
     7
 65
   257
 75
     7
175
     7
 42
1.0
 92
        8
 66
     7
 43
1.0
 76
     1
 77
     6
 78
     2
 67
     7
 79
     5
170
     0
171
     0
290
     0
174
     0
 93
        1
 44
0.0
173
     0
291
     1
 45
0.0
1001
ACAD
1000
AcDbSavedByObjectVersion
1070
     0
  0
VISUALSTYLE
  5
40
102
{ACAD_REACTORS
330
29
102
}
102
{ACAD_XDICTIONARY
360
53D
102
}
330
29
100
AcDbVisualStyle
  2
OverhangOff
 70
    21
 71
     2
 72
     2
 73
     0
 90
        0
 40
-0.6
 41
-30.0
 62
     5
 63
     7
 74
     1
 91
        4
 64
     7
 65
   257
 75
     1
175
     1
 42
1.0
 92
        9
 66
     7
 43
1.0
 76
     1
 77
     6
 78
     2
 67
     7
 79
     5
170
     0
171
     0
290
     0
174
     0
 93
        1
 44
0.0
173
     0
291
     1
 45
0.0
1001
ACAD
1000
AcDbSavedByObjectVersion
1070
     0
  0
VISUALSTYLE
  5
33
102
{ACAD_REACTORS
330
29
102
}
102
{ACAD_XDICTIONARY
360
53F
102
}
330
29
100
AcDbVisualStyle
  2
Realistic
 70
     8
 71
     2
 72
     2
 73
     0
 90
        2
 40
-0.6
 41
30.0
 62
     5
 63
     7
 74
     0
 91
        0
 64
     7
 65
   257
 75
     1
175
     1
 42
1.0
 92
        8
 66
   257
 43
1.0
 76
     1
 77
     6
 78
     2
 67
     7
 79
     3
170
     0
171
     0
290
     0
174
     0
 93
       13
 44
0.0
173
     0
291
     0
 45
0.0
1001
ACAD
1000
AcDbSavedByObjectVersion
1070
     0
  0
VISUALSTYLE
  5
3E
102
{ACAD_REACTORS
330
29
102
}
102
{ACAD_XDICTIONARY
360
541
102
}
330
29
100
AcDbVisualStyle
  2
Shaded
 70
    27
 71
     2
 72
     2
 73
     1
 90
        2
 40
-0.6
 41
30.0
 62
     5
 63
     7
 74
     0
 91
        4
 64
     7
 65
   257
 75
     1
175
     1
 42
1.0
 92
        8
 66
   257
 43
1.0
 76
     1
 77
     6
 78
     2
 67
     8
 79
     3
170
     0
171
     0
290
     0
174
     0
 93
        5
 44
0.0
173
     0
291
     0
 45
0.0
1001
ACAD
1000
AcDbSavedByObjectVersion
1070
     0
  0
VISUALSTYLE
  5
3D
102
{ACAD_REACTORS
330
29
102
}
102
{ACAD_XDICTIONARY
360
543
102
}
330
29
100
AcDbVisualStyle
  2
Shaded with edges
 70
    26
 71
     2
 72
     2
 73
     1
 90
        2
 40
-0.6
 41
30.0
 62
     5
 63
     7
 74
     1
 91
        2
 64
     7
 65
   257
 75
     2
175
     1
 42
1.0
 92
        8
 66
   257
 43
1.0
 76
     1
 77
     6
 78
     2
 67
     7
 79
     3
170
     0
171
     0
290
     0
174
     0
 93
        5
 44
0.0
173
     0
291
     0
 45
0.0
1001
ACAD
1000
AcDbSavedByObjectVersion
1070
     0
  0
VISUALSTYLE
  5
3A
102
{ACAD_REACTORS
330
29
102
}
102
{ACAD_XDICTIONARY
360
545
102
}
330
29
100
AcDbVisualStyle
  2
Shades of Gray
 70
    23
 71
     2
 72
     2
 73
     3
 90
        0
 40
-0.6
 41
-30.0
 62
     5
 63
     7
 74
     2
 91
        2
 64
     7
 65
     7
 75
     1
175
     1
 42
40.0
 92
        8
 66
     7
 43
1.0
 76
     1
 77
     6
 78
     2
 67
     7
 79
     3
170
     0
171
     0
290
     0
174
     0
 93
        1
 44
0.0
173
     0
291
     0
 45
0.0
1001
ACAD
1000
AcDbSavedByObjectVersion
1070
     0
  0
VISUALSTYLE
  5
3B
102
{ACAD_REACTORS
330
29
102
}
102
{ACAD_XDICTIONARY
360
547
102
}
330
29
100
AcDbVisualStyle
  2
Sketchy
 70
    24
 71
     1
 72
     2
 73
     2
 90
        0
 40
-0.6
 41
-30.0
 62
     5
 63
     7
 74
     2
 91
        2
 64
     7
 65
     7
 75
     1
175
     1
 42
40.0
 92
       11
 66
     7
 43
1.0
 76
     1
 77
     6
 78
     2
 67
     7
 79
     6
170
     0
171
     0
290
     0
174
     0
 93
        1
 44
0.0
173
     0
291
     0
 45
0.0
1001
ACAD
1000
AcDbSavedByObjectVersion
1070
     0
  0
VISUALSTYLE
  5
36
102
{ACAD_REACTORS
330
29
102
}
102
{ACAD_XDICTIONARY
360
549
102
}
330
29
100
AcDbVisualStyle
  2
Thicken
 70
    13
 71
     2
 72
     2
 73
     0
 90
        0
 40
-0.6
 41
-30.0
 62
     5
 63
     7
 74
     1
 91
        4
 64
     7
 65
   257
 75
     1
175
     1
 42
1.0
 92
       12
 66
     7
 43
1.0
 76
     1
 77
     6
 78
     2
 67
     7
 79
     5
170
     0
171
     0
290
     0
174
     0
 93
        1
 44
0.0
173
     0
291
     1
 45
0.0
1001
ACAD
1000
AcDbSavedByObjectVersion
1070
     0
  0
VISUALSTYLE
  5
30
102
{ACAD_REACTORS
330
29
102
}
102
{ACAD_XDICTIONARY
360
54B
102
}
330
29
100
AcDbVisualStyle
  2
Wireframe
 70
     5
 71
     0
 72
     2
 73
     0
 90
        0
 40
-0.6
 41
-30.0
 62
     5
 63
     7
 74
     1
 91
        4
 64
     7
 65
   257
 75
     1
175
     1
 42
1.0
 92
        0
 66
   257
 43
1.0
 76
     1
 77
     6
 78
     2
 67
     7
 79
     3
170
     0
171
     0
290
     0
174
     0
 93
        1
 44
0.0
173
     0
291
     0
 45
0.0
1001
ACAD
1000
AcDbSavedByObjectVersion
1070
     0
  0
VISUALSTYLE
  5
3C
102
{ACAD_REACTORS
330
29
102
}
102
{ACAD_XDICTIONARY
360
54D
102
}
330
29
100
AcDbVisualStyle
  2
X-Ray
 70
    25
 71
     2
 72
     2
 73
     1
 90
        1
 40
0.5
 41
-30.0
 62
     5
 63
     7
 74
     1
 91
        0
 64
     7
 65
   257
 75
     1
175
     1
 42
1.0
 92
        8
 66
     7
 43
1.0
 76
     1
 77
     6
 78
     2
 67
     7
 79
     3
170
     0
171
     0
290
     0
174
     0
 93
       13
 44
0.0
173
     0
291
     0
 45
0.0
1001
ACAD
1000
AcDbSavedByObjectVersion
1070
     0
  0
XRECORD
  5
50F
102
{ACAD_REACTORS
330
50E
102
}
330
50E
100
AcDbXrecord
280
     1
340
62
  0
XRECORD
  5
510
102
{ACAD_REACTORS
330
50E
102
}
330
50E
100
AcDbXrecord
280
     1
340
10
  0
DICTIONARYVAR
  5
514
102
{ACAD_REACTORS
330
502
102
}
330
502
100
DictionaryVariables
280
     0
  1
1:1
  0
DICTIONARYVAR
  5
504
102
{ACAD_REACTORS
330
502
102
}
330
502
100
DictionaryVariables
280
     0
  1
Standard
  0
DICTIONARYVAR
  5
503
102
{ACAD_REACTORS
330
502
102
}
330
502
100
DictionaryVariables
280
     0
  1
Standard
  0
DICTIONARYVAR
  5
505
102
{ACAD_REACTORS
330
502
102
}
330
502
100
DictionaryVariables
280
     0
  1
Imperial24
  0
DICTIONARYVAR
  5
506
102
{ACAD_REACTORS
330
502
102
}
330
502
100
DictionaryVariables
280
     0
  1
Imperial24
  0
DICTIONARYVAR
  5
50A
102
{ACAD_REACTORS
330
502
102
}
330
502
100
DictionaryVariables
280
     0
  1
1
  0
DICTIONARYVAR
  5
50D
102
{ACAD_REACTORS
330
502
102
}
330
502
100
DictionaryVariables
280
     0
  1
1
  0
DICTIONARYVAR
  5
509
102
{ACAD_REACTORS
330
502
102
}
330
502
100
DictionaryVariables
280
     0
  1
0
  0
DICTIONARYVAR
  5
50C
102
{ACAD_REACTORS
330
502
102
}
330
502
100
DictionaryVariables
280
     0
  1
0
  0
DICTIONARYVAR
  5
508
102
{ACAD_REACTORS
330
502
102
}
330
502
100
DictionaryVariables
280
     0
  1
127
  0
DICTIONARYVAR
  5
50B
102
{ACAD_REACTORS
330
502
102
}
330
502
100
DictionaryVariables
280
     0
  1
2
  0
DICTIONARY
  5
4FC
330
6A
100
AcDbDictionary
280
     1
281
     1
  3
ACAD_XREC_ROUNDTRIP
360
515
  0
DICTIONARY
  5
516
330
19
100
AcDbDictionary
280
     1
281
     1
  3
ACAD_XREC_ROUNDTRIP
360
517
  0
DICTIONARY
  5
518
330
11
100
AcDbDictionary
280
     1
281
     1
  3
ACAD_XREC_ROUNDTRIP
360
519
  0
DICTIONARY
  5
51A
330
21
100
AcDbDictionary
280
     1
281
     1
  3
ACAD_XREC_ROUNDTRIP
360
51B
  0
DICTIONARY
  5
51C
330
66
100
AcDbDictionary
280
     1
281
     1
  3
ACAD_XREC_ROUNDTRIP
360
51D
  0
DICTIONARY
  5
4FA
330
68
100
AcDbDictionary
280
     1
281
     1
  3
ACAD_XREC_ROUNDTRIP
360
51E
  0
DICTIONARY
  5
51F
330
2F
100
AcDbDictionary
280
     1
281
     1
  3
ACAD_XREC_ROUNDTRIP
360
520
  0
DICTIONARY
  5
521
330
2E
100
AcDbDictionary
280
     1
281
     1
  3
ACAD_XREC_ROUNDTRIP
360
522
  0
DICTIONARY
  5
523
330
35
100
AcDbDictionary
280
     1
281
     1
  3
ACAD_XREC_ROUNDTRIP
360
524
  0
DICTIONARY
  5
525
330
39
100
AcDbDictionary
280
     1
281
     1
  3
ACAD_XREC_ROUNDTRIP
360
526
  0
DICTIONARY
  5
527
330
32
100
AcDbDictionary
280
     1
281
     1
  3
ACAD_XREC_ROUNDTRIP
360
528
  0
DICTIONARY
  5
529
330
34
100
AcDbDictionary
280
     1
281
     1
  3
ACAD_XREC_ROUNDTRIP
360
52A
  0
DICTIONARY
  5
52B
330
41
100
AcDbDictionary
280
     1
281
     1
  3
ACAD_XREC_ROUNDTRIP
360
52C
  0
DICTIONARY
  5
52D
330
38
100
AcDbDictionary
280
     1
281
     1
  3
ACAD_XREC_ROUNDTRIP
360
52E
  0
DICTIONARY
  5
52F
330
2A
100
AcDbDictionary
280
     1
281
     1
  3
ACAD_XREC_ROUNDTRIP
360
530
  0
DICTIONARY
  5
531
330
2B
100
AcDbDictionary
280
     1
281
     1
  3
ACAD_XREC_ROUNDTRIP
360
532
  0
DICTIONARY
  5
533
330
2C
100
AcDbDictionary
280
     1
281
     1
  3
ACAD_XREC_ROUNDTRIP
360
534
  0
DICTIONARY
  5
535
330
2D
100
AcDbDictionary
280
     1
281
     1
  3
ACAD_XREC_ROUNDTRIP
360
536
  0
DICTIONARY
  5
537
330
31
100
AcDbDictionary
280
     1
281
     1
  3
ACAD_XREC_ROUNDTRIP
360
538
  0
DICTIONARY
  5
539
330
3F
100
AcDbDictionary
280
     1
281
     1
  3
ACAD_XREC_ROUNDTRIP
360
53A
  0
DICTIONARY
  5
53B
330
37
100
AcDbDictionary
280
     1
281
     1
  3
ACAD_XREC_ROUNDTRIP
360
53C
  0
DICTIONARY
  5
53D
330
40
100
AcDbDictionary
280
     1
281
     1
  3
ACAD_XREC_ROUNDTRIP
360
53E
  0
DICTIONARY
  5
53F
330
33
100
AcDbDictionary
280
     1
281
     1
  3
ACAD_XREC_ROUNDTRIP
360
540
  0
DICTIONARY
  5
541
330
3E
100
AcDbDictionary
280
     1
281
     1
  3
ACAD_XREC_ROUNDTRIP
360
542
  0
DICTIONARY
  5
543
330
3D
100
AcDbDictionary
280
     1
281
     1
  3
ACAD_XREC_ROUNDTRIP
360
544
  0
DICTIONARY
  5
545
330
3A
100
AcDbDictionary
280
     1
281
     1
  3
ACAD_XREC_ROUNDTRIP
360
546
  0
DICTIONARY
  5
547
330
3B
100
AcDbDictionary
280
     1
281
     1
  3
ACAD_XREC_ROUNDTRIP
360
548
  0
DICTIONARY
  5
549
330
36
100
AcDbDictionary
280
     1
281
     1
  3
ACAD_XREC_ROUNDTRIP
360
54A
  0
DICTIONARY
  5
54B
330
30
100
AcDbDictionary
280
     1
281
     1
  3
ACAD_XREC_ROUNDTRIP
360
54C
  0
DICTIONARY
  5
54D
330
3C
100
AcDbDictionary
280
     1
281
     1
  3
ACAD_XREC_ROUNDTRIP
360
54E
  0
XRECORD
  5
515
102
{ACAD_REACTORS
330
4FC
102
}
330
4FC
100
AcDbXrecord
280
     1
102
DISPLAYNAME
  1
Imperial24
102
FLAGS
 90
        0
  0
XRECORD
  5
517
102
{ACAD_REACTORS
330
516
102
}
330
516
100
AcDbXrecord
280
     1
102
MATERIAL
148
0.0
149
0.0
149
0.0
 93
        0
 94
      127
282
     0
 72
     0
 77
     0
171
     0
175
     0
179
     0
273
     0
  0
XRECORD
  5
519
102
{ACAD_REACTORS
330
518
102
}
330
518
100
AcDbXrecord
280
     1
102
MATERIAL
148
0.0
149
0.0
149
0.0
 93
        0
 94
      127
282
     0
 72
     0
 77
     0
171
     0
175
     0
179
     0
273
     0
  0
XRECORD
  5
51B
102
{ACAD_REACTORS
330
51A
102
}
330
51A
100
AcDbXrecord
280
     1
102
MATERIAL
148
0.0
149
0.0
149
0.0
 93
        0
 94
      127
282
     0
 72
     0
 77
     0
171
     0
175
     0
179
     0
273
     0
  0
XRECORD
  5
51D
102
{ACAD_REACTORS
330
51C
102
}
330
51C
100
AcDbXrecord
280
     1
102
ACAD_ROUNDTRIP_2010_MLEADER_STYLE
  0
XRECORD
  5
51E
102
{ACAD_REACTORS
330
4FA
102
}
330
4FA
100
AcDbXrecord
280
     1
102
DISPLAYNAME
  1
Imperial24
102
FLAGS
 90
        0
  0
XRECORD
  5
520
102
{ACAD_REACTORS
330
51F
102
}
330
51F
100
AcDbXrecord
280
     1
102
RTVSPropertyOp0
 70
     1
102
RTVSPropertyOp1
 70
     1
102
RTVSPropertyOp2
 70
     1
102
RTVSPropertyOp3
 70
     1
102
RTVSPropertyOp4
 70
     1
102
RTVSPropertyOp5
 70
     1
102
RTVSPropertyOp6
 70
     1
102
RTVSPropertyOp7
 70
     1
102
RTVSPropertyOp8
 70
     1
102
RTVSPropertyOp9
 70
     1
102
RTVSPropertyOp10
 70
     1
102
RTVSPropertyOp11
 70
     1
102
RTVSPropertyOp12
 70
     1
102
RTVSPropertyOp13
 70
     1
102
RTVSPropertyOp14
 70
     1
102
RTVSPropertyOp15
 70
     1
102
RTVSPropertyOp16
 70
     1
102
RTVSPropertyOp17
 70
     1
102
RTVSPropertyOp18
 70
     1
102
RTVSPropertyOp19
 70
     1
102
RTVSPropertyOp20
 70
     1
102
RTVSPropertyOp21
 70
     1
102
RTVSPropertyOp22
 70
     1
102
RTVSPropertyOp23
 70
     1
102
RTVSPropertyOp24
 70
     1
102
RTVSPropertyOp25
 70
     1
102
RTVSPropertyOp26
 70
     1
102
RTVSPropertyOp27
 70
     1
102
RTVSPropertyOp28
 70
     1
102
RTVSPropertyOp29
 70
     1
102
RTVSPropertyOp30
 70
     1
102
RTVSPropertyOp31
 70
     1
102
RTVSPropertyOp32
 70
     1
102
RTVSPropertyOp33
 70
     1
102
RTVSPropertyOp34
 70
     1
102
RTVSPropertyOp35
 70
     1
102
RTVSPropertyOp36
 70
     1
102
RTVSPropertyOp37
 70
     1
102
RTVSPropertyOp38
 70
     1
102
RTVSPropertyOp39
 70
     1
102
RTVSPropertyOp40
 70
     1
102
RTVSPropertyOp41
 70
     1
102
RTVSPropertyOp42
 70
     1
102
RTVSPropertyOp43
 70
     1
102
RTVSPropertyOp44
 70
     1
102
RTVSPropertyOp45
 70
     1
102
RTVSPropertyOp46
 70
     1
102
RTVSPropertyOp47
 70
     1
102
RTVSPropertyOp48
 70
     1
102
RTVSPropertyOp49
 70
     1
102
RTVSPropertyOp50
 70
     1
102
RTVSPropertyOp51
 70
     0
102
RTVSPropertyOp52
 70
     0
102
RTVSPropertyOp53
 70
     1
102
RTVSPropertyOp54
 70
     1
102
RTVSPropertyOp55
 70
     1
102
RTVSPropertyOp56
 70
     1
102
RTVSPropertyOp57
 70
     1
102
RTVSPost2010Prop28
280
     1
102
RTVSPost2010PropOp28
 70
     1
102
RTVSPost2010Prop29
280
     1
102
RTVSPost2010PropOp29
 70
     1
102
RTVSPost2010Prop30
280
     0
102
RTVSPost2010PropOp30
 70
     1
102
RTVSPost2010Prop31
280
     0
102
RTVSPost2010PropOp31
 70
     1
102
RTVSPost2010Prop32
280
     0
102
RTVSPost2010PropOp32
 70
     1
102
RTVSPost2010Prop33
280
     0
102
RTVSPost2010PropOp33
 70
     1
102
RTVSPost2010Prop34
280
     0
102
RTVSPost2010PropOp34
 70
     1
102
RTVSPost2010Prop35
280
     0
102
RTVSPost2010PropOp35
 70
     1
102
RTVSPost2010Prop36
280
     0
102
RTVSPost2010PropOp36
 70
     1
102
RTVSPost2010Prop37
 90
       50
102
RTVSPost2010PropOp37
 70
     1
102
RTVSPost2010Prop38
140
0.0
102
RTVSPost2010PropOp38
 70
     1
102
RTVSPost2010Prop39
140
1.0
102
RTVSPost2010PropOp39
 70
     1
102
RTVSPost2010Prop40
 90
        0
102
RTVSPost2010PropOp40
 70
     1
102
RTVSPost2010Prop41ColorIndex
 90
       18
102
RTVSPost2010Prop41ColorRGB
 90
        0
102
RTVSPost2010PropOp41
 70
     1
102
RTVSPost2010Prop42
 90
       50
102
RTVSPost2010PropOp42
 70
     1
102
RTVSPost2010Prop43
 90
        3
102
RTVSPost2010PropOp43
 70
     1
102
RTVSPost2010Prop44ColorIndex
 90
        5
102
RTVSPost2010Prop44ColorRGB
 90
      255
102
RTVSPost2010PropOp44
 70
     1
102
RTVSPost2010Prop45
280
     0
102
RTVSPost2010PropOp45
 70
     1
102
RTVSPost2010Prop46
 90
       50
102
RTVSPost2010PropOp46
 70
     1
102
RTVSPost2010Prop47
 90
       50
102
RTVSPost2010PropOp47
 70
     1
102
RTVSPost2010Prop48
 90
       50
102
RTVSPost2010PropOp48
 70
     1
102
RTVSPost2010Prop49
280
     0
102
RTVSPost2010PropOp49
 70
     1
102
RTVSPost2010Prop50
 90
       50
102
RTVSPost2010PropOp50
 70
     1
102
RTVSPost2010Prop51ColorIndex
 90
      256
102
RTVSPost2010Prop51ColorRGB
 90
-16777216
102
RTVSPost2010PropOp51
 70
     0
102
RTVSPost2010Prop52
140
1.0
102
RTVSPost2010PropOp52
 70
     0
102
RTVSPost2010Prop53
 90
        2
102
RTVSPost2010PropOp53
 70
     1
102
RTVSPost2010Prop54
  1
strokes_ogs.tif
102
RTVSPost2010PropOp54
 70
     1
102
RTVSPost2010Prop55
280
     0
102
RTVSPost2010PropOp55
 70
     1
102
RTVSPost2010Prop56
140
1.0
102
RTVSPost2010PropOp56
 70
     1
102
RTVSPost2010Prop57
140
1.0
102
RTVSPost2010PropOp57
 70
     1
  0
XRECORD
  5
522
102
{ACAD_REACTORS
330
521
102
}
330
521
100
AcDbXrecord
280
     1
102
RTVSPropertyOp0
 70
     1
102
RTVSPropertyOp1
 70
     1
102
RTVSPropertyOp2
 70
     1
102
RTVSPropertyOp3
 70
     1
102
RTVSPropertyOp4
 70
     1
102
RTVSPropertyOp5
 70
     1
102
RTVSPropertyOp6
 70
     1
102
RTVSPropertyOp7
 70
     1
102
RTVSPropertyOp8
 70
     1
102
RTVSPropertyOp9
 70
     1
102
RTVSPropertyOp10
 70
     1
102
RTVSPropertyOp11
 70
     1
102
RTVSPropertyOp12
 70
     1
102
RTVSPropertyOp13
 70
     1
102
RTVSPropertyOp14
 70
     1
102
RTVSPropertyOp15
 70
     1
102
RTVSPropertyOp16
 70
     1
102
RTVSPropertyOp17
 70
     1
102
RTVSPropertyOp18
 70
     1
102
RTVSPropertyOp19
 70
     1
102
RTVSPropertyOp20
 70
     1
102
RTVSPropertyOp21
 70
     1
102
RTVSPropertyOp22
 70
     1
102
RTVSPropertyOp23
 70
     1
102
RTVSPropertyOp24
 70
     1
102
RTVSPropertyOp25
 70
     1
102
RTVSPropertyOp26
 70
     1
102
RTVSPropertyOp27
 70
     1
102
RTVSPropertyOp28
 70
     1
102
RTVSPropertyOp29
 70
     1
102
RTVSPropertyOp30
 70
     1
102
RTVSPropertyOp31
 70
     1
102
RTVSPropertyOp32
 70
     1
102
RTVSPropertyOp33
 70
     1
102
RTVSPropertyOp34
 70
     1
102
RTVSPropertyOp35
 70
     1
102
RTVSPropertyOp36
 70
     1
102
RTVSPropertyOp37
 70
     1
102
RTVSPropertyOp38
 70
     1
102
RTVSPropertyOp39
 70
     1
102
RTVSPropertyOp40
 70
     1
102
RTVSPropertyOp41
 70
     1
102
RTVSPropertyOp42
 70
     1
102
RTVSPropertyOp43
 70
     1
102
RTVSPropertyOp44
 70
     1
102
RTVSPropertyOp45
 70
     1
102
RTVSPropertyOp46
 70
     1
102
RTVSPropertyOp47
 70
     1
102
RTVSPropertyOp48
 70
     1
102
RTVSPropertyOp49
 70
     1
102
RTVSPropertyOp50
 70
     1
102
RTVSPropertyOp51
 70
     0
102
RTVSPropertyOp52
 70
     0
102
RTVSPropertyOp53
 70
     1
102
RTVSPropertyOp54
 70
     1
102
RTVSPropertyOp55
 70
     1
102
RTVSPropertyOp56
 70
     1
102
RTVSPropertyOp57
 70
     1
102
RTVSPost2010Prop28
280
     0
102
RTVSPost2010PropOp28
 70
     1
102
RTVSPost2010Prop29
280
     1
102
RTVSPost2010PropOp29
 70
     1
102
RTVSPost2010Prop30
280
     1
102
RTVSPost2010PropOp30
 70
     1
102
RTVSPost2010Prop31
280
     0
102
RTVSPost2010PropOp31
 70
     1
102
RTVSPost2010Prop32
280
     0
102
RTVSPost2010PropOp32
 70
     1
102
RTVSPost2010Prop33
280
     0
102
RTVSPost2010PropOp33
 70
     1
102
RTVSPost2010Prop34
280
     0
102
RTVSPost2010PropOp34
 70
     1
102
RTVSPost2010Prop35
280
     0
102
RTVSPost2010PropOp35
 70
     1
102
RTVSPost2010Prop36
280
     0
102
RTVSPost2010PropOp36
 70
     1
102
RTVSPost2010Prop37
 90
       50
102
RTVSPost2010PropOp37
 70
     1
102
RTVSPost2010Prop38
140
0.0
102
RTVSPost2010PropOp38
 70
     1
102
RTVSPost2010Prop39
140
1.0
102
RTVSPost2010PropOp39
 70
     1
102
RTVSPost2010Prop40
 90
        0
102
RTVSPost2010PropOp40
 70
     1
102
RTVSPost2010Prop41ColorIndex
 90
       18
102
RTVSPost2010Prop41ColorRGB
 90
        0
102
RTVSPost2010PropOp41
 70
     1
102
RTVSPost2010Prop42
 90
       50
102
RTVSPost2010PropOp42
 70
     1
102
RTVSPost2010Prop43
 90
        3
102
RTVSPost2010PropOp43
 70
     1
102
RTVSPost2010Prop44ColorIndex
 90
        5
102
RTVSPost2010Prop44ColorRGB
 90
      255
102
RTVSPost2010PropOp44
 70
     1
102
RTVSPost2010Prop45
280
     0
102
RTVSPost2010PropOp45
 70
     1
102
RTVSPost2010Prop46
 90
       50
102
RTVSPost2010PropOp46
 70
     1
102
RTVSPost2010Prop47
 90
       50
102
RTVSPost2010PropOp47
 70
     1
102
RTVSPost2010Prop48
 90
       50
102
RTVSPost2010PropOp48
 70
     1
102
RTVSPost2010Prop49
280
     0
102
RTVSPost2010PropOp49
 70
     1
102
RTVSPost2010Prop50
 90
       50
102
RTVSPost2010PropOp50
 70
     1
102
RTVSPost2010Prop51ColorIndex
 90
      256
102
RTVSPost2010Prop51ColorRGB
 90
-16777216
102
RTVSPost2010PropOp51
 70
     0
102
RTVSPost2010Prop52
140
1.0
102
RTVSPost2010PropOp52
 70
     0
102
RTVSPost2010Prop53
 90
        2
102
RTVSPost2010PropOp53
 70
     1
102
RTVSPost2010Prop54
  1
strokes_ogs.tif
102
RTVSPost2010PropOp54
 70
     1
102
RTVSPost2010Prop55
280
     0
102
RTVSPost2010PropOp55
 70
     1
102
RTVSPost2010Prop56
140
1.0
102
RTVSPost2010PropOp56
 70
     1
102
RTVSPost2010Prop57
140
1.0
102
RTVSPost2010PropOp57
 70
     1
  0
XRECORD
  5
524
102
{ACAD_REACTORS
330
523
102
}
330
523
100
AcDbXrecord
280
     1
102
RTVSPropertyOp0
 70
     1
102
RTVSPropertyOp1
 70
     1
102
RTVSPropertyOp2
 70
     1
102
RTVSPropertyOp3
 70
     1
102
RTVSPropertyOp4
 70
     1
102
RTVSPropertyOp5
 70
     1
102
RTVSPropertyOp6
 70
     1
102
RTVSPropertyOp7
 70
     1
102
RTVSPropertyOp8
 70
     1
102
RTVSPropertyOp9
 70
     1
102
RTVSPropertyOp10
 70
     1
102
RTVSPropertyOp11
 70
     1
102
RTVSPropertyOp12
 70
     1
102
RTVSPropertyOp13
 70
     1
102
RTVSPropertyOp14
 70
     1
102
RTVSPropertyOp15
 70
     1
102
RTVSPropertyOp16
 70
     1
102
RTVSPropertyOp17
 70
     1
102
RTVSPropertyOp18
 70
     1
102
RTVSPropertyOp19
 70
     1
102
RTVSPropertyOp20
 70
     1
102
RTVSPropertyOp21
 70
     1
102
RTVSPropertyOp22
 70
     1
102
RTVSPropertyOp23
 70
     1
102
RTVSPropertyOp24
 70
     1
102
RTVSPropertyOp25
 70
     1
102
RTVSPropertyOp26
 70
     1
102
RTVSPropertyOp27
 70
     1
102
RTVSPropertyOp28
 70
     1
102
RTVSPropertyOp29
 70
     1
102
RTVSPropertyOp30
 70
     1
102
RTVSPropertyOp31
 70
     1
102
RTVSPropertyOp32
 70
     1
102
RTVSPropertyOp33
 70
     1
102
RTVSPropertyOp34
 70
     1
102
RTVSPropertyOp35
 70
     1
102
RTVSPropertyOp36
 70
     1
102
RTVSPropertyOp37
 70
     1
102
RTVSPropertyOp38
 70
     1
102
RTVSPropertyOp39
 70
     1
102
RTVSPropertyOp40
 70
     1
102
RTVSPropertyOp41
 70
     1
102
RTVSPropertyOp42
 70
     1
102
RTVSPropertyOp43
 70
     1
102
RTVSPropertyOp44
 70
     1
102
RTVSPropertyOp45
 70
     1
102
RTVSPropertyOp46
 70
     1
102
RTVSPropertyOp47
 70
     1
102
RTVSPropertyOp48
 70
     1
102
RTVSPropertyOp49
 70
     1
102
RTVSPropertyOp50
 70
     1
102
RTVSPropertyOp51
 70
     0
102
RTVSPropertyOp52
 70
     0
102
RTVSPropertyOp53
 70
     1
102
RTVSPropertyOp54
 70
     1
102
RTVSPropertyOp55
 70
     1
102
RTVSPropertyOp56
 70
     1
102
RTVSPropertyOp57
 70
     1
102
RTVSPost2010Prop28
280
     0
102
RTVSPost2010PropOp28
 70
     1
102
RTVSPost2010Prop29
280
     1
102
RTVSPost2010PropOp29
 70
     1
102
RTVSPost2010Prop30
280
     1
102
RTVSPost2010PropOp30
 70
     1
102
RTVSPost2010Prop31
280
     0
102
RTVSPost2010PropOp31
 70
     1
102
RTVSPost2010Prop32
280
     0
102
RTVSPost2010PropOp32
 70
     1
102
RTVSPost2010Prop33
280
     0
102
RTVSPost2010PropOp33
 70
     1
102
RTVSPost2010Prop34
280
     0
102
RTVSPost2010PropOp34
 70
     1
102
RTVSPost2010Prop35
280
     0
102
RTVSPost2010PropOp35
 70
     1
102
RTVSPost2010Prop36
280
     0
102
RTVSPost2010PropOp36
 70
     1
102
RTVSPost2010Prop37
 90
       50
102
RTVSPost2010PropOp37
 70
     1
102
RTVSPost2010Prop38
140
0.0
102
RTVSPost2010PropOp38
 70
     1
102
RTVSPost2010Prop39
140
1.0
102
RTVSPost2010PropOp39
 70
     1
102
RTVSPost2010Prop40
 90
        0
102
RTVSPost2010PropOp40
 70
     1
102
RTVSPost2010Prop41ColorIndex
 90
       18
102
RTVSPost2010Prop41ColorRGB
 90
        0
102
RTVSPost2010PropOp41
 70
     1
102
RTVSPost2010Prop42
 90
       50
102
RTVSPost2010PropOp42
 70
     1
102
RTVSPost2010Prop43
 90
        3
102
RTVSPost2010PropOp43
 70
     1
102
RTVSPost2010Prop44ColorIndex
 90
        5
102
RTVSPost2010Prop44ColorRGB
 90
      255
102
RTVSPost2010PropOp44
 70
     1
102
RTVSPost2010Prop45
280
     0
102
RTVSPost2010PropOp45
 70
     1
102
RTVSPost2010Prop46
 90
       50
102
RTVSPost2010PropOp46
 70
     1
102
RTVSPost2010Prop47
 90
       50
102
RTVSPost2010PropOp47
 70
     1
102
RTVSPost2010Prop48
 90
       50
102
RTVSPost2010PropOp48
 70
     1
102
RTVSPost2010Prop49
280
     0
102
RTVSPost2010PropOp49
 70
     1
102
RTVSPost2010Prop50
 90
       50
102
RTVSPost2010PropOp50
 70
     1
102
RTVSPost2010Prop51ColorIndex
 90
      256
102
RTVSPost2010Prop51ColorRGB
 90
-16777216
102
RTVSPost2010PropOp51
 70
     0
102
RTVSPost2010Prop52
140
1.0
102
RTVSPost2010PropOp52
 70
     0
102
RTVSPost2010Prop53
 90
        2
102
RTVSPost2010PropOp53
 70
     1
102
RTVSPost2010Prop54
  1
strokes_ogs.tif
102
RTVSPost2010PropOp54
 70
     1
102
RTVSPost2010Prop55
280
     0
102
RTVSPost2010PropOp55
 70
     1
102
RTVSPost2010Prop56
140
1.0
102
RTVSPost2010PropOp56
 70
     1
102
RTVSPost2010Prop57
140
1.0
102
RTVSPost2010PropOp57
 70
     1
  0
XRECORD
  5
526
102
{ACAD_REACTORS
330
525
102
}
330
525
100
AcDbXrecord
280
     1
102
RTVSPropertyOp0
 70
     1
102
RTVSPropertyOp1
 70
     1
102
RTVSPropertyOp2
 70
     1
102
RTVSPropertyOp3
 70
     1
102
RTVSPropertyOp4
 70
     1
102
RTVSPropertyOp5
 70
     1
102
RTVSPropertyOp6
 70
     1
102
RTVSPropertyOp7
 70
     1
102
RTVSPropertyOp8
 70
     1
102
RTVSPropertyOp9
 70
     1
102
RTVSPropertyOp10
 70
     1
102
RTVSPropertyOp11
 70
     1
102
RTVSPropertyOp12
 70
     1
102
RTVSPropertyOp13
 70
     1
102
RTVSPropertyOp14
 70
     1
102
RTVSPropertyOp15
 70
     1
102
RTVSPropertyOp16
 70
     1
102
RTVSPropertyOp17
 70
     1
102
RTVSPropertyOp18
 70
     1
102
RTVSPropertyOp19
 70
     1
102
RTVSPropertyOp20
 70
     1
102
RTVSPropertyOp21
 70
     1
102
RTVSPropertyOp22
 70
     1
102
RTVSPropertyOp23
 70
     1
102
RTVSPropertyOp24
 70
     1
102
RTVSPropertyOp25
 70
     1
102
RTVSPropertyOp26
 70
     1
102
RTVSPropertyOp27
 70
     1
102
RTVSPropertyOp28
 70
     1
102
RTVSPropertyOp29
 70
     1
102
RTVSPropertyOp30
 70
     1
102
RTVSPropertyOp31
 70
     1
102
RTVSPropertyOp32
 70
     1
102
RTVSPropertyOp33
 70
     1
102
RTVSPropertyOp34
 70
     1
102
RTVSPropertyOp35
 70
     1
102
RTVSPropertyOp36
 70
     1
102
RTVSPropertyOp37
 70
     1
102
RTVSPropertyOp38
 70
     1
102
RTVSPropertyOp39
 70
     1
102
RTVSPropertyOp40
 70
     1
102
RTVSPropertyOp41
 70
     1
102
RTVSPropertyOp42
 70
     1
102
RTVSPropertyOp43
 70
     1
102
RTVSPropertyOp44
 70
     1
102
RTVSPropertyOp45
 70
     1
102
RTVSPropertyOp46
 70
     1
102
RTVSPropertyOp47
 70
     1
102
RTVSPropertyOp48
 70
     1
102
RTVSPropertyOp49
 70
     1
102
RTVSPropertyOp50
 70
     1
102
RTVSPropertyOp51
 70
     0
102
RTVSPropertyOp52
 70
     0
102
RTVSPropertyOp53
 70
     1
102
RTVSPropertyOp54
 70
     1
102
RTVSPropertyOp55
 70
     1
102
RTVSPropertyOp56
 70
     1
102
RTVSPropertyOp57
 70
     1
102
RTVSPost2010Prop28
280
     0
102
RTVSPost2010PropOp28
 70
     1
102
RTVSPost2010Prop29
280
     1
102
RTVSPost2010PropOp29
 70
     1
102
RTVSPost2010Prop30
280
     1
102
RTVSPost2010PropOp30
 70
     1
102
RTVSPost2010Prop31
280
     0
102
RTVSPost2010PropOp31
 70
     1
102
RTVSPost2010Prop32
280
     0
102
RTVSPost2010PropOp32
 70
     1
102
RTVSPost2010Prop33
280
     0
102
RTVSPost2010PropOp33
 70
     1
102
RTVSPost2010Prop34
280
     0
102
RTVSPost2010PropOp34
 70
     1
102
RTVSPost2010Prop35
280
     0
102
RTVSPost2010PropOp35
 70
     1
102
RTVSPost2010Prop36
280
     0
102
RTVSPost2010PropOp36
 70
     1
102
RTVSPost2010Prop37
 90
       50
102
RTVSPost2010PropOp37
 70
     1
102
RTVSPost2010Prop38
140
0.0
102
RTVSPost2010PropOp38
 70
     1
102
RTVSPost2010Prop39
140
1.0
102
RTVSPost2010PropOp39
 70
     1
102
RTVSPost2010Prop40
 90
        0
102
RTVSPost2010PropOp40
 70
     1
102
RTVSPost2010Prop41ColorIndex
 90
       18
102
RTVSPost2010Prop41ColorRGB
 90
        0
102
RTVSPost2010PropOp41
 70
     1
102
RTVSPost2010Prop42
 90
       50
102
RTVSPost2010PropOp42
 70
     1
102
RTVSPost2010Prop43
 90
        3
102
RTVSPost2010PropOp43
 70
     1
102
RTVSPost2010Prop44ColorIndex
 90
        5
102
RTVSPost2010Prop44ColorRGB
 90
      255
102
RTVSPost2010PropOp44
 70
     1
102
RTVSPost2010Prop45
280
     0
102
RTVSPost2010PropOp45
 70
     1
102
RTVSPost2010Prop46
 90
       50
102
RTVSPost2010PropOp46
 70
     1
102
RTVSPost2010Prop47
 90
       50
102
RTVSPost2010PropOp47
 70
     1
102
RTVSPost2010Prop48
 90
       50
102
RTVSPost2010PropOp48
 70
     1
102
RTVSPost2010Prop49
280
     0
102
RTVSPost2010PropOp49
 70
     1
102
RTVSPost2010Prop50
 90
       50
102
RTVSPost2010PropOp50
 70
     1
102
RTVSPost2010Prop51ColorIndex
 90
      256
102
RTVSPost2010Prop51ColorRGB
 90
-16777216
102
RTVSPost2010PropOp51
 70
     0
102
RTVSPost2010Prop52
140
1.0
102
RTVSPost2010PropOp52
 70
     0
102
RTVSPost2010Prop53
 90
        2
102
RTVSPost2010PropOp53
 70
     1
102
RTVSPost2010Prop54
  1
strokes_ogs.tif
102
RTVSPost2010PropOp54
 70
     1
102
RTVSPost2010Prop55
280
     0
102
RTVSPost2010PropOp55
 70
     1
102
RTVSPost2010Prop56
140
1.0
102
RTVSPost2010PropOp56
 70
     1
102
RTVSPost2010Prop57
140
1.0
102
RTVSPost2010PropOp57
 70
     1
  0
XRECORD
  5
528
102
{ACAD_REACTORS
330
527
102
}
330
527
100
AcDbXrecord
280
     1
102
RTVSPropertyOp0
 70
     1
102
RTVSPropertyOp1
 70
     1
102
RTVSPropertyOp2
 70
     1
102
RTVSPropertyOp3
 70
     1
102
RTVSPropertyOp4
 70
     1
102
RTVSPropertyOp5
 70
     1
102
RTVSPropertyOp6
 70
     1
102
RTVSPropertyOp7
 70
     1
102
RTVSPropertyOp8
 70
     1
102
RTVSPropertyOp9
 70
     1
102
RTVSPropertyOp10
 70
     1
102
RTVSPropertyOp11
 70
     1
102
RTVSPropertyOp12
 70
     1
102
RTVSPropertyOp13
 70
     1
102
RTVSPropertyOp14
 70
     1
102
RTVSPropertyOp15
 70
     1
102
RTVSPropertyOp16
 70
     1
102
RTVSPropertyOp17
 70
     1
102
RTVSPropertyOp18
 70
     1
102
RTVSPropertyOp19
 70
     1
102
RTVSPropertyOp20
 70
     1
102
RTVSPropertyOp21
 70
     1
102
RTVSPropertyOp22
 70
     1
102
RTVSPropertyOp23
 70
     1
102
RTVSPropertyOp24
 70
     1
102
RTVSPropertyOp25
 70
     1
102
RTVSPropertyOp26
 70
     1
102
RTVSPropertyOp27
 70
     1
102
RTVSPropertyOp28
 70
     1
102
RTVSPropertyOp29
 70
     1
102
RTVSPropertyOp30
 70
     1
102
RTVSPropertyOp31
 70
     1
102
RTVSPropertyOp32
 70
     1
102
RTVSPropertyOp33
 70
     1
102
RTVSPropertyOp34
 70
     1
102
RTVSPropertyOp35
 70
     1
102
RTVSPropertyOp36
 70
     1
102
RTVSPropertyOp37
 70
     1
102
RTVSPropertyOp38
 70
     1
102
RTVSPropertyOp39
 70
     1
102
RTVSPropertyOp40
 70
     1
102
RTVSPropertyOp41
 70
     1
102
RTVSPropertyOp42
 70
     1
102
RTVSPropertyOp43
 70
     1
102
RTVSPropertyOp44
 70
     1
102
RTVSPropertyOp45
 70
     1
102
RTVSPropertyOp46
 70
     1
102
RTVSPropertyOp47
 70
     1
102
RTVSPropertyOp48
 70
     1
102
RTVSPropertyOp49
 70
     1
102
RTVSPropertyOp50
 70
     1
102
RTVSPropertyOp51
 70
     0
102
RTVSPropertyOp52
 70
     0
102
RTVSPropertyOp53
 70
     1
102
RTVSPropertyOp54
 70
     1
102
RTVSPropertyOp55
 70
     1
102
RTVSPropertyOp56
 70
     1
102
RTVSPropertyOp57
 70
     1
102
RTVSPost2010Prop28
280
     0
102
RTVSPost2010PropOp28
 70
     1
102
RTVSPost2010Prop29
280
     1
102
RTVSPost2010PropOp29
 70
     1
102
RTVSPost2010Prop30
280
     1
102
RTVSPost2010PropOp30
 70
     1
102
RTVSPost2010Prop31
280
     0
102
RTVSPost2010PropOp31
 70
     1
102
RTVSPost2010Prop32
280
     0
102
RTVSPost2010PropOp32
 70
     1
102
RTVSPost2010Prop33
280
     0
102
RTVSPost2010PropOp33
 70
     1
102
RTVSPost2010Prop34
280
     0
102
RTVSPost2010PropOp34
 70
     1
102
RTVSPost2010Prop35
280
     0
102
RTVSPost2010PropOp35
 70
     1
102
RTVSPost2010Prop36
280
     0
102
RTVSPost2010PropOp36
 70
     1
102
RTVSPost2010Prop37
 90
       50
102
RTVSPost2010PropOp37
 70
     1
102
RTVSPost2010Prop38
140
0.0
102
RTVSPost2010PropOp38
 70
     1
102
RTVSPost2010Prop39
140
1.0
102
RTVSPost2010PropOp39
 70
     1
102
RTVSPost2010Prop40
 90
        0
102
RTVSPost2010PropOp40
 70
     1
102
RTVSPost2010Prop41ColorIndex
 90
       18
102
RTVSPost2010Prop41ColorRGB
 90
        0
102
RTVSPost2010PropOp41
 70
     1
102
RTVSPost2010Prop42
 90
       50
102
RTVSPost2010PropOp42
 70
     1
102
RTVSPost2010Prop43
 90
        3
102
RTVSPost2010PropOp43
 70
     1
102
RTVSPost2010Prop44ColorIndex
 90
        5
102
RTVSPost2010Prop44ColorRGB
 90
      255
102
RTVSPost2010PropOp44
 70
     1
102
RTVSPost2010Prop45
280
     0
102
RTVSPost2010PropOp45
 70
     1
102
RTVSPost2010Prop46
 90
       50
102
RTVSPost2010PropOp46
 70
     1
102
RTVSPost2010Prop47
 90
       50
102
RTVSPost2010PropOp47
 70
     1
102
RTVSPost2010Prop48
 90
       50
102
RTVSPost2010PropOp48
 70
     1
102
RTVSPost2010Prop49
280
     0
102
RTVSPost2010PropOp49
 70
     1
102
RTVSPost2010Prop50
 90
       50
102
RTVSPost2010PropOp50
 70
     1
102
RTVSPost2010Prop51ColorIndex
 90
      256
102
RTVSPost2010Prop51ColorRGB
 90
-16777216
102
RTVSPost2010PropOp51
 70
     0
102
RTVSPost2010Prop52
140
1.0
102
RTVSPost2010PropOp52
 70
     0
102
RTVSPost2010Prop53
 90
        2
102
RTVSPost2010PropOp53
 70
     1
102
RTVSPost2010Prop54
  1
strokes_ogs.tif
102
RTVSPost2010PropOp54
 70
     1
102
RTVSPost2010Prop55
280
     0
102
RTVSPost2010PropOp55
 70
     1
102
RTVSPost2010Prop56
140
1.0
102
RTVSPost2010PropOp56
 70
     1
102
RTVSPost2010Prop57
140
1.0
102
RTVSPost2010PropOp57
 70
     1
  0
XRECORD
  5
52A
102
{ACAD_REACTORS
330
529
102
}
330
529
100
AcDbXrecord
280
     1
102
RTVSPropertyOp0
 70
     1
102
RTVSPropertyOp1
 70
     1
102
RTVSPropertyOp2
 70
     1
102
RTVSPropertyOp3
 70
     1
102
RTVSPropertyOp4
 70
     1
102
RTVSPropertyOp5
 70
     1
102
RTVSPropertyOp6
 70
     1
102
RTVSPropertyOp7
 70
     1
102
RTVSPropertyOp8
 70
     1
102
RTVSPropertyOp9
 70
     1
102
RTVSPropertyOp10
 70
     1
102
RTVSPropertyOp11
 70
     1
102
RTVSPropertyOp12
 70
     1
102
RTVSPropertyOp13
 70
     1
102
RTVSPropertyOp14
 70
     1
102
RTVSPropertyOp15
 70
     1
102
RTVSPropertyOp16
 70
     1
102
RTVSPropertyOp17
 70
     1
102
RTVSPropertyOp18
 70
     1
102
RTVSPropertyOp19
 70
     1
102
RTVSPropertyOp20
 70
     1
102
RTVSPropertyOp21
 70
     1
102
RTVSPropertyOp22
 70
     1
102
RTVSPropertyOp23
 70
     1
102
RTVSPropertyOp24
 70
     1
102
RTVSPropertyOp25
 70
     1
102
RTVSPropertyOp26
 70
     1
102
RTVSPropertyOp27
 70
     1
102
RTVSPropertyOp28
 70
     1
102
RTVSPropertyOp29
 70
     1
102
RTVSPropertyOp30
 70
     1
102
RTVSPropertyOp31
 70
     1
102
RTVSPropertyOp32
 70
     1
102
RTVSPropertyOp33
 70
     1
102
RTVSPropertyOp34
 70
     1
102
RTVSPropertyOp35
 70
     1
102
RTVSPropertyOp36
 70
     1
102
RTVSPropertyOp37
 70
     1
102
RTVSPropertyOp38
 70
     1
102
RTVSPropertyOp39
 70
     1
102
RTVSPropertyOp40
 70
     1
102
RTVSPropertyOp41
 70
     1
102
RTVSPropertyOp42
 70
     1
102
RTVSPropertyOp43
 70
     1
102
RTVSPropertyOp44
 70
     1
102
RTVSPropertyOp45
 70
     1
102
RTVSPropertyOp46
 70
     1
102
RTVSPropertyOp47
 70
     1
102
RTVSPropertyOp48
 70
     1
102
RTVSPropertyOp49
 70
     1
102
RTVSPropertyOp50
 70
     1
102
RTVSPropertyOp51
 70
     0
102
RTVSPropertyOp52
 70
     0
102
RTVSPropertyOp53
 70
     1
102
RTVSPropertyOp54
 70
     1
102
RTVSPropertyOp55
 70
     1
102
RTVSPropertyOp56
 70
     1
102
RTVSPropertyOp57
 70
     1
102
RTVSPost2010Prop28
280
     0
102
RTVSPost2010PropOp28
 70
     1
102
RTVSPost2010Prop29
280
     1
102
RTVSPost2010PropOp29
 70
     1
102
RTVSPost2010Prop30
280
     1
102
RTVSPost2010PropOp30
 70
     1
102
RTVSPost2010Prop31
280
     0
102
RTVSPost2010PropOp31
 70
     1
102
RTVSPost2010Prop32
280
     0
102
RTVSPost2010PropOp32
 70
     1
102
RTVSPost2010Prop33
280
     0
102
RTVSPost2010PropOp33
 70
     1
102
RTVSPost2010Prop34
280
     0
102
RTVSPost2010PropOp34
 70
     1
102
RTVSPost2010Prop35
280
     0
102
RTVSPost2010PropOp35
 70
     1
102
RTVSPost2010Prop36
280
     0
102
RTVSPost2010PropOp36
 70
     1
102
RTVSPost2010Prop37
 90
       50
102
RTVSPost2010PropOp37
 70
     1
102
RTVSPost2010Prop38
140
0.0
102
RTVSPost2010PropOp38
 70
     1
102
RTVSPost2010Prop39
140
1.0
102
RTVSPost2010PropOp39
 70
     1
102
RTVSPost2010Prop40
 90
        0
102
RTVSPost2010PropOp40
 70
     1
102
RTVSPost2010Prop41ColorIndex
 90
       18
102
RTVSPost2010Prop41ColorRGB
 90
        0
102
RTVSPost2010PropOp41
 70
     1
102
RTVSPost2010Prop42
 90
       50
102
RTVSPost2010PropOp42
 70
     1
102
RTVSPost2010Prop43
 90
        3
102
RTVSPost2010PropOp43
 70
     1
102
RTVSPost2010Prop44ColorIndex
 90
        5
102
RTVSPost2010Prop44ColorRGB
 90
      255
102
RTVSPost2010PropOp44
 70
     1
102
RTVSPost2010Prop45
280
     0
102
RTVSPost2010PropOp45
 70
     1
102
RTVSPost2010Prop46
 90
       50
102
RTVSPost2010PropOp46
 70
     1
102
RTVSPost2010Prop47
 90
       50
102
RTVSPost2010PropOp47
 70
     1
102
RTVSPost2010Prop48
 90
       50
102
RTVSPost2010PropOp48
 70
     1
102
RTVSPost2010Prop49
280
     0
102
RTVSPost2010PropOp49
 70
     1
102
RTVSPost2010Prop50
 90
       50
102
RTVSPost2010PropOp50
 70
     1
102
RTVSPost2010Prop51ColorIndex
 90
      256
102
RTVSPost2010Prop51ColorRGB
 90
-16777216
102
RTVSPost2010PropOp51
 70
     0
102
RTVSPost2010Prop52
140
1.0
102
RTVSPost2010PropOp52
 70
     0
102
RTVSPost2010Prop53
 90
        2
102
RTVSPost2010PropOp53
 70
     1
102
RTVSPost2010Prop54
  1
strokes_ogs.tif
102
RTVSPost2010PropOp54
 70
     1
102
RTVSPost2010Prop55
280
     0
102
RTVSPost2010PropOp55
 70
     1
102
RTVSPost2010Prop56
140
1.0
102
RTVSPost2010PropOp56
 70
     1
102
RTVSPost2010Prop57
140
1.0
102
RTVSPost2010PropOp57
 70
     1
  0
XRECORD
  5
52C
102
{ACAD_REACTORS
330
52B
102
}
330
52B
100
AcDbXrecord
280
     1
102
RTVSPropertyOp0
 70
     0
102
RTVSPropertyOp1
 70
     0
102
RTVSPropertyOp2
 70
     0
102
RTVSPropertyOp3
 70
     0
102
RTVSPropertyOp4
 70
     0
102
RTVSPropertyOp5
 70
     0
102
RTVSPropertyOp6
 70
     0
102
RTVSPropertyOp7
 70
     0
102
RTVSPropertyOp8
 70
     0
102
RTVSPropertyOp9
 70
     0
102
RTVSPropertyOp10
 70
     0
102
RTVSPropertyOp11
 70
     0
102
RTVSPropertyOp12
 70
     0
102
RTVSPropertyOp13
 70
     0
102
RTVSPropertyOp14
 70
     2
102
RTVSPropertyOp15
 70
     0
102
RTVSPropertyOp16
 70
     0
102
RTVSPropertyOp17
 70
     0
102
RTVSPropertyOp18
 70
     0
102
RTVSPropertyOp19
 70
     0
102
RTVSPropertyOp20
 70
     0
102
RTVSPropertyOp21
 70
     0
102
RTVSPropertyOp22
 70
     0
102
RTVSPropertyOp23
 70
     0
102
RTVSPropertyOp24
 70
     0
102
RTVSPropertyOp25
 70
     0
102
RTVSPropertyOp26
 70
     0
102
RTVSPropertyOp27
 70
     0
102
RTVSPropertyOp28
 70
     1
102
RTVSPropertyOp29
 70
     1
102
RTVSPropertyOp30
 70
     1
102
RTVSPropertyOp31
 70
     1
102
RTVSPropertyOp32
 70
     1
102
RTVSPropertyOp33
 70
     1
102
RTVSPropertyOp34
 70
     1
102
RTVSPropertyOp35
 70
     1
102
RTVSPropertyOp36
 70
     1
102
RTVSPropertyOp37
 70
     0
102
RTVSPropertyOp38
 70
     0
102
RTVSPropertyOp39
 70
     0
102
RTVSPropertyOp40
 70
     0
102
RTVSPropertyOp41
 70
     0
102
RTVSPropertyOp42
 70
     0
102
RTVSPropertyOp43
 70
     0
102
RTVSPropertyOp44
 70
     0
102
RTVSPropertyOp45
 70
     1
102
RTVSPropertyOp46
 70
     0
102
RTVSPropertyOp47
 70
     0
102
RTVSPropertyOp48
 70
     0
102
RTVSPropertyOp49
 70
     1
102
RTVSPropertyOp50
 70
     0
102
RTVSPropertyOp51
 70
     0
102
RTVSPropertyOp52
 70
     0
102
RTVSPropertyOp53
 70
     0
102
RTVSPropertyOp54
 70
     0
102
RTVSPropertyOp55
 70
     1
102
RTVSPropertyOp56
 70
     0
102
RTVSPropertyOp57
 70
     0
102
RTVSPost2010Prop28
280
     0
102
RTVSPost2010PropOp28
 70
     1
102
RTVSPost2010Prop29
280
     1
102
RTVSPost2010PropOp29
 70
     1
102
RTVSPost2010Prop30
280
     1
102
RTVSPost2010PropOp30
 70
     1
102
RTVSPost2010Prop31
280
     0
102
RTVSPost2010PropOp31
 70
     1
102
RTVSPost2010Prop32
280
     0
102
RTVSPost2010PropOp32
 70
     1
102
RTVSPost2010Prop33
280
     0
102
RTVSPost2010PropOp33
 70
     1
102
RTVSPost2010Prop34
280
     0
102
RTVSPost2010PropOp34
 70
     1
102
RTVSPost2010Prop35
280
     0
102
RTVSPost2010PropOp35
 70
     1
102
RTVSPost2010Prop36
280
     0
102
RTVSPost2010PropOp36
 70
     1
102
RTVSPost2010Prop37
 90
       50
102
RTVSPost2010PropOp37
 70
     0
102
RTVSPost2010Prop38
140
0.0
102
RTVSPost2010PropOp38
 70
     0
102
RTVSPost2010Prop39
140
1.0
102
RTVSPost2010PropOp39
 70
     0
102
RTVSPost2010Prop40
 90
        0
102
RTVSPost2010PropOp40
 70
     0
102
RTVSPost2010Prop41ColorIndex
 90
       18
102
RTVSPost2010Prop41ColorRGB
 90
        0
102
RTVSPost2010PropOp41
 70
     0
102
RTVSPost2010Prop42
 90
       50
102
RTVSPost2010PropOp42
 70
     0
102
RTVSPost2010Prop43
 90
        3
102
RTVSPost2010PropOp43
 70
     0
102
RTVSPost2010Prop44ColorIndex
 90
        5
102
RTVSPost2010Prop44ColorRGB
 90
      255
102
RTVSPost2010PropOp44
 70
     0
102
RTVSPost2010Prop45
280
     0
102
RTVSPost2010PropOp45
 70
     1
102
RTVSPost2010Prop46
 90
       50
102
RTVSPost2010PropOp46
 70
     0
102
RTVSPost2010Prop47
 90
       50
102
RTVSPost2010PropOp47
 70
     0
102
RTVSPost2010Prop48
 90
       50
102
RTVSPost2010PropOp48
 70
     0
102
RTVSPost2010Prop49
280
     0
102
RTVSPost2010PropOp49
 70
     1
102
RTVSPost2010Prop50
 90
       50
102
RTVSPost2010PropOp50
 70
     0
102
RTVSPost2010Prop51ColorIndex
 90
      256
102
RTVSPost2010Prop51ColorRGB
 90
-16777216
102
RTVSPost2010PropOp51
 70
     0
102
RTVSPost2010Prop52
140
1.0
102
RTVSPost2010PropOp52
 70
     0
102
RTVSPost2010Prop53
 90
        2
102
RTVSPost2010PropOp53
 70
     0
102
RTVSPost2010Prop54
  1
strokes_ogs.tif
102
RTVSPost2010PropOp54
 70
     0
102
RTVSPost2010Prop55
280
     0
102
RTVSPost2010PropOp55
 70
     1
102
RTVSPost2010Prop56
140
1.0
102
RTVSPost2010PropOp56
 70
     0
102
RTVSPost2010Prop57
140
1.0
102
RTVSPost2010PropOp57
 70
     0
  0
XRECORD
  5
52E
102
{ACAD_REACTORS
330
52D
102
}
330
52D
100
AcDbXrecord
280
     1
102
RTVSPropertyOp0
 70
     1
102
RTVSPropertyOp1
 70
     1
102
RTVSPropertyOp2
 70
     1
102
RTVSPropertyOp3
 70
     1
102
RTVSPropertyOp4
 70
     1
102
RTVSPropertyOp5
 70
     1
102
RTVSPropertyOp6
 70
     1
102
RTVSPropertyOp7
 70
     1
102
RTVSPropertyOp8
 70
     1
102
RTVSPropertyOp9
 70
     1
102
RTVSPropertyOp10
 70
     1
102
RTVSPropertyOp11
 70
     1
102
RTVSPropertyOp12
 70
     1
102
RTVSPropertyOp13
 70
     1
102
RTVSPropertyOp14
 70
     1
102
RTVSPropertyOp15
 70
     1
102
RTVSPropertyOp16
 70
     1
102
RTVSPropertyOp17
 70
     1
102
RTVSPropertyOp18
 70
     1
102
RTVSPropertyOp19
 70
     1
102
RTVSPropertyOp20
 70
     1
102
RTVSPropertyOp21
 70
     1
102
RTVSPropertyOp22
 70
     1
102
RTVSPropertyOp23
 70
     1
102
RTVSPropertyOp24
 70
     1
102
RTVSPropertyOp25
 70
     1
102
RTVSPropertyOp26
 70
     1
102
RTVSPropertyOp27
 70
     1
102
RTVSPropertyOp28
 70
     1
102
RTVSPropertyOp29
 70
     1
102
RTVSPropertyOp30
 70
     1
102
RTVSPropertyOp31
 70
     1
102
RTVSPropertyOp32
 70
     1
102
RTVSPropertyOp33
 70
     1
102
RTVSPropertyOp34
 70
     1
102
RTVSPropertyOp35
 70
     1
102
RTVSPropertyOp36
 70
     1
102
RTVSPropertyOp37
 70
     1
102
RTVSPropertyOp38
 70
     1
102
RTVSPropertyOp39
 70
     1
102
RTVSPropertyOp40
 70
     1
102
RTVSPropertyOp41
 70
     1
102
RTVSPropertyOp42
 70
     1
102
RTVSPropertyOp43
 70
     1
102
RTVSPropertyOp44
 70
     1
102
RTVSPropertyOp45
 70
     1
102
RTVSPropertyOp46
 70
     1
102
RTVSPropertyOp47
 70
     1
102
RTVSPropertyOp48
 70
     1
102
RTVSPropertyOp49
 70
     1
102
RTVSPropertyOp50
 70
     1
102
RTVSPropertyOp51
 70
     0
102
RTVSPropertyOp52
 70
     0
102
RTVSPropertyOp53
 70
     1
102
RTVSPropertyOp54
 70
     1
102
RTVSPropertyOp55
 70
     1
102
RTVSPropertyOp56
 70
     1
102
RTVSPropertyOp57
 70
     1
102
RTVSPost2010Prop28
280
     0
102
RTVSPost2010PropOp28
 70
     1
102
RTVSPost2010Prop29
280
     1
102
RTVSPost2010PropOp29
 70
     1
102
RTVSPost2010Prop30
280
     1
102
RTVSPost2010PropOp30
 70
     1
102
RTVSPost2010Prop31
280
     0
102
RTVSPost2010PropOp31
 70
     1
102
RTVSPost2010Prop32
280
     0
102
RTVSPost2010PropOp32
 70
     1
102
RTVSPost2010Prop33
280
     0
102
RTVSPost2010PropOp33
 70
     1
102
RTVSPost2010Prop34
280
     0
102
RTVSPost2010PropOp34
 70
     1
102
RTVSPost2010Prop35
280
     0
102
RTVSPost2010PropOp35
 70
     1
102
RTVSPost2010Prop36
280
     0
102
RTVSPost2010PropOp36
 70
     1
102
RTVSPost2010Prop37
 90
       50
102
RTVSPost2010PropOp37
 70
     1
102
RTVSPost2010Prop38
140
0.0
102
RTVSPost2010PropOp38
 70
     1
102
RTVSPost2010Prop39
140
1.0
102
RTVSPost2010PropOp39
 70
     1
102
RTVSPost2010Prop40
 90
        0
102
RTVSPost2010PropOp40
 70
     1
102
RTVSPost2010Prop41ColorIndex
 90
       18
102
RTVSPost2010Prop41ColorRGB
 90
        0
102
RTVSPost2010PropOp41
 70
     1
102
RTVSPost2010Prop42
 90
       50
102
RTVSPost2010PropOp42
 70
     1
102
RTVSPost2010Prop43
 90
        3
102
RTVSPost2010PropOp43
 70
     1
102
RTVSPost2010Prop44ColorIndex
 90
        5
102
RTVSPost2010Prop44ColorRGB
 90
      255
102
RTVSPost2010PropOp44
 70
     1
102
RTVSPost2010Prop45
280
     0
102
RTVSPost2010PropOp45
 70
     1
102
RTVSPost2010Prop46
 90
       50
102
RTVSPost2010PropOp46
 70
     1
102
RTVSPost2010Prop47
 90
       50
102
RTVSPost2010PropOp47
 70
     1
102
RTVSPost2010Prop48
 90
       50
102
RTVSPost2010PropOp48
 70
     1
102
RTVSPost2010Prop49
280
     0
102
RTVSPost2010PropOp49
 70
     1
102
RTVSPost2010Prop50
 90
       50
102
RTVSPost2010PropOp50
 70
     1
102
RTVSPost2010Prop51ColorIndex
 90
      256
102
RTVSPost2010Prop51ColorRGB
 90
-16777216
102
RTVSPost2010PropOp51
 70
     0
102
RTVSPost2010Prop52
140
1.0
102
RTVSPost2010PropOp52
 70
     0
102
RTVSPost2010Prop53
 90
        2
102
RTVSPost2010PropOp53
 70
     1
102
RTVSPost2010Prop54
  1
strokes_ogs.tif
102
RTVSPost2010PropOp54
 70
     1
102
RTVSPost2010Prop55
280
     0
102
RTVSPost2010PropOp55
 70
     1
102
RTVSPost2010Prop56
140
1.0
102
RTVSPost2010PropOp56
 70
     1
102
RTVSPost2010Prop57
140
1.0
102
RTVSPost2010PropOp57
 70
     1
  0
XRECORD
  5
530
102
{ACAD_REACTORS
330
52F
102
}
330
52F
100
AcDbXrecord
280
     1
102
RTVSPropertyOp0
 70
     1
102
RTVSPropertyOp1
 70
     1
102
RTVSPropertyOp2
 70
     1
102
RTVSPropertyOp3
 70
     1
102
RTVSPropertyOp4
 70
     1
102
RTVSPropertyOp5
 70
     1
102
RTVSPropertyOp6
 70
     1
102
RTVSPropertyOp7
 70
     1
102
RTVSPropertyOp8
 70
     1
102
RTVSPropertyOp9
 70
     1
102
RTVSPropertyOp10
 70
     1
102
RTVSPropertyOp11
 70
     1
102
RTVSPropertyOp12
 70
     1
102
RTVSPropertyOp13
 70
     1
102
RTVSPropertyOp14
 70
     1
102
RTVSPropertyOp15
 70
     1
102
RTVSPropertyOp16
 70
     1
102
RTVSPropertyOp17
 70
     1
102
RTVSPropertyOp18
 70
     1
102
RTVSPropertyOp19
 70
     1
102
RTVSPropertyOp20
 70
     1
102
RTVSPropertyOp21
 70
     1
102
RTVSPropertyOp22
 70
     1
102
RTVSPropertyOp23
 70
     1
102
RTVSPropertyOp24
 70
     1
102
RTVSPropertyOp25
 70
     1
102
RTVSPropertyOp26
 70
     1
102
RTVSPropertyOp27
 70
     1
102
RTVSPropertyOp28
 70
     1
102
RTVSPropertyOp29
 70
     1
102
RTVSPropertyOp30
 70
     1
102
RTVSPropertyOp31
 70
     1
102
RTVSPropertyOp32
 70
     1
102
RTVSPropertyOp33
 70
     1
102
RTVSPropertyOp34
 70
     1
102
RTVSPropertyOp35
 70
     1
102
RTVSPropertyOp36
 70
     1
102
RTVSPropertyOp37
 70
     1
102
RTVSPropertyOp38
 70
     1
102
RTVSPropertyOp39
 70
     1
102
RTVSPropertyOp40
 70
     1
102
RTVSPropertyOp41
 70
     1
102
RTVSPropertyOp42
 70
     1
102
RTVSPropertyOp43
 70
     1
102
RTVSPropertyOp44
 70
     1
102
RTVSPropertyOp45
 70
     1
102
RTVSPropertyOp46
 70
     1
102
RTVSPropertyOp47
 70
     1
102
RTVSPropertyOp48
 70
     1
102
RTVSPropertyOp49
 70
     1
102
RTVSPropertyOp50
 70
     1
102
RTVSPropertyOp51
 70
     0
102
RTVSPropertyOp52
 70
     0
102
RTVSPropertyOp53
 70
     1
102
RTVSPropertyOp54
 70
     1
102
RTVSPropertyOp55
 70
     1
102
RTVSPropertyOp56
 70
     1
102
RTVSPropertyOp57
 70
     1
102
RTVSPost2010Prop28
280
     0
102
RTVSPost2010PropOp28
 70
     1
102
RTVSPost2010Prop29
280
     1
102
RTVSPost2010PropOp29
 70
     1
102
RTVSPost2010Prop30
280
     1
102
RTVSPost2010PropOp30
 70
     1
102
RTVSPost2010Prop31
280
     0
102
RTVSPost2010PropOp31
 70
     1
102
RTVSPost2010Prop32
280
     0
102
RTVSPost2010PropOp32
 70
     1
102
RTVSPost2010Prop33
280
     0
102
RTVSPost2010PropOp33
 70
     1
102
RTVSPost2010Prop34
280
     0
102
RTVSPost2010PropOp34
 70
     1
102
RTVSPost2010Prop35
280
     0
102
RTVSPost2010PropOp35
 70
     1
102
RTVSPost2010Prop36
280
     0
102
RTVSPost2010PropOp36
 70
     1
102
RTVSPost2010Prop37
 90
       50
102
RTVSPost2010PropOp37
 70
     1
102
RTVSPost2010Prop38
140
0.0
102
RTVSPost2010PropOp38
 70
     1
102
RTVSPost2010Prop39
140
1.0
102
RTVSPost2010PropOp39
 70
     1
102
RTVSPost2010Prop40
 90
        0
102
RTVSPost2010PropOp40
 70
     1
102
RTVSPost2010Prop41ColorIndex
 90
       18
102
RTVSPost2010Prop41ColorRGB
 90
        0
102
RTVSPost2010PropOp41
 70
     1
102
RTVSPost2010Prop42
 90
       50
102
RTVSPost2010PropOp42
 70
     1
102
RTVSPost2010Prop43
 90
        3
102
RTVSPost2010PropOp43
 70
     1
102
RTVSPost2010Prop44ColorIndex
 90
        5
102
RTVSPost2010Prop44ColorRGB
 90
      255
102
RTVSPost2010PropOp44
 70
     1
102
RTVSPost2010Prop45
280
     0
102
RTVSPost2010PropOp45
 70
     1
102
RTVSPost2010Prop46
 90
       50
102
RTVSPost2010PropOp46
 70
     1
102
RTVSPost2010Prop47
 90
       50
102
RTVSPost2010PropOp47
 70
     1
102
RTVSPost2010Prop48
 90
       50
102
RTVSPost2010PropOp48
 70
     1
102
RTVSPost2010Prop49
280
     0
102
RTVSPost2010PropOp49
 70
     1
102
RTVSPost2010Prop50
 90
       50
102
RTVSPost2010PropOp50
 70
     1
102
RTVSPost2010Prop51ColorIndex
 90
      256
102
RTVSPost2010Prop51ColorRGB
 90
-16777216
102
RTVSPost2010PropOp51
 70
     0
102
RTVSPost2010Prop52
140
1.0
102
RTVSPost2010PropOp52
 70
     0
102
RTVSPost2010Prop53
 90
        2
102
RTVSPost2010PropOp53
 70
     1
102
RTVSPost2010Prop54
  1
strokes_ogs.tif
102
RTVSPost2010PropOp54
 70
     1
102
RTVSPost2010Prop55
280
     0
102
RTVSPost2010PropOp55
 70
     1
102
RTVSPost2010Prop56
140
1.0
102
RTVSPost2010PropOp56
 70
     1
102
RTVSPost2010Prop57
140
1.0
102
RTVSPost2010PropOp57
 70
     1
  0
XRECORD
  5
532
102
{ACAD_REACTORS
330
531
102
}
330
531
100
AcDbXrecord
280
     1
102
RTVSPropertyOp0
 70
     1
102
RTVSPropertyOp1
 70
     1
102
RTVSPropertyOp2
 70
     1
102
RTVSPropertyOp3
 70
     1
102
RTVSPropertyOp4
 70
     1
102
RTVSPropertyOp5
 70
     1
102
RTVSPropertyOp6
 70
     1
102
RTVSPropertyOp7
 70
     1
102
RTVSPropertyOp8
 70
     1
102
RTVSPropertyOp9
 70
     1
102
RTVSPropertyOp10
 70
     1
102
RTVSPropertyOp11
 70
     1
102
RTVSPropertyOp12
 70
     1
102
RTVSPropertyOp13
 70
     1
102
RTVSPropertyOp14
 70
     1
102
RTVSPropertyOp15
 70
     1
102
RTVSPropertyOp16
 70
     1
102
RTVSPropertyOp17
 70
     1
102
RTVSPropertyOp18
 70
     1
102
RTVSPropertyOp19
 70
     1
102
RTVSPropertyOp20
 70
     1
102
RTVSPropertyOp21
 70
     1
102
RTVSPropertyOp22
 70
     1
102
RTVSPropertyOp23
 70
     1
102
RTVSPropertyOp24
 70
     1
102
RTVSPropertyOp25
 70
     1
102
RTVSPropertyOp26
 70
     1
102
RTVSPropertyOp27
 70
     1
102
RTVSPropertyOp28
 70
     1
102
RTVSPropertyOp29
 70
     1
102
RTVSPropertyOp30
 70
     1
102
RTVSPropertyOp31
 70
     1
102
RTVSPropertyOp32
 70
     1
102
RTVSPropertyOp33
 70
     1
102
RTVSPropertyOp34
 70
     1
102
RTVSPropertyOp35
 70
     1
102
RTVSPropertyOp36
 70
     1
102
RTVSPropertyOp37
 70
     1
102
RTVSPropertyOp38
 70
     1
102
RTVSPropertyOp39
 70
     1
102
RTVSPropertyOp40
 70
     1
102
RTVSPropertyOp41
 70
     1
102
RTVSPropertyOp42
 70
     1
102
RTVSPropertyOp43
 70
     1
102
RTVSPropertyOp44
 70
     1
102
RTVSPropertyOp45
 70
     1
102
RTVSPropertyOp46
 70
     1
102
RTVSPropertyOp47
 70
     1
102
RTVSPropertyOp48
 70
     1
102
RTVSPropertyOp49
 70
     1
102
RTVSPropertyOp50
 70
     1
102
RTVSPropertyOp51
 70
     0
102
RTVSPropertyOp52
 70
     0
102
RTVSPropertyOp53
 70
     1
102
RTVSPropertyOp54
 70
     1
102
RTVSPropertyOp55
 70
     1
102
RTVSPropertyOp56
 70
     1
102
RTVSPropertyOp57
 70
     1
102
RTVSPost2010Prop28
280
     0
102
RTVSPost2010PropOp28
 70
     1
102
RTVSPost2010Prop29
280
     1
102
RTVSPost2010PropOp29
 70
     1
102
RTVSPost2010Prop30
280
     1
102
RTVSPost2010PropOp30
 70
     1
102
RTVSPost2010Prop31
280
     0
102
RTVSPost2010PropOp31
 70
     1
102
RTVSPost2010Prop32
280
     0
102
RTVSPost2010PropOp32
 70
     1
102
RTVSPost2010Prop33
280
     0
102
RTVSPost2010PropOp33
 70
     1
102
RTVSPost2010Prop34
280
     0
102
RTVSPost2010PropOp34
 70
     1
102
RTVSPost2010Prop35
280
     0
102
RTVSPost2010PropOp35
 70
     1
102
RTVSPost2010Prop36
280
     0
102
RTVSPost2010PropOp36
 70
     1
102
RTVSPost2010Prop37
 90
       50
102
RTVSPost2010PropOp37
 70
     1
102
RTVSPost2010Prop38
140
0.0
102
RTVSPost2010PropOp38
 70
     1
102
RTVSPost2010Prop39
140
1.0
102
RTVSPost2010PropOp39
 70
     1
102
RTVSPost2010Prop40
 90
        0
102
RTVSPost2010PropOp40
 70
     1
102
RTVSPost2010Prop41ColorIndex
 90
       18
102
RTVSPost2010Prop41ColorRGB
 90
        0
102
RTVSPost2010PropOp41
 70
     1
102
RTVSPost2010Prop42
 90
       50
102
RTVSPost2010PropOp42
 70
     1
102
RTVSPost2010Prop43
 90
        3
102
RTVSPost2010PropOp43
 70
     1
102
RTVSPost2010Prop44ColorIndex
 90
        5
102
RTVSPost2010Prop44ColorRGB
 90
      255
102
RTVSPost2010PropOp44
 70
     1
102
RTVSPost2010Prop45
280
     0
102
RTVSPost2010PropOp45
 70
     1
102
RTVSPost2010Prop46
 90
       50
102
RTVSPost2010PropOp46
 70
     1
102
RTVSPost2010Prop47
 90
       50
102
RTVSPost2010PropOp47
 70
     1
102
RTVSPost2010Prop48
 90
       50
102
RTVSPost2010PropOp48
 70
     1
102
RTVSPost2010Prop49
280
     0
102
RTVSPost2010PropOp49
 70
     1
102
RTVSPost2010Prop50
 90
       50
102
RTVSPost2010PropOp50
 70
     1
102
RTVSPost2010Prop51ColorIndex
 90
      256
102
RTVSPost2010Prop51ColorRGB
 90
-16777216
102
RTVSPost2010PropOp51
 70
     0
102
RTVSPost2010Prop52
140
1.0
102
RTVSPost2010PropOp52
 70
     0
102
RTVSPost2010Prop53
 90
        2
102
RTVSPost2010PropOp53
 70
     1
102
RTVSPost2010Prop54
  1
strokes_ogs.tif
102
RTVSPost2010PropOp54
 70
     1
102
RTVSPost2010Prop55
280
     0
102
RTVSPost2010PropOp55
 70
     1
102
RTVSPost2010Prop56
140
1.0
102
RTVSPost2010PropOp56
 70
     1
102
RTVSPost2010Prop57
140
1.0
102
RTVSPost2010PropOp57
 70
     1
  0
XRECORD
  5
534
102
{ACAD_REACTORS
330
533
102
}
330
533
100
AcDbXrecord
280
     1
102
RTVSPropertyOp0
 70
     1
102
RTVSPropertyOp1
 70
     1
102
RTVSPropertyOp2
 70
     1
102
RTVSPropertyOp3
 70
     1
102
RTVSPropertyOp4
 70
     1
102
RTVSPropertyOp5
 70
     1
102
RTVSPropertyOp6
 70
     1
102
RTVSPropertyOp7
 70
     1
102
RTVSPropertyOp8
 70
     1
102
RTVSPropertyOp9
 70
     1
102
RTVSPropertyOp10
 70
     1
102
RTVSPropertyOp11
 70
     1
102
RTVSPropertyOp12
 70
     1
102
RTVSPropertyOp13
 70
     1
102
RTVSPropertyOp14
 70
     1
102
RTVSPropertyOp15
 70
     1
102
RTVSPropertyOp16
 70
     1
102
RTVSPropertyOp17
 70
     1
102
RTVSPropertyOp18
 70
     1
102
RTVSPropertyOp19
 70
     1
102
RTVSPropertyOp20
 70
     1
102
RTVSPropertyOp21
 70
     1
102
RTVSPropertyOp22
 70
     1
102
RTVSPropertyOp23
 70
     1
102
RTVSPropertyOp24
 70
     1
102
RTVSPropertyOp25
 70
     1
102
RTVSPropertyOp26
 70
     1
102
RTVSPropertyOp27
 70
     1
102
RTVSPropertyOp28
 70
     1
102
RTVSPropertyOp29
 70
     1
102
RTVSPropertyOp30
 70
     1
102
RTVSPropertyOp31
 70
     1
102
RTVSPropertyOp32
 70
     1
102
RTVSPropertyOp33
 70
     1
102
RTVSPropertyOp34
 70
     1
102
RTVSPropertyOp35
 70
     1
102
RTVSPropertyOp36
 70
     1
102
RTVSPropertyOp37
 70
     1
102
RTVSPropertyOp38
 70
     1
102
RTVSPropertyOp39
 70
     1
102
RTVSPropertyOp40
 70
     1
102
RTVSPropertyOp41
 70
     1
102
RTVSPropertyOp42
 70
     1
102
RTVSPropertyOp43
 70
     1
102
RTVSPropertyOp44
 70
     1
102
RTVSPropertyOp45
 70
     1
102
RTVSPropertyOp46
 70
     1
102
RTVSPropertyOp47
 70
     1
102
RTVSPropertyOp48
 70
     1
102
RTVSPropertyOp49
 70
     1
102
RTVSPropertyOp50
 70
     1
102
RTVSPropertyOp51
 70
     0
102
RTVSPropertyOp52
 70
     0
102
RTVSPropertyOp53
 70
     1
102
RTVSPropertyOp54
 70
     1
102
RTVSPropertyOp55
 70
     1
102
RTVSPropertyOp56
 70
     1
102
RTVSPropertyOp57
 70
     1
102
RTVSPost2010Prop28
280
     0
102
RTVSPost2010PropOp28
 70
     1
102
RTVSPost2010Prop29
280
     1
102
RTVSPost2010PropOp29
 70
     1
102
RTVSPost2010Prop30
280
     1
102
RTVSPost2010PropOp30
 70
     1
102
RTVSPost2010Prop31
280
     0
102
RTVSPost2010PropOp31
 70
     1
102
RTVSPost2010Prop32
280
     0
102
RTVSPost2010PropOp32
 70
     1
102
RTVSPost2010Prop33
280
     0
102
RTVSPost2010PropOp33
 70
     1
102
RTVSPost2010Prop34
280
     0
102
RTVSPost2010PropOp34
 70
     1
102
RTVSPost2010Prop35
280
     0
102
RTVSPost2010PropOp35
 70
     1
102
RTVSPost2010Prop36
280
     0
102
RTVSPost2010PropOp36
 70
     1
102
RTVSPost2010Prop37
 90
       50
102
RTVSPost2010PropOp37
 70
     1
102
RTVSPost2010Prop38
140
0.0
102
RTVSPost2010PropOp38
 70
     1
102
RTVSPost2010Prop39
140
1.0
102
RTVSPost2010PropOp39
 70
     1
102
RTVSPost2010Prop40
 90
        0
102
RTVSPost2010PropOp40
 70
     1
102
RTVSPost2010Prop41ColorIndex
 90
       18
102
RTVSPost2010Prop41ColorRGB
 90
        0
102
RTVSPost2010PropOp41
 70
     1
102
RTVSPost2010Prop42
 90
       50
102
RTVSPost2010PropOp42
 70
     1
102
RTVSPost2010Prop43
 90
        3
102
RTVSPost2010PropOp43
 70
     1
102
RTVSPost2010Prop44ColorIndex
 90
        5
102
RTVSPost2010Prop44ColorRGB
 90
      255
102
RTVSPost2010PropOp44
 70
     1
102
RTVSPost2010Prop45
280
     0
102
RTVSPost2010PropOp45
 70
     1
102
RTVSPost2010Prop46
 90
       50
102
RTVSPost2010PropOp46
 70
     1
102
RTVSPost2010Prop47
 90
       50
102
RTVSPost2010PropOp47
 70
     1
102
RTVSPost2010Prop48
 90
       50
102
RTVSPost2010PropOp48
 70
     1
102
RTVSPost2010Prop49
280
     0
102
RTVSPost2010PropOp49
 70
     1
102
RTVSPost2010Prop50
 90
       50
102
RTVSPost2010PropOp50
 70
     1
102
RTVSPost2010Prop51ColorIndex
 90
      256
102
RTVSPost2010Prop51ColorRGB
 90
-16777216
102
RTVSPost2010PropOp51
 70
     0
102
RTVSPost2010Prop52
140
1.0
102
RTVSPost2010PropOp52
 70
     0
102
RTVSPost2010Prop53
 90
        2
102
RTVSPost2010PropOp53
 70
     1
102
RTVSPost2010Prop54
  1
strokes_ogs.tif
102
RTVSPost2010PropOp54
 70
     1
102
RTVSPost2010Prop55
280
     0
102
RTVSPost2010PropOp55
 70
     1
102
RTVSPost2010Prop56
140
1.0
102
RTVSPost2010PropOp56
 70
     1
102
RTVSPost2010Prop57
140
1.0
102
RTVSPost2010PropOp57
 70
     1
  0
XRECORD
  5
536
102
{ACAD_REACTORS
330
535
102
}
330
535
100
AcDbXrecord
280
     1
102
RTVSPropertyOp0
 70
     1
102
RTVSPropertyOp1
 70
     1
102
RTVSPropertyOp2
 70
     1
102
RTVSPropertyOp3
 70
     1
102
RTVSPropertyOp4
 70
     1
102
RTVSPropertyOp5
 70
     1
102
RTVSPropertyOp6
 70
     1
102
RTVSPropertyOp7
 70
     1
102
RTVSPropertyOp8
 70
     1
102
RTVSPropertyOp9
 70
     1
102
RTVSPropertyOp10
 70
     1
102
RTVSPropertyOp11
 70
     1
102
RTVSPropertyOp12
 70
     1
102
RTVSPropertyOp13
 70
     1
102
RTVSPropertyOp14
 70
     1
102
RTVSPropertyOp15
 70
     1
102
RTVSPropertyOp16
 70
     1
102
RTVSPropertyOp17
 70
     1
102
RTVSPropertyOp18
 70
     1
102
RTVSPropertyOp19
 70
     1
102
RTVSPropertyOp20
 70
     1
102
RTVSPropertyOp21
 70
     1
102
RTVSPropertyOp22
 70
     1
102
RTVSPropertyOp23
 70
     1
102
RTVSPropertyOp24
 70
     1
102
RTVSPropertyOp25
 70
     1
102
RTVSPropertyOp26
 70
     1
102
RTVSPropertyOp27
 70
     1
102
RTVSPropertyOp28
 70
     1
102
RTVSPropertyOp29
 70
     1
102
RTVSPropertyOp30
 70
     1
102
RTVSPropertyOp31
 70
     1
102
RTVSPropertyOp32
 70
     1
102
RTVSPropertyOp33
 70
     1
102
RTVSPropertyOp34
 70
     1
102
RTVSPropertyOp35
 70
     1
102
RTVSPropertyOp36
 70
     1
102
RTVSPropertyOp37
 70
     1
102
RTVSPropertyOp38
 70
     1
102
RTVSPropertyOp39
 70
     1
102
RTVSPropertyOp40
 70
     1
102
RTVSPropertyOp41
 70
     1
102
RTVSPropertyOp42
 70
     1
102
RTVSPropertyOp43
 70
     1
102
RTVSPropertyOp44
 70
     1
102
RTVSPropertyOp45
 70
     1
102
RTVSPropertyOp46
 70
     1
102
RTVSPropertyOp47
 70
     1
102
RTVSPropertyOp48
 70
     1
102
RTVSPropertyOp49
 70
     1
102
RTVSPropertyOp50
 70
     1
102
RTVSPropertyOp51
 70
     0
102
RTVSPropertyOp52
 70
     0
102
RTVSPropertyOp53
 70
     1
102
RTVSPropertyOp54
 70
     1
102
RTVSPropertyOp55
 70
     1
102
RTVSPropertyOp56
 70
     1
102
RTVSPropertyOp57
 70
     1
102
RTVSPost2010Prop28
280
     0
102
RTVSPost2010PropOp28
 70
     1
102
RTVSPost2010Prop29
280
     1
102
RTVSPost2010PropOp29
 70
     1
102
RTVSPost2010Prop30
280
     1
102
RTVSPost2010PropOp30
 70
     1
102
RTVSPost2010Prop31
280
     0
102
RTVSPost2010PropOp31
 70
     1
102
RTVSPost2010Prop32
280
     0
102
RTVSPost2010PropOp32
 70
     1
102
RTVSPost2010Prop33
280
     0
102
RTVSPost2010PropOp33
 70
     1
102
RTVSPost2010Prop34
280
     0
102
RTVSPost2010PropOp34
 70
     1
102
RTVSPost2010Prop35
280
     0
102
RTVSPost2010PropOp35
 70
     1
102
RTVSPost2010Prop36
280
     0
102
RTVSPost2010PropOp36
 70
     1
102
RTVSPost2010Prop37
 90
       50
102
RTVSPost2010PropOp37
 70
     1
102
RTVSPost2010Prop38
140
0.0
102
RTVSPost2010PropOp38
 70
     1
102
RTVSPost2010Prop39
140
1.0
102
RTVSPost2010PropOp39
 70
     1
102
RTVSPost2010Prop40
 90
        0
102
RTVSPost2010PropOp40
 70
     1
102
RTVSPost2010Prop41ColorIndex
 90
       18
102
RTVSPost2010Prop41ColorRGB
 90
        0
102
RTVSPost2010PropOp41
 70
     1
102
RTVSPost2010Prop42
 90
       50
102
RTVSPost2010PropOp42
 70
     1
102
RTVSPost2010Prop43
 90
        3
102
RTVSPost2010PropOp43
 70
     1
102
RTVSPost2010Prop44ColorIndex
 90
        5
102
RTVSPost2010Prop44ColorRGB
 90
      255
102
RTVSPost2010PropOp44
 70
     1
102
RTVSPost2010Prop45
280
     0
102
RTVSPost2010PropOp45
 70
     1
102
RTVSPost2010Prop46
 90
       50
102
RTVSPost2010PropOp46
 70
     1
102
RTVSPost2010Prop47
 90
       50
102
RTVSPost2010PropOp47
 70
     1
102
RTVSPost2010Prop48
 90
       50
102
RTVSPost2010PropOp48
 70
     1
102
RTVSPost2010Prop49
280
     0
102
RTVSPost2010PropOp49
 70
     1
102
RTVSPost2010Prop50
 90
       50
102
RTVSPost2010PropOp50
 70
     1
102
RTVSPost2010Prop51ColorIndex
 90
      256
102
RTVSPost2010Prop51ColorRGB
 90
-16777216
102
RTVSPost2010PropOp51
 70
     0
102
RTVSPost2010Prop52
140
1.0
102
RTVSPost2010PropOp52
 70
     0
102
RTVSPost2010Prop53
 90
        2
102
RTVSPost2010PropOp53
 70
     1
102
RTVSPost2010Prop54
  1
strokes_ogs.tif
102
RTVSPost2010PropOp54
 70
     1
102
RTVSPost2010Prop55
280
     0
102
RTVSPost2010PropOp55
 70
     1
102
RTVSPost2010Prop56
140
1.0
102
RTVSPost2010PropOp56
 70
     1
102
RTVSPost2010Prop57
140
1.0
102
RTVSPost2010PropOp57
 70
     1
  0
XRECORD
  5
538
102
{ACAD_REACTORS
330
537
102
}
330
537
100
AcDbXrecord
280
     1
102
RTVSPropertyOp0
 70
     1
102
RTVSPropertyOp1
 70
     1
102
RTVSPropertyOp2
 70
     1
102
RTVSPropertyOp3
 70
     1
102
RTVSPropertyOp4
 70
     1
102
RTVSPropertyOp5
 70
     1
102
RTVSPropertyOp6
 70
     1
102
RTVSPropertyOp7
 70
     1
102
RTVSPropertyOp8
 70
     1
102
RTVSPropertyOp9
 70
     1
102
RTVSPropertyOp10
 70
     1
102
RTVSPropertyOp11
 70
     1
102
RTVSPropertyOp12
 70
     1
102
RTVSPropertyOp13
 70
     1
102
RTVSPropertyOp14
 70
     1
102
RTVSPropertyOp15
 70
     1
102
RTVSPropertyOp16
 70
     1
102
RTVSPropertyOp17
 70
     1
102
RTVSPropertyOp18
 70
     1
102
RTVSPropertyOp19
 70
     1
102
RTVSPropertyOp20
 70
     1
102
RTVSPropertyOp21
 70
     1
102
RTVSPropertyOp22
 70
     1
102
RTVSPropertyOp23
 70
     1
102
RTVSPropertyOp24
 70
     1
102
RTVSPropertyOp25
 70
     1
102
RTVSPropertyOp26
 70
     1
102
RTVSPropertyOp27
 70
     1
102
RTVSPropertyOp28
 70
     1
102
RTVSPropertyOp29
 70
     1
102
RTVSPropertyOp30
 70
     1
102
RTVSPropertyOp31
 70
     1
102
RTVSPropertyOp32
 70
     1
102
RTVSPropertyOp33
 70
     1
102
RTVSPropertyOp34
 70
     1
102
RTVSPropertyOp35
 70
     1
102
RTVSPropertyOp36
 70
     1
102
RTVSPropertyOp37
 70
     1
102
RTVSPropertyOp38
 70
     1
102
RTVSPropertyOp39
 70
     1
102
RTVSPropertyOp40
 70
     1
102
RTVSPropertyOp41
 70
     1
102
RTVSPropertyOp42
 70
     1
102
RTVSPropertyOp43
 70
     1
102
RTVSPropertyOp44
 70
     1
102
RTVSPropertyOp45
 70
     1
102
RTVSPropertyOp46
 70
     1
102
RTVSPropertyOp47
 70
     1
102
RTVSPropertyOp48
 70
     1
102
RTVSPropertyOp49
 70
     1
102
RTVSPropertyOp50
 70
     1
102
RTVSPropertyOp51
 70
     0
102
RTVSPropertyOp52
 70
     0
102
RTVSPropertyOp53
 70
     1
102
RTVSPropertyOp54
 70
     1
102
RTVSPropertyOp55
 70
     1
102
RTVSPropertyOp56
 70
     1
102
RTVSPropertyOp57
 70
     1
102
RTVSPost2010Prop28
280
     0
102
RTVSPost2010PropOp28
 70
     1
102
RTVSPost2010Prop29
280
     1
102
RTVSPost2010PropOp29
 70
     1
102
RTVSPost2010Prop30
280
     1
102
RTVSPost2010PropOp30
 70
     1
102
RTVSPost2010Prop31
280
     0
102
RTVSPost2010PropOp31
 70
     1
102
RTVSPost2010Prop32
280
     0
102
RTVSPost2010PropOp32
 70
     1
102
RTVSPost2010Prop33
280
     0
102
RTVSPost2010PropOp33
 70
     1
102
RTVSPost2010Prop34
280
     0
102
RTVSPost2010PropOp34
 70
     1
102
RTVSPost2010Prop35
280
     0
102
RTVSPost2010PropOp35
 70
     1
102
RTVSPost2010Prop36
280
     0
102
RTVSPost2010PropOp36
 70
     1
102
RTVSPost2010Prop37
 90
       50
102
RTVSPost2010PropOp37
 70
     1
102
RTVSPost2010Prop38
140
0.0
102
RTVSPost2010PropOp38
 70
     1
102
RTVSPost2010Prop39
140
1.0
102
RTVSPost2010PropOp39
 70
     1
102
RTVSPost2010Prop40
 90
        0
102
RTVSPost2010PropOp40
 70
     1
102
RTVSPost2010Prop41ColorIndex
 90
       18
102
RTVSPost2010Prop41ColorRGB
 90
        0
102
RTVSPost2010PropOp41
 70
     1
102
RTVSPost2010Prop42
 90
       50
102
RTVSPost2010PropOp42
 70
     1
102
RTVSPost2010Prop43
 90
        3
102
RTVSPost2010PropOp43
 70
     1
102
RTVSPost2010Prop44ColorIndex
 90
        5
102
RTVSPost2010Prop44ColorRGB
 90
      255
102
RTVSPost2010PropOp44
 70
     1
102
RTVSPost2010Prop45
280
     0
102
RTVSPost2010PropOp45
 70
     1
102
RTVSPost2010Prop46
 90
       50
102
RTVSPost2010PropOp46
 70
     1
102
RTVSPost2010Prop47
 90
       50
102
RTVSPost2010PropOp47
 70
     1
102
RTVSPost2010Prop48
 90
       50
102
RTVSPost2010PropOp48
 70
     1
102
RTVSPost2010Prop49
280
     0
102
RTVSPost2010PropOp49
 70
     1
102
RTVSPost2010Prop50
 90
       50
102
RTVSPost2010PropOp50
 70
     1
102
RTVSPost2010Prop51ColorIndex
 90
      256
102
RTVSPost2010Prop51ColorRGB
 90
-16777216
102
RTVSPost2010PropOp51
 70
     0
102
RTVSPost2010Prop52
140
1.0
102
RTVSPost2010PropOp52
 70
     0
102
RTVSPost2010Prop53
 90
        2
102
RTVSPost2010PropOp53
 70
     1
102
RTVSPost2010Prop54
  1
strokes_ogs.tif
102
RTVSPost2010PropOp54
 70
     1
102
RTVSPost2010Prop55
280
     0
102
RTVSPost2010PropOp55
 70
     1
102
RTVSPost2010Prop56
140
1.0
102
RTVSPost2010PropOp56
 70
     1
102
RTVSPost2010Prop57
140
1.0
102
RTVSPost2010PropOp57
 70
     1
  0
XRECORD
  5
53A
102
{ACAD_REACTORS
330
539
102
}
330
539
100
AcDbXrecord
280
     1
102
RTVSPropertyOp0
 70
     0
102
RTVSPropertyOp1
 70
     0
102
RTVSPropertyOp2
 70
     0
102
RTVSPropertyOp3
 70
     0
102
RTVSPropertyOp4
 70
     0
102
RTVSPropertyOp5
 70
     0
102
RTVSPropertyOp6
 70
     0
102
RTVSPropertyOp7
 70
     0
102
RTVSPropertyOp8
 70
     0
102
RTVSPropertyOp9
 70
     0
102
RTVSPropertyOp10
 70
     0
102
RTVSPropertyOp11
 70
     0
102
RTVSPropertyOp12
 70
     0
102
RTVSPropertyOp13
 70
     0
102
RTVSPropertyOp14
 70
     2
102
RTVSPropertyOp15
 70
     0
102
RTVSPropertyOp16
 70
     0
102
RTVSPropertyOp17
 70
     0
102
RTVSPropertyOp18
 70
     0
102
RTVSPropertyOp19
 70
     0
102
RTVSPropertyOp20
 70
     0
102
RTVSPropertyOp21
 70
     0
102
RTVSPropertyOp22
 70
     0
102
RTVSPropertyOp23
 70
     0
102
RTVSPropertyOp24
 70
     0
102
RTVSPropertyOp25
 70
     0
102
RTVSPropertyOp26
 70
     0
102
RTVSPropertyOp27
 70
     0
102
RTVSPropertyOp28
 70
     1
102
RTVSPropertyOp29
 70
     1
102
RTVSPropertyOp30
 70
     1
102
RTVSPropertyOp31
 70
     1
102
RTVSPropertyOp32
 70
     1
102
RTVSPropertyOp33
 70
     1
102
RTVSPropertyOp34
 70
     1
102
RTVSPropertyOp35
 70
     1
102
RTVSPropertyOp36
 70
     1
102
RTVSPropertyOp37
 70
     0
102
RTVSPropertyOp38
 70
     0
102
RTVSPropertyOp39
 70
     0
102
RTVSPropertyOp40
 70
     0
102
RTVSPropertyOp41
 70
     0
102
RTVSPropertyOp42
 70
     0
102
RTVSPropertyOp43
 70
     0
102
RTVSPropertyOp44
 70
     0
102
RTVSPropertyOp45
 70
     1
102
RTVSPropertyOp46
 70
     0
102
RTVSPropertyOp47
 70
     0
102
RTVSPropertyOp48
 70
     0
102
RTVSPropertyOp49
 70
     1
102
RTVSPropertyOp50
 70
     0
102
RTVSPropertyOp51
 70
     0
102
RTVSPropertyOp52
 70
     0
102
RTVSPropertyOp53
 70
     0
102
RTVSPropertyOp54
 70
     0
102
RTVSPropertyOp55
 70
     1
102
RTVSPropertyOp56
 70
     0
102
RTVSPropertyOp57
 70
     0
102
RTVSPost2010Prop28
280
     0
102
RTVSPost2010PropOp28
 70
     1
102
RTVSPost2010Prop29
280
     1
102
RTVSPost2010PropOp29
 70
     1
102
RTVSPost2010Prop30
280
     1
102
RTVSPost2010PropOp30
 70
     1
102
RTVSPost2010Prop31
280
     0
102
RTVSPost2010PropOp31
 70
     1
102
RTVSPost2010Prop32
280
     0
102
RTVSPost2010PropOp32
 70
     1
102
RTVSPost2010Prop33
280
     0
102
RTVSPost2010PropOp33
 70
     1
102
RTVSPost2010Prop34
280
     0
102
RTVSPost2010PropOp34
 70
     1
102
RTVSPost2010Prop35
280
     0
102
RTVSPost2010PropOp35
 70
     1
102
RTVSPost2010Prop36
280
     0
102
RTVSPost2010PropOp36
 70
     1
102
RTVSPost2010Prop37
 90
       50
102
RTVSPost2010PropOp37
 70
     0
102
RTVSPost2010Prop38
140
0.0
102
RTVSPost2010PropOp38
 70
     0
102
RTVSPost2010Prop39
140
1.0
102
RTVSPost2010PropOp39
 70
     0
102
RTVSPost2010Prop40
 90
        0
102
RTVSPost2010PropOp40
 70
     0
102
RTVSPost2010Prop41ColorIndex
 90
       18
102
RTVSPost2010Prop41ColorRGB
 90
        0
102
RTVSPost2010PropOp41
 70
     0
102
RTVSPost2010Prop42
 90
       50
102
RTVSPost2010PropOp42
 70
     0
102
RTVSPost2010Prop43
 90
        3
102
RTVSPost2010PropOp43
 70
     0
102
RTVSPost2010Prop44ColorIndex
 90
        5
102
RTVSPost2010Prop44ColorRGB
 90
      255
102
RTVSPost2010PropOp44
 70
     0
102
RTVSPost2010Prop45
280
     0
102
RTVSPost2010PropOp45
 70
     1
102
RTVSPost2010Prop46
 90
       50
102
RTVSPost2010PropOp46
 70
     0
102
RTVSPost2010Prop47
 90
       50
102
RTVSPost2010PropOp47
 70
     0
102
RTVSPost2010Prop48
 90
       50
102
RTVSPost2010PropOp48
 70
     0
102
RTVSPost2010Prop49
280
     0
102
RTVSPost2010PropOp49
 70
     1
102
RTVSPost2010Prop50
 90
       50
102
RTVSPost2010PropOp50
 70
     0
102
RTVSPost2010Prop51ColorIndex
 90
      256
102
RTVSPost2010Prop51ColorRGB
 90
-16777216
102
RTVSPost2010PropOp51
 70
     0
102
RTVSPost2010Prop52
140
1.0
102
RTVSPost2010PropOp52
 70
     0
102
RTVSPost2010Prop53
 90
        2
102
RTVSPost2010PropOp53
 70
     0
102
RTVSPost2010Prop54
  1
strokes_ogs.tif
102
RTVSPost2010PropOp54
 70
     0
102
RTVSPost2010Prop55
280
     0
102
RTVSPost2010PropOp55
 70
     1
102
RTVSPost2010Prop56
140
1.0
102
RTVSPost2010PropOp56
 70
     0
102
RTVSPost2010Prop57
140
1.0
102
RTVSPost2010PropOp57
 70
     0
  0
XRECORD
  5
53C
102
{ACAD_REACTORS
330
53B
102
}
330
53B
100
AcDbXrecord
280
     1
102
RTVSPropertyOp0
 70
     1
102
RTVSPropertyOp1
 70
     1
102
RTVSPropertyOp2
 70
     1
102
RTVSPropertyOp3
 70
     1
102
RTVSPropertyOp4
 70
     1
102
RTVSPropertyOp5
 70
     1
102
RTVSPropertyOp6
 70
     1
102
RTVSPropertyOp7
 70
     1
102
RTVSPropertyOp8
 70
     1
102
RTVSPropertyOp9
 70
     1
102
RTVSPropertyOp10
 70
     1
102
RTVSPropertyOp11
 70
     1
102
RTVSPropertyOp12
 70
     1
102
RTVSPropertyOp13
 70
     1
102
RTVSPropertyOp14
 70
     1
102
RTVSPropertyOp15
 70
     1
102
RTVSPropertyOp16
 70
     1
102
RTVSPropertyOp17
 70
     1
102
RTVSPropertyOp18
 70
     1
102
RTVSPropertyOp19
 70
     1
102
RTVSPropertyOp20
 70
     1
102
RTVSPropertyOp21
 70
     1
102
RTVSPropertyOp22
 70
     1
102
RTVSPropertyOp23
 70
     1
102
RTVSPropertyOp24
 70
     1
102
RTVSPropertyOp25
 70
     1
102
RTVSPropertyOp26
 70
     1
102
RTVSPropertyOp27
 70
     1
102
RTVSPropertyOp28
 70
     1
102
RTVSPropertyOp29
 70
     1
102
RTVSPropertyOp30
 70
     1
102
RTVSPropertyOp31
 70
     1
102
RTVSPropertyOp32
 70
     1
102
RTVSPropertyOp33
 70
     1
102
RTVSPropertyOp34
 70
     1
102
RTVSPropertyOp35
 70
     1
102
RTVSPropertyOp36
 70
     1
102
RTVSPropertyOp37
 70
     1
102
RTVSPropertyOp38
 70
     1
102
RTVSPropertyOp39
 70
     1
102
RTVSPropertyOp40
 70
     1
102
RTVSPropertyOp41
 70
     1
102
RTVSPropertyOp42
 70
     1
102
RTVSPropertyOp43
 70
     1
102
RTVSPropertyOp44
 70
     1
102
RTVSPropertyOp45
 70
     1
102
RTVSPropertyOp46
 70
     1
102
RTVSPropertyOp47
 70
     1
102
RTVSPropertyOp48
 70
     1
102
RTVSPropertyOp49
 70
     1
102
RTVSPropertyOp50
 70
     1
102
RTVSPropertyOp51
 70
     0
102
RTVSPropertyOp52
 70
     0
102
RTVSPropertyOp53
 70
     1
102
RTVSPropertyOp54
 70
     1
102
RTVSPropertyOp55
 70
     1
102
RTVSPropertyOp56
 70
     1
102
RTVSPropertyOp57
 70
     1
102
RTVSPost2010Prop28
280
     0
102
RTVSPost2010PropOp28
 70
     1
102
RTVSPost2010Prop29
280
     1
102
RTVSPost2010PropOp29
 70
     1
102
RTVSPost2010Prop30
280
     1
102
RTVSPost2010PropOp30
 70
     1
102
RTVSPost2010Prop31
280
     0
102
RTVSPost2010PropOp31
 70
     1
102
RTVSPost2010Prop32
280
     0
102
RTVSPost2010PropOp32
 70
     1
102
RTVSPost2010Prop33
280
     0
102
RTVSPost2010PropOp33
 70
     1
102
RTVSPost2010Prop34
280
     0
102
RTVSPost2010PropOp34
 70
     1
102
RTVSPost2010Prop35
280
     0
102
RTVSPost2010PropOp35
 70
     1
102
RTVSPost2010Prop36
280
     0
102
RTVSPost2010PropOp36
 70
     1
102
RTVSPost2010Prop37
 90
       50
102
RTVSPost2010PropOp37
 70
     1
102
RTVSPost2010Prop38
140
0.0
102
RTVSPost2010PropOp38
 70
     1
102
RTVSPost2010Prop39
140
1.0
102
RTVSPost2010PropOp39
 70
     1
102
RTVSPost2010Prop40
 90
        0
102
RTVSPost2010PropOp40
 70
     1
102
RTVSPost2010Prop41ColorIndex
 90
       18
102
RTVSPost2010Prop41ColorRGB
 90
        0
102
RTVSPost2010PropOp41
 70
     1
102
RTVSPost2010Prop42
 90
       50
102
RTVSPost2010PropOp42
 70
     1
102
RTVSPost2010Prop43
 90
        3
102
RTVSPost2010PropOp43
 70
     1
102
RTVSPost2010Prop44ColorIndex
 90
        5
102
RTVSPost2010Prop44ColorRGB
 90
      255
102
RTVSPost2010PropOp44
 70
     1
102
RTVSPost2010Prop45
280
     0
102
RTVSPost2010PropOp45
 70
     1
102
RTVSPost2010Prop46
 90
       50
102
RTVSPost2010PropOp46
 70
     1
102
RTVSPost2010Prop47
 90
       50
102
RTVSPost2010PropOp47
 70
     1
102
RTVSPost2010Prop48
 90
       50
102
RTVSPost2010PropOp48
 70
     1
102
RTVSPost2010Prop49
280
     0
102
RTVSPost2010PropOp49
 70
     1
102
RTVSPost2010Prop50
 90
       50
102
RTVSPost2010PropOp50
 70
     1
102
RTVSPost2010Prop51ColorIndex
 90
      256
102
RTVSPost2010Prop51ColorRGB
 90
-16777216
102
RTVSPost2010PropOp51
 70
     0
102
RTVSPost2010Prop52
140
1.0
102
RTVSPost2010PropOp52
 70
     0
102
RTVSPost2010Prop53
 90
        2
102
RTVSPost2010PropOp53
 70
     1
102
RTVSPost2010Prop54
  1
strokes_ogs.tif
102
RTVSPost2010PropOp54
 70
     1
102
RTVSPost2010Prop55
280
     0
102
RTVSPost2010PropOp55
 70
     1
102
RTVSPost2010Prop56
140
1.0
102
RTVSPost2010PropOp56
 70
     1
102
RTVSPost2010Prop57
140
1.0
102
RTVSPost2010PropOp57
 70
     1
  0
XRECORD
  5
53E
102
{ACAD_REACTORS
330
53D
102
}
330
53D
100
AcDbXrecord
280
     1
102
RTVSPropertyOp0
 70
     0
102
RTVSPropertyOp1
 70
     0
102
RTVSPropertyOp2
 70
     0
102
RTVSPropertyOp3
 70
     0
102
RTVSPropertyOp4
 70
     0
102
RTVSPropertyOp5
 70
     0
102
RTVSPropertyOp6
 70
     0
102
RTVSPropertyOp7
 70
     0
102
RTVSPropertyOp8
 70
     0
102
RTVSPropertyOp9
 70
     0
102
RTVSPropertyOp10
 70
     0
102
RTVSPropertyOp11
 70
     0
102
RTVSPropertyOp12
 70
     0
102
RTVSPropertyOp13
 70
     0
102
RTVSPropertyOp14
 70
     2
102
RTVSPropertyOp15
 70
     0
102
RTVSPropertyOp16
 70
     0
102
RTVSPropertyOp17
 70
     0
102
RTVSPropertyOp18
 70
     0
102
RTVSPropertyOp19
 70
     0
102
RTVSPropertyOp20
 70
     0
102
RTVSPropertyOp21
 70
     0
102
RTVSPropertyOp22
 70
     0
102
RTVSPropertyOp23
 70
     0
102
RTVSPropertyOp24
 70
     0
102
RTVSPropertyOp25
 70
     0
102
RTVSPropertyOp26
 70
     0
102
RTVSPropertyOp27
 70
     0
102
RTVSPropertyOp28
 70
     1
102
RTVSPropertyOp29
 70
     1
102
RTVSPropertyOp30
 70
     1
102
RTVSPropertyOp31
 70
     1
102
RTVSPropertyOp32
 70
     1
102
RTVSPropertyOp33
 70
     1
102
RTVSPropertyOp34
 70
     1
102
RTVSPropertyOp35
 70
     1
102
RTVSPropertyOp36
 70
     1
102
RTVSPropertyOp37
 70
     0
102
RTVSPropertyOp38
 70
     0
102
RTVSPropertyOp39
 70
     0
102
RTVSPropertyOp40
 70
     0
102
RTVSPropertyOp41
 70
     0
102
RTVSPropertyOp42
 70
     0
102
RTVSPropertyOp43
 70
     0
102
RTVSPropertyOp44
 70
     0
102
RTVSPropertyOp45
 70
     1
102
RTVSPropertyOp46
 70
     0
102
RTVSPropertyOp47
 70
     0
102
RTVSPropertyOp48
 70
     0
102
RTVSPropertyOp49
 70
     1
102
RTVSPropertyOp50
 70
     0
102
RTVSPropertyOp51
 70
     0
102
RTVSPropertyOp52
 70
     0
102
RTVSPropertyOp53
 70
     0
102
RTVSPropertyOp54
 70
     0
102
RTVSPropertyOp55
 70
     1
102
RTVSPropertyOp56
 70
     0
102
RTVSPropertyOp57
 70
     0
102
RTVSPost2010Prop28
280
     0
102
RTVSPost2010PropOp28
 70
     1
102
RTVSPost2010Prop29
280
     1
102
RTVSPost2010PropOp29
 70
     1
102
RTVSPost2010Prop30
280
     1
102
RTVSPost2010PropOp30
 70
     1
102
RTVSPost2010Prop31
280
     0
102
RTVSPost2010PropOp31
 70
     1
102
RTVSPost2010Prop32
280
     0
102
RTVSPost2010PropOp32
 70
     1
102
RTVSPost2010Prop33
280
     0
102
RTVSPost2010PropOp33
 70
     1
102
RTVSPost2010Prop34
280
     0
102
RTVSPost2010PropOp34
 70
     1
102
RTVSPost2010Prop35
280
     0
102
RTVSPost2010PropOp35
 70
     1
102
RTVSPost2010Prop36
280
     0
102
RTVSPost2010PropOp36
 70
     1
102
RTVSPost2010Prop37
 90
       50
102
RTVSPost2010PropOp37
 70
     0
102
RTVSPost2010Prop38
140
0.0
102
RTVSPost2010PropOp38
 70
     0
102
RTVSPost2010Prop39
140
1.0
102
RTVSPost2010PropOp39
 70
     0
102
RTVSPost2010Prop40
 90
        0
102
RTVSPost2010PropOp40
 70
     0
102
RTVSPost2010Prop41ColorIndex
 90
       18
102
RTVSPost2010Prop41ColorRGB
 90
        0
102
RTVSPost2010PropOp41
 70
     0
102
RTVSPost2010Prop42
 90
       50
102
RTVSPost2010PropOp42
 70
     0
102
RTVSPost2010Prop43
 90
        3
102
RTVSPost2010PropOp43
 70
     0
102
RTVSPost2010Prop44ColorIndex
 90
        5
102
RTVSPost2010Prop44ColorRGB
 90
      255
102
RTVSPost2010PropOp44
 70
     0
102
RTVSPost2010Prop45
280
     0
102
RTVSPost2010PropOp45
 70
     1
102
RTVSPost2010Prop46
 90
       50
102
RTVSPost2010PropOp46
 70
     0
102
RTVSPost2010Prop47
 90
       50
102
RTVSPost2010PropOp47
 70
     0
102
RTVSPost2010Prop48
 90
       50
102
RTVSPost2010PropOp48
 70
     0
102
RTVSPost2010Prop49
280
     0
102
RTVSPost2010PropOp49
 70
     1
102
RTVSPost2010Prop50
 90
       50
102
RTVSPost2010PropOp50
 70
     0
102
RTVSPost2010Prop51ColorIndex
 90
      256
102
RTVSPost2010Prop51ColorRGB
 90
-16777216
102
RTVSPost2010PropOp51
 70
     0
102
RTVSPost2010Prop52
140
1.0
102
RTVSPost2010PropOp52
 70
     0
102
RTVSPost2010Prop53
 90
        2
102
RTVSPost2010PropOp53
 70
     0
102
RTVSPost2010Prop54
  1
strokes_ogs.tif
102
RTVSPost2010PropOp54
 70
     0
102
RTVSPost2010Prop55
280
     0
102
RTVSPost2010PropOp55
 70
     1
102
RTVSPost2010Prop56
140
1.0
102
RTVSPost2010PropOp56
 70
     0
102
RTVSPost2010Prop57
140
1.0
102
RTVSPost2010PropOp57
 70
     0
  0
XRECORD
  5
540
102
{ACAD_REACTORS
330
53F
102
}
330
53F
100
AcDbXrecord
280
     1
102
RTVSPropertyOp0
 70
     1
102
RTVSPropertyOp1
 70
     1
102
RTVSPropertyOp2
 70
     1
102
RTVSPropertyOp3
 70
     1
102
RTVSPropertyOp4
 70
     1
102
RTVSPropertyOp5
 70
     1
102
RTVSPropertyOp6
 70
     1
102
RTVSPropertyOp7
 70
     1
102
RTVSPropertyOp8
 70
     1
102
RTVSPropertyOp9
 70
     1
102
RTVSPropertyOp10
 70
     1
102
RTVSPropertyOp11
 70
     1
102
RTVSPropertyOp12
 70
     1
102
RTVSPropertyOp13
 70
     1
102
RTVSPropertyOp14
 70
     1
102
RTVSPropertyOp15
 70
     1
102
RTVSPropertyOp16
 70
     1
102
RTVSPropertyOp17
 70
     1
102
RTVSPropertyOp18
 70
     1
102
RTVSPropertyOp19
 70
     1
102
RTVSPropertyOp20
 70
     1
102
RTVSPropertyOp21
 70
     1
102
RTVSPropertyOp22
 70
     1
102
RTVSPropertyOp23
 70
     1
102
RTVSPropertyOp24
 70
     1
102
RTVSPropertyOp25
 70
     1
102
RTVSPropertyOp26
 70
     1
102
RTVSPropertyOp27
 70
     1
102
RTVSPropertyOp28
 70
     1
102
RTVSPropertyOp29
 70
     1
102
RTVSPropertyOp30
 70
     1
102
RTVSPropertyOp31
 70
     1
102
RTVSPropertyOp32
 70
     1
102
RTVSPropertyOp33
 70
     1
102
RTVSPropertyOp34
 70
     1
102
RTVSPropertyOp35
 70
     1
102
RTVSPropertyOp36
 70
     1
102
RTVSPropertyOp37
 70
     1
102
RTVSPropertyOp38
 70
     1
102
RTVSPropertyOp39
 70
     1
102
RTVSPropertyOp40
 70
     1
102
RTVSPropertyOp41
 70
     1
102
RTVSPropertyOp42
 70
     1
102
RTVSPropertyOp43
 70
     1
102
RTVSPropertyOp44
 70
     1
102
RTVSPropertyOp45
 70
     1
102
RTVSPropertyOp46
 70
     1
102
RTVSPropertyOp47
 70
     1
102
RTVSPropertyOp48
 70
     1
102
RTVSPropertyOp49
 70
     1
102
RTVSPropertyOp50
 70
     1
102
RTVSPropertyOp51
 70
     0
102
RTVSPropertyOp52
 70
     0
102
RTVSPropertyOp53
 70
     1
102
RTVSPropertyOp54
 70
     1
102
RTVSPropertyOp55
 70
     1
102
RTVSPropertyOp56
 70
     1
102
RTVSPropertyOp57
 70
     1
102
RTVSPost2010Prop28
280
     0
102
RTVSPost2010PropOp28
 70
     1
102
RTVSPost2010Prop29
280
     1
102
RTVSPost2010PropOp29
 70
     1
102
RTVSPost2010Prop30
280
     1
102
RTVSPost2010PropOp30
 70
     1
102
RTVSPost2010Prop31
280
     0
102
RTVSPost2010PropOp31
 70
     1
102
RTVSPost2010Prop32
280
     0
102
RTVSPost2010PropOp32
 70
     1
102
RTVSPost2010Prop33
280
     0
102
RTVSPost2010PropOp33
 70
     1
102
RTVSPost2010Prop34
280
     0
102
RTVSPost2010PropOp34
 70
     1
102
RTVSPost2010Prop35
280
     0
102
RTVSPost2010PropOp35
 70
     1
102
RTVSPost2010Prop36
280
     0
102
RTVSPost2010PropOp36
 70
     1
102
RTVSPost2010Prop37
 90
       50
102
RTVSPost2010PropOp37
 70
     1
102
RTVSPost2010Prop38
140
0.0
102
RTVSPost2010PropOp38
 70
     1
102
RTVSPost2010Prop39
140
1.0
102
RTVSPost2010PropOp39
 70
     1
102
RTVSPost2010Prop40
 90
        0
102
RTVSPost2010PropOp40
 70
     1
102
RTVSPost2010Prop41ColorIndex
 90
       18
102
RTVSPost2010Prop41ColorRGB
 90
        0
102
RTVSPost2010PropOp41
 70
     1
102
RTVSPost2010Prop42
 90
       50
102
RTVSPost2010PropOp42
 70
     1
102
RTVSPost2010Prop43
 90
        3
102
RTVSPost2010PropOp43
 70
     1
102
RTVSPost2010Prop44ColorIndex
 90
        5
102
RTVSPost2010Prop44ColorRGB
 90
      255
102
RTVSPost2010PropOp44
 70
     1
102
RTVSPost2010Prop45
280
     0
102
RTVSPost2010PropOp45
 70
     1
102
RTVSPost2010Prop46
 90
       50
102
RTVSPost2010PropOp46
 70
     1
102
RTVSPost2010Prop47
 90
       50
102
RTVSPost2010PropOp47
 70
     1
102
RTVSPost2010Prop48
 90
       50
102
RTVSPost2010PropOp48
 70
     1
102
RTVSPost2010Prop49
280
     0
102
RTVSPost2010PropOp49
 70
     1
102
RTVSPost2010Prop50
 90
       50
102
RTVSPost2010PropOp50
 70
     1
102
RTVSPost2010Prop51ColorIndex
 90
      256
102
RTVSPost2010Prop51ColorRGB
 90
-16777216
102
RTVSPost2010PropOp51
 70
     0
102
RTVSPost2010Prop52
140
1.0
102
RTVSPost2010PropOp52
 70
     0
102
RTVSPost2010Prop53
 90
        2
102
RTVSPost2010PropOp53
 70
     1
102
RTVSPost2010Prop54
  1
strokes_ogs.tif
102
RTVSPost2010PropOp54
 70
     1
102
RTVSPost2010Prop55
280
     0
102
RTVSPost2010PropOp55
 70
     1
102
RTVSPost2010Prop56
140
1.0
102
RTVSPost2010PropOp56
 70
     1
102
RTVSPost2010Prop57
140
1.0
102
RTVSPost2010PropOp57
 70
     1
  0
XRECORD
  5
542
102
{ACAD_REACTORS
330
541
102
}
330
541
100
AcDbXrecord
280
     1
102
RTVSPropertyOp0
 70
     1
102
RTVSPropertyOp1
 70
     1
102
RTVSPropertyOp2
 70
     1
102
RTVSPropertyOp3
 70
     1
102
RTVSPropertyOp4
 70
     1
102
RTVSPropertyOp5
 70
     1
102
RTVSPropertyOp6
 70
     1
102
RTVSPropertyOp7
 70
     1
102
RTVSPropertyOp8
 70
     1
102
RTVSPropertyOp9
 70
     1
102
RTVSPropertyOp10
 70
     1
102
RTVSPropertyOp11
 70
     1
102
RTVSPropertyOp12
 70
     1
102
RTVSPropertyOp13
 70
     1
102
RTVSPropertyOp14
 70
     1
102
RTVSPropertyOp15
 70
     1
102
RTVSPropertyOp16
 70
     1
102
RTVSPropertyOp17
 70
     1
102
RTVSPropertyOp18
 70
     1
102
RTVSPropertyOp19
 70
     1
102
RTVSPropertyOp20
 70
     1
102
RTVSPropertyOp21
 70
     1
102
RTVSPropertyOp22
 70
     1
102
RTVSPropertyOp23
 70
     1
102
RTVSPropertyOp24
 70
     1
102
RTVSPropertyOp25
 70
     1
102
RTVSPropertyOp26
 70
     1
102
RTVSPropertyOp27
 70
     1
102
RTVSPropertyOp28
 70
     1
102
RTVSPropertyOp29
 70
     1
102
RTVSPropertyOp30
 70
     1
102
RTVSPropertyOp31
 70
     1
102
RTVSPropertyOp32
 70
     1
102
RTVSPropertyOp33
 70
     1
102
RTVSPropertyOp34
 70
     1
102
RTVSPropertyOp35
 70
     1
102
RTVSPropertyOp36
 70
     1
102
RTVSPropertyOp37
 70
     1
102
RTVSPropertyOp38
 70
     1
102
RTVSPropertyOp39
 70
     1
102
RTVSPropertyOp40
 70
     1
102
RTVSPropertyOp41
 70
     1
102
RTVSPropertyOp42
 70
     1
102
RTVSPropertyOp43
 70
     1
102
RTVSPropertyOp44
 70
     1
102
RTVSPropertyOp45
 70
     1
102
RTVSPropertyOp46
 70
     1
102
RTVSPropertyOp47
 70
     1
102
RTVSPropertyOp48
 70
     1
102
RTVSPropertyOp49
 70
     1
102
RTVSPropertyOp50
 70
     1
102
RTVSPropertyOp51
 70
     0
102
RTVSPropertyOp52
 70
     0
102
RTVSPropertyOp53
 70
     1
102
RTVSPropertyOp54
 70
     1
102
RTVSPropertyOp55
 70
     1
102
RTVSPropertyOp56
 70
     1
102
RTVSPropertyOp57
 70
     1
102
RTVSPost2010Prop28
280
     0
102
RTVSPost2010PropOp28
 70
     1
102
RTVSPost2010Prop29
280
     1
102
RTVSPost2010PropOp29
 70
     1
102
RTVSPost2010Prop30
280
     1
102
RTVSPost2010PropOp30
 70
     1
102
RTVSPost2010Prop31
280
     0
102
RTVSPost2010PropOp31
 70
     1
102
RTVSPost2010Prop32
280
     0
102
RTVSPost2010PropOp32
 70
     1
102
RTVSPost2010Prop33
280
     0
102
RTVSPost2010PropOp33
 70
     1
102
RTVSPost2010Prop34
280
     0
102
RTVSPost2010PropOp34
 70
     1
102
RTVSPost2010Prop35
280
     0
102
RTVSPost2010PropOp35
 70
     1
102
RTVSPost2010Prop36
280
     0
102
RTVSPost2010PropOp36
 70
     1
102
RTVSPost2010Prop37
 90
       50
102
RTVSPost2010PropOp37
 70
     1
102
RTVSPost2010Prop38
140
0.0
102
RTVSPost2010PropOp38
 70
     1
102
RTVSPost2010Prop39
140
1.0
102
RTVSPost2010PropOp39
 70
     1
102
RTVSPost2010Prop40
 90
        0
102
RTVSPost2010PropOp40
 70
     1
102
RTVSPost2010Prop41ColorIndex
 90
       18
102
RTVSPost2010Prop41ColorRGB
 90
        0
102
RTVSPost2010PropOp41
 70
     1
102
RTVSPost2010Prop42
 90
       50
102
RTVSPost2010PropOp42
 70
     1
102
RTVSPost2010Prop43
 90
        3
102
RTVSPost2010PropOp43
 70
     1
102
RTVSPost2010Prop44ColorIndex
 90
        5
102
RTVSPost2010Prop44ColorRGB
 90
      255
102
RTVSPost2010PropOp44
 70
     1
102
RTVSPost2010Prop45
280
     0
102
RTVSPost2010PropOp45
 70
     1
102
RTVSPost2010Prop46
 90
       50
102
RTVSPost2010PropOp46
 70
     1
102
RTVSPost2010Prop47
 90
       50
102
RTVSPost2010PropOp47
 70
     1
102
RTVSPost2010Prop48
 90
       50
102
RTVSPost2010PropOp48
 70
     1
102
RTVSPost2010Prop49
280
     0
102
RTVSPost2010PropOp49
 70
     1
102
RTVSPost2010Prop50
 90
       50
102
RTVSPost2010PropOp50
 70
     1
102
RTVSPost2010Prop51ColorIndex
 90
      256
102
RTVSPost2010Prop51ColorRGB
 90
-16777216
102
RTVSPost2010PropOp51
 70
     0
102
RTVSPost2010Prop52
140
1.0
102
RTVSPost2010PropOp52
 70
     0
102
RTVSPost2010Prop53
 90
        2
102
RTVSPost2010PropOp53
 70
     1
102
RTVSPost2010Prop54
  1
strokes_ogs.tif
102
RTVSPost2010PropOp54
 70
     1
102
RTVSPost2010Prop55
280
     0
102
RTVSPost2010PropOp55
 70
     1
102
RTVSPost2010Prop56
140
1.0
102
RTVSPost2010PropOp56
 70
     1
102
RTVSPost2010Prop57
140
1.0
102
RTVSPost2010PropOp57
 70
     1
  0
XRECORD
  5
544
102
{ACAD_REACTORS
330
543
102
}
330
543
100
AcDbXrecord
280
     1
102
RTVSPropertyOp0
 70
     1
102
RTVSPropertyOp1
 70
     1
102
RTVSPropertyOp2
 70
     1
102
RTVSPropertyOp3
 70
     1
102
RTVSPropertyOp4
 70
     1
102
RTVSPropertyOp5
 70
     1
102
RTVSPropertyOp6
 70
     1
102
RTVSPropertyOp7
 70
     1
102
RTVSPropertyOp8
 70
     1
102
RTVSPropertyOp9
 70
     1
102
RTVSPropertyOp10
 70
     1
102
RTVSPropertyOp11
 70
     1
102
RTVSPropertyOp12
 70
     1
102
RTVSPropertyOp13
 70
     1
102
RTVSPropertyOp14
 70
     1
102
RTVSPropertyOp15
 70
     1
102
RTVSPropertyOp16
 70
     1
102
RTVSPropertyOp17
 70
     1
102
RTVSPropertyOp18
 70
     1
102
RTVSPropertyOp19
 70
     1
102
RTVSPropertyOp20
 70
     1
102
RTVSPropertyOp21
 70
     1
102
RTVSPropertyOp22
 70
     1
102
RTVSPropertyOp23
 70
     1
102
RTVSPropertyOp24
 70
     1
102
RTVSPropertyOp25
 70
     1
102
RTVSPropertyOp26
 70
     1
102
RTVSPropertyOp27
 70
     1
102
RTVSPropertyOp28
 70
     1
102
RTVSPropertyOp29
 70
     1
102
RTVSPropertyOp30
 70
     1
102
RTVSPropertyOp31
 70
     1
102
RTVSPropertyOp32
 70
     1
102
RTVSPropertyOp33
 70
     1
102
RTVSPropertyOp34
 70
     1
102
RTVSPropertyOp35
 70
     1
102
RTVSPropertyOp36
 70
     1
102
RTVSPropertyOp37
 70
     1
102
RTVSPropertyOp38
 70
     1
102
RTVSPropertyOp39
 70
     1
102
RTVSPropertyOp40
 70
     1
102
RTVSPropertyOp41
 70
     1
102
RTVSPropertyOp42
 70
     1
102
RTVSPropertyOp43
 70
     1
102
RTVSPropertyOp44
 70
     1
102
RTVSPropertyOp45
 70
     1
102
RTVSPropertyOp46
 70
     1
102
RTVSPropertyOp47
 70
     1
102
RTVSPropertyOp48
 70
     1
102
RTVSPropertyOp49
 70
     1
102
RTVSPropertyOp50
 70
     1
102
RTVSPropertyOp51
 70
     0
102
RTVSPropertyOp52
 70
     0
102
RTVSPropertyOp53
 70
     1
102
RTVSPropertyOp54
 70
     1
102
RTVSPropertyOp55
 70
     1
102
RTVSPropertyOp56
 70
     1
102
RTVSPropertyOp57
 70
     1
102
RTVSPost2010Prop28
280
     0
102
RTVSPost2010PropOp28
 70
     1
102
RTVSPost2010Prop29
280
     1
102
RTVSPost2010PropOp29
 70
     1
102
RTVSPost2010Prop30
280
     1
102
RTVSPost2010PropOp30
 70
     1
102
RTVSPost2010Prop31
280
     0
102
RTVSPost2010PropOp31
 70
     1
102
RTVSPost2010Prop32
280
     0
102
RTVSPost2010PropOp32
 70
     1
102
RTVSPost2010Prop33
280
     0
102
RTVSPost2010PropOp33
 70
     1
102
RTVSPost2010Prop34
280
     0
102
RTVSPost2010PropOp34
 70
     1
102
RTVSPost2010Prop35
280
     0
102
RTVSPost2010PropOp35
 70
     1
102
RTVSPost2010Prop36
280
     0
102
RTVSPost2010PropOp36
 70
     1
102
RTVSPost2010Prop37
 90
       50
102
RTVSPost2010PropOp37
 70
     1
102
RTVSPost2010Prop38
140
0.0
102
RTVSPost2010PropOp38
 70
     1
102
RTVSPost2010Prop39
140
1.0
102
RTVSPost2010PropOp39
 70
     1
102
RTVSPost2010Prop40
 90
        0
102
RTVSPost2010PropOp40
 70
     1
102
RTVSPost2010Prop41ColorIndex
 90
       18
102
RTVSPost2010Prop41ColorRGB
 90
        0
102
RTVSPost2010PropOp41
 70
     1
102
RTVSPost2010Prop42
 90
       50
102
RTVSPost2010PropOp42
 70
     1
102
RTVSPost2010Prop43
 90
        3
102
RTVSPost2010PropOp43
 70
     1
102
RTVSPost2010Prop44ColorIndex
 90
        5
102
RTVSPost2010Prop44ColorRGB
 90
      255
102
RTVSPost2010PropOp44
 70
     1
102
RTVSPost2010Prop45
280
     0
102
RTVSPost2010PropOp45
 70
     1
102
RTVSPost2010Prop46
 90
       50
102
RTVSPost2010PropOp46
 70
     1
102
RTVSPost2010Prop47
 90
       50
102
RTVSPost2010PropOp47
 70
     1
102
RTVSPost2010Prop48
 90
       50
102
RTVSPost2010PropOp48
 70
     1
102
RTVSPost2010Prop49
280
     0
102
RTVSPost2010PropOp49
 70
     1
102
RTVSPost2010Prop50
 90
       50
102
RTVSPost2010PropOp50
 70
     1
102
RTVSPost2010Prop51ColorIndex
 90
      256
102
RTVSPost2010Prop51ColorRGB
 90
-16777216
102
RTVSPost2010PropOp51
 70
     0
102
RTVSPost2010Prop52
140
1.0
102
RTVSPost2010PropOp52
 70
     0
102
RTVSPost2010Prop53
 90
        2
102
RTVSPost2010PropOp53
 70
     1
102
RTVSPost2010Prop54
  1
strokes_ogs.tif
102
RTVSPost2010PropOp54
 70
     1
102
RTVSPost2010Prop55
280
     0
102
RTVSPost2010PropOp55
 70
     1
102
RTVSPost2010Prop56
140
1.0
102
RTVSPost2010PropOp56
 70
     1
102
RTVSPost2010Prop57
140
1.0
102
RTVSPost2010PropOp57
 70
     1
  0
XRECORD
  5
546
102
{ACAD_REACTORS
330
545
102
}
330
545
100
AcDbXrecord
280
     1
102
RTVSPropertyOp0
 70
     1
102
RTVSPropertyOp1
 70
     1
102
RTVSPropertyOp2
 70
     1
102
RTVSPropertyOp3
 70
     1
102
RTVSPropertyOp4
 70
     1
102
RTVSPropertyOp5
 70
     1
102
RTVSPropertyOp6
 70
     1
102
RTVSPropertyOp7
 70
     1
102
RTVSPropertyOp8
 70
     1
102
RTVSPropertyOp9
 70
     1
102
RTVSPropertyOp10
 70
     1
102
RTVSPropertyOp11
 70
     1
102
RTVSPropertyOp12
 70
     1
102
RTVSPropertyOp13
 70
     1
102
RTVSPropertyOp14
 70
     1
102
RTVSPropertyOp15
 70
     1
102
RTVSPropertyOp16
 70
     1
102
RTVSPropertyOp17
 70
     1
102
RTVSPropertyOp18
 70
     1
102
RTVSPropertyOp19
 70
     1
102
RTVSPropertyOp20
 70
     1
102
RTVSPropertyOp21
 70
     1
102
RTVSPropertyOp22
 70
     1
102
RTVSPropertyOp23
 70
     1
102
RTVSPropertyOp24
 70
     1
102
RTVSPropertyOp25
 70
     1
102
RTVSPropertyOp26
 70
     1
102
RTVSPropertyOp27
 70
     1
102
RTVSPropertyOp28
 70
     1
102
RTVSPropertyOp29
 70
     1
102
RTVSPropertyOp30
 70
     1
102
RTVSPropertyOp31
 70
     1
102
RTVSPropertyOp32
 70
     1
102
RTVSPropertyOp33
 70
     1
102
RTVSPropertyOp34
 70
     1
102
RTVSPropertyOp35
 70
     1
102
RTVSPropertyOp36
 70
     1
102
RTVSPropertyOp37
 70
     1
102
RTVSPropertyOp38
 70
     1
102
RTVSPropertyOp39
 70
     1
102
RTVSPropertyOp40
 70
     1
102
RTVSPropertyOp41
 70
     1
102
RTVSPropertyOp42
 70
     1
102
RTVSPropertyOp43
 70
     1
102
RTVSPropertyOp44
 70
     1
102
RTVSPropertyOp45
 70
     1
102
RTVSPropertyOp46
 70
     1
102
RTVSPropertyOp47
 70
     1
102
RTVSPropertyOp48
 70
     1
102
RTVSPropertyOp49
 70
     1
102
RTVSPropertyOp50
 70
     1
102
RTVSPropertyOp51
 70
     0
102
RTVSPropertyOp52
 70
     0
102
RTVSPropertyOp53
 70
     1
102
RTVSPropertyOp54
 70
     1
102
RTVSPropertyOp55
 70
     1
102
RTVSPropertyOp56
 70
     1
102
RTVSPropertyOp57
 70
     1
102
RTVSPost2010Prop28
280
     0
102
RTVSPost2010PropOp28
 70
     1
102
RTVSPost2010Prop29
280
     1
102
RTVSPost2010PropOp29
 70
     1
102
RTVSPost2010Prop30
280
     1
102
RTVSPost2010PropOp30
 70
     1
102
RTVSPost2010Prop31
280
     0
102
RTVSPost2010PropOp31
 70
     1
102
RTVSPost2010Prop32
280
     0
102
RTVSPost2010PropOp32
 70
     1
102
RTVSPost2010Prop33
280
     0
102
RTVSPost2010PropOp33
 70
     1
102
RTVSPost2010Prop34
280
     0
102
RTVSPost2010PropOp34
 70
     1
102
RTVSPost2010Prop35
280
     0
102
RTVSPost2010PropOp35
 70
     1
102
RTVSPost2010Prop36
280
     0
102
RTVSPost2010PropOp36
 70
     1
102
RTVSPost2010Prop37
 90
       50
102
RTVSPost2010PropOp37
 70
     1
102
RTVSPost2010Prop38
140
0.0
102
RTVSPost2010PropOp38
 70
     1
102
RTVSPost2010Prop39
140
1.0
102
RTVSPost2010PropOp39
 70
     1
102
RTVSPost2010Prop40
 90
        0
102
RTVSPost2010PropOp40
 70
     1
102
RTVSPost2010Prop41ColorIndex
 90
       18
102
RTVSPost2010Prop41ColorRGB
 90
        0
102
RTVSPost2010PropOp41
 70
     1
102
RTVSPost2010Prop42
 90
       50
102
RTVSPost2010PropOp42
 70
     1
102
RTVSPost2010Prop43
 90
        3
102
RTVSPost2010PropOp43
 70
     1
102
RTVSPost2010Prop44ColorIndex
 90
        5
102
RTVSPost2010Prop44ColorRGB
 90
      255
102
RTVSPost2010PropOp44
 70
     1
102
RTVSPost2010Prop45
280
     0
102
RTVSPost2010PropOp45
 70
     1
102
RTVSPost2010Prop46
 90
       50
102
RTVSPost2010PropOp46
 70
     1
102
RTVSPost2010Prop47
 90
       50
102
RTVSPost2010PropOp47
 70
     1
102
RTVSPost2010Prop48
 90
       50
102
RTVSPost2010PropOp48
 70
     1
102
RTVSPost2010Prop49
280
     0
102
RTVSPost2010PropOp49
 70
     1
102
RTVSPost2010Prop50
 90
       50
102
RTVSPost2010PropOp50
 70
     1
102
RTVSPost2010Prop51ColorIndex
 90
      256
102
RTVSPost2010Prop51ColorRGB
 90
-16777216
102
RTVSPost2010PropOp51
 70
     0
102
RTVSPost2010Prop52
140
1.0
102
RTVSPost2010PropOp52
 70
     0
102
RTVSPost2010Prop53
 90
        2
102
RTVSPost2010PropOp53
 70
     1
102
RTVSPost2010Prop54
  1
strokes_ogs.tif
102
RTVSPost2010PropOp54
 70
     1
102
RTVSPost2010Prop55
280
     0
102
RTVSPost2010PropOp55
 70
     1
102
RTVSPost2010Prop56
140
1.0
102
RTVSPost2010PropOp56
 70
     1
102
RTVSPost2010Prop57
140
1.0
102
RTVSPost2010PropOp57
 70
     1
  0
XRECORD
  5
548
102
{ACAD_REACTORS
330
547
102
}
330
547
100
AcDbXrecord
280
     1
102
RTVSPropertyOp0
 70
     1
102
RTVSPropertyOp1
 70
     1
102
RTVSPropertyOp2
 70
     1
102
RTVSPropertyOp3
 70
     1
102
RTVSPropertyOp4
 70
     1
102
RTVSPropertyOp5
 70
     1
102
RTVSPropertyOp6
 70
     1
102
RTVSPropertyOp7
 70
     1
102
RTVSPropertyOp8
 70
     1
102
RTVSPropertyOp9
 70
     1
102
RTVSPropertyOp10
 70
     1
102
RTVSPropertyOp11
 70
     1
102
RTVSPropertyOp12
 70
     1
102
RTVSPropertyOp13
 70
     1
102
RTVSPropertyOp14
 70
     1
102
RTVSPropertyOp15
 70
     1
102
RTVSPropertyOp16
 70
     1
102
RTVSPropertyOp17
 70
     1
102
RTVSPropertyOp18
 70
     1
102
RTVSPropertyOp19
 70
     1
102
RTVSPropertyOp20
 70
     1
102
RTVSPropertyOp21
 70
     1
102
RTVSPropertyOp22
 70
     1
102
RTVSPropertyOp23
 70
     1
102
RTVSPropertyOp24
 70
     1
102
RTVSPropertyOp25
 70
     1
102
RTVSPropertyOp26
 70
     1
102
RTVSPropertyOp27
 70
     1
102
RTVSPropertyOp28
 70
     1
102
RTVSPropertyOp29
 70
     1
102
RTVSPropertyOp30
 70
     1
102
RTVSPropertyOp31
 70
     1
102
RTVSPropertyOp32
 70
     1
102
RTVSPropertyOp33
 70
     1
102
RTVSPropertyOp34
 70
     1
102
RTVSPropertyOp35
 70
     1
102
RTVSPropertyOp36
 70
     1
102
RTVSPropertyOp37
 70
     1
102
RTVSPropertyOp38
 70
     1
102
RTVSPropertyOp39
 70
     1
102
RTVSPropertyOp40
 70
     1
102
RTVSPropertyOp41
 70
     1
102
RTVSPropertyOp42
 70
     1
102
RTVSPropertyOp43
 70
     1
102
RTVSPropertyOp44
 70
     1
102
RTVSPropertyOp45
 70
     1
102
RTVSPropertyOp46
 70
     1
102
RTVSPropertyOp47
 70
     1
102
RTVSPropertyOp48
 70
     1
102
RTVSPropertyOp49
 70
     1
102
RTVSPropertyOp50
 70
     1
102
RTVSPropertyOp51
 70
     0
102
RTVSPropertyOp52
 70
     0
102
RTVSPropertyOp53
 70
     1
102
RTVSPropertyOp54
 70
     1
102
RTVSPropertyOp55
 70
     1
102
RTVSPropertyOp56
 70
     1
102
RTVSPropertyOp57
 70
     1
102
RTVSPost2010Prop28
280
     0
102
RTVSPost2010PropOp28
 70
     1
102
RTVSPost2010Prop29
280
     1
102
RTVSPost2010PropOp29
 70
     1
102
RTVSPost2010Prop30
280
     1
102
RTVSPost2010PropOp30
 70
     1
102
RTVSPost2010Prop31
280
     0
102
RTVSPost2010PropOp31
 70
     1
102
RTVSPost2010Prop32
280
     0
102
RTVSPost2010PropOp32
 70
     1
102
RTVSPost2010Prop33
280
     0
102
RTVSPost2010PropOp33
 70
     1
102
RTVSPost2010Prop34
280
     0
102
RTVSPost2010PropOp34
 70
     1
102
RTVSPost2010Prop35
280
     0
102
RTVSPost2010PropOp35
 70
     1
102
RTVSPost2010Prop36
280
     0
102
RTVSPost2010PropOp36
 70
     1
102
RTVSPost2010Prop37
 90
       50
102
RTVSPost2010PropOp37
 70
     1
102
RTVSPost2010Prop38
140
0.0
102
RTVSPost2010PropOp38
 70
     1
102
RTVSPost2010Prop39
140
1.0
102
RTVSPost2010PropOp39
 70
     1
102
RTVSPost2010Prop40
 90
        0
102
RTVSPost2010PropOp40
 70
     1
102
RTVSPost2010Prop41ColorIndex
 90
       18
102
RTVSPost2010Prop41ColorRGB
 90
        0
102
RTVSPost2010PropOp41
 70
     1
102
RTVSPost2010Prop42
 90
       50
102
RTVSPost2010PropOp42
 70
     1
102
RTVSPost2010Prop43
 90
        3
102
RTVSPost2010PropOp43
 70
     1
102
RTVSPost2010Prop44ColorIndex
 90
        5
102
RTVSPost2010Prop44ColorRGB
 90
      255
102
RTVSPost2010PropOp44
 70
     1
102
RTVSPost2010Prop45
280
     0
102
RTVSPost2010PropOp45
 70
     1
102
RTVSPost2010Prop46
 90
       50
102
RTVSPost2010PropOp46
 70
     1
102
RTVSPost2010Prop47
 90
       50
102
RTVSPost2010PropOp47
 70
     1
102
RTVSPost2010Prop48
 90
       50
102
RTVSPost2010PropOp48
 70
     1
102
RTVSPost2010Prop49
280
     0
102
RTVSPost2010PropOp49
 70
     1
102
RTVSPost2010Prop50
 90
       50
102
RTVSPost2010PropOp50
 70
     1
102
RTVSPost2010Prop51ColorIndex
 90
      256
102
RTVSPost2010Prop51ColorRGB
 90
-16777216
102
RTVSPost2010PropOp51
 70
     0
102
RTVSPost2010Prop52
140
1.0
102
RTVSPost2010PropOp52
 70
     0
102
RTVSPost2010Prop53
 90
        2
102
RTVSPost2010PropOp53
 70
     1
102
RTVSPost2010Prop54
  1
strokes_ogs.tif
102
RTVSPost2010PropOp54
 70
     1
102
RTVSPost2010Prop55
280
     0
102
RTVSPost2010PropOp55
 70
     1
102
RTVSPost2010Prop56
140
1.0
102
RTVSPost2010PropOp56
 70
     1
102
RTVSPost2010Prop57
140
1.0
102
RTVSPost2010PropOp57
 70
     1
  0
XRECORD
  5
54A
102
{ACAD_REACTORS
330
549
102
}
330
549
100
AcDbXrecord
280
     1
102
RTVSPropertyOp0
 70
     1
102
RTVSPropertyOp1
 70
     1
102
RTVSPropertyOp2
 70
     1
102
RTVSPropertyOp3
 70
     1
102
RTVSPropertyOp4
 70
     1
102
RTVSPropertyOp5
 70
     1
102
RTVSPropertyOp6
 70
     1
102
RTVSPropertyOp7
 70
     1
102
RTVSPropertyOp8
 70
     1
102
RTVSPropertyOp9
 70
     1
102
RTVSPropertyOp10
 70
     1
102
RTVSPropertyOp11
 70
     1
102
RTVSPropertyOp12
 70
     1
102
RTVSPropertyOp13
 70
     1
102
RTVSPropertyOp14
 70
     1
102
RTVSPropertyOp15
 70
     1
102
RTVSPropertyOp16
 70
     1
102
RTVSPropertyOp17
 70
     1
102
RTVSPropertyOp18
 70
     1
102
RTVSPropertyOp19
 70
     1
102
RTVSPropertyOp20
 70
     1
102
RTVSPropertyOp21
 70
     1
102
RTVSPropertyOp22
 70
     1
102
RTVSPropertyOp23
 70
     1
102
RTVSPropertyOp24
 70
     1
102
RTVSPropertyOp25
 70
     1
102
RTVSPropertyOp26
 70
     1
102
RTVSPropertyOp27
 70
     1
102
RTVSPropertyOp28
 70
     1
102
RTVSPropertyOp29
 70
     1
102
RTVSPropertyOp30
 70
     1
102
RTVSPropertyOp31
 70
     1
102
RTVSPropertyOp32
 70
     1
102
RTVSPropertyOp33
 70
     1
102
RTVSPropertyOp34
 70
     1
102
RTVSPropertyOp35
 70
     1
102
RTVSPropertyOp36
 70
     1
102
RTVSPropertyOp37
 70
     1
102
RTVSPropertyOp38
 70
     1
102
RTVSPropertyOp39
 70
     1
102
RTVSPropertyOp40
 70
     1
102
RTVSPropertyOp41
 70
     1
102
RTVSPropertyOp42
 70
     1
102
RTVSPropertyOp43
 70
     1
102
RTVSPropertyOp44
 70
     1
102
RTVSPropertyOp45
 70
     1
102
RTVSPropertyOp46
 70
     1
102
RTVSPropertyOp47
 70
     1
102
RTVSPropertyOp48
 70
     1
102
RTVSPropertyOp49
 70
     1
102
RTVSPropertyOp50
 70
     1
102
RTVSPropertyOp51
 70
     0
102
RTVSPropertyOp52
 70
     0
102
RTVSPropertyOp53
 70
     1
102
RTVSPropertyOp54
 70
     1
102
RTVSPropertyOp55
 70
     1
102
RTVSPropertyOp56
 70
     1
102
RTVSPropertyOp57
 70
     1
102
RTVSPost2010Prop28
280
     0
102
RTVSPost2010PropOp28
 70
     1
102
RTVSPost2010Prop29
280
     1
102
RTVSPost2010PropOp29
 70
     1
102
RTVSPost2010Prop30
280
     1
102
RTVSPost2010PropOp30
 70
     1
102
RTVSPost2010Prop31
280
     0
102
RTVSPost2010PropOp31
 70
     1
102
RTVSPost2010Prop32
280
     0
102
RTVSPost2010PropOp32
 70
     1
102
RTVSPost2010Prop33
280
     0
102
RTVSPost2010PropOp33
 70
     1
102
RTVSPost2010Prop34
280
     0
102
RTVSPost2010PropOp34
 70
     1
102
RTVSPost2010Prop35
280
     0
102
RTVSPost2010PropOp35
 70
     1
102
RTVSPost2010Prop36
280
     0
102
RTVSPost2010PropOp36
 70
     1
102
RTVSPost2010Prop37
 90
       50
102
RTVSPost2010PropOp37
 70
     1
102
RTVSPost2010Prop38
140
0.0
102
RTVSPost2010PropOp38
 70
     1
102
RTVSPost2010Prop39
140
1.0
102
RTVSPost2010PropOp39
 70
     1
102
RTVSPost2010Prop40
 90
        0
102
RTVSPost2010PropOp40
 70
     1
102
RTVSPost2010Prop41ColorIndex
 90
       18
102
RTVSPost2010Prop41ColorRGB
 90
        0
102
RTVSPost2010PropOp41
 70
     1
102
RTVSPost2010Prop42
 90
       50
102
RTVSPost2010PropOp42
 70
     1
102
RTVSPost2010Prop43
 90
        3
102
RTVSPost2010PropOp43
 70
     1
102
RTVSPost2010Prop44ColorIndex
 90
        5
102
RTVSPost2010Prop44ColorRGB
 90
      255
102
RTVSPost2010PropOp44
 70
     1
102
RTVSPost2010Prop45
280
     0
102
RTVSPost2010PropOp45
 70
     1
102
RTVSPost2010Prop46
 90
       50
102
RTVSPost2010PropOp46
 70
     1
102
RTVSPost2010Prop47
 90
       50
102
RTVSPost2010PropOp47
 70
     1
102
RTVSPost2010Prop48
 90
       50
102
RTVSPost2010PropOp48
 70
     1
102
RTVSPost2010Prop49
280
     0
102
RTVSPost2010PropOp49
 70
     1
102
RTVSPost2010Prop50
 90
       50
102
RTVSPost2010PropOp50
 70
     1
102
RTVSPost2010Prop51ColorIndex
 90
      256
102
RTVSPost2010Prop51ColorRGB
 90
-16777216
102
RTVSPost2010PropOp51
 70
     0
102
RTVSPost2010Prop52
140
1.0
102
RTVSPost2010PropOp52
 70
     0
102
RTVSPost2010Prop53
 90
        2
102
RTVSPost2010PropOp53
 70
     1
102
RTVSPost2010Prop54
  1
strokes_ogs.tif
102
RTVSPost2010PropOp54
 70
     1
102
RTVSPost2010Prop55
280
     0
102
RTVSPost2010PropOp55
 70
     1
102
RTVSPost2010Prop56
140
1.0
102
RTVSPost2010PropOp56
 70
     1
102
RTVSPost2010Prop57
140
1.0
102
RTVSPost2010PropOp57
 70
     1
  0
XRECORD
  5
54C
102
{ACAD_REACTORS
330
54B
102
}
330
54B
100
AcDbXrecord
280
     1
102
RTVSPropertyOp0
 70
     1
102
RTVSPropertyOp1
 70
     1
102
RTVSPropertyOp2
 70
     1
102
RTVSPropertyOp3
 70
     1
102
RTVSPropertyOp4
 70
     1
102
RTVSPropertyOp5
 70
     1
102
RTVSPropertyOp6
 70
     1
102
RTVSPropertyOp7
 70
     1
102
RTVSPropertyOp8
 70
     1
102
RTVSPropertyOp9
 70
     1
102
RTVSPropertyOp10
 70
     1
102
RTVSPropertyOp11
 70
     1
102
RTVSPropertyOp12
 70
     1
102
RTVSPropertyOp13
 70
     1
102
RTVSPropertyOp14
 70
     1
102
RTVSPropertyOp15
 70
     1
102
RTVSPropertyOp16
 70
     1
102
RTVSPropertyOp17
 70
     1
102
RTVSPropertyOp18
 70
     1
102
RTVSPropertyOp19
 70
     1
102
RTVSPropertyOp20
 70
     1
102
RTVSPropertyOp21
 70
     1
102
RTVSPropertyOp22
 70
     1
102
RTVSPropertyOp23
 70
     1
102
RTVSPropertyOp24
 70
     1
102
RTVSPropertyOp25
 70
     1
102
RTVSPropertyOp26
 70
     1
102
RTVSPropertyOp27
 70
     1
102
RTVSPropertyOp28
 70
     1
102
RTVSPropertyOp29
 70
     1
102
RTVSPropertyOp30
 70
     1
102
RTVSPropertyOp31
 70
     1
102
RTVSPropertyOp32
 70
     1
102
RTVSPropertyOp33
 70
     1
102
RTVSPropertyOp34
 70
     1
102
RTVSPropertyOp35
 70
     1
102
RTVSPropertyOp36
 70
     1
102
RTVSPropertyOp37
 70
     1
102
RTVSPropertyOp38
 70
     1
102
RTVSPropertyOp39
 70
     1
102
RTVSPropertyOp40
 70
     1
102
RTVSPropertyOp41
 70
     1
102
RTVSPropertyOp42
 70
     1
102
RTVSPropertyOp43
 70
     1
102
RTVSPropertyOp44
 70
     1
102
RTVSPropertyOp45
 70
     1
102
RTVSPropertyOp46
 70
     1
102
RTVSPropertyOp47
 70
     1
102
RTVSPropertyOp48
 70
     1
102
RTVSPropertyOp49
 70
     1
102
RTVSPropertyOp50
 70
     1
102
RTVSPropertyOp51
 70
     0
102
RTVSPropertyOp52
 70
     0
102
RTVSPropertyOp53
 70
     1
102
RTVSPropertyOp54
 70
     1
102
RTVSPropertyOp55
 70
     1
102
RTVSPropertyOp56
 70
     1
102
RTVSPropertyOp57
 70
     1
102
RTVSPost2010Prop28
280
     0
102
RTVSPost2010PropOp28
 70
     1
102
RTVSPost2010Prop29
280
     1
102
RTVSPost2010PropOp29
 70
     1
102
RTVSPost2010Prop30
280
     1
102
RTVSPost2010PropOp30
 70
     1
102
RTVSPost2010Prop31
280
     0
102
RTVSPost2010PropOp31
 70
     1
102
RTVSPost2010Prop32
280
     0
102
RTVSPost2010PropOp32
 70
     1
102
RTVSPost2010Prop33
280
     0
102
RTVSPost2010PropOp33
 70
     1
102
RTVSPost2010Prop34
280
     0
102
RTVSPost2010PropOp34
 70
     1
102
RTVSPost2010Prop35
280
     0
102
RTVSPost2010PropOp35
 70
     1
102
RTVSPost2010Prop36
280
     0
102
RTVSPost2010PropOp36
 70
     1
102
RTVSPost2010Prop37
 90
       50
102
RTVSPost2010PropOp37
 70
     1
102
RTVSPost2010Prop38
140
0.0
102
RTVSPost2010PropOp38
 70
     1
102
RTVSPost2010Prop39
140
1.0
102
RTVSPost2010PropOp39
 70
     1
102
RTVSPost2010Prop40
 90
        0
102
RTVSPost2010PropOp40
 70
     1
102
RTVSPost2010Prop41ColorIndex
 90
       18
102
RTVSPost2010Prop41ColorRGB
 90
        0
102
RTVSPost2010PropOp41
 70
     1
102
RTVSPost2010Prop42
 90
       50
102
RTVSPost2010PropOp42
 70
     1
102
RTVSPost2010Prop43
 90
        3
102
RTVSPost2010PropOp43
 70
     1
102
RTVSPost2010Prop44ColorIndex
 90
        5
102
RTVSPost2010Prop44ColorRGB
 90
      255
102
RTVSPost2010PropOp44
 70
     1
102
RTVSPost2010Prop45
280
     0
102
RTVSPost2010PropOp45
 70
     1
102
RTVSPost2010Prop46
 90
       50
102
RTVSPost2010PropOp46
 70
     1
102
RTVSPost2010Prop47
 90
       50
102
RTVSPost2010PropOp47
 70
     1
102
RTVSPost2010Prop48
 90
       50
102
RTVSPost2010PropOp48
 70
     1
102
RTVSPost2010Prop49
280
     0
102
RTVSPost2010PropOp49
 70
     1
102
RTVSPost2010Prop50
 90
       50
102
RTVSPost2010PropOp50
 70
     1
102
RTVSPost2010Prop51ColorIndex
 90
      256
102
RTVSPost2010Prop51ColorRGB
 90
-16777216
102
RTVSPost2010PropOp51
 70
     0
102
RTVSPost2010Prop52
140
1.0
102
RTVSPost2010PropOp52
 70
     0
102
RTVSPost2010Prop53
 90
        2
102
RTVSPost2010PropOp53
 70
     1
102
RTVSPost2010Prop54
  1
strokes_ogs.tif
102
RTVSPost2010PropOp54
 70
     1
102
RTVSPost2010Prop55
280
     0
102
RTVSPost2010PropOp55
 70
     1
102
RTVSPost2010Prop56
140
1.0
102
RTVSPost2010PropOp56
 70
     1
102
RTVSPost2010Prop57
140
1.0
102
RTVSPost2010PropOp57
 70
     1
  0
XRECORD
  5
54E
102
{ACAD_REACTORS
330
54D
102
}
330
54D
100
AcDbXrecord
280
     1
102
RTVSPropertyOp0
 70
     1
102
RTVSPropertyOp1
 70
     1
102
RTVSPropertyOp2
 70
     1
102
RTVSPropertyOp3
 70
     1
102
RTVSPropertyOp4
 70
     1
102
RTVSPropertyOp5
 70
     1
102
RTVSPropertyOp6
 70
     1
102
RTVSPropertyOp7
 70
     1
102
RTVSPropertyOp8
 70
     1
102
RTVSPropertyOp9
 70
     1
102
RTVSPropertyOp10
 70
     1
102
RTVSPropertyOp11
 70
     1
102
RTVSPropertyOp12
 70
     1
102
RTVSPropertyOp13
 70
     1
102
RTVSPropertyOp14
 70
     1
102
RTVSPropertyOp15
 70
     1
102
RTVSPropertyOp16
 70
     1
102
RTVSPropertyOp17
 70
     1
102
RTVSPropertyOp18
 70
     1
102
RTVSPropertyOp19
 70
     1
102
RTVSPropertyOp20
 70
     1
102
RTVSPropertyOp21
 70
     1
102
RTVSPropertyOp22
 70
     1
102
RTVSPropertyOp23
 70
     1
102
RTVSPropertyOp24
 70
     1
102
RTVSPropertyOp25
 70
     1
102
RTVSPropertyOp26
 70
     1
102
RTVSPropertyOp27
 70
     1
102
RTVSPropertyOp28
 70
     1
102
RTVSPropertyOp29
 70
     1
102
RTVSPropertyOp30
 70
     1
102
RTVSPropertyOp31
 70
     1
102
RTVSPropertyOp32
 70
     1
102
RTVSPropertyOp33
 70
     1
102
RTVSPropertyOp34
 70
     1
102
RTVSPropertyOp35
 70
     1
102
RTVSPropertyOp36
 70
     1
102
RTVSPropertyOp37
 70
     1
102
RTVSPropertyOp38
 70
     1
102
RTVSPropertyOp39
 70
     1
102
RTVSPropertyOp40
 70
     1
102
RTVSPropertyOp41
 70
     1
102
RTVSPropertyOp42
 70
     1
102
RTVSPropertyOp43
 70
     1
102
RTVSPropertyOp44
 70
     1
102
RTVSPropertyOp45
 70
     1
102
RTVSPropertyOp46
 70
     1
102
RTVSPropertyOp47
 70
     1
102
RTVSPropertyOp48
 70
     1
102
RTVSPropertyOp49
 70
     1
102
RTVSPropertyOp50
 70
     1
102
RTVSPropertyOp51
 70
     0
102
RTVSPropertyOp52
 70
     0
102
RTVSPropertyOp53
 70
     1
102
RTVSPropertyOp54
 70
     1
102
RTVSPropertyOp55
 70
     1
102
RTVSPropertyOp56
 70
     1
102
RTVSPropertyOp57
 70
     1
102
RTVSPost2010Prop28
280
     0
102
RTVSPost2010PropOp28
 70
     1
102
RTVSPost2010Prop29
280
     1
102
RTVSPost2010PropOp29
 70
     1
102
RTVSPost2010Prop30
280
     1
102
RTVSPost2010PropOp30
 70
     1
102
RTVSPost2010Prop31
280
     0
102
RTVSPost2010PropOp31
 70
     1
102
RTVSPost2010Prop32
280
     0
102
RTVSPost2010PropOp32
 70
     1
102
RTVSPost2010Prop33
280
     0
102
RTVSPost2010PropOp33
 70
     1
102
RTVSPost2010Prop34
280
     0
102
RTVSPost2010PropOp34
 70
     1
102
RTVSPost2010Prop35
280
     0
102
RTVSPost2010PropOp35
 70
     1
102
RTVSPost2010Prop36
280
     0
102
RTVSPost2010PropOp36
 70
     1
102
RTVSPost2010Prop37
 90
       50
102
RTVSPost2010PropOp37
 70
     1
102
RTVSPost2010Prop38
140
0.0
102
RTVSPost2010PropOp38
 70
     1
102
RTVSPost2010Prop39
140
1.0
102
RTVSPost2010PropOp39
 70
     1
102
RTVSPost2010Prop40
 90
        0
102
RTVSPost2010PropOp40
 70
     1
102
RTVSPost2010Prop41ColorIndex
 90
       18
102
RTVSPost2010Prop41ColorRGB
 90
        0
102
RTVSPost2010PropOp41
 70
     1
102
RTVSPost2010Prop42
 90
       50
102
RTVSPost2010PropOp42
 70
     1
102
RTVSPost2010Prop43
 90
        3
102
RTVSPost2010PropOp43
 70
     1
102
RTVSPost2010Prop44ColorIndex
 90
        5
102
RTVSPost2010Prop44ColorRGB
 90
      255
102
RTVSPost2010PropOp44
 70
     1
102
RTVSPost2010Prop45
280
     0
102
RTVSPost2010PropOp45
 70
     1
102
RTVSPost2010Prop46
 90
       50
102
RTVSPost2010PropOp46
 70
     1
102
RTVSPost2010Prop47
 90
       50
102
RTVSPost2010PropOp47
 70
     1
102
RTVSPost2010Prop48
 90
       50
102
RTVSPost2010PropOp48
 70
     1
102
RTVSPost2010Prop49
280
     0
102
RTVSPost2010PropOp49
 70
     1
102
RTVSPost2010Prop50
 90
       50
102
RTVSPost2010PropOp50
 70
     1
102
RTVSPost2010Prop51ColorIndex
 90
      256
102
RTVSPost2010Prop51ColorRGB
 90
-16777216
102
RTVSPost2010PropOp51
 70
     0
102
RTVSPost2010Prop52
140
1.0
102
RTVSPost2010PropOp52
 70
     0
102
RTVSPost2010Prop53
 90
        2
102
RTVSPost2010PropOp53
 70
     1
102
RTVSPost2010Prop54
  1
strokes_ogs.tif
102
RTVSPost2010PropOp54
 70
     1
102
RTVSPost2010Prop55
280
     0
102
RTVSPost2010PropOp55
 70
     1
102
RTVSPost2010Prop56
140
1.0
102
RTVSPost2010PropOp56
 70
     1
102
RTVSPost2010Prop57
140
1.0
102
RTVSPost2010PropOp57
 70
     1
  0
ENDSEC
  0
SECTION
  2
THUMBNAILIMAGE
 90
    20384
310
28000000B8000000690000000100080000000000784B00000100000001000000000100000000000000000000FFFFFF52000000FF000000FF000000FF000000FF000000FF000000FF000000FF000000FF000000FF330000FF660000FF990000FFCC0000FFFF0000FF003300FF333300FF663300FF993300FFCC3300FFFF3300
310
FF006600FF336600FF666600FF996600FFCC6600FFFF6600FF009900FF339900FF669900FF999900FFCC9900FFFF9900FF00CC00FF33CC00FF66CC00FF99CC00FFCCCC00FFFFCC00FF00FF00FF33FF00FF66FF00FF99FF00FFCCFF00FFFFFF00FF000033FF330033FF660033FF990033FFCC0033FFFF0033FF003333FF3333
310
33FF663333FF993333FFCC3333FFFF3333FF006633FF336633FF666633FF996633FFCC6633FFFF6633FF009933FF339933FF669933FF999933FFCC9933FFFF9933FF00CC33FF33CC33FF66CC33FF99CC33FFCCCC33FFFFCC33FF00FF33FF33FF33FF66FF33FF99FF33FFCCFF33FFFFFF33FF000066FF330066FF660066FF99
310
0066FFCC0066FFFF0066FF003366FF333366FF663366FF993366FFCC3366FFFF3366FF006666FF336666FF666666FF996666FFCC6666FFFF6666FF009966FF339966FF669966FF999966FFCC9966FFFF9966FF00CC66FF33CC66FF66CC66FF99CC66FFCCCC66FFFFCC66FF00FF66FF33FF66FF66FF66FF99FF66FFCCFF66FF
310
FFFF66FF000099FF330099FF660099FF990099FFCC0099FFFF0099FF003399FF333399FF663399FF993399FFCC3399FFFF3399FF006699FF336699FF666699FF996699FFCC6699FFFF6699FF009999FF339999FF669999FF999999FFCC9999FFFF9999FF00CC99FF33CC99FF66CC99FF99CC99FFCCCC99FFFFCC99FF00FF99
310
FF33FF99FF66FF99FF99FF99FFCCFF99FFFFFF99FF0000CCFF3300CCFF6600CCFF9900CCFFCC00CCFFFF00CCFF0033CCFF3333CCFF6633CCFF9933CCFFCC33CCFFFF33CCFF0066CCFF3366CCFF6666CCFF9966CCFFCC66CCFFFF66CCFF0099CCFF3399CCFF6699CCFF9999CCFFCC99CCFFFF99CCFF00CCCCFF33CCCCFF66CC
310
CCFF99CCCCFFCCCCCCFFFFCCCCFF00FFCCFF33FFCCFF66FFCCFF99FFCCFFCCFFCCFFFFFFCCFF0000FFFF3300FFFF6600FFFF9900FFFFCC00FFFFFF00FFFF0033FFFF3333FFFF6633FFFF9933FFFFCC33FFFFFF33FFFF0066FFFF3366FFFF6666FFFF9966FFFFCC66FFFFFF66FFFF0099FFFF3399FFFF6699FFFF9999FFFFCC
310
99FFFFFF99FFFF00CCFFFF33CCFFFF66CCFFFF99CCFFFFCCCCFFFFFFCCFFFF00FFFFFF33FFFFFF66FFFFFF99FFFFFFCCFFFFFFFFFFFFFF000000FF0D0D0DFF1A1A1AFF282828FF353535FF434343FF505050FF5D5D5DFF6B6B6BFF787878FF868686FF939393FFA1A1A1FFAEAEAEFFBBBBBBFFC9C9C9FFD6D6D6FFE4E4E4FF
310
F1F1F1FFFFFFFFFF000000FF000000FF000000FF000000FF000000FF000000FF000000FF000000FF000000FF000000FF00000000000000000000000000000000000000000000000000000000000000000000000000000000000000000000000000000000000000000000000000000000000000000000000000000000000000
310
00000000000000000000F50000000000000000000000000000000000000000000000000000000000000000000000000000000000000000000000000000000000000000000000000000000000000000000000000000000000000000000000000000000000000000000000000000000000000000000000000000000000000000
310
00000000000000000000000000000000000000000000000000000000000000000000000000000000000000000000000000000000000000000000000000000000000000F50000000000000000000000000000000000000000000000000000000000000000000000000000000000000000000000000000000000000000000000
310
00000000000000000000000000000000000000000000000000000000000000000000000000000000000000000000000000000000000000000000000000000000000000000000000000000000000000000000000000000000000000000000000000000000000000000000000000000000000000000000000000000000F50000
310
00000000000000000000000000000000000000000000000000000000000000000000000000000000000000000000000000000000000000000000000000000000000000000000000000000000000000000000000000000000000000000000000000000000000000000000000000000000000000000000000000000000000000
310
000000000000000000000000000000000000000000000000000000000000000000000000000000000000000000000000000000000000F5000000000000000000000000000000000000000000000000000000000000000000000000000000000000000000000000000000000000000000000000000000000000000000000000
310
000000000000000000000000000000000000000000000000000000000000000000000000000000000000000000000000000000000000000000000000000000000000000000000000000000000000000000000000000000000000000000000000000000000000000000000000000000F5000000000000000000000000000000
310
00000000000000000000000000000000000000000000000000000000000000000000000000000000000000000000000000000000000000000000000000000000000000000000000000000000000000000000000000000000000000000000000000000000000000000000000000000000000000000000000000000000000000
310
0000000000000000000000000000000000000000000000000000000000000000000000000000000000F500000000000000000000000000000000000000000000000000000000000000000000000000000000000000000000000000000000000000000000000000000000000000000000000000000000000000000000000000
310
000000000000000000000000000000000000000000000000000000000000000000000000000000000000000000000000000000000000000000000000000000000000000000F5F5F5F5F5F5F5F5F5F5F5F5F5F5F5F5F5F5F5F5F5F5F5F5F5F5F5F5F5F5F5F5F5F5F5F5F5F5F5F5F5F5F5F5F5F5F5F5F5F5F5F5F5F5F5F5F5F5
310
F5F500000000000000000000000000000000000000000000000000000000000000000000000000000000000000000000000000000000000000000000000000000000000000000000000000000000000000000000000000000000000000000000000000000000000000000000000000000000000000000000000000000000F5
310
00000000000000000000000000F5F5000000000000000000000000000000F500000000000000000000F5F5F5F5F5F50000000000000000000000F50000000000000000000000000000000000000000000000000000000000000000000000000000000000000000000000000000000000000000000000000000000000000000
310
0000000000000000000000000000000000000000000000000000000000000000000000000000000000000000000000000000000000000000F50000F5F5F5F5F5F5F5F5F5F5F5F5F5F5F5F5F5F500F50000000000000000F5F5000000000000000000F5F5F5F5F5F50000000000000000000000F50000000000000000000000
310
0000000000000000000000000000000000000000000000000000000000000000000000000000000000000000000000000000000000000000000000000000000000000000000000000000000000000000000000000000000000000000000000000000000000000000000000000000000000F5F5F5F5F5F5F5F5F5F5F5F5F5F5
310
F5F5F5F5F5F5F5F5F50000000000000000F5F5000000000000000000F5F5F5F5F5F50000000000000000000000F5000000000000000000000000000000000000000000000000000000000000000000000000000000000000000000000000000000000000000000000000000000000000000000000000000000000000000000
310
00000000000000000000000000000000000000000000000000000000000000000000000000000000000000F5F5F500000000000000000000000000000000000000000000000000000000F5F5F5F5F5F5F5F5F5F5F5F5F5F5F5F5F5F5F5F5F5F5F5F5F5F5F5F5F5000000000000000000000000000000000000000000000000
310
00000000000000000000000000000000000000000000000000000000000000000000000000000000000000000000000000000000000000000000000000000000000000000000000000000000000000000000000000000000000000000000000000000000F5F5F5F5F5F5F5F5F5F5F5F5F5F5F5F5F5F5F5F5F5F5F5F5F5F5F5
310
F5F5F5F5F500000000000000000000F5F5F5F5F5F50000000000000000000000F500000000000000000000000000000000000000000000000000000000000000000000000000000000000000000000000000000000000000000000000000000000000000000000000000000000000000000000000000000000000000000000
310
000000000000000000000000000000000000000000000000000000000000F500F5F5F5000000F5F5F5000000000000F5F5F5F5F5F500F500F5F5F5F500F5F5000000000000000000F5F5F5F5F5F50000000000000000000000F500000000000000000000000000000000000000000000000000000000000000000000000000
310
000000000000000000000000000000000000000000000000000000000000000000000000000000000000000000000000000000000000000000000000000000000000000000000000000000000000000000000000000000F500F5F5F5000000F5F5F5000000000000F5F5F5F5F5F500F500F5F5F5F500F5F5F5F5F5F5F5F5F5
310
F5F5F5F5F5F5F5F5F5F5F5F5F5F5F5F5F5F5F5F50000000000000000000000000000000000000000000000000000000000000000000000000000000000000000000000000000000000000000000000000000000000000000000000000000000000000000000000000000000000000000000000000000000000000000000000
310
0000000000000000000000000000000000F5F5F5F5F5F5F500F5F5F5000000000000F5F5F5F5F5F500F5F5F500F5F500F5000000000000000000000000000000000000000000000000000000F50000000000000000000000000000000000000000000000000000000000000000000000000000000000000000000000000000
310
0000000000000000000000000000000000000000000000000000000000000000000000000000000000000000000000000000000000000000000000000000000000000000000000000000F5F5F500F5F5F500000000000000000000F5F5F500000000F5F5F500000000F5000000000000000000000000000000000000000000
310
000000000000F5000000000000000000000000000000000000000000000000000000000000000000000000000000000000000000000000000000000000000000000000000000000000000000000000000000000000000000000000000000000000000000000000000000000000000000000000000000000000000000000000
310
00000000F5F5F5F5F5F5F5F5F5F5F5F5F5F5F5F5F5F5F5F5F5F5F5F5F5F5F5F5F5F5F5F500F5F5F5F5F5000000000000000000000000000000000000000000F5000000000000000000000000000000000000000000000000000000000000000000000000000000000000000000000000000000000000000000000000000000
310
00000000000000000000000000000000000000000000000000000000000000000000000000000000000000000000000000000000000000000000000000F50000000000000000000000F5F5F5F5F5F500F50000F500F50000F5F50000F500F5F5F5F5F5000000000000000000000000000000000000000000F5000000000000
310
00000000000000000000000000000000000000000000000000000000000000000000000000000000000000000000000000000000000000000000000000000000000000000000000000000000000000000000000000000000000000000000000000000000000000000000000000000000000000000000F5000000F5F5F5F5F5
310
F5F5F5F5F5F5F5F5F5F5F5F5F5F5F5F50000F5F50000F5000000000000000000000000000000000000000000000000000000F500000000000000000000000000000000000000000000000000000000000000000000000000000000000000000000000000000000000000000000000000000000000000000000000000000000
310
000000000000000000000000000000000000000000000000000000000000000000000000000000000000000000000000F5000000F5F5F5F5F5F5F5F5F5F5F5F500F500F50000F500F5F5F500000000F5F50000000000000000000000000000000000000000000000000000F500000000000000000000000000000000000000
310
000000000000000000000000000000000000000000000000000000000000000000000000000000000000000000000000000000000000000000000000000000000000000000000000000000000000000000000000000000000000000000000000000000000000000000F5F5F5F5F5F5F5F5F5F5F5F5F5F5F5F5F5F5F5F5F5F5
310
F5F5F5F5F5F5F5F5F5F5F5F5F5F5F5F5F5F5F5F5F5F5F5F5F5F5F5F5F5F5F5F5F5F5F5F5F5F50000000000000000000000000000000000000000000000000000000000000000000000000000000000000000000000000000000000000000000000000000000000000000000000000000000000000000000000000000000000
310
0000000000000000000000000000000000000000000000000000000000000000000000F50000F5F5F5F5F500F50000000000F5F5F5F5F500F5F5F5F5F500000000F500000000000000000000000000000000000000000000000000000000F50000000000000000000000000000000000000000000000000000000000000000
310
0000000000000000000000000000000000000000000000000000000000000000000000000000000000000000000000000000000000000000000000000000000000000000000000000000000000000000000000000000000000000000F500F5F5F5F5F5F5F5F5F5F5F5F5F5F5F5F5F5F5F5F5F5F5F5F5F5F5F5F5F500000000
310
000000000000000000000000000000000000000000000000F5000000000000000000000000000000000000000000000000000000000000000000000000000000000000000000000000000000000000000000000000000000000000000000000000000000000000000000000000000000000000000000000000000000000000
310
00000000000000000000000000000000000000000000F500F5F5F5F5F5F5F5F5F500F5F5F5F5F5F5F5F5F5F5F5F5F5F5F5F5F5F5F500000000000000000000000000000000000000000000000000000000F5000000000000000000000000000000000000000000000000000000000000000000000000000000000000000000
310
00000000000000000000000000000000000000000000000000000000000000000000000000000000000000000000000000000000000000000000000000000000000000000000000000000000000000F500F5F500F5F5F5F5F5F5F5F5F5F5000000000000000000000000000000000000000000000000000000000000000000
310
0000000000000000000000F500000000000000000000000000000000000000000000000000000000000000000000000000000000000000000000000000000000000000000000000000000000000000000000000000000000000000000000000000000000000000000000000000000000000000000000000000000000000000
310
000000000000000000F500F5F500F5F5F5F5F5F5F5F5F5F50000000000000000000000000000000000000000000000000000000000000000000000000000000000000000F500000000000000000000000000000000000000000000000000000000000000000000000000000000000000000000000000000000000000000000
310
000000000000000000000000000000000000000000000000000000000000000000000000000000000000000000000000000000000000000000000000000000000000F500F5F5F5F5F5F5F5F5F5F5F5F5F5F500000000000000000000000000000000000000000000000000000000000000000000000000000000000000F500
310
000000000000000000000000000000000000000000000000000000000000000000000000000000000000000000000000000000000000000000000000000000000000000000000000000000000000000000000000000000000000000000000000000000000000000000000000000000000000000000000000000000F500F5F5
310
F5F5F5F5F5F5F5F5F5F5F5F500000000000000000000000000000000000000000000000000000000000000000000000000000000000000F50000000000000000000000000000000000000000000000000000000000000000000000000000000000000000000000000000000000000000000000000000000000000000000000
310
0000000000000000000000000000000000000000000000000000000000000000000000000000000000000000000000000000000000F500000000000000000000000000000000000000000000000000000000000000000000000000000000000000000000000000000000000000000000F50000000000000000000000000000
310
0000000000000000000000000000000000000000000000000000000000000000000000000000000000000000000000000000000000000000000000000000000000000000000000000000000000000000000000000000000000000000000000000000000000000000000000000000F500000000000000000000000000000000
310
000000000000000000000000000000000000000000000000000000000000000000000000000000000000F5000000000000000000000000000000000000000000000000000000000000000000000000000000000000000000000000000000000000000000000000000000000000000000000000000000000000000000000000
310
00000000000000000000000000000000000000000000000000000000000000000000000000000000F500000000000000000000000000000000000000000000000000000000000000000000000000000000000000000000000000000000000000000000F5000000000000000000000000000000000000000000000000000000
310
00000000000000000000000000000000000000000000000000000000000000000000000000000000000000000000000000000000000000000000000000000000000000000000000000000000000000000000000000000000000000000000000000F50000000000000000000000000000000000000000000000000000000000
310
0000000000000000000000000000000000000000000000000000000000F500000000000000000000000000000000000000000000000000000000000000000000000000000000000000000000000000000000000000000000000000000000000000000000000000000000000000000000000000000000000000000000000000
310
000000000000000000000000000000000000000000000000000000F500000000000000000000000000000000000000000000000000000000000000000000000000000000000000000000000000000000000000000000F500000000000000000000000000000000000000000000000000000000000000000000000000000000
310
000000000000000000000000000000000000000000000000000000000000000000000000000000000000000000000000000000000000000000000000000000000000000000000000000000000000000000000000F5000000000000000000000000000000000000000000000000000000000000000000000000000000000000
310
00000000000000000000000000000000F50000000000000000000000000000000000000000000000000000000000000000000000000000000000000000000000000000000000000000000000000000000000000000000000000000000000000000000000000000000000000000000000000000000000000000000000000000
310
0000000000000000000000000000F500000000000000000000000000000000000000000000000000000000000000000000000000000000000000000000000000000000000000000000F50000000000000000000000000000000000000000000000000000000000000000000000000000000000000000000000000000000000
310
0000000000000000000000000000000000000000000000000000000000000000000000000000000000000000000000000000000000000000000000000000000000000000000000F500000000000000000000000000000000000000000000000000000000000000000000000000000000000000000000000000000000000000
310
000000F5000000000000000000000000000000000000000000000000000000000000000000000000000000000000000000000000000000000000000000000000000000000000000000000000000000000000000000000000000000000000000000000000000000000000000000000000000000000000000000000000000000
310
00F5000000000000000000000000000000000000000000000000000000F5F50000000000000000000000000000000000000000000000000000000000F5000000000000000000000000000000000000000000000000000000000000000000000000000000000000000000000000000000000000000000000000000000000000
310
00000000000000000000000000000000000000000000000000000000000000000000000000000000000000000000000000000000000000000000F5000000000000000000000000000000000000000000000000000000F5F50000000000000000000000000000000000000000000000000000000000F5000000000000000000
310
00000000000000000000000000000000000000000000000000000000000000000000000000000000000000000000000000000000000000000000000000000000000000000000000000000000000000000000000000000000000000000000000000000000000000000000000000000000000000F50000000000F5F500000000
310
0000000000000000000000F5000000F5F5F50000000000000000000000000000F500000000000000F5F50000000000F500000000000000000000000000000000000000000000000000000000000000000000000000000000000000000000000000000000000000000000000000000000000000000000000000000000000000
310
000000000000000000000000000000000000000000000000000000000000000000000000000000000000000000F50000000000F5F500000000000000000000F5000000F5F5000000F5F5F500000000000000000000000000F5F500000000000000F5F50000000000F500000000000000000000000000000000000000000000
310
000000000000000000000000000000000000000000000000000000000000000000000000000000000000000000000000000000000000000000000000000000000000000000000000000000000000000000000000000000000000000000000000000000000000F50000F5F5F5F5F5F5F5F5F5F5F5F5F5F5F5F5F5F5F5F5F5F5
310
F5F5F5F5F5000000000000000000F50000F5F5F5F5F5F5F5F5F5F5F5F5F500000000F50000000000000000000000000000000000000000000000000000000000000000000000000000000000000000000000000000000000000000000000000000000000000000000000000000000000000000000000000000000000000000
310
0000000000000000000000000000000000000000000000000000000000000000F50000F5F5F5F5F5F5F5F5F5F5F5F5F5F5F5F5F5F5F5F5F5F5F5F5F5F5F50000000000000000F5F5F5F5F5F5F5F5F5F5F5F5F5F5F5F5F500000000F50000000000000000000000000000000000000000000000000000000000000000000000
310
0000000000000000000000000000000000000000000000000000000000000000000000000000000000000000000000000000000000000000000000000000000000000000000000000000000000000000000000000000000000F500000000F5F5F5F500F500F5F5F5F50000F5000000F5F5F500000000F50000000000000000
310
F5F5F5F5F500F500F5F5F500F500F5F50000000000F5000000000000000000000000000000000000000000000000000000000000000000000000000000000000000000000000000000000000000000000000000000000000000000000000000000000000000000000000000000000000000000000000000000000000000000
310
00000000000000000000000000000000000000F500000000F5F5F5F5F5F5F5F5F5F500F5F5F5000000F500F5F5000000000000000000000000F5F500F500F5F5F500F500F5F500F5F50000000000F5000000000000000000000000000000000000000000000000000000000000000000000000000000000000000000000000
310
00000000000000000000000000000000000000000000000000000000000000000000000000000000000000000000000000000000000000000000000000000000000000000000000000000000F500000000F5F5F5F5F5F5F5F5F500F5F5F5F500000000F5F5F5000000000000000000000000F50000F5F5F5F5F5F5F50000F5
310
0000F50000000000F500000000000000000000000000000000000000000000000000000000000000000000000000000000000000000000000000000000000000000000000000000000000000000000000000000000000000000000000000000000000000000000000000000000000000000000000000000000000000000000
310
000000000000F500000000F5F5F5F5F5F5F5F5F5F5F5F5F5F5F5F5F5F5F5F5F5000000000000000000000000F5F5F5F5F5F5F5F5F5F5F5F5F5F5F5F5F500000000F500000000000000000000000000000000000000000000000000000000000000000000000000000000000000000000000000000000000000000000000000
310
000000000000000000000000000000000000000000000000000000000000000000000000000000000000000000000000000000000000000000000000000000F5000000000000000000F50000F5000000000000000000000000000000000000000000000000000000000000F50000000000000000000000000000F500000000
310
000000000000000000000000000000000000000000000000000000000000000000000000000000000000000000000000000000000000000000000000000000000000000000000000000000000000000000000000000000000000000000000000000000000000000000000000000000000000000000000000F5000000000000
310
00F5F5F5F5F500000000000000000000000000000000000000000000000000000000000000000000000000000000000000000000F50000000000000000000000000000000000000000000000000000000000000000000000000000000000000000000000000000000000000000000000000000000000000000000000000000
310
0000000000000000000000000000000000000000000000000000000000000000000000000000000000000000000000000000F500000000000000F5F5F5F5F500000000000000000000000000000000000000000000000000000000000000000000000000000000000000000000F50000000000000000000000000000000000
310
0000000000000000000000000000000000000000000000000000000000000000000000000000000000000000000000000000000000000000000000000000000000000000000000000000000000000000000000000000000000000000000000000000000000000000000000F50000000000000000000000F500000000000000
310
000000000000000000000000000000000000000000000000000000000000000000000000000000F5000000000000000000000000000000000000000000000000000000000000000000000000000000000000000000000000000000000000000000000000000000000000000000000000000000000000000000000000000000
310
00000000000000000000000000000000000000000000000000000000000000000000000000F500000000000000000000000000000000000000000000000000000000000000000000000000000000000000000000000000000000000000000000F5000000000000000000000000000000000000000000000000000000000000
310
00000000000000000000000000000000000000000000000000000000000000000000000000000000000000000000000000000000000000000000000000000000000000000000000000000000000000000000000000000000000000000000F50000000000000000000000000000000000000000000000000000000000000000
310
0000000000000000000000000000000000000000000000000000F500000000000000000000000000000000000000000000000000000000000000000000000000000000000000000000000000000000000000000000000000000000000000000000000000000000000000000000000000000000000000000000000000000000
310
0000000000000000000000000000000000F5F5F5F5F5F5F5F500000000000000000000000000000000000000000000000000000000000000000000000000000000000000000000000000000000000000000000F5F5F5F5F5F5F5F5000000000000000000000000000000000000000000000000000000000000000000000000
310
000000000000000000000000000000000000000000000000000000000000000000000000000000000000000000000000000000000000000000000000000000000000000000000000000000000000000000F5000000000000000000000000000000000000000000000000000000000000000000000000F5F5F5F5F5F5F5F5F5
310
F5F5F500000000000000000000F50000000000000000000000000000000000000000000000000000000000000000000000000000000000000000000000000000000000000000000000000000000000000000000000000000000000000000000000000000000000000000000000000000000000000000000000000000000000
310
0000000000000000000000F5000000000000000000000000000000000000000000000000000000000000000000000000F5F5F5F5F5F5F5F5F5F5F5F500000000000000000000F50000000000000000000000000000000000000000000000000000000000000000000000000000000000000000000000000000000000000000
310
0000000000000000000000000000000000000000000000000000000000000000000000000000000000000000000000000000000000000000000000000000000000000000F5000000000000000000000000000000000000000000000000000000000000000000000000F5F5F5F5F5F5F5F5F5F5000000000000000000000000
310
F500000000000000000000000000000000000000000000000000000000000000000000000000000000000000000000000000000000000000000000000000000000000000000000000000000000000000000000000000000000000000000000000000000000000000000000000000000000000000000000000000000000F500
310
000000F5F50000000000000000000000000000000000F5F50000000000000000000000F5F5F5F5F5F5F5F5F5F5000000000000000000000000F5000000000000000000000000000000000000000000000000000000000000000000000000000000000000000000000000000000000000000000000000000000000000000000
310
00000000000000000000000000000000000000000000000000000000000000000000000000000000000000000000000000000000000000F500000000F5F5F5F5F5F5F5F5F5F5F5F5F5F5F5F5F5F5F5F5F500000000000000000000F5F5F5F5F5F5F5F5F5F500000000000000000000000000F5000000000000000000000000
310
00000000000000000000000000000000000000000000000000000000000000000000000000000000000000000000000000000000000000000000000000000000000000000000000000000000000000000000000000000000000000000000000000000000000000000000000000000000F500000000F50000000000000000F5
310
F5F50000000000000000F500000000000000000000F5F5F5F5F5F5F5F500F500000000000000000000000000F500000000000000000000000000000000000000000000000000000000000000000000000000000000000000000000000000000000000000000000000000000000000000000000000000000000000000000000
310
000000000000000000000000000000000000000000000000000000000000000000000000000000000000F500000000F5F5F5F5F5F5F5F5F5F5F5F5F5F5F5F5F5F5F5F5F50000000000000000000000000000000000F5F5F5F5F5F5F5000000000000000000F500000000000000000000000000000000000000000000000000
310
000000000000000000000000000000000000000000000000000000000000000000000000000000000000000000000000000000000000000000000000000000000000000000000000000000000000000000000000000000000000000000000000000000F500000000F5F500000000000000F5F5F500000000000000F5F50000
310
000000000000000000000000000000F5F5F5F5F5F5F5000000000000000000F50000000000000000000000000000000000000000000000000000000000000000000000000000000000000000000000000000000000000000000000000000000000000000000000000000000000000000000000000000000000000000000000
310
0000000000000000000000000000000000000000000000000000000000F500000000F5F5000000F5F5F5F5F5F5F5F5F5F5F5F5F5F5F5F5000000000000000000000000000000000000000000000000000000000000000000F50000000000000000000000000000000000000000000000000000000000000000000000000000
310
0000000000000000000000000000000000000000000000000000000000000000000000000000000000000000000000000000000000000000000000000000000000000000000000000000000000000000000000000000F500000000F5F5000000F5000000F5F50000F50000F5F500F5F500000000000000000000F500000000
310
000000000000000000000000F50000000000F5000000000000000000000000000000000000000000000000000000000000000000000000000000000000000000000000000000000000000000000000000000000000000000000000000000000000000000000000000000000000000000000000000000000000000000000000
310
00000000000000000000000000000000F500000000F5F5000000F5000000F5F50000F50000F5F500F5F500000000000000000000F5F5F5F5F5F5F5F5F5F5F5F5F5F5F5F5F5F50000000000F5000000000000000000000000000000000000000000000000000000000000000000000000000000000000000000000000000000
310
00000000000000000000000000000000000000000000000000000000000000000000000000000000000000000000000000000000000000000000000000000000000000000000000000F500000000F5F5F5F5F5F5F5F5F5F5F5F5F5F5F5F5F5F5F5F5F5F5F5F5F5F5F5F5000000F5000000000000F5F5F5F5000000000000F5
310
0000000000F500000000000000000000000000000000000000000000000000000000000000000000000000000000000000000000000000000000000000000000000000000000000000000000000000000000000000000000000000000000000000000000000000000000000000000000000000000000000000000000000000
310
000000F500000000F5F5F5F5F5F5F5F5F5F5F5F5F5F5F5F5F5F5F5F5F5F5F5F5F5F500F5000000F5000000F5F5F5F5F5F5F5F5F5F5F5F500F50000000000F500000000000000000000000000000000000000000000000000000000000000000000000000000000000000000000000000000000000000000000000000000000
310
000000000000000000000000000000000000000000000000000000000000000000000000000000000000000000000000000000000000000000000000F500000000F5F5F50000F500000000000000F5000000F500F5F500000000F500F5000000F5000000F5F5000000F5F5000000F5F500F50000000000F500000000000000
310
000000000000000000000000000000000000000000000000000000000000000000000000000000000000000000000000000000000000000000000000000000000000000000000000000000000000000000000000000000000000000000000000000000000000000000000000000000000000000000F500000000F5F5F50000
310
F500000000000000F500000000F5F5F500000000F500F5000000F5000000F500000000F5F500F50000F500F50000000000F50000000000000000000000000000000000000000000000000000000000000000000000000000000000000000000000000000000000000000000000000000000000000000000000000000000000
310
0000000000000000000000000000000000000000000000000000000000000000000000000000000000000000000000F500000000F5F500F5F5F5F5F50000000000F500000000F5F5F500000000F500F50000F5F5F5F5F5F5F5F5F5F5F5F5F5F50000F500F50000000000F50000000000000000000000000000000000000000
310
0000000000000000000000000000000000000000000000000000000000000000000000000000000000000000000000000000000000000000000000000000000000000000000000000000000000000000000000000000000000000000000000000000000000000000F500000000F5F500F5F5F5F5F500000000F5F500F5F5F5
310
F5F5F5F5F50000F500F50000F5F5000000F500000000000000F50000F500F50000000000F5000000000000000000000000000000000000000000000000000000000000000000000000000000000000000000000000000000000000000000000000000000000000000000000000000000000000000000000000000000000000
310
00000000000000000000000000000000000000000000000000000000000000000000F500000000F5F5F5F5F5F500F5F5000000F5F5F5F50000F5F5F5F5F5F5F5F5F5F500F5F5F5000000F500000000000000F5F500F5F5F50000000000F5000000000000000000000000000000000000000000000000000000000000000000
310
00000000000000000000000000000000000000000000000000000000000000000000000000000000000000000000000000000000000000000000000000000000000000000000000000000000000000000000000000000000000000F5000000F5F5F5F5F5F5F5F5F5F5F5F5F5F5F5F5F5F5F5F5F5F5F5F5F5F5F5F5F500F5F5
310
F5F5F5F5F5F5F5F5F5F5F5F5F5F5F5F5F5F50000000000F500000000000000000000000000000000000000000000000000000000000000000000000000000000000000000000000000000000000000000000000000000000000000000000000000000000000000000000000000000000000000000000000000000000000000
310
000000000000000000000000000000000000000000F500000000F5F500F5F5F500F5F500000000F5F5F5F5F5F5F5F5F500F500F500F50000F500000000F5F5F5F5000000F5F5F5F50000F5F5F5F5F5F5F500000000000000000000000000000000000000000000000000000000000000000000000000000000000000000000
310
000000000000000000000000000000000000000000000000000000000000000000000000000000000000000000000000000000000000000000000000000000000000000000000000000000000000F500000000F5F500F500F5F5F5F5000000000000F5F5F500F5F5F5F5F500F500F50000F5F5F5F5F5F5F5F5F5F5F5F5F5F5
310
00F5F500F5F5F5F5F500F50000000000000000000000000000000000000000000000000000000000000000000000000000000000000000000000000000000000000000000000000000000000000000000000000000000000000000000000000000000000000000000000000000000000000000000000000000000000000000
310
0000000000000000F500000000F5F50000F5F5F5F500F5F5F5000000F5F50000F5F5F5F5F500F500F500000000000000000000F5F5F5F500F5F5F5F500F50000000000F50000000000000000000000000000000000000000000000000000000000000000000000000000000000000000000000000000000000000000000000
310
0000000000000000000000000000000000000000000000000000000000000000000000000000000000000000000000000000000000000000000000000000000000F500000000F5F500000000000000F5F5F5000000000000F5F5F50000F500F500F500000000000000000000F5F5000000F500F50000F50000000000F50000
310
0000000000000000000000000000000000000000000000000000000000000000000000000000000000000000000000000000000000000000000000000000000000000000000000000000000000000000000000000000000000000000000000000000000000000000000000000000000000000000000000000000F500000000
310
F5F5F5F5F5F5F5F5F5F5F5F5F5F5F5F5F5F5F5F5F5F5F5F5F5F500F500000000000000000000F500000000F5F5F5F5F5F50000000000F5000000000000000000000000000000000000000000000000000000000000000000000000000000000000000000000000000000000000000000000000000000000000000000000000
310
00000000000000000000000000000000000000000000000000000000000000000000000000000000000000000000000000000000F50000000000F5F5F5F5F5F5F5F5F5F5F5F5F5F5F5F5F5F5F5F5F5F5F5F5F5F5F500000000000000000000000000000000F5F5F500000000000000F5000000000000000000000000000000
310
00000000000000000000000000000000000000000000000000000000000000000000000000000000000000000000000000000000000000000000000000000000000000000000000000000000000000000000000000000000000000000000000000000000000000000000000000F500000000000000000000000000F5000000
310
00000000000000000000000000000000000000000000000000000000000000F5F5F500000000000000F500000000000000000000000000000000000000000000000000000000000000000000000000000000000000000000000000000000000000000000000000000000000000000000000000000000000000000000000000
310
000000000000000000000000000000000000000000000000000000000000000000000000000000F5000000000000000000000000F5000000000000000000000000000000000000000000000000000000000000000000000000000000000000000000F500000000000000000000000000000000000000000000000000000000
310
000000000000000000000000000000000000000000000000000000000000000000000000000000000000000000000000000000000000000000000000000000000000000000000000000000000000000000000000000000000000000000000000F500000000000000F5F5F5F5F5000000000000000000000000000000000000
310
00000000000000000000000000000000000000000000000000000000F50000000000000000000000000000000000000000000000000000000000000000000000000000000000000000000000000000000000000000000000000000000000000000000000000000000000000000000000000000000000000000000000000000
310
0000000000000000000000000000000000000000000000000000F500000000000000F5F5F5F5F500000000000000000000000000000000000000000000000000000000000000000000000000000000000000000000F50000000000000000000000000000000000000000000000000000000000000000000000000000000000
310
0000000000000000000000000000000000000000000000000000000000000000000000000000000000000000000000000000000000000000000000000000000000000000000000000000000000000000000000F500000000000000000000000000000000000000000000000000000000000000000000000000000000000000
310
000000000000000000000000000000F5000000000000000000000000000000000000000000000000000000000000000000000000000000000000000000000000000000000000000000000000000000000000000000000000000000000000000000000000000000000000000000000000000000000000000000000000000000
310
00000000000000000000000000F500000000000000000000000000000000000000000000000000000000000000000000000000000000000000000000000000000000000000000000F5000000000000000000000000000000000000000000000000000000000000000000000000000000000000000000000000000000000000
310
00000000000000000000000000000000000000000000000000000000000000000000000000000000000000000000000000000000000000000000000000000000000000000000F50000000000000000000000000000000000000000000000000000000000000000000000000000000000000000000000000000000000000000
310
0000F500000000000000000000000000000000000000000000000000000000000000000000000000000000000000000000000000000000000000000000000000000000000000000000000000000000000000000000000000000000000000000000000000000000000000000000000000000000000000000000000000000000
310
F500000000000000000000000000000000000000000000000000000000000000000000000000000000000000000000000000000000000000000000F500000000000000000000000000000000000000000000000000000000000000000000000000000000000000000000000000000000000000000000000000000000000000
310
000000000000000000000000000000000000000000000000000000000000000000000000000000000000000000000000000000000000000000F500000000000000000000000000000000000000000000000000000000000000000000000000000000000000000000000000000000000000000000F500000000000000000000
310
000000000000000000000000000000000000000000000000000000000000000000000000000000000000000000000000000000000000000000000000000000000000000000000000000000000000000000000000000000000000000000000000000000000000000000000000000000000000F5000000000000000000000000
310
00000000000000000000000000000000000000000000000000000000000000000000000000000000000000000000F50000000000000000000000000000000000000000000000000000000000000000000000000000000000000000000000000000000000000000000000000000000000000000000000000000000000000000
310
0000000000000000000000000000000000000000000000000000000000000000000000000000000000000000F500000000000000000000000000000000000000000000000000000000000000000000000000000000000000000000000000000000000000000000F50000000000000000000000000000000000000000000000
310
0000000000000000000000000000000000000000000000000000000000000000000000000000000000000000000000000000000000000000000000000000000000000000000000000000000000000000000000000000000000000000000000000000000000F500000000000000000000000000000000000000000000000000
310
000000000000000000000000000000000000000000000000000000000000000000F5000000000000000000000000000000000000000000000000000000000000000000000000000000000000000000000000000000000000000000000000000000000000000000000000000000000000000000000000000000000000000000
310
00000000000000000000000000000000000000000000000000000000000000F500000000000000000000000000000000000000000000000000000000000000000000000000000000000000000000000000000000000000000000F5000000000000000000000000000000000000000000000000000000000000000000000000
310
00000000000000000000000000000000000000000000000000000000000000000000000000000000000000000000000000000000000000000000000000000000000000000000000000000000000000000000000000000000F50000000000000000000000000000000000000000000000000000000000000000000000000000
310
0000000000000000000000000000000000000000F500000000000000000000000000000000000000000000000000000000000000000000000000000000000000000000000000000000000000000000000000000000000000000000000000000000000000000000000000000000000000000000000000000000000000000000
310
000000000000000000000000000000000000F500000000000000000000000000000000000000000000000000000000000000000000000000000000000000000000000000000000000000000000F500000000000000000000000000000000000000000000000000000000000000000000000000000000000000000000000000
310
000000000000000000000000000000000000000000000000000000000000000000000000000000000000000000000000000000000000000000000000000000000000000000000000000000F5000000000000000000000000000000000000000000000000000000000000000000000000000000000000000000000000000000
310
00000000000000F50000000000000000000000000000000000000000000000000000000000000000000000000000000000000000000000000000000000000000000000000000000000000000000000000000000000000000000000000000000000000000000000000000000000000000000000000000000000000000000000
310
0000000000F500000000000000000000000000000000000000000000000000000000000000000000000000000000000000000000000000000000000000000000F50000000000000000000000000000000000000000000000000000000000000000000000000000000000000000000000000000000000000000000000000000
310
0000000000000000000000000000000000000000000000000000000000000000000000000000000000000000000000000000000000000000000000000000F500000000000000000000000000000000000000000000000000000000000000000000000000000000000000000000000000000000000000000000F50000000000
310
0000000000000000000000000000000000000000000000000000000000000000000000000000000000000000000000000000000000000000000000000000000000000000000000000000000000000000000000000000000000000000000000000000000000000000000000000000000000000000000000F500000000000000
310
000000000000000000000000000000000000000000000000000000000000000000000000000000000000000000000000000000F5000000000000000000000000000000000000000000000000000000000000000000000000000000000000000000000000000000000000000000000000000000000000000000000000000000
310
00000000000000000000000000000000000000000000000000000000000000000000000000000000000000000000000000F500000000000000000000000000000000000000000000000000000000000000000000000000000000000000000000000000000000000000000000F5000000000000000000000000000000000000
310
00000000000000000000000000000000000000000000000000000000000000000000000000000000000000000000000000000000000000000000000000000000000000000000000000000000000000000000000000000000000000000000000000000000000000000000F5F5F5F5F5F5F5F5F5F5F5F5F5F5F5F5F5F5F5F5F5
310
F5F5F5F5F5F5F5F5F5F5F5F5F5F5F5F5F5F5F5F5F5F5F5F5F5F5F5F5F5F5F5F5F5F5F5F5F5F5F500000000000000000000000000000000000000000000000000000000000000000000000000000000000000000000000000000000000000000000000000000000000000000000000000000000000000000000000000000000
310
0000000000000000000000000000000000000000000000000000000000000000000000000000000000000000000000000000000000000000000000000000000000F500000000000000000000000000000000000000000000000000000000000000000000000000000000000000000000000000000000000000000000000000
310
0000000000000000000000000000000000000000000000000000000000000000000000000000000000000000000000000000000000000000000000000000000000000000000000000000000000000000000000000000000000000000000000000000000000000000000000000000000000000000000000000000F500000000
310
00000000000000000000000000000000000000000000000000000000000000000000000000000000000000000000000000000000000000000000000000000000000000000000000000000000000000000000000000000000000000000000000000000000000000000000000000000000000000000000000000000000000000
310
00000000000000000000000000000000000000000000000000000000000000000000000000000000000000000000000000000000F50000000000000000000000000000000000000000000000000000000000000000000000000000000000000000000000000000000000000000000000000000000000000000000000000000
310
00000000000000000000000000000000000000000000000000000000000000000000000000000000000000000000000000000000000000000000000000000000000000000000000000000000000000000000000000000000000000000000000000000000000000000000000000F50000000000000000000000000000000000
310
00000000000000000000000000000000000000000000000000000000000000000000000000000000000000000000000000000000000000000000000000000000000000000000000000000000000000000000000000000000000000000000000000000000000000000000000000000000000000000000000000000000000000
310
000000000000000000000000000000000000000000000000000000000000000000000000000000F5000000000000000000000000000000000000000000000000000000000000000000000000000000000000000000000000000000000000000000000000000000000000000000000000000000000000000000000000000000
310
000000000000000000000000000000000000000000000000000000000000000000000000000000000000000000000000000000000000000000000000000000000000000000000000000000000000000000000000000000000000000000000000F5000000000000000000000000000000000000000000000000000000000000
310
00000000000000000000000000000000000000000000000000000000000000000000000000000000000000000000000000000000000000000000000000000000
  0
ENDSEC
  0
EOF
