  0
SECTION
  2
HEADER
  9
$ACADVER
  1
AC1009
  9
$INSBASE
 10
0.0
 20
0.0
 30
0.0
  9
$EXTMIN
 10
0.238402
 20
0.447865
 30
0.0
  9
$EXTMAX
 10
210.24000000000001
 20
297.44999999999999
 30
0.0
  9
$LIMMIN
 10
0.0
 20
0.0
  9
$LIMMAX
 10
12.0
 20
9.0
  9
$ORTHOMODE
 70
     0
  9
$REGENMODE
 70
     1
  9
$FILLMODE
 70
     1
  9
$QTEXTMODE
 70
     0
  9
$MIRRTEXT
 70
     1
  9
$DRAGMODE
 70
     2
  9
$LTSCALE
 40
1.0
  9
$OSMODE
 70
    37
  9
$ATTMODE
 70
     1
  9
$TEXTSIZE
 40
0.0
  9
$TRACEWID
 40
0.05
  9
$TEXTSTYLE
  7
STANDARD
  9
$CLAYER
  8
0
  9
$CELTYPE
  6
CONTINUOUS
  9
$CECOLOR
 62
   256
  9
$DIMSCALE
 40
1.0
  9
$DIMASZ
 40
0.18
  9
$DIMEXO
 40
0.0625
  9
$DIMDLI
 40
0.38
  9
$DIMRND
 40
0.0
  9
$DIMDLE
 40
0.0
  9
$DIMEXE
 40
0.18
  9
$DIMTP
 40
0.0
  9
$DIMTM
 40
0.0
  9
$DIMTXT
 40
0.18
  9
$DIMCEN
 40
0.09
  9
$DIMTSZ
 40
0.0
  9
$DIMTOL
 70
     0
  9
$DIMLIM
 70
     0
  9
$DIMTIH
 70
     1
  9
$DIMTOH
 70
     1
  9
$DIMSE1
 70
     0
  9
$DIMSE2
 70
     0
  9
$DIMTAD
 70
     0
  9
$DIMZIN
 70
     0
  9
$DIMBLK
  1

  9
$DIMASO
 70
     1
  9
$DIMSHO
 70
     1
  9
$DIMPOST
  1

  9
$DIMAPOST
  1

  9
$DIMALT
 70
     0
  9
$DIMALTD
 70
     2
  9
$DIMALTF
 40
25.399999999999999
  9
$DIMLFAC
 40
1.0
  9
$DIMTOFL
 70
     0
  9
$DIMTVP
 40
0.0
  9
$DIMTIX
 70
     0
  9
$DIMSOXD
 70
     0
  9
$DIMSAH
 70
     0
  9
$DIMBLK1
  1

  9
$DIMBLK2
  1

  9
$DIMSTYLE
  2
STANDARD
  9
$DIMCLRD
 70
     0
  9
$DIMCLRE
 70
     0
  9
$DIMCLRT
 70
     0
  9
$DIMTFAC
 40
1.0
  9
$DIMGAP
 40
0.09
  9
$LUNITS
 70
     2
  9
$LUPREC
 70
     4
  9
$SKETCHINC
 40
0.1
  9
$FILLETRAD
 40
0.0
  9
$AUNITS
 70
     0
  9
$AUPREC
 70
     0
  9
$MENU
  1
.
  9
$ELEVATION
 40
0.0
  9
$PELEVATION
 40
0.0
  9
$THICKNESS
 40
0.0
  9
$LIMCHECK
 70
     0
  9
$BLIPMODE
 70
     0
  9
$CHAMFERA
 40
0.0
  9
$CHAMFERB
 40
0.0
  9
$SKPOLY
 70
     0
  9
$TDCREATE
 40
2444972.375
  9
$TDUPDATE
 40
2457829.2474283339
  9
$TDINDWG
 40
0.0000309954
  9
$TDUSRTIMER
 40
0.0000309954
  9
$USRTIMER
 70
     1
  9
$ANGBASE
 50
0.0
  9
$ANGDIR
 70
     0
  9
$PDMODE
 70
     0
  9
$PDSIZE
 40
0.0
  9
$PLINEWID
 40
0.0
  9
$COORDS
 70
     1
  9
$SPLFRAME
 70
     0
  9
$SPLINETYPE
 70
     6
  9
$SPLINESEGS
 70
     8
  9
$ATTDIA
 70
     1
  9
$ATTREQ
 70
     1
  9
$HANDLING
 70
     1
  9
$HANDSEED
  5
328
  9
$SURFTAB1
 70
     6
  9
$SURFTAB2
 70
     6
  9
$SURFTYPE
 70
     6
  9
$SURFU
 70
     6
  9
$SURFV
 70
     6
  9
$UCSNAME
  2

  9
$UCSORG
 10
0.0
 20
0.0
 30
0.0
  9
$UCSXDIR
 10
1.0
 20
0.0
 30
0.0
  9
$UCSYDIR
 10
0.0
 20
1.0
 30
0.0
  9
$PUCSNAME
  2

  9
$PUCSORG
 10
0.0
 20
0.0
 30
0.0
  9
$PUCSXDIR
 10
1.0
 20
0.0
 30
0.0
  9
$PUCSYDIR
 10
0.0
 20
1.0
 30
0.0
  9
$USERI1
 70
     0
  9
$USERI2
 70
     0
  9
$USERI3
 70
     0
  9
$USERI4
 70
     0
  9
$USERI5
 70
     0
  9
$USERR1
 40
0.0
  9
$USERR2
 40
0.0
  9
$USERR3
 40
0.0
  9
$USERR4
 40
0.0
  9
$USERR5
 40
0.0
  9
$WORLDVIEW
 70
     1
  9
$SHADEDGE
 70
     3
  9
$SHADEDIF
 70
    70
  9
$TILEMODE
 70
     1
  9
$MAXACTVP
 70
    48
  9
$PLIMCHECK
 70
     0
  9
$PEXTMIN
 10
1.0000000000000000E+020
 20
1.0000000000000000E+020
 30
1.0000000000000000E+020
  9
$PEXTMAX
 10
-1.0000000000000000E+020
 20
-1.0000000000000000E+020
 30
-1.0000000000000000E+020
  9
$PLIMMIN
 10
0.0
 20
0.0
  9
$PLIMMAX
 10
12.0
 20
9.0
  9
$UNITMODE
 70
     0
  9
$VISRETAIN
 70
     1
  9
$PLINEGEN
 70
     0
  9
$PSLTSCALE
 70
     1
  0
ENDSEC
  0
SECTION
  2
TABLES
  0
TABLE
  2
VPORT
 70
     1
  0
VPORT
  2
*ACTIVE
 70
     0
 10
0.0
 20
0.0
 11
1.0
 21
1.0
 12
177.98836336455309
 22
148.72499999999999
 13
0.0
 23
0.0
 14
1.0
 24
1.0
 15
0.0
 25
0.0
 16
0.0
 26
0.0
 36
1.0
 17
0.0
 27
0.0
 37
0.0
 40
290.0781911758238
 41
2.1063583815028899
 42
50.0
 43
0.0
 44
0.0
 50
0.0
 51
0.0
 71
     0
 72
   100
 73
     1
 74
     1
 75
     0
 76
     0
 77
     0
 78
     0
  0
ENDTAB
  0
TABLE
  2
LTYPE
 70
     4
  0
LTYPE
  2
CONTINUOUS
 70
     0
  3
Solid line
 72
    65
 73
     0
 40
0.0
  0
LTYPE
  2
AIGENLINE001
 70
     0
  3
generate AI->DXF Converter
 72
    65
 73
     4
 40
5.8561449999999988
 49
3.5278
 49
-0.776115
 49
0.776115
 49
-0.776115
  0
LTYPE
  2
AIGENLINE002
 70
     0
  3
generate AI->DXF Converter
 72
    65
 73
     2
 40
1.5522299999999991
 49
0.776115
 49
-0.776115
  0
LTYPE
  2
AIGENLINE003
 70
     0
  3
generate AI->DXF Converter
 72
    65
 73
     2
 40
1.5522299999999991
 49
0.776115
 49
-0.776115
  0
ENDTAB
  0
TABLE
  2
LAYER
 70
     2
  0
LAYER
  2
0
 70
     0
 62
     7
  6
CONTINUOUS
  0
LAYER
  2
_________2
 70
     0
 62
     7
  6
CONTINUOUS
  0
ENDTAB
  0
TABLE
  2
STYLE
 70
     1
  0
STYLE
  2
STANDARD
 70
     0
 40
0.0
 41
0.0
 50
0.0
 71
     0
 42
0.0
  3
TXT
  4
EXTFONT.SHX
  0
ENDTAB
  0
TABLE
  2
VIEW
 70
     0
  0
ENDTAB
  0
TABLE
  2
UCS
 70
     0
  0
ENDTAB
  0
TABLE
  2
APPID
 70
     3
  0
APPID
  2
ACAD
 70
     0
  0
APPID
  2
ACAD_NAV_VCDISPLAY
 70
     0
  0
APPID
  2
ACAD_MLEADERVER
 70
     0
  0
ENDTAB
  0
TABLE
  2
DIMSTYLE
 70
     1
  0
DIMSTYLE
  2
STANDARD
 70
     0
  3

  4

  5

  6

  7

 40
1.0
 41
0.18
 42
0.0625
 43
0.38
 44
0.18
 45
0.0
 46
0.0
 47
0.0
 48
0.0
140
0.18
141
0.09
142
0.0
143
25.399999999999999
144
1.0
145
0.0
146
1.0
147
0.09
 71
     0
 72
     0
 73
     1
 74
     1
 75
     0
 76
     0
 77
     0
 78
     0
170
     0
171
     2
172
     0
173
     0
174
     0
175
     0
176
     0
177
     0
178
     0
  0
ENDTAB
  0
ENDSEC
  0
SECTION
  2
BLOCKS
  0
BLOCK
  8
0
  2
$MODEL_SPACE
 70
     0
 10
0.0
 20
0.0
 30
0.0
  3
$MODEL_SPACE
  1

  0
ENDBLK
  5
1A
  8
0
  0
BLOCK
 67
     1
  8
0
  2
$PAPER_SPACE
 70
     0
 10
0.0
 20
0.0
 30
0.0
  3
$PAPER_SPACE
  1

  0
ENDBLK
  5
17
 67
     1
  8
0
  0
ENDSEC
  0
SECTION
  2
ENTITIES
  0
TEXT
  5
24
  8
0
 62
     7
 10
32.244087999999998
 20
223.45099999999999
 30
0.0
 40
3.0923400000000001
  1
メーカーロゴ
 41
0.5
 72
     2
 11
42.964199999999998
 21
223.45099999999999
 31
0.0
  0
TEXT
  5
25
  8
0
 62
     7
 10
102.352
 20
102.952
 30
0.0
 40
3.0923400000000001
  1
max.30
 50
90.0
 41
0.5
  0
TEXT
  5
26
  8
0
 62
     7
 10
164.1175138883541
 20
209.1965138883541
 30
0.0
 40
3.0923400000000001
  1
R75
 50
45.0
 41
0.5
 72
     2
 11
167.03299999999999
 21
212.11199999999999
 31
0.0
  0
TEXT
  5
27
  8
0
 62
     7
 10
142.53100000000001
 20
213.52000000000001
 30
0.0
 40
3.0923400000000001
  1
排水口
 41
0.5
  0
TEXT
  5
28
  8
0
 62
     7
 10
175.5148099999999
 20
206.47200000000001
 30
0.0
 40
3.0923400000000001
  1
%%c12\U+00D72ヶ所
 41
0.5
 72
     2
 11
186.33799999999999
 21
206.47200000000001
 31
0.0
  0
TEXT
  5
29
  8
0
 62
     7
 10
120.77
 20
200.63798249999999
 30
0.0
 40
3.0923400000000001
  1
150
 50
90.0
 41
0.5
 72
     1
 11
120.77
 21
202.31299999999999
 31
0.0
  0
TEXT
  5
2A
  8
0
 62
     7
 10
143.982497
 20
180.447
 30
0.0
 40
3.0923400000000001
  1
（463）
 41
0.5
 72
     1
 11
147.95099999999999
 21
180.447
 31
0.0
  0
TEXT
  5
2B
  8
0
 62
     7
 10
139.92099999999999
 20
203.77799999999999
 30
0.0
 40
3.0923400000000001
  1
R35
 41
0.5
  0
TEXT
  5
2C
  8
0
 62
     7
 10
161.11619200000001
 20
219.33500000000001
 30
0.0
 40
3.0923400000000001
  1
（127）
 41
0.5
 72
     1
 11
164.827
 21
219.33500000000001
 31
0.0
  0
TEXT
  5
2D
  8
0
 62
     7
 10
149.14713499999999
 20
188.09899999999999
 30
0.0
 40
3.0923400000000001
  1
300
 41
0.5
 72
     1
 11
150.95099999999999
 21
188.09899999999999
 31
0.0
  0
TEXT
  5
2E
  8
0
 62
     7
 10
61.936500000000002
 20
212.322
 30
0.0
 40
3.0923400000000001
  1
%%c173
 41
0.5
 72
     2
 11
67.090400000000002
 21
212.322
 31
0.0
  0
TEXT
  5
2F
  8
0
 62
     7
 10
79.451279999999997
 20
207.89099999999999
 30
0.0
 40
3.0923400000000001
  1
%%c46
 41
0.5
 72
     2
 11
83.574399999999997
 21
207.89099999999999
 31
0.0
  0
TEXT
  5
30
  8
0
 62
     7
 10
172.63099999999989
 20
108.879
 30
0.0
 40
3.0923400000000001
  1
20
 50
90.0
 41
0.5
  0
TEXT
  5
31
  8
0
 62
     7
 10
71.057599999999994
 20
121.9009825
 30
0.0
 40
3.0923400000000001
  1
105
 50
90.0
 41
0.5
 72
     1
 11
71.057599999999994
 21
123.57599999999999
 31
0.0
  0
TEXT
  5
32
  8
0
 62
     7
 10
172.63099999999989
 20
120.771135
 30
0.0
 40
3.0923400000000001
  1
125
 50
90.0
 41
0.5
 72
     1
 11
172.63099999999989
 21
122.575
 31
0.0
  0
TEXT
  5
33
  8
0
 62
     7
 10
111.021
 20
200.38028750000001
 30
0.0
 40
3.0923400000000001
  1
360
 50
90.0
 41
0.5
 72
     1
 11
111.021
 21
202.31299999999999
 31
0.0
  0
TEXT
  5
34
  8
0
 62
     7
 10
105.273
 20
200.25144
 30
0.0
 40
3.0923400000000001
  1
346
 50
90.0
 41
0.5
 72
     1
 11
105.273
 21
202.31299999999999
 31
0.0
  0
TEXT
  5
35
  8
0
 62
     7
 10
99.232600000000005
 20
209.63798249999999
 30
0.0
 40
3.0923400000000001
  1
180
 50
90.0
 41
0.5
 72
     1
 11
99.232600000000005
 21
211.31299999999999
 31
0.0
  0
TEXT
  5
36
  8
0
 62
     7
 10
61.50708749999999
 20
162.82400000000001
 30
0.0
 40
3.0923400000000001
  1
550
 41
0.5
 72
     1
 11
63.439799999999998
 21
162.82400000000001
 31
0.0
  0
TEXT
  5
37
  8
0
 62
     7
 10
61.378740000000001
 20
169.72200000000001
 30
0.0
 40
3.0923400000000001
  1
536
 41
0.5
 72
     1
 11
63.440300000000001
 21
169.72200000000001
 31
0.0
  0
TEXT
  5
38
  8
0
 62
     7
 10
94.538700000000006
 20
198.0
 30
0.0
 40
3.0923400000000001
  1
※40%%d
 41
0.5
  0
TEXT
  5
39
  8
0
 62
     7
 10
80.065582500000005
 20
176.25200000000001
 30
0.0
 40
3.0923400000000001
  1
170
 41
0.5
 72
     1
 11
81.740600000000001
 21
176.25200000000001
 31
0.0
  0
TEXT
  5
3A
  8
0
 62
     7
 10
59.929040000000001
 20
176.25200000000001
 30
0.0
 40
3.0923400000000001
  1
225
 41
0.5
 72
     1
 11
61.990600000000001
 21
176.25200000000001
 31
0.0
  0
TEXT
  5
3B
  8
0
 62
     7
 10
123.962
 20
161.905
 30
0.0
 40
3.0923400000000001
  1
※（　）内寸法は参考寸法です。
 41
0.5
  0
TEXT
  5
3C
  8
0
 62
     7
 10
123.962
 20
158.03999999999999
 30
0.0
 40
3.0923400000000001
  1
　陶器に寸法公差がありますので、
 41
0.5
  0
TEXT
  5
3D
  8
0
 62
     7
 10
123.962
 20
154.17500000000001
 30
0.0
 40
3.0923400000000001
  1
　取付時に現品に合わせて調整ください。
 41
0.5
  0
TEXT
  5
3E
  8
0
 62
     7
 10
142.91175999999999
 20
169.46799999999999
 30
0.0
 40
3.0923400000000001
  1
カウンター切込寸法
 41
0.5
 72
     1
 11
151.15799999999999
 21
169.46799999999999
 31
0.0
  0
LINE
  5
3F
  8
0
 62
     7
 10
34.439599999999999
 20
205.10300000000001
 30
0.0
 11
35.939999999999998
 21
203.375
 31
0.0
  0
LINE
  5
40
  8
0
 62
     7
 10
35.939999999999998
 20
203.375
 30
0.0
 11
35.504899999999999
 21
205.62200000000001
 31
0.0
  0
LINE
  5
41
  8
0
 62
     7
 10
35.504899999999999
 20
205.62200000000001
 30
0.0
 11
34.439599999999999
 21
205.10300000000001
 31
0.0
  0
LINE
  5
42
  8
0
 62
     7
 10
35.933300000000003
 20
203.37200000000001
 30
0.0
 11
26.267499999999998
 21
222.751
 31
0.0
  0
LINE
  5
43
  8
0
 62
     7
 10
42.964199999999998
 20
222.751
 30
0.0
 11
26.267499999999998
 21
222.751
 31
0.0
  0
LINE
  5
44
  8
0
 62
     7
 10
144.928
 20
113.325
 30
0.0
 11
144.97800000000001
 21
111.52500000000001
 31
0.0
  0
LINE
  5
45
  8
0
 62
     7
 10
144.97800000000001
 20
111.52500000000001
 30
0.0
 11
146.52799999999999
 21
111.52500000000001
 31
0.0
  0
LINE
  5
46
  8
0
 62
     7
 10
144.93899999999999
 20
112.925
 30
0.0
 11
146.52799999999999
 21
112.925
 31
0.0
  0
LINE
  5
47
  8
0
 62
     7
 10
144.928
 20
113.325
 30
0.0
 11
146.52799999999999
 21
113.325
 31
0.0
  0
LINE
  5
48
  8
0
 62
     7
 10
146.52799999999999
 20
109.72499999999999
 30
0.0
 11
146.12799999999999
 21
109.72499999999999
 31
0.0
  0
LINE
  5
49
  8
0
 62
     7
 10
146.12799999999999
 20
111.52500000000001
 30
0.0
 11
146.12799999999999
 21
109.72499999999999
 31
0.0
  0
LINE
  5
4A
  8
0
 62
     7
 10
146.12799999999999
 20
116.325
 30
0.0
 11
146.12799999999999
 21
113.325
 31
0.0
  0
LINE
  5
4B
  8
0
 62
     7
 10
148.12799999999999
 20
113.325
 30
0.0
 11
148.078
 21
111.52500000000001
 31
0.0
  0
LINE
  5
4C
  8
0
 62
     7
 10
148.078
 20
111.52500000000001
 30
0.0
 11
146.52799999999999
 21
111.52500000000001
 31
0.0
  0
LINE
  5
4D
  8
0
 62
     7
 10
148.11699999999999
 20
112.925
 30
0.0
 11
146.52799999999999
 21
112.925
 31
0.0
  0
LINE
  5
4E
  8
0
 62
     7
 10
148.12799999999999
 20
113.325
 30
0.0
 11
146.52799999999999
 21
113.325
 31
0.0
  0
LINE
  5
4F
  8
0
 62
     7
 10
146.52799999999999
 20
109.72499999999999
 30
0.0
 11
146.928
 21
109.72499999999999
 31
0.0
  0
LINE
  5
50
  8
0
 62
     7
 10
146.928
 20
111.52500000000001
 30
0.0
 11
146.928
 21
109.72499999999999
 31
0.0
  0
LINE
  5
51
  8
0
 62
     7
 10
146.928
 20
116.325
 30
0.0
 11
146.928
 21
113.325
 31
0.0
  0
ARC
  5
52
  8
0
 62
     7
 10
40.339806000000003
 20
112.873273
 30
0.0
 40
0.051501
 50
91.990864000000016
 51
176.3952469999999
  0
ARC
  5
53
  8
0
  6
AIGENLINE001
 62
     7
 10
40.088042999999999
 20
112.872989
 30
0.0
 40
0.051776
 50
91.681899999999999
 51
173.80246299999999
  0
LINE
  5
54
  8
0
 62
     7
 10
41.189999999999991
 20
112.925
 30
0.0
 11
40.338000000000001
 21
112.925
 31
0.0
  0
LINE
  5
55
  8
0
 62
     7
 10
40.338000000000001
 20
112.925
 30
0.0
 11
40.086500000000001
 21
112.925
 31
0.0
  0
LINE
  5
56
  8
0
 62
     7
 10
40.239800000000002
 20
111.52500000000001
 30
0.0
 11
40.288400000000003
 21
112.877
 31
0.0
  0
LINE
  5
57
  8
0
 62
     7
 10
39.939799999999998
 20
111.52500000000001
 30
0.0
 11
40.036599999999993
 21
112.879
 31
0.0
  0
LINE
  5
58
  8
0
 62
     7
 10
41.239899999999999
 20
113.325
 30
0.0
 11
41.189999999999991
 21
112.925
 31
0.0
  0
LINE
  5
59
  8
0
 62
     7
 10
40.239800000000002
 20
111.52500000000001
 30
0.0
 11
39.939799999999998
 21
111.52500000000001
 31
0.0
  0
LINE
  5
5A
  8
0
 62
     7
 10
39.939799999999998
 20
111.52500000000001
 30
0.0
 11
39.640000000000001
 21
111.52500000000001
 31
0.0
  0
LINE
  5
5B
  8
0
 62
     7
 10
41.239899999999999
 20
113.325
 30
0.0
 11
39.640000000000001
 21
113.325
 31
0.0
  0
LINE
  5
5C
  8
0
 62
     7
 10
40.039700000000003
 20
116.325
 30
0.0
 11
40.039700000000003
 21
113.325
 31
0.0
  0
LINE
  5
5D
  8
0
 62
     7
 10
40.039700000000003
 20
109.72499999999999
 30
0.0
 11
39.640000000000001
 21
109.72499999999999
 31
0.0
  0
LINE
  5
5E
  8
0
 62
     7
 10
40.039700000000003
 20
111.52500000000001
 30
0.0
 11
40.039700000000003
 21
109.72499999999999
 31
0.0
  0
ARC
  5
5F
  8
0
 62
     7
 10
38.940061
 20
112.87304899999999
 30
0.0
 40
0.05172
 50
3.837680999999999
 51
88.172481000000005
  0
ARC
  5
60
  8
0
  6
AIGENLINE001
 62
     7
 10
39.192065999999997
 20
112.873411
 30
0.0
 40
0.051353
 50
5.774487999999999
 51
88.345724000000004
  0
LINE
  5
61
  8
0
 62
     7
 10
38.089700000000001
 20
112.925
 30
0.0
 11
38.941699999999997
 21
112.925
 31
0.0
  0
LINE
  5
62
  8
0
 62
     7
 10
38.941699999999997
 20
112.925
 30
0.0
 11
39.1935
 21
112.925
 31
0.0
  0
LINE
  5
63
  8
0
 62
     7
 10
39.039900000000003
 20
111.52500000000001
 30
0.0
 11
38.991700000000002
 21
112.877
 31
0.0
  0
LINE
  5
64
  8
0
 62
     7
 10
39.340000000000011
 20
111.52500000000001
 30
0.0
 11
39.243200000000002
 21
112.879
 31
0.0
  0
LINE
  5
65
  8
0
 62
     7
 10
38.040100000000002
 20
113.325
 30
0.0
 11
38.089700000000001
 21
112.925
 31
0.0
  0
LINE
  5
66
  8
0
 62
     7
 10
39.039900000000003
 20
111.52500000000001
 30
0.0
 11
39.340000000000011
 21
111.52500000000001
 31
0.0
  0
LINE
  5
67
  8
0
 62
     7
 10
39.340000000000011
 20
111.52500000000001
 30
0.0
 11
39.640000000000001
 21
111.52500000000001
 31
0.0
  0
LINE
  5
68
  8
0
 62
     7
 10
38.040100000000002
 20
113.325
 30
0.0
 11
39.640000000000001
 21
113.325
 31
0.0
  0
LINE
  5
69
  8
0
 62
     7
 10
39.239699999999999
 20
116.325
 30
0.0
 11
39.239699999999999
 21
113.325
 31
0.0
  0
LINE
  5
6A
  8
0
 62
     7
 10
39.239699999999999
 20
109.72499999999999
 30
0.0
 11
39.640000000000001
 21
109.72499999999999
 31
0.0
  0
LINE
  5
6B
  8
0
 62
     7
 10
39.239699999999999
 20
111.52500000000001
 30
0.0
 11
39.239699999999999
 21
109.72499999999999
 31
0.0
  0
LINE
  5
6C
  8
0
  6
AIGENLINE001
 62
     7
 10
39.640000000000001
 20
117.63500000000001
 30
0.0
 11
39.640000000000001
 21
108.675
 31
0.0
  0
ARC
  5
6D
  8
0
 62
     7
 10
86.640110000000007
 20
112.873278
 30
0.0
 40
0.051495
 50
91.985318000000007
 51
176.40079399999999
  0
ARC
  5
6E
  8
0
  6
AIGENLINE001
 62
     7
 10
86.388351999999998
 20
112.872989
 30
0.0
 40
0.051776
 50
91.681899999999999
 51
173.80246299999999
  0
LINE
  5
6F
  8
0
 62
     7
 10
87.490300000000005
 20
112.925
 30
0.0
 11
86.638300000000001
 21
112.925
 31
0.0
  0
LINE
  5
70
  8
0
 62
     7
 10
86.638300000000001
 20
112.925
 30
0.0
 11
86.386799999999994
 21
112.925
 31
0.0
  0
LINE
  5
71
  8
0
 62
     7
 10
86.540099999999995
 20
111.52500000000001
 30
0.0
 11
86.588700000000003
 21
112.877
 31
0.0
  0
LINE
  5
72
  8
0
 62
     7
 10
86.240099999999998
 20
111.52500000000001
 30
0.0
 11
86.336899999999986
 21
112.879
 31
0.0
  0
LINE
  5
73
  8
0
 62
     7
 10
87.540300000000002
 20
113.325
 30
0.0
 11
87.490300000000005
 21
112.925
 31
0.0
  0
LINE
  5
74
  8
0
 62
     7
 10
86.540099999999995
 20
111.52500000000001
 30
0.0
 11
86.240099999999998
 21
111.52500000000001
 31
0.0
  0
LINE
  5
75
  8
0
 62
     7
 10
86.240099999999998
 20
111.52500000000001
 30
0.0
 11
85.940299999999993
 21
111.52500000000001
 31
0.0
  0
LINE
  5
76
  8
0
 62
     7
 10
87.540300000000002
 20
113.325
 30
0.0
 11
85.940299999999993
 21
113.325
 31
0.0
  0
LINE
  5
77
  8
0
 62
     7
 10
86.340000000000003
 20
116.325
 30
0.0
 11
86.340000000000003
 21
113.325
 31
0.0
  0
LINE
  5
78
  8
0
 62
     7
 10
86.340000000000003
 20
109.72499999999999
 30
0.0
 11
85.940299999999993
 21
109.72499999999999
 31
0.0
  0
LINE
  5
79
  8
0
 62
     7
 10
86.340000000000003
 20
111.52500000000001
 30
0.0
 11
86.340000000000003
 21
109.72499999999999
 31
0.0
  0
ARC
  5
7A
  8
0
 62
     7
 10
85.240369999999984
 20
112.87304899999999
 30
0.0
 40
0.05172
 50
3.837680999999999
 51
88.172481000000005
  0
ARC
  5
7B
  8
0
  6
AIGENLINE001
 62
     7
 10
85.492374999999996
 20
112.873411
 30
0.0
 40
0.051353
 50
5.774487999999999
 51
88.345724000000004
  0
LINE
  5
7C
  8
0
 62
     7
 10
84.390000000000001
 20
112.925
 30
0.0
 11
85.242000000000004
 21
112.925
 31
0.0
  0
LINE
  5
7D
  8
0
 62
     7
 10
85.242000000000004
 20
112.925
 30
0.0
 11
85.493899999999996
 21
112.925
 31
0.0
  0
LINE
  5
7E
  8
0
 62
     7
 10
85.340199999999996
 20
111.52500000000001
 30
0.0
 11
85.292000000000016
 21
112.877
 31
0.0
  0
LINE
  5
7F
  8
0
 62
     7
 10
85.640299999999996
 20
111.52500000000001
 30
0.0
 11
85.543499999999995
 21
112.879
 31
0.0
  0
LINE
  5
80
  8
0
 62
     7
 10
84.340400000000017
 20
113.325
 30
0.0
 11
84.390000000000001
 21
112.925
 31
0.0
  0
LINE
  5
81
  8
0
 62
     7
 10
85.340199999999996
 20
111.52500000000001
 30
0.0
 11
85.640299999999996
 21
111.52500000000001
 31
0.0
  0
LINE
  5
82
  8
0
 62
     7
 10
85.640299999999996
 20
111.52500000000001
 30
0.0
 11
85.940299999999993
 21
111.52500000000001
 31
0.0
  0
LINE
  5
83
  8
0
 62
     7
 10
84.340400000000017
 20
113.325
 30
0.0
 11
85.940299999999993
 21
113.325
 31
0.0
  0
LINE
  5
84
  8
0
 62
     7
 10
85.540000000000006
 20
116.325
 30
0.0
 11
85.540000000000006
 21
113.325
 31
0.0
  0
LINE
  5
85
  8
0
 62
     7
 10
85.540000000000006
 20
109.72499999999999
 30
0.0
 11
85.940299999999993
 21
109.72499999999999
 31
0.0
  0
LINE
  5
86
  8
0
 62
     7
 10
85.540000000000006
 20
111.52500000000001
 30
0.0
 11
85.540000000000006
 21
109.72499999999999
 31
0.0
  0
LINE
  5
87
  8
0
  6
AIGENLINE001
 62
     7
 10
85.940299999999993
 20
117.63500000000001
 30
0.0
 11
85.940299999999993
 21
108.675
 31
0.0
  0
LINE
  5
88
  8
0
  6
AIGENLINE002
 62
     7
 10
96.882200000000012
 20
116.325
 30
0.0
 11
30.4621
 21
116.325
 31
0.0
  0
LINE
  5
89
  8
0
  6
AIGENLINE002
 62
     7
 10
96.882200000000012
 20
113.325
 30
0.0
 11
30.4621
 21
113.325
 31
0.0
  0
LINE
  5
8A
  8
0
 62
     7
 10
102.467
 20
118.536
 30
0.0
 11
103.059
 21
116.325
 31
0.0
  0
LINE
  5
8B
  8
0
 62
     7
 10
103.059
 20
116.325
 30
0.0
 11
103.651
 21
118.536
 31
0.0
  0
LINE
  5
8C
  8
0
 62
     7
 10
103.651
 20
118.536
 30
0.0
 11
102.467
 21
118.536
 31
0.0
  0
LINE
  5
8D
  8
0
 62
     7
 10
103.637
 20
111.11499999999999
 30
0.0
 11
103.044
 21
113.325
 31
0.0
  0
LINE
  5
8E
  8
0
 62
     7
 10
103.044
 20
113.325
 30
0.0
 11
102.452
 21
111.11499999999999
 31
0.0
  0
LINE
  5
8F
  8
0
 62
     7
 10
102.452
 20
111.11499999999999
 30
0.0
 11
103.637
 21
111.11499999999999
 31
0.0
  0
LINE
  5
90
  8
0
 62
     7
 10
103.05200000000001
 20
102.952
 30
0.0
 11
103.05200000000001
 21
120.589
 31
0.0
  0
LINE
  5
91
  8
0
 62
     7
 10
103.759
 20
113.325
 30
0.0
 11
97.582300000000004
 21
113.325
 31
0.0
  0
LINE
  5
92
  8
0
 62
     7
 10
103.759
 20
116.325
 30
0.0
 11
97.582300000000004
 21
116.325
 31
0.0
  0
ARC
  5
93
  8
0
 62
     7
 10
73.301106000000004
 20
202.33984100000001
 30
0.0
 40
21.166609999999999
 50
359.92677400000002
 51
19.993993
  0
ARC
  5
94
  8
0
 62
     7
 10
73.086726999999996
 20
202.32293899999999
 30
0.0
 40
21.380974999999999
 50
340.11577199999999
 51
359.97280000000001
  0
LINE
  5
95
  8
0
 62
     7
 10
173.33099999999999
 20
114.32599999999999
 30
0.0
 11
173.33099999999999
 21
108.879
 31
0.0
  0
LINE
  5
96
  8
0
 62
     7
 10
173.33099999999999
 20
114.32599999999999
 30
0.0
 11
173.33099999999999
 21
116.325
 31
0.0
  0
ARC
  5
97
  8
0
  6
AIGENLINE003
 62
     7
 10
58.270494999999997
 20
125.00639099999999
 30
0.0
 40
0.519573
 50
2.093650999999999
 51
87.866866000000016
  0
ARC
  5
98
  8
0
  6
AIGENLINE003
 62
     7
 10
41.696919999999999
 20
125.007186
 30
0.0
 40
0.518686
 50
91.843402000000012
 51
172.71973399999999
  0
ARC
  5
99
  8
0
  6
AIGENLINE003
 62
     7
 10
59.828448000000002
 20
119.86428100000001
 30
0.0
 40
1.039458999999999
 50
182.148495
 51
267.87127500000003
  0
ARC
  5
9A
  8
0
 62
     7
 10
59.437201999999999
 20
120.000387
 30
0.0
 40
4.0001169999999986
 50
246.776546
 51
265.19585799999999
  0
ARC
  5
9B
  8
0
  6
AIGENLINE003
 62
     7
 10
59.542494999999988
 20
120.06610999999999
 30
0.0
 40
4.102644999999999
 50
180.9187949999999
 51
245.78710699999999
  0
ARC
  5
9C
  8
0
  6
AIGENLINE003
 62
     7
 10
39.991090999999997
 20
120.351398
 30
0.0
 40
2.0661649999999998
 50
271.595708
 51
351.533053
  0
LINE
  5
9D
  8
0
  6
AIGENLINE003
 62
     7
 10
40.048599999999993
 20
118.286
 30
0.0
 11
39.848799999999997
 21
118.286
 31
0.0
  0
LINE
  5
9E
  8
0
  6
AIGENLINE003
 62
     7
 10
39.848799999999997
 20
118.286
 30
0.0
 11
39.800600000000003
 21
118.28700000000001
 31
0.0
  0
ARC
  5
9F
  8
0
  6
AIGENLINE003
 62
     7
 10
39.823523000000002
 20
117.257284
 30
0.0
 40
1.0303839999999991
 50
91.275976999999997
 51
164.681994
  0
LINE
  5
A0
  8
0
  6
AIGENLINE003
 62
     7
 10
38.829700000000003
 20
117.529
 30
0.0
 11
38.623699999999999
 21
116.705
 31
0.0
  0
ARC
  5
A1
  8
0
  6
AIGENLINE003
 62
     7
 10
38.12706
 20
116.839595
 30
0.0
 40
0.514652
 50
271.29082599999998
 51
344.807659
  0
ARC
  5
A2
  8
0
  6
AIGENLINE003
 62
     7
 10
39.695912
 20
120.392017
 30
0.0
 40
1.0321610000000001
 50
271.52648599999998
 51
350.258241
  0
ARC
  5
A3
  8
0
  6
AIGENLINE003
 62
     7
 10
42.283134999999987
 20
122.412268
 30
0.0
 40
5.1874909999999996
 50
181.54908
 51
192.251204
  0
ARC
  5
A4
  8
0
  6
AIGENLINE003
 62
     7
 10
40.565661999999989
 20
122.079059
 30
0.0
 40
3.438642999999999
 50
192.89810299999991
 51
206.074929
  0
ARC
  5
A5
  8
0
  6
AIGENLINE003
 62
     7
 10
39.585622000000001
 20
121.631451
 30
0.0
 40
2.3617819999999989
 50
206.77172999999991
 51
228.158096
  0
ARC
  5
A6
  8
0
  6
AIGENLINE003
 62
     7
 10
39.343026999999999
 20
121.423005
 30
0.0
 40
2.0450879999999998
 50
229.325906
 51
260.12496599999997
  0
ARC
  5
A7
  8
0
  6
AIGENLINE003
 62
     7
 10
39.491770000000002
 20
122.02106999999999
 30
0.0
 40
2.6601650000000001
 50
259.17785700000002
 51
265.87349599999999
  0
ARC
  5
A8
  8
0
  6
AIGENLINE003
 62
     7
 10
84.661504000000008
 20
124.632559
 30
0.0
 40
5.1749539999999996
 50
276.03799600000002
 51
356.68808300000001
  0
LINE
  5
A9
  8
0
  6
AIGENLINE003
 62
     7
 10
77.066100000000006
 20
117.849
 30
0.0
 11
85.820499999999996
 21
118.286
 31
0.0
  0
LINE
  5
AA
  8
0
  6
AIGENLINE003
 62
     7
 10
85.820499999999996
 20
118.286
 30
0.0
 11
85.868700000000004
 21
118.28700000000001
 31
0.0
  0
ARC
  5
AB
  8
0
  6
AIGENLINE003
 62
     7
 10
85.845742000000001
 20
117.257284
 30
0.0
 40
1.0303839999999991
 50
15.317987
 51
88.724002999999996
  0
LINE
  5
AC
  8
0
  6
AIGENLINE003
 62
     7
 10
86.839500000000015
 20
117.529
 30
0.0
 11
87.045500000000004
 21
116.705
 31
0.0
  0
ARC
  5
AD
  8
0
  6
AIGENLINE003
 62
     7
 10
87.542204999999996
 20
116.839595
 30
0.0
 40
0.514652
 50
195.19236100000001
 51
268.70919300000003
  0
ARC
  5
AE
  8
0
  6
AIGENLINE003
 62
     7
 10
77.109101999999993
 20
117.33153900000001
 30
0.0
 40
0.5187540000000001
 50
94.758600000000001
 51
178.07521299999999
  0
LINE
  5
AF
  8
0
 62
     7
 10
76.590599999999995
 20
114.625
 30
0.0
 11
76.590599999999995
 21
116.325
 31
0.0
  0
LINE
  5
B0
  8
0
  6
AIGENLINE003
 62
     7
 10
76.590599999999995
 20
116.325
 30
0.0
 11
76.590599999999995
 21
117.349
 31
0.0
  0
ARC
  5
B1
  8
0
  6
AIGENLINE003
 62
     7
 10
90.292918000000014
 20
116.68140099999999
 30
0.0
 40
0.356338
 50
228.30233000000001
 51
269.554934
  0
ARC
  5
B2
  8
0
  6
AIGENLINE003
 62
     7
 10
89.749677000000005
 20
116.023287
 30
0.0
 40
0.502293
 50
51.940950999999998
 51
89.889621000000005
  0
ARC
  5
B3
  8
0
  6
AIGENLINE003
 62
     7
 10
89.754233999999997
 20
116.01885799999999
 30
0.0
 40
0.506734
 50
90.405853000000008
 51
142.72422299999999
  0
ARC
  5
B4
  8
0
  6
AIGENLINE003
 62
     7
 10
90.303854999999984
 20
128.462323
 30
0.0
 40
0.363272
 50
92.162062000000006
 51
177.950806
  0
LINE
  5
B5
  8
0
  6
AIGENLINE003
 62
     7
 10
89.827799999999996
 20
124.334
 30
0.0
 11
89.940799999999996
 21
128.47499999999999
 31
0.0
  0
LINE
  5
B6
  8
0
 62
     7
 10
90.640199999999993
 20
116.666
 30
0.0
 11
90.650499999999994
 21
117.09099999999999
 31
0.0
  0
LINE
  5
B7
  8
0
 62
     7
 10
90.650499999999994
 20
117.09099999999999
 30
0.0
 11
90.940600000000003
 21
128.46600000000001
 31
0.0
  0
ARC
  5
B8
  8
0
 62
     7
 10
90.276463000000007
 20
116.688785
 30
0.0
 40
0.363969
 50
272.15519599999999
 51
357.84481399999999
  0
ARC
  5
B9
  8
0
 62
     7
 10
90.576892999999984
 20
128.46164200000001
 30
0.0
 40
0.363952
 50
2.1527599999999998
 51
87.84723000000001
  0
LINE
  5
BA
  8
0
  6
AIGENLINE003
 62
     7
 10
75.540599999999984
 20
114.32599999999999
 30
0.0
 11
75.540599999999984
 21
114.825
 31
0.0
  0
LINE
  5
BB
  8
0
  6
AIGENLINE003
 62
     7
 10
70.939999999999998
 20
114.32599999999999
 30
0.0
 11
70.939999999999998
 21
114.825
 31
0.0
  0
LINE
  5
BC
  8
0
  6
AIGENLINE003
 62
     7
 10
75.540599999999984
 20
116.825
 30
0.0
 11
75.540599999999984
 21
117.325
 31
0.0
  0
LINE
  5
BD
  8
0
  6
AIGENLINE003
 62
     7
 10
75.990499999999997
 20
114.825
 30
0.0
 11
75.990499999999997
 21
116.825
 31
0.0
  0
LINE
  5
BE
  8
0
  6
AIGENLINE003
 62
     7
 10
70.489999999999995
 20
114.825
 30
0.0
 11
70.489999999999995
 21
116.825
 31
0.0
  0
LINE
  5
BF
  8
0
  6
AIGENLINE003
 62
     7
 10
70.939999999999998
 20
116.825
 30
0.0
 11
70.939999999999998
 21
117.325
 31
0.0
  0
LINE
  5
C0
  8
0
  6
AIGENLINE003
 62
     7
 10
76.740200000000002
 20
118.32599999999999
 30
0.0
 11
75.540599999999984
 21
117.325
 31
0.0
  0
LINE
  5
C1
  8
0
  6
AIGENLINE003
 62
     7
 10
70.939999999999998
 20
117.325
 30
0.0
 11
69.740399999999994
 21
118.32599999999999
 31
0.0
  0
ARC
  5
C2
  8
0
 62
     7
 10
76.278956000000008
 20
114.63652399999999
 30
0.0
 40
0.3112
 50
272.07560599999999
 51
357.92440399999998
  0
ARC
  5
C3
  8
0
 62
     7
 10
70.201541000000006
 20
114.637207
 30
0.0
 40
0.311882
 50
182.19662500000001
 51
267.93496800000003
  0
LINE
  5
C4
  8
0
 62
     7
 10
69.889899999999997
 20
114.625
 30
0.0
 11
69.889899999999997
 21
115.125
 31
0.0
  0
ARC
  5
C5
  8
0
  6
AIGENLINE003
 62
     7
 10
36.587606999999998
 20
116.679715
 30
0.0
 40
0.35465
 50
270.39848899999998
 51
311.80089500000003
  0
ARC
  5
C6
  8
0
  6
AIGENLINE003
 62
     7
 10
37.130854999999997
 20
116.02139099999999
 30
0.0
 40
0.5041890000000001
 50
90.105874
 51
127.98463599999999
  0
ARC
  5
C7
  8
0
  6
AIGENLINE003
 62
     7
 10
37.126339000000002
 20
116.018867
 30
0.0
 40
0.506724
 50
37.275244000000001
 51
89.594639999999998
  0
ARC
  5
C8
  8
0
  6
AIGENLINE003
 62
     7
 10
36.576047000000003
 20
128.46163100000001
 30
0.0
 40
0.363963
 50
2.1543759999999992
 51
87.845613999999983
  0
LINE
  5
C9
  8
0
  6
AIGENLINE003
 62
     7
 10
37.097499999999997
 20
122.27200000000001
 30
0.0
 11
36.939799999999998
 21
128.47499999999999
 31
0.0
  0
LINE
  5
CA
  8
0
 62
     7
 10
36.240400000000001
 20
116.666
 30
0.0
 11
36.229399999999998
 21
117.09099999999999
 31
0.0
  0
LINE
  5
CB
  8
0
 62
     7
 10
36.229399999999998
 20
117.09099999999999
 30
0.0
 11
35.939999999999998
 21
128.46600000000001
 31
0.0
  0
ARC
  5
CC
  8
0
 62
     7
 10
36.603755999999997
 20
116.68877999999999
 30
0.0
 40
0.363963
 50
182.15439599999991
 51
267.84563400000002
  0
ARC
  5
CD
  8
0
 62
     7
 10
36.303331
 20
128.46164200000001
 30
0.0
 40
0.363952
 50
92.152749999999983
 51
177.84721999999999
  0
LINE
  5
CE
  8
0
  6
AIGENLINE003
 62
     7
 10
42.446100000000001
 20
124.325
 30
0.0
 11
42.034700000000001
 21
120.047
 31
0.0
  0
LINE
  5
CF
  8
0
  6
AIGENLINE003
 62
     7
 10
41.182400000000001
 20
125.07299999999999
 30
0.0
 11
40.713200000000001
 21
120.217
 31
0.0
  0
LINE
  5
D0
  8
0
  6
AIGENLINE003
 62
     7
 10
57.815100000000001
 20
122.825
 30
0.0
 11
57.815100000000001
 21
120.0
 31
0.0
  0
ARC
  5
D1
  8
0
  6
AIGENLINE003
 62
     7
 10
59.002200000000002
 20
120.03489399999999
 30
0.0
 40
1.1876070000000001
 50
181.66804400000001
 51
185.95737500000001
  0
ARC
  5
D2
  8
0
  6
AIGENLINE003
 62
     7
 10
60.265731999999993
 20
120.141757
 30
0.0
 40
2.4555319999999989
 50
185.37743900000001
 51
205.86963700000001
  0
ARC
  5
D3
  8
0
  6
AIGENLINE003
 62
     7
 10
59.481941000000013
 20
119.79370400000001
 30
0.0
 40
1.598681
 50
206.90235000000001
 51
227.55720600000001
  0
ARC
  5
D4
  8
0
  6
AIGENLINE003
 62
     7
 10
59.266305000000003
 20
119.60208
 30
0.0
 40
1.312087
 50
228.85909100000001
 51
264.09673600000002
  0
ARC
  5
D5
  8
0
  6
AIGENLINE003
 62
     7
 10
59.341292000000003
 20
120.002083
 30
0.0
 40
1.7180070000000001
 50
262.981132
 51
267.26419399999997
  0
LINE
  5
D6
  8
0
  6
AIGENLINE003
 62
     7
 10
59.25930000000001
 20
118.286
 30
0.0
 11
70.939999999999998
 21
117.325
 31
0.0
  0
LINE
  5
D7
  8
0
  6
AIGENLINE003
 62
     7
 10
57.815100000000001
 20
124.325
 30
0.0
 11
57.815100000000001
 21
123.72499999999999
 31
0.0
  0
LINE
  5
D8
  8
0
  6
AIGENLINE003
 62
     7
 10
58.789700000000003
 20
125.02500000000001
 30
0.0
 11
58.789700000000003
 21
119.825
 31
0.0
  0
LINE
  5
D9
  8
0
  6
AIGENLINE001
 62
     7
 10
73.239900000000006
 20
120.81999999999999
 30
0.0
 11
73.239900000000006
 21
112.32299999999999
 31
0.0
  0
LINE
  5
DA
  8
0
 62
     7
 10
59.102200000000003
 20
116.014
 30
0.0
 11
69.889899999999997
 21
115.125
 31
0.0
  0
LINE
  5
DB
  8
0
 62
     7
 10
70.190299999999993
 20
114.32599999999999
 30
0.0
 11
76.290199999999999
 21
114.32599999999999
 31
0.0
  0
LINE
  5
DC
  8
0
 62
     7
 10
36.5901
 20
116.325
 30
0.0
 11
90.290199999999999
 21
116.325
 31
0.0
  0
LINE
  5
DD
  8
0
  6
AIGENLINE003
 62
     7
 10
70.489999999999995
 20
114.825
 30
0.0
 11
75.990499999999997
 21
114.825
 31
0.0
  0
LINE
  5
DE
  8
0
  6
AIGENLINE003
 62
     7
 10
70.489999999999995
 20
116.825
 30
0.0
 11
75.990499999999997
 21
116.825
 31
0.0
  0
LINE
  5
DF
  8
0
  6
AIGENLINE003
 62
     7
 10
70.939999999999998
 20
117.325
 30
0.0
 11
75.540599999999984
 21
117.325
 31
0.0
  0
LINE
  5
E0
  8
0
  6
AIGENLINE003
 62
     7
 10
69.740399999999994
 20
118.32599999999999
 30
0.0
 11
76.740200000000002
 21
118.32599999999999
 31
0.0
  0
LINE
  5
E1
  8
0
  6
AIGENLINE003
 62
     7
 10
39.3003
 20
119.36799999999999
 30
0.0
 11
39.723399999999998
 21
119.36
 31
0.0
  0
LINE
  5
E2
  8
0
  6
AIGENLINE003
 62
     7
 10
76.740200000000002
 20
118.32599999999999
 30
0.0
 11
85.205799999999996
 21
119.486
 31
0.0
  0
LINE
  5
E3
  8
0
  6
AIGENLINE003
 62
     7
 10
59.789799999999993
 20
118.82599999999999
 30
0.0
 11
69.740399999999994
 21
118.32599999999999
 31
0.0
  0
LINE
  5
E4
  8
0
 62
     7
 10
36.289700000000011
 20
128.82499999999999
 30
0.0
 11
90.590599999999995
 21
128.82499999999999
 31
0.0
  0
ARC
  5
E5
  8
0
  6
AIGENLINE003
 62
     7
 10
57.816642999999999
 20
123.085526
 30
0.0
 40
0.26021
 50
221.051817
 51
269.65940899999998
  0
ARC
  5
E6
  8
0
  6
AIGENLINE003
 62
     7
 10
57.944077
 20
123.221675
 30
0.0
 40
0.446128
 50
193.11461199999999
 51
223.49032800000001
  0
ARC
  5
E7
  8
0
  6
AIGENLINE003
 62
     7
 10
58.092953999999999
 20
123.27337
 30
0.0
 40
0.6030800000000001
 50
179.821124
 51
194.68875700000001
  0
ARC
  5
E8
  8
0
  6
AIGENLINE003
 62
     7
 10
58.077282999999987
 20
123.27449
 30
0.0
 40
0.5874050000000001
 50
148.90342899999999
 51
179.925558
  0
ARC
  5
E9
  8
0
  6
AIGENLINE003
 62
     7
 10
57.870590999999997
 20
123.386263
 30
0.0
 40
0.35286
 50
114.192685
 51
147.11026000000001
  0
ARC
  5
EA
  8
0
  6
AIGENLINE003
 62
     7
 10
57.815731000000007
 20
123.480527
 30
0.0
 40
0.244659
 50
90.148539999999969
 51
111.519262
  0
LINE
  5
EB
  8
0
  6
AIGENLINE003
 62
     7
 10
57.815100000000001
 20
122.825
 30
0.0
 11
58.789700000000003
 21
122.825
 31
0.0
  0
LINE
  5
EC
  8
0
  6
AIGENLINE003
 62
     7
 10
57.815100000000001
 20
123.72499999999999
 30
0.0
 11
58.789700000000003
 21
123.72499999999999
 31
0.0
  0
ARC
  5
ED
  8
0
  6
AIGENLINE003
 62
     7
 10
142.49457200000001
 20
123.292177
 30
0.0
 40
0.4671630000000001
 50
182.07612399999999
 51
267.92390599999999
  0
ARC
  5
EE
  8
0
  6
AIGENLINE003
 62
     7
 10
142.494553
 20
123.258348
 30
0.0
 40
0.467143
 50
92.073869999999999
 51
177.92609999999999
  0
ARC
  5
EF
  8
0
  6
AIGENLINE003
 62
     7
 10
150.560902
 20
123.258348
 30
0.0
 40
0.467143
 50
2.0738970000000001
 51
87.926092999999995
  0
ARC
  5
F0
  8
0
  6
AIGENLINE003
 62
     7
 10
150.560902
 20
123.292158
 30
0.0
 40
0.467143
 50
272.07390700000002
 51
357.92610300000001
  0
ARC
  5
F1
  8
0
  6
AIGENLINE003
 62
     7
 10
156.21614299999999
 20
120.081023
 30
0.0
 40
1.0391349999999999
 50
182.132598
 51
267.90690499999999
  0
ARC
  5
F2
  8
0
  6
AIGENLINE003
 62
     7
 10
154.658198
 20
125.006101
 30
0.0
 40
0.519887
 50
2.124349
 51
87.796666999999985
  0
LINE
  5
F3
  8
0
  6
AIGENLINE003
 62
     7
 10
155.178
 20
120.042
 30
0.0
 11
155.178
 21
125.02500000000001
 31
0.0
  0
ARC
  5
F4
  8
0
  6
AIGENLINE003
 62
     7
 10
136.83933500000001
 20
120.080974
 30
0.0
 40
1.0391099999999991
 50
272.12995100000001
 51
357.87005900000003
  0
ARC
  5
F5
  8
0
  6
AIGENLINE003
 62
     7
 10
138.37795800000001
 20
125.025373
 30
0.0
 40
0.5002310000000002
 50
90.0
 51
179.99996999999999
  0
ARC
  5
F6
  8
0
  6
AIGENLINE003
 62
     7
 10
158.250044
 20
124.49332699999999
 30
0.0
 40
5.1781800000000002
 50
274.42674
 51
356.736513
  0
LINE
  5
F7
  8
0
  6
AIGENLINE003
 62
     7
 10
150.35400000000001
 20
117.849
 30
0.0
 11
159.40799999999999
 21
118.286
 31
0.0
  0
LINE
  5
F8
  8
0
  6
AIGENLINE003
 62
     7
 10
159.40799999999999
 20
118.286
 30
0.0
 11
159.45699999999999
 21
118.28700000000001
 31
0.0
  0
ARC
  5
F9
  8
0
  6
AIGENLINE003
 62
     7
 10
159.43362400000001
 20
117.25729
 30
0.0
 40
1.0303770000000001
 50
15.317722
 51
88.724269000000007
  0
LINE
  5
FA
  8
0
  6
AIGENLINE003
 62
     7
 10
160.42699999999999
 20
117.529
 30
0.0
 11
160.6329999999999
 21
116.705
 31
0.0
  0
ARC
  5
FB
  8
0
  6
AIGENLINE003
 62
     7
 10
161.129605
 20
116.838987
 30
0.0
 40
0.514033
 50
195.140806
 51
268.76074899999998
  0
ARC
  5
FC
  8
0
  6
AIGENLINE003
 62
     7
 10
150.396883
 20
117.331564
 30
0.0
 40
0.5187260000000001
 50
94.755912999999993
 51
178.077899
  0
LINE
  5
FD
  8
0
 62
     7
 10
149.87799999999999
 20
114.625
 30
0.0
 11
149.87799999999999
 21
116.325
 31
0.0
  0
LINE
  5
FE
  8
0
  6
AIGENLINE003
 62
     7
 10
149.87799999999999
 20
116.325
 30
0.0
 11
149.87799999999999
 21
117.349
 31
0.0
  0
ARC
  5
FF
  8
0
  6
AIGENLINE003
 62
     7
 10
163.88014899999999
 20
116.679723
 30
0.0
 40
0.3546559999999999
 50
228.20003800000001
 51
269.65722599999998
  0
ARC
  5
100
  8
0
  6
AIGENLINE003
 62
     7
 10
163.33755400000001
 20
116.023287
 30
0.0
 40
0.502293
 50
51.940950999999998
 51
89.889621000000005
  0
ARC
  5
101
  8
0
  6
AIGENLINE003
 62
     7
 10
163.34211099999999
 20
116.01885799999999
 30
0.0
 40
0.506734
 50
90.405853000000008
 51
142.72422299999999
  0
ARC
  5
102
  8
0
  6
AIGENLINE003
 62
     7
 10
163.89173700000001
 20
128.46231800000001
 30
0.0
 40
0.363278
 50
92.162873000000005
 51
177.949995
  0
LINE
  5
103
  8
0
  6
AIGENLINE003
 62
     7
 10
163.41999999999999
 20
124.199
 30
0.0
 11
163.529
 21
128.47499999999999
 31
0.0
  0
LINE
  5
104
  8
0
 62
     7
 10
164.22799999999989
 20
116.666
 30
0.0
 11
164.238
 21
117.09099999999999
 31
0.0
  0
LINE
  5
105
  8
0
 62
     7
 10
164.238
 20
117.09099999999999
 30
0.0
 11
164.52799999999999
 21
128.46600000000001
 31
0.0
  0
ARC
  5
106
  8
0
 62
     7
 10
163.86433400000001
 20
116.68879
 30
0.0
 40
0.363974
 50
272.15600599999999
 51
357.84400399999998
  0
ARC
  5
107
  8
0
 62
     7
 10
164.16477
 20
128.46164200000001
 30
0.0
 40
0.363952
 50
2.1527599999999998
 51
87.84723000000001
  0
LINE
  5
108
  8
0
  6
AIGENLINE003
 62
     7
 10
158.65000000000001
 20
119.331
 30
0.0
 11
150.02799999999999
 21
118.32599999999999
 31
0.0
  0
ARC
  5
109
  8
0
  6
AIGENLINE003
 62
     7
 10
134.80610100000001
 20
124.49332699999999
 30
0.0
 40
5.1781800000000002
 50
183.263507
 51
265.57328000000001
  0
ARC
  5
10A
  8
0
  6
AIGENLINE003
 62
     7
 10
131.28144800000001
 20
116.84007800000001
 30
0.0
 40
0.5151430000000001
 50
271.33158900000001
 51
344.76689599999997
  0
LINE
  5
10B
  8
0
  6
AIGENLINE003
 62
     7
 10
131.77799999999999
 20
116.705
 30
0.0
 11
131.98500000000001
 21
117.529
 31
0.0
  0
ARC
  5
10C
  8
0
  6
AIGENLINE003
 62
     7
 10
132.97919400000001
 20
117.256123
 30
0.0
 40
1.0315650000000001
 50
91.324853000000004
 51
164.633118
  0
LINE
  5
10D
  8
0
  6
AIGENLINE003
 62
     7
 10
132.95500000000001
 20
118.28700000000001
 30
0.0
 11
133.00399999999999
 21
118.286
 31
0.0
  0
LINE
  5
10E
  8
0
  6
AIGENLINE003
 62
     7
 10
133.00399999999999
 20
118.286
 30
0.0
 11
142.702
 21
117.849
 31
0.0
  0
ARC
  5
10F
  8
0
  6
AIGENLINE003
 62
     7
 10
142.65926099999999
 20
117.331564
 30
0.0
 40
0.5187260000000001
 50
1.9220980000000001
 51
85.244049999999987
  0
LINE
  5
110
  8
0
  6
AIGENLINE003
 62
     7
 10
148.828
 20
114.32599999999999
 30
0.0
 11
148.828
 21
114.825
 31
0.0
  0
LINE
  5
111
  8
0
  6
AIGENLINE003
 62
     7
 10
144.22800000000001
 20
114.32599999999999
 30
0.0
 11
144.22800000000001
 21
114.825
 31
0.0
  0
LINE
  5
112
  8
0
  6
AIGENLINE003
 62
     7
 10
148.828
 20
116.825
 30
0.0
 11
148.828
 21
117.325
 31
0.0
  0
LINE
  5
113
  8
0
  6
AIGENLINE003
 62
     7
 10
149.27799999999999
 20
114.825
 30
0.0
 11
149.27799999999999
 21
116.825
 31
0.0
  0
LINE
  5
114
  8
0
  6
AIGENLINE003
 62
     7
 10
143.77799999999999
 20
114.825
 30
0.0
 11
143.77799999999999
 21
116.825
 31
0.0
  0
LINE
  5
115
  8
0
  6
AIGENLINE003
 62
     7
 10
137.87799999999999
 20
120.042
 30
0.0
 11
137.87799999999999
 21
125.02500000000001
 31
0.0
  0
LINE
  5
116
  8
0
  6
AIGENLINE003
 62
     7
 10
144.22800000000001
 20
116.825
 30
0.0
 11
144.22800000000001
 21
117.325
 31
0.0
  0
LINE
  5
117
  8
0
  6
AIGENLINE003
 62
     7
 10
150.02799999999999
 20
118.32599999999999
 30
0.0
 11
148.828
 21
117.325
 31
0.0
  0
LINE
  5
118
  8
0
  6
AIGENLINE003
 62
     7
 10
144.22800000000001
 20
117.325
 30
0.0
 11
143.02799999999999
 21
118.32599999999999
 31
0.0
  0
ARC
  5
119
  8
0
 62
     7
 10
149.56675899999999
 20
114.636528
 30
0.0
 40
0.311205
 50
272.07644199999999
 51
357.92356799999999
  0
ARC
  5
11A
  8
0
 62
     7
 10
143.48934800000001
 20
114.637207
 30
0.0
 40
0.311882
 50
182.19662500000001
 51
267.93496800000003
  0
LINE
  5
11B
  8
0
 62
     7
 10
143.178
 20
114.625
 30
0.0
 11
143.178
 21
116.325
 31
0.0
  0
LINE
  5
11C
  8
0
  6
AIGENLINE003
 62
     7
 10
143.178
 20
116.325
 30
0.0
 11
143.178
 21
117.349
 31
0.0
  0
ARC
  5
11D
  8
0
  6
AIGENLINE003
 62
     7
 10
129.175995
 20
116.679723
 30
0.0
 40
0.3546559999999999
 50
270.34279400000003
 51
311.799982
  0
ARC
  5
11E
  8
0
  6
AIGENLINE003
 62
     7
 10
129.71859000000001
 20
116.023287
 30
0.0
 40
0.502293
 50
90.110359000000017
 51
128.05903000000001
  0
ARC
  5
11F
  8
0
  6
AIGENLINE003
 62
     7
 10
129.714033
 20
116.01885799999999
 30
0.0
 40
0.506734
 50
37.275756999999999
 51
89.594127000000015
  0
ARC
  5
120
  8
0
  6
AIGENLINE003
 62
     7
 10
129.16440700000001
 20
128.46231800000001
 30
0.0
 40
0.363278
 50
2.0500020000000001
 51
87.837089999999989
  0
LINE
  5
121
  8
0
  6
AIGENLINE003
 62
     7
 10
129.636
 20
124.199
 30
0.0
 11
129.52699999999999
 21
128.47499999999999
 31
0.0
  0
LINE
  5
122
  8
0
 62
     7
 10
128.82900000000001
 20
116.666
 30
0.0
 11
128.81800000000001
 21
117.09099999999999
 31
0.0
  0
LINE
  5
123
  8
0
 62
     7
 10
128.81800000000001
 20
117.09099999999999
 30
0.0
 11
128.52799999999999
 21
128.46600000000001
 31
0.0
  0
ARC
  5
124
  8
0
 62
     7
 10
129.19181
 20
116.68879
 30
0.0
 40
0.363974
 50
182.15601599999999
 51
267.84401400000002
  0
ARC
  5
125
  8
0
 62
     7
 10
128.892042
 20
128.46169
 30
0.0
 40
0.363929
 50
92.258127000000002
 51
177.85474199999999
  0
LINE
  5
126
  8
0
  6
AIGENLINE001
 62
     7
 10
146.52799999999999
 20
130.81299999999999
 30
0.0
 11
146.52799999999999
 21
108.60899999999999
 31
0.0
  0
LINE
  5
127
  8
0
 62
     7
 10
143.47799999999989
 20
114.32599999999999
 30
0.0
 11
146.12799999999999
 21
114.32599999999999
 31
0.0
  0
LINE
  5
128
  8
0
 62
     7
 10
146.928
 20
114.32599999999999
 30
0.0
 11
149.578
 21
114.32599999999999
 31
0.0
  0
LINE
  5
129
  8
0
 62
     7
 10
129.178
 20
116.325
 30
0.0
 11
163.87799999999999
 21
116.325
 31
0.0
  0
LINE
  5
12A
  8
0
  6
AIGENLINE003
 62
     7
 10
143.77799999999999
 20
114.825
 30
0.0
 11
149.27799999999999
 21
114.825
 31
0.0
  0
LINE
  5
12B
  8
0
  6
AIGENLINE003
 62
     7
 10
143.77799999999999
 20
116.825
 30
0.0
 11
149.27799999999999
 21
116.825
 31
0.0
  0
LINE
  5
12C
  8
0
  6
AIGENLINE003
 62
     7
 10
144.22800000000001
 20
117.325
 30
0.0
 11
148.828
 21
117.325
 31
0.0
  0
LINE
  5
12D
  8
0
  6
AIGENLINE003
 62
     7
 10
143.02799999999999
 20
118.32599999999999
 30
0.0
 11
150.02799999999999
 21
118.32599999999999
 31
0.0
  0
LINE
  5
12E
  8
0
  6
AIGENLINE003
 62
     7
 10
134.40600000000001
 20
119.331
 30
0.0
 11
143.02799999999999
 21
118.32599999999999
 31
0.0
  0
LINE
  5
12F
  8
0
  6
AIGENLINE003
 62
     7
 10
56.040199999999999
 20
124.325
 30
0.0
 11
57.815100000000001
 21
124.325
 31
0.0
  0
LINE
  5
130
  8
0
  6
AIGENLINE003
 62
     7
 10
42.446100000000001
 20
124.325
 30
0.0
 11
55.44039999999999
 21
124.325
 31
0.0
  0
LINE
  5
131
  8
0
  6
AIGENLINE003
 62
     7
 10
41.680199999999999
 20
125.526
 30
0.0
 11
58.2898
 21
125.526
 31
0.0
  0
LINE
  5
132
  8
0
  6
AIGENLINE003
 62
     7
 10
138.37799999999999
 20
125.526
 30
0.0
 11
154.678
 21
125.526
 31
0.0
  0
LINE
  5
133
  8
0
  6
AIGENLINE003
 62
     7
 10
142.47800000000001
 20
122.825
 30
0.0
 11
150.578
 21
122.825
 31
0.0
  0
LINE
  5
134
  8
0
  6
AIGENLINE003
 62
     7
 10
142.47800000000001
 20
123.72499999999999
 30
0.0
 11
150.578
 21
123.72499999999999
 31
0.0
  0
LINE
  5
135
  8
0
 62
     7
 10
128.87799999999999
 20
128.82499999999999
 30
0.0
 11
164.178
 21
128.82499999999999
 31
0.0
  0
ARC
  5
136
  8
0
 62
     7
 10
139.45102499999999
 20
198.31257600000001
 30
0.0
 40
3.4998079999999998
 50
179.99574000000001
 51
269.99579
  0
ARC
  5
137
  8
0
 62
     7
 10
139.45102700000001
 20
206.31299999999999
 30
0.0
 40
3.4998089999999991
 50
90.004230000000007
 51
180.00424000000001
  0
LINE
  5
138
  8
0
 62
     7
 10
135.95099999999999
 20
206.31299999999999
 30
0.0
 11
135.95099999999999
 21
198.31299999999999
 31
0.0
  0
LINE
  5
139
  8
0
 62
     7
 10
139.45099999999999
 20
209.81299999999999
 30
0.0
 11
158.45099999999999
 21
209.81299999999999
 31
0.0
  0
LINE
  5
13A
  8
0
 62
     7
 10
139.45099999999999
 20
194.81299999999999
 30
0.0
 11
158.45099999999999
 21
194.81299999999999
 31
0.0
  0
ARC
  5
13B
  8
0
 62
     7
 10
158.451277
 20
202.31278800000001
 30
0.0
 40
7.5000220000000004
 50
0.00001
 51
89.999980000000008
  0
ARC
  5
13C
  8
0
 62
     7
 10
158.451277
 20
202.31279000000001
 30
0.0
 40
7.5000220000000004
 50
270.00002000000001
 51
359.99999000000003
  0
LINE
  5
13D
  8
0
 62
     7
 10
38.149999999999999
 20
162.71600000000001
 30
0.0
 11
35.939599999999999
 21
162.124
 31
0.0
  0
LINE
  5
13E
  8
0
 62
     7
 10
35.939599999999999
 20
162.124
 30
0.0
 11
38.149999999999999
 21
161.53100000000001
 31
0.0
  0
LINE
  5
13F
  8
0
 62
     7
 10
38.149999999999999
 20
161.53100000000001
 30
0.0
 11
38.149999999999999
 21
162.71600000000001
 31
0.0
  0
LINE
  5
140
  8
0
 62
     7
 10
88.729500000000016
 20
161.53899999999999
 30
0.0
 11
90.939899999999994
 21
162.131
 31
0.0
  0
LINE
  5
141
  8
0
 62
     7
 10
90.939899999999994
 20
162.131
 30
0.0
 11
88.729500000000016
 21
162.72300000000001
 31
0.0
  0
LINE
  5
142
  8
0
 62
     7
 10
88.729500000000016
 20
162.72300000000001
 30
0.0
 11
88.729500000000016
 21
161.53899999999999
 31
0.0
  0
LINE
  5
143
  8
0
 62
     7
 10
35.939599999999999
 20
162.124
 30
0.0
 11
90.939899999999994
 21
162.124
 31
0.0
  0
LINE
  5
144
  8
0
 62
     7
 10
135.95099999999999
 20
196.113
 30
0.0
 11
135.95099999999999
 21
186.69900000000001
 31
0.0
  0
LINE
  5
145
  8
0
 62
     7
 10
124.851
 20
200.09200000000001
 30
0.0
 11
124.851
 21
179.047
 31
0.0
  0
LINE
  5
146
  8
0
 62
     7
 10
171.15199999999999
 20
200.09200000000001
 30
0.0
 11
171.15199999999999
 21
179.047
 31
0.0
  0
LINE
  5
147
  8
0
 62
     7
 10
165.95099999999999
 20
199.31299999999999
 30
0.0
 11
165.95099999999999
 21
186.69900000000001
 31
0.0
  0
LINE
  5
148
  8
0
 62
     7
 10
158.452
 20
212.57599999999999
 30
0.0
 11
158.452
 21
219.33500000000001
 31
0.0
  0
LINE
  5
149
  8
0
 62
     7
 10
171.15199999999999
 20
204.55000000000001
 30
0.0
 11
171.15199999999999
 21
219.33500000000001
 31
0.0
  0
LINE
  5
14A
  8
0
 62
     7
 10
168.941
 20
218.05000000000001
 30
0.0
 11
171.15199999999999
 21
218.643
 31
0.0
  0
LINE
  5
14B
  8
0
 62
     7
 10
171.15199999999999
 20
218.643
 30
0.0
 11
168.941
 21
219.23500000000001
 31
0.0
  0
LINE
  5
14C
  8
0
 62
     7
 10
168.941
 20
219.23500000000001
 30
0.0
 11
168.941
 21
218.05000000000001
 31
0.0
  0
LINE
  5
14D
  8
0
 62
     7
 10
160.66300000000001
 20
219.227
 30
0.0
 11
158.452
 21
218.63499999999999
 31
0.0
  0
LINE
  5
14E
  8
0
 62
     7
 10
158.452
 20
218.63499999999999
 30
0.0
 11
160.66300000000001
 21
218.04300000000001
 31
0.0
  0
LINE
  5
14F
  8
0
 62
     7
 10
160.66300000000001
 20
218.04300000000001
 30
0.0
 11
160.66300000000001
 21
219.227
 31
0.0
  0
LINE
  5
150
  8
0
 62
     7
 10
171.15199999999999
 20
218.63499999999999
 30
0.0
 11
158.452
 21
218.63499999999999
 31
0.0
  0
LINE
  5
151
  8
0
 62
     7
 10
163.74100000000001
 20
186.81399999999999
 30
0.0
 11
165.95099999999999
 21
187.40700000000001
 31
0.0
  0
LINE
  5
152
  8
0
 62
     7
 10
165.95099999999999
 20
187.40700000000001
 30
0.0
 11
163.74100000000001
 21
187.999
 31
0.0
  0
LINE
  5
153
  8
0
 62
     7
 10
163.74100000000001
 20
187.999
 30
0.0
 11
163.74100000000001
 21
186.81399999999999
 31
0.0
  0
LINE
  5
154
  8
0
 62
     7
 10
138.16200000000001
 20
187.99199999999999
 30
0.0
 11
135.95099999999999
 21
187.40000000000001
 31
0.0
  0
LINE
  5
155
  8
0
 62
     7
 10
135.95099999999999
 20
187.40000000000001
 30
0.0
 11
138.16200000000001
 21
186.80699999999999
 31
0.0
  0
LINE
  5
156
  8
0
 62
     7
 10
138.16200000000001
 20
186.80699999999999
 30
0.0
 11
138.16200000000001
 21
187.99199999999999
 31
0.0
  0
LINE
  5
157
  8
0
 62
     7
 10
165.95099999999999
 20
187.399
 30
0.0
 11
135.95099999999999
 21
187.399
 31
0.0
  0
LINE
  5
158
  8
0
 62
     7
 10
168.941
 20
179.16200000000001
 30
0.0
 11
171.15199999999999
 21
179.75399999999999
 31
0.0
  0
LINE
  5
159
  8
0
 62
     7
 10
171.15199999999999
 20
179.75399999999999
 30
0.0
 11
168.941
 21
180.346
 31
0.0
  0
LINE
  5
15A
  8
0
 62
     7
 10
168.941
 20
180.346
 30
0.0
 11
168.941
 21
179.16200000000001
 31
0.0
  0
LINE
  5
15B
  8
0
 62
     7
 10
127.06100000000001
 20
180.339
 30
0.0
 11
124.851
 21
179.74700000000001
 31
0.0
  0
LINE
  5
15C
  8
0
 62
     7
 10
124.851
 20
179.74700000000001
 30
0.0
 11
127.06100000000001
 21
179.154
 31
0.0
  0
LINE
  5
15D
  8
0
 62
     7
 10
127.06100000000001
 20
179.154
 30
0.0
 11
127.06100000000001
 21
180.339
 31
0.0
  0
LINE
  5
15E
  8
0
 62
     7
 10
171.15199999999999
 20
179.74700000000001
 30
0.0
 11
124.851
 21
179.74700000000001
 31
0.0
  0
LINE
  5
15F
  8
0
 62
     7
 10
136.751
 20
194.81299999999999
 30
0.0
 11
120.77
 21
194.81299999999999
 31
0.0
  0
LINE
  5
160
  8
0
 62
     7
 10
153.03
 20
212.81999999999999
 30
0.0
 11
142.53100000000001
 21
212.81999999999999
 31
0.0
  0
LINE
  5
161
  8
0
 62
     7
 10
136.751
 20
209.81299999999999
 30
0.0
 11
120.77
 21
209.81299999999999
 31
0.0
  0
LINE
  5
162
  8
0
 62
     7
 10
122.062
 20
207.602
 30
0.0
 11
121.47
 21
209.81299999999999
 31
0.0
  0
LINE
  5
163
  8
0
 62
     7
 10
121.47
 20
209.81299999999999
 30
0.0
 11
120.878
 21
207.602
 31
0.0
  0
LINE
  5
164
  8
0
 62
     7
 10
120.878
 20
207.602
 30
0.0
 11
122.062
 21
207.602
 31
0.0
  0
LINE
  5
165
  8
0
 62
     7
 10
120.878
 20
197.023
 30
0.0
 11
121.47
 21
194.81299999999999
 31
0.0
  0
LINE
  5
166
  8
0
 62
     7
 10
121.47
 20
194.81299999999999
 30
0.0
 11
122.062
 21
197.023
 31
0.0
  0
LINE
  5
167
  8
0
 62
     7
 10
122.062
 20
197.023
 30
0.0
 11
120.878
 21
197.023
 31
0.0
  0
LINE
  5
168
  8
0
 62
     7
 10
121.47
 20
209.81299999999999
 30
0.0
 11
121.47
 21
194.81299999999999
 31
0.0
  0
LINE
  5
169
  8
0
 62
     7
 10
89.140500000000003
 20
185.31299999999999
 30
0.0
 11
106.673
 21
185.31299999999999
 31
0.0
  0
LINE
  5
16A
  8
0
 62
     7
 10
150.578
 20
114.32599999999999
 30
0.0
 11
174.03100000000001
 21
114.32599999999999
 31
0.0
  0
LINE
  5
16B
  8
0
 62
     7
 10
165.054
 20
116.325
 30
0.0
 11
174.03100000000001
 21
116.325
 31
0.0
  0
LINE
  5
16C
  8
0
 62
     7
 10
165.154
 20
128.82499999999999
 30
0.0
 11
174.03100000000001
 21
128.82499999999999
 31
0.0
  0
LINE
  5
16D
  8
0
 62
     7
 10
173.923
 20
112.11499999999999
 30
0.0
 11
173.33099999999999
 21
114.32599999999999
 31
0.0
  0
LINE
  5
16E
  8
0
 62
     7
 10
173.33099999999999
 20
114.32599999999999
 30
0.0
 11
172.739
 21
112.11499999999999
 31
0.0
  0
LINE
  5
16F
  8
0
 62
     7
 10
172.739
 20
112.11499999999999
 30
0.0
 11
173.923
 21
112.11499999999999
 31
0.0
  0
LINE
  5
170
  8
0
 62
     7
 10
72.349900000000005
 20
126.61499999999999
 30
0.0
 11
71.757699999999986
 21
128.82499999999999
 31
0.0
  0
LINE
  5
171
  8
0
 62
     7
 10
71.757699999999986
 20
128.82499999999999
 30
0.0
 11
71.165400000000005
 21
126.61499999999999
 31
0.0
  0
LINE
  5
172
  8
0
 62
     7
 10
71.165400000000005
 20
126.61499999999999
 30
0.0
 11
72.349900000000005
 21
126.61499999999999
 31
0.0
  0
LINE
  5
173
  8
0
 62
     7
 10
71.165400000000005
 20
120.536
 30
0.0
 11
71.757699999999986
 21
118.32599999999999
 31
0.0
  0
LINE
  5
174
  8
0
 62
     7
 10
71.757699999999986
 20
118.32599999999999
 30
0.0
 11
72.349900000000005
 21
120.536
 31
0.0
  0
LINE
  5
175
  8
0
 62
     7
 10
72.349900000000005
 20
120.536
 30
0.0
 11
71.165400000000005
 21
120.536
 31
0.0
  0
LINE
  5
176
  8
0
 62
     7
 10
71.757699999999986
 20
128.82499999999999
 30
0.0
 11
71.757699999999986
 21
118.32599999999999
 31
0.0
  0
LINE
  5
177
  8
0
 62
     7
 10
173.923
 20
126.61499999999999
 30
0.0
 11
173.33099999999999
 21
128.82499999999999
 31
0.0
  0
LINE
  5
178
  8
0
 62
     7
 10
173.33099999999999
 20
128.82499999999999
 30
0.0
 11
172.739
 21
126.61499999999999
 31
0.0
  0
LINE
  5
179
  8
0
 62
     7
 10
172.739
 20
126.61499999999999
 30
0.0
 11
173.923
 21
126.61499999999999
 31
0.0
  0
LINE
  5
17A
  8
0
 62
     7
 10
172.739
 20
118.535
 30
0.0
 11
173.33099999999999
 21
116.325
 31
0.0
  0
LINE
  5
17B
  8
0
 62
     7
 10
173.33099999999999
 20
116.325
 30
0.0
 11
173.923
 21
118.535
 31
0.0
  0
LINE
  5
17C
  8
0
 62
     7
 10
173.923
 20
118.535
 30
0.0
 11
172.739
 21
118.535
 31
0.0
  0
LINE
  5
17D
  8
0
 62
     7
 10
173.33099999999999
 20
128.82499999999999
 30
0.0
 11
173.33099999999999
 21
116.325
 31
0.0
  0
LINE
  5
17E
  8
0
 62
     7
 10
89.140500000000003
 20
184.31299999999999
 30
0.0
 11
112.42100000000001
 21
184.31299999999999
 31
0.0
  0
LINE
  5
17F
  8
0
 62
     7
 10
94.268600000000006
 20
202.31299999999999
 30
0.0
 11
100.633
 21
202.31299999999999
 31
0.0
  0
LINE
  5
180
  8
0
 62
     7
 10
89.440600000000003
 20
219.31299999999999
 30
0.0
 11
106.673
 21
219.31299999999999
 31
0.0
  0
LINE
  5
181
  8
0
 62
     7
 10
89.140500000000003
 20
220.31299999999999
 30
0.0
 11
112.42100000000001
 21
220.31299999999999
 31
0.0
  0
LINE
  5
182
  8
0
 62
     7
 10
52.950899999999997
 20
176.14400000000001
 30
0.0
 11
50.74049999999999
 21
175.55199999999999
 31
0.0
  0
LINE
  5
183
  8
0
 62
     7
 10
50.74049999999999
 20
175.55199999999999
 30
0.0
 11
52.950899999999997
 21
174.959
 31
0.0
  0
LINE
  5
184
  8
0
 62
     7
 10
52.950899999999997
 20
174.959
 30
0.0
 11
52.950899999999997
 21
176.14400000000001
 31
0.0
  0
LINE
  5
185
  8
0
 62
     7
 10
71.030000000000001
 20
174.96700000000001
 30
0.0
 11
73.240600000000001
 21
175.559
 31
0.0
  0
LINE
  5
186
  8
0
 62
     7
 10
73.240600000000001
 20
175.559
 30
0.0
 11
71.030000000000001
 21
176.15100000000001
 31
0.0
  0
LINE
  5
187
  8
0
 62
     7
 10
71.030000000000001
 20
176.15100000000001
 30
0.0
 11
71.030000000000001
 21
174.96700000000001
 31
0.0
  0
LINE
  5
188
  8
0
 62
     7
 10
50.74049999999999
 20
175.55199999999999
 30
0.0
 11
73.240600000000001
 21
175.55199999999999
 31
0.0
  0
LINE
  5
189
  8
0
 62
     7
 10
38.8504
 20
169.614
 30
0.0
 11
36.640000000000001
 21
169.02199999999999
 31
0.0
  0
LINE
  5
18A
  8
0
 62
     7
 10
36.640000000000001
 20
169.02199999999999
 30
0.0
 11
38.8504
 21
168.43000000000001
 31
0.0
  0
LINE
  5
18B
  8
0
 62
     7
 10
38.8504
 20
168.43000000000001
 30
0.0
 11
38.8504
 21
169.614
 31
0.0
  0
LINE
  5
18C
  8
0
 62
     7
 10
88.030000000000001
 20
168.43700000000001
 30
0.0
 11
90.240499999999997
 21
169.029
 31
0.0
  0
LINE
  5
18D
  8
0
 62
     7
 10
90.240499999999997
 20
169.029
 30
0.0
 11
88.030000000000001
 21
169.62200000000001
 31
0.0
  0
LINE
  5
18E
  8
0
 62
     7
 10
88.030000000000001
 20
169.62200000000001
 30
0.0
 11
88.030000000000001
 21
168.43700000000001
 31
0.0
  0
LINE
  5
18F
  8
0
 62
     7
 10
36.640000000000001
 20
169.02199999999999
 30
0.0
 11
90.240499999999997
 21
169.02199999999999
 31
0.0
  0
LINE
  5
190
  8
0
 62
     7
 10
155.857
 20
206.05000000000001
 30
0.0
 11
157.39699999999999
 21
204.357
 31
0.0
  0
LINE
  5
191
  8
0
 62
     7
 10
157.39699999999999
 20
204.357
 30
0.0
 11
156.91
 21
206.59299999999999
 31
0.0
  0
LINE
  5
192
  8
0
 62
     7
 10
156.91
 20
206.59299999999999
 30
0.0
 11
155.857
 21
206.05000000000001
 31
0.0
  0
LINE
  5
193
  8
0
 62
     7
 10
153.03
 20
212.81999999999999
 30
0.0
 11
157.39699999999999
 21
204.357
 31
0.0
  0
LINE
  5
194
  8
0
 62
     7
 10
138.93299999999999
 20
207.601
 30
0.0
 11
136.976
 21
208.78800000000001
 31
0.0
  0
LINE
  5
195
  8
0
 62
     7
 10
136.976
 20
208.78800000000001
 30
0.0
 11
138.078
 21
206.78200000000001
 31
0.0
  0
LINE
  5
196
  8
0
 62
     7
 10
138.078
 20
206.78200000000001
 30
0.0
 11
138.93299999999999
 21
207.601
 31
0.0
  0
LINE
  5
197
  8
0
 62
     7
 10
136.976
 20
208.78800000000001
 30
0.0
 11
139.45099999999999
 21
206.20400000000001
 31
0.0
  0
LINE
  5
198
  8
0
 62
     7
 10
162.55199999999999
 20
205.70500000000001
 30
0.0
 11
163.66200000000001
 21
207.70699999999999
 31
0.0
  0
LINE
  5
199
  8
0
 62
     7
 10
163.66200000000001
 20
207.70699999999999
 30
0.0
 11
161.69999999999999
 21
206.52799999999999
 31
0.0
  0
LINE
  5
19A
  8
0
 62
     7
 10
161.69999999999999
 20
206.52799999999999
 30
0.0
 11
162.55199999999999
 21
205.70500000000001
 31
0.0
  0
LINE
  5
19B
  8
0
 62
     7
 10
161.173
 20
205.15199999999999
 30
0.0
 11
167.63800000000001
 21
211.82900000000001
 31
0.0
  0
LINE
  5
19C
  8
0
 62
     7
 10
172.678
 20
204.745
 30
0.0
 11
171.56800000000001
 21
202.744
 31
0.0
  0
LINE
  5
19D
  8
0
 62
     7
 10
171.56800000000001
 20
202.744
 30
0.0
 11
173.53
 21
203.922
 31
0.0
  0
LINE
  5
19E
  8
0
 62
     7
 10
173.53
 20
203.922
 30
0.0
 11
172.678
 21
204.745
 31
0.0
  0
LINE
  5
19F
  8
0
 62
     7
 10
169.626
 20
199.88
 30
0.0
 11
170.73599999999999
 21
201.88200000000001
 31
0.0
  0
LINE
  5
1A0
  8
0
 62
     7
 10
170.73599999999999
 20
201.88200000000001
 30
0.0
 11
168.774
 21
200.703
 31
0.0
  0
LINE
  5
1A1
  8
0
 62
     7
 10
168.774
 20
200.703
 30
0.0
 11
169.626
 21
199.88
 31
0.0
  0
LINE
  5
1A2
  8
0
 62
     7
 10
167.345
 20
198.38999999999999
 30
0.0
 11
174.42099999999999
 21
205.77199999999999
 31
0.0
  0
LINE
  5
1A3
  8
0
 62
     7
 10
57.826599999999992
 20
210.565
 30
0.0
 11
56.717100000000002
 21
208.56299999999999
 31
0.0
  0
LINE
  5
1A4
  8
0
 62
     7
 10
56.717100000000002
 20
208.56299999999999
 30
0.0
 11
58.678800000000003
 21
209.74199999999999
 31
0.0
  0
LINE
  5
1A5
  8
0
 62
     7
 10
58.678800000000003
 20
209.74199999999999
 30
0.0
 11
57.826599999999992
 21
210.565
 31
0.0
  0
LINE
  5
1A6
  8
0
 62
     7
 10
43.654299999999992
 20
194.06099999999989
 30
0.0
 11
44.763800000000003
 21
196.06200000000001
 31
0.0
  0
LINE
  5
1A7
  8
0
 62
     7
 10
44.763800000000003
 20
196.06200000000001
 30
0.0
 11
42.802100000000003
 21
194.88399999999999
 31
0.0
  0
LINE
  5
1A8
  8
0
 62
     7
 10
42.802100000000003
 20
194.88399999999999
 30
0.0
 11
43.654299999999992
 21
194.06099999999989
 31
0.0
  0
LINE
  5
1A9
  8
0
 62
     7
 10
75.946200000000005
 20
205.96799999999999
 30
0.0
 11
74.836699999999993
 21
203.96600000000001
 31
0.0
  0
LINE
  5
1AA
  8
0
 62
     7
 10
74.836699999999993
 20
203.96600000000001
 30
0.0
 11
76.798400000000001
 21
205.14500000000001
 31
0.0
  0
LINE
  5
1AB
  8
0
 62
     7
 10
76.798400000000001
 20
205.14500000000001
 30
0.0
 11
75.946200000000005
 21
205.96799999999999
 31
0.0
  0
LINE
  5
1AC
  8
0
 62
     7
 10
70.533999999999992
 20
198.65799999999999
 30
0.0
 11
71.643500000000003
 21
200.65899999999999
 31
0.0
  0
LINE
  5
1AD
  8
0
 62
     7
 10
71.643500000000003
 20
200.65899999999999
 30
0.0
 11
69.681799999999996
 21
199.48099999999999
 31
0.0
  0
LINE
  5
1AE
  8
0
 62
     7
 10
69.681799999999996
 20
199.48099999999999
 30
0.0
 11
70.533999999999992
 21
198.65799999999999
 31
0.0
  0
LINE
  5
1AF
  8
0
 62
     7
 10
42.195099999999989
 20
193.37599999999989
 30
0.0
 11
59.613999999999997
 21
211.62100000000001
 31
0.0
  0
LINE
  5
1B0
  8
0
 62
     7
 10
68.744200000000006
 20
197.602
 30
0.0
 11
77.913700000000006
 21
207.191
 31
0.0
  0
LINE
  5
1B1
  8
0
 62
     7
 10
75.451000000000008
 20
176.14400000000001
 30
0.0
 11
73.240600000000001
 21
175.55199999999999
 31
0.0
  0
LINE
  5
1B2
  8
0
 62
     7
 10
73.240600000000001
 20
175.55199999999999
 30
0.0
 11
75.451000000000008
 21
174.959
 31
0.0
  0
LINE
  5
1B3
  8
0
 62
     7
 10
75.451000000000008
 20
174.959
 30
0.0
 11
75.451000000000008
 21
176.14400000000001
 31
0.0
  0
LINE
  5
1B4
  8
0
 62
     7
 10
88.030000000000001
 20
174.96700000000001
 30
0.0
 11
90.240499999999997
 21
175.559
 31
0.0
  0
LINE
  5
1B5
  8
0
 62
     7
 10
90.240499999999997
 20
175.559
 30
0.0
 11
88.030000000000001
 21
176.15100000000001
 31
0.0
  0
LINE
  5
1B6
  8
0
 62
     7
 10
88.030000000000001
 20
176.15100000000001
 30
0.0
 11
88.030000000000001
 21
174.96700000000001
 31
0.0
  0
LINE
  5
1B7
  8
0
 62
     7
 10
73.240600000000001
 20
175.55199999999999
 30
0.0
 11
90.240499999999997
 21
175.55199999999999
 31
0.0
  0
ARC
  5
1B8
  8
0
 62
     7
 10
158.451019
 20
202.31253100000001
 30
0.0
 40
3.4998089999999991
 50
270.00425000000001
 51
0.00422
  0
ARC
  5
1B9
  8
0
 62
     7
 10
158.45119199999999
 20
202.31287399999999
 30
0.0
 40
3.500151999999999
 50
180.00142
 51
270.00143000000003
  0
ARC
  5
1BA
  8
0
 62
     7
 10
158.45119299999999
 20
202.312702
 30
0.0
 40
3.5001540000000002
 50
89.998589999999993
 51
179.99856
  0
ARC
  5
1BB
  8
0
 62
     7
 10
158.451019
 20
202.31304700000001
 30
0.0
 40
3.4998089999999991
 50
359.99578000000002
 51
89.995750000000001
  0
ARC
  5
1BC
  8
0
 62
     7
 10
73.240521999999999
 20
202.312703
 30
0.0
 40
3.4999809999999991
 50
270.00143000000003
 51
0.0014
  0
ARC
  5
1BD
  8
0
 62
     7
 10
73.240521999999999
 20
202.31287399999999
 30
0.0
 40
3.500151999999999
 50
180.00142
 51
270.00143000000003
  0
ARC
  5
1BE
  8
0
 62
     7
 10
73.240523999999994
 20
202.312702
 30
0.0
 40
3.5001540000000002
 50
89.998589999999993
 51
179.99856
  0
ARC
  5
1BF
  8
0
 62
     7
 10
73.240521999999999
 20
202.31287399999999
 30
0.0
 40
3.4999809999999991
 50
359.99860000000001
 51
89.998570000000001
  0
ARC
  5
1C0
  8
0
 62
     7
 10
124.82753200000001
 20
202.336141
 30
0.0
 40
0.6237490000000001
 50
272.12908199999998
 51
357.85447999999991
  0
ARC
  5
1C1
  8
0
 62
     7
 10
124.87327399999999
 20
202.334822
 30
0.0
 40
0.62241
 50
182.0286989999999
 51
267.92195900000002
  0
ARC
  5
1C2
  8
0
 62
     7
 10
124.874545
 20
202.28948600000001
 30
0.0
 40
0.623726
 50
92.190491000000009
 51
177.85885099999999
  0
ARC
  5
1C3
  8
0
 62
     7
 10
124.828155
 20
202.29005900000001
 30
0.0
 40
0.623105
 50
2.0904790000000002
 51
87.925959000000006
  0
LINE
  5
1C4
  8
0
  6
AIGENLINE001
 62
     7
 10
124.851
 20
203.84999999999999
 30
0.0
 11
124.851
 21
200.792
 31
0.0
  0
ARC
  5
1C5
  8
0
 62
     7
 10
171.12786299999999
 20
202.33609200000001
 30
0.0
 40
0.623726
 50
272.19051100000001
 51
357.85887100000002
  0
ARC
  5
1C6
  8
0
 62
     7
 10
171.17425399999999
 20
202.33551800000001
 30
0.0
 40
0.623105
 50
182.09048100000001
 51
267.925996
  0
ARC
  5
1C7
  8
0
 62
     7
 10
171.17487600000001
 20
202.28943699999999
 30
0.0
 40
0.6237490000000001
 50
92.12906199999999
 51
177.85445999999999
  0
ARC
  5
1C8
  8
0
 62
     7
 10
171.12913399999999
 20
202.29075499999999
 30
0.0
 40
0.62241
 50
2.0286960000000001
 51
87.921921999999995
  0
ARC
  5
1C9
  8
0
 62
     7
 10
158.36352600000001
 20
202.400541
 30
0.0
 40
2.3893239999999998
 50
272.10476699999998
 51
357.89524299999999
  0
ARC
  5
1CA
  8
0
 62
     7
 10
158.53981400000001
 20
202.40132500000001
 30
0.0
 40
2.390136
 50
182.12286399999991
 51
267.87716499999999
  0
ARC
  5
1CB
  8
0
 62
     7
 10
158.53903
 20
202.22503800000001
 30
0.0
 40
2.3893230000000001
 50
92.104730000000004
 51
177.89524
  0
ARC
  5
1CC
  8
0
 62
     7
 10
158.36272199999999
 20
202.224233
 30
0.0
 40
2.390158
 50
2.1233140000000001
 51
87.876676000000003
  0
LINE
  5
1CD
  8
0
  6
AIGENLINE001
 62
     7
 10
171.15199999999999
 20
203.84999999999999
 30
0.0
 11
171.15199999999999
 21
200.792
 31
0.0
  0
LINE
  5
1CE
  8
0
  6
AIGENLINE001
 62
     7
 10
158.45099999999999
 20
211.876
 30
0.0
 11
158.45099999999999
 21
192.47200000000001
 31
0.0
  0
LINE
  5
1CF
  8
0
  6
AIGENLINE001
 62
     7
 10
123.233
 20
202.31299999999999
 30
0.0
 11
172.785
 21
202.31299999999999
 31
0.0
  0
ARC
  5
1D0
  8
0
  6
AIGENLINE003
 62
     7
 10
39.617255999999998
 20
202.335748
 30
0.0
 40
0.6233430000000001
 50
272.09438799999998
 51
357.88917400000003
  0
ARC
  5
1D1
  8
0
  6
AIGENLINE003
 62
     7
 10
39.662590999999999
 20
202.33516499999999
 30
0.0
 40
0.6227520000000001
 50
182.059181
 51
267.924396
  0
ARC
  5
1D2
  8
0
  6
AIGENLINE003
 62
     7
 10
39.663150000000002
 20
202.28985399999999
 30
0.0
 40
0.6233310000000002
 50
92.125053000000008
 51
177.89136999999999
  0
ARC
  5
1D3
  8
0
  6
AIGENLINE003
 62
     7
 10
39.617490000000011
 20
202.290064
 30
0.0
 40
0.6231
 50
2.0900620000000001
 51
87.926376000000005
  0
LINE
  5
1D4
  8
0
  6
AIGENLINE001
 62
     7
 10
39.640000000000001
 20
203.84999999999999
 30
0.0
 11
39.640000000000001
 21
200.792
 31
0.0
  0
ARC
  5
1D5
  8
0
  6
AIGENLINE003
 62
     7
 10
85.917563999999985
 20
202.335748
 30
0.0
 40
0.6233430000000001
 50
272.09438799999998
 51
357.88917400000003
  0
ARC
  5
1D6
  8
0
  6
AIGENLINE003
 62
     7
 10
85.962900000000005
 20
202.33516499999999
 30
0.0
 40
0.6227520000000001
 50
182.059181
 51
267.924396
  0
ARC
  5
1D7
  8
0
  6
AIGENLINE003
 62
     7
 10
85.963459000000014
 20
202.28985399999999
 30
0.0
 40
0.6233310000000002
 50
92.125053000000008
 51
177.89136999999999
  0
ARC
  5
1D8
  8
0
  6
AIGENLINE003
 62
     7
 10
85.917799000000002
 20
202.290064
 30
0.0
 40
0.6231
 50
2.0900620000000001
 51
87.926376000000005
  0
ARC
  5
1D9
  8
0
 62
     7
 10
50.740546999999999
 20
202.31279000000001
 30
0.0
 40
8.6500020000000006
 50
270.00002000000001
 51
359.99999000000003
  0
ARC
  5
1DA
  8
0
 62
     7
 10
50.740546999999999
 20
202.31278699999999
 30
0.0
 40
8.6499990000000011
 50
179.99996999999999
 51
270.00002000000001
  0
ARC
  5
1DB
  8
0
 62
     7
 10
50.740549999999999
 20
202.31278699999999
 30
0.0
 40
8.6500020000000006
 50
90.0
 51
179.99996999999999
  0
ARC
  5
1DC
  8
0
 62
     7
 10
50.740546999999999
 20
202.31278699999999
 30
0.0
 40
8.6500020000000006
 50
0.00001
 51
89.999980000000008
  0
ARC
  5
1DD
  8
0
 62
     7
 10
50.740546999999999
 20
202.31279000000001
 30
0.0
 40
7.5000220000000004
 50
270.00002000000001
 51
359.99999000000003
  0
ARC
  5
1DE
  8
0
 62
     7
 10
50.740546999999999
 20
202.31278800000001
 30
0.0
 40
7.5000189999999991
 50
179.99996999999999
 51
270.00002000000001
  0
ARC
  5
1DF
  8
0
 62
     7
 10
50.740549999999999
 20
202.31278800000001
 30
0.0
 40
7.5000220000000004
 50
90.0
 51
179.99996999999999
  0
ARC
  5
1E0
  8
0
 62
     7
 10
50.740546999999999
 20
202.31278800000001
 30
0.0
 40
7.5000220000000004
 50
0.00001
 51
89.999980000000008
  0
ARC
  5
1E1
  8
0
 62
     7
 10
50.740375
 20
202.31261799999999
 30
0.0
 40
6.249960999999999
 50
270.001599
 51
0.001569
  0
ARC
  5
1E2
  8
0
 62
     7
 10
50.740546999999999
 20
202.31278800000001
 30
0.0
 40
6.2501309999999988
 50
179.99996999999999
 51
270.00002000000001
  0
ARC
  5
1E3
  8
0
 62
     7
 10
50.740549000000001
 20
202.31278800000001
 30
0.0
 40
6.2501329999999991
 50
90.0
 51
179.99996999999999
  0
ARC
  5
1E4
  8
0
 62
     7
 10
50.740375
 20
202.31296
 30
0.0
 40
6.249960999999999
 50
359.99843099999998
 51
89.998401000000001
  0
ARC
  5
1E5
  8
0
 62
     7
 10
50.740461000000003
 20
202.312704
 30
0.0
 40
4.9999859999999989
 50
270.00100700000002
 51
0.000977
  0
ARC
  5
1E6
  8
0
 62
     7
 10
50.740461000000003
 20
202.31287399999999
 30
0.0
 40
5.0001559999999987
 50
180.0009969999999
 51
270.00100700000002
  0
ARC
  5
1E7
  8
0
 62
     7
 10
50.740462999999998
 20
202.312702
 30
0.0
 40
5.000157999999999
 50
89.999013000000005
 51
179.99898300000001
  0
ARC
  5
1E8
  8
0
 62
     7
 10
50.740461000000003
 20
202.31287399999999
 30
0.0
 40
4.9999859999999989
 50
359.99902300000002
 51
89.998992999999999
  0
ARC
  5
1E9
  8
0
 62
     7
 10
50.740375
 20
202.31261699999999
 30
0.0
 40
3.7498390000000001
 50
270.00265200000001
 51
0.002622
  0
ARC
  5
1EA
  8
0
 62
     7
 10
50.740375
 20
202.31296
 30
0.0
 40
3.7501820000000001
 50
180.0026419999999
 51
270.00265200000001
  0
ARC
  5
1EB
  8
0
 62
     7
 10
50.740377000000002
 20
202.31261599999999
 30
0.0
 40
3.7501829999999998
 50
89.997367999999994
 51
179.99733800000001
  0
ARC
  5
1EC
  8
0
 62
     7
 10
50.740375
 20
202.31296
 30
0.0
 40
3.7498390000000001
 50
359.99737800000003
 51
89.997348000000002
  0
ARC
  5
1ED
  8
0
 62
     7
 10
50.740462000000001
 20
202.312703
 30
0.0
 40
2.4998640000000001
 50
270.00199400000002
 51
0.001964
  0
ARC
  5
1EE
  8
0
 62
     7
 10
50.740462000000001
 20
202.31287399999999
 30
0.0
 40
2.500035
 50
180.00198399999999
 51
270.00199400000002
  0
ARC
  5
1EF
  8
0
 62
     7
 10
50.740462999999998
 20
202.312702
 30
0.0
 40
2.5000360000000001
 50
89.998025999999996
 51
179.997996
  0
ARC
  5
1F0
  8
0
 62
     7
 10
50.740462000000001
 20
202.31287399999999
 30
0.0
 40
2.4998640000000001
 50
359.99803600000001
 51
89.998006000000004
  0
ARC
  5
1F1
  8
0
 62
     7
 10
50.696662000000003
 20
202.356675
 30
0.0
 40
1.1946719999999991
 50
272.10522400000002
 51
357.89478600000001
  0
ARC
  5
1F2
  8
0
 62
     7
 10
50.784032000000003
 20
202.35627299999999
 30
0.0
 40
1.1942559999999991
 50
182.08667500000001
 51
267.91335499999991
  0
ARC
  5
1F3
  8
0
 62
     7
 10
50.784434000000012
 20
202.26890299999999
 30
0.0
 40
1.1946719999999991
 50
92.105187000000015
 51
177.89478299999999
  0
ARC
  5
1F4
  8
0
 62
     7
 10
50.697054000000001
 20
202.269295
 30
0.0
 40
1.194266
 50
2.0871159999999991
 51
87.912873999999988
  0
LINE
  5
1F5
  8
0
 62
     7
 10
50.74049999999999
 20
191.52799999999999
 30
0.0
 11
50.74049999999999
 21
174.852
 31
0.0
  0
LINE
  5
1F6
  8
0
  6
AIGENLINE003
 62
     7
 10
56.040199999999999
 20
124.325
 30
0.0
 11
56.040199999999999
 21
120.0
 31
0.0
  0
ARC
  5
1F7
  8
0
  6
AIGENLINE003
 62
     7
 10
57.454742000000003
 20
120.07034
 30
0.0
 40
1.4163019999999991
 50
182.83360500000001
 51
186.845609
  0
ARC
  5
1F8
  8
0
  6
AIGENLINE003
 62
     7
 10
60.047733000000001
 20
120.34400599999999
 30
0.0
 40
4.0236000000000001
 50
186.31368000000001
 51
212.168263
  0
ARC
  5
1F9
  8
0
  6
AIGENLINE003
 62
     7
 10
59.211137000000001
 20
119.882232
 30
0.0
 40
3.0700630000000002
 50
213.18588399999999
 51
259.40774299999998
  0
ARC
  5
1FA
  8
0
  6
AIGENLINE003
 62
     7
 10
59.418525000000002
 20
120.790502
 30
0.0
 40
4.001148999999999
 50
258.87937499999998
 51
265.46545099999997
  0
LINE
  5
1FB
  8
0
  6
AIGENLINE003
 62
     7
 10
59.102200000000003
 20
116.80200000000001
 30
0.0
 11
70.489999999999995
 21
115.82599999999999
 31
0.0
  0
LINE
  5
1FC
  8
0
  6
AIGENLINE003
 62
     7
 10
55.44039999999999
 20
124.325
 30
0.0
 11
55.44039999999999
 21
120.0
 31
0.0
  0
LINE
  5
1FD
  8
0
  6
AIGENLINE001
 62
     7
 10
50.74049999999999
 20
131.084
 30
0.0
 11
50.74049999999999
 21
114.387
 31
0.0
  0
LINE
  5
1FE
  8
0
  6
AIGENLINE001
 62
     7
 10
50.74049999999999
 20
212.21899999999999
 30
0.0
 11
50.74049999999999
 21
192.22799999999989
 31
0.0
  0
ARC
  5
1FF
  8
0
 62
     7
 10
73.152465000000007
 20
202.40093300000001
 30
0.0
 40
2.3897300000000001
 50
272.113811
 51
357.88619899999998
  0
ARC
  5
200
  8
0
 62
     7
 10
73.329144999999997
 20
202.40132500000001
 30
0.0
 40
2.390136
 50
182.12286399999991
 51
267.87716499999999
  0
ARC
  5
201
  8
0
 62
     7
 10
73.328752000000009
 20
202.22464600000001
 30
0.0
 40
2.3897289999999991
 50
92.113772999999981
 51
177.88619700000001
  0
ARC
  5
202
  8
0
 62
     7
 10
73.152057999999997
 20
202.22423800000001
 30
0.0
 40
2.3901520000000001
 50
2.1231969999999998
 51
87.876793000000006
  0
ARC
  5
203
  8
0
 62
     7
 10
87.740418000000005
 20
187.812635
 30
0.0
 40
2.5001220000000002
 50
270.00002000000001
 51
359.99999000000003
  0
ARC
  5
204
  8
0
 62
     7
 10
87.440434999999994
 20
187.81272100000001
 30
0.0
 40
3.5001540000000002
 50
269.99860999999999
 51
359.99858
  0
ARC
  5
205
  8
0
 62
     7
 10
87.740418000000005
 20
216.81277
 30
0.0
 40
2.5001220000000002
 50
0.00001
 51
89.999980000000008
  0
ARC
  5
206
  8
0
 62
     7
 10
87.440434999999994
 20
216.81268399999999
 30
0.0
 40
3.5001540000000002
 50
0.00142
 51
90.001390000000001
  0
LINE
  5
207
  8
0
  6
AIGENLINE001
 62
     7
 10
85.940299999999993
 20
203.84999999999999
 30
0.0
 11
85.940299999999993
 21
200.792
 31
0.0
  0
LINE
  5
208
  8
0
 62
     7
 10
36.640000000000001
 20
186.21199999999999
 30
0.0
 11
36.640000000000001
 21
168.322
 31
0.0
  0
LINE
  5
209
  8
0
 62
     7
 10
35.939599999999999
 20
185.863
 30
0.0
 11
35.939599999999999
 21
161.42400000000001
 31
0.0
  0
LINE
  5
20A
  8
0
 62
     7
 10
112.313
 20
218.102
 30
0.0
 11
111.721
 21
220.31299999999999
 31
0.0
  0
LINE
  5
20B
  8
0
 62
     7
 10
111.721
 20
220.31299999999999
 30
0.0
 11
111.128
 21
218.102
 31
0.0
  0
LINE
  5
20C
  8
0
 62
     7
 10
111.128
 20
218.102
 30
0.0
 11
112.313
 21
218.102
 31
0.0
  0
LINE
  5
20D
  8
0
 62
     7
 10
111.136
 20
186.523
 30
0.0
 11
111.72799999999999
 21
184.31299999999999
 31
0.0
  0
LINE
  5
20E
  8
0
 62
     7
 10
111.72799999999999
 20
184.31299999999999
 30
0.0
 11
112.31999999999999
 21
186.523
 31
0.0
  0
LINE
  5
20F
  8
0
 62
     7
 10
112.31999999999999
 20
186.523
 30
0.0
 11
111.136
 21
186.523
 31
0.0
  0
LINE
  5
210
  8
0
 62
     7
 10
111.721
 20
220.31299999999999
 30
0.0
 11
111.721
 21
184.31299999999999
 31
0.0
  0
LINE
  5
211
  8
0
 62
     7
 10
94.424099999999996
 20
196.97999999999999
 30
0.0
 11
93.192999999999998
 21
195.05099999999999
 31
0.0
  0
LINE
  5
212
  8
0
 62
     7
 10
93.192999999999998
 20
195.05099999999999
 30
0.0
 11
93.294600000000003
 21
197.33699999999999
 31
0.0
  0
LINE
  5
213
  8
0
 62
     7
 10
93.294600000000003
 20
197.33699999999999
 30
0.0
 11
94.424099999999996
 21
196.97999999999999
 31
0.0
  0
LINE
  5
214
  8
0
 62
     7
 10
94.423100000000005
 20
207.648
 30
0.0
 11
93.191999999999993
 21
209.577
 31
0.0
  0
LINE
  5
215
  8
0
 62
     7
 10
93.191999999999993
 20
209.577
 30
0.0
 11
93.293599999999984
 21
207.291
 31
0.0
  0
LINE
  5
216
  8
0
 62
     7
 10
93.293599999999984
 20
207.291
 30
0.0
 11
94.423100000000005
 21
207.648
 31
0.0
  0
LINE
  5
217
  8
0
 62
     7
 10
100.52500000000001
 20
218.102
 30
0.0
 11
99.932699999999997
 21
220.31299999999999
 31
0.0
  0
LINE
  5
218
  8
0
 62
     7
 10
99.932699999999997
 20
220.31299999999999
 30
0.0
 11
99.340299999999985
 21
218.102
 31
0.0
  0
LINE
  5
219
  8
0
 62
     7
 10
99.340299999999985
 20
218.102
 30
0.0
 11
100.52500000000001
 21
218.102
 31
0.0
  0
LINE
  5
21A
  8
0
 62
     7
 10
99.340500000000006
 20
204.523
 30
0.0
 11
99.932699999999997
 21
202.31299999999999
 31
0.0
  0
LINE
  5
21B
  8
0
 62
     7
 10
99.932699999999997
 20
202.31299999999999
 30
0.0
 11
100.52500000000001
 21
204.523
 31
0.0
  0
LINE
  5
21C
  8
0
 62
     7
 10
100.52500000000001
 20
204.523
 30
0.0
 11
99.340500000000006
 21
204.523
 31
0.0
  0
LINE
  5
21D
  8
0
 62
     7
 10
99.932699999999997
 20
220.31299999999999
 30
0.0
 11
99.932699999999997
 21
202.31299999999999
 31
0.0
  0
LINE
  5
21E
  8
0
 62
     7
 10
106.565
 20
217.102
 30
0.0
 11
105.973
 21
219.31299999999999
 31
0.0
  0
LINE
  5
21F
  8
0
 62
     7
 10
105.973
 20
219.31299999999999
 30
0.0
 11
105.381
 21
217.102
 31
0.0
  0
LINE
  5
220
  8
0
 62
     7
 10
105.381
 20
217.102
 30
0.0
 11
106.565
 21
217.102
 31
0.0
  0
LINE
  5
221
  8
0
 62
     7
 10
105.381
 20
187.523
 30
0.0
 11
105.973
 21
185.31299999999999
 31
0.0
  0
LINE
  5
222
  8
0
 62
     7
 10
105.973
 20
185.31299999999999
 30
0.0
 11
106.565
 21
187.523
 31
0.0
  0
LINE
  5
223
  8
0
 62
     7
 10
106.565
 20
187.523
 30
0.0
 11
105.381
 21
187.523
 31
0.0
  0
LINE
  5
224
  8
0
 62
     7
 10
105.973
 20
219.31299999999999
 30
0.0
 11
105.973
 21
185.31299999999999
 31
0.0
  0
LINE
  5
225
  8
0
 62
     7
 10
90.939899999999994
 20
185.863
 30
0.0
 11
90.939899999999994
 21
161.42400000000001
 31
0.0
  0
LINE
  5
226
  8
0
 62
     7
 10
90.240499999999997
 20
186.21199999999999
 30
0.0
 11
90.240499999999997
 21
168.322
 31
0.0
  0
LINE
  5
227
  8
0
 62
     7
 10
73.240600000000001
 20
196.447
 30
0.0
 11
73.240600000000001
 21
174.852
 31
0.0
  0
LINE
  5
228
  8
0
  6
AIGENLINE001
 62
     7
 10
73.240600000000001
 20
207.613
 30
0.0
 11
73.240600000000001
 21
197.14699999999999
 31
0.0
  0
LINE
  5
229
  8
0
 62
     7
 10
90.240499999999997
 20
216.81299999999999
 30
0.0
 11
90.240499999999997
 21
187.81299999999999
 31
0.0
  0
LINE
  5
22A
  8
0
 62
     7
 10
90.940600000000003
 20
216.81299999999999
 30
0.0
 11
90.940600000000003
 21
187.81299999999999
 31
0.0
  0
ARC
  5
22B
  8
0
 62
     7
 10
39.140149000000001
 20
187.812634
 30
0.0
 40
2.500121
 50
179.99996999999999
 51
270.00002000000001
  0
ARC
  5
22C
  8
0
 62
     7
 10
39.440131999999998
 20
187.8127199999999
 30
0.0
 40
3.500151999999999
 50
180.00142
 51
270.00143000000003
  0
ARC
  5
22D
  8
0
 62
     7
 10
39.140149999999998
 20
216.81277
 30
0.0
 40
2.5001220000000002
 50
90.0
 51
179.99996999999999
  0
ARC
  5
22E
  8
0
 62
     7
 10
39.440134
 20
216.81268399999999
 30
0.0
 40
3.5001540000000002
 50
89.998589999999993
 51
179.99856
  0
LINE
  5
22F
  8
0
 62
     7
 10
36.640000000000001
 20
216.81299999999999
 30
0.0
 11
36.640000000000001
 21
187.81299999999999
 31
0.0
  0
LINE
  5
230
  8
0
 62
     7
 10
35.939999999999998
 20
216.81299999999999
 30
0.0
 11
35.939999999999998
 21
187.81299999999999
 31
0.0
  0
LINE
  5
231
  8
0
 62
     7
 10
39.140099999999997
 20
219.31299999999999
 30
0.0
 11
87.740399999999994
 21
219.31299999999999
 31
0.0
  0
LINE
  5
232
  8
0
 62
     7
 10
39.140099999999997
 20
185.31299999999999
 30
0.0
 11
87.740399999999994
 21
185.31299999999999
 31
0.0
  0
LINE
  5
233
  8
0
 62
     7
 10
39.440199999999997
 20
184.31299999999999
 30
0.0
 11
87.440299999999993
 21
184.31299999999999
 31
0.0
  0
LINE
  5
234
  8
0
  6
AIGENLINE002
 62
     7
 10
73.240600000000001
 20
202.31299999999999
 30
0.0
 11
93.875500000000002
 21
194.80199999999999
 31
0.0
  0
LINE
  5
235
  8
0
  6
AIGENLINE002
 62
     7
 10
73.240600000000001
 20
202.31299999999999
 30
0.0
 11
93.955799999999996
 21
209.85300000000001
 31
0.0
  0
LINE
  5
236
  8
0
  6
AIGENLINE001
 62
     7
 10
32.922400000000003
 20
202.31299999999999
 30
0.0
 11
93.568499999999986
 21
202.31299999999999
 31
0.0
  0
LINE
  5
237
  8
0
 62
     7
 10
39.440199999999997
 20
220.31299999999999
 30
0.0
 11
87.440299999999993
 21
220.31299999999999
 31
0.0
  0
LINE
  5
238
  8
0
 62
     7
 10
174.42099999999999
 20
205.77199999999999
 30
0.0
 11
186.33799999999999
 21
205.77199999999999
 31
0.0
  0
LINE
  5
239
  8
0
 62
     7
 10
67.090400000000002
 20
211.62100000000001
 30
0.0
 11
59.613999999999997
 21
211.62100000000001
 31
0.0
  0
LINE
  5
23A
  8
0
 62
     7
 10
83.574399999999997
 20
207.191
 30
0.0
 11
77.913700000000006
 21
207.191
 31
0.0
  0
LINE
  5
23B
  8
_________2
 62
     7
 10
210.24000000000001
 20
148.93100000000001
 30
0.0
 11
188.489
 21
148.93100000000001
 31
0.0
  0
LINE
  5
23C
  8
_________2
 62
     7
 10
105.239
 20
17.4282
 30
0.0
 11
105.239
 21
0.447865
 31
0.0
  0
LINE
  5
23D
  8
_________2
 62
     7
 10
105.239
 20
297.44999999999999
 30
0.0
 11
105.239
 21
280.43000000000001
 31
0.0
  0
LINE
  5
23E
  8
_________2
 62
     7
 10
21.988499999999998
 20
148.93100000000001
 30
0.0
 11
0.238402
 21
148.93100000000001
 31
0.0
  0
LINE
  5
23F
  8
_________2
 62
     7
 10
81.679900000000004
 20
51.323999999999998
 30
0.0
 11
79.493700000000004
 21
51.323999999999998
 31
0.0
  0
LINE
  5
240
  8
_________2
 62
     7
 10
82.172600000000017
 20
51.323999999999998
 30
0.0
 11
81.920400000000001
 21
51.323999999999998
 31
0.0
  0
LINE
  5
241
  8
_________2
 62
     7
 10
82.665199999999984
 20
51.323999999999998
 30
0.0
 11
85.590100000000007
 21
51.323999999999998
 31
0.0
  0
LINE
  5
242
  8
_________2
 62
     7
 10
82.172600000000017
 20
51.323999999999998
 30
0.0
 11
82.424400000000006
 21
51.323999999999998
 31
0.0
  0
LINE
  5
243
  8
_________2
 62
     7
 10
75.77600000000001
 20
51.323999999999998
 30
0.0
 11
73.589399999999998
 21
51.323999999999998
 31
0.0
  0
LINE
  5
244
  8
_________2
 62
     7
 10
76.2684
 20
51.323999999999998
 30
0.0
 11
76.016499999999994
 21
51.323999999999998
 31
0.0
  0
LINE
  5
245
  8
_________2
 62
     7
 10
76.2684
 20
51.816600000000001
 30
0.0
 11
76.2684
 21
54.003599999999999
 31
0.0
  0
LINE
  5
246
  8
_________2
 62
     7
 10
76.2684
 20
51.323999999999998
 30
0.0
 11
76.2684
 21
51.5762
 31
0.0
  0
LINE
  5
247
  8
_________2
 62
     7
 10
76.76100000000001
 20
51.323999999999998
 30
0.0
 11
78.947999999999993
 21
51.323999999999998
 31
0.0
  0
LINE
  5
248
  8
_________2
 62
     7
 10
76.2684
 20
51.323999999999998
 30
0.0
 11
76.520499999999998
 21
51.323999999999998
 31
0.0
  0
LINE
  5
249
  8
_________2
 62
     7
 10
76.2684
 20
50.832000000000001
 30
0.0
 11
76.2684
 21
48.645099999999999
 31
0.0
  0
LINE
  5
24A
  8
_________2
 62
     7
 10
76.2684
 20
51.323999999999998
 30
0.0
 11
76.2684
 21
51.072499999999998
 31
0.0
  0
LINE
  5
24B
  8
_________2
 62
     7
 10
79.979399999999984
 20
50.104399999999998
 30
0.0
 11
85.157399999999996
 21
49.239699999999999
 31
0.0
  0
LINE
  5
24C
  8
_________2
 62
     7
 10
79.979399999999984
 20
52.543599999999998
 30
0.0
 11
85.157399999999996
 21
53.408999999999999
 31
0.0
  0
LINE
  5
24D
  8
_________2
 62
     7
 10
85.157399999999996
 20
49.239699999999999
 30
0.0
 11
85.157399999999996
 21
53.408999999999999
 31
0.0
  0
LINE
  5
24E
  8
_________2
 62
     7
 10
79.979399999999984
 20
50.104399999999998
 30
0.0
 11
79.979399999999984
 21
52.543599999999998
 31
0.0
  0
ARC
  5
24F
  8
_________2
 62
     7
 10
76.221776000000006
 20
51.277046999999989
 30
0.0
 40
1.2673589999999999
 50
2.122214
 51
87.893958999999995
  0
ARC
  5
250
  8
_________2
 62
     7
 10
76.315273000000005
 20
51.277056000000002
 30
0.0
 40
1.267363
 50
92.121785999999986
 51
177.878185
  0
ARC
  5
251
  8
_________2
 62
     7
 10
76.315273000000005
 20
51.370902000000001
 30
0.0
 40
1.267363
 50
182.121815
 51
267.87821400000001
  0
ARC
  5
252
  8
_________2
 62
     7
 10
76.221451999999999
 20
51.371234999999999
 30
0.0
 40
1.267695999999999
 50
272.12015300000002
 51
357.863674
  0
ARC
  5
253
  8
_________2
 62
     7
 10
76.268349999999984
 20
51.323979000000001
 30
0.0
 40
2.0849849999999992
 50
0.00001
 51
89.999980000000008
  0
ARC
  5
254
  8
_________2
 62
     7
 10
76.268523000000002
 20
51.324151000000001
 30
0.0
 40
2.084813
 50
90.004733999999999
 51
180.00474399999999
  0
ARC
  5
255
  8
_________2
 62
     7
 10
76.348021000000003
 20
51.404007
 30
0.0
 40
2.1657899999999999
 50
182.117637
 51
267.891862
  0
ARC
  5
256
  8
_________2
 62
     7
 10
76.188378999999983
 20
51.404665999999992
 30
0.0
 40
2.1664590000000001
 50
272.11546800000002
 51
357.86560400000002
  0
TEXT
  5
257
  8
_________2
 62
     7
 10
109.544
 20
23.198699999999999
 30
0.0
 40
3.0923400000000001
  1
図番
 41
0.5
  0
LINE
  5
258
  8
_________2
 62
     7
 10
108.489
 20
27.428000000000001
 30
0.0
 11
188.49000000000001
 21
27.428000000000001
 31
0.0
  0
TEXT
  5
259
  8
_________2
 62
     7
 10
109.544
 20
33.19850000000001
 30
0.0
 40
3.0923400000000001
  1
品番
 41
0.5
  0
TEXT
  5
25A
  8
_________2
 62
     7
 10
109.544
 20
53.337299999999999
 30
0.0
 40
3.0923400000000001
  1
名称
 41
0.5
  0
TEXT
  5
25B
  8
_________2
 62
     7
 10
96.784058333333334
 20
48.341200000000001
 30
0.0
 40
3.6545800000000002
  1
mm
 41
0.5
 72
     1
 11
98.306799999999996
 21
48.341200000000001
 31
0.0
  0
TEXT
  5
25C
  8
_________2
 62
     7
 10
90.582099999999997
 20
53.337299999999999
 30
0.0
 40
3.0923400000000001
  1
単位
 41
0.5
  0
TEXT
  5
25D
  8
_________2
 62
     7
 10
90.582099999999997
 20
40.930100000000003
 30
0.0
 40
3.0923400000000001
  1
尺度
 41
0.5
  0
TEXT
  5
25E
  8
_________2
 62
     7
 10
95.030836166666674
 20
34.737099999999998
 30
0.0
 40
3.6545800000000002
  1
1 ： 10
 41
0.5
 72
     1
 11
98.898600000000002
 21
34.737099999999998
 31
0.0
  0
TEXT
  5
25F
  8
_________2
 62
     7
 10
142.257475
 20
30.627099999999999
 30
0.0
 40
3.9357000000000002
  1
AU12282
 41
0.5
 72
     1
 11
148.489
 21
30.627099999999999
 31
0.0
  0
TEXT
  5
260
  8
_________2
 62
     7
 10
142.257475
 20
20.6266
 30
0.0
 40
3.9357000000000002
  1
AU12282
 41
0.5
 72
     1
 11
148.489
 21
20.6266
 31
0.0
  0
TEXT
  5
261
  8
_________2
 62
     7
 10
29.525700000000001
 20
22.226500000000001
 30
0.0
 40
3.9357000000000002
  1
実容量：4.8L、重量：9.5kg、オーバーフロー付
 41
0.5
  0
TEXT
  5
262
  8
_________2
 62
     7
 10
26.275200000000002
 20
61.961799999999997
 30
0.0
 40
4.2168199999999993
  1
※40%%d範囲内には、ポップアップ引棒付水栓・引棒部は設置できません。
 41
0.5
  0
TEXT
  5
263
  8
_________2
 62
     7
 10
114.117
 20
45.74499999999999
 30
0.0
 40
3.9357000000000002
  1
バル　洗面器
 41
0.5
  0
TEXT
  5
264
  8
_________2
 62
     7
 10
44.303290666666669
 20
35.12230000000001
 30
0.0
 40
3.6545800000000002
  1
篠崎
 41
0.5
 72
     1
 11
46.252400000000002
 21
35.12230000000001
 31
0.0
  0
TEXT
  5
265
  8
_________2
 62
     7
 10
25.728990666666672
 20
35.12230000000001
 30
0.0
 40
3.6545800000000002
  1
木場
 41
0.5
 72
     1
 11
27.678100000000001
 21
35.12230000000001
 31
0.0
  0
TEXT
  5
266
  8
_________2
 62
     7
 10
72.724400000000003
 20
34.737099999999998
 30
0.0
 40
3.6545800000000002
  1
17.02.13
 41
0.5
  0
TEXT
  5
267
  8
_________2
 62
     7
 10
71.531999999999996
 20
40.930100000000003
 30
0.0
 40
3.0923400000000001
  1
日付
 41
0.5
  0
TEXT
  5
268
  8
_________2
 62
     7
 10
34.578299999999999
 20
40.930100000000003
 30
0.0
 40
3.0923400000000001
  1
検図
 41
0.5
  0
TEXT
  5
269
  8
_________2
 62
     7
 10
22.960000000000001
 20
26.730699999999999
 30
0.0
 40
3.0923400000000001
  1
備考
 41
0.5
  0
TEXT
  5
26A
  8
_________2
 62
     7
 10
22.960000000000001
 20
40.930100000000003
 30
0.0
 40
3.0923400000000001
  1
製図
 41
0.5
  0
TEXT
  5
26B
  8
_________2
 62
     7
 10
28.727365333333339
 20
49.456000000000003
 30
0.0
 40
4.4979399999999989
  1
セラトレーディング株式会社
 41
0.5
 72
     1
 11
46.119399999999992
 21
49.456000000000003
 31
0.0
  0
LINE
  5
26C
  8
_________2
 62
     7
 10
188.49000000000001
 20
17.4282
 30
0.0
 11
21.988499999999998
 21
17.4282
 31
0.0
  0
LINE
  5
26D
  8
_________2
 62
     7
 10
21.988499999999998
 20
17.4282
 30
0.0
 11
21.988499999999998
 21
280.43000000000001
 31
0.0
  0
LINE
  5
26E
  8
_________2
 62
     7
 10
21.988499999999998
 20
280.43000000000001
 30
0.0
 11
188.49000000000001
 21
280.43000000000001
 31
0.0
  0
LINE
  5
26F
  8
_________2
 62
     7
 10
188.49000000000001
 20
280.43000000000001
 30
0.0
 11
188.49000000000001
 21
17.4282
 31
0.0
  0
LINE
  5
270
  8
_________2
 62
     7
 10
70.488500000000002
 20
30.9282
 30
0.0
 11
70.488500000000002
 21
57.427999999999997
 31
0.0
  0
LINE
  5
271
  8
_________2
 62
     7
 10
89.488600000000005
 20
30.9282
 30
0.0
 11
89.488600000000005
 21
57.427999999999997
 31
0.0
  0
LINE
  5
272
  8
_________2
 62
     7
 10
108.489
 20
17.4282
 30
0.0
 11
108.489
 21
57.427999999999997
 31
0.0
  0
LINE
  5
273
  8
_________2
 62
     7
 10
33.488300000000002
 20
30.9282
 30
0.0
 11
33.488300000000002
 21
44.928499999999993
 31
0.0
  0
LINE
  5
274
  8
_________2
 62
     7
 10
21.988499999999998
 20
30.9282
 30
0.0
 11
108.489
 21
30.9282
 31
0.0
  0
LINE
  5
275
  8
_________2
 62
     7
 10
21.988499999999998
 20
44.928499999999993
 30
0.0
 11
108.489
 21
44.928499999999993
 31
0.0
  0
LINE
  5
276
  8
_________2
 62
     7
 10
108.489
 20
37.427799999999998
 30
0.0
 11
188.49000000000001
 21
37.427799999999998
 31
0.0
  0
LINE
  5
277
  8
_________2
 62
     7
 10
21.988499999999998
 20
57.427999999999997
 30
0.0
 11
188.49000000000001
 21
57.427999999999997
 31
0.0
  0
ENDSEC
  0
EOF
