  0
SECTION
  2
HEADER
  9
$ACADVER
  1
AC1009
  9
$LUNITS
 70
2
  9
$LUPREC
 70
4
  9
$LTSCALE
 40
1.0
  9
$EXTMIN
 10
0.2384
 20
0.4479
 30
0
  9
$EXTMAX
 10
210.2383
 20
297.4482
 30
0
  0
ENDSEC
  0
SECTION
  2
TABLES
  0
TABLE
  2
LTYPE
 70
256
  0
LTYPE
  2
AIGENLINE001
 70
64
  3
generate AI->DXF Converter
 72
65
 73
6
 40
7.4083
 49
3.5278
 49
-0.7761
 49
0.7761
 49
-0.7761
 49
0.7761
 49
-0.7761
  0
LTYPE
  2
AIGENLINE002
 70
64
  3
generate AI->DXF Converter
 72
65
 73
4
 40
5.8561
 49
3.5278
 49
-0.7761
 49
0.7761
 49
-0.7761
  0
LTYPE
  2
AIGENLINE003
 70
64
  3
generate AI->DXF Converter
 72
65
 73
2
 40
1.5522
 49
0.7761
 49
-0.7761
  0
ENDTAB
  0
TABLE
  2
LAYER
 70
3
  0
LAYER
  2
LAYER_1
 70
64
 62
7
  6
CONTINUOUS
  0
LAYER
  2
LAYER_2
 70
64
 62
7
  6
CONTINUOUS
  0
LAYER
  2
LAYER_3
 70
64
 62
7
  6
CONTINUOUS
  0
ENDTAB
  0
TABLE
  2
STYLE
 70
6
  0
STYLE
  2
STANDARD
 70
0
 40
0
 50
0
 71
0
 41
0
 42
0
  3
TXT
  4
BIGFONT
  0
ENDTAB
  0
ENDSEC
  0
SECTION
  2
BLOCKS
  0
BLOCK
  8
LAYER_2
  2
AIGNBL02020016
 70
64
 10
0
 20
0
 30
0
  3
AIGNBL02020016
  0
LINE
  8
LAYER_2
 10
69.0156
 20
220.5531
 11
50.4935
 21
229.2952
  0
LINE
  8
LAYER_2
 10
66.7706
 20
220.9871
 11
69.0187
 21
220.5598
  0
LINE
  8
LAYER_2
 10
69.0187
 20
220.5598
 11
67.2857
 21
222.0538
  0
LINE
  8
LAYER_2
 10
67.2857
 20
222.0538
 11
66.7706
 21
220.9871
  0
ENDBLK
  0
BLOCK
  8
LAYER_2
  2
AIGNBL02020018
 70
64
 10
0
 20
0
 30
0
  3
AIGNBL02020018
  0
LINE
  8
LAYER_2
 10
69.0115
 20
135.867
 11
50.4935
 21
229.2952
  0
LINE
  8
LAYER_2
 10
68.0264
 20
137.9305
 11
69.0187
 21
135.8685
  0
LINE
  8
LAYER_2
 10
69.0187
 20
135.8685
 11
69.1904
 21
138.1501
  0
LINE
  8
LAYER_2
 10
69.1904
 20
138.1501
 11
68.0264
 21
137.9305
  0
ENDBLK
  0
BLOCK
  8
LAYER_2
  2
AIGNBL02010002
 70
64
 10
0
 20
0
 30
0
  3
AIGNBL02010002
  0
LINE
  8
LAYER_2
 10
51.519
 20
169.0348
 11
86.5184
 21
169.0348
  0
LINE
  8
LAYER_2
 10
84.3077
 20
168.4498
 11
86.5184
 21
169.042
  0
LINE
  8
LAYER_2
 10
86.5184
 20
169.042
 11
84.3077
 21
169.6343
  0
LINE
  8
LAYER_2
 10
84.3077
 20
169.6343
 11
84.3077
 21
168.4498
  0
LINE
  8
LAYER_2
 10
53.7297
 20
169.6198
 11
51.519
 21
169.0279
  0
LINE
  8
LAYER_2
 10
51.519
 20
169.0279
 11
53.7297
 21
168.4354
  0
LINE
  8
LAYER_2
 10
53.7297
 20
168.4354
 11
53.7297
 21
169.6198
  0
ENDBLK
  0
BLOCK
  8
LAYER_2
  2
AIGNBL02010003
 70
64
 10
0
 20
0
 30
0
  3
AIGNBL02010003
  0
LINE
  8
LAYER_2
 10
52.219
 20
175.7348
 11
85.819
 21
175.7348
  0
LINE
  8
LAYER_2
 10
83.6083
 20
175.1499
 11
85.819
 21
175.7421
  0
LINE
  8
LAYER_2
 10
85.819
 20
175.7421
 11
83.6083
 21
176.3343
  0
LINE
  8
LAYER_2
 10
83.6083
 20
176.3343
 11
83.6083
 21
175.1499
  0
LINE
  8
LAYER_2
 10
54.4298
 20
176.3198
 11
52.219
 21
175.728
  0
LINE
  8
LAYER_2
 10
52.219
 20
175.728
 11
54.4298
 21
175.1354
  0
LINE
  8
LAYER_2
 10
54.4298
 20
175.1354
 11
54.4298
 21
176.3198
  0
ENDBLK
  0
BLOCK
  8
LAYER_2
  2
AIGNBL02010004
 70
64
 10
0
 20
0
 30
0
  3
AIGNBL02010004
  0
LINE
  8
LAYER_2
 10
101.7237
 20
187.4635
 11
101.7237
 21
229.6902
  0
LINE
  8
LAYER_2
 10
102.3087
 20
220.2522
 11
101.7164
 21
222.4629
  0
LINE
  8
LAYER_2
 10
101.7164
 20
222.4629
 11
101.1242
 21
220.2522
  0
LINE
  8
LAYER_2
 10
101.1242
 20
220.2522
 11
102.3087
 21
220.2522
  0
LINE
  8
LAYER_2
 10
101.1387
 20
189.6742
 11
101.7306
 21
187.4635
  0
LINE
  8
LAYER_2
 10
101.7306
 20
187.4635
 11
102.3231
 21
189.6742
  0
LINE
  8
LAYER_2
 10
102.3231
 20
189.6742
 11
101.1387
 21
189.6742
  0
ENDBLK
  0
BLOCK
  8
LAYER_2
  2
AIGNBL02010005
 70
64
 10
0
 20
0
 30
0
  3
AIGNBL02010005
  0
LINE
  8
LAYER_2
 10
101.1387
 20
225.6744
 11
101.7306
 21
223.4637
  0
LINE
  8
LAYER_2
 10
101.7306
 20
223.4637
 11
102.3231
 21
225.6744
  0
LINE
  8
LAYER_2
 10
102.3231
 20
225.6744
 11
101.1387
 21
225.6744
  0
ENDBLK
  0
BLOCK
  8
LAYER_2
  2
AIGNBL02010006
 70
64
 10
0
 20
0
 30
0
  3
AIGNBL02010006
  0
LINE
  8
LAYER_2
 10
108.4237
 20
187.4635
 11
108.4237
 21
223.4637
  0
LINE
  8
LAYER_2
 10
109.0087
 20
221.253
 11
108.4165
 21
223.4637
  0
LINE
  8
LAYER_2
 10
108.4165
 20
223.4637
 11
107.8243
 21
221.253
  0
LINE
  8
LAYER_2
 10
107.8243
 20
221.253
 11
109.0087
 21
221.253
  0
LINE
  8
LAYER_2
 10
107.8387
 20
189.6742
 11
108.4306
 21
187.4635
  0
LINE
  8
LAYER_2
 10
108.4306
 20
187.4635
 11
109.0231
 21
189.6742
  0
LINE
  8
LAYER_2
 10
109.0231
 20
189.6742
 11
107.8387
 21
189.6742
  0
ENDBLK
  0
BLOCK
  8
LAYER_2
  2
AIGNBL02010007
 70
64
 10
0
 20
0
 30
0
  3
AIGNBL02010007
  0
LINE
  8
LAYER_2
 10
95.0237
 20
188.1636
 11
95.0237
 21
221.7635
  0
LINE
  8
LAYER_2
 10
95.6086
 20
219.5528
 11
95.0164
 21
221.7635
  0
LINE
  8
LAYER_2
 10
95.0164
 20
221.7635
 11
94.4242
 21
219.5528
  0
LINE
  8
LAYER_2
 10
94.4242
 20
219.5528
 11
95.6086
 21
219.5528
  0
LINE
  8
LAYER_2
 10
94.4387
 20
190.3743
 11
95.0305
 21
188.1636
  0
LINE
  8
LAYER_2
 10
95.0305
 20
188.1636
 11
95.6231
 21
190.3743
  0
LINE
  8
LAYER_2
 10
95.6231
 20
190.3743
 11
94.4387
 21
190.3743
  0
ENDBLK
  0
BLOCK
  8
LAYER_2
  2
AIGNBL02010008
 70
64
 10
0
 20
0
 30
0
  3
AIGNBL02010008
  0
LINE
  8
LAYER_2
 10
75.0804
 20
216.0225
 11
64.7912
 21
205.7334
  0
LINE
  8
LAYER_2
 10
72.5951
 20
212.6998
 11
70.6134
 21
211.5556
  0
LINE
  8
LAYER_2
 10
70.6134
 20
211.5556
 11
71.7575
 21
213.5375
  0
LINE
  8
LAYER_2
 10
71.7575
 20
213.5375
 11
72.5951
 21
212.6998
  0
LINE
  8
LAYER_2
 10
65.4496
 20
207.2292
 11
67.4315
 21
208.3735
  0
LINE
  8
LAYER_2
 10
67.4315
 20
208.3735
 11
66.2871
 21
206.3915
  0
LINE
  8
LAYER_2
 10
66.2871
 20
206.3915
 11
65.4496
 21
207.2292
  0
ENDBLK
  0
BLOCK
  8
LAYER_2
  2
AIGNBL02010009
 70
64
 10
0
 20
0
 30
0
  3
AIGNBL02010009
  0
LINE
  8
LAYER_2
 10
156.4159
 20
195.4988
 11
158.6267
 21
196.091
  0
LINE
  8
LAYER_2
 10
158.6267
 20
196.091
 11
156.4159
 21
196.6832
  0
LINE
  8
LAYER_2
 10
156.4159
 20
196.6832
 11
156.4159
 21
195.4988
  0
LINE
  8
LAYER_2
 10
154.8374
 20
196.6688
 11
152.6267
 21
196.0769
  0
LINE
  8
LAYER_2
 10
152.6267
 20
196.0769
 11
154.8374
 21
195.4844
  0
LINE
  8
LAYER_2
 10
154.8374
 20
195.4844
 11
154.8374
 21
196.6688
  0
ENDBLK
  0
BLOCK
  8
LAYER_2
  2
AIGNBL0201000A
 70
64
 10
0
 20
0
 30
0
  3
AIGNBL0201000A
  0
LINE
  8
LAYER_2
 10
146.6267
 20
196.0838
 11
158.6267
 21
196.0838
  0
LINE
  8
LAYER_2
 10
150.416
 20
195.4988
 11
152.6267
 21
196.091
  0
LINE
  8
LAYER_2
 10
152.6267
 20
196.091
 11
150.416
 21
196.6832
  0
LINE
  8
LAYER_2
 10
150.416
 20
196.6832
 11
150.416
 21
195.4988
  0
LINE
  8
LAYER_2
 10
148.8374
 20
196.6688
 11
146.6267
 21
196.0769
  0
LINE
  8
LAYER_2
 10
146.6267
 20
196.0769
 11
148.8374
 21
195.4844
  0
LINE
  8
LAYER_2
 10
148.8374
 20
195.4844
 11
148.8374
 21
196.6688
  0
ENDBLK
  0
BLOCK
  8
LAYER_2
  2
AIGNBL0201000B
 70
64
 10
0
 20
0
 30
0
  3
AIGNBL0201000B
  0
LINE
  8
LAYER_2
 10
138.3388
 20
202.6617
 11
138.3388
 21
214.0827
  0
LINE
  8
LAYER_2
 10
138.9238
 20
204.1617
 11
138.3316
 21
206.3724
  0
LINE
  8
LAYER_2
 10
138.3316
 20
206.3724
 11
137.7394
 21
204.1617
  0
LINE
  8
LAYER_2
 10
137.7394
 20
204.1617
 11
138.9238
 21
204.1617
  0
LINE
  8
LAYER_2
 10
137.7539
 20
212.5827
 11
138.3457
 21
210.372
  0
LINE
  8
LAYER_2
 10
138.3457
 20
210.372
 11
138.9383
 21
212.5827
  0
LINE
  8
LAYER_2
 10
138.9383
 20
212.5827
 11
137.7539
 21
212.5827
  0
ENDBLK
  0
BLOCK
  8
LAYER_2
  2
AIGNBL0201000C
 70
64
 10
0
 20
0
 30
0
  3
AIGNBL0201000C
  0
LINE
  8
LAYER_2
 10
148.9146
 20
206.6597
 11
162.4104
 21
220.1557
  0
LINE
  8
LAYER_2
 10
155.1947
 20
212.1023
 11
156.3391
 21
214.0843
  0
LINE
  8
LAYER_2
 10
156.3391
 20
214.0843
 11
154.3572
 21
212.9398
  0
LINE
  8
LAYER_2
 10
154.3572
 20
212.9398
 11
155.1947
 21
212.1023
  0
LINE
  8
LAYER_2
 10
150.0642
 20
208.6369
 11
148.9194
 21
206.6548
  0
LINE
  8
LAYER_2
 10
148.9194
 20
206.6548
 11
150.9014
 21
207.799
  0
LINE
  8
LAYER_2
 10
150.9014
 20
207.799
 11
150.0642
 21
208.6369
  0
ENDBLK
  0
BLOCK
  8
LAYER_2
  2
AIGNBL0201000D
 70
64
 10
0
 20
0
 30
0
  3
AIGNBL0201000D
  0
LINE
  8
LAYER_2
 10
163.9621
 20
201.056
 11
177.9791
 21
201.056
  0
LINE
  8
LAYER_2
 10
158.9894
 20
206.0286
 11
163.9621
 21
201.056
  0
LINE
  8
LAYER_2
 10
160.9662
 20
204.8791
 11
158.9846
 21
206.0239
  0
LINE
  8
LAYER_2
 10
158.9846
 20
206.0239
 11
160.1287
 21
204.0411
  0
LINE
  8
LAYER_2
 10
160.1287
 20
204.0411
 11
160.9662
 21
204.8791
  0
ENDBLK
  0
BLOCK
  8
LAYER_2
  2
AIGNBL0201000E
 70
64
 10
0
 20
0
 30
0
  3
AIGNBL0201000E
  0
LINE
  8
LAYER_2
 10
95.0237
 20
123.1622
 11
95.0237
 21
137.6619
  0
LINE
  8
LAYER_2
 10
95.6086
 20
135.4512
 11
95.0164
 21
137.6619
  0
LINE
  8
LAYER_2
 10
95.0164
 20
137.6619
 11
94.4242
 21
135.4512
  0
LINE
  8
LAYER_2
 10
94.4242
 20
135.4512
 11
95.6086
 21
135.4512
  0
LINE
  8
LAYER_2
 10
94.4387
 20
125.3729
 11
95.0305
 21
123.1622
  0
LINE
  8
LAYER_2
 10
95.0305
 20
123.1622
 11
95.6231
 21
125.3729
  0
LINE
  8
LAYER_2
 10
95.6231
 20
125.3729
 11
94.4387
 21
125.3729
  0
ENDBLK
  0
BLOCK
  8
LAYER_2
  2
AIGNBL0201000F
 70
64
 10
0
 20
0
 30
0
  3
AIGNBL0201000F
  0
LINE
  8
LAYER_2
 10
60.2688
 20
110.5504
 11
77.7689
 21
110.5504
  0
LINE
  8
LAYER_2
 10
75.5582
 20
109.9654
 11
77.7689
 21
110.5576
  0
LINE
  8
LAYER_2
 10
77.7689
 20
110.5576
 11
75.5582
 21
111.1498
  0
LINE
  8
LAYER_2
 10
75.5582
 20
111.1498
 11
75.5582
 21
109.9654
  0
LINE
  8
LAYER_2
 10
62.4796
 20
111.1353
 11
60.2688
 21
110.5435
  0
LINE
  8
LAYER_2
 10
60.2688
 20
110.5435
 11
62.4796
 21
109.9509
  0
LINE
  8
LAYER_2
 10
62.4796
 20
109.9509
 11
62.4796
 21
111.1353
  0
ENDBLK
  0
BLOCK
  8
LAYER_2
  2
AIGNBL02010010
 70
64
 10
0
 20
0
 30
0
  3
AIGNBL02010010
  0
LINE
  8
LAYER_2
 10
43.0289
 20
111.289
 11
43.0289
 21
137.6619
  0
LINE
  8
LAYER_2
 10
43.6139
 20
135.4512
 11
43.0217
 21
137.6619
  0
LINE
  8
LAYER_2
 10
43.0217
 20
137.6619
 11
42.4295
 21
135.4512
  0
LINE
  8
LAYER_2
 10
42.4295
 20
135.4512
 11
43.6139
 21
135.4512
  0
LINE
  8
LAYER_2
 10
43.6139
 20
119.4514
 11
43.0217
 21
121.6622
  0
LINE
  8
LAYER_2
 10
43.0217
 20
121.6622
 11
42.4295
 21
119.4514
  0
LINE
  8
LAYER_2
 10
42.4295
 20
119.4514
 11
43.6139
 21
119.4514
  0
LINE
  8
LAYER_2
 10
42.4439
 20
126.8729
 11
43.0358
 21
124.6621
  0
LINE
  8
LAYER_2
 10
43.0358
 20
124.6621
 11
43.6283
 21
126.8729
  0
LINE
  8
LAYER_2
 10
43.6283
 20
126.8729
 11
42.4439
 21
126.8729
  0
ENDBLK
  0
BLOCK
  8
LAYER_2
  2
AIGNBL02010011
 70
64
 10
0
 20
0
 30
0
  3
AIGNBL02010011
  0
LINE
  8
LAYER_2
 10
150.8497
 20
127.679
 11
150.8497
 21
137.6619
  0
LINE
  8
LAYER_2
 10
151.4347
 20
135.4512
 11
150.8425
 21
137.6619
  0
LINE
  8
LAYER_2
 10
150.8425
 20
137.6619
 11
150.2503
 21
135.4512
  0
LINE
  8
LAYER_2
 10
150.2503
 20
135.4512
 11
151.4347
 21
135.4512
  0
LINE
  8
LAYER_2
 10
150.2647
 20
129.8897
 11
150.8566
 21
127.679
  0
LINE
  8
LAYER_2
 10
150.8566
 20
127.679
 11
151.4492
 21
129.8897
  0
LINE
  8
LAYER_2
 10
151.4492
 20
129.8897
 11
150.2647
 21
129.8897
  0
ENDBLK
  0
BLOCK
  8
LAYER_2
  2
AIGNBL02010012
 70
64
 10
0
 20
0
 30
0
  3
AIGNBL02010012
  0
LINE
  8
LAYER_2
 10
138.6269
 20
103.8331
 11
165.6264
 21
103.8331
  0
LINE
  8
LAYER_2
 10
163.4157
 20
103.2481
 11
165.6264
 21
103.8403
  0
LINE
  8
LAYER_2
 10
165.6264
 20
103.8403
 11
163.4157
 21
104.4326
  0
LINE
  8
LAYER_2
 10
163.4157
 20
104.4326
 11
163.4157
 21
103.2481
  0
LINE
  8
LAYER_2
 10
154.8374
 20
104.4181
 11
152.6267
 21
103.8262
  0
LINE
  8
LAYER_2
 10
152.6267
 20
103.8262
 11
154.8374
 21
103.2337
  0
LINE
  8
LAYER_2
 10
154.8374
 20
103.2337
 11
154.8374
 21
104.4181
  0
LINE
  8
LAYER_2
 10
150.416
 20
103.2481
 11
152.6267
 21
103.8403
  0
LINE
  8
LAYER_2
 10
152.6267
 20
103.8403
 11
150.416
 21
104.4326
  0
LINE
  8
LAYER_2
 10
150.416
 20
104.4326
 11
150.416
 21
103.2481
  0
LINE
  8
LAYER_2
 10
140.8376
 20
104.4181
 11
138.6269
 21
103.8262
  0
LINE
  8
LAYER_2
 10
138.6269
 20
103.8262
 11
140.8376
 21
103.2337
  0
LINE
  8
LAYER_2
 10
140.8376
 20
103.2337
 11
140.8376
 21
104.4181
  0
LINE
  8
LAYER_2
 10
138.6269
 20
97.1331
 11
159.1269
 21
97.1331
  0
LINE
  8
LAYER_2
 10
156.9162
 20
96.5481
 11
159.1269
 21
97.1403
  0
LINE
  8
LAYER_2
 10
159.1269
 20
97.1403
 11
156.9162
 21
97.7325
  0
LINE
  8
LAYER_2
 10
156.9162
 20
97.7325
 11
156.9162
 21
96.5481
  0
LINE
  8
LAYER_2
 10
140.8376
 20
97.7181
 11
138.6269
 21
97.1262
  0
LINE
  8
LAYER_2
 10
138.6269
 20
97.1262
 11
140.8376
 21
96.5337
  0
LINE
  8
LAYER_2
 10
140.8376
 20
96.5337
 11
140.8376
 21
97.7181
  0
ENDBLK
  0
BLOCK
  8
LAYER_2
  2
AIGNBL02010013
 70
64
 10
0
 20
0
 30
0
  3
AIGNBL02010013
  0
LINE
  8
LAYER_2
 10
69.0187
 20
137.6619
 11
51.8687
 21
137.6619
  0
LINE
  8
LAYER_2
 10
69.0187
 20
123.1622
 11
65.9233
 21
123.1622
  0
ARC
  8
LAYER_2
 10
65.9329
 20
123.4715
 40
0.3095
 50
186.8348148
 51
268.226268
  0
LINE
  8
LAYER_2
 10
65.6256
 20
123.4347
 11
65.5185
 21
124.6621
  0
ENDBLK
  0
BLOCK
  8
LAYER_2
  2
AIGNBL02010014
 70
64
 10
0
 20
0
 30
0
  3
AIGNBL02010014
  0
LINE
  8
LAYER_2
 10
69.0187
 20
137.6619
 11
86.1684
 21
137.6619
  0
LINE
  8
LAYER_2
 10
69.0187
 20
123.1622
 11
72.1138
 21
123.1622
  0
ARC
  8
LAYER_2
 10
72.1045
 20
123.4711
 40
0.309
 50
271.7211087
 51
353.2369832
  0
LINE
  8
LAYER_2
 10
72.4114
 20
123.4347
 11
72.5186
 21
124.6621
  0
ENDBLK
  0
BLOCK
  8
LAYER_2
  2
AIGNBL02010015
 70
64
 10
0
 20
0
 30
0
  3
AIGNBL02010015
  0
INSERT
  8
LAYER_2
  2
AIGNBL02020016
 10
0
 20
0
 30
0
  0
ENDBLK
  0
BLOCK
  8
LAYER_2
  2
AIGNBL02010017
 70
64
 10
0
 20
0
 30
0
  3
AIGNBL02010017
  0
INSERT
  8
LAYER_2
  2
AIGNBL02020018
 10
0
 20
0
 30
0
  0
ENDBLK
  0
BLOCK
  8
LAYER_3
  2
AIGNBL03010002
 70
64
 10
0
 20
0
 30
0
  3
AIGNBL03010002
  0
ARC
  8
LAYER_3
 10
76.2679
 20
51.3237
 40
2.0849
 50
0.0008992613682
 51
89.99910073
  0
ARC
  8
LAYER_3
 10
76.268
 20
51.3238
 40
2.0848
 50
90.00289234
 51
180.0026042
  0
ARC
  8
LAYER_3
 10
76.2677
 20
51.3239
 40
2.0845
 50
180.0045979
 51
270.0063968
  0
ARC
  8
LAYER_3
 10
76.2682
 20
51.324
 40
2.0846
 50
269.9916106
 51
359.9918983
  0
ARC
  8
LAYER_3
 10
76.2681
 20
51.3235
 40
1.2197
 50
0.01093215228
 51
90.00785796
  0
ARC
  8
LAYER_3
 10
76.2679
 20
51.3236
 40
1.2196
 50
89.99789713
 51
179.9974047
  0
ARC
  8
LAYER_3
 10
76.2679
 20
51.3237
 40
1.2196
 50
179.9984626
 51
270.0015373
  0
ARC
  8
LAYER_3
 10
76.2681
 20
51.3238
 40
1.2197
 50
269.9927081
 51
359.9931999
  0
LINE
  8
LAYER_3
 10
79.9789
 20
50.1041
 11
79.9789
 21
52.5432
  0
LINE
  8
LAYER_3
 10
85.1569
 20
49.2394
 11
85.1569
 21
53.4086
  0
LINE
  8
LAYER_3
 10
79.9789
 20
52.5432
 11
85.1569
 21
53.4086
  0
LINE
  8
LAYER_3
 10
79.9789
 20
50.1041
 11
85.1569
 21
49.2394
  0
LINE
  8
LAYER_3
 10
76.2679
 20
51.3237
 11
76.2679
 21
51.0722
  0
LINE
  8
LAYER_3
 10
76.2679
 20
50.8317
 11
76.2679
 21
48.6447
  0
LINE
  8
LAYER_3
 10
76.2679
 20
51.3237
 11
76.52
 21
51.3237
  0
LINE
  8
LAYER_3
 10
76.7605
 20
51.3237
 11
78.9475
 21
51.3237
  0
LINE
  8
LAYER_3
 10
76.2679
 20
51.3237
 11
76.2679
 21
51.5758
  0
LINE
  8
LAYER_3
 10
76.2679
 20
51.8163
 11
76.2679
 21
54.0033
  0
LINE
  8
LAYER_3
 10
76.2679
 20
51.3237
 11
76.016
 21
51.3237
  0
LINE
  8
LAYER_3
 10
75.7756
 20
51.3237
 11
73.5889
 21
51.3237
  0
LINE
  8
LAYER_3
 10
82.1721
 20
51.3237
 11
82.4239
 21
51.3237
  0
LINE
  8
LAYER_3
 10
82.6647
 20
51.3237
 11
85.5896
 21
51.3237
  0
LINE
  8
LAYER_3
 10
82.1721
 20
51.3237
 11
81.9199
 21
51.3237
  0
LINE
  8
LAYER_3
 10
81.6794
 20
51.3237
 11
79.4932
 21
51.3237
  0
ENDBLK
  0
ENDSEC
  0
SECTION
  2
ENTITIES
  0
TEXT
  8
LAYER_1
 10
153.8773
 20
185.275
 11
153.8773
 21
185.275
 40
3.0923
 41
0.5
 72
1
  1
カウンター切込寸法
  0
TEXT
  8
LAYER_1
 10
133.0172
 20
218.8628
 11
133.0172
 21
218.8628
 40
3.0923
 41
0.5
  1
排水口
  0
TEXT
  8
LAYER_1
 10
69.0187
 20
169.7349
 11
69.0187
 21
169.7349
 40
3.0923
 41
0.5
 72
1
  1
350
  0
TEXT
  8
LAYER_1
 10
69.019
 20
176.4349
 11
69.019
 21
176.4349
 40
3.0923
 41
0.5
 72
1
  1
336
  0
TEXT
  8
LAYER_1
 10
101.0236
 20
204.9632
 11
101.0236
 21
204.9632
 40
3.0923
 41
0.5
 50
89.99999999
 72
1
  1
350
  0
TEXT
  8
LAYER_1
 10
101.0236
 20
229.6902
 11
101.0236
 21
229.6902
 40
3.0923
 41
0.5
 50
89.99999999
 72
2
  1
10
  0
TEXT
  8
LAYER_1
 10
107.7237
 20
204.9632
 11
107.7237
 21
204.9632
 40
3.0923
 41
0.5
 50
89.99999999
 72
1
  1
360
  0
TEXT
  8
LAYER_1
 10
94.3236
 20
204.9635
 11
94.3236
 21
204.9635
 40
3.0923
 41
0.5
 50
89.99999999
 72
1
  1
336
  0
TEXT
  8
LAYER_1
 10
94.3236
 20
130.412
 11
94.3236
 21
130.412
 40
3.0923
 41
0.5
 50
89.99999999
 72
1
  1
145
  0
TEXT
  8
LAYER_1
 10
150.1497
 20
132.6706
 11
150.1497
 21
132.6706
 40
3.0923
 41
0.5
 50
89.99999999
 72
1
  1
100
  0
TEXT
  8
LAYER_1
 10
69.019
 20
111.2504
 11
69.019
 21
111.2504
 40
3.0923
 41
0.5
 72
1
  1
175
  0
TEXT
  8
LAYER_1
 10
159.1265
 20
104.5332
 11
159.1265
 21
104.5332
 40
3.0923
 41
0.5
 72
1
  1
130
  0
TEXT
  8
LAYER_1
 10
145.6269
 20
104.5332
 11
145.6269
 21
104.5332
 40
3.0923
 41
0.5
 72
1
  1
140
  0
TEXT
  8
LAYER_1
 10
148.877
 20
97.8331
 11
148.877
 21
97.8331
 40
3.0923
 41
0.5
 72
1
  1
205
  0
TEXT
  8
LAYER_1
 10
42.3289
 20
131.162
 11
42.3289
 21
131.162
 40
3.0923
 41
0.5
 50
89.99999999
 72
1
  1
130
  0
TEXT
  8
LAYER_1
 10
42.3289
 20
111.289
 11
42.3289
 21
111.289
 40
3.0923
 41
0.5
 50
89.99999999
  1
max.30
  0
TEXT
  8
LAYER_1
 10
79.5162
 20
216.7225
 11
79.5162
 21
216.7225
 40
3.0923
 41
0.5
 72
2
  1
%%c46
  0
TEXT
  8
LAYER_1
 10
155.6267
 20
197.1339
 11
155.6267
 21
197.1339
 40
3.0923
 41
0.5
 72
1
  1
60
  0
TEXT
  8
LAYER_1
 10
149.6267
 20
197.1339
 11
149.6267
 21
197.1339
 40
3.0923
 41
0.5
 72
1
  1
60
  0
TEXT
  8
LAYER_1
 10
137.6388
 20
208.3723
 11
137.6388
 21
208.3723
 40
3.0923
 41
0.5
 50
89.99999999
 72
1
  1
40
  0
TEXT
  8
LAYER_1
 10
161.0493
 20
219.7849
 11
161.0493
 21
219.7849
 40
3.0923
 41
0.5
 50
44.99999999
 72
2
  1
%%c105
  0
TEXT
  8
LAYER_1
 10
176.5406
 20
201.756
 11
176.5406
 21
201.756
 40
3.0923
 41
0.5
 72
2
  1
%%c12×2ヶ所
  0
TEXT
  8
LAYER_1
 10
36.0066
 20
229.9953
 11
36.0066
 21
229.9953
 40
3.0923
 41
0.5
  1
メーカーロゴ
  0
TEXT
  8
LAYER_1
 10
150.6268
 20
111.6297
 11
150.6268
 21
111.6297
 40
3.0923
 41
0.5
 72
1
  1
40
  0
LINE
  8
LAYER_2
 10
51.519
 20
168.2545
 11
51.519
 21
197.4028
  0
LINE
  8
LAYER_2
 10
52.219
 20
175.0417
 11
52.219
 21
195.0894
  0
LINE
  8
LAYER_2
 10
86.5188
 20
168.2541
 11
86.5188
 21
197.4028
  0
LINE
  8
LAYER_2
 10
85.819
 20
175.042
 11
85.819
 21
195.0894
  0
INSERT
  8
LAYER_2
  2
AIGNBL02010002
 10
0
 20
0
 30
0
  0
INSERT
  8
LAYER_2
  2
AIGNBL02010003
 10
0
 20
0
 30
0
  0
CIRCLE
  8
LAYER_2
 10
69.0187
 20
210.3715
 40
2.3002
  0
CIRCLE
  8
LAYER_2
 10
69.0187
 20
210.3715
 40
3.7501
  0
CIRCLE
  8
LAYER_2
  6
AIGENLINE001
 10
152.6267
 20
210.3715
 40
2.3002
  0
CIRCLE
  8
LAYER_2
 10
146.6267
 20
206.3721
 40
0.6001
  0
CIRCLE
  8
LAYER_2
 10
158.6267
 20
206.3721
 40
0.6001
  0
CIRCLE
  8
LAYER_2
  6
AIGENLINE001
 10
152.6267
 20
210.3715
 40
3.7501
  0
LINE
  8
LAYER_2
  6
AIGENLINE002
 10
69.0187
 20
225.2138
 11
69.0187
 21
185.7134
  0
LINE
  8
LAYER_2
  6
AIGENLINE002
 10
75.0187
 20
207.372
 11
75.0187
 21
205.3721
  0
LINE
  8
LAYER_2
  6
AIGENLINE002
 10
49.2685
 20
205.4636
 11
88.7689
 21
205.4636
  0
LINE
  8
LAYER_2
  6
AIGENLINE002
 10
74.0187
 20
206.3721
 11
76.0186
 21
206.3721
  0
LINE
  8
LAYER_2
 10
109.1306
 20
187.4635
 11
77.4829
 21
187.4635
  0
LINE
  8
LAYER_2
 10
95.7168
 20
188.1636
 11
79.1693
 21
188.1636
  0
LINE
  8
LAYER_2
 10
102.5043
 20
222.4632
 11
77.4829
 21
222.4632
  0
LINE
  8
LAYER_2
 10
109.1165
 20
223.4637
 11
73.8522
 21
223.4637
  0
LINE
  8
LAYER_2
 10
95.7165
 20
221.7635
 11
79.1693
 21
221.7635
  0
INSERT
  8
LAYER_2
  2
AIGNBL02010004
 10
0
 20
0
 30
0
  0
INSERT
  8
LAYER_2
  2
AIGNBL02010005
 10
0
 20
0
 30
0
  0
INSERT
  8
LAYER_2
  2
AIGNBL02010006
 10
0
 20
0
 30
0
  0
INSERT
  8
LAYER_2
  2
AIGNBL02010007
 10
0
 20
0
 30
0
  0
LINE
  8
LAYER_2
  6
AIGENLINE002
 10
63.6102
 20
134.6619
 11
74.4271
 21
134.6619
  0
LINE
  8
LAYER_2
  6
AIGENLINE002
 10
152.6267
 20
217.872
 11
152.6267
 21
202.872
  0
LINE
  8
LAYER_2
  6
AIGENLINE002
 10
146.6267
 20
207.3722
 11
146.6267
 21
205.3723
  0
LINE
  8
LAYER_2
  6
AIGENLINE002
 10
145.6269
 20
206.3724
 11
147.6268
 21
206.3724
  0
LINE
  8
LAYER_2
  6
AIGENLINE002
 10
158.6267
 20
207.3722
 11
158.6267
 21
205.3723
  0
LINE
  8
LAYER_2
  6
AIGENLINE002
 10
157.6269
 20
206.3724
 11
159.6268
 21
206.3724
  0
LINE
  8
LAYER_2
  6
AIGENLINE002
 10
145.1267
 20
210.372
 11
160.1266
 21
210.372
  0
LINE
  8
LAYER_2
  6
AIGENLINE002
 10
63.5189
 20
210.372
 11
74.5192
 21
210.372
  0
ARC
  8
LAYER_2
 10
65.47
 20
220.3763
 40
2.9607
 50
89.44894897
 51
142.3163614
  0
ARC
  8
LAYER_2
 10
69.014
 20
174.6666
 40
48.7971
 50
89.99450759
 51
94.13137453
  0
ARC
  8
LAYER_2
 10
68.9076
 20
177.2447
 40
45.219
 50
89.85927553
 51
94.66716138
  0
ARC
  8
LAYER_2
 10
67.5733
 20
194.3381
 40
28.0738
 50
94.79150248
 51
99.13306734
  0
LINE
  8
LAYER_2
 10
63.1172
 20
222.056
 11
62.8606
 21
222.0128
  0
ARC
  8
LAYER_2
 10
65.6148
 20
198.5506
 40
23.6233
 50
96.69529674
 51
103.4419006
  0
ARC
  8
LAYER_2
 10
62.9116
 20
210.1023
 40
11.7598
 50
103.7151694
 51
112.6930837
  0
ARC
  8
LAYER_2
 10
62.1555
 20
212.0703
 40
9.6526
 50
113.0597157
 51
133.5206184
  0
ARC
  8
LAYER_2
 10
62.6774
 20
211.4305
 40
10.4761
 50
133.1807177
 51
136.2804211
  0
ARC
  8
LAYER_2
 10
62.5817
 20
211.5487
 40
10.3253
 50
136.387325
 51
155.9480913
  0
ARC
  8
LAYER_2
 10
65.8176
 20
209.9866
 40
13.9173
 50
155.5049337
 51
163.8798055
  0
ARC
  8
LAYER_2
 10
71.5262
 20
208.3776
 40
19.8482
 50
163.9931443
 51
173.9721617
  0
ARC
  8
LAYER_2
 10
92.9024
 20
205.8769
 40
41.3696
 50
173.6367529
 51
178.6490677
  0
ARC
  8
LAYER_2
 10
108.8389
 20
205.1313
 40
57.3204
 50
178.2796066
 51
180.241204
  0
LINE
  8
LAYER_2
 10
51.519
 20
204.89
 11
51.519
 21
204.8895
  0
ARC
  8
LAYER_2
 10
104.5611
 20
204.6795
 40
53.0425
 50
179.7731067
 51
184.2806701
  0
ARC
  8
LAYER_2
 10
78.5694
 20
202.8035
 40
26.9833
 50
184.4279273
 51
190.4349221
  0
ARC
  8
LAYER_2
 10
71.3814
 20
201.5033
 40
19.6788
 50
190.5025401
 51
196.467359
  0
ARC
  8
LAYER_2
 10
64.1278
 20
199.3686
 40
12.1176
 50
196.5097656
 51
214.3459252
  0
ARC
  8
LAYER_2
 10
62.8026
 20
198.4939
 40
10.53
 50
214.4849168
 51
233.4896778
  0
ARC
  8
LAYER_2
 10
62.0072
 20
197.5298
 40
9.2821
 50
233.8954366
 51
242.2460165
  0
ARC
  8
LAYER_2
 10
62.6196
 20
198.8005
 40
10.6919
 50
242.5125754
 51
252.3876323
  0
ARC
  8
LAYER_2
 10
64.2156
 20
203.9412
 40
16.0746
 50
252.5096408
 51
261.5142538
  0
ARC
  8
LAYER_2
 10
69.2539
 20
234.6172
 40
47.1604
 50
260.9597096
 51
266.5127923
  0
ARC
  8
LAYER_2
 10
69.2122
 20
236.8446
 40
49.3815
 50
266.7182826
 51
269.7755288
  0
ARC
  8
LAYER_2
 10
69.13
 20
177.2442
 40
45.2195
 50
85.33285433
 51
90.14103826
  0
ARC
  8
LAYER_2
 10
70.4656
 20
194.3528
 40
28.0591
 50
80.8651746
 51
85.20845094
  0
LINE
  8
LAYER_2
 10
74.9202
 20
222.056
 11
75.1772
 21
222.0128
  0
ARC
  8
LAYER_2
 10
72.4255
 20
198.5666
 40
23.6071
 50
76.55536343
 51
83.30618414
  0
ARC
  8
LAYER_2
 10
75.1249
 20
210.1007
 40
11.7616
 50
67.3059644
 51
76.2813897
  0
ARC
  8
LAYER_2
 10
75.8819
 20
212.0703
 40
9.6526
 50
46.47938159
 51
66.94028428
  0
ARC
  8
LAYER_2
 10
75.36
 20
211.4305
 40
10.4761
 50
43.71957884
 51
46.81928233
  0
ARC
  8
LAYER_2
 10
75.4578
 20
211.5497
 40
10.3231
 50
24.05133966
 51
43.61678623
  0
ARC
  8
LAYER_2
 10
72.2219
 20
209.9877
 40
13.9151
 50
16.11826523
 51
24.49439685
  0
ARC
  8
LAYER_2
 10
66.5084
 20
208.3775
 40
19.8511
 50
6.027253147
 51
16.00478878
  0
ARC
  8
LAYER_2
 10
45.2304
 20
205.8809
 40
41.2743
 50
1.34837933
 51
6.372285642
  0
ARC
  8
LAYER_2
 10
29.0455
 20
205.1236
 40
57.4738
 50
359.7670984
 51
1.723463456
  0
LINE
  8
LAYER_2
 10
86.5188
 20
204.89
 11
86.5188
 21
204.8895
  0
ARC
  8
LAYER_2
 10
32.9066
 20
204.6943
 40
53.6125
 50
355.824683
 51
0.2086144007
  0
ARC
  8
LAYER_2
 10
59.1813
 20
202.8432
 40
27.2729
 50
349.7404798
 51
355.6842206
  0
ARC
  8
LAYER_2
 10
66.5459
 20
201.5321
 40
19.7925
 50
343.5429988
 51
349.6780293
  0
ARC
  8
LAYER_2
 10
73.9089
 20
199.3688
 40
12.1183
 50
325.6550952
 51
343.4901367
  0
ARC
  8
LAYER_2
 10
75.234
 20
198.4942
 40
10.5309
 50
306.5139244
 51
325.5163847
  0
ARC
  8
LAYER_2
 10
76.0304
 20
197.529
 40
9.2815
 50
297.757717
 51
306.1079926
  0
ARC
  8
LAYER_2
 10
75.4179
 20
198.802
 40
10.6933
 50
287.6105092
 51
297.4851461
  0
ARC
  8
LAYER_2
 10
73.8206
 20
203.947
 40
16.0805
 50
278.4879164
 51
287.488937
  0
ARC
  8
LAYER_2
 10
68.7819
 20
234.6346
 40
47.1779
 50
273.488438
 51
279.0393337
  0
ARC
  8
LAYER_2
 10
68.825
 20
236.8662
 40
49.4031
 50
270.2246421
 51
273.2810144
  0
ARC
  8
LAYER_2
 10
68.8995
 20
178.7719
 40
42.9917
 50
89.84114686
 51
94.81405979
  0
ARC
  8
LAYER_2
 10
67.6047
 20
194.9461
 40
26.7661
 50
94.95773488
 51
99.13862074
  0
LINE
  8
LAYER_2
 10
63.3536
 20
221.3724
 11
63.1069
 21
221.3308
  0
ARC
  8
LAYER_2
 10
65.7114
 20
199.0483
 40
22.4342
 50
96.66684253
 51
103.5749784
  0
ARC
  8
LAYER_2
 10
63.1379
 20
209.9476
 40
11.2355
 50
103.8639658
 51
112.7087921
  0
ARC
  8
LAYER_2
 10
62.4374
 20
211.7718
 40
9.2824
 50
113.0669591
 51
134.2364714
  0
ARC
  8
LAYER_2
 10
62.9564
 20
211.1469
 40
10.0924
 50
133.8722367
 51
136.2761372
  0
ARC
  8
LAYER_2
 10
62.8631
 20
211.2638
 40
9.9443
 50
136.3914419
 51
156.6644399
  0
ARC
  8
LAYER_2
 10
66.2881
 20
209.6591
 40
13.7252
 50
156.1769285
 51
164.8977145
  0
ARC
  8
LAYER_2
 10
72.0632
 20
208.1276
 40
19.6999
 50
164.9737266
 51
173.8388792
  0
ARC
  8
LAYER_2
 10
91.9351
 20
205.8371
 40
39.7031
 50
173.6302385
 51
178.7043793
  0
ARC
  8
LAYER_2
 10
107.3928
 20
205.1206
 40
55.1742
 50
178.3235094
 51
180.2364552
  0
LINE
  8
LAYER_2
 10
52.219
 20
204.8929
 11
52.219
 21
204.8924
  0
ARC
  8
LAYER_2
 10
103.0906
 20
204.689
 40
50.872
 50
179.7708752
 51
184.2826941
  0
ARC
  8
LAYER_2
 10
77.9241
 20
202.8604
 40
25.6393
 50
184.4076868
 51
190.7797292
  0
ARC
  8
LAYER_2
 10
71.1153
 20
201.5968
 40
18.7143
 50
190.8782949
 51
196.4846221
  0
ARC
  8
LAYER_2
 10
64.3119
 20
199.5879
 40
11.6205
 50
196.5049649
 51
214.6786869
  0
ARC
  8
LAYER_2
 10
63.0097
 20
198.716
 40
10.0536
 50
214.8149798
 51
234.292554
  0
ARC
  8
LAYER_2
 10
62.2689
 20
197.7964
 40
8.8747
 50
234.7107715
 51
242.2600547
  0
ARC
  8
LAYER_2
 10
62.8764
 20
199.0506
 40
10.2676
 50
242.5177377
 51
252.3893491
  0
ARC
  8
LAYER_2
 10
64.4195
 20
204.0319
 40
15.4824
 50
252.5235709
 51
261.4983548
  0
ARC
  8
LAYER_2
 10
69.2352
 20
233.3529
 40
45.1952
 50
260.9557017
 51
266.5185522
  0
ARC
  8
LAYER_2
 10
69.1952
 20
235.1916
 40
47.0283
 50
266.7031813
 51
269.7849258
  0
ARC
  8
LAYER_2
 10
69.1383
 20
178.7683
 40
42.9954
 50
85.18612929
 51
90.15936073
  0
ARC
  8
LAYER_2
 10
70.4346
 20
194.9613
 40
26.7507
 50
80.8595233
 51
85.04225928
  0
LINE
  8
LAYER_2
 10
74.6841
 20
221.3724
 11
74.9305
 21
221.3308
  0
ARC
  8
LAYER_2
 10
72.3277
 20
199.0547
 40
22.4276
 50
76.42470217
 51
83.33560443
  0
ARC
  8
LAYER_2
 10
74.9017
 20
209.9558
 40
11.2271
 50
67.28561833
 51
76.13569553
  0
ARC
  8
LAYER_2
 10
75.6011
 20
211.7722
 40
9.2816
 50
45.76526234
 51
66.93868549
  0
ARC
  8
LAYER_2
 10
75.0835
 20
211.1489
 40
10.0895
 50
43.72387306
 51
46.12846577
  0
ARC
  8
LAYER_2
 10
75.1712
 20
211.2619
 40
9.9481
 50
23.33810613
 51
43.60292419
  0
ARC
  8
LAYER_2
 10
71.7488
 20
209.658
 40
13.7264
 50
15.10532301
 51
23.82549996
  0
ARC
  8
LAYER_2
 10
65.9882
 20
208.1301
 40
19.6861
 50
6.158142771
 51
15.02952812
  0
ARC
  8
LAYER_2
 10
45.95
 20
205.8293
 40
39.8557
 50
1.301865328
 51
6.35655005
  0
ARC
  8
LAYER_2
 10
30.3054
 20
205.1039
 40
55.514
 50
359.7822783
 51
1.683520915
  0
LINE
  8
LAYER_2
 10
85.819
 20
204.8929
 11
85.819
 21
204.8924
  0
ARC
  8
LAYER_2
 10
34.8947
 20
204.6936
 40
50.9247
 50
355.7165119
 51
0.223666705
  0
ARC
  8
LAYER_2
 10
60.1124
 20
202.8609
 40
25.6406
 50
349.2196459
 51
355.5913783
  0
ARC
  8
LAYER_2
 10
66.9261
 20
201.5964
 40
18.7107
 50
343.5135311
 51
349.120984
  0
ARC
  8
LAYER_2
 10
73.7208
 20
199.5905
 40
11.626
 50
325.3244685
 51
343.4895854
  0
ARC
  8
LAYER_2
 10
75.0281
 20
198.7154
 40
10.0531
 50
305.709196
 51
325.1871311
  0
ARC
  8
LAYER_2
 10
75.7695
 20
197.7951
 40
8.8733
 50
297.7399333
 51
305.2903001
  0
ARC
  8
LAYER_2
 10
75.1615
 20
199.0514
 40
10.2684
 50
287.608076
 51
297.4799684
  0
ARC
  8
LAYER_2
 10
73.6171
 20
204.0372
 40
15.4878
 50
278.501756
 51
287.4741476
  0
ARC
  8
LAYER_2
 10
68.805
 20
233.3236
 40
45.1659
 50
273.4810822
 51
279.0466593
  0
ARC
  8
LAYER_2
 10
68.8418
 20
235.2283
 40
47.0651
 50
270.2153659
 51
273.2955554
  0
ARC
  8
LAYER_2
 10
62.7356
 20
222.5054
 40
0.5049
 50
278.2609554
 51
320.7902965
  0
ARC
  8
LAYER_2
 10
72.568
 20
220.3775
 40
2.9595
 50
37.67198525
 51
90.56270429
  0
ARC
  8
LAYER_2
 10
69.0239
 20
174.6807
 40
48.783
 50
85.8680259
 51
90.00609194
  0
ARC
  8
LAYER_2
 10
75.302
 20
222.5059
 40
0.5055
 50
219.2400258
 51
261.7549446
  0
INSERT
  8
LAYER_2
  2
AIGNBL02010008
 10
0
 20
0
 30
0
  0
LINE
  8
LAYER_2
 10
80.741
 20
216.0225
 11
75.0804
 21
216.0225
  0
CIRCLE
  8
LAYER_2
 10
152.6267
 20
210.372
 40
5.25
  0
LINE
  8
LAYER_2
 10
158.6267
 20
195.391
 11
158.6267
 21
204.6722
  0
LINE
  8
LAYER_2
 10
152.6267
 20
195.391
 11
152.6267
 21
202.172
  0
INSERT
  8
LAYER_2
  2
AIGNBL02010009
 10
0
 20
0
 30
0
  0
LINE
  8
LAYER_2
 10
146.6267
 20
195.391
 11
146.6267
 21
204.6722
  0
INSERT
  8
LAYER_2
  2
AIGNBL0201000A
 10
0
 20
0
 30
0
  0
LINE
  8
LAYER_2
 10
144.4267
 20
210.372
 11
137.6457
 21
210.372
  0
LINE
  8
LAYER_2
 10
144.9269
 20
206.3724
 11
137.6457
 21
206.3724
  0
INSERT
  8
LAYER_2
  2
AIGNBL0201000B
 10
0
 20
0
 30
0
  0
INSERT
  8
LAYER_2
  2
AIGNBL0201000C
 10
0
 20
0
 30
0
  0
INSERT
  8
LAYER_2
  2
AIGNBL0201000D
 10
0
 20
0
 30
0
  0
LINE
  8
LAYER_2
 10
95.7168
 20
123.1622
 11
72.9926
 21
123.1622
  0
LINE
  8
LAYER_2
 10
95.7165
 20
137.6619
 11
87.2192
 21
137.6619
  0
INSERT
  8
LAYER_2
  2
AIGNBL0201000E
 10
0
 20
0
 30
0
  0
INSERT
  8
LAYER_2
  2
AIGNBL0201000F
 10
0
 20
0
 30
0
  0
LINE
  8
LAYER_2
 10
46.144
 20
124.6621
 11
42.3216
 21
124.6621
  0
LINE
  8
LAYER_2
  6
AIGENLINE001
 10
89.8488
 20
124.6621
 11
46.844
 21
124.6621
  0
LINE
  8
LAYER_2
 10
46.144
 20
121.6622
 11
42.3216
 21
121.6622
  0
LINE
  8
LAYER_2
  6
AIGENLINE001
 10
89.8488
 20
121.6622
 11
46.844
 21
121.6622
  0
LINE
  8
LAYER_2
 10
60.2688
 20
124.0403
 11
60.2688
 21
109.8434
  0
LINE
  8
LAYER_2
 10
77.7689
 20
124.0403
 11
77.7689
 21
109.8434
  0
LINE
  8
LAYER_2
 10
50.8189
 20
137.6619
 11
42.3216
 21
137.6619
  0
INSERT
  8
LAYER_2
  2
AIGNBL02010010
 10
0
 20
0
 30
0
  0
INSERT
  8
LAYER_2
  2
AIGNBL02010011
 10
0
 20
0
 30
0
  0
INSERT
  8
LAYER_2
  2
AIGNBL02010012
 10
0
 20
0
 30
0
  0
LINE
  8
LAYER_2
 10
152.6267
 20
120.712
 11
152.6267
 21
103.1262
  0
LINE
  8
LAYER_2
 10
138.6269
 20
124.0324
 11
138.6269
 21
96.4262
  0
LINE
  8
LAYER_2
 10
159.1269
 20
102.68
 11
159.1269
 21
96.4262
  0
LINE
  8
LAYER_2
 10
159.1269
 20
124.0324
 11
159.1269
 21
108.9715
  0
LINE
  8
LAYER_2
 10
165.6264
 20
133.0165
 11
165.6264
 21
103.1262
  0
LINE
  8
LAYER_2
 10
149.1268
 20
123.6617
 11
149.1268
 21
124.6621
  0
LINE
  8
LAYER_2
 10
155.6759
 20
123.1622
 11
149.6264
 21
123.1622
  0
LINE
  8
LAYER_2
 10
138.8215
 20
124.6618
 11
159.0063
 21
124.6618
  0
ARC
  8
LAYER_2
 10
149.9338
 20
143.731
 40
21.3142
 50
197.8065011
 51
211.6280706
  0
ARC
  8
LAYER_2
 10
152.6119
 20
145.3011
 40
24.418
 50
211.4698153
 51
219.2140183
  0
ARC
  8
LAYER_2
 10
167.5695
 20
157.6835
 40
43.8356
 50
219.3934127
 51
224.2919074
  0
ARC
  8
LAYER_2
 10
207.2495
 20
196.216
 40
99.146
 50
224.2180431
 51
226.0773586
  0
LINE
  8
LAYER_2
 10
147.1266
 20
137.6619
 11
129.9766
 21
137.6619
  0
LINE
  8
LAYER_2
 10
129.6448
 20
137.2009
 11
129.6265
 21
137.3119
  0
ARC
  8
LAYER_2
 10
129.9765
 20
137.3119
 40
0.35
 50
89.99114899
 51
179.9924831
  0
LINE
  8
LAYER_2
  6
AIGENLINE002
 10
152.6263
 20
121.123
 11
152.6263
 21
128.7291
  0
LINE
  8
LAYER_2
  6
AIGENLINE003
 10
154.9266
 20
123.1794
 11
154.9266
 21
126.6793
  0
LINE
  8
LAYER_2
  6
AIGENLINE003
 10
156.3767
 20
127.6794
 11
154.9266
 21
126.6793
  0
LINE
  8
LAYER_2
  6
AIGENLINE003
 10
148.8767
 20
127.6794
 11
150.3264
 21
126.6793
  0
LINE
  8
LAYER_2
  6
AIGENLINE003
 10
150.3264
 20
123.1794
 11
150.3264
 21
126.6793
  0
LINE
  8
LAYER_2
  6
AIGENLINE003
 10
154.9266
 20
126.6793
 11
150.3264
 21
126.6793
  0
LINE
  8
LAYER_2
  6
AIGENLINE003
 10
156.6265
 20
127.6794
 11
148.8767
 21
127.6794
  0
LINE
  8
LAYER_2
 10
147.1266
 20
137.6619
 11
164.288
 21
137.6619
  0
LINE
  8
LAYER_2
 10
164.7489
 20
137.3566
 11
165.5637
 21
135.4281
  0
ARC
  8
LAYER_2
 10
156.6757
 20
124.1619
 40
0.5002
 50
270.0021152
 51
359.9978848
  0
ARC
  8
LAYER_2
 10
157.6758
 20
124.1619
 40
0.4999
 50
89.9993149
 51
180.0006851
  0
LINE
  8
LAYER_2
 10
156.3095
 20
123.6617
 11
156.6757
 21
123.6617
  0
ARC
  8
LAYER_2
 10
156.3131
 20
123.5068
 40
0.1549
 50
91.31415207
 51
164.582581
  0
ARC
  8
LAYER_2
 10
155.6694
 20
123.6718
 40
0.5096
 50
270.735248
 51
345.9455493
  0
ARC
  8
LAYER_2
 10
164.2802
 20
137.1496
 40
0.5123
 50
23.82671957
 51
89.13232573
  0
ARC
  8
LAYER_2
 10
164.8241
 20
135.1161
 40
0.8027
 50
0.03271611633
 51
22.86998562
  0
LINE
  8
LAYER_2
 10
165.6268
 20
135.1166
 11
165.6102
 21
134.9554
  0
ARC
  8
LAYER_2
 10
159.0054
 20
125.1648
 40
0.503
 50
270.0982011
 51
309.2346109
  0
ARC
  8
LAYER_2
 10
148.4223
 20
138.3789
 40
17.5255
 50
333.8321595
 51
348.7350632
  0
ARC
  8
LAYER_2
 10
149.6434
 20
137.8818
 40
16.2106
 50
320.0942708
 51
333.5057256
  0
ARC
  8
LAYER_2
 10
147.9718
 20
139.0833
 40
18.2644
 50
308.4279275
 51
320.5671852
  0
ARC
  8
LAYER_2
 10
164.288
 20
137.3119
 40
0.35
 50
0.004965868058
 51
89.99503412
  0
LINE
  8
LAYER_2
 10
164.638
 20
137.3119
 11
164.6349
 21
137.265
  0
LINE
  8
LAYER_2
  6
AIGENLINE002
 10
148.6266
 20
125.972
 11
148.6266
 21
117.012
  0
LINE
  8
LAYER_2
 10
149.0266
 20
124.6618
 11
149.0266
 21
121.6618
  0
LINE
  8
LAYER_2
 10
149.0266
 20
119.8618
 11
149.0266
 21
118.0621
  0
LINE
  8
LAYER_2
 10
148.6266
 20
118.0621
 11
149.0266
 21
118.0621
  0
LINE
  8
LAYER_2
 10
150.2265
 20
121.6618
 11
148.6266
 21
121.6618
  0
LINE
  8
LAYER_2
 10
150.2155
 20
121.2619
 11
148.6266
 21
121.2619
  0
LINE
  8
LAYER_2
 10
150.1765
 20
119.8618
 11
148.6266
 21
119.8618
  0
LINE
  8
LAYER_2
 10
150.2265
 20
121.6618
 11
150.1765
 21
119.8618
  0
LINE
  8
LAYER_2
 10
148.2266
 20
124.6618
 11
148.2266
 21
121.6618
  0
LINE
  8
LAYER_2
 10
148.2266
 20
119.8618
 11
148.2266
 21
118.0621
  0
LINE
  8
LAYER_2
 10
148.6266
 20
118.0621
 11
148.2266
 21
118.0621
  0
LINE
  8
LAYER_2
 10
147.0267
 20
121.6618
 11
148.6266
 21
121.6618
  0
LINE
  8
LAYER_2
 10
147.0377
 20
121.2619
 11
148.6266
 21
121.2619
  0
LINE
  8
LAYER_2
 10
147.0767
 20
119.8618
 11
148.6266
 21
119.8618
  0
LINE
  8
LAYER_2
 10
147.0267
 20
121.6618
 11
147.0767
 21
119.8618
  0
ARC
  8
LAYER_2
  6
AIGENLINE003
 10
136.3325
 20
139.2429
 40
6.2105
 50
194.7479945
 51
206.8437846
  0
ARC
  8
LAYER_2
  6
AIGENLINE003
 10
139.6735
 20
140.8422
 40
9.914
 50
206.3717528
 51
216.4901405
  0
ARC
  8
LAYER_2
  6
AIGENLINE003
 10
141.4147
 20
142.113
 40
12.0696
 50
216.4246902
 51
224.8906654
  0
ARC
  8
LAYER_2
  6
AIGENLINE003
 10
142.9204
 20
143.6153
 40
14.1965
 50
224.8971047
 51
232.972838
  0
ARC
  8
LAYER_2
  6
AIGENLINE003
 10
144.5828
 20
145.8222
 40
16.9595
 50
232.9792755
 51
240.2919744
  0
ARC
  8
LAYER_2
  6
AIGENLINE003
 10
146.2765
 20
148.7906
 40
20.3772
 50
240.2917848
 51
246.7000566
  0
ARC
  8
LAYER_2
  6
AIGENLINE003
 10
148.067
 20
152.9533
 40
24.9085
 50
246.704882
 51
252.7275203
  0
ARC
  8
LAYER_2
  6
AIGENLINE003
 10
149.8815
 20
158.7903
 40
31.0211
 50
252.7281616
 51
258.2793891
  0
ARC
  8
LAYER_2
  6
AIGENLINE003
 10
151.8376
 20
168.3839
 40
40.812
 50
258.3264962
 51
265.839538
  0
ARC
  8
LAYER_2
  6
AIGENLINE003
 10
156.6104
 20
132.6815
 40
5.0021
 50
270.184867
 51
310.6382218
  0
ARC
  8
LAYER_2
  6
AIGENLINE003
 10
155.0583
 20
134.7437
 40
7.5796
 50
309.3884551
 51
319.9121774
  0
ARC
  8
LAYER_2
  6
AIGENLINE003
 10
152.6835
 20
136.7471
 40
10.6866
 50
319.8937796
 51
328.9247379
  0
ARC
  8
LAYER_2
  6
AIGENLINE003
 10
148.4631
 20
139.294
 40
15.616
 50
328.9137339
 51
336.9249354
  0
ARC
  8
LAYER_2
  6
AIGENLINE003
 10
142.4702
 20
141.868
 40
22.1382
 50
336.8753081
 51
348.66601
  0
ARC
  8
LAYER_2
 10
138.8235
 20
125.1658
 40
0.504
 50
225.9757066
 51
269.7762776
  0
ARC
  8
LAYER_2
 10
148.4888
 20
137.8152
 40
16.1555
 50
350.503548
 51
358.0482861
  0
ARC
  8
LAYER_2
 10
143.9933
 20
138.4451
 40
20.6937
 50
337.4189734
 51
350.8371528
  0
ARC
  8
LAYER_2
 10
146.5999
 20
137.3895
 40
17.8815
 50
322.7377687
 51
337.3348677
  0
ARC
  8
LAYER_2
 10
148.1414
 20
136.3165
 40
16.0053
 50
314.0256313
 51
322.4538237
  0
ARC
  8
LAYER_2
 10
158.909
 20
125.1672
 40
0.5054
 50
270.2537791
 51
314.7394434
  0
ARC
  8
LAYER_2
  6
AIGENLINE003
 10
164.3314
 20
137.5134
 40
0.1547
 50
106.2800823
 51
178.5865608
  0
ARC
  8
LAYER_2
 10
149.6263
 20
123.6617
 40
0.4995
 50
180.002726
 51
270.0087435
  0
LINE
  8
LAYER_2
 10
60.4811
 20
124.6618
 11
69.0187
 21
124.6618
  0
ARC
  8
LAYER_2
 10
71.8292
 20
143.7327
 40
21.3179
 50
197.8081737
 51
211.6274233
  0
ARC
  8
LAYER_2
 10
74.5003
 20
145.2988
 40
24.4136
 50
211.4697891
 51
219.2154468
  0
ARC
  8
LAYER_2
 10
116.8211
 20
180.3147
 40
79.3419
 50
219.4845292
 51
224.3840336
  0
INSERT
  8
LAYER_2
  2
AIGNBL02010013
 10
0
 20
0
 30
0
  0
LINE
  8
LAYER_2
 10
51.5369
 20
137.2009
 11
51.5186
 21
137.3119
  0
ARC
  8
LAYER_2
 10
51.8687
 20
137.3118
 40
0.3501
 50
89.9919015
 51
179.9917306
  0
LINE
  8
LAYER_2
  6
AIGENLINE003
 10
69.0187
 20
134.2619
 11
64.9183
 21
134.2619
  0
LINE
  8
LAYER_2
  6
AIGENLINE003
 10
69.0187
 20
135.0619
 11
64.9183
 21
135.0619
  0
ARC
  8
LAYER_2
  6
AIGENLINE003
 10
64.9185
 20
134.6617
 40
0.3998
 50
179.9747769
 51
269.9678987
  0
ARC
  8
LAYER_2
  6
AIGENLINE003
 10
64.9185
 20
134.6621
 40
0.3998
 50
90.03115543
 51
180.026169
  0
LINE
  8
LAYER_2
  6
AIGENLINE002
 10
63.0187
 20
125.972
 11
63.0187
 21
117.012
  0
LINE
  8
LAYER_2
 10
62.6184
 20
119.8618
 11
62.6184
 21
118.0621
  0
LINE
  8
LAYER_2
 10
62.6184
 20
118.0621
 11
63.0187
 21
118.0621
  0
LINE
  8
LAYER_2
 10
62.6184
 20
124.6618
 11
62.6184
 21
121.6618
  0
LINE
  8
LAYER_2
 10
61.4188
 20
121.6618
 11
63.0187
 21
121.6618
  0
LINE
  8
LAYER_2
 10
62.7187
 20
119.8618
 11
63.0187
 21
119.8618
  0
LINE
  8
LAYER_2
 10
62.4186
 20
119.8618
 11
62.7187
 21
119.8618
  0
LINE
  8
LAYER_2
 10
61.4188
 20
121.6618
 11
61.4684
 21
121.2619
  0
ARC
  8
LAYER_2
 10
60.4833
 20
125.1676
 40
0.5058
 50
223.6308625
 51
269.7479152
  0
LINE
  8
LAYER_2
 10
62.7187
 20
119.8618
 11
62.6218
 21
121.2157
  0
LINE
  8
LAYER_2
 10
62.4186
 20
119.8618
 11
62.3704
 21
121.2136
  0
LINE
  8
LAYER_2
 10
77.5563
 20
124.6618
 11
69.0187
 21
124.6618
  0
ARC
  8
LAYER_2
 10
66.1983
 20
143.7378
 40
21.3288
 50
328.3745184
 51
342.1868087
  0
ARC
  8
LAYER_2
 10
63.5481
 20
145.292
 40
24.4005
 50
320.780268
 51
328.5302893
  0
ARC
  8
LAYER_2
 10
21.1714
 20
180.3548
 40
79.4018
 50
315.6178148
 51
320.5136224
  0
INSERT
  8
LAYER_2
  2
AIGNBL02010014
 10
0
 20
0
 30
0
  0
LINE
  8
LAYER_2
 10
86.5005
 20
137.2009
 11
86.5184
 21
137.3119
  0
ARC
  8
LAYER_2
 10
86.1684
 20
137.3119
 40
0.35
 50
0.005213546945
 51
89.99478644
  0
LINE
  8
LAYER_2
  6
AIGENLINE003
 10
69.0187
 20
134.2619
 11
73.1183
 21
134.2619
  0
LINE
  8
LAYER_2
  6
AIGENLINE003
 10
69.0187
 20
135.0619
 11
73.1183
 21
135.0619
  0
ARC
  8
LAYER_2
  6
AIGENLINE003
 10
73.1185
 20
134.6621
 40
0.4002
 50
269.968748
 51
359.9739848
  0
ARC
  8
LAYER_2
  6
AIGENLINE003
 10
73.1185
 20
134.6617
 40
0.4002
 50
0.02507079756
 51
90.03219633
  0
ARC
  8
LAYER_2
 10
77.5541
 20
125.1667
 40
0.5049
 50
270.2529735
 51
316.4140667
  0
LINE
  8
LAYER_2
  6
AIGENLINE002
 10
69.0187
 20
140.162
 11
69.0187
 21
120.6617
  0
LINE
  8
LAYER_2
 10
62.3204
 20
121.2619
 11
62.5722
 21
121.2619
  0
LINE
  8
LAYER_2
 10
61.4684
 20
121.2619
 11
62.3204
 21
121.2619
  0
ARC
  8
LAYER_2
  6
AIGENLINE002
 10
62.5707
 20
121.2106
 40
0.0513
 50
5.725491061
 51
88.33972648
  0
ARC
  8
LAYER_2
 10
62.3185
 20
121.2099
 40
0.0521
 50
4.114460301
 51
87.86708834
  0
LINE
  8
LAYER_2
 10
63.4184
 20
119.8618
 11
63.4184
 21
118.0621
  0
LINE
  8
LAYER_2
 10
63.4184
 20
118.0621
 11
63.0187
 21
118.0621
  0
LINE
  8
LAYER_2
 10
63.4184
 20
124.6618
 11
63.4184
 21
121.6618
  0
LINE
  8
LAYER_2
 10
64.6186
 20
121.6618
 11
63.0187
 21
121.6618
  0
LINE
  8
LAYER_2
 10
63.3185
 20
119.8618
 11
63.0187
 21
119.8618
  0
LINE
  8
LAYER_2
 10
63.6185
 20
119.8618
 11
63.3185
 21
119.8618
  0
LINE
  8
LAYER_2
 10
64.6186
 20
121.6618
 11
64.5687
 21
121.2619
  0
LINE
  8
LAYER_2
 10
63.3185
 20
119.8618
 11
63.4153
 21
121.2157
  0
LINE
  8
LAYER_2
 10
63.6185
 20
119.8618
 11
63.6671
 21
121.2136
  0
LINE
  8
LAYER_2
 10
63.7167
 20
121.2619
 11
63.4652
 21
121.2619
  0
LINE
  8
LAYER_2
 10
64.5687
 20
121.2619
 11
63.7167
 21
121.2619
  0
ARC
  8
LAYER_2
  6
AIGENLINE002
 10
63.4664
 20
121.2106
 40
0.0514
 50
91.3422997
 51
174.2479245
  0
ARC
  8
LAYER_2
 10
63.7184
 20
121.2105
 40
0.0514
 50
91.9375229
 51
176.5409217
  0
LINE
  8
LAYER_2
  6
AIGENLINE002
 10
75.0187
 20
125.972
 11
75.0187
 21
117.012
  0
LINE
  8
LAYER_2
 10
74.6184
 20
119.8618
 11
74.6184
 21
118.0621
  0
LINE
  8
LAYER_2
 10
74.6184
 20
118.0621
 11
75.0187
 21
118.0621
  0
LINE
  8
LAYER_2
 10
74.6184
 20
124.6618
 11
74.6184
 21
121.6618
  0
LINE
  8
LAYER_2
 10
73.4188
 20
121.6618
 11
75.0187
 21
121.6618
  0
LINE
  8
LAYER_2
 10
74.7186
 20
119.8618
 11
75.0187
 21
119.8618
  0
LINE
  8
LAYER_2
 10
74.4185
 20
119.8618
 11
74.7186
 21
119.8618
  0
LINE
  8
LAYER_2
 10
73.4188
 20
121.6618
 11
73.4684
 21
121.2619
  0
LINE
  8
LAYER_2
 10
74.7186
 20
119.8618
 11
74.6218
 21
121.2157
  0
LINE
  8
LAYER_2
 10
74.4185
 20
119.8618
 11
74.3703
 21
121.2136
  0
LINE
  8
LAYER_2
 10
74.3204
 20
121.2619
 11
74.5722
 21
121.2619
  0
LINE
  8
LAYER_2
 10
73.4684
 20
121.2619
 11
74.3204
 21
121.2619
  0
ARC
  8
LAYER_2
  6
AIGENLINE002
 10
74.5707
 20
121.2106
 40
0.0513
 50
5.725491061
 51
88.33972648
  0
ARC
  8
LAYER_2
 10
74.3189
 20
121.2105
 40
0.0515
 50
3.488176623
 51
88.37873042
  0
LINE
  8
LAYER_2
 10
75.4187
 20
119.8618
 11
75.4187
 21
118.0621
  0
LINE
  8
LAYER_2
 10
75.4187
 20
118.0621
 11
75.0187
 21
118.0621
  0
LINE
  8
LAYER_2
 10
75.4187
 20
124.6618
 11
75.4187
 21
121.6618
  0
LINE
  8
LAYER_2
 10
76.6186
 20
121.6618
 11
75.0187
 21
121.6618
  0
LINE
  8
LAYER_2
 10
75.3184
 20
119.8618
 11
75.0187
 21
119.8618
  0
LINE
  8
LAYER_2
 10
75.6188
 20
119.8618
 11
75.3184
 21
119.8618
  0
LINE
  8
LAYER_2
 10
76.6186
 20
121.6618
 11
76.5686
 21
121.2619
  0
LINE
  8
LAYER_2
 10
75.3184
 20
119.8618
 11
75.4152
 21
121.2157
  0
LINE
  8
LAYER_2
 10
75.6188
 20
119.8618
 11
75.6671
 21
121.2136
  0
LINE
  8
LAYER_2
 10
75.7167
 20
121.2619
 11
75.4652
 21
121.2619
  0
LINE
  8
LAYER_2
 10
76.5686
 20
121.2619
 11
75.7167
 21
121.2619
  0
ARC
  8
LAYER_2
  6
AIGENLINE002
 10
75.4664
 20
121.2104
 40
0.0515
 50
91.34655783
 51
174.1293085
  0
ARC
  8
LAYER_2
 10
75.7183
 20
121.2106
 40
0.0513
 50
91.79074167
 51
176.6877029
  0
LINE
  8
LAYER_2
 10
144.817
 20
218.1627
 11
133.0172
 21
218.1627
  0
LINE
  8
LAYER_2
 10
151.0537
 20
211.9259
 11
144.817
 21
218.1627
  0
LINE
  8
LAYER_2
 10
149.0769
 20
213.0754
 11
151.0585
 21
211.9305
  0
LINE
  8
LAYER_2
 10
151.0585
 20
211.9305
 11
149.9144
 21
213.9134
  0
LINE
  8
LAYER_2
 10
149.9144
 20
213.9134
 11
149.0769
 21
213.0754
  0
LINE
  8
LAYER_2
  6
AIGENLINE003
 10
69.0185
 20
195.2136
 11
64.2684
 21
195.2136
  0
ARC
  8
LAYER_2
  6
AIGENLINE003
 10
64.2684
 20
199.2135
 40
3.9999
 50
180.0001374
 51
269.9998626
  0
LINE
  8
LAYER_2
  6
AIGENLINE003
 10
69.0187
 20
195.2136
 11
73.7688
 21
195.2136
  0
ARC
  8
LAYER_2
  6
AIGENLINE003
 10
73.7688
 20
199.2135
 40
3.9999
 50
270.000039
 51
359.999961
  0
LINE
  8
LAYER_2
  6
AIGENLINE003
 10
60.2685
 20
211.7135
 11
60.2685
 21
205.4636
  0
LINE
  8
LAYER_2
  6
AIGENLINE003
 10
60.2685
 20
205.4636
 11
60.2685
 21
205.4634
  0
LINE
  8
LAYER_2
  6
AIGENLINE003
 10
60.2685
 20
205.4634
 11
60.2685
 21
199.2135
  0
LINE
  8
LAYER_2
  6
AIGENLINE003
 10
69.0185
 20
215.7134
 11
64.2684
 21
215.7134
  0
ARC
  8
LAYER_2
  6
AIGENLINE003
 10
64.2684
 20
211.7135
 40
3.9999
 50
90.00006247
 51
179.9999375
  0
LINE
  8
LAYER_2
  6
AIGENLINE003
 10
77.7687
 20
211.7135
 11
77.7687
 21
205.4636
  0
LINE
  8
LAYER_2
  6
AIGENLINE003
 10
77.7687
 20
205.4636
 11
77.7687
 21
205.4634
  0
LINE
  8
LAYER_2
  6
AIGENLINE003
 10
77.7687
 20
205.4634
 11
77.7687
 21
199.2135
  0
LINE
  8
LAYER_2
  6
AIGENLINE003
 10
69.0187
 20
215.7134
 11
73.7688
 21
215.7134
  0
ARC
  8
LAYER_2
  6
AIGENLINE003
 10
73.7688
 20
211.7135
 40
3.9999
 50
359.9999641
 51
90.00003586
  0
CIRCLE
  8
LAYER_2
  6
AIGENLINE003
 10
75.0187
 20
206.3722
 40
0.5
  0
LINE
  8
LAYER_2
  6
AIGENLINE002
 10
63.0187
 20
207.372
 11
63.0187
 21
205.3721
  0
LINE
  8
LAYER_2
  6
AIGENLINE002
 10
62.0188
 20
206.3721
 11
64.0187
 21
206.3721
  0
CIRCLE
  8
LAYER_2
  6
AIGENLINE003
 10
63.0187
 20
206.3722
 40
0.5001
  0
LINE
  8
LAYER_2
 10
50.4935
 20
229.2952
 11
36.0066
 21
229.2952
  0
INSERT
  8
LAYER_2
  2
AIGNBL02010015
 10
0
 20
0
 30
0
  0
INSERT
  8
LAYER_2
  2
AIGNBL02010017
 10
0
 20
0
 30
0
  0
LINE
  8
LAYER_2
 10
145.1594
 20
110.9297
 11
155.9781
 21
110.9297
  0
LINE
  8
LAYER_2
 10
146.4155
 20
110.3371
 11
148.6266
 21
110.9297
  0
LINE
  8
LAYER_2
 10
148.6266
 20
110.9297
 11
146.4155
 21
111.5215
  0
LINE
  8
LAYER_2
 10
146.4155
 20
111.5215
 11
146.4155
 21
110.3371
  0
LINE
  8
LAYER_2
 10
154.8378
 20
111.5215
 11
152.6267
 21
110.9297
  0
LINE
  8
LAYER_2
 10
152.6267
 20
110.9297
 11
154.8378
 21
110.3371
  0
LINE
  8
LAYER_2
 10
154.8378
 20
110.3371
 11
154.8378
 21
111.5215
  0
LINE
  8
LAYER_2
 10
148.6266
 20
116.3119
 11
148.6266
 21
110.2296
  0
LINE
  8
LAYER_3
 10
21.9883
 20
57.4277
 11
188.4887
 21
57.4277
  0
LINE
  8
LAYER_3
 10
108.4881
 20
37.4275
 11
188.4887
 21
37.4275
  0
LINE
  8
LAYER_3
 10
21.9883
 20
44.9282
 11
108.4881
 21
44.9282
  0
LINE
  8
LAYER_3
 10
21.9883
 20
30.928
 11
108.4881
 21
30.928
  0
LINE
  8
LAYER_3
 10
33.4881
 20
30.928
 11
33.4881
 21
44.9282
  0
LINE
  8
LAYER_3
 10
108.4881
 20
17.428
 11
108.4881
 21
57.4277
  0
LINE
  8
LAYER_3
 10
89.4881
 20
30.928
 11
89.4881
 21
57.4277
  0
LINE
  8
LAYER_3
 10
70.488
 20
30.928
 11
70.488
 21
57.4277
  0
LINE
  8
LAYER_3
 10
188.4887
 20
17.428
 11
21.9883
 21
17.428
  0
LINE
  8
LAYER_3
 10
21.9883
 20
17.428
 11
21.9883
 21
280.4283
  0
LINE
  8
LAYER_3
 10
21.9883
 20
280.4283
 11
188.4887
 21
280.4283
  0
LINE
  8
LAYER_3
 10
188.4887
 20
280.4283
 11
188.4887
 21
17.428
  0
TEXT
  8
LAYER_3
 10
48.4872
 20
49.4557
 11
48.4872
 21
49.4557
 40
4.4979
 41
0.5
 72
1
  1
セラトレーディング株式会社
  0
TEXT
  8
LAYER_3
 10
22.9598
 20
40.9298
 11
22.9598
 21
40.9298
 40
3.0923
 41
0.5
  1
製図
  0
TEXT
  8
LAYER_3
 10
22.9598
 20
26.7305
 11
22.9598
 21
26.7305
 40
3.0923
 41
0.5
  1
備考
  0
TEXT
  8
LAYER_3
 10
34.5781
 20
40.9298
 11
34.5781
 21
40.9298
 40
3.0923
 41
0.5
  1
検図
  0
TEXT
  8
LAYER_3
 10
71.5316
 20
40.9298
 11
71.5316
 21
40.9298
 40
3.0923
 41
0.5
  1
日付
  0
TEXT
  8
LAYER_3
 10
72.7239
 20
34.7369
 11
72.7239
 21
34.7369
 40
3.6546
 41
0.5
  1
22.07.22
  0
TEXT
  8
LAYER_3
 10
27.6779
 20
35.1221
 11
27.6779
 21
35.1221
 40
3.6546
 41
0.5
 72
1
  1
木場
  0
TEXT
  8
LAYER_3
 10
46.2521
 20
35.1221
 11
46.2521
 21
35.1221
 40
3.6546
 41
0.5
 72
1
  1
井田
  0
TEXT
  8
LAYER_3
 10
114.1167
 20
45.7447
 11
114.1167
 21
45.7447
 40
3.9357
 41
0.5
  1
イノ　洗面器
  0
TEXT
  8
LAYER_3
 10
29.5255
 20
22.2264
 11
29.5255
 21
22.2264
 40
3.9357
 41
0.5
  1
実容量：3.4L、重量：4.5kg、オーバーフロー付
  0
TEXT
  8
LAYER_3
 10
148.4878
 20
20.6265
 11
148.4878
 21
20.6265
 40
3.9357
 41
0.5
 72
1
  1
AU12300R
  0
TEXT
  8
LAYER_3
 10
148.4878
 20
30.6269
 11
148.4878
 21
30.6269
 40
3.9357
 41
0.5
 72
1
  1
AU12300R
  0
TEXT
  8
LAYER_3
 10
98.898
 20
34.7369
 11
98.898
 21
34.7369
 40
3.6546
 41
0.5
 72
1
  1
1 ： 10
  0
TEXT
  8
LAYER_3
 10
90.5816
 20
40.9298
 11
90.5816
 21
40.9298
 40
3.0923
 41
0.5
  1
尺度
  0
TEXT
  8
LAYER_3
 10
90.5816
 20
53.337
 11
90.5816
 21
53.337
 40
3.0923
 41
0.5
  1
単位
  0
TEXT
  8
LAYER_3
 10
98.3061
 20
48.3409
 11
98.3061
 21
48.3409
 40
3.6546
 41
0.5
 72
1
  1
mm
  0
TEXT
  8
LAYER_3
 10
109.543
 20
53.337
 11
109.543
 21
53.337
 40
3.0923
 41
0.5
  1
名称
  0
TEXT
  8
LAYER_3
 10
109.543
 20
33.1983
 11
109.543
 21
33.1983
 40
3.0923
 41
0.5
  1
品番
  0
LINE
  8
LAYER_3
 10
108.4881
 20
27.4278
 11
188.4887
 21
27.4278
  0
TEXT
  8
LAYER_3
 10
109.543
 20
23.1986
 11
109.543
 21
23.1986
 40
3.0923
 41
0.5
  1
図番
  0
INSERT
  8
LAYER_3
  2
AIGNBL03010002
 10
0
 20
0
 30
0
  0
LINE
  8
LAYER_3
 10
21.9883
 20
148.9296
 11
0.2384
 21
148.9296
  0
LINE
  8
LAYER_3
 10
105.2382
 20
297.4482
 11
105.2382
 21
280.4283
  0
LINE
  8
LAYER_3
 10
105.2382
 20
17.428
 11
105.2382
 21
0.4479
  0
LINE
  8
LAYER_3
 10
210.2383
 20
148.9296
 11
188.4881
 21
148.9296
  0
TEXT
  8
LAYER_3
 10
25.7941
 20
61.2138
 11
25.7941
 21
61.2138
 40
4.2168
 41
0.5
  1
※カウンター取付金具（2本）付
  0
ENDSEC
  0
EOF
