  0
SECTION
  2
HEADER
  9
$ACADVER
  1
AC1009
  9
$LUNITS
 70
2
  9
$LUPREC
 70
4
  9
$LTSCALE
 40
1.0
  9
$EXTMIN
 10
0.2384
 20
0.4479
 30
0
  9
$EXTMAX
 10
210.2383
 20
297.4482
 30
0
  0
ENDSEC
  0
SECTION
  2
TABLES
  0
TABLE
  2
LTYPE
 70
256
  0
LTYPE
  2
AIGENLINE001
 70
64
  3
generate AI->DXF Converter
 72
65
 73
6
 40
7.4083
 49
3.5278
 49
-0.7761
 49
0.7761
 49
-0.7761
 49
0.7761
 49
-0.7761
  0
LTYPE
  2
AIGENLINE002
 70
64
  3
generate AI->DXF Converter
 72
65
 73
4
 40
5.8561
 49
3.5278
 49
-0.7761
 49
0.7761
 49
-0.7761
  0
LTYPE
  2
AIGENLINE003
 70
64
  3
generate AI->DXF Converter
 72
65
 73
2
 40
1.5522
 49
0.7761
 49
-0.7761
  0
ENDTAB
  0
TABLE
  2
LAYER
 70
3
  0
LAYER
  2
LAYER_1
 70
64
 62
7
  6
CONTINUOUS
  0
LAYER
  2
LAYER_2
 70
64
 62
7
  6
CONTINUOUS
  0
LAYER
  2
LAYER_3
 70
64
 62
7
  6
CONTINUOUS
  0
ENDTAB
  0
TABLE
  2
STYLE
 70
6
  0
STYLE
  2
STANDARD
 70
0
 40
0
 50
0
 71
0
 41
0
 42
0
  3
TXT
  4
BIGFONT
  0
ENDTAB
  0
ENDSEC
  0
SECTION
  2
BLOCKS
  0
BLOCK
  8
LAYER_2
  2
AIGNBL0202001A
 70
64
 10
0
 20
0
 30
0
  3
AIGNBL0202001A
  0
LINE
  8
LAYER_2
 10
60.6853
 20
224.9608
 11
70.0691
 21
215.6727
  0
ENDBLK
  0
BLOCK
  8
LAYER_2
  2
AIGNBL0202001D
 70
64
 10
0
 20
0
 30
0
  3
AIGNBL0202001D
  0
LINE
  8
LAYER_2
 10
60.6853
 20
143.3134
 11
70.0691
 21
134.0253
  0
ENDBLK
  0
BLOCK
  8
LAYER_1
  2
AIGNBL01010002
 70
64
 10
0
 20
0
 30
0
  3
AIGNBL01010002
  0
TEXT
  8
LAYER_1
 10
49.6943
 20
225.6608
 11
49.6943
 21
225.6608
 40
3.0923
 41
0.5
  1
メーカーロゴ
  0
ENDBLK
  0
BLOCK
  8
LAYER_1
  2
AIGNBL01010003
 70
64
 10
0
 20
0
 30
0
  3
AIGNBL01010003
  0
TEXT
  8
LAYER_1
 10
49.6943
 20
144.0133
 11
49.6943
 21
144.0133
 40
3.0923
 41
0.5
  1
メーカーロゴ
  0
ENDBLK
  0
BLOCK
  8
LAYER_2
  2
AIGNBL02010002
 70
64
 10
0
 20
0
 30
0
  3
AIGNBL02010002
  0
LINE
  8
LAYER_2
 10
45.0689
 20
170.5696
 11
95.069
 21
170.5696
  0
LINE
  8
LAYER_2
 10
92.8582
 20
169.9846
 11
95.069
 21
170.5768
  0
LINE
  8
LAYER_2
 10
95.069
 20
170.5768
 11
92.8582
 21
171.169
  0
LINE
  8
LAYER_2
 10
92.8582
 20
171.169
 11
92.8582
 21
169.9846
  0
LINE
  8
LAYER_2
 10
47.2796
 20
171.1546
 11
45.0689
 21
170.5627
  0
LINE
  8
LAYER_2
 10
45.0689
 20
170.5627
 11
47.2796
 21
169.9702
  0
LINE
  8
LAYER_2
 10
47.2796
 20
169.9702
 11
47.2796
 21
171.1546
  0
ENDBLK
  0
BLOCK
  8
LAYER_2
  2
AIGNBL02010003
 70
64
 10
0
 20
0
 30
0
  3
AIGNBL02010003
  0
LINE
  8
LAYER_2
 10
45.7664
 20
176.5694
 11
94.3689
 21
176.5694
  0
LINE
  8
LAYER_2
 10
92.1582
 20
175.9844
 11
94.3689
 21
176.5766
  0
LINE
  8
LAYER_2
 10
94.3689
 20
176.5766
 11
92.1582
 21
177.1688
  0
LINE
  8
LAYER_2
 10
92.1582
 20
177.1688
 11
92.1582
 21
175.9844
  0
LINE
  8
LAYER_2
 10
47.9771
 20
177.1544
 11
45.7664
 21
176.5625
  0
LINE
  8
LAYER_2
 10
45.7664
 20
176.5625
 11
47.9771
 21
175.97
  0
LINE
  8
LAYER_2
 10
47.9771
 20
175.97
 11
47.9771
 21
177.1544
  0
ENDBLK
  0
BLOCK
  8
LAYER_2
  2
AIGNBL02010004
 70
64
 10
0
 20
0
 30
0
  3
AIGNBL02010004
  0
LINE
  8
LAYER_2
 10
108.9691
 20
185.4981
 11
108.9691
 21
227.7248
  0
LINE
  8
LAYER_2
 10
109.625
 20
217.7869
 11
109.0331
 21
219.9976
  0
LINE
  8
LAYER_2
 10
109.0331
 20
219.9976
 11
108.4406
 21
217.7869
  0
LINE
  8
LAYER_2
 10
108.4406
 20
217.7869
 11
109.625
 21
217.7869
  0
LINE
  8
LAYER_2
 10
108.3841
 20
187.7088
 11
108.9759
 21
185.4981
  0
LINE
  8
LAYER_2
 10
108.9759
 20
185.4981
 11
109.5685
 21
187.7088
  0
LINE
  8
LAYER_2
 10
109.5685
 20
187.7088
 11
108.3841
 21
187.7088
  0
ENDBLK
  0
BLOCK
  8
LAYER_2
  2
AIGNBL02010005
 70
64
 10
0
 20
0
 30
0
  3
AIGNBL02010005
  0
LINE
  8
LAYER_2
 10
108.455
 20
223.709
 11
109.0469
 21
221.4983
  0
LINE
  8
LAYER_2
 10
109.0469
 20
221.4983
 11
109.6395
 21
223.709
  0
LINE
  8
LAYER_2
 10
109.6395
 20
223.709
 11
108.455
 21
223.709
  0
ENDBLK
  0
BLOCK
  8
LAYER_2
  2
AIGNBL02010006
 70
64
 10
0
 20
0
 30
0
  3
AIGNBL02010006
  0
LINE
  8
LAYER_2
 10
114.969
 20
185.4981
 11
114.969
 21
221.4983
  0
LINE
  8
LAYER_2
 10
115.554
 20
219.2875
 11
114.9622
 21
221.4983
  0
LINE
  8
LAYER_2
 10
114.9622
 20
221.4983
 11
114.3696
 21
219.2875
  0
LINE
  8
LAYER_2
 10
114.3696
 20
219.2875
 11
115.554
 21
219.2875
  0
LINE
  8
LAYER_2
 10
114.3841
 20
187.7088
 11
114.9759
 21
185.4981
  0
LINE
  8
LAYER_2
 10
114.9759
 20
185.4981
 11
115.5685
 21
187.7088
  0
LINE
  8
LAYER_2
 10
115.5685
 20
187.7088
 11
114.3841
 21
187.7088
  0
ENDBLK
  0
BLOCK
  8
LAYER_2
  2
AIGNBL02010007
 70
64
 10
0
 20
0
 30
0
  3
AIGNBL02010007
  0
LINE
  8
LAYER_2
 10
102.9691
 20
186.1981
 11
102.9691
 21
219.2982
  0
LINE
  8
LAYER_2
 10
103.5541
 20
217.0875
 11
102.9619
 21
219.2982
  0
LINE
  8
LAYER_2
 10
102.9619
 20
219.2982
 11
102.3696
 21
217.0875
  0
LINE
  8
LAYER_2
 10
102.3696
 20
217.0875
 11
103.5541
 21
217.0875
  0
LINE
  8
LAYER_2
 10
102.3841
 20
188.4088
 11
102.976
 21
186.1981
  0
LINE
  8
LAYER_2
 10
102.976
 20
186.1981
 11
103.5685
 21
188.4088
  0
LINE
  8
LAYER_2
 10
103.5685
 20
188.4088
 11
102.3841
 21
188.4088
  0
ENDBLK
  0
BLOCK
  8
LAYER_2
  2
AIGNBL02010008
 70
64
 10
0
 20
0
 30
0
  3
AIGNBL02010008
  0
LINE
  8
LAYER_2
 10
76.3385
 20
214.3568
 11
65.8413
 21
203.8595
  0
LINE
  8
LAYER_2
 10
73.6451
 20
210.8261
 11
71.6635
 21
209.6818
  0
LINE
  8
LAYER_2
 10
71.6635
 20
209.6818
 11
72.8076
 21
211.6637
  0
LINE
  8
LAYER_2
 10
72.8076
 20
211.6637
 11
73.6451
 21
210.8261
  0
LINE
  8
LAYER_2
 10
66.4996
 20
205.3554
 11
68.4816
 21
206.4997
  0
LINE
  8
LAYER_2
 10
68.4816
 20
206.4997
 11
67.3372
 21
204.5178
  0
LINE
  8
LAYER_2
 10
67.3372
 20
204.5178
 11
66.4996
 21
205.3554
  0
ENDBLK
  0
BLOCK
  8
LAYER_2
  2
AIGNBL02010009
 70
64
 10
0
 20
0
 30
0
  3
AIGNBL02010009
  0
LINE
  8
LAYER_2
 10
162.8655
 20
193.1246
 11
165.0766
 21
193.7169
  0
LINE
  8
LAYER_2
 10
165.0766
 20
193.7169
 11
162.8655
 21
194.3091
  0
LINE
  8
LAYER_2
 10
162.8655
 20
194.3091
 11
162.8655
 21
193.1246
  0
LINE
  8
LAYER_2
 10
153.787
 20
194.2946
 11
151.5766
 21
193.7027
  0
LINE
  8
LAYER_2
 10
151.5766
 20
193.7027
 11
153.787
 21
193.1102
  0
LINE
  8
LAYER_2
 10
153.787
 20
193.1102
 11
153.787
 21
194.2946
  0
ENDBLK
  0
BLOCK
  8
LAYER_2
  2
AIGNBL0201000A
 70
64
 10
0
 20
0
 30
0
  3
AIGNBL0201000A
  0
LINE
  8
LAYER_2
 10
138.0767
 20
193.7096
 11
165.0766
 21
193.7096
  0
LINE
  8
LAYER_2
 10
149.3655
 20
193.1246
 11
151.5766
 21
193.7169
  0
LINE
  8
LAYER_2
 10
151.5766
 20
193.7169
 11
149.3655
 21
194.3091
  0
LINE
  8
LAYER_2
 10
149.3655
 20
194.3091
 11
149.3655
 21
193.1246
  0
LINE
  8
LAYER_2
 10
140.2871
 20
194.2946
 11
138.0767
 21
193.7027
  0
LINE
  8
LAYER_2
 10
138.0767
 20
193.7027
 11
140.2871
 21
193.1102
  0
LINE
  8
LAYER_2
 10
140.2871
 20
193.1102
 11
140.2871
 21
194.2946
  0
ENDBLK
  0
BLOCK
  8
LAYER_2
  2
AIGNBL0201000B
 70
64
 10
0
 20
0
 30
0
  3
AIGNBL0201000B
  0
LINE
  8
LAYER_2
 10
126.4033
 20
200.2875
 11
126.4033
 21
212.2086
  0
LINE
  8
LAYER_2
 10
126.9883
 20
201.7875
 11
126.3964
 21
203.9982
  0
LINE
  8
LAYER_2
 10
126.3964
 20
203.9982
 11
125.8039
 21
201.7875
  0
LINE
  8
LAYER_2
 10
125.8039
 20
201.7875
 11
126.9883
 21
201.7875
  0
LINE
  8
LAYER_2
 10
125.8183
 20
210.7086
 11
126.4102
 21
208.4979
  0
LINE
  8
LAYER_2
 10
126.4102
 20
208.4979
 11
127.0027
 21
210.7086
  0
LINE
  8
LAYER_2
 10
127.0027
 20
210.7086
 11
125.8183
 21
210.7086
  0
ENDBLK
  0
BLOCK
  8
LAYER_2
  2
AIGNBL0201000C
 70
64
 10
0
 20
0
 30
0
  3
AIGNBL0201000C
  0
LINE
  8
LAYER_2
 10
132.4911
 20
200.883
 11
132.4911
 21
211.7085
  0
LINE
  8
LAYER_2
 10
133.083
 20
201.7875
 11
132.4911
 21
203.9982
  0
LINE
  8
LAYER_2
 10
132.4911
 20
203.9982
 11
131.8986
 21
201.7875
  0
LINE
  8
LAYER_2
 10
131.8986
 20
201.7875
 11
133.083
 21
201.7875
  0
LINE
  8
LAYER_2
 10
131.9061
 20
210.2085
 11
132.498
 21
207.9978
  0
LINE
  8
LAYER_2
 10
132.498
 20
207.9978
 11
133.0906
 21
210.2085
  0
LINE
  8
LAYER_2
 10
133.0906
 20
210.2085
 11
131.9061
 21
210.2085
  0
ENDBLK
  0
BLOCK
  8
LAYER_2
  2
AIGNBL0201000D
 70
64
 10
0
 20
0
 30
0
  3
AIGNBL0201000D
  0
LINE
  8
LAYER_2
 10
147.8642
 20
204.7859
 11
161.36
 21
218.282
  0
LINE
  8
LAYER_2
 10
154.1446
 20
210.2282
 11
155.2891
 21
212.2101
  0
LINE
  8
LAYER_2
 10
155.2891
 20
212.2101
 11
153.3067
 21
211.0657
  0
LINE
  8
LAYER_2
 10
153.3067
 20
211.0657
 11
154.1446
 21
210.2282
  0
LINE
  8
LAYER_2
 10
149.0141
 20
206.7631
 11
147.869
 21
204.7809
  0
LINE
  8
LAYER_2
 10
147.869
 20
204.7809
 11
149.8513
 21
205.9252
  0
LINE
  8
LAYER_2
 10
149.8513
 20
205.9252
 11
149.0141
 21
206.7631
  0
ENDBLK
  0
BLOCK
  8
LAYER_2
  2
AIGNBL0201000E
 70
64
 10
0
 20
0
 30
0
  3
AIGNBL0201000E
  0
LINE
  8
LAYER_2
 10
170.4116
 20
198.6818
 11
185.1291
 21
198.6818
  0
LINE
  8
LAYER_2
 10
165.5096
 20
203.5838
 11
170.4116
 21
198.6818
  0
LINE
  8
LAYER_2
 10
167.4912
 20
202.439
 11
165.5096
 21
203.5838
  0
LINE
  8
LAYER_2
 10
165.5096
 20
203.5838
 11
166.6541
 21
201.601
  0
LINE
  8
LAYER_2
 10
166.6541
 20
201.601
 11
167.4912
 21
202.439
  0
ENDBLK
  0
BLOCK
  8
LAYER_2
  2
AIGNBL0201000F
 70
64
 10
0
 20
0
 30
0
  3
AIGNBL0201000F
  0
LINE
  8
LAYER_2
 10
103.5737
 20
121.1268
 11
103.5737
 21
135.6265
  0
LINE
  8
LAYER_2
 10
104.1587
 20
133.4161
 11
103.5665
 21
135.6265
  0
LINE
  8
LAYER_2
 10
103.5665
 20
135.6265
 11
102.9742
 21
133.4161
  0
LINE
  8
LAYER_2
 10
102.9742
 20
133.4161
 11
104.1587
 21
133.4161
  0
LINE
  8
LAYER_2
 10
102.9887
 20
123.3378
 11
103.5806
 21
121.1268
  0
LINE
  8
LAYER_2
 10
103.5806
 20
121.1268
 11
104.1731
 21
123.3378
  0
LINE
  8
LAYER_2
 10
104.1731
 20
123.3378
 11
102.9887
 21
123.3378
  0
ENDBLK
  0
BLOCK
  8
LAYER_2
  2
AIGNBL02010010
 70
64
 10
0
 20
0
 30
0
  3
AIGNBL02010010
  0
LINE
  8
LAYER_2
 10
53.8189
 20
108.515
 11
86.3189
 21
108.515
  0
LINE
  8
LAYER_2
 10
84.1082
 20
107.93
 11
86.3189
 21
108.5226
  0
LINE
  8
LAYER_2
 10
86.3189
 20
108.5226
 11
84.1082
 21
109.1144
  0
LINE
  8
LAYER_2
 10
84.1082
 20
109.1144
 11
84.1082
 21
107.93
  0
LINE
  8
LAYER_2
 10
56.0296
 20
109.1
 11
53.8189
 21
108.5081
  0
LINE
  8
LAYER_2
 10
53.8189
 20
108.5081
 11
56.0296
 21
107.9155
  0
LINE
  8
LAYER_2
 10
56.0296
 20
107.9155
 11
56.0296
 21
109.1
  0
ENDBLK
  0
BLOCK
  8
LAYER_2
  2
AIGNBL02010011
 70
64
 10
0
 20
0
 30
0
  3
AIGNBL02010011
  0
LINE
  8
LAYER_2
 10
36.579
 20
109.2536
 11
36.579
 21
135.6265
  0
LINE
  8
LAYER_2
 10
37.164
 20
133.4161
 11
36.5718
 21
135.6265
  0
LINE
  8
LAYER_2
 10
36.5718
 20
135.6265
 11
35.9796
 21
133.4161
  0
LINE
  8
LAYER_2
 10
35.9796
 20
133.4161
 11
37.164
 21
133.4161
  0
LINE
  8
LAYER_2
 10
37.164
 20
117.4164
 11
36.5718
 21
119.6268
  0
LINE
  8
LAYER_2
 10
36.5718
 20
119.6268
 11
35.9796
 21
117.4164
  0
LINE
  8
LAYER_2
 10
35.9796
 20
117.4164
 11
37.164
 21
117.4164
  0
LINE
  8
LAYER_2
 10
35.994
 20
124.8379
 11
36.5859
 21
122.6268
  0
LINE
  8
LAYER_2
 10
36.5859
 20
122.6268
 11
37.1784
 21
124.8379
  0
LINE
  8
LAYER_2
 10
37.1784
 20
124.8379
 11
35.994
 21
124.8379
  0
ENDBLK
  0
BLOCK
  8
LAYER_2
  2
AIGNBL02010012
 70
64
 10
0
 20
0
 30
0
  3
AIGNBL02010012
  0
LINE
  8
LAYER_2
 10
149.8007
 20
125.644
 11
149.8007
 21
135.6265
  0
LINE
  8
LAYER_2
 10
150.3856
 20
133.4161
 11
149.7931
 21
135.6265
  0
LINE
  8
LAYER_2
 10
149.7931
 20
135.6265
 11
149.2012
 21
133.4161
  0
LINE
  8
LAYER_2
 10
149.2012
 20
133.4161
 11
150.3856
 21
133.4161
  0
LINE
  8
LAYER_2
 10
149.2157
 20
127.8544
 11
149.8076
 21
125.644
  0
LINE
  8
LAYER_2
 10
149.8076
 20
125.644
 11
150.4001
 21
127.8544
  0
LINE
  8
LAYER_2
 10
150.4001
 20
127.8544
 11
149.2157
 21
127.8544
  0
ENDBLK
  0
BLOCK
  8
LAYER_2
  2
AIGNBL02010013
 70
64
 10
0
 20
0
 30
0
  3
AIGNBL02010013
  0
LINE
  8
LAYER_2
 10
137.5775
 20
102.5694
 11
164.5774
 21
102.5694
  0
LINE
  8
LAYER_2
 10
162.3663
 20
101.9845
 11
164.5774
 21
102.577
  0
LINE
  8
LAYER_2
 10
164.5774
 20
102.577
 11
162.3663
 21
103.1689
  0
LINE
  8
LAYER_2
 10
162.3663
 20
103.1689
 11
162.3663
 21
101.9845
  0
LINE
  8
LAYER_2
 10
153.788
 20
103.1544
 11
151.5776
 21
102.5626
  0
LINE
  8
LAYER_2
 10
151.5776
 20
102.5626
 11
153.788
 21
101.97
  0
LINE
  8
LAYER_2
 10
153.788
 20
101.97
 11
153.788
 21
103.1544
  0
LINE
  8
LAYER_2
 10
149.3666
 20
101.9845
 11
151.5776
 21
102.577
  0
LINE
  8
LAYER_2
 10
151.5776
 20
102.577
 11
149.3666
 21
103.1689
  0
LINE
  8
LAYER_2
 10
149.3666
 20
103.1689
 11
149.3666
 21
101.9845
  0
LINE
  8
LAYER_2
 10
139.7885
 20
103.1544
 11
137.5775
 21
102.5626
  0
LINE
  8
LAYER_2
 10
137.5775
 20
102.5626
 11
139.7885
 21
101.97
  0
LINE
  8
LAYER_2
 10
139.7885
 20
101.97
 11
139.7885
 21
103.1544
  0
LINE
  8
LAYER_2
 10
144.1097
 20
108.8943
 11
154.9284
 21
108.8943
  0
LINE
  8
LAYER_2
 10
145.3658
 20
108.3018
 11
147.5769
 21
108.8943
  0
LINE
  8
LAYER_2
 10
147.5769
 20
108.8943
 11
145.3658
 21
109.4862
  0
LINE
  8
LAYER_2
 10
145.3658
 20
109.4862
 11
145.3658
 21
108.3018
  0
LINE
  8
LAYER_2
 10
153.788
 20
109.4862
 11
151.577
 21
108.8943
  0
LINE
  8
LAYER_2
 10
151.577
 20
108.8943
 11
153.788
 21
108.3018
  0
LINE
  8
LAYER_2
 10
153.788
 20
108.3018
 11
153.788
 21
109.4862
  0
LINE
  8
LAYER_2
 10
137.5775
 20
95.8694
 11
158.0778
 21
95.8694
  0
LINE
  8
LAYER_2
 10
155.8668
 20
95.2845
 11
158.0778
 21
95.877
  0
LINE
  8
LAYER_2
 10
158.0778
 20
95.877
 11
155.8668
 21
96.4689
  0
LINE
  8
LAYER_2
 10
155.8668
 20
96.4689
 11
155.8668
 21
95.2845
  0
LINE
  8
LAYER_2
 10
139.7885
 20
96.4544
 11
137.5775
 21
95.8625
  0
LINE
  8
LAYER_2
 10
137.5775
 20
95.8625
 11
139.7885
 21
95.27
  0
LINE
  8
LAYER_2
 10
139.7885
 20
95.27
 11
139.7885
 21
96.4544
  0
ENDBLK
  0
BLOCK
  8
LAYER_2
  2
AIGNBL02010014
 70
64
 10
0
 20
0
 30
0
  3
AIGNBL02010014
  0
LINE
  8
LAYER_2
 10
70.0688
 20
135.6265
 11
45.4188
 21
135.6265
  0
LINE
  8
LAYER_2
 10
70.0688
 20
121.1268
 11
66.9733
 21
121.1268
  0
ARC
  8
LAYER_2
 10
66.9733
 20
121.4255
 40
0.2987
 50
184.960605
 51
269.9975808
  0
LINE
  8
LAYER_2
 10
66.6757
 20
121.3997
 11
66.5685
 21
122.6268
  0
ENDBLK
  0
BLOCK
  8
LAYER_2
  2
AIGNBL02010015
 70
64
 10
0
 20
0
 30
0
  3
AIGNBL02010015
  0
LINE
  8
LAYER_2
 10
70.0688
 20
135.6265
 11
94.7184
 21
135.6265
  0
LINE
  8
LAYER_2
 10
70.0688
 20
121.1268
 11
73.1639
 21
121.1268
  0
ARC
  8
LAYER_2
 10
73.1543
 20
121.4359
 40
0.3093
 50
271.7695303
 51
353.2722839
  0
LINE
  8
LAYER_2
 10
73.4615
 20
121.3997
 11
73.5686
 21
122.6268
  0
ENDBLK
  0
BLOCK
  8
LAYER_2
  2
AIGNBL02010016
 70
64
 10
0
 20
0
 30
0
  3
AIGNBL02010016
  0
ARC
  8
LAYER_2
 10
69.9114
 20
126.445
 40
93.5534
 50
89.90359476
 51
93.22164978
  0
ARC
  8
LAYER_2
 10
67.9634
 20
162.5227
 40
57.4233
 50
93.3040571
 51
96.32406117
  0
LINE
  8
LAYER_2
 10
61.6381
 20
219.5966
 11
61.2714
 21
219.5539
  0
ARC
  8
LAYER_2
 10
65.1064
 20
172.0546
 40
47.6539
 50
94.61592671
 51
99.3540456
  0
ARC
  8
LAYER_2
 10
61.0722
 20
196.9348
 40
22.4489
 50
99.51570637
 51
106.0569372
  0
ARC
  8
LAYER_2
 10
59.2583
 20
203.3554
 40
15.777
 50
106.1758709
 51
122.2732894
  0
ARC
  8
LAYER_2
 10
58.5892
 20
204.5946
 40
14.3724
 50
122.6557972
 51
125.744281
  0
ARC
  8
LAYER_2
 10
56.7886
 20
207.0533
 40
11.325
 50
125.6169904
 51
144.0716288
  0
ARC
  8
LAYER_2
 10
57.0435
 20
206.9773
 40
11.5764
 50
144.5076409
 51
162.9920171
  0
ARC
  8
LAYER_2
 10
61.171
 20
205.6005
 40
15.9264
 50
162.5988801
 51
170.7229381
  0
ARC
  8
LAYER_2
 10
72.1853
 20
203.7919
 40
27.0883
 50
170.7031919
 51
176.9056582
  0
ARC
  8
LAYER_2
 10
91.9963
 20
202.734
 40
46.9275
 50
176.9215563
 51
180.0711837
  0
LINE
  8
LAYER_2
 10
45.0689
 20
202.6757
 11
45.0689
 21
202.6751
  0
ARC
  8
LAYER_2
 10
84.5331
 20
202.5811
 40
39.4643
 50
179.8634564
 51
185.0273764
  0
ARC
  8
LAYER_2
 10
66.0231
 20
201.0107
 40
20.888
 50
185.1857332
 51
192.118587
  0
ARC
  8
LAYER_2
 10
60.6481
 20
199.8648
 40
15.3922
 50
192.1484454
 51
203.0475657
  0
ARC
  8
LAYER_2
 10
56.0768
 20
198.0037
 40
10.4574
 50
203.4703724
 51
222.5040668
  0
ARC
  8
LAYER_2
 10
57.7631
 20
199.4557
 40
12.6819
 50
222.1926814
 51
239.5516542
  0
ARC
  8
LAYER_2
 10
58.8821
 20
201.2207
 40
14.7707
 50
239.2790522
 51
250.1936816
  0
ARC
  8
LAYER_2
 10
60.4379
 20
205.6515
 40
19.4665
 50
250.3043403
 51
257.464693
  0
ARC
  8
LAYER_2
 10
63.0091
 20
217.409
 40
31.5019
 50
257.5410227
 51
264.1871642
  0
ARC
  8
LAYER_2
 10
70.401
 20
282.7141
 40
97.2227
 50
263.7511291
 51
267.5863981
  0
ARC
  8
LAYER_2
 10
70.3593
 20
288.3009
 40
102.8031
 50
267.7407485
 51
269.8380843
  0
ARC
  8
LAYER_2
 10
70.2264
 20
126.4461
 40
93.5523
 50
86.7783273
 51
90.09653247
  0
ARC
  8
LAYER_2
 10
72.1756
 20
162.5436
 40
57.4024
 50
83.67508117
 51
86.6959078
  0
LINE
  8
LAYER_2
 10
78.4994
 20
219.5966
 11
78.8665
 21
219.5539
  0
ARC
  8
LAYER_2
 10
75.0351
 20
172.0871
 40
47.6212
 50
80.64408801
 51
85.38522026
  0
ARC
  8
LAYER_2
 10
79.0631
 20
196.9262
 40
22.4577
 50
73.94362682
 51
80.48178259
  0
ARC
  8
LAYER_2
 10
80.8792
 20
203.3559
 40
15.7766
 50
57.72602074
 51
73.82347456
  0
ARC
  8
LAYER_2
 10
81.5517
 20
204.6012
 40
14.365
 50
54.25197558
 51
57.34181896
  0
ARC
  8
LAYER_2
 10
83.3504
 20
207.054
 40
11.3234
 50
35.92947521
 51
54.38766352
  0
ARC
  8
LAYER_2
 10
83.0949
 20
206.9778
 40
11.5753
 50
17.0069053
 51
35.49289078
  0
ARC
  8
LAYER_2
 10
78.9592
 20
205.5984
 40
15.934
 50
9.280494352
 51
17.40069873
  0
ARC
  8
LAYER_2
 10
67.9852
 20
203.7955
 40
27.0551
 50
3.09046487
 51
9.300527694
  0
ARC
  8
LAYER_2
 10
47.8189
 20
202.72
 40
47.2502
 50
359.9463213
 51
3.074441774
  0
LINE
  8
LAYER_2
 10
95.069
 20
202.6757
 11
95.069
 21
202.6751
  0
ARC
  8
LAYER_2
 10
55.7327
 20
202.5746
 40
39.3364
 50
354.9656924
 51
0.146404355
  0
ARC
  8
LAYER_2
 10
74.1183
 20
201.0127
 40
20.8848
 50
347.873797
 51
354.807844
  0
ARC
  8
LAYER_2
 10
79.4782
 20
199.8693
 40
15.4043
 50
336.9533107
 51
347.8440294
  0
ARC
  8
LAYER_2
 10
84.0582
 20
198.0055
 40
10.4605
 50
317.4980837
 51
336.5263534
  0
ARC
  8
LAYER_2
 10
82.374
 20
199.4556
 40
12.6821
 50
300.4509969
 51
317.8088854
  0
ARC
  8
LAYER_2
 10
81.2561
 20
201.2187
 40
14.7687
 50
289.8078688
 51
300.7231783
  0
ARC
  8
LAYER_2
 10
79.7002
 20
205.6513
 40
19.4663
 50
282.5346712
 51
289.6953172
  0
ARC
  8
LAYER_2
 10
77.1273
 20
217.4163
 40
31.5093
 50
275.8145461
 51
282.458636
  0
ARC
  8
LAYER_2
 10
69.7375
 20
282.7099
 40
97.2184
 50
272.4134222
 51
276.2489175
  0
ARC
  8
LAYER_2
 10
69.7778
 20
288.342
 40
102.8442
 50
270.1620947
 51
272.2588152
  0
ENDBLK
  0
BLOCK
  8
LAYER_2
  2
AIGNBL02010017
 70
64
 10
0
 20
0
 30
0
  3
AIGNBL02010017
  0
ARC
  8
LAYER_2
 10
69.8961
 20
128.1025
 40
91.1959
 50
89.8917702
 51
93.28055383
  0
ARC
  8
LAYER_2
 10
67.9695
 20
163.2859
 40
55.9599
 50
93.3726122
 51
96.25312111
  0
LINE
  8
LAYER_2
 10
61.8743
 20
218.9129
 11
61.5175
 21
218.8719
  0
ARC
  8
LAYER_2
 10
65.1904
 20
172.5972
 40
46.4203
 50
94.53808907
 51
99.32555984
  0
ARC
  8
LAYER_2
 10
61.2882
 20
196.7634
 40
21.9412
 50
99.49635541
 51
105.8690454
  0
ARC
  8
LAYER_2
 10
59.5386
 20
203.0219
 40
15.4429
 50
105.9744178
 51
121.9227187
  0
ARC
  8
LAYER_2
 10
58.8585
 20
204.297
 40
14.0013
 50
122.319602
 51
125.3889027
  0
ARC
  8
LAYER_2
 10
57.0654
 20
206.7743
 40
10.9433
 50
125.2467932
 51
143.6910458
  0
ARC
  8
LAYER_2
 10
57.2271
 20
206.7666
 40
11.0785
 50
144.1543654
 51
163.0893903
  0
ARC
  8
LAYER_2
 10
61.1686
 20
205.4528
 40
15.2322
 50
162.6738807
 51
170.5719617
  0
ARC
  8
LAYER_2
 10
71.4316
 20
203.7518
 40
25.6351
 50
170.5789484
 51
176.86787
  0
ARC
  8
LAYER_2
 10
90.2634
 20
202.7342
 40
44.4945
 50
176.8844533
 51
180.0716423
  0
LINE
  8
LAYER_2
 10
45.769
 20
202.6786
 11
45.769
 21
202.6781
  0
ARC
  8
LAYER_2
 10
83.0932
 20
202.5841
 40
37.3243
 50
179.8556456
 51
185.0942407
  0
ARC
  8
LAYER_2
 10
65.6321
 20
201.0833
 40
19.799
 50
185.255073
 51
192.2746527
  0
ARC
  8
LAYER_2
 10
60.5823
 20
199.993
 40
14.6329
 50
192.3068607
 51
203.3197175
  0
ARC
  8
LAYER_2
 10
56.3371
 20
198.2477
 40
10.0439
 50
203.7635167
 51
223.6908791
  0
ARC
  8
LAYER_2
 10
58.1056
 20
199.8281
 40
12.4145
 50
223.3270117
 51
240.9344215
  0
ARC
  8
LAYER_2
 10
59.2072
 20
201.6512
 40
14.5434
 50
240.6301874
 51
250.4075629
  0
ARC
  8
LAYER_2
 10
60.733
 20
206.0857
 40
19.2329
 50
250.5553165
 51
257.867549
  0
ARC
  8
LAYER_2
 10
63.2738
 20
218.0586
 40
31.4724
 50
257.9262728
 51
264.2220472
  0
ARC
  8
LAYER_2
 10
70.3539
 20
281.4134
 40
95.2205
 50
263.8213137
 51
267.6273925
  0
ARC
  8
LAYER_2
 10
70.32
 20
285.9033
 40
99.7053
 50
267.7536875
 51
269.8554178
  0
ARC
  8
LAYER_2
 10
70.2413
 20
128.0889
 40
91.2095
 50
86.71967921
 51
90.10858642
  0
ARC
  8
LAYER_2
 10
72.1708
 20
163.3266
 40
55.9192
 50
83.74534602
 51
86.62754364
  0
LINE
  8
LAYER_2
 10
78.2631
 20
218.9129
 11
78.6195
 21
218.8719
  0
ARC
  8
LAYER_2
 10
74.9483
 20
172.6078
 40
46.4095
 50
80.67408468
 51
85.46286901
  0
ARC
  8
LAYER_2
 10
78.8512
 20
196.7775
 40
21.9269
 50
74.1274374
 51
80.50335533
  0
ARC
  8
LAYER_2
 10
80.6001
 20
203.0237
 40
15.4406
 50
58.07809113
 51
74.03054136
  0
ARC
  8
LAYER_2
 10
81.2822
 20
204.3026
 40
13.9948
 50
54.60909279
 51
57.67972417
  0
ARC
  8
LAYER_2
 10
83.069
 20
206.7714
 40
10.9473
 50
36.31204572
 51
54.74935716
  0
ARC
  8
LAYER_2
 10
82.9109
 20
206.7662
 40
11.0781
 50
16.91325813
 51
35.84946845
  0
ARC
  8
LAYER_2
 10
78.9908
 20
205.4595
 40
15.2092
 50
9.416915591
 51
17.32677336
  0
ARC
  8
LAYER_2
 10
68.6424
 20
203.7461
 40
25.6985
 50
3.137193295
 51
9.410554422
  0
ARC
  8
LAYER_2
 10
49.3745
 20
202.7076
 40
44.9944
 50
359.9630481
 51
3.114838572
  0
LINE
  8
LAYER_2
 10
94.3689
 20
202.6786
 11
94.3689
 21
202.6781
  0
ARC
  8
LAYER_2
 10
56.9988
 20
202.5903
 40
37.3702
 50
354.9023972
 51
0.1345896873
  0
ARC
  8
LAYER_2
 10
74.4982
 20
201.0851
 40
19.8064
 50
347.7244841
 51
354.7414729
  0
ARC
  8
LAYER_2
 10
79.5537
 20
199.9935
 40
14.6343
 50
336.6804944
 51
347.6922891
  0
ARC
  8
LAYER_2
 10
83.7964
 20
198.2507
 40
10.0486
 50
316.3111877
 51
336.2296437
  0
ARC
  8
LAYER_2
 10
82.0314
 20
199.828
 40
12.4147
 50
299.0670776
 51
316.6738295
  0
ARC
  8
LAYER_2
 10
80.9308
 20
201.6496
 40
14.5417
 50
289.5923983
 51
299.3707642
  0
ARC
  8
LAYER_2
 10
79.406
 20
206.081
 40
19.228
 50
282.1306453
 51
289.4450758
  0
ARC
  8
LAYER_2
 10
76.8622
 20
218.0684
 40
31.4822
 50
275.7779279
 51
282.0722668
  0
ARC
  8
LAYER_2
 10
69.7822
 20
281.4158
 40
95.2229
 50
272.3737289
 51
276.1790512
  0
ARC
  8
LAYER_2
 10
69.8164
 20
285.9881
 40
99.7901
 50
270.1446775
 51
272.2453677
  0
ENDBLK
  0
BLOCK
  8
LAYER_2
  2
AIGNBL02010018
 70
64
 10
0
 20
0
 30
0
  3
AIGNBL02010018
  0
LINE
  8
LAYER_2
 10
60.6853
 20
224.9608
 11
49.6944
 21
224.9608
  0
ENDBLK
  0
BLOCK
  8
LAYER_2
  2
AIGNBL02010019
 70
64
 10
0
 20
0
 30
0
  3
AIGNBL02010019
  0
INSERT
  8
LAYER_2
  2
AIGNBL0202001A
 10
0
 20
0
 30
0
  0
LINE
  8
LAYER_2
 10
68.0816
 20
216.8107
 11
70.0688
 21
215.673
  0
LINE
  8
LAYER_2
 10
70.0688
 20
215.673
 11
68.9167
 21
217.6519
  0
LINE
  8
LAYER_2
 10
68.9167
 20
217.6519
 11
68.0816
 21
216.8107
  0
ENDBLK
  0
BLOCK
  8
LAYER_2
  2
AIGNBL0201001B
 70
64
 10
0
 20
0
 30
0
  3
AIGNBL0201001B
  0
LINE
  8
LAYER_2
 10
60.6853
 20
143.3134
 11
49.6944
 21
143.3134
  0
ENDBLK
  0
BLOCK
  8
LAYER_2
  2
AIGNBL0201001C
 70
64
 10
0
 20
0
 30
0
  3
AIGNBL0201001C
  0
INSERT
  8
LAYER_2
  2
AIGNBL0202001D
 10
0
 20
0
 30
0
  0
LINE
  8
LAYER_2
 10
68.0816
 20
135.1633
 11
70.0688
 21
134.0256
  0
LINE
  8
LAYER_2
 10
70.0688
 20
134.0256
 11
68.9167
 21
136.0045
  0
LINE
  8
LAYER_2
 10
68.9167
 20
136.0045
 11
68.0816
 21
135.1633
  0
ENDBLK
  0
BLOCK
  8
LAYER_3
  2
AIGNBL03010002
 70
64
 10
0
 20
0
 30
0
  3
AIGNBL03010002
  0
ARC
  8
LAYER_3
 10
76.2679
 20
51.3237
 40
2.0849
 50
0.0008992613682
 51
89.99910073
  0
ARC
  8
LAYER_3
 10
76.268
 20
51.3238
 40
2.0848
 50
90.00289234
 51
180.0026042
  0
ARC
  8
LAYER_3
 10
76.2677
 20
51.3239
 40
2.0845
 50
180.0045979
 51
270.0063968
  0
ARC
  8
LAYER_3
 10
76.2682
 20
51.324
 40
2.0846
 50
269.9916106
 51
359.9918983
  0
ARC
  8
LAYER_3
 10
76.2681
 20
51.3235
 40
1.2197
 50
0.01093215228
 51
90.00785796
  0
ARC
  8
LAYER_3
 10
76.2679
 20
51.3236
 40
1.2196
 50
89.99789713
 51
179.9974047
  0
ARC
  8
LAYER_3
 10
76.2679
 20
51.3237
 40
1.2196
 50
179.9984626
 51
270.0015373
  0
ARC
  8
LAYER_3
 10
76.2681
 20
51.3238
 40
1.2197
 50
269.9927081
 51
359.9931999
  0
LINE
  8
LAYER_3
 10
79.9789
 20
50.1041
 11
79.9789
 21
52.5432
  0
LINE
  8
LAYER_3
 10
85.1569
 20
49.2394
 11
85.1569
 21
53.4086
  0
LINE
  8
LAYER_3
 10
79.9789
 20
52.5432
 11
85.1569
 21
53.4086
  0
LINE
  8
LAYER_3
 10
79.9789
 20
50.1041
 11
85.1569
 21
49.2394
  0
LINE
  8
LAYER_3
 10
76.2679
 20
51.3237
 11
76.2679
 21
51.0722
  0
LINE
  8
LAYER_3
 10
76.2679
 20
50.8317
 11
76.2679
 21
48.6447
  0
LINE
  8
LAYER_3
 10
76.2679
 20
51.3237
 11
76.52
 21
51.3237
  0
LINE
  8
LAYER_3
 10
76.7605
 20
51.3237
 11
78.9475
 21
51.3237
  0
LINE
  8
LAYER_3
 10
76.2679
 20
51.3237
 11
76.2679
 21
51.5758
  0
LINE
  8
LAYER_3
 10
76.2679
 20
51.8163
 11
76.2679
 21
54.0033
  0
LINE
  8
LAYER_3
 10
76.2679
 20
51.3237
 11
76.016
 21
51.3237
  0
LINE
  8
LAYER_3
 10
75.7756
 20
51.3237
 11
73.5889
 21
51.3237
  0
LINE
  8
LAYER_3
 10
82.1721
 20
51.3237
 11
82.4239
 21
51.3237
  0
LINE
  8
LAYER_3
 10
82.6647
 20
51.3237
 11
85.5896
 21
51.3237
  0
LINE
  8
LAYER_3
 10
82.1721
 20
51.3237
 11
81.9199
 21
51.3237
  0
LINE
  8
LAYER_3
 10
81.6794
 20
51.3237
 11
79.4932
 21
51.3237
  0
ENDBLK
  0
ENDSEC
  0
SECTION
  2
ENTITIES
  0
TEXT
  8
LAYER_1
 10
152.8272
 20
182.9008
 11
152.8272
 21
182.9008
 40
3.0923
 41
0.5
 72
1
  1
カウンター切込寸法
  0
TEXT
  8
LAYER_1
 10
131.9671
 20
216.839
 11
131.9671
 21
216.839
 40
3.0923
 41
0.5
  1
排水口
  0
TEXT
  8
LAYER_1
 10
70.0689
 20
171.2696
 11
70.0689
 21
171.2696
 40
3.0923
 41
0.5
 72
1
  1
500
  0
TEXT
  8
LAYER_1
 10
70.0677
 20
177.2696
 11
70.0677
 21
177.2696
 40
3.0923
 41
0.5
 72
1
  1
486
  0
TEXT
  8
LAYER_1
 10
108.269
 20
202.748
 11
108.269
 21
202.748
 40
3.0923
 41
0.5
 50
89.99999999
 72
1
  1
345
  0
TEXT
  8
LAYER_1
 10
108.269
 20
227.7248
 11
108.269
 21
227.7248
 40
3.0923
 41
0.5
 50
89.99999999
 72
2
  1
15
  0
TEXT
  8
LAYER_1
 10
114.269
 20
203.4982
 11
114.269
 21
203.4982
 40
3.0923
 41
0.5
 50
89.99999999
 72
1
  1
360
  0
TEXT
  8
LAYER_1
 10
102.269
 20
202.7482
 11
102.269
 21
202.7482
 40
3.0923
 41
0.5
 50
89.99999999
 72
1
  1
331
  0
TEXT
  8
LAYER_1
 10
102.8737
 20
128.3767
 11
102.8737
 21
128.3767
 40
3.0923
 41
0.5
 50
89.99999999
 72
1
  1
145
  0
TEXT
  8
LAYER_1
 10
149.1006
 20
130.6353
 11
149.1006
 21
130.6353
 40
3.0923
 41
0.5
 50
89.99999999
 72
1
  1
100
  0
TEXT
  8
LAYER_1
 10
70.0689
 20
109.215
 11
70.0689
 21
109.215
 40
3.0923
 41
0.5
 72
1
  1
325
  0
TEXT
  8
LAYER_1
 10
158.0772
 20
103.2695
 11
158.0772
 21
103.2695
 40
3.0923
 41
0.5
 72
1
  1
130
  0
TEXT
  8
LAYER_1
 10
144.5779
 20
103.2695
 11
144.5779
 21
103.2695
 40
3.0923
 41
0.5
 72
1
  1
140
  0
TEXT
  8
LAYER_1
 10
149.5771
 20
109.5943
 11
149.5771
 21
109.5943
 40
3.0923
 41
0.5
 72
1
  1
40
  0
TEXT
  8
LAYER_1
 10
147.828
 20
96.5695
 11
147.828
 21
96.5695
 40
3.0923
 41
0.5
 72
1
  1
205
  0
TEXT
  8
LAYER_1
 10
35.8789
 20
129.127
 11
35.8789
 21
129.127
 40
3.0923
 41
0.5
 50
89.99999999
 72
1
  1
130
  0
TEXT
  8
LAYER_1
 10
35.8789
 20
109.2536
 11
35.8789
 21
109.2536
 40
3.0923
 41
0.5
 50
89.99999999
  1
max.30
  0
TEXT
  8
LAYER_1
 10
80.7743
 20
215.0568
 11
80.7743
 21
215.0568
 40
3.0923
 41
0.5
 72
2
  1
%%c46
  0
TEXT
  8
LAYER_1
 10
158.3266
 20
194.4097
 11
158.3266
 21
194.4097
 40
3.0923
 41
0.5
 72
1
  1
135
  0
TEXT
  8
LAYER_1
 10
144.8266
 20
194.4097
 11
144.8266
 21
194.4097
 40
3.0923
 41
0.5
 72
1
  1
135
  0
TEXT
  8
LAYER_1
 10
125.7033
 20
206.2482
 11
125.7033
 21
206.2482
 40
3.0923
 41
0.5
 50
89.99999999
 72
1
  1
45
  0
TEXT
  8
LAYER_1
 10
131.7911
 20
206.0734
 11
131.7911
 21
206.0734
 40
3.0923
 41
0.5
 50
89.99999999
 72
1
  1
40
  0
TEXT
  8
LAYER_1
 10
159.9992
 20
217.9111
 11
159.9992
 21
217.9111
 40
3.0923
 41
0.5
 50
44.99999999
 72
2
  1
%%c105
  0
TEXT
  8
LAYER_1
 10
183.5799
 20
199.3818
 11
183.5799
 21
199.3818
 40
3.0923
 41
0.5
 72
2
  1
%%c12×2ヶ所
  0
INSERT
  8
LAYER_1
  2
AIGNBL01010002
 10
0
 20
0
 30
0
  0
INSERT
  8
LAYER_1
  2
AIGNBL01010003
 10
0
 20
0
 30
0
  0
LINE
  8
LAYER_2
 10
45.0689
 20
169.8771
 11
45.0689
 21
196.1982
  0
LINE
  8
LAYER_2
 10
45.769
 20
175.8625
 11
45.7664
 21
193.8848
  0
LINE
  8
LAYER_2
 10
95.069
 20
169.8768
 11
95.069
 21
196.1982
  0
LINE
  8
LAYER_2
 10
94.3689
 20
175.8628
 11
94.3689
 21
193.8848
  0
INSERT
  8
LAYER_2
  2
AIGNBL02010002
 10
0
 20
0
 30
0
  0
INSERT
  8
LAYER_2
  2
AIGNBL02010003
 10
0
 20
0
 30
0
  0
CIRCLE
  8
LAYER_2
 10
70.0688
 20
208.4977
 40
2.3004
  0
CIRCLE
  8
LAYER_2
 10
70.0688
 20
208.4977
 40
3.7501
  0
CIRCLE
  8
LAYER_2
  6
AIGENLINE001
 10
151.5766
 20
207.9976
 40
2.3002
  0
CIRCLE
  8
LAYER_2
 10
138.0767
 20
203.9979
 40
0.6001
  0
CIRCLE
  8
LAYER_2
 10
165.0766
 20
203.9979
 40
0.6001
  0
CIRCLE
  8
LAYER_2
  6
AIGENLINE001
 10
151.5766
 20
207.9976
 40
3.7501
  0
LINE
  8
LAYER_2
  6
AIGENLINE002
 10
70.0688
 20
223.2484
 11
70.0688
 21
183.748
  0
LINE
  8
LAYER_2
  6
AIGENLINE002
 10
83.5687
 20
205.4982
 11
83.5687
 21
203.4983
  0
LINE
  8
LAYER_2
  6
AIGENLINE002
 10
42.8186
 20
203.4982
 11
97.3189
 21
203.4982
  0
LINE
  8
LAYER_2
  6
AIGENLINE002
 10
82.5688
 20
204.4983
 11
84.5687
 21
204.4983
  0
LINE
  8
LAYER_2
 10
115.676
 20
185.4981
 11
79.3684
 21
185.4981
  0
LINE
  8
LAYER_2
 10
103.6622
 20
186.1983
 11
84.7691
 21
186.1983
  0
LINE
  8
LAYER_2
 10
109.6691
 20
219.9979
 11
79.3684
 21
219.9979
  0
LINE
  8
LAYER_2
 10
115.6622
 20
221.4983
 11
74.9022
 21
221.4983
  0
LINE
  8
LAYER_2
 10
103.6619
 20
219.2982
 11
84.7683
 21
219.2982
  0
INSERT
  8
LAYER_2
  2
AIGNBL02010004
 10
0
 20
0
 30
0
  0
INSERT
  8
LAYER_2
  2
AIGNBL02010005
 10
0
 20
0
 30
0
  0
INSERT
  8
LAYER_2
  2
AIGNBL02010006
 10
0
 20
0
 30
0
  0
INSERT
  8
LAYER_2
  2
AIGNBL02010007
 10
0
 20
0
 30
0
  0
LINE
  8
LAYER_2
  6
AIGENLINE002
 10
64.6603
 20
132.6265
 11
75.4772
 21
132.6265
  0
LINE
  8
LAYER_2
  6
AIGENLINE002
 10
151.5766
 20
215.9982
 11
151.5766
 21
200.9982
  0
LINE
  8
LAYER_2
  6
AIGENLINE002
 10
138.0767
 20
204.998
 11
138.0767
 21
202.9981
  0
LINE
  8
LAYER_2
  6
AIGENLINE002
 10
137.0769
 20
203.9982
 11
139.0764
 21
203.9982
  0
LINE
  8
LAYER_2
  6
AIGENLINE002
 10
165.0766
 20
204.998
 11
165.0766
 21
202.9981
  0
LINE
  8
LAYER_2
  6
AIGENLINE002
 10
164.0768
 20
203.9982
 11
166.0763
 21
203.9982
  0
LINE
  8
LAYER_2
  6
AIGENLINE002
 10
144.0767
 20
208.4982
 11
159.0766
 21
208.4982
  0
LINE
  8
LAYER_2
  6
AIGENLINE002
 10
146.8975
 20
207.9982
 11
156.3781
 21
207.9982
  0
LINE
  8
LAYER_2
  6
AIGENLINE002
 10
64.569
 20
208.4982
 11
75.5692
 21
208.4982
  0
ARC
  8
LAYER_2
 10
66.8281
 20
218.289
 40
3.1692
 50
128.9951947
 51
146.7788044
  0
ARC
  8
LAYER_2
 10
66.4287
 20
218.7346
 40
2.5717
 50
108.1842335
 51
128.3259167
  0
ARC
  8
LAYER_2
 10
66.8156
 20
217.4075
 40
3.9535
 50
93.87198073
 51
107.5088899
  0
ARC
  8
LAYER_2
 10
70.0663
 20
179.135
 40
42.3633
 50
89.99660035
 51
94.76310158
  0
ARC
  8
LAYER_2
 10
63.7687
 20
220.3023
 40
0.4933
 50
280.4626522
 51
325.8400867
  0
ARC
  8
LAYER_2
 10
73.3094
 20
218.289
 40
3.1692
 50
33.22119562
 51
51.00480527
  0
ARC
  8
LAYER_2
 10
73.7088
 20
218.7346
 40
2.5717
 50
51.67408332
 51
71.81576645
  0
ARC
  8
LAYER_2
 10
73.3219
 20
217.4075
 40
3.9535
 50
72.49111007
 51
86.12801925
  0
ARC
  8
LAYER_2
 10
70.0712
 20
179.135
 40
42.3633
 50
85.23689857
 51
90.00326439
  0
ARC
  8
LAYER_2
 10
76.3689
 20
220.3025
 40
0.4935
 50
214.1713634
 51
259.5258977
  0
INSERT
  8
LAYER_2
  2
AIGNBL02010008
 10
0
 20
0
 30
0
  0
LINE
  8
LAYER_2
 10
81.9991
 20
214.3568
 11
76.3385
 21
214.3568
  0
CIRCLE
  8
LAYER_2
 10
151.5766
 20
208.4982
 40
5.2498
  0
LINE
  8
LAYER_2
 10
165.0766
 20
193.0168
 11
165.0766
 21
202.2981
  0
LINE
  8
LAYER_2
 10
151.5766
 20
193.0168
 11
151.5766
 21
199.7978
  0
INSERT
  8
LAYER_2
  2
AIGNBL02010009
 10
0
 20
0
 30
0
  0
LINE
  8
LAYER_2
 10
138.0767
 20
193.0168
 11
138.0767
 21
202.2981
  0
INSERT
  8
LAYER_2
  2
AIGNBL0201000A
 10
0
 20
0
 30
0
  0
LINE
  8
LAYER_2
 10
143.3766
 20
208.4982
 11
125.7102
 21
208.4982
  0
LINE
  8
LAYER_2
 10
146.8975
 20
207.9982
 11
131.798
 21
207.9982
  0
LINE
  8
LAYER_2
 10
136.3769
 20
203.9982
 11
125.7102
 21
203.9982
  0
INSERT
  8
LAYER_2
  2
AIGNBL0201000B
 10
0
 20
0
 30
0
  0
INSERT
  8
LAYER_2
  2
AIGNBL0201000C
 10
0
 20
0
 30
0
  0
INSERT
  8
LAYER_2
  2
AIGNBL0201000D
 10
0
 20
0
 30
0
  0
INSERT
  8
LAYER_2
  2
AIGNBL0201000E
 10
0
 20
0
 30
0
  0
LINE
  8
LAYER_2
 10
104.2669
 20
121.1268
 11
74.0427
 21
121.1268
  0
LINE
  8
LAYER_2
 10
104.2665
 20
135.6265
 11
95.7692
 21
135.6265
  0
INSERT
  8
LAYER_2
  2
AIGNBL0201000F
 10
0
 20
0
 30
0
  0
INSERT
  8
LAYER_2
  2
AIGNBL02010010
 10
0
 20
0
 30
0
  0
LINE
  8
LAYER_2
 10
40.4413
 20
122.6268
 11
35.8858
 21
122.6268
  0
LINE
  8
LAYER_2
  6
AIGENLINE001
 10
98.2207
 20
122.6268
 11
41.1413
 21
122.6268
  0
LINE
  8
LAYER_2
 10
40.4413
 20
119.6268
 11
35.8858
 21
119.6268
  0
LINE
  8
LAYER_2
  6
AIGENLINE001
 10
98.2207
 20
119.6268
 11
41.1413
 21
119.6268
  0
LINE
  8
LAYER_2
 10
53.8189
 20
122.0053
 11
53.8189
 21
107.8081
  0
LINE
  8
LAYER_2
 10
86.3189
 20
122.0053
 11
86.3189
 21
107.8081
  0
LINE
  8
LAYER_2
 10
44.369
 20
135.6265
 11
35.8858
 21
135.6265
  0
INSERT
  8
LAYER_2
  2
AIGNBL02010011
 10
0
 20
0
 30
0
  0
INSERT
  8
LAYER_2
  2
AIGNBL02010012
 10
0
 20
0
 30
0
  0
INSERT
  8
LAYER_2
  2
AIGNBL02010013
 10
0
 20
0
 30
0
  0
LINE
  8
LAYER_2
 10
151.577
 20
118.6767
 11
151.577
 21
101.8625
  0
LINE
  8
LAYER_2
 10
137.5775
 20
121.997
 11
137.5775
 21
95.1625
  0
LINE
  8
LAYER_2
 10
158.0778
 20
101.4167
 11
158.0778
 21
95.1625
  0
LINE
  8
LAYER_2
 10
158.0778
 20
121.997
 11
158.0778
 21
107.7082
  0
LINE
  8
LAYER_2
 10
147.5769
 20
114.2766
 11
147.5769
 21
108.1943
  0
LINE
  8
LAYER_2
 10
164.5774
 20
130.9812
 11
164.5774
 21
101.8625
  0
LINE
  8
LAYER_2
 10
148.0774
 20
121.6263
 11
148.0774
 21
122.6268
  0
LINE
  8
LAYER_2
 10
154.6266
 20
121.1268
 11
148.577
 21
121.1268
  0
LINE
  8
LAYER_2
 10
137.7725
 20
122.6268
 11
157.9573
 21
122.6268
  0
ARC
  8
LAYER_2
 10
148.8964
 20
141.7018
 40
21.3274
 50
197.8120007
 51
211.6255168
  0
ARC
  8
LAYER_2
 10
151.5572
 20
143.2624
 40
24.4115
 50
211.46951
 51
219.2163887
  0
ARC
  8
LAYER_2
 10
166.587
 20
155.7061
 40
43.9238
 50
219.3968406
 51
224.2851973
  0
ARC
  8
LAYER_2
 10
205.976
 20
193.9472
 40
98.8225
 50
224.2116619
 51
226.0770368
  0
LINE
  8
LAYER_2
 10
146.0772
 20
135.6265
 11
128.9275
 21
135.6265
  0
LINE
  8
LAYER_2
 10
128.5954
 20
135.1656
 11
128.5775
 21
135.2765
  0
ARC
  8
LAYER_2
 10
128.9275
 20
135.2765
 40
0.35
 50
90.00478742
 51
179.9952125
  0
LINE
  8
LAYER_2
  6
AIGENLINE002
 10
151.577
 20
119.088
 11
151.577
 21
126.6941
  0
LINE
  8
LAYER_2
  6
AIGENLINE003
 10
153.8776
 20
121.144
 11
153.8776
 21
124.6443
  0
LINE
  8
LAYER_2
  6
AIGENLINE003
 10
155.3273
 20
125.644
 11
153.8776
 21
124.6443
  0
LINE
  8
LAYER_2
  6
AIGENLINE003
 10
147.8273
 20
125.644
 11
149.277
 21
124.6443
  0
LINE
  8
LAYER_2
  6
AIGENLINE003
 10
149.277
 20
121.144
 11
149.277
 21
124.6443
  0
LINE
  8
LAYER_2
  6
AIGENLINE003
 10
153.8776
 20
124.6443
 11
149.277
 21
124.6443
  0
LINE
  8
LAYER_2
  6
AIGENLINE003
 10
155.5774
 20
125.644
 11
147.8273
 21
125.644
  0
LINE
  8
LAYER_2
 10
146.0772
 20
135.6265
 11
163.2386
 21
135.6265
  0
LINE
  8
LAYER_2
 10
163.6996
 20
135.3213
 11
164.5147
 21
133.3927
  0
ARC
  8
LAYER_2
 10
155.6263
 20
122.1266
 40
0.5003
 50
269.9955942
 51
359.9929523
  0
ARC
  8
LAYER_2
 10
156.6268
 20
122.1266
 40
0.5002
 50
90.00111087
 51
180.0103426
  0
LINE
  8
LAYER_2
 10
155.2605
 20
121.6263
 11
155.6263
 21
121.6263
  0
ARC
  8
LAYER_2
 10
155.2604
 20
121.4757
 40
0.1506
 50
89.96727281
 51
165.8152674
  0
ARC
  8
LAYER_2
 10
154.6197
 20
121.6368
 40
0.51
 50
270.7715975
 51
345.9091997
  0
ARC
  8
LAYER_2
 10
163.2309
 20
135.1141
 40
0.5124
 50
23.84587874
 51
89.14189201
  0
ARC
  8
LAYER_2
 10
163.7703
 20
133.0808
 40
0.8071
 50
0.03470666958
 51
22.73373032
  0
LINE
  8
LAYER_2
 10
164.5774
 20
133.0813
 11
164.5608
 21
132.9201
  0
ARC
  8
LAYER_2
 10
157.9569
 20
123.1288
 40
0.502
 50
270.0472603
 51
309.2031104
  0
ARC
  8
LAYER_2
 10
147.3786
 20
136.3411
 40
17.5195
 50
333.831564
 51
348.7394175
  0
ARC
  8
LAYER_2
 10
148.5903
 20
135.8481
 40
16.2148
 50
320.0993667
 51
333.5069872
  0
ARC
  8
LAYER_2
 10
146.899
 20
137.0734
 40
18.2988
 50
308.4357493
 51
320.5531626
  0
ARC
  8
LAYER_2
 10
163.2386
 20
135.2765
 40
0.35
 50
0.001640393071
 51
89.9983596
  0
LINE
  8
LAYER_2
 10
163.5886
 20
135.2765
 11
163.5859
 21
135.2296
  0
LINE
  8
LAYER_2
  6
AIGENLINE002
 10
147.5769
 20
123.9366
 11
147.5769
 21
114.9766
  0
LINE
  8
LAYER_2
 10
147.9772
 20
122.6268
 11
147.9772
 21
119.6268
  0
LINE
  8
LAYER_2
 10
147.9772
 20
117.8264
 11
147.9772
 21
116.0267
  0
LINE
  8
LAYER_2
 10
147.5769
 20
116.0267
 11
147.9772
 21
116.0267
  0
LINE
  8
LAYER_2
 10
149.1768
 20
119.6268
 11
147.5769
 21
119.6268
  0
LINE
  8
LAYER_2
 10
149.1657
 20
119.2265
 11
147.5769
 21
119.2265
  0
LINE
  8
LAYER_2
 10
149.1272
 20
117.8264
 11
147.5769
 21
117.8264
  0
LINE
  8
LAYER_2
 10
149.1768
 20
119.6268
 11
149.1272
 21
117.8264
  0
LINE
  8
LAYER_2
 10
147.1772
 20
122.6268
 11
147.1772
 21
119.6268
  0
LINE
  8
LAYER_2
 10
147.1772
 20
117.8264
 11
147.1772
 21
116.0267
  0
LINE
  8
LAYER_2
 10
147.5769
 20
116.0267
 11
147.1772
 21
116.0267
  0
LINE
  8
LAYER_2
 10
145.977
 20
119.6268
 11
147.5769
 21
119.6268
  0
LINE
  8
LAYER_2
 10
145.988
 20
119.2265
 11
147.5769
 21
119.2265
  0
LINE
  8
LAYER_2
 10
146.0272
 20
117.8264
 11
147.5769
 21
117.8264
  0
LINE
  8
LAYER_2
 10
145.977
 20
119.6268
 11
146.0272
 21
117.8264
  0
ARC
  8
LAYER_2
  6
AIGENLINE003
 10
135.2829
 20
137.2071
 40
6.2099
 50
194.7461754
 51
206.8426196
  0
ARC
  8
LAYER_2
  6
AIGENLINE003
 10
138.6238
 20
138.8063
 40
9.9132
 50
206.3705652
 51
216.4893798
  0
ARC
  8
LAYER_2
  6
AIGENLINE003
 10
140.365
 20
140.0771
 40
12.0688
 50
216.4239243
 51
224.8901278
  0
ARC
  8
LAYER_2
  6
AIGENLINE003
 10
141.8709
 20
141.5795
 40
14.196
 50
224.8965667
 51
232.9723915
  0
ARC
  8
LAYER_2
  6
AIGENLINE003
 10
143.5335
 20
143.7867
 40
16.9593
 50
232.9788262
 51
240.2914907
  0
ARC
  8
LAYER_2
  6
AIGENLINE003
 10
145.2274
 20
146.7554
 40
20.3773
 50
240.2912979
 51
246.6994535
  0
ARC
  8
LAYER_2
  6
AIGENLINE003
 10
147.0181
 20
150.9184
 40
24.909
 50
246.7042763
 51
252.7267357
  0
ARC
  8
LAYER_2
  6
AIGENLINE003
 10
148.8329
 20
156.756
 40
31.0222
 50
252.7273745
 51
258.278384
  0
ARC
  8
LAYER_2
  6
AIGENLINE003
 10
150.7893
 20
166.3503
 40
40.814
 50
258.3254884
 51
265.8381748
  0
ARC
  8
LAYER_2
  6
AIGENLINE003
 10
155.5807
 20
130.4283
 40
4.7843
 50
269.9601117
 51
298.2481248
  0
ARC
  8
LAYER_2
  6
AIGENLINE003
 10
155.0954
 20
131.3267
 40
5.8055
 50
298.2709906
 51
310.8029502
  0
ARC
  8
LAYER_2
  6
AIGENLINE003
 10
153.7354
 20
132.8932
 40
7.8799
 50
310.8456933
 51
322.049787
  0
ARC
  8
LAYER_2
  6
AIGENLINE003
 10
150.888
 20
135.1253
 40
11.4979
 50
322.0046388
 51
331.0893783
  0
ARC
  8
LAYER_2
  6
AIGENLINE003
 10
146.1116
 20
137.7762
 40
16.9606
 50
331.0509648
 51
338.7103169
  0
ARC
  8
LAYER_2
  6
AIGENLINE003
 10
140.3459
 20
140.0572
 40
23.1611
 50
338.6313424
 51
348.6064665
  0
ARC
  8
LAYER_2
 10
137.7741
 20
123.1319
 40
0.5051
 50
226.0894405
 51
269.8212992
  0
ARC
  8
LAYER_2
 10
147.4376
 20
135.7807
 40
16.1577
 50
350.5016279
 51
358.0453624
  0
ARC
  8
LAYER_2
 10
142.9416
 20
136.4108
 40
20.6963
 50
337.4187659
 51
350.8352021
  0
ARC
  8
LAYER_2
 10
145.5494
 20
135.3547
 40
17.8831
 50
322.7390439
 51
337.3346655
  0
ARC
  8
LAYER_2
 10
147.0919
 20
134.281
 40
16.0055
 50
314.0272667
 51
322.4550193
  0
ARC
  8
LAYER_2
 10
157.86
 20
123.1329
 40
0.5061
 50
270.2526604
 51
314.657526
  0
ARC
  8
LAYER_2
  6
AIGENLINE003
 10
163.2003
 20
135.4818
 40
0.1498
 50
105.0517399
 51
180.0141912
  0
ARC
  8
LAYER_2
 10
148.577
 20
121.6264
 40
0.4996
 50
180.0070795
 51
270.00439
  0
LINE
  8
LAYER_2
 10
54.0312
 20
122.6268
 11
70.0688
 21
122.6268
  0
ARC
  8
LAYER_2
 10
65.3773
 20
141.6966
 40
21.3157
 50
197.8071663
 51
211.6281585
  0
ARC
  8
LAYER_2
 10
68.0642
 20
143.2721
 40
24.4299
 50
211.4698395
 51
219.2106191
  0
ARC
  8
LAYER_2
 10
110.4814
 20
178.3784
 40
79.49
 50
219.4890952
 51
224.3794676
  0
INSERT
  8
LAYER_2
  2
AIGNBL02010014
 10
0
 20
0
 30
0
  0
LINE
  8
LAYER_2
 10
45.087
 20
135.1656
 11
45.0687
 21
135.2765
  0
ARC
  8
LAYER_2
 10
45.4187
 20
135.2765
 40
0.35
 50
89.99027378
 51
179.9933583
  0
LINE
  8
LAYER_2
  6
AIGENLINE003
 10
70.0688
 20
132.2269
 11
65.9684
 21
132.2269
  0
LINE
  8
LAYER_2
  6
AIGENLINE003
 10
70.0688
 20
133.0269
 11
65.9684
 21
133.0269
  0
ARC
  8
LAYER_2
  6
AIGENLINE003
 10
65.9684
 20
132.6265
 40
0.3996
 50
180.0028464
 51
269.9971536
  0
ARC
  8
LAYER_2
  6
AIGENLINE003
 10
65.9842
 20
132.6116
 40
0.4156
 50
92.17187333
 51
177.9427182
  0
LINE
  8
LAYER_2
  6
AIGENLINE002
 10
56.5688
 20
123.9366
 11
56.5688
 21
114.9766
  0
LINE
  8
LAYER_2
 10
56.1685
 20
117.8264
 11
56.1685
 21
116.0267
  0
LINE
  8
LAYER_2
 10
56.1685
 20
116.0267
 11
56.5688
 21
116.0267
  0
LINE
  8
LAYER_2
 10
56.1685
 20
122.6268
 11
56.1685
 21
119.6268
  0
LINE
  8
LAYER_2
 10
54.9689
 20
119.6268
 11
56.5688
 21
119.6268
  0
LINE
  8
LAYER_2
 10
56.2688
 20
117.8264
 11
56.5688
 21
117.8264
  0
LINE
  8
LAYER_2
 10
55.9687
 20
117.8264
 11
56.2688
 21
117.8264
  0
LINE
  8
LAYER_2
 10
54.9689
 20
119.6268
 11
55.0185
 21
119.2265
  0
ARC
  8
LAYER_2
 10
54.0329
 20
123.1323
 40
0.5055
 50
223.6795438
 51
269.8055116
  0
LINE
  8
LAYER_2
 10
56.2688
 20
117.8264
 11
56.1719
 21
119.1803
  0
LINE
  8
LAYER_2
 10
55.9687
 20
117.8264
 11
55.9204
 21
119.1782
  0
LINE
  8
LAYER_2
 10
86.1064
 20
122.6268
 11
70.0688
 21
122.6268
  0
ARC
  8
LAYER_2
 10
74.7471
 20
141.7034
 40
21.3303
 50
328.3744302
 51
342.1861439
  0
ARC
  8
LAYER_2
 10
72.0879
 20
143.2629
 40
24.4124
 50
320.7836674
 51
328.530265
  0
ARC
  8
LAYER_2
 10
29.6259
 20
178.4052
 40
79.5301
 50
315.6217647
 51
320.5096725
  0
INSERT
  8
LAYER_2
  2
AIGNBL02010015
 10
0
 20
0
 30
0
  0
LINE
  8
LAYER_2
 10
95.0505
 20
135.1656
 11
95.0685
 21
135.2765
  0
ARC
  8
LAYER_2
 10
94.7185
 20
135.2765
 40
0.35
 50
0.007136020297
 51
90.00923185
  0
LINE
  8
LAYER_2
  6
AIGENLINE003
 10
70.0688
 20
132.2269
 11
74.1684
 21
132.2269
  0
LINE
  8
LAYER_2
  6
AIGENLINE003
 10
70.0688
 20
133.0269
 11
74.1684
 21
133.0269
  0
ARC
  8
LAYER_2
  6
AIGENLINE003
 10
74.1535
 20
132.6423
 40
0.4156
 50
272.0572819
 51
357.8281266
  0
ARC
  8
LAYER_2
  6
AIGENLINE003
 10
74.1684
 20
132.6265
 40
0.4004
 50
359.9970347
 51
90.00296527
  0
ARC
  8
LAYER_2
 10
86.1046
 20
123.1314
 40
0.5046
 50
270.2035582
 51
316.3685717
  0
LINE
  8
LAYER_2
  6
AIGENLINE002
 10
70.0688
 20
138.127
 11
70.0688
 21
118.6264
  0
LINE
  8
LAYER_2
 10
55.8705
 20
119.2265
 11
56.1223
 21
119.2265
  0
LINE
  8
LAYER_2
 10
55.0185
 20
119.2265
 11
55.8705
 21
119.2265
  0
ARC
  8
LAYER_2
  6
AIGENLINE002
 10
56.121
 20
119.1754
 40
0.0512
 50
5.534942032
 51
88.53027551
  0
ARC
  8
LAYER_2
 10
55.8686
 20
119.1746
 40
0.0519
 50
3.927961278
 51
87.93894576
  0
LINE
  8
LAYER_2
 10
56.9685
 20
117.8264
 11
56.9685
 21
116.0267
  0
LINE
  8
LAYER_2
 10
56.9685
 20
116.0267
 11
56.5688
 21
116.0267
  0
LINE
  8
LAYER_2
 10
56.9685
 20
122.6268
 11
56.9685
 21
119.6268
  0
LINE
  8
LAYER_2
 10
58.1687
 20
119.6268
 11
56.5688
 21
119.6268
  0
LINE
  8
LAYER_2
 10
56.8685
 20
117.8264
 11
56.5688
 21
117.8264
  0
LINE
  8
LAYER_2
 10
57.1686
 20
117.8264
 11
56.8685
 21
117.8264
  0
LINE
  8
LAYER_2
 10
58.1687
 20
119.6268
 11
58.1188
 21
119.2265
  0
LINE
  8
LAYER_2
 10
56.8685
 20
117.8264
 11
56.9654
 21
119.1803
  0
LINE
  8
LAYER_2
 10
57.1686
 20
117.8264
 11
57.2172
 21
119.1782
  0
LINE
  8
LAYER_2
 10
57.2668
 20
119.2265
 11
57.0153
 21
119.2265
  0
LINE
  8
LAYER_2
 10
58.1188
 20
119.2265
 11
57.2668
 21
119.2265
  0
ARC
  8
LAYER_2
  6
AIGENLINE002
 10
57.0162
 20
119.1755
 40
0.051
 50
90.99638967
 51
174.5938345
  0
ARC
  8
LAYER_2
 10
57.2685
 20
119.1751
 40
0.0514
 50
91.9375229
 51
176.5409217
  0
LINE
  8
LAYER_2
  6
AIGENLINE002
 10
83.5687
 20
123.9366
 11
83.5687
 21
114.9766
  0
LINE
  8
LAYER_2
 10
83.1684
 20
117.8264
 11
83.1684
 21
116.0267
  0
LINE
  8
LAYER_2
 10
83.1684
 20
116.0267
 11
83.5687
 21
116.0267
  0
LINE
  8
LAYER_2
 10
83.1684
 20
122.6268
 11
83.1684
 21
119.6268
  0
LINE
  8
LAYER_2
 10
81.9688
 20
119.6268
 11
83.5687
 21
119.6268
  0
LINE
  8
LAYER_2
 10
83.2686
 20
117.8264
 11
83.5687
 21
117.8264
  0
LINE
  8
LAYER_2
 10
82.9686
 20
117.8264
 11
83.2686
 21
117.8264
  0
LINE
  8
LAYER_2
 10
81.9688
 20
119.6268
 11
82.0184
 21
119.2265
  0
LINE
  8
LAYER_2
 10
83.2686
 20
117.8264
 11
83.1718
 21
119.1803
  0
LINE
  8
LAYER_2
 10
82.9686
 20
117.8264
 11
82.9203
 21
119.1782
  0
LINE
  8
LAYER_2
 10
82.8704
 20
119.2265
 11
83.1222
 21
119.2265
  0
LINE
  8
LAYER_2
 10
82.0184
 20
119.2265
 11
82.8704
 21
119.2265
  0
ARC
  8
LAYER_2
  6
AIGENLINE002
 10
83.1209
 20
119.1754
 40
0.0512
 50
5.534942032
 51
88.53027551
  0
ARC
  8
LAYER_2
 10
82.8691
 20
119.1752
 40
0.0513
 50
3.341686274
 51
88.52522077
  0
LINE
  8
LAYER_2
 10
83.9687
 20
117.8264
 11
83.9687
 21
116.0267
  0
LINE
  8
LAYER_2
 10
83.9687
 20
116.0267
 11
83.5687
 21
116.0267
  0
LINE
  8
LAYER_2
 10
83.9687
 20
122.6268
 11
83.9687
 21
119.6268
  0
LINE
  8
LAYER_2
 10
85.1686
 20
119.6268
 11
83.5687
 21
119.6268
  0
LINE
  8
LAYER_2
 10
83.8684
 20
117.8264
 11
83.5687
 21
117.8264
  0
LINE
  8
LAYER_2
 10
84.1689
 20
117.8264
 11
83.8684
 21
117.8264
  0
LINE
  8
LAYER_2
 10
85.1686
 20
119.6268
 11
85.1187
 21
119.2265
  0
LINE
  8
LAYER_2
 10
83.8684
 20
117.8264
 11
83.9652
 21
119.1803
  0
LINE
  8
LAYER_2
 10
84.1689
 20
117.8264
 11
84.2171
 21
119.1782
  0
LINE
  8
LAYER_2
 10
84.2667
 20
119.2265
 11
84.0152
 21
119.2265
  0
LINE
  8
LAYER_2
 10
85.1187
 20
119.2265
 11
84.2667
 21
119.2265
  0
ARC
  8
LAYER_2
  6
AIGENLINE002
 10
84.0164
 20
119.1751
 40
0.0514
 50
91.3108249
 51
174.1650414
  0
ARC
  8
LAYER_2
 10
84.2684
 20
119.1751
 40
0.0514
 50
91.9375229
 51
176.5409217
  0
LINE
  8
LAYER_2
 10
143.7666
 20
215.7889
 11
131.9671
 21
215.7889
  0
LINE
  8
LAYER_2
 10
149.9409
 20
209.6149
 11
143.7666
 21
215.7889
  0
LINE
  8
LAYER_2
 10
147.9593
 20
210.7597
 11
149.9409
 21
209.6149
  0
LINE
  8
LAYER_2
 10
149.9409
 20
209.6149
 11
148.7964
 21
211.5978
  0
LINE
  8
LAYER_2
 10
148.7964
 20
211.5978
 11
147.9593
 21
210.7597
  0
LINE
  8
LAYER_2
  6
AIGENLINE003
 10
70.0686
 20
193.2481
 11
57.8185
 21
193.2481
  0
ARC
  8
LAYER_2
  6
AIGENLINE003
 10
57.8185
 20
197.248
 40
3.9999
 50
179.9991645
 51
269.9994031
  0
LINE
  8
LAYER_2
  6
AIGENLINE003
 10
70.0688
 20
193.2481
 11
82.3188
 21
193.2481
  0
ARC
  8
LAYER_2
  6
AIGENLINE003
 10
82.3188
 20
197.2481
 40
4
 50
269.9996191
 51
0.0003808725466
  0
LINE
  8
LAYER_2
  6
AIGENLINE003
 10
53.8186
 20
209.7481
 11
53.8186
 21
203.4982
  0
LINE
  8
LAYER_2
  6
AIGENLINE003
 10
53.8186
 20
203.4982
 11
53.8186
 21
203.498
  0
LINE
  8
LAYER_2
  6
AIGENLINE003
 10
53.8186
 20
203.498
 11
53.8186
 21
197.2481
  0
LINE
  8
LAYER_2
  6
AIGENLINE003
 10
70.0686
 20
213.748
 11
57.8185
 21
213.748
  0
ARC
  8
LAYER_2
  6
AIGENLINE003
 10
57.8185
 20
209.7481
 40
3.9999
 50
90.00024685
 51
179.9997531
  0
LINE
  8
LAYER_2
  6
AIGENLINE003
 10
86.3188
 20
209.7481
 11
86.3188
 21
203.4982
  0
LINE
  8
LAYER_2
  6
AIGENLINE003
 10
86.3188
 20
203.4982
 11
86.3188
 21
203.498
  0
LINE
  8
LAYER_2
  6
AIGENLINE003
 10
86.3188
 20
203.498
 11
86.3188
 21
197.2481
  0
LINE
  8
LAYER_2
  6
AIGENLINE003
 10
70.0688
 20
213.748
 11
82.3188
 21
213.748
  0
ARC
  8
LAYER_2
  6
AIGENLINE003
 10
82.3189
 20
209.7481
 40
3.9999
 50
0.0007014173968
 51
90.00073098
  0
CIRCLE
  8
LAYER_2
  6
AIGENLINE003
 10
83.5687
 20
204.4985
 40
0.5001
  0
LINE
  8
LAYER_2
  6
AIGENLINE002
 10
56.5688
 20
205.4982
 11
56.5688
 21
203.4983
  0
LINE
  8
LAYER_2
  6
AIGENLINE002
 10
55.5689
 20
204.4983
 11
57.5687
 21
204.4983
  0
CIRCLE
  8
LAYER_2
  6
AIGENLINE003
 10
56.5688
 20
204.4985
 40
0.5001
  0
INSERT
  8
LAYER_2
  2
AIGNBL02010016
 10
0
 20
0
 30
0
  0
INSERT
  8
LAYER_2
  2
AIGNBL02010017
 10
0
 20
0
 30
0
  0
INSERT
  8
LAYER_2
  2
AIGNBL02010018
 10
0
 20
0
 30
0
  0
INSERT
  8
LAYER_2
  2
AIGNBL02010019
 10
0
 20
0
 30
0
  0
INSERT
  8
LAYER_2
  2
AIGNBL0201001B
 10
0
 20
0
 30
0
  0
INSERT
  8
LAYER_2
  2
AIGNBL0201001C
 10
0
 20
0
 30
0
  0
LINE
  8
LAYER_3
 10
21.9883
 20
57.4277
 11
188.4887
 21
57.4277
  0
LINE
  8
LAYER_3
 10
108.4881
 20
37.4275
 11
188.4887
 21
37.4275
  0
LINE
  8
LAYER_3
 10
21.9883
 20
44.9282
 11
108.4881
 21
44.9282
  0
LINE
  8
LAYER_3
 10
21.9883
 20
30.928
 11
108.4881
 21
30.928
  0
LINE
  8
LAYER_3
 10
33.4881
 20
30.928
 11
33.4881
 21
44.9282
  0
LINE
  8
LAYER_3
 10
108.4881
 20
17.428
 11
108.4881
 21
57.4277
  0
LINE
  8
LAYER_3
 10
89.4881
 20
30.928
 11
89.4881
 21
57.4277
  0
LINE
  8
LAYER_3
 10
70.488
 20
30.928
 11
70.488
 21
57.4277
  0
LINE
  8
LAYER_3
 10
188.4887
 20
17.428
 11
21.9883
 21
17.428
  0
LINE
  8
LAYER_3
 10
21.9883
 20
17.428
 11
21.9883
 21
280.4283
  0
LINE
  8
LAYER_3
 10
21.9883
 20
280.4283
 11
188.4887
 21
280.4283
  0
LINE
  8
LAYER_3
 10
188.4887
 20
280.4283
 11
188.4887
 21
17.428
  0
TEXT
  8
LAYER_3
 10
48.4872
 20
49.4557
 11
48.4872
 21
49.4557
 40
4.4979
 41
0.5
 72
1
  1
セラトレーディング株式会社
  0
TEXT
  8
LAYER_3
 10
22.9598
 20
40.9298
 11
22.9598
 21
40.9298
 40
3.0923
 41
0.5
  1
製図
  0
TEXT
  8
LAYER_3
 10
22.9598
 20
26.7305
 11
22.9598
 21
26.7305
 40
3.0923
 41
0.5
  1
備考
  0
TEXT
  8
LAYER_3
 10
34.5781
 20
40.9298
 11
34.5781
 21
40.9298
 40
3.0923
 41
0.5
  1
検図
  0
TEXT
  8
LAYER_3
 10
71.5316
 20
40.9298
 11
71.5316
 21
40.9298
 40
3.0923
 41
0.5
  1
日付
  0
TEXT
  8
LAYER_3
 10
72.7239
 20
34.7369
 11
72.7239
 21
34.7369
 40
3.6546
 41
0.5
  1
22.07.26
  0
TEXT
  8
LAYER_3
 10
27.6779
 20
35.1221
 11
27.6779
 21
35.1221
 40
3.6546
 41
0.5
 72
1
  1
木場
  0
TEXT
  8
LAYER_3
 10
46.2521
 20
35.1221
 11
46.2521
 21
35.1221
 40
3.6546
 41
0.5
 72
1
  1
井田
  0
TEXT
  8
LAYER_3
 10
114.1167
 20
45.7447
 11
114.1167
 21
45.7447
 40
3.9357
 41
0.5
  1
イノ　洗面器
  0
TEXT
  8
LAYER_3
 10
29.5255
 20
22.2264
 11
29.5255
 21
22.2264
 40
3.9357
 41
0.5
  1
実容量：6.4L、重量：7.5kg、オーバーフロー付
  0
TEXT
  8
LAYER_3
 10
148.4878
 20
20.6265
 11
148.4878
 21
20.6265
 40
3.9357
 41
0.5
 72
1
  1
AU12302R
  0
TEXT
  8
LAYER_3
 10
148.4878
 20
30.6269
 11
148.4878
 21
30.6269
 40
3.9357
 41
0.5
 72
1
  1
AU12302R
  0
TEXT
  8
LAYER_3
 10
98.898
 20
34.7369
 11
98.898
 21
34.7369
 40
3.6546
 41
0.5
 72
1
  1
1 ： 10
  0
TEXT
  8
LAYER_3
 10
90.5816
 20
40.9298
 11
90.5816
 21
40.9298
 40
3.0923
 41
0.5
  1
尺度
  0
TEXT
  8
LAYER_3
 10
90.5816
 20
53.337
 11
90.5816
 21
53.337
 40
3.0923
 41
0.5
  1
単位
  0
TEXT
  8
LAYER_3
 10
98.3061
 20
48.3409
 11
98.3061
 21
48.3409
 40
3.6546
 41
0.5
 72
1
  1
mm
  0
TEXT
  8
LAYER_3
 10
109.543
 20
53.337
 11
109.543
 21
53.337
 40
3.0923
 41
0.5
  1
名称
  0
TEXT
  8
LAYER_3
 10
109.543
 20
33.1983
 11
109.543
 21
33.1983
 40
3.0923
 41
0.5
  1
品番
  0
LINE
  8
LAYER_3
 10
108.4881
 20
27.4278
 11
188.4887
 21
27.4278
  0
TEXT
  8
LAYER_3
 10
109.543
 20
23.1986
 11
109.543
 21
23.1986
 40
3.0923
 41
0.5
  1
図番
  0
INSERT
  8
LAYER_3
  2
AIGNBL03010002
 10
0
 20
0
 30
0
  0
LINE
  8
LAYER_3
 10
21.9883
 20
148.9296
 11
0.2384
 21
148.9296
  0
LINE
  8
LAYER_3
 10
105.2382
 20
297.4482
 11
105.2382
 21
280.4283
  0
LINE
  8
LAYER_3
 10
105.2382
 20
17.428
 11
105.2382
 21
0.4479
  0
LINE
  8
LAYER_3
 10
210.2383
 20
148.9296
 11
188.4881
 21
148.9296
  0
TEXT
  8
LAYER_3
 10
25.7941
 20
61.2138
 11
25.7941
 21
61.2138
 40
4.2168
 41
0.5
  1
※カウンター取付金具（2本）付
  0
ENDSEC
  0
EOF
