  0
SECTION
  2
HEADER
  9
$ACADVER
  1
AC1009
  9
$LUNITS
 70
2
  9
$LUPREC
 70
4
  9
$LTSCALE
 40
1.0
  9
$EXTMIN
 10
-4.7008
 20
-21.0712
 30
0
  9
$EXTMAX
 10
205.2998
 20
275.9289
 30
0
  0
ENDSEC
  0
SECTION
  2
TABLES
  0
TABLE
  2
LTYPE
 70
256
  0
LTYPE
  2
AIGENLINE001
 70
64
  3
generate AI->DXF Converter
 72
65
 73
4
 40
5.8561
 49
3.5278
 49
-0.7761
 49
0.7761
 49
-0.7761
  0
LTYPE
  2
AIGENLINE002
 70
64
  3
generate AI->DXF Converter
 72
65
 73
2
 40
1.5522
 49
0.7761
 49
-0.7761
  0
ENDTAB
  0
TABLE
  2
LAYER
 70
3
  0
LAYER
  2
LAYER_1
 70
64
 62
7
  6
CONTINUOUS
  0
LAYER
  2
LAYER_2
 70
64
 62
7
  6
CONTINUOUS
  0
LAYER
  2
LAYER_3
 70
64
 62
7
  6
CONTINUOUS
  0
ENDTAB
  0
TABLE
  2
STYLE
 70
6
  0
STYLE
  2
STANDARD
 70
0
 40
0
 50
0
 71
0
 41
0
 42
0
  3
TXT
  4
BIGFONT
  0
ENDTAB
  0
ENDSEC
  0
SECTION
  2
BLOCKS
  0
BLOCK
  8
LAYER_2
  2
AIGNBL02020003
 70
64
 10
0
 20
0
 30
0
  3
AIGNBL02020003
  0
LINE
  8
LAYER_2
 10
83.0316
 20
143.4395
 11
27.0316
 21
143.4395
  0
LINE
  8
LAYER_2
 10
29.2421
 20
144.0245
 11
27.0318
 21
143.4324
  0
LINE
  8
LAYER_2
 10
27.0318
 20
143.4324
 11
29.2421
 21
142.8399
  0
LINE
  8
LAYER_2
 10
29.2421
 20
142.8399
 11
29.2421
 21
144.0245
  0
LINE
  8
LAYER_2
 10
80.8209
 20
142.8545
 11
83.0314
 21
143.4467
  0
LINE
  8
LAYER_2
 10
83.0314
 20
143.4467
 11
80.8209
 21
144.0391
  0
LINE
  8
LAYER_2
 10
80.8209
 20
144.0391
 11
80.8209
 21
142.8545
  0
ENDBLK
  0
BLOCK
  8
LAYER_2
  2
AIGNBL02020004
 70
64
 10
0
 20
0
 30
0
  3
AIGNBL02020004
  0
LINE
  8
LAYER_2
 10
79.0315
 20
150.6673
 11
31.0315
 21
150.6673
  0
LINE
  8
LAYER_2
 10
33.2421
 20
151.2523
 11
31.0317
 21
150.6602
  0
LINE
  8
LAYER_2
 10
31.0317
 20
150.6602
 11
33.2421
 21
150.0677
  0
LINE
  8
LAYER_2
 10
33.2421
 20
150.0677
 11
33.2421
 21
151.2523
  0
LINE
  8
LAYER_2
 10
76.8208
 20
150.0823
 11
79.0314
 21
150.6745
  0
LINE
  8
LAYER_2
 10
79.0314
 20
150.6745
 11
76.8208
 21
151.2669
  0
LINE
  8
LAYER_2
 10
76.8208
 20
151.2669
 11
76.8208
 21
150.0823
  0
ENDBLK
  0
BLOCK
  8
LAYER_2
  2
AIGNBL02020005
 70
64
 10
0
 20
0
 30
0
  3
AIGNBL02020005
  0
LINE
  8
LAYER_2
 10
58.4573
 20
194.5633
 11
46.2857
 21
206.7348
  0
LINE
  8
LAYER_2
 10
58.2511
 20
195.607
 11
56.2693
 21
196.7513
  0
LINE
  8
LAYER_2
 10
56.2693
 20
196.7513
 11
57.4134
 21
194.7693
  0
LINE
  8
LAYER_2
 10
57.4134
 20
194.7693
 11
58.2511
 21
195.607
  0
LINE
  8
LAYER_2
 10
51.8127
 20
200.3704
 11
53.7945
 21
199.2261
  0
LINE
  8
LAYER_2
 10
53.7945
 20
199.2261
 11
52.6504
 21
201.208
  0
LINE
  8
LAYER_2
 10
52.6504
 20
201.208
 11
51.8127
 21
200.3704
  0
ENDBLK
  0
BLOCK
  8
LAYER_2
  2
AIGNBL02020006
 70
64
 10
0
 20
0
 30
0
  3
AIGNBL02020006
  0
LINE
  8
LAYER_2
 10
61.7413
 20
180.2792
 11
49.8848
 21
192.1357
  0
LINE
  8
LAYER_2
 10
58.6398
 20
184.2182
 11
56.658
 21
185.3625
  0
LINE
  8
LAYER_2
 10
56.658
 20
185.3625
 11
57.8021
 21
183.3805
  0
LINE
  8
LAYER_2
 10
57.8021
 20
183.3805
 11
58.6398
 21
184.2182
  0
LINE
  8
LAYER_2
 10
51.4236
 20
189.7595
 11
53.4054
 21
188.6152
  0
LINE
  8
LAYER_2
 10
53.4054
 20
188.6152
 11
52.2612
 21
190.5972
  0
LINE
  8
LAYER_2
 10
52.2612
 20
190.5972
 11
51.4236
 21
189.7595
  0
ENDBLK
  0
BLOCK
  8
LAYER_2
  2
AIGNBL02020007
 70
64
 10
0
 20
0
 30
0
  3
AIGNBL02020007
  0
LINE
  8
LAYER_2
 10
101.8212
 20
160.9886
 11
101.8212
 21
204.9887
  0
LINE
  8
LAYER_2
 10
102.4062
 20
202.778
 11
101.8139
 21
204.9885
  0
LINE
  8
LAYER_2
 10
101.8139
 20
204.9885
 11
101.2217
 21
202.778
  0
LINE
  8
LAYER_2
 10
101.2217
 20
202.778
 11
102.4062
 21
202.778
  0
LINE
  8
LAYER_2
 10
101.2362
 20
163.1993
 11
101.8284
 21
160.9888
  0
LINE
  8
LAYER_2
 10
101.8284
 20
160.9888
 11
102.4206
 21
163.1993
  0
LINE
  8
LAYER_2
 10
102.4206
 20
163.1993
 11
101.2362
 21
163.1993
  0
ENDBLK
  0
BLOCK
  8
LAYER_2
  2
AIGNBL02020008
 70
64
 10
0
 20
0
 30
0
  3
AIGNBL02020008
  0
LINE
  8
LAYER_2
 10
92.2256
 20
204.9887
 11
92.2256
 21
156.157
  0
LINE
  8
LAYER_2
 10
91.6406
 20
167.1993
 11
92.2328
 21
164.9887
  0
LINE
  8
LAYER_2
 10
92.2328
 20
164.9887
 11
92.8252
 21
167.1993
  0
LINE
  8
LAYER_2
 10
92.8252
 20
167.1993
 11
91.6406
 21
167.1993
  0
LINE
  8
LAYER_2
 10
91.6406
 20
200.1992
 11
92.2328
 21
197.9886
  0
LINE
  8
LAYER_2
 10
92.2328
 20
197.9886
 11
92.8252
 21
200.1992
  0
LINE
  8
LAYER_2
 10
92.8252
 20
200.1992
 11
91.6406
 21
200.1992
  0
LINE
  8
LAYER_2
 10
92.8105
 20
202.778
 11
92.2183
 21
204.9885
  0
LINE
  8
LAYER_2
 10
92.2183
 20
204.9885
 11
91.6259
 21
202.778
  0
LINE
  8
LAYER_2
 10
91.6259
 20
202.778
 11
92.8105
 21
202.778
  0
LINE
  8
LAYER_2
 10
92.8105
 20
158.7781
 11
92.2183
 21
160.9886
  0
LINE
  8
LAYER_2
 10
92.2183
 20
160.9886
 11
91.6259
 21
158.7781
  0
LINE
  8
LAYER_2
 10
91.6259
 20
158.7781
 11
92.8105
 21
158.7781
  0
LINE
  8
LAYER_2
 10
92.8105
 20
191.7781
 11
92.2183
 21
193.9887
  0
LINE
  8
LAYER_2
 10
92.2183
 20
193.9887
 11
91.6259
 21
191.7781
  0
LINE
  8
LAYER_2
 10
91.6259
 20
191.7781
 11
92.8105
 21
191.7781
  0
ENDBLK
  0
BLOCK
  8
LAYER_2
  2
AIGNBL02020009
 70
64
 10
0
 20
0
 30
0
  3
AIGNBL02020009
  0
LINE
  8
LAYER_2
 10
96.1161
 20
86.9508
 11
96.1161
 21
105.4509
  0
LINE
  8
LAYER_2
 10
96.7011
 20
103.2402
 11
96.1089
 21
105.4509
  0
LINE
  8
LAYER_2
 10
96.1089
 20
105.4509
 11
95.5165
 21
103.2402
  0
LINE
  8
LAYER_2
 10
95.5165
 20
103.2402
 11
96.7011
 21
103.2402
  0
LINE
  8
LAYER_2
 10
95.5311
 20
89.1615
 11
96.1233
 21
86.9508
  0
LINE
  8
LAYER_2
 10
96.1233
 20
86.9508
 11
96.7157
 21
89.1615
  0
LINE
  8
LAYER_2
 10
96.7157
 20
89.1615
 11
95.5311
 21
89.1615
  0
ENDBLK
  0
BLOCK
  8
LAYER_2
  2
AIGNBL0202000A
 70
64
 10
0
 20
0
 30
0
  3
AIGNBL0202000A
  0
LINE
  8
LAYER_2
 10
88.5215
 20
96.5495
 11
88.5215
 21
109.6653
  0
LINE
  8
LAYER_2
 10
89.1065
 20
101.24
 11
88.5143
 21
103.4507
  0
LINE
  8
LAYER_2
 10
88.5143
 20
103.4507
 11
87.9219
 21
101.24
  0
LINE
  8
LAYER_2
 10
87.9219
 20
101.24
 11
89.1065
 21
101.24
  0
LINE
  8
LAYER_2
 10
87.9366
 20
107.6616
 11
88.5288
 21
105.4509
  0
LINE
  8
LAYER_2
 10
88.5288
 20
105.4509
 11
89.1212
 21
107.6616
  0
LINE
  8
LAYER_2
 10
89.1212
 20
107.6616
 11
87.9366
 21
107.6616
  0
ENDBLK
  0
BLOCK
  8
LAYER_2
  2
AIGNBL0202000B
 70
64
 10
0
 20
0
 30
0
  3
AIGNBL0202000B
  0
LINE
  8
LAYER_2
 10
48.4459
 20
100.4728
 11
48.4459
 21
110.5789
  0
LINE
  8
LAYER_2
 10
49.031
 20
102.4399
 11
48.4387
 21
104.6506
  0
LINE
  8
LAYER_2
 10
48.4387
 20
104.6506
 11
47.8463
 21
102.4399
  0
LINE
  8
LAYER_2
 10
47.8463
 20
102.4399
 11
49.031
 21
102.4399
  0
LINE
  8
LAYER_2
 10
47.861
 20
107.6616
 11
48.4532
 21
105.4509
  0
LINE
  8
LAYER_2
 10
48.4532
 20
105.4509
 11
49.0456
 21
107.6616
  0
LINE
  8
LAYER_2
 10
49.0456
 20
107.6616
 11
47.861
 21
107.6616
  0
ENDBLK
  0
BLOCK
  8
LAYER_2
  2
AIGNBL02020012
 70
64
 10
0
 20
0
 30
0
  3
AIGNBL02020012
  0
LINE
  8
LAYER_2
 10
159.7274
 20
79.9358
 11
141.7274
 21
79.9358
  0
LINE
  8
LAYER_2
 10
143.9382
 20
80.5208
 11
141.7274
 21
79.9286
  0
LINE
  8
LAYER_2
 10
141.7274
 20
79.9286
 11
143.9382
 21
79.3364
  0
LINE
  8
LAYER_2
 10
143.9382
 20
79.3364
 11
143.9382
 21
80.5208
  0
LINE
  8
LAYER_2
 10
157.5166
 20
79.3509
 11
159.7274
 21
79.9431
  0
LINE
  8
LAYER_2
 10
159.7274
 20
79.9431
 11
157.5166
 21
80.5353
  0
LINE
  8
LAYER_2
 10
157.5166
 20
80.5353
 11
157.5166
 21
79.3509
  0
ENDBLK
  0
BLOCK
  8
LAYER_2
  2
AIGNBL02020014
 70
64
 10
0
 20
0
 30
0
  3
AIGNBL02020014
  0
LINE
  8
LAYER_2
 10
39.6594
 20
195.6958
 11
29.2264
 21
214.8485
  0
LINE
  8
LAYER_2
 10
38.1024
 20
197.3703
 11
39.6659
 21
195.6993
  0
LINE
  8
LAYER_2
 10
39.6659
 20
195.6993
 11
39.1474
 21
197.9279
  0
LINE
  8
LAYER_2
 10
39.1474
 20
197.9279
 11
38.1024
 21
197.3703
  0
ENDBLK
  0
BLOCK
  8
LAYER_2
  2
AIGNBL02010002
 70
64
 10
0
 20
0
 30
0
  3
AIGNBL02010002
  0
CIRCLE
  8
LAYER_2
 10
55.0316
 20
186.9886
 40
2.3
  0
LINE
  8
LAYER_2
  6
AIGENLINE001
 10
60.0318
 20
186.9886
 11
55.0316
 21
186.9886
  0
LINE
  8
LAYER_2
  6
AIGENLINE001
 10
55.0316
 20
186.9886
 11
50.0321
 21
186.9886
  0
CIRCLE
  8
LAYER_2
 10
55.032
 20
186.9886
 40
3.25
  0
CIRCLE
  8
LAYER_2
 10
55.032
 20
197.9886
 40
1.75
  0
LINE
  8
LAYER_2
  6
AIGENLINE001
 10
57.6568
 20
197.9886
 11
52.4071
 21
197.9886
  0
LINE
  8
LAYER_2
  6
AIGENLINE001
 10
55.0316
 20
206.957
 11
55.0316
 21
158.9793
  0
LINE
  8
LAYER_2
 10
83.0316
 20
177.0416
 11
83.0316
 21
142.8393
  0
LINE
  8
LAYER_2
 10
27.0316
 20
177.0416
 11
27.0316
 21
142.8393
  0
INSERT
  8
LAYER_2
  2
AIGNBL02020003
 10
0
 20
0
 30
0
  0
LINE
  8
LAYER_2
 10
96.7162
 20
105.4509
 11
83.4478
 21
105.4509
  0
LINE
  8
LAYER_2
 10
88.9449
 20
103.4507
 11
84.0061
 21
103.4507
  0
LINE
  8
LAYER_2
 10
96.7162
 20
86.9508
 11
59.7266
 21
86.9508
  0
LINE
  8
LAYER_2
 10
79.0315
 20
178.1705
 11
79.0315
 21
150.0671
  0
LINE
  8
LAYER_2
 10
31.0315
 20
178.1705
 11
31.0315
 21
150.0671
  0
INSERT
  8
LAYER_2
  2
AIGNBL02020004
 10
0
 20
0
 30
0
  0
LINE
  8
LAYER_2
 10
102.4213
 20
204.9887
 11
64.6271
 21
204.9887
  0
LINE
  8
LAYER_2
 10
67.8649
 20
180.2792
 11
61.7413
 21
180.2792
  0
LINE
  8
LAYER_2
 10
46.2857
 20
206.7348
 11
40.9823
 21
206.7348
  0
LINE
  8
LAYER_2
 10
92.8257
 20
197.9886
 11
58.5
 21
197.9886
  0
INSERT
  8
LAYER_2
  2
AIGNBL02020005
 10
0
 20
0
 30
0
  0
INSERT
  8
LAYER_2
  2
AIGNBL02020006
 10
0
 20
0
 30
0
  0
LINE
  8
LAYER_2
 10
92.8257
 20
193.9887
 11
71.6234
 21
193.9887
  0
LINE
  8
LAYER_2
 10
92.8257
 20
164.9887
 11
63.7212
 21
164.9887
  0
LINE
  8
LAYER_2
 10
102.4213
 20
160.9886
 11
64.6271
 21
160.9886
  0
INSERT
  8
LAYER_2
  2
AIGNBL02020007
 10
0
 20
0
 30
0
  0
INSERT
  8
LAYER_2
  2
AIGNBL02020008
 10
0
 20
0
 30
0
  0
INSERT
  8
LAYER_2
  2
AIGNBL02020009
 10
0
 20
0
 30
0
  0
INSERT
  8
LAYER_2
  2
AIGNBL0202000A
 10
0
 20
0
 30
0
  0
INSERT
  8
LAYER_2
  2
AIGNBL0202000B
 10
0
 20
0
 30
0
  0
ENDBLK
  0
BLOCK
  8
LAYER_2
  2
AIGNBL0201000C
 70
64
 10
0
 20
0
 30
0
  3
AIGNBL0201000C
  0
LINE
  8
LAYER_2
 10
111.7272
 20
154.0337
 11
163.7271
 21
154.0337
  0
LINE
  8
LAYER_2
 10
161.5164
 20
153.4487
 11
163.7271
 21
154.0409
  0
LINE
  8
LAYER_2
 10
163.7271
 20
154.0409
 11
161.5164
 21
154.6333
  0
LINE
  8
LAYER_2
 10
161.5164
 20
154.6333
 11
161.5164
 21
153.4487
  0
LINE
  8
LAYER_2
 10
113.9379
 20
154.6187
 11
111.7272
 21
154.0264
  0
LINE
  8
LAYER_2
 10
111.7272
 20
154.0264
 11
113.9379
 21
153.4341
  0
LINE
  8
LAYER_2
 10
113.9379
 20
153.4341
 11
113.9379
 21
154.6187
  0
ENDBLK
  0
BLOCK
  8
LAYER_2
  2
AIGNBL0201000D
 70
64
 10
0
 20
0
 30
0
  3
AIGNBL0201000D
  0
LINE
  8
LAYER_2
 10
172.993
 20
162.9888
 11
172.993
 21
202.9888
  0
LINE
  8
LAYER_2
 10
173.578
 20
200.7781
 11
172.9858
 21
202.9886
  0
LINE
  8
LAYER_2
 10
172.9858
 20
202.9886
 11
172.3936
 21
200.7781
  0
LINE
  8
LAYER_2
 10
172.3936
 20
200.7781
 11
173.578
 21
200.7781
  0
LINE
  8
LAYER_2
 10
172.4081
 20
165.1995
 11
173.0003
 21
162.989
  0
LINE
  8
LAYER_2
 10
173.0003
 20
162.989
 11
173.5925
 21
165.1995
  0
LINE
  8
LAYER_2
 10
173.5925
 20
165.1995
 11
172.4081
 21
165.1995
  0
ENDBLK
  0
BLOCK
  8
LAYER_2
  2
AIGNBL0201000E
 70
64
 10
0
 20
0
 30
0
  3
AIGNBL0201000E
  0
LINE
  8
LAYER_2
 10
137.7273
 20
172.9886
 11
123.1746
 21
199.2226
  0
LINE
  8
LAYER_2
 10
124.7648
 20
197.5769
 11
123.1746
 21
199.2226
  0
LINE
  8
LAYER_2
 10
123.1746
 20
199.2226
 11
123.7289
 21
197.0023
  0
LINE
  8
LAYER_2
 10
123.7289
 20
197.0023
 11
124.7648
 21
197.5769
  0
ENDBLK
  0
BLOCK
  8
LAYER_2
  2
AIGNBL0201000F
 70
64
 10
0
 20
0
 30
0
  3
AIGNBL0201000F
  0
LINE
  8
LAYER_2
 10
148.2273
 20
182.9887
 11
162.3174
 21
189.4473
  0
LINE
  8
LAYER_2
 10
160.5545
 20
187.9878
 11
162.3174
 21
189.4473
  0
LINE
  8
LAYER_2
 10
162.3174
 20
189.4473
 11
160.0612
 21
189.0648
  0
LINE
  8
LAYER_2
 10
160.0612
 20
189.0648
 11
160.5545
 21
187.9878
  0
ENDBLK
  0
BLOCK
  8
LAYER_2
  2
AIGNBL02010010
 70
64
 10
0
 20
0
 30
0
  3
AIGNBL02010010
  0
LINE
  8
LAYER_2
  6
AIGENLINE001
 10
55.0316
 20
85.3987
 11
55.0316
 21
107.4119
  0
LINE
  8
LAYER_2
 10
52.0314
 20
89.4709
 11
52.0314
 21
103.4507
  0
LINE
  8
LAYER_2
 10
51.5316
 20
87.2508
 11
51.5316
 21
89.7971
  0
ENDBLK
  0
BLOCK
  8
LAYER_2
  2
AIGNBL02010011
 70
64
 10
0
 20
0
 30
0
  3
AIGNBL02010011
  0
LINE
  8
LAYER_2
 10
146.1137
 20
90.4145
 11
137.7518
 21
90.4145
  0
LINE
  8
LAYER_2
  6
AIGENLINE002
 10
156.2271
 20
104.6506
 11
149.5075
 21
104.6506
  0
LINE
  8
LAYER_2
 10
144.9438
 20
86.9508
 11
138.5125
 21
86.9508
  0
LINE
  8
LAYER_2
  6
AIGENLINE001
 10
141.7274
 20
85.8345
 11
141.7274
 21
91.6551
  0
LINE
  8
LAYER_2
 10
141.7274
 20
79.436
 11
141.7274
 21
85.3051
  0
LINE
  8
LAYER_2
 10
159.7274
 20
79.436
 11
159.7274
 21
102.9305
  0
LINE
  8
LAYER_2
  6
AIGENLINE001
 10
152.7273
 20
102.2446
 11
152.7273
 21
106.5182
  0
INSERT
  8
LAYER_2
  2
AIGNBL02020012
 10
0
 20
0
 30
0
  0
ENDBLK
  0
BLOCK
  8
LAYER_2
  2
AIGNBL02010013
 70
64
 10
0
 20
0
 30
0
  3
AIGNBL02010013
  0
INSERT
  8
LAYER_2
  2
AIGNBL02020014
 10
0
 20
0
 30
0
  0
ENDBLK
  0
BLOCK
  8
LAYER_3
  2
AIGNBL03010002
 70
64
 10
0
 20
0
 30
0
  3
AIGNBL03010002
  0
ARC
  8
LAYER_3
 10
71.329
 20
29.8046
 40
2.0849
 50
0.0006125599176
 51
89.99938743
  0
ARC
  8
LAYER_3
 10
71.3293
 20
29.8049
 40
2.0846
 50
90.00841178
 51
180.0080794
  0
ARC
  8
LAYER_3
 10
71.329
 20
29.8046
 40
2.0843
 50
179.9993872
 51
270.0006128
  0
ARC
  8
LAYER_3
 10
71.3293
 20
29.8049
 40
2.0846
 50
269.9915884
 51
359.9919204
  0
ARC
  8
LAYER_3
 10
71.3293
 20
29.8042
 40
1.2199
 50
0.01748619098
 51
90.01539247
  0
ARC
  8
LAYER_3
 10
71.329
 20
29.8045
 40
1.2196
 50
89.99793485
 51
179.997367
  0
ARC
  8
LAYER_3
 10
71.329
 20
29.8046
 40
1.2196
 50
179.9989528
 51
270.0010472
  0
ARC
  8
LAYER_3
 10
71.3293
 20
29.8049
 40
1.2199
 50
269.9856262
 51
359.9861933
  0
LINE
  8
LAYER_3
 10
75.04
 20
28.585
 11
75.04
 21
31.0241
  0
LINE
  8
LAYER_3
 10
80.218
 20
27.7203
 11
80.218
 21
31.8895
  0
LINE
  8
LAYER_3
 10
75.04
 20
31.0241
 11
80.218
 21
31.8895
  0
LINE
  8
LAYER_3
 10
75.04
 20
28.585
 11
80.218
 21
27.7203
  0
LINE
  8
LAYER_3
 10
71.329
 20
29.8046
 11
71.329
 21
29.5531
  0
LINE
  8
LAYER_3
 10
71.329
 20
29.3126
 11
71.329
 21
27.1256
  0
LINE
  8
LAYER_3
 10
71.329
 20
29.8046
 11
71.5811
 21
29.8046
  0
LINE
  8
LAYER_3
 10
71.8216
 20
29.8046
 11
74.0086
 21
29.8046
  0
LINE
  8
LAYER_3
 10
71.329
 20
29.8046
 11
71.329
 21
30.0567
  0
LINE
  8
LAYER_3
 10
71.329
 20
30.2972
 11
71.329
 21
32.4842
  0
LINE
  8
LAYER_3
 10
71.329
 20
29.8046
 11
71.0775
 21
29.8046
  0
LINE
  8
LAYER_3
 10
70.837
 20
29.8046
 11
68.6501
 21
29.8046
  0
LINE
  8
LAYER_3
 10
77.2332
 20
29.8046
 11
77.4854
 21
29.8046
  0
LINE
  8
LAYER_3
 10
77.7258
 20
29.8046
 11
80.6507
 21
29.8046
  0
LINE
  8
LAYER_3
 10
77.2332
 20
29.8046
 11
76.981
 21
29.8046
  0
LINE
  8
LAYER_3
 10
76.7405
 20
29.8046
 11
74.5543
 21
29.8046
  0
ENDBLK
  0
ENDSEC
  0
SECTION
  2
ENTITIES
  0
TEXT
  8
LAYER_1
 10
95.3223
 20
96.113
 11
95.3223
 21
96.113
 40
3.0923
 41
0.5
 50
89.99999999
 72
1
  1
185
  0
TEXT
  8
LAYER_1
 10
87.8518
 20
98.5759
 11
87.8518
 21
98.5759
 40
3.0923
 41
0.5
 50
89.99999999
 72
1
  1
20
  0
TEXT
  8
LAYER_1
 10
47.8944
 20
109.5113
 11
47.8944
 21
109.5113
 40
3.0923
 41
0.5
 50
89.99999999
 72
1
  1
8
  0
TEXT
  8
LAYER_1
 10
172.4064
 20
182.9887
 11
172.4064
 21
182.9887
 40
3.0923
 41
0.5
 50
89.99999999
 72
1
  1
400
  0
TEXT
  8
LAYER_1
 10
101.0708
 20
182.2578
 11
101.0708
 21
182.2578
 40
3.0923
 41
0.5
 50
89.99999999
 72
1
  1
440
  0
TEXT
  8
LAYER_1
 10
91.3932
 20
179.8137
 11
91.3932
 21
179.8137
 40
3.0923
 41
0.5
 50
89.99999999
 72
1
  1
290
  0
TEXT
  8
LAYER_1
 10
91.3932
 20
196.1295
 11
91.3932
 21
196.1295
 40
3.0923
 41
0.5
 50
89.99999999
 72
1
  1
40
  0
TEXT
  8
LAYER_1
 10
91.3932
 20
201.392
 11
91.3932
 21
201.392
 40
3.0923
 41
0.5
 50
89.99999999
 72
1
  1
70
  0
TEXT
  8
LAYER_1
 10
91.3932
 20
163.0329
 11
91.3932
 21
163.0329
 40
3.0923
 41
0.5
 50
89.99999999
 72
1
  1
40
  0
TEXT
  8
LAYER_1
 10
137.7273
 20
154.8805
 11
137.7273
 21
154.8805
 40
3.0923
 41
0.5
 72
1
  1
520
  0
TEXT
  8
LAYER_1
 10
55.0316
 20
151.5518
 11
55.0316
 21
151.5518
 40
3.0923
 41
0.5
 72
1
  1
480
  0
TEXT
  8
LAYER_1
 10
55.0316
 20
144.2399
 11
55.0316
 21
144.2399
 40
3.0923
 41
0.5
 72
1
  1
560
  0
TEXT
  8
LAYER_1
 10
150.3195
 20
80.6083
 11
150.3195
 21
80.6083
 40
3.0923
 41
0.5
 72
1
  1
180
  0
TEXT
  8
LAYER_1
 10
66.5092
 20
181.011
 11
66.5092
 21
181.011
 40
3.0923
 41
0.5
 72
2
  1
%%c46
  0
TEXT
  8
LAYER_1
 10
41.1169
 20
207.5971
 11
41.1169
 21
207.5971
 40
3.0923
 41
0.5
  1
%%c35
  0
TEXT
  8
LAYER_1
 10
153.9775
 20
186.4658
 11
153.9775
 21
186.4658
 40
3.0923
 41
0.5
 50
23.92234829
 72
1
  1
R155
  0
TEXT
  8
LAYER_1
 10
129.7585
 20
188.7464
 11
129.7585
 21
188.7464
 40
3.0923
 41
0.5
 50
298.2821294
 72
1
  1
R300
  0
TEXT
  8
LAYER_1
 10
138.9779
 20
147.6375
 11
138.9779
 21
147.6375
 40
3.0923
 41
0.5
 72
1
  1
カウンター開口寸法
  0
TEXT
  8
LAYER_1
 10
45.9309
 20
215.5484
 11
45.9309
 21
215.5484
 40
3.0923
 41
0.5
 72
2
  1
メーカーロゴ
  0
INSERT
  8
LAYER_2
  2
AIGNBL02010002
 10
0
 20
0
 30
0
  0
ARC
  8
LAYER_2
 10
49.6198
 20
180.0433
 40
20.4224
 50
128.5429288
 51
141.7390041
  0
ARC
  8
LAYER_2
 10
52.0383
 20
177.0951
 40
24.2353
 50
116.1416337
 51
128.6719586
  0
ARC
  8
LAYER_2
 10
54.2214
 20
172.8836
 40
28.978
 50
105.0286331
 51
116.3478152
  0
ARC
  8
LAYER_2
 10
55.1035
 20
169.9653
 40
32.0253
 50
94.39792984
 51
105.199012
  0
ARC
  8
LAYER_2
 10
55.0399
 20
170.9528
 40
31.0359
 50
90.01526878
 51
94.42053606
  0
ARC
  8
LAYER_2
 10
60.4427
 20
180.0422
 40
20.4236
 50
38.26210759
 51
51.45759152
  0
ARC
  8
LAYER_2
 10
58.0243
 20
177.0941
 40
24.2364
 50
51.32857101
 51
63.85843189
  0
ARC
  8
LAYER_2
 10
55.8414
 20
172.883
 40
28.9786
 50
63.65227798
 51
74.97121144
  0
ARC
  8
LAYER_2
 10
54.9596
 20
169.9657
 40
32.025
 50
74.80086175
 51
85.60193101
  0
ARC
  8
LAYER_2
 10
55.0233
 20
170.9542
 40
31.0345
 50
85.57936738
 51
89.98472595
  0
ARC
  8
LAYER_2
 10
137.7273
 20
172.989
 40
29.9996
 50
90.00000053
 51
136.2965143
  0
ARC
  8
LAYER_2
 10
127.228
 20
182.9885
 40
15.5008
 50
136.2039361
 51
179.9992635
  0
ARC
  8
LAYER_2
 10
137.7273
 20
192.9884
 40
29.9997
 50
223.703487
 51
269.9999982
  0
ARC
  8
LAYER_2
 10
127.2278
 20
182.9889
 40
15.5006
 50
180.00081
 51
223.7963601
  0
ARC
  8
LAYER_2
 10
137.7269
 20
172.9878
 40
30.0008
 50
43.70438712
 51
89.99928899
  0
ARC
  8
LAYER_2
 10
148.2262
 20
182.9885
 40
15.5009
 50
0.0008550128807
 51
43.79594531
  0
ARC
  8
LAYER_2
 10
137.727
 20
192.9895
 40
30.0007
 50
270.0004889
 51
316.2953882
  0
ARC
  8
LAYER_2
 10
148.2264
 20
182.989
 40
15.5007
 50
316.2037585
 51
359.9990715
  0
LINE
  8
LAYER_2
  6
AIGENLINE001
 10
137.7273
 20
206.0224
 11
137.7273
 21
160.3556
  0
LINE
  8
LAYER_2
  6
AIGENLINE001
 10
167.2401
 20
182.9887
 11
108.4606
 21
182.9887
  0
LINE
  8
LAYER_2
 10
111.7272
 20
176.6574
 11
111.7272
 21
153.4411
  0
LINE
  8
LAYER_2
 10
163.7271
 20
176.6574
 11
163.7271
 21
153.4411
  0
INSERT
  8
LAYER_2
  2
AIGNBL0201000C
 10
0
 20
0
 30
0
  0
LINE
  8
LAYER_2
 10
147.356
 20
162.9888
 11
173.6449
 21
162.9888
  0
LINE
  8
LAYER_2
 10
147.356
 20
202.9888
 11
173.6449
 21
202.9888
  0
INSERT
  8
LAYER_2
  2
AIGNBL0201000D
 10
0
 20
0
 30
0
  0
INSERT
  8
LAYER_2
  2
AIGNBL0201000E
 10
0
 20
0
 30
0
  0
INSERT
  8
LAYER_2
  2
AIGNBL0201000F
 10
0
 20
0
 30
0
  0
INSERT
  8
LAYER_2
  2
AIGNBL02010010
 10
0
 20
0
 30
0
  0
LINE
  8
LAYER_2
 10
53.5315
 20
87.9709
 11
55.0316
 21
87.9709
  0
LINE
  8
LAYER_2
  6
AIGENLINE002
 10
47.5318
 20
104.6506
 11
62.5319
 21
104.6506
  0
LINE
  8
LAYER_2
 10
51.8315
 20
86.9508
 11
55.0316
 21
86.9508
  0
ARC
  8
LAYER_2
 10
53.5314
 20
89.4709
 40
1.5
 50
180.0002652
 51
270.0035544
  0
ARC
  8
LAYER_2
 10
51.0157
 20
89.7843
 40
0.516
 50
1.4212854
 51
76.94320997
  0
ARC
  8
LAYER_2
 10
51.8315
 20
87.2507
 40
0.2999
 50
179.9887893
 51
269.9921089
  0
LINE
  8
LAYER_2
 10
58.0316
 20
89.4709
 11
58.0316
 21
103.4507
  0
LINE
  8
LAYER_2
 10
58.5315
 20
87.2508
 11
58.5315
 21
89.7971
  0
LINE
  8
LAYER_2
 10
56.5316
 20
87.9709
 11
55.0316
 21
87.9709
  0
LINE
  8
LAYER_2
 10
58.2316
 20
86.9508
 11
55.0316
 21
86.9508
  0
ARC
  8
LAYER_2
 10
56.5316
 20
89.4709
 40
1.5
 50
269.9990133
 51
0.0009867393036
  0
ARC
  8
LAYER_2
 10
59.0474
 20
89.7843
 40
0.516
 50
103.05679
 51
178.5787146
  0
ARC
  8
LAYER_2
 10
58.2315
 20
87.2508
 40
0.3
 50
270.014548
 51
0.004553834668
  0
INSERT
  8
LAYER_2
  2
AIGNBL02010011
 10
0
 20
0
 30
0
  0
LINE
  8
LAYER_2
  6
AIGENLINE002
 10
148.5446
 20
100.7908
 11
148.7086
 21
103.8931
  0
ARC
  8
LAYER_2
  6
AIGENLINE002
 10
158.5463
 20
104.3038
 40
1.1375
 50
89.92647253
 51
119.7814263
  0
ARC
  8
LAYER_2
  6
AIGENLINE002
 10
158.9055
 20
103.7195
 40
1.8232
 50
120.4565832
 51
135.2945194
  0
ARC
  8
LAYER_2
  6
AIGENLINE002
 10
156.8658
 20
105.82
 40
1.1057
 50
281.4247837
 51
312.2818063
  0
ARC
  8
LAYER_2
  6
AIGENLINE002
 10
156.289
 20
108.3682
 40
3.7181
 50
269.0462357
 51
282.3592729
  0
ARC
  8
LAYER_2
  6
AIGENLINE002
 10
149.5344
 20
103.8222
 40
0.8289
 50
91.86187749
 51
175.0907233
  0
ARC
  8
LAYER_2
 10
65.3455
 20
182.9996
 40
17.6861
 50
338.2522475
 51
359.964715
  0
ARC
  8
LAYER_2
 10
63.655
 20
183.6449
 40
19.4954
 50
325.1409748
 51
338.331596
  0
ARC
  8
LAYER_2
 10
61.2851
 20
185.2377
 40
22.3505
 50
313.3856581
 51
325.2628526
  0
ARC
  8
LAYER_2
 10
58.8758
 20
187.6942
 40
25.7908
 50
302.7877089
 51
313.5268956
  0
ARC
  8
LAYER_2
 10
56.9699
 20
190.5377
 40
29.2134
 50
292.9863191
 51
302.9101043
  0
ARC
  8
LAYER_2
 10
55.771
 20
193.2321
 40
32.1621
 50
283.644482
 51
293.0780397
  0
ARC
  8
LAYER_2
 10
55.1896
 20
195.4674
 40
34.4715
 50
274.5004766
 51
283.7072558
  0
ARC
  8
LAYER_2
 10
55.037
 20
196.9868
 40
35.9982
 50
269.991328
 51
274.5527051
  0
ARC
  8
LAYER_2
 10
55.0216
 20
196.7083
 40
35.7197
 50
260.9265373
 51
270.0159861
  0
ARC
  8
LAYER_2
 10
54.7363
 20
194.7772
 40
33.7678
 50
251.6986178
 51
260.8878608
  0
ARC
  8
LAYER_2
 10
53.9706
 20
192.3759
 40
31.2475
 50
242.1572196
 51
251.6490546
  0
ARC
  8
LAYER_2
 10
52.5344
 20
189.5819
 40
28.1062
 50
232.0054934
 51
242.0858672
  0
ARC
  8
LAYER_2
 10
50.4206
 20
186.8042
 40
24.616
 50
220.8965751
 51
231.902805
  0
ARC
  8
LAYER_2
 10
47.9495
 20
184.5953
 40
21.302
 50
208.5171217
 51
220.7570276
  0
ARC
  8
LAYER_2
 10
45.7574
 20
183.3411
 40
18.7771
 50
194.7673476
 51
208.3479379
  0
ARC
  8
LAYER_2
 10
44.6343
 20
182.9937
 40
17.6027
 50
180.0164008
 51
194.6058515
  0
ARC
  8
LAYER_2
 10
44.7175
 20
182.9778
 40
17.6859
 50
158.2521026
 51
179.9647091
  0
ARC
  8
LAYER_2
 10
46.4081
 20
182.3325
 40
19.4953
 50
145.1408393
 51
158.3314753
  0
ARC
  8
LAYER_2
 10
48.778
 20
180.7396
 40
22.3504
 50
133.3855495
 51
145.2627238
  0
ARC
  8
LAYER_2
 10
51.1874
 20
178.283
 40
25.7909
 50
122.7876377
 51
133.5267908
  0
ARC
  8
LAYER_2
 10
53.0933
 20
175.4395
 40
29.2135
 50
112.9862822
 51
122.9100346
  0
ARC
  8
LAYER_2
 10
54.2922
 20
172.7451
 40
32.1622
 50
103.6444697
 51
113.0780028
  0
ARC
  8
LAYER_2
 10
54.8736
 20
170.5099
 40
34.4715
 50
94.5004766
 51
103.7072427
  0
ARC
  8
LAYER_2
 10
55.0262
 20
168.9905
 40
35.9982
 50
89.99132819
 51
94.5527039
  0
ARC
  8
LAYER_2
 10
55.0416
 20
169.269
 40
35.7197
 50
80.92654167
 51
90.01598556
  0
ARC
  8
LAYER_2
 10
55.3269
 20
171.2
 40
33.7678
 50
71.69864039
 51
80.88786626
  0
ARC
  8
LAYER_2
 10
56.0926
 20
173.6013
 40
31.2476
 50
62.15727153
 51
71.64907829
  0
ARC
  8
LAYER_2
 10
57.5288
 20
176.3953
 40
28.1063
 50
52.00558122
 51
62.08591996
  0
ARC
  8
LAYER_2
 10
59.6426
 20
179.1731
 40
24.616
 50
40.89669625
 51
51.90289318
  0
ARC
  8
LAYER_2
 10
62.1138
 20
181.3821
 40
21.3019
 50
28.51725641
 51
40.7571477
  0
ARC
  8
LAYER_2
 10
64.306
 20
182.6363
 40
18.777
 50
14.76745177
 51
28.34806896
  0
ARC
  8
LAYER_2
 10
65.4291
 20
182.9837
 40
17.6025
 50
0.0164115364
 51
14.60594846
  0
ARC
  8
LAYER_2
 10
55.0259
 20
196.9164
 40
31.9278
 50
259.4724481
 51
270.0102079
  0
ARC
  8
LAYER_2
 10
54.6566
 20
194.8566
 40
29.8352
 50
248.6664325
 51
259.4470222
  0
ARC
  8
LAYER_2
 10
53.2971
 20
191.2742
 40
26.0037
 50
236.8656067
 51
248.5849974
  0
ARC
  8
LAYER_2
 10
50.7535
 20
187.2661
 40
21.2572
 50
223.1925559
 51
236.7016593
  0
ARC
  8
LAYER_2
 10
47.819
 20
184.3924
 40
17.151
 50
209.3451782
 51
222.9033905
  0
ARC
  8
LAYER_2
 10
45.8117
 20
183.1935
 40
14.8138
 50
194.631435
 51
209.1079188
  0
ARC
  8
LAYER_2
 10
45.1614
 20
182.9765
 40
14.1299
 50
179.95058
 51
194.4461874
  0
ARC
  8
LAYER_2
 10
47.2152
 20
183.024
 40
16.1837
 50
172.2294105
 51
180.1249559
  0
ARC
  8
LAYER_2
 10
44.4169
 20
183.4067
 40
13.3594
 50
163.5047832
 51
172.2328568
  0
ARC
  8
LAYER_2
 10
42.2727
 20
184.0413
 40
11.1233
 50
153.8778676
 51
163.503246
  0
ARC
  8
LAYER_2
 10
40.4338
 20
184.9567
 40
9.0691
 50
134.6064682
 51
153.9553183
  0
ARC
  8
LAYER_2
 10
39.2343
 20
186.0745
 40
7.4313
 50
113.0481585
 51
134.0747351
  0
ARC
  8
LAYER_2
 10
39.0768
 20
186.3371
 40
7.1282
 50
94.85458536
 51
112.7094919
  0
ARC
  8
LAYER_2
 10
48.1641
 20
107.8507
 40
86.1358
 50
93.03679726
 51
96.45957782
  0
ARC
  8
LAYER_2
 10
49.1363
 20
81.0555
 40
112.9458
 50
89.73416318
 51
92.80918224
  0
ARC
  8
LAYER_2
 10
51.6059
 20
-155.0587
 40
349.0642
 50
89.43769242
 51
90.31935121
  0
ARC
  8
LAYER_2
 10
55.0373
 20
196.9164
 40
31.9278
 50
269.9897921
 51
280.5275519
  0
ARC
  8
LAYER_2
 10
55.4066
 20
194.8566
 40
29.8352
 50
280.5529779
 51
291.3335675
  0
ARC
  8
LAYER_2
 10
56.7661
 20
191.2742
 40
26.0037
 50
291.4150026
 51
303.1343933
  0
ARC
  8
LAYER_2
 10
59.3097
 20
187.2661
 40
21.2572
 50
303.2983407
 51
316.8074442
  0
ARC
  8
LAYER_2
 10
62.2442
 20
184.3924
 40
17.151
 50
317.0966095
 51
330.6548218
  0
ARC
  8
LAYER_2
 10
64.2515
 20
183.1935
 40
14.8138
 50
330.8920812
 51
345.3685651
  0
ARC
  8
LAYER_2
 10
64.9018
 20
182.9765
 40
14.1299
 50
345.5538127
 51
0.04941991714
  0
ARC
  8
LAYER_2
 10
62.8476
 20
183.024
 40
16.1841
 50
359.8750409
 51
7.770382273
  0
ARC
  8
LAYER_2
 10
65.6461
 20
183.4067
 40
13.3596
 50
7.766932721
 51
16.49487828
  0
ARC
  8
LAYER_2
 10
67.7905
 20
184.0414
 40
11.1233
 50
16.49641308
 51
26.12176941
  0
ARC
  8
LAYER_2
 10
69.6295
 20
184.9568
 40
9.069
 50
26.04431244
 51
45.39338551
  0
ARC
  8
LAYER_2
 10
70.829
 20
186.0746
 40
7.4312
 50
45.92516677
 51
66.95210271
  0
ARC
  8
LAYER_2
 10
70.9864
 20
186.3369
 40
7.1283
 50
67.29074863
 51
85.1456217
  0
ARC
  8
LAYER_2
 10
61.8991
 20
107.8507
 40
86.1358
 50
83.54042216
 51
86.96320271
  0
ARC
  8
LAYER_2
 10
60.9269
 20
81.0555
 40
112.9458
 50
87.19081774
 51
90.26583679
  0
ARC
  8
LAYER_2
 10
58.4573
 20
-155.0587
 40
349.0642
 50
89.68064877
 51
90.56230756
  0
ARC
  8
LAYER_2
 10
55.8685
 20
165.6801
 40
0.27
 50
282.8765302
 51
347.0361013
  0
ARC
  8
LAYER_2
 10
55.1117
 20
167.5856
 40
2.3175
 50
268.0189631
 51
290.6415833
  0
ARC
  8
LAYER_2
 10
54.9718
 20
167.7633
 40
2.4945
 50
251.5597976
 51
271.3732406
  0
ARC
  8
LAYER_2
 10
54.2376
 20
165.7117
 40
0.3196
 50
196.7732497
 51
260.1177212
  0
ARC
  8
LAYER_2
 10
54.1947
 20
165.5589
 40
0.27
 50
102.8765302
 51
167.0361012
  0
ARC
  8
LAYER_2
 10
54.9515
 20
163.6534
 40
2.3175
 50
88.01896309
 51
110.6415833
  0
ARC
  8
LAYER_2
 10
55.0914
 20
163.4757
 40
2.4945
 50
71.55979753
 51
91.37324062
  0
ARC
  8
LAYER_2
 10
55.8256
 20
165.5273
 40
0.3196
 50
16.77324967
 51
80.11772118
  0
LINE
  8
LAYER_2
 10
27.0767
 20
104.5032
 11
27.032
 21
103.4507
  0
ARC
  8
LAYER_2
 10
28.2229
 20
104.4025
 40
1.1506
 50
144.7886002
 51
174.9793681
  0
ARC
  8
LAYER_2
 10
27.9951
 20
104.522
 40
0.8963
 50
109.0909691
 51
142.6309497
  0
ARC
  8
LAYER_2
 10
28.2086
 20
103.8475
 40
1.6036
 50
89.20505495
 51
108.4150635
  0
LINE
  8
LAYER_2
 10
28.2308
 20
105.4509
 11
55.0316
 21
105.4509
  0
LINE
  8
LAYER_2
 10
27.032
 20
103.4507
 11
55.0316
 21
103.4507
  0
ARC
  8
LAYER_2
 10
26.3621
 20
100.6422
 40
4.5316
 50
7.979768542
 51
23.13444483
  0
ARC
  8
LAYER_2
 10
27.6113
 20
101.0797
 40
3.2122
 50
24.71359396
 51
47.57304213
  0
ARC
  8
LAYER_2
 10
35.3175
 20
101.9033
 40
4.5587
 50
202.5767719
 51
219.6366999
  0
ARC
  8
LAYER_2
 10
35.8449
 20
101.8363
 40
5.027
 50
186.4535783
 51
199.5626449
  0
ARC
  8
LAYER_2
 10
51.3029
 20
112.7463
 40
22.4628
 50
263.6428756
 51
269.8460629
  0
ARC
  8
LAYER_2
 10
51.8867
 20
118.067
 40
27.8154
 50
251.9079797
 51
263.6611403
  0
ARC
  8
LAYER_2
 10
51.8824
 20
118.3375
 40
28.0714
 50
240.8276092
 51
252.0878142
  0
ARC
  8
LAYER_2
 10
50.3763
 20
115.5529
 40
24.9059
 50
228.5363163
 51
240.7304229
  0
ARC
  8
LAYER_2
 10
48.948
 20
113.8306
 40
22.6696
 50
220.8756111
 51
228.3591314
  0
ARC
  8
LAYER_2
 10
51.2036
 20
89.4522
 40
0.8323
 50
6.016017531
 51
87.32413766
  0
LINE
  8
LAYER_2
 10
82.9865
 20
104.5032
 11
83.0313
 21
103.4507
  0
ARC
  8
LAYER_2
 10
81.8403
 20
104.4025
 40
1.1506
 50
5.020631881
 51
35.21139981
  0
ARC
  8
LAYER_2
 10
82.0681
 20
104.522
 40
0.8963
 50
37.36905027
 51
70.9090309
  0
ARC
  8
LAYER_2
 10
81.8546
 20
103.8475
 40
1.6036
 50
71.58493648
 51
90.79494502
  0
LINE
  8
LAYER_2
 10
81.8324
 20
105.4509
 11
55.0316
 21
105.4509
  0
LINE
  8
LAYER_2
 10
83.0313
 20
103.4507
 11
55.0316
 21
103.4507
  0
LINE
  8
LAYER_2
 10
158.5333
 20
105.4509
 11
116.9197
 21
105.4509
  0
LINE
  8
LAYER_2
 10
159.7322
 20
103.4507
 11
115.7207
 21
103.4507
  0
ARC
  8
LAYER_2
 10
83.7011
 20
100.6422
 40
4.5316
 50
156.8655551
 51
172.0202314
  0
ARC
  8
LAYER_2
 10
82.4519
 20
101.0797
 40
3.2122
 50
132.4269578
 51
155.286406
  0
ARC
  8
LAYER_2
 10
74.7457
 20
101.9033
 40
4.5587
 50
320.3633001
 51
337.4232281
  0
ARC
  8
LAYER_2
 10
74.2183
 20
101.8363
 40
5.027
 50
340.4373551
 51
353.5464217
  0
ARC
  8
LAYER_2
 10
58.7603
 20
112.7463
 40
22.4628
 50
270.1539372
 51
276.3571244
  0
ARC
  8
LAYER_2
 10
58.1765
 20
118.067
 40
27.8154
 50
276.3388597
 51
288.0920203
  0
ARC
  8
LAYER_2
 10
58.1808
 20
118.3375
 40
28.0714
 50
287.9121858
 51
299.1723909
  0
ARC
  8
LAYER_2
 10
59.6869
 20
115.5529
 40
24.9059
 50
299.2695771
 51
311.4636837
  0
ARC
  8
LAYER_2
 10
61.1152
 20
113.8306
 40
22.6696
 50
311.6408686
 51
319.1243889
  0
ARC
  8
LAYER_2
 10
58.8596
 20
89.4522
 40
0.8323
 50
92.67586232
 51
173.9839824
  0
LINE
  8
LAYER_2
 10
115.7655
 20
104.5032
 11
115.7207
 21
103.4507
  0
ARC
  8
LAYER_2
 10
116.9117
 20
104.4025
 40
1.1506
 50
144.7872241
 51
174.9796086
  0
ARC
  8
LAYER_2
 10
116.6839
 20
104.5219
 40
0.8963
 50
109.0886384
 51
142.6289611
  0
ARC
  8
LAYER_2
 10
116.8974
 20
103.8471
 40
1.6039
 50
89.20502127
 51
108.4131166
  0
LINE
  8
LAYER_2
 10
159.6874
 20
104.5032
 11
159.7322
 21
103.4507
  0
ARC
  8
LAYER_2
 10
158.5416
 20
104.4027
 40
1.1502
 50
5.010853974
 51
35.21341127
  0
ARC
  8
LAYER_2
 10
158.769
 20
104.5219
 40
0.8963
 50
37.37107922
 51
70.9105985
  0
ARC
  8
LAYER_2
 10
158.5555
 20
103.8474
 40
1.6037
 50
71.5856538
 51
90.7947375
  0
LINE
  8
LAYER_2
 10
138.2093
 20
89.7681
 11
138.2093
 21
87.2539
  0
LINE
  8
LAYER_2
 10
145.4137
 20
89.6765
 11
145.2428
 21
87.2298
  0
LINE
  8
LAYER_2
 10
149.7972
 20
102.6928
 11
149.3315
 21
93.8651
  0
LINE
  8
LAYER_2
 10
118.2278
 20
103.4507
 11
118.4744
 21
98.7413
  0
ARC
  8
LAYER_2
 10
118.1864
 20
102.3036
 40
1.1632
 50
51.40200033
 51
80.4562363
  0
ARC
  8
LAYER_2
 10
117.9371
 20
102.0454
 40
1.5209
 50
24.59193792
 51
50.1284052
  0
ARC
  8
LAYER_2
 10
116.1195
 20
101.2369
 40
3.5102
 50
3.341378048
 51
24.24533358
  0
ARC
  8
LAYER_2
 10
123.0983
 20
101.3825
 40
3.3998
 50
206.6340518
 51
223.8426698
  0
ARC
  8
LAYER_2
 10
123.4085
 20
101.6313
 40
3.7895
 50
182.8708179
 51
207.89461
  0
ARC
  8
LAYER_2
 10
142.8192
 20
120.2941
 40
30.7231
 50
223.8046559
 51
234.6780543
  0
ARC
  8
LAYER_2
 10
139.8939
 20
116.3626
 40
25.8242
 50
234.9303993
 51
247.0780915
  0
ARC
  8
LAYER_2
 10
139.7519
 20
116.2363
 40
25.6528
 50
247.2601587
 51
259.4352012
  0
ARC
  8
LAYER_2
 10
141.8058
 20
126.8873
 40
36.4998
 50
259.3312711
 51
262.9435444
  0
ARC
  8
LAYER_2
 10
137.2922
 20
90.2193
 40
0.4456
 50
47.95603808
 51
86.17280503
  0
LINE
  8
LAYER_2
 10
138.0315
 20
90.1802
 11
137.5906
 21
90.5502
  0
ARC
  8
LAYER_2
 10
137.7307
 20
89.806
 40
0.4801
 50
355.4721476
 51
51.20328975
  0
ARC
  8
LAYER_2
 10
119.5082
 20
98.8068
 40
1.0359
 50
183.6258637
 51
218.3920015
  0
ARC
  8
LAYER_2
 10
143.911
 20
119.2135
 40
32.8464
 50
219.8560827
 51
230.6656368
  0
ARC
  8
LAYER_2
 10
141.581
 20
116.5132
 40
29.2811
 50
230.843056
 51
242.0310748
  0
ARC
  8
LAYER_2
 10
141.2967
 20
116.0753
 40
28.7611
 50
242.1221087
 51
253.6146953
  0
ARC
  8
LAYER_2
 10
141.8626
 20
117.9722
 40
30.7405
 50
253.600194
 51
262.8461031
  0
ARC
  8
LAYER_2
 10
138.5125
 20
87.254
 40
0.3032
 50
180.0108516
 51
270.0080486
  0
ARC
  8
LAYER_2
 10
144.956
 20
87.2374
 40
0.2869
 50
267.5534286
 51
358.4830469
  0
ARC
  8
LAYER_2
 10
138.0021
 20
87.2659
 40
0.2076
 50
356.6735518
 51
81.06964398
  0
ARC
  8
LAYER_2
 10
150.6382
 20
102.6063
 40
0.8455
 50
92.82912762
 51
174.125038
  0
ARC
  8
LAYER_2
 10
146.1287
 20
93.9434
 40
3.2038
 50
340.9078371
 51
358.5994751
  0
ARC
  8
LAYER_2
 10
145.6227
 20
94.069
 40
3.7234
 50
309.4438777
 51
341.627848
  0
ARC
  8
LAYER_2
 10
145.7795
 20
93.9647
 40
3.5436
 50
292.3595841
 51
308.5574675
  0
ARC
  8
LAYER_2
 10
145.5279
 20
94.6079
 40
4.2341
 50
277.9521365
 51
292.1964788
  0
ARC
  8
LAYER_2
 10
146.3285
 20
89.5494
 40
0.9236
 50
139.7737587
 51
172.0878956
  0
ARC
  8
LAYER_2
 10
146.2149
 20
89.6479
 40
0.7733
 50
97.52304466
 51
139.9124405
  0
LINE
  8
LAYER_2
 10
43.7133
 20
214.8485
 11
29.2264
 21
214.8485
  0
INSERT
  8
LAYER_2
  2
AIGNBL02010013
 10
0
 20
0
 30
0
  0
LINE
  8
LAYER_3
 10
17.0494
 20
35.9086
 11
183.5495
 21
35.9086
  0
LINE
  8
LAYER_3
 10
103.5496
 20
15.9084
 11
183.5495
 21
15.9084
  0
LINE
  8
LAYER_3
 10
17.0494
 20
23.4091
 11
103.5496
 21
23.4091
  0
LINE
  8
LAYER_3
 10
17.0494
 20
9.4089
 11
103.5496
 21
9.4089
  0
LINE
  8
LAYER_3
 10
28.5492
 20
9.4089
 11
28.5492
 21
23.4091
  0
LINE
  8
LAYER_3
 10
103.5496
 20
-4.0911
 11
103.5496
 21
35.9086
  0
LINE
  8
LAYER_3
 10
84.5492
 20
9.4089
 11
84.5492
 21
35.9086
  0
LINE
  8
LAYER_3
 10
65.5495
 20
9.4089
 11
65.5495
 21
35.9086
  0
LINE
  8
LAYER_3
 10
183.5495
 20
-4.0911
 11
17.0494
 21
-4.0911
  0
LINE
  8
LAYER_3
 10
17.0494
 20
-4.0911
 11
17.0494
 21
258.9088
  0
LINE
  8
LAYER_3
 10
17.0494
 20
258.9088
 11
183.5495
 21
258.9088
  0
LINE
  8
LAYER_3
 10
183.5495
 20
258.9088
 11
183.5495
 21
-4.0911
  0
TEXT
  8
LAYER_3
 10
43.5483
 20
27.9366
 11
43.5483
 21
27.9366
 40
4.4979
 41
0.5
 72
1
  1
セラトレーディング株式会社
  0
TEXT
  8
LAYER_3
 10
18.0209
 20
19.4107
 11
18.0209
 21
19.4107
 40
3.0923
 41
0.5
  1
製図
  0
TEXT
  8
LAYER_3
 10
18.0209
 20
5.2114
 11
18.0209
 21
5.2114
 40
3.0923
 41
0.5
  1
備考
  0
TEXT
  8
LAYER_3
 10
29.6392
 20
19.4107
 11
29.6392
 21
19.4107
 40
3.0923
 41
0.5
  1
検図
  0
TEXT
  8
LAYER_3
 10
66.5927
 20
19.4107
 11
66.5927
 21
19.4107
 40
3.0923
 41
0.5
  1
日付
  0
TEXT
  8
LAYER_3
 10
67.7854
 20
13.2178
 11
67.7854
 21
13.2178
 40
3.6546
 41
0.5
  1
22.07.22
  0
TEXT
  8
LAYER_3
 10
22.7394
 20
13.603
 11
22.7394
 21
13.603
 40
3.6546
 41
0.5
 72
1
  1
木場
  0
TEXT
  8
LAYER_3
 10
41.3132
 20
13.603
 11
41.3132
 21
13.603
 40
3.6546
 41
0.5
 72
1
  1
井田
  0
TEXT
  8
LAYER_3
 10
109.1782
 20
24.2256
 11
109.1782
 21
24.2256
 40
3.9357
 41
0.5
  1
プロB　カウンター式洗面器
  0
TEXT
  8
LAYER_3
 10
24.5866
 20
0.7073
 11
24.5866
 21
0.7073
 40
3.9357
 41
0.5
  1
実容量：4.7L オーバーフロー付
  0
TEXT
  8
LAYER_3
 10
143.5492
 20
-0.8926
 11
143.5492
 21
-0.8926
 40
3.9357
 41
0.5
 72
1
  1
AU13951R
  0
TEXT
  8
LAYER_3
 10
143.5492
 20
9.1078
 11
143.5492
 21
9.1078
 40
3.9357
 41
0.5
 72
1
  1
AU13951R
  0
TEXT
  8
LAYER_3
 10
93.9591
 20
13.2178
 11
93.9591
 21
13.2178
 40
3.6546
 41
0.5
 72
1
  1
1 ： 10
  0
TEXT
  8
LAYER_3
 10
85.6427
 20
19.4107
 11
85.6427
 21
19.4107
 40
3.0923
 41
0.5
  1
尺度
  0
TEXT
  8
LAYER_3
 10
85.6427
 20
31.8179
 11
85.6427
 21
31.8179
 40
3.0923
 41
0.5
  1
単位
  0
TEXT
  8
LAYER_3
 10
93.3673
 20
26.8218
 11
93.3673
 21
26.8218
 40
3.6546
 41
0.5
 72
1
  1
mm
  0
TEXT
  8
LAYER_3
 10
104.6045
 20
31.8179
 11
104.6045
 21
31.8179
 40
3.0923
 41
0.5
  1
名称
  0
TEXT
  8
LAYER_3
 10
104.6045
 20
11.6792
 11
104.6045
 21
11.6792
 40
3.0923
 41
0.5
  1
品番
  0
LINE
  8
LAYER_3
 10
103.5496
 20
5.9087
 11
183.5495
 21
5.9087
  0
TEXT
  8
LAYER_3
 10
104.6045
 20
1.6795
 11
104.6045
 21
1.6795
 40
3.0923
 41
0.5
  1
図番
  0
INSERT
  8
LAYER_3
  2
AIGNBL03010002
 10
0
 20
0
 30
0
  0
LINE
  8
LAYER_3
 10
17.0494
 20
127.4101
 11
-4.7008
 21
127.4101
  0
LINE
  8
LAYER_3
 10
100.2995
 20
275.9289
 11
100.2995
 21
258.9088
  0
LINE
  8
LAYER_3
 10
100.2995
 20
-4.0911
 11
100.2995
 21
-21.0712
  0
LINE
  8
LAYER_3
 10
205.2998
 20
127.4101
 11
183.5495
 21
127.4101
  0
ENDSEC
  0
EOF
