  0
SECTION
  2
HEADER
  9
$ACADVER
  1
AC1009
  9
$INSBASE
 10
0.0
 20
0.0
 30
0.0
  9
$EXTMIN
 10
-4.7008599999999987
 20
-21.071400000000001
 30
0.0
  9
$EXTMAX
 10
205.30099999999999
 20
275.93099999999993
 30
0.0
  9
$LIMMIN
 10
0.0
 20
0.0
  9
$LIMMAX
 10
12.0
 20
9.0
  9
$ORTHOMODE
 70
     0
  9
$REGENMODE
 70
     1
  9
$FILLMODE
 70
     1
  9
$QTEXTMODE
 70
     0
  9
$MIRRTEXT
 70
     1
  9
$DRAGMODE
 70
     2
  9
$LTSCALE
 40
1.0
  9
$OSMODE
 70
    37
  9
$ATTMODE
 70
     1
  9
$TEXTSIZE
 40
0.0
  9
$TRACEWID
 40
0.05
  9
$TEXTSTYLE
  7
STANDARD
  9
$CLAYER
  8
0
  9
$CELTYPE
  6
CONTINUOUS
  9
$CECOLOR
 62
   256
  9
$DIMSCALE
 40
1.0
  9
$DIMASZ
 40
0.18
  9
$DIMEXO
 40
0.0625
  9
$DIMDLI
 40
0.38
  9
$DIMRND
 40
0.0
  9
$DIMDLE
 40
0.0
  9
$DIMEXE
 40
0.18
  9
$DIMTP
 40
0.0
  9
$DIMTM
 40
0.0
  9
$DIMTXT
 40
0.18
  9
$DIMCEN
 40
0.09
  9
$DIMTSZ
 40
0.0
  9
$DIMTOL
 70
     0
  9
$DIMLIM
 70
     0
  9
$DIMTIH
 70
     1
  9
$DIMTOH
 70
     1
  9
$DIMSE1
 70
     0
  9
$DIMSE2
 70
     0
  9
$DIMTAD
 70
     0
  9
$DIMZIN
 70
     0
  9
$DIMBLK
  1

  9
$DIMASO
 70
     1
  9
$DIMSHO
 70
     1
  9
$DIMPOST
  1

  9
$DIMAPOST
  1

  9
$DIMALT
 70
     0
  9
$DIMALTD
 70
     2
  9
$DIMALTF
 40
25.399999999999999
  9
$DIMLFAC
 40
1.0
  9
$DIMTOFL
 70
     0
  9
$DIMTVP
 40
0.0
  9
$DIMTIX
 70
     0
  9
$DIMSOXD
 70
     0
  9
$DIMSAH
 70
     0
  9
$DIMBLK1
  1

  9
$DIMBLK2
  1

  9
$DIMSTYLE
  2
STANDARD
  9
$DIMCLRD
 70
     0
  9
$DIMCLRE
 70
     0
  9
$DIMCLRT
 70
     0
  9
$DIMTFAC
 40
1.0
  9
$DIMGAP
 40
0.09
  9
$LUNITS
 70
     2
  9
$LUPREC
 70
     4
  9
$SKETCHINC
 40
0.1
  9
$FILLETRAD
 40
0.0
  9
$AUNITS
 70
     0
  9
$AUPREC
 70
     0
  9
$MENU
  1
.
  9
$ELEVATION
 40
0.0
  9
$PELEVATION
 40
0.0
  9
$THICKNESS
 40
0.0
  9
$LIMCHECK
 70
     0
  9
$BLIPMODE
 70
     0
  9
$CHAMFERA
 40
0.0
  9
$CHAMFERB
 40
0.0
  9
$SKPOLY
 70
     0
  9
$TDCREATE
 40
2444972.375
  9
$TDUPDATE
 40
2453810.2546768282
  9
$TDINDWG
 40
0.0000148264
  9
$TDUSRTIMER
 40
0.0000148264
  9
$USRTIMER
 70
     1
  9
$ANGBASE
 50
0.0
  9
$ANGDIR
 70
     0
  9
$PDMODE
 70
     0
  9
$PDSIZE
 40
0.0
  9
$PLINEWID
 40
0.0
  9
$COORDS
 70
     1
  9
$SPLFRAME
 70
     0
  9
$SPLINETYPE
 70
     6
  9
$SPLINESEGS
 70
     8
  9
$ATTDIA
 70
     0
  9
$ATTREQ
 70
     1
  9
$HANDLING
 70
     1
  9
$HANDSEED
  5
1B3
  9
$SURFTAB1
 70
     6
  9
$SURFTAB2
 70
     6
  9
$SURFTYPE
 70
     6
  9
$SURFU
 70
     6
  9
$SURFV
 70
     6
  9
$UCSNAME
  2

  9
$UCSORG
 10
0.0
 20
0.0
 30
0.0
  9
$UCSXDIR
 10
1.0
 20
0.0
 30
0.0
  9
$UCSYDIR
 10
0.0
 20
1.0
 30
0.0
  9
$PUCSNAME
  2

  9
$PUCSORG
 10
0.0
 20
0.0
 30
0.0
  9
$PUCSXDIR
 10
1.0
 20
0.0
 30
0.0
  9
$PUCSYDIR
 10
0.0
 20
1.0
 30
0.0
  9
$USERI1
 70
     0
  9
$USERI2
 70
     0
  9
$USERI3
 70
     0
  9
$USERI4
 70
     0
  9
$USERI5
 70
     0
  9
$USERR1
 40
0.0
  9
$USERR2
 40
0.0
  9
$USERR3
 40
0.0
  9
$USERR4
 40
0.0
  9
$USERR5
 40
0.0
  9
$WORLDVIEW
 70
     1
  9
$SHADEDGE
 70
     3
  9
$SHADEDIF
 70
    70
  9
$TILEMODE
 70
     1
  9
$MAXACTVP
 70
    48
  9
$PLIMCHECK
 70
     0
  9
$PEXTMIN
 10
1.0000000000000000E+020
 20
1.0000000000000000E+020
 30
1.0000000000000000E+020
  9
$PEXTMAX
 10
-1.0000000000000000E+020
 20
-1.0000000000000000E+020
 30
-1.0000000000000000E+020
  9
$PLIMMIN
 10
0.0
 20
0.0
  9
$PLIMMAX
 10
12.0
 20
9.0
  9
$UNITMODE
 70
     0
  9
$VISRETAIN
 70
     1
  9
$PLINEGEN
 70
     0
  9
$PSLTSCALE
 70
     1
  0
ENDSEC
  0
SECTION
  2
TABLES
  0
TABLE
  2
VPORT
 70
     2
  0
VPORT
  2
*ACTIVE
 70
     0
 10
0.0
 20
0.0
 11
1.0
 21
1.0
 12
159.88503529811069
 22
127.4297999999999
 13
0.0
 23
0.0
 14
1.0
 24
1.0
 15
0.0
 25
0.0
 16
0.0
 26
0.0
 36
1.0
 17
0.0
 27
0.0
 37
0.0
 40
299.81314826498419
 41
2.1842105263157889
 42
50.0
 43
0.0
 44
0.0
 50
0.0
 51
0.0
 71
     0
 72
   100
 73
     1
 74
     1
 75
     0
 76
     0
 77
     0
 78
     0
  0
ENDTAB
  0
TABLE
  2
LTYPE
 70
     3
  0
LTYPE
  2
CONTINUOUS
 70
     0
  3
Solid line
 72
    65
 73
     0
 40
0.0
  0
LTYPE
  2
AIGENLINE001
 70
     0
  3
generate AI->DXF Converter
 72
    65
 73
     4
 40
5.8561449999999988
 49
3.5278
 49
-0.776115
 49
0.776115
 49
-0.776115
  0
LTYPE
  2
AIGENLINE002
 70
     0
  3
generate AI->DXF Converter
 72
    65
 73
     2
 40
1.5522299999999991
 49
0.776115
 49
-0.776115
  0
ENDTAB
  0
TABLE
  2
LAYER
 70
     2
  0
LAYER
  2
0
 70
     0
 62
     7
  6
CONTINUOUS
  0
LAYER
  2
_________2
 70
     0
 62
     7
  6
CONTINUOUS
  0
ENDTAB
  0
TABLE
  2
STYLE
 70
     1
  0
STYLE
  2
STANDARD
 70
     0
 40
0.0
 41
0.0
 50
0.0
 71
     0
 42
0.0
  3
TXT
  4
EXTFONT.SHX
  0
ENDTAB
  0
TABLE
  2
VIEW
 70
     0
  0
ENDTAB
  0
TABLE
  2
UCS
 70
     0
  0
ENDTAB
  0
TABLE
  2
APPID
 70
     1
  0
APPID
  2
ACAD
 70
     0
  0
ENDTAB
  0
TABLE
  2
DIMSTYLE
 70
     1
  0
DIMSTYLE
  2
STANDARD
 70
     0
  3

  4

  5

  6

  7

 40
1.0
 41
0.18
 42
0.0625
 43
0.38
 44
0.18
 45
0.0
 46
0.0
 47
0.0
 48
0.0
140
0.18
141
0.09
142
0.0
143
25.399999999999999
144
1.0
145
0.0
146
1.0
147
0.09
 71
     0
 72
     0
 73
     1
 74
     1
 75
     0
 76
     0
 77
     0
 78
     0
170
     0
171
     2
172
     0
173
     0
174
     0
175
     0
176
     0
177
     0
178
     0
  0
ENDTAB
  0
ENDSEC
  0
SECTION
  2
BLOCKS
  0
BLOCK
  8
0
  2
$MODEL_SPACE
 70
     0
 10
0.0
 20
0.0
 30
0.0
  3
$MODEL_SPACE
  1

  0
ENDBLK
  5
1A
  8
0
  0
BLOCK
 67
     1
  8
0
  2
$PAPER_SPACE
 70
     0
 10
0.0
 20
0.0
 30
0.0
  3
$PAPER_SPACE
  1

  0
ENDBLK
  5
17
 67
     1
  8
0
  0
ENDSEC
  0
SECTION
  2
ENTITIES
  0
TEXT
  5
23
  8
0
 62
     7
 10
129.48175999999989
 20
147.63799999999989
 30
0.0
 40
3.0923400000000001
  1
カウンター開口寸法
 41
0.5
 72
     1
 11
137.72799999999989
 21
147.63799999999989
 31
0.0
  0
TEXT
  5
24
  8
0
 62
     7
 10
128.5380508678808
 20
191.0173511229595
 30
0.0
 40
3.0923400000000001
  1
R300
 50
298.28100000000001
 41
0.5
 72
     1
 11
129.7589999999999
 21
188.74799999999999
 31
0.0
  0
TEXT
  5
25
  8
0
 62
     7
 10
151.6224106748252
 20
185.42207405352201
 30
0.0
 40
3.0923400000000001
  1
R155
 50
23.921800000000001
 41
0.5
 72
     1
 11
153.97799999999989
 21
186.46700000000001
 31
0.0
  0
TEXT
  5
26
  8
0
 62
     7
 10
41.117100000000001
 20
207.5979999999999
 30
0.0
 40
3.0923400000000001
  1
%%c35
 41
0.5
  0
TEXT
  5
27
  8
0
 62
     7
 10
63.458179999999999
 20
181.01199999999989
 30
0.0
 40
3.0923400000000001
  1
%%c46
 41
0.5
 72
     2
 11
67.581299999999999
 21
181.01199999999989
 31
0.0
  0
TEXT
  5
28
  8
0
 62
     7
 10
148.6449825
 20
80.608900000000006
 30
0.0
 40
3.0923400000000001
  1
180
 41
0.5
 72
     1
 11
150.31999999999991
 21
80.608900000000006
 31
0.0
  0
TEXT
  5
29
  8
0
 62
     7
 10
53.099287500000003
 20
144.24100000000001
 30
0.0
 40
3.0923400000000001
  1
560
 41
0.5
 72
     1
 11
55.031999999999989
 21
144.24100000000001
 31
0.0
  0
TEXT
  5
2A
  8
0
 62
     7
 10
53.099287500000003
 20
151.553
 30
0.0
 40
3.0923400000000001
  1
480
 41
0.5
 72
     1
 11
55.031999999999989
 21
151.553
 31
0.0
  0
TEXT
  5
2B
  8
0
 62
     7
 10
135.79528749999989
 20
154.881
 30
0.0
 40
3.0923400000000001
  1
520
 41
0.5
 72
     1
 11
137.72799999999989
 21
154.881
 31
0.0
  0
TEXT
  5
2C
  8
0
 62
     7
 10
91.393799999999999
 20
161.87437249999991
 30
0.0
 40
3.0923400000000001
  1
40
 50
90.0
 41
0.5
 72
     1
 11
91.393799999999999
 21
163.03399999999991
 31
0.0
  0
TEXT
  5
2D
  8
0
 62
     7
 10
91.393799999999999
 20
200.2333725
 30
0.0
 40
3.0923400000000001
  1
70
 50
90.0
 41
0.5
 72
     1
 11
91.393799999999999
 21
201.393
 31
0.0
  0
TEXT
  5
2E
  8
0
 62
     7
 10
91.393799999999999
 20
194.97137249999989
 30
0.0
 40
3.0923400000000001
  1
40
 50
90.0
 41
0.5
 72
     1
 11
91.393799999999999
 21
196.13099999999989
 31
0.0
  0
TEXT
  5
2F
  8
0
 62
     7
 10
91.393799999999999
 20
177.8822874999999
 30
0.0
 40
3.0923400000000001
  1
290
 50
90.0
 41
0.5
 72
     1
 11
91.393799999999999
 21
179.81499999999991
 31
0.0
  0
TEXT
  5
30
  8
0
 62
     7
 10
101.0709999999999
 20
180.32628750000001
 30
0.0
 40
3.0923400000000001
  1
440
 50
90.0
 41
0.5
 72
     1
 11
101.0709999999999
 21
182.25899999999999
 31
0.0
  0
TEXT
  5
31
  8
0
 62
     7
 10
172.40700000000001
 20
181.18613500000001
 30
0.0
 40
3.0923400000000001
  1
400
 50
90.0
 41
0.5
 72
     1
 11
172.40700000000001
 21
182.99000000000001
 31
0.0
  0
TEXT
  5
32
  8
0
 62
     7
 10
47.8947
 20
108.99661
 30
0.0
 40
3.0923400000000001
  1
8
 50
90.0
 41
0.5
 72
     1
 11
47.8947
 21
109.512
 31
0.0
  0
TEXT
  5
33
  8
0
 62
     7
 10
87.852399999999989
 20
97.416872499999997
 30
0.0
 40
3.0923400000000001
  1
20
 50
90.0
 41
0.5
 72
     1
 11
87.852399999999989
 21
98.576499999999996
 31
0.0
  0
TEXT
  5
34
  8
0
 62
     7
 10
95.322900000000004
 20
94.309735000000003
 30
0.0
 40
3.0923400000000001
  1
185
 50
90.0
 41
0.5
 72
     1
 11
95.322900000000004
 21
96.113600000000005
 31
0.0
  0
ARC
  5
35
  8
0
 62
     7
 10
145.98756900000001
 20
89.631175999999996
 30
0.0
 40
0.574796
 50
160.1296449999999
 51
175.41823299999999
  0
ARC
  5
36
  8
0
 62
     7
 10
146.28626800000001
 20
89.547348
 30
0.0
 40
0.884495
 50
101.1875019999999
 51
161.599515
  0
ARC
  5
37
  8
0
 62
     7
 10
146.6997189999999
 20
93.869739999999993
 30
0.0
 40
2.6326809999999998
 50
344.08065499999998
 51
359.91131100000001
  0
ARC
  5
38
  8
0
 62
     7
 10
145.598759
 20
94.147245999999996
 30
0.0
 40
3.7676980000000002
 50
277.87006899999989
 51
344.61462699999993
  0
ARC
  5
39
  8
0
 62
     7
 10
150.660191
 20
102.5847949999999
 30
0.0
 40
0.868833
 50
94.141470999999996
 51
172.81695999999999
  0
ARC
  5
3A
  8
0
 62
     7
 10
137.933593
 20
87.124470000000002
 30
0.0
 40
0.361616
 50
51.542760999999992
 51
73.686466000000024
  0
ARC
  5
3B
  8
0
 62
     7
 10
138.015477
 20
87.274076000000008
 30
0.0
 40
0.195687
 50
354.25411600000001
 51
43.042968999999992
  0
ARC
  5
3C
  8
0
 62
     7
 10
144.9529409999999
 20
87.242231000000004
 30
0.0
 40
0.291033
 50
268.37653699999993
 51
357.664197
  0
ARC
  5
3D
  8
0
 62
     7
 10
138.51335099999989
 20
87.254485000000003
 30
0.0
 40
0.30317
 50
179.99996999999991
 51
270.00002000000001
  0
ARC
  5
3E
  8
0
 62
     7
 10
143.4910919999999
 20
118.92048799999991
 30
0.0
 40
32.335293999999998
 50
219.9344109999999
 51
237.6308479999999
  0
ARC
  5
3F
  8
0
 62
     7
 10
141.48428699999999
 20
116.405252
 30
0.0
 40
29.13857999999999
 50
238.31591499999999
 51
263.20200199999999
  0
ARC
  5
40
  8
0
 62
     7
 10
120.049611
 20
99.136712000000017
 30
0.0
 40
1.665940999999999
 50
207.25200699999991
 51
215.71820600000001
  0
ARC
  5
41
  8
0
 62
     7
 10
119.43924299999991
 20
98.790740000000014
 30
0.0
 40
0.9653089999999998
 50
182.901117
 51
205.585138
  0
ARC
  5
42
  8
0
 62
     7
 10
137.348084
 20
89.482811999999996
 30
0.0
 40
0.9774700000000001
 50
34.264666999999989
 51
45.564771999999977
  0
ARC
  5
43
  8
0
 62
     7
 10
137.72760600000001
 20
89.807457999999997
 30
0.0
 40
0.4841260000000001
 50
355.411877
 51
27.786133
  0
LINE
  5
44
  8
0
 62
     7
 10
138.03200000000001
 20
90.180800000000005
 30
0.0
 11
137.59100000000001
 21
90.550799999999995
 31
0.0
  0
ARC
  5
45
  8
0
 62
     7
 10
137.21485399999989
 20
90.035088000000002
 30
0.0
 40
0.63855
 50
53.860866999999992
 51
80.274917000000002
  0
ARC
  5
46
  8
0
 62
     7
 10
142.80739099999991
 20
120.34742799999999
 30
0.0
 40
30.750523999999999
 50
223.8917009999999
 51
237.01792999999989
  0
ARC
  5
47
  8
0
 62
     7
 10
139.77384900000001
 20
116.159133
 30
0.0
 40
25.587189999999989
 50
237.6105509999999
 51
261.57272699999987
  0
ARC
  5
48
  8
0
 62
     7
 10
142.212602
 20
129.90803700000001
 30
0.0
 40
39.547049000000001
 50
260.99687299999988
 51
262.89736799999997
  0
ARC
  5
49
  8
0
 62
     7
 10
122.68408100000001
 20
101.060605
 30
0.0
 40
2.8776019999999991
 50
209.33773899999991
 51
224.93418199999999
  0
ARC
  5
4A
  8
0
 62
     7
 10
123.61074599999991
 20
101.68791400000001
 30
0.0
 40
3.9938509999999998
 50
183.52773400000001
 51
210.66958099999999
  0
ARC
  5
4B
  8
0
 62
     7
 10
118.15941100000001
 20
102.2399239999999
 30
0.0
 40
1.2313700000000001
 50
27.918344000000001
 51
79.676208000000003
  0
ARC
  5
4C
  8
0
 62
     7
 10
117.0831219999999
 20
101.5766739999999
 30
0.0
 40
2.494291
 50
10.619115999999989
 51
29.80516699999999
  0
ARC
  5
4D
  8
0
 62
     7
 10
114.7222159999999
 20
101.0053759999999
 30
0.0
 40
4.9216670000000002
 50
5.0916169999999994
 51
12.091328000000001
  0
LINE
  5
4E
  8
0
 62
     7
 10
118.229
 20
103.45099999999999
 30
0.0
 11
118.47499999999989
 21
98.741900000000001
 31
0.0
  0
LINE
  5
4F
  8
0
 62
     7
 10
149.798
 20
102.6929999999999
 30
0.0
 11
149.33199999999991
 21
93.865700000000004
 31
0.0
  0
LINE
  5
50
  8
0
 62
     7
 10
145.41499999999999
 20
89.677099999999996
 30
0.0
 11
145.24399999999989
 21
87.230400000000003
 31
0.0
  0
LINE
  5
51
  8
0
 62
     7
 10
138.21000000000001
 20
89.768699999999995
 30
0.0
 11
138.21000000000001
 21
87.254499999999993
 31
0.0
  0
ARC
  5
52
  8
0
 62
     7
 10
158.33736899999991
 20
104.34322299999999
 30
0.0
 40
1.3605659999999991
 50
6.7797599999999996
 51
27.934327
  0
ARC
  5
53
  8
0
 62
     7
 10
158.76053400000001
 20
104.519789
 30
0.0
 40
0.904977
 50
30.609763999999991
 51
78.467246000000003
  0
ARC
  5
54
  8
0
 62
     7
 10
158.55575699999989
 20
103.784761
 30
0.0
 40
1.666971
 50
76.621521999999999
 51
90.737319999999997
  0
LINE
  5
55
  8
0
 62
     7
 10
159.6879999999999
 20
104.50399999999991
 30
0.0
 11
159.733
 21
103.45099999999999
 31
0.0
  0
ARC
  5
56
  8
0
 62
     7
 10
117.117327
 20
104.34322299999999
 30
0.0
 40
1.3605659999999991
 50
152.065653
 51
173.22022100000001
  0
ARC
  5
57
  8
0
 62
     7
 10
116.69416099999999
 20
104.519789
 30
0.0
 40
0.904977
 50
101.532734
 51
149.39021699999989
  0
ARC
  5
58
  8
0
 62
     7
 10
116.8989379999999
 20
103.784761
 30
0.0
 40
1.666971
 50
89.262659999999997
 51
103.37845799999999
  0
LINE
  5
59
  8
0
 62
     7
 10
115.76600000000001
 20
104.50399999999991
 30
0.0
 11
115.721
 21
103.45099999999999
 31
0.0
  0
ARC
  5
5A
  8
0
 62
     7
 10
58.848951
 20
89.464284000000006
 30
0.0
 40
0.820311
 50
91.947671999999983
 51
174.70563200000001
  0
ARC
  5
5B
  8
0
 62
     7
 10
58.810960999999999
 20
112.542224
 30
0.0
 40
22.258105
 50
270.02603299999993
 51
278.94162999999992
  0
ARC
  5
5C
  8
0
 62
     7
 10
58.060201999999997
 20
118.40925300000001
 30
0.0
 40
28.171036999999998
 50
278.59533399999992
 51
306.17942199999999
  0
ARC
  5
5D
  8
0
 62
     7
 10
60.671117000000002
 20
114.282736
 30
0.0
 40
23.301278
 50
306.98717399999998
 51
319.00022200000001
  0
ARC
  5
5E
  8
0
 62
     7
 10
56.652848999999989
 20
114.02134099999989
 30
0.0
 40
26.315414000000001
 50
325.18147399999998
 51
327.23867000000001
  0
ARC
  5
5F
  8
0
 62
     7
 10
76.08894699999999
 20
101.267681
 30
0.0
 40
3.0764429999999989
 50
331.10225400000002
 51
347.47432700000002
  0
ARC
  5
60
  8
0
 62
     7
 10
72.727174000000005
 20
102.101367
 30
0.0
 40
6.5395599999999989
 50
346.731763
 51
352.71376199999997
  0
ARC
  5
61
  8
0
 62
     7
 10
84.733135000000004
 20
100.3880939999999
 30
0.0
 40
5.5895369999999991
 50
160.41528299999999
 51
170.901498
  0
ARC
  5
62
  8
0
 62
     7
 10
82.368278000000004
 20
101.142154
 30
0.0
 40
3.1098209999999988
 50
132.05068499999999
 51
158.89945499999999
  0
LINE
  5
63
  8
0
 62
     7
 10
159.733
 20
103.45099999999999
 30
0.0
 11
115.721
 21
103.45099999999999
 31
0.0
  0
LINE
  5
64
  8
0
 62
     7
 10
158.53399999999991
 20
105.452
 30
0.0
 11
116.92
 21
105.452
 31
0.0
  0
LINE
  5
65
  8
0
 62
     7
 10
83.031800000000004
 20
103.45099999999999
 30
0.0
 11
55.031999999999989
 21
103.45099999999999
 31
0.0
  0
LINE
  5
66
  8
0
 62
     7
 10
81.832899999999995
 20
105.452
 30
0.0
 11
55.031999999999989
 21
105.452
 31
0.0
  0
ARC
  5
67
  8
0
 62
     7
 10
81.636037999999999
 20
104.3432319999999
 30
0.0
 40
1.3604940000000001
 50
6.7797510000000001
 51
27.935514999999999
  0
ARC
  5
68
  8
0
 62
     7
 10
82.059173999999999
 20
104.5198569999999
 30
0.0
 40
0.904903
 50
30.607586999999999
 51
78.468935000000002
  0
ARC
  5
69
  8
0
 62
     7
 10
81.854367000000025
 20
103.7848679999999
 30
0.0
 40
1.666865
 50
76.621069999999975
 51
90.737770999999995
  0
LINE
  5
6A
  8
0
 62
     7
 10
82.987000000000009
 20
104.50399999999991
 30
0.0
 11
83.031800000000004
 21
103.45099999999999
 31
0.0
  0
ARC
  5
6B
  8
0
 62
     7
 10
51.214967000000001
 20
89.464284000000006
 30
0.0
 40
0.820311
 50
5.2943480000000003
 51
88.052307999999996
  0
ARC
  5
6C
  8
0
 62
     7
 10
51.252955999999998
 20
112.542224
 30
0.0
 40
22.258105
 50
261.05838999999992
 51
269.97398700000002
  0
ARC
  5
6D
  8
0
 62
     7
 10
52.003715999999997
 20
118.40925300000001
 30
0.0
 40
28.171036999999998
 50
233.82059799999999
 51
261.40468599999991
  0
ARC
  5
6E
  8
0
 62
     7
 10
49.393799999999992
 20
114.28380799999999
 30
0.0
 40
23.302734999999998
 50
221.0001749999999
 51
233.0124679999999
  0
ARC
  5
6F
  8
0
 62
     7
 10
53.68784999999999
 20
114.206406
 30
0.0
 40
26.648312000000001
 50
212.77393299999989
 51
214.805421
  0
ARC
  5
70
  8
0
 62
     7
 10
33.974328
 20
101.267456
 30
0.0
 40
3.075766999999999
 50
192.52419399999999
 51
208.899924
  0
ARC
  5
71
  8
0
 62
     7
 10
37.336744000000003
 20
102.101367
 30
0.0
 40
6.5395599999999989
 50
187.28625799999989
 51
193.26825700000001
  0
ARC
  5
72
  8
0
 62
     7
 10
25.342199000000001
 20
100.3910129999999
 30
0.0
 40
5.5778019999999993
 50
9.0874210000000026
 51
19.595759000000001
  0
ARC
  5
73
  8
0
 62
     7
 10
27.695639
 20
101.142154
 30
0.0
 40
3.1098209999999988
 50
21.100525999999999
 51
47.949295000000014
  0
LINE
  5
74
  8
0
 62
     7
 10
27.0321
 20
103.45099999999999
 30
0.0
 11
55.031999999999989
 21
103.45099999999999
 31
0.0
  0
LINE
  5
75
  8
0
 62
     7
 10
28.231000000000002
 20
105.452
 30
0.0
 11
55.031999999999989
 21
105.452
 31
0.0
  0
ARC
  5
76
  8
0
 62
     7
 10
28.42787899999999
 20
104.3432319999999
 30
0.0
 40
1.3604940000000001
 50
152.0644659999999
 51
173.22022999999999
  0
ARC
  5
77
  8
0
 62
     7
 10
28.004792999999999
 20
104.51978699999989
 30
0.0
 40
0.9049809999999999
 50
101.533227
 51
149.39021099999999
  0
ARC
  5
78
  8
0
 62
     7
 10
28.20955
 20
103.7848679999999
 30
0.0
 40
1.666865
 50
89.262208999999999
 51
103.37891
  0
LINE
  5
79
  8
0
 62
     7
 10
27.076899999999991
 20
104.50399999999991
 30
0.0
 11
27.0321
 21
103.45099999999999
 31
0.0
  0
ARC
  5
7A
  8
0
 62
     7
 10
56.006616999999999
 20
165.62149099999991
 30
0.0
 40
0.125371
 50
325.25537400000002
 51
359.57800200000003
  0
ARC
  5
7B
  8
0
 62
     7
 10
55.869632999999993
 20
165.717434
 30
0.0
 40
0.292611
 50
300.38757099999992
 51
325.10526299999992
  0
ARC
  5
7C
  8
0
 62
     7
 10
55.551614000000001
 20
166.235815
 30
0.0
 40
0.9007299999999998
 50
286.03473699999989
 51
301.15787899999992
  0
ARC
  5
7D
  8
0
 62
     7
 10
55.099043000000002
 20
167.76758499999991
 30
0.0
 40
2.4979429999999998
 50
268.46110399999992
 51
286.30673200000001
  0
ARC
  5
7E
  8
0
 62
     7
 10
55.032249999999998
 20
168.3262179999999
 30
0.0
 40
3.055674999999999
 50
255.98655099999991
 51
269.99454700000001
  0
ARC
  5
7F
  8
0
 62
     7
 10
54.528016000000001
 20
166.26385200000001
 30
0.0
 40
0.9326419999999998
 50
238.477959
 51
255.361514
  0
ARC
  5
80
  8
0
 62
     7
 10
54.144210000000001
 20
165.657679
 30
0.0
 40
0.215497
 50
189.9167249999999
 51
241.203643
  0
ARC
  5
81
  8
0
 62
     7
 10
54.057299999999998
 20
165.61964399999991
 30
0.0
 40
0.125371
 50
145.25535400000001
 51
179.57798299999999
  0
ARC
  5
82
  8
0
 62
     7
 10
54.194284000000003
 20
165.52370099999999
 30
0.0
 40
0.292611
 50
120.387551
 51
145.105243
  0
ARC
  5
83
  8
0
 62
     7
 10
54.512303000000003
 20
165.0053199999999
 30
0.0
 40
0.9007299999999998
 50
106.0347169999999
 51
121.157859
  0
ARC
  5
84
  8
0
 62
     7
 10
54.964874999999999
 20
163.47354899999991
 30
0.0
 40
2.4979429999999998
 50
88.461084
 51
106.306712
  0
ARC
  5
85
  8
0
 62
     7
 10
55.031667000000013
 20
162.91491699999989
 30
0.0
 40
3.055674999999999
 50
75.986530999999985
 51
89.994527000000019
  0
ARC
  5
86
  8
0
 62
     7
 10
55.535902
 20
164.977283
 30
0.0
 40
0.9326419999999998
 50
58.477938999999992
 51
75.361493999999993
  0
ARC
  5
87
  8
0
 62
     7
 10
55.919707000000002
 20
165.58345499999999
 30
0.0
 40
0.215497
 50
9.9167050000000003
 51
61.203623
  0
ARC
  5
88
  8
0
 62
     7
 10
61.692079
 20
105.04387800000001
 30
0.0
 40
88.949466000000001
 50
83.611091999999985
 51
89.639367000000007
  0
ARC
  5
89
  8
0
 62
     7
 10
59.791128
 20
-94.245165000000014
 30
0.0
 40
288.24725099999989
 50
89.510843000000008
 51
90.345104000000006
  0
ARC
  5
8A
  8
0
 62
     7
 10
67.66816
 20
-4641.436999999999
 30
0.0
 40
4835.4430000000002
 50
90.113899000000004
 51
90.149718000000007
  0
ARC
  5
8B
  8
0
 62
     7
 10
55.015549
 20
196.3000439999999
 30
0.0
 40
31.310453999999989
 50
270.03003799999988
 51
293.03188899999998
  0
ARC
  5
8C
  8
0
 62
     7
 10
57.338108999999989
 20
190.0682239999999
 30
0.0
 40
24.668537000000001
 50
293.73040200000003
 51
310.61899899999997
  0
ARC
  5
8D
  8
0
 62
     7
 10
61.354514000000002
 20
185.02181799999991
 30
0.0
 40
18.224786999999989
 50
311.36306200000001
 51
332.51627100000002
  0
ARC
  5
8E
  8
0
 62
     7
 10
64.562351000000007
 20
183.04654899999991
 30
0.0
 40
14.469956
 50
333.59310599999998
 51
359.77535299999988
  0
ARC
  5
8F
  8
0
 62
     7
 10
63.203880000000012
 20
182.995306
 30
0.0
 40
15.828317
 50
359.98012399999999
 51
14.08343
  0
ARC
  5
90
  8
0
 62
     7
 10
67.882703000000006
 20
184.02463899999989
 30
0.0
 40
11.040544999999989
 50
14.810644
 51
33.762227000000003
  0
ARC
  5
91
  8
0
 62
     7
 10
70.541212999999999
 20
185.638385
 30
0.0
 40
7.934717
 50
34.743383000000001
 51
70.424359999999993
  0
ARC
  5
92
  8
0
 62
     7
 10
70.982507999999996
 20
186.31325099999989
 30
0.0
 40
7.153516999999999
 50
71.943719999999999
 51
85.128010000000003
  0
ARC
  5
93
  8
0
 62
     7
 10
48.372250999999999
 20
105.03688
 30
0.0
 40
88.956466000000006
 50
90.360850999999997
 51
96.388650999999996
  0
ARC
  5
94
  8
0
 62
     7
 10
50.272789000000003
 20
-94.245165000000014
 30
0.0
 40
288.24725099999989
 50
89.654876999999999
 51
90.489136999999985
  0
ARC
  5
95
  8
0
 62
     7
 10
42.395757999999987
 20
-4641.436999999999
 30
0.0
 40
4835.4430000000002
 50
89.850262000000001
 51
89.886081999999988
  0
ARC
  5
96
  8
0
 62
     7
 10
55.048368000000004
 20
196.3000439999999
 30
0.0
 40
31.310453999999989
 50
246.968131
 51
269.9699819999999
  0
ARC
  5
97
  8
0
 62
     7
 10
52.726213000000001
 20
190.0688669999999
 30
0.0
 40
24.669288000000002
 50
229.38127999999989
 51
246.26935800000001
  0
ARC
  5
98
  8
0
 62
     7
 10
48.709353
 20
185.02176099999991
 30
0.0
 40
18.224710999999989
 50
207.48367399999989
 51
228.63695999999999
  0
ARC
  5
99
  8
0
 62
     7
 10
45.500931999999999
 20
183.04641000000001
 30
0.0
 40
14.469322
 50
180.2241249999999
 51
206.40754599999991
  0
ARC
  5
9A
  8
0
 62
     7
 10
46.859814
 20
182.99531200000001
 30
0.0
 40
15.828093000000001
 50
165.91637
 51
180.0199189999999
  0
ARC
  5
9B
  8
0
 62
     7
 10
42.18057499999999
 20
184.024944
 30
0.0
 40
11.039844
 50
146.23722900000001
 51
165.1900149999999
  0
ARC
  5
9C
  8
0
 62
     7
 10
39.522696000000003
 20
185.6383909999999
 30
0.0
 40
7.9347070000000004
 50
109.575542
 51
145.25659899999991
  0
ARC
  5
9D
  8
0
 62
     7
 10
39.081421999999989
 20
186.31323
 30
0.0
 40
7.1535399999999987
 50
94.872050000000016
 51
108.056256
  0
ARC
  5
9E
  8
0
 62
     7
 10
65.087381000000008
 20
183.02195499999991
 30
0.0
 40
17.944797000000001
 50
328.676715
 51
359.89738199999988
  0
ARC
  5
9F
  8
0
 62
     7
 10
61.465095999999988
 20
184.9970899999999
 30
0.0
 40
22.066801000000002
 50
308.05410799999993
 51
329.18523999999991
  0
ARC
  5
A0
  8
0
 62
     7
 10
57.342247999999991
 20
189.711625
 30
0.0
 40
28.32255399999999
 50
288.31846999999999
 51
308.74271699999991
  0
ARC
  5
A1
  8
0
 62
     7
 10
55.229334999999999
 20
194.95970299999991
 30
0.0
 40
33.970635999999999
 50
269.66710799999993
 51
288.919555
  0
ARC
  5
A2
  8
0
 62
     7
 10
55.052180999999997
 20
195.76740299999989
 30
0.0
 40
34.777768000000002
 50
245.28756899999991
 51
269.96669400000002
  0
ARC
  5
A3
  8
0
 62
     7
 10
52.543787000000002
 20
189.40257199999991
 30
0.0
 40
27.949788000000002
 50
224.4585359999999
 51
244.50397000000001
  0
ARC
  5
A4
  8
0
 62
     7
 10
48.141992999999999
 20
184.64249099999989
 30
0.0
 40
21.476351999999991
 50
202.431408
 51
223.61930699999999
  0
ARC
  5
A5
  8
0
 62
     7
 10
44.967396000000001
 20
183.04873399999991
 30
0.0
 40
17.935725000000001
 50
180.18823699999999
 51
201.59500299999991
  0
ARC
  5
A6
  8
0
 62
     7
 10
44.976535999999989
 20
182.95767499999999
 30
0.0
 40
17.944797000000001
 50
148.67669499999991
 51
179.89736199999999
  0
ARC
  5
A7
  8
0
 62
     7
 10
48.597727999999996
 20
180.983473
 30
0.0
 40
22.065383999999991
 50
128.05336199999999
 51
149.185845
  0
ARC
  5
A8
  8
0
 62
     7
 10
52.721757999999987
 20
176.26788099999999
 30
0.0
 40
28.322696999999991
 50
108.31853099999999
 51
128.74269499999991
  0
ARC
  5
A9
  8
0
 62
     7
 10
54.834502000000001
 20
171.020453
 30
0.0
 40
33.970109999999998
 50
89.666946999999993
 51
108.919686
  0
ARC
  5
AA
  8
0
 62
     7
 10
55.010685999999993
 20
170.20743899999991
 30
0.0
 40
34.782556999999997
 50
65.289275000000004
 51
89.964949000000004
  0
ARC
  5
AB
  8
0
 62
     7
 10
57.520072999999989
 20
176.57693999999989
 30
0.0
 40
27.949919999999999
 50
44.458621999999991
 51
64.503946999999997
  0
ARC
  5
AC
  8
0
 62
     7
 10
61.920665999999997
 20
181.33634199999989
 30
0.0
 40
21.477820999999999
 50
22.43203999999999
 51
43.618530999999997
  0
ARC
  5
AD
  8
0
 62
     7
 10
65.096345999999997
 20
182.9308649999999
 30
0.0
 40
17.9359
 50
0.188314
 51
21.594830999999999
  0
ARC
  5
AE
  8
0
  6
AIGENLINE002
 62
     7
 10
149.53643600000001
 20
103.82172199999989
 30
0.0
 40
0.830044
 50
91.932646000000005
 51
175.02443899999989
  0
ARC
  5
AF
  8
0
  6
AIGENLINE002
 62
     7
 10
156.99063599999999
 20
105.6264759999999
 30
0.0
 40
0.8795129999999998
 50
286.41491300000001
 51
314.82743099999999
  0
ARC
  5
B0
  8
0
  6
AIGENLINE002
 62
     7
 10
156.58132099999989
 20
106.7052249999999
 30
0.0
 40
2.031858999999999
 50
278.42945400000002
 51
288.89113999999989
  0
ARC
  5
B1
  8
0
  6
AIGENLINE002
 62
     7
 10
156.277807
 20
108.7527959999999
 30
0.0
 40
4.1018030000000003
 50
269.30627500000003
 51
278.43055399999997
  0
ARC
  5
B2
  8
0
  6
AIGENLINE002
 62
     7
 10
158.5520159999999
 20
104.270261
 30
0.0
 40
1.1716919999999991
 50
90.158445999999984
 51
128.18521299999989
  0
ARC
  5
B3
  8
0
  6
AIGENLINE002
 62
     7
 10
159.010648
 20
103.6104939999999
 30
0.0
 40
1.974375999999999
 50
126.810149
 51
135.159559
  0
LINE
  5
B4
  8
0
  6
AIGENLINE002
 62
     7
 10
148.54599999999991
 20
100.791
 30
0.0
 11
148.71000000000001
 21
103.89399999999991
 31
0.0
  0
LINE
  5
B5
  8
0
 62
     7
 10
157.518
 20
79.351399999999998
 30
0.0
 11
159.72799999999989
 21
79.943600000000004
 31
0.0
  0
LINE
  5
B6
  8
0
 62
     7
 10
159.72799999999989
 20
79.943600000000004
 30
0.0
 11
157.518
 21
80.535799999999995
 31
0.0
  0
LINE
  5
B7
  8
0
 62
     7
 10
157.518
 20
80.535799999999995
 30
0.0
 11
157.518
 21
79.351399999999998
 31
0.0
  0
LINE
  5
B8
  8
0
 62
     7
 10
143.93899999999991
 20
80.521299999999997
 30
0.0
 11
141.72799999999989
 21
79.929100000000005
 31
0.0
  0
LINE
  5
B9
  8
0
 62
     7
 10
141.72799999999989
 20
79.929100000000005
 30
0.0
 11
143.93899999999991
 21
79.3369
 31
0.0
  0
LINE
  5
BA
  8
0
 62
     7
 10
143.93899999999991
 20
79.3369
 30
0.0
 11
143.93899999999991
 21
80.521299999999997
 31
0.0
  0
LINE
  5
BB
  8
0
 62
     7
 10
159.72799999999989
 20
79.936400000000006
 30
0.0
 11
141.72799999999989
 21
79.936400000000006
 31
0.0
  0
LINE
  5
BC
  8
0
  6
AIGENLINE001
 62
     7
 10
152.72799999999989
 20
102.245
 30
0.0
 11
152.72799999999989
 21
106.51899999999991
 31
0.0
  0
LINE
  5
BD
  8
0
 62
     7
 10
159.72799999999989
 20
79.436499999999995
 30
0.0
 11
159.72799999999989
 21
102.9309999999999
 31
0.0
  0
LINE
  5
BE
  8
0
 62
     7
 10
141.72799999999989
 20
79.436499999999995
 30
0.0
 11
141.72799999999989
 21
85.305599999999984
 31
0.0
  0
LINE
  5
BF
  8
0
  6
AIGENLINE001
 62
     7
 10
141.72799999999989
 20
85.835099999999997
 30
0.0
 11
141.72799999999989
 21
91.655600000000007
 31
0.0
  0
LINE
  5
C0
  8
0
 62
     7
 10
144.94499999999991
 20
86.951300000000003
 30
0.0
 11
138.51299999999989
 21
86.951300000000003
 31
0.0
  0
LINE
  5
C1
  8
0
  6
AIGENLINE002
 62
     7
 10
156.22799999999989
 20
104.651
 30
0.0
 11
149.5079999999999
 21
104.651
 31
0.0
  0
LINE
  5
C2
  8
0
 62
     7
 10
146.11500000000001
 20
90.415000000000006
 30
0.0
 11
137.7529999999999
 21
90.415000000000006
 31
0.0
  0
ARC
  5
C3
  8
0
 62
     7
 10
58.220694999999992
 20
87.262466000000003
 30
0.0
 40
0.311355
 50
272.072632
 51
357.96027900000001
  0
ARC
  5
C4
  8
0
 62
     7
 10
59.046881000000013
 20
89.785565000000005
 30
0.0
 40
0.51517
 50
102.982973
 51
178.653538
  0
ARC
  5
C5
  8
0
 62
     7
 10
56.531962
 20
89.471418
 30
0.0
 40
1.5000039999999999
 50
270.00002000000001
 51
359.99998999999991
  0
LINE
  5
C6
  8
0
 62
     7
 10
58.231999999999992
 20
86.951300000000003
 30
0.0
 11
55.031999999999989
 21
86.951300000000003
 31
0.0
  0
LINE
  5
C7
  8
0
 62
     7
 10
56.531999999999996
 20
87.971400000000003
 30
0.0
 11
55.031999999999989
 21
87.971400000000003
 31
0.0
  0
LINE
  5
C8
  8
0
 62
     7
 10
58.5319
 20
87.251400000000004
 30
0.0
 11
58.5319
 21
89.797700000000006
 31
0.0
  0
LINE
  5
C9
  8
0
 62
     7
 10
58.031999999999996
 20
89.471400000000003
 30
0.0
 11
58.031999999999996
 21
103.45099999999999
 31
0.0
  0
ARC
  5
CA
  8
0
 62
     7
 10
51.843243999999999
 20
87.262659999999997
 30
0.0
 40
0.311556
 50
182.07409799999999
 51
267.89303200000001
  0
ARC
  5
CB
  8
0
 62
     7
 10
51.016699000000003
 20
89.785431000000017
 30
0.0
 40
0.515338
 50
1.3609340000000001
 51
77.002515000000002
  0
ARC
  5
CC
  8
0
 62
     7
 10
53.531781999999993
 20
89.471418
 30
0.0
 40
1.5000039999999999
 50
179.99996999999991
 51
270.00002000000001
  0
LINE
  5
CD
  8
0
 62
     7
 10
51.831800000000001
 20
86.951300000000003
 30
0.0
 11
55.031999999999989
 21
86.951300000000003
 31
0.0
  0
LINE
  5
CE
  8
0
  6
AIGENLINE002
 62
     7
 10
47.5321
 20
104.651
 30
0.0
 11
62.532299999999999
 21
104.651
 31
0.0
  0
LINE
  5
CF
  8
0
 62
     7
 10
53.531799999999997
 20
87.971400000000003
 30
0.0
 11
55.031999999999989
 21
87.971400000000003
 31
0.0
  0
LINE
  5
D0
  8
0
 62
     7
 10
51.5319
 20
87.251400000000004
 30
0.0
 11
51.5319
 21
89.797700000000006
 31
0.0
  0
LINE
  5
D1
  8
0
 62
     7
 10
52.03179999999999
 20
89.471400000000003
 30
0.0
 11
52.03179999999999
 21
103.45099999999999
 31
0.0
  0
LINE
  5
D2
  8
0
  6
AIGENLINE001
 62
     7
 10
55.031999999999989
 20
85.399299999999997
 30
0.0
 11
55.031999999999989
 21
107.413
 31
0.0
  0
LINE
  5
D3
  8
0
 62
     7
 10
160.55600000000001
 20
187.98899999999989
 30
0.0
 11
162.3179999999999
 21
189.44900000000001
 31
0.0
  0
LINE
  5
D4
  8
0
 62
     7
 10
162.3179999999999
 20
189.44900000000001
 30
0.0
 11
160.06200000000001
 21
189.06599999999989
 31
0.0
  0
LINE
  5
D5
  8
0
 62
     7
 10
160.06200000000001
 20
189.06599999999989
 30
0.0
 11
160.55600000000001
 21
187.98899999999989
 31
0.0
  0
LINE
  5
D6
  8
0
 62
     7
 10
148.22799999999989
 20
182.99000000000001
 30
0.0
 11
162.3179999999999
 21
189.44900000000001
 31
0.0
  0
LINE
  5
D7
  8
0
 62
     7
 10
124.76599999999991
 20
197.578
 30
0.0
 11
123.1749999999999
 21
199.22399999999999
 31
0.0
  0
LINE
  5
D8
  8
0
 62
     7
 10
123.1749999999999
 20
199.22399999999999
 30
0.0
 11
123.73
 21
197.00399999999999
 31
0.0
  0
LINE
  5
D9
  8
0
 62
     7
 10
123.73
 20
197.00399999999999
 30
0.0
 11
124.76599999999991
 21
197.578
 31
0.0
  0
LINE
  5
DA
  8
0
 62
     7
 10
137.72799999999989
 20
172.99000000000001
 30
0.0
 11
123.1749999999999
 21
199.22399999999999
 31
0.0
  0
LINE
  5
DB
  8
0
 62
     7
 10
172.40899999999999
 20
165.20099999999991
 30
0.0
 11
173.00099999999989
 21
162.99000000000001
 31
0.0
  0
LINE
  5
DC
  8
0
 62
     7
 10
173.00099999999989
 20
162.99000000000001
 30
0.0
 11
173.59399999999999
 21
165.20099999999991
 31
0.0
  0
LINE
  5
DD
  8
0
 62
     7
 10
173.59399999999999
 20
165.20099999999991
 30
0.0
 11
172.40899999999999
 21
165.20099999999991
 31
0.0
  0
LINE
  5
DE
  8
0
 62
     7
 10
173.57900000000001
 20
200.779
 30
0.0
 11
172.98699999999999
 21
202.99000000000001
 31
0.0
  0
LINE
  5
DF
  8
0
 62
     7
 10
172.98699999999999
 20
202.99000000000001
 30
0.0
 11
172.39500000000001
 21
200.779
 31
0.0
  0
LINE
  5
E0
  8
0
 62
     7
 10
172.39500000000001
 20
200.779
 30
0.0
 11
173.57900000000001
 21
200.779
 31
0.0
  0
LINE
  5
E1
  8
0
 62
     7
 10
172.994
 20
162.99000000000001
 30
0.0
 11
172.994
 21
202.99000000000001
 31
0.0
  0
LINE
  5
E2
  8
0
 62
     7
 10
147.357
 20
202.99000000000001
 30
0.0
 11
173.6459999999999
 21
202.99000000000001
 31
0.0
  0
LINE
  5
E3
  8
0
 62
     7
 10
147.357
 20
162.99000000000001
 30
0.0
 11
173.6459999999999
 21
162.99000000000001
 31
0.0
  0
LINE
  5
E4
  8
0
 62
     7
 10
113.93899999999989
 20
154.61999999999989
 30
0.0
 11
111.72799999999999
 21
154.02699999999999
 31
0.0
  0
LINE
  5
E5
  8
0
 62
     7
 10
111.72799999999999
 20
154.02699999999999
 30
0.0
 11
113.93899999999989
 21
153.435
 31
0.0
  0
LINE
  5
E6
  8
0
 62
     7
 10
113.93899999999989
 20
153.435
 30
0.0
 11
113.93899999999989
 21
154.61999999999989
 31
0.0
  0
LINE
  5
E7
  8
0
 62
     7
 10
161.51699999999991
 20
153.4499999999999
 30
0.0
 11
163.72799999999989
 21
154.042
 31
0.0
  0
LINE
  5
E8
  8
0
 62
     7
 10
163.72799999999989
 20
154.042
 30
0.0
 11
161.51699999999991
 21
154.6339999999999
 31
0.0
  0
LINE
  5
E9
  8
0
 62
     7
 10
161.51699999999991
 20
154.6339999999999
 30
0.0
 11
161.51699999999991
 21
153.4499999999999
 31
0.0
  0
LINE
  5
EA
  8
0
 62
     7
 10
111.72799999999999
 20
154.035
 30
0.0
 11
163.72799999999989
 21
154.035
 31
0.0
  0
LINE
  5
EB
  8
0
 62
     7
 10
163.72799999999989
 20
176.65899999999999
 30
0.0
 11
163.72799999999989
 21
153.44200000000001
 31
0.0
  0
LINE
  5
EC
  8
0
 62
     7
 10
111.72799999999999
 20
176.65899999999999
 30
0.0
 11
111.72799999999999
 21
153.44200000000001
 31
0.0
  0
LINE
  5
ED
  8
0
  6
AIGENLINE001
 62
     7
 10
167.2409999999999
 20
182.99000000000001
 30
0.0
 11
108.461
 21
182.99000000000001
 31
0.0
  0
LINE
  5
EE
  8
0
  6
AIGENLINE001
 62
     7
 10
137.72799999999989
 20
206.02399999999989
 30
0.0
 11
137.72799999999989
 21
160.35699999999991
 31
0.0
  0
ARC
  5
EF
  8
0
 62
     7
 10
148.04874599999991
 20
183.06192200000001
 30
0.0
 40
15.679584
 50
316.46602299999989
 51
359.73650900000001
  0
ARC
  5
F0
  8
0
 62
     7
 10
137.728002
 20
192.99066899999991
 30
0.0
 40
30.000792999999991
 50
270.00040499999989
 51
316.29536499999989
  0
ARC
  5
F1
  8
0
 62
     7
 10
148.05141499999991
 20
182.91895500000001
 30
0.0
 40
15.676909999999999
 50
0.258981
 51
43.537851000000003
  0
ARC
  5
F2
  8
0
 62
     7
 10
137.72780099999989
 20
172.98904699999991
 30
0.0
 40
30.000879000000001
 50
43.704250999999999
 51
89.999209999999977
  0
ARC
  5
F3
  8
0
 62
     7
 10
127.4042129999999
 20
183.0606699999999
 30
0.0
 40
15.67646499999999
 50
180.25898799999999
 51
223.53852000000001
  0
ARC
  5
F4
  8
0
 62
     7
 10
137.728161
 20
192.9895159999999
 30
0.0
 40
29.999812999999989
 50
223.7033999999999
 51
270.00010099999992
  0
ARC
  5
F5
  8
0
 62
     7
 10
127.4103649999999
 20
182.916661
 30
0.0
 40
15.682627
 50
136.470416
 51
179.7327139999999
  0
ARC
  5
F6
  8
0
 62
     7
 10
137.728161
 20
172.99011399999989
 30
0.0
 40
29.999812999999989
 50
89.999898999999999
 51
136.29660000000001
  0
ARC
  5
F7
  8
0
 62
     7
 10
60.242280000000001
 20
179.90401299999991
 30
0.0
 40
20.667691999999999
 50
38.220576999999999
 51
56.492718999999987
  0
ARC
  5
F8
  8
0
 62
     7
 10
57.048023000000001
 20
175.5268889999999
 30
0.0
 40
26.081944
 50
55.949975999999992
 51
70.575310000000002
  0
ARC
  5
F9
  8
0
 62
     7
 10
55.044192000000002
 20
170.50203400000001
 30
0.0
 40
31.487950000000001
 50
70.177414999999996
 51
90.022250000000014
  0
ARC
  5
FA
  8
0
 62
     7
 10
49.820526000000001
 20
179.90548200000001
 30
0.0
 40
20.66591
 50
123.507177
 51
141.780697
  0
ARC
  5
FB
  8
0
 62
     7
 10
53.015957999999998
 20
175.52663799999991
 30
0.0
 40
26.082243999999999
 50
109.424886
 51
124.04999699999991
  0
ARC
  5
FC
  8
0
 62
     7
 10
55.019670999999988
 20
170.50160199999991
 30
0.0
 40
31.488382000000001
 50
89.977631999999986
 51
109.8224279999999
  0
LINE
  5
FD
  8
0
 62
     7
 10
47.861299999999993
 20
107.66200000000001
 30
0.0
 11
48.453499999999991
 21
105.452
 31
0.0
  0
LINE
  5
FE
  8
0
 62
     7
 10
48.453499999999991
 20
105.452
 30
0.0
 11
49.045900000000003
 21
107.66200000000001
 31
0.0
  0
LINE
  5
FF
  8
0
 62
     7
 10
49.045900000000003
 20
107.66200000000001
 30
0.0
 11
47.861299999999993
 21
107.66200000000001
 31
0.0
  0
LINE
  5
100
  8
0
 62
     7
 10
49.031300000000002
 20
102.441
 30
0.0
 11
48.438999999999993
 21
104.651
 31
0.0
  0
LINE
  5
101
  8
0
 62
     7
 10
48.438999999999993
 20
104.651
 30
0.0
 11
47.846600000000002
 21
102.441
 31
0.0
  0
LINE
  5
102
  8
0
 62
     7
 10
47.846600000000002
 20
102.441
 30
0.0
 11
49.031300000000002
 21
102.441
 31
0.0
  0
LINE
  5
103
  8
0
 62
     7
 10
48.446300000000001
 20
100.4729999999999
 30
0.0
 11
48.446300000000001
 21
110.58
 31
0.0
  0
LINE
  5
104
  8
0
 62
     7
 10
87.937100000000001
 20
107.66200000000001
 30
0.0
 11
88.529399999999995
 21
105.452
 31
0.0
  0
LINE
  5
105
  8
0
 62
     7
 10
88.529399999999995
 20
105.452
 30
0.0
 11
89.121700000000004
 21
107.66200000000001
 31
0.0
  0
LINE
  5
106
  8
0
 62
     7
 10
89.121700000000004
 20
107.66200000000001
 30
0.0
 11
87.937100000000001
 21
107.66200000000001
 31
0.0
  0
LINE
  5
107
  8
0
 62
     7
 10
89.107099999999988
 20
101.241
 30
0.0
 11
88.514899999999997
 21
103.45099999999999
 31
0.0
  0
LINE
  5
108
  8
0
 62
     7
 10
88.514899999999997
 20
103.45099999999999
 30
0.0
 11
87.922500000000014
 21
101.241
 31
0.0
  0
LINE
  5
109
  8
0
 62
     7
 10
87.922500000000014
 20
101.241
 30
0.0
 11
89.107099999999988
 21
101.241
 31
0.0
  0
LINE
  5
10A
  8
0
 62
     7
 10
88.522099999999995
 20
96.5501
 30
0.0
 11
88.522099999999995
 21
109.6659999999999
 31
0.0
  0
LINE
  5
10B
  8
0
 62
     7
 10
95.531699999999987
 20
89.162000000000006
 30
0.0
 11
96.123900000000006
 21
86.951300000000003
 31
0.0
  0
LINE
  5
10C
  8
0
 62
     7
 10
96.123900000000006
 20
86.951300000000003
 30
0.0
 11
96.716300000000004
 21
89.162000000000006
 31
0.0
  0
LINE
  5
10D
  8
0
 62
     7
 10
96.716300000000004
 20
89.162000000000006
 30
0.0
 11
95.531699999999987
 21
89.162000000000006
 31
0.0
  0
LINE
  5
10E
  8
0
 62
     7
 10
96.701700000000002
 20
103.241
 30
0.0
 11
96.109499999999997
 21
105.452
 31
0.0
  0
LINE
  5
10F
  8
0
 62
     7
 10
96.109499999999997
 20
105.452
 30
0.0
 11
95.517099999999985
 21
103.241
 31
0.0
  0
LINE
  5
110
  8
0
 62
     7
 10
95.517099999999985
 20
103.241
 30
0.0
 11
96.701700000000002
 21
103.241
 31
0.0
  0
LINE
  5
111
  8
0
 62
     7
 10
96.116699999999994
 20
86.951300000000003
 30
0.0
 11
96.116699999999994
 21
105.452
 31
0.0
  0
LINE
  5
112
  8
0
 62
     7
 10
92.811099999999996
 20
191.779
 30
0.0
 11
92.218900000000005
 21
193.99000000000001
 31
0.0
  0
LINE
  5
113
  8
0
 62
     7
 10
92.218900000000005
 20
193.99000000000001
 30
0.0
 11
91.626499999999993
 21
191.779
 31
0.0
  0
LINE
  5
114
  8
0
 62
     7
 10
91.626499999999993
 20
191.779
 30
0.0
 11
92.811099999999996
 21
191.779
 31
0.0
  0
LINE
  5
115
  8
0
 62
     7
 10
92.811099999999996
 20
158.779
 30
0.0
 11
92.218900000000005
 21
160.99000000000001
 31
0.0
  0
LINE
  5
116
  8
0
 62
     7
 10
92.218900000000005
 20
160.99000000000001
 30
0.0
 11
91.626499999999993
 21
158.779
 31
0.0
  0
LINE
  5
117
  8
0
 62
     7
 10
91.626499999999993
 20
158.779
 30
0.0
 11
92.811099999999996
 21
158.779
 31
0.0
  0
LINE
  5
118
  8
0
 62
     7
 10
92.811099999999996
 20
202.779
 30
0.0
 11
92.218900000000005
 21
204.99000000000001
 31
0.0
  0
LINE
  5
119
  8
0
 62
     7
 10
92.218900000000005
 20
204.99000000000001
 30
0.0
 11
91.626499999999993
 21
202.779
 31
0.0
  0
LINE
  5
11A
  8
0
 62
     7
 10
91.626499999999993
 20
202.779
 30
0.0
 11
92.811099999999996
 21
202.779
 31
0.0
  0
LINE
  5
11B
  8
0
 62
     7
 10
91.641199999999998
 20
200.1999999999999
 30
0.0
 11
92.233400000000003
 21
197.99000000000001
 31
0.0
  0
LINE
  5
11C
  8
0
 62
     7
 10
92.233400000000003
 20
197.99000000000001
 30
0.0
 11
92.825800000000015
 21
200.1999999999999
 31
0.0
  0
LINE
  5
11D
  8
0
 62
     7
 10
92.825800000000015
 20
200.1999999999999
 30
0.0
 11
91.641199999999998
 21
200.1999999999999
 31
0.0
  0
LINE
  5
11E
  8
0
 62
     7
 10
91.641199999999998
 20
167.1999999999999
 30
0.0
 11
92.233400000000003
 21
164.99000000000001
 31
0.0
  0
LINE
  5
11F
  8
0
 62
     7
 10
92.233400000000003
 20
164.99000000000001
 30
0.0
 11
92.825800000000015
 21
167.1999999999999
 31
0.0
  0
LINE
  5
120
  8
0
 62
     7
 10
92.825800000000015
 20
167.1999999999999
 30
0.0
 11
91.641199999999998
 21
167.1999999999999
 31
0.0
  0
LINE
  5
121
  8
0
 62
     7
 10
92.226100000000017
 20
204.99000000000001
 30
0.0
 11
92.226100000000017
 21
156.15799999999999
 31
0.0
  0
LINE
  5
122
  8
0
 62
     7
 10
101.23699999999999
 20
163.1999999999999
 30
0.0
 11
101.82899999999989
 21
160.99000000000001
 31
0.0
  0
LINE
  5
123
  8
0
 62
     7
 10
101.82899999999989
 20
160.99000000000001
 30
0.0
 11
102.42100000000001
 21
163.1999999999999
 31
0.0
  0
LINE
  5
124
  8
0
 62
     7
 10
102.42100000000001
 20
163.1999999999999
 30
0.0
 11
101.23699999999999
 21
163.1999999999999
 31
0.0
  0
LINE
  5
125
  8
0
 62
     7
 10
102.407
 20
202.779
 30
0.0
 11
101.8149999999999
 21
204.99000000000001
 31
0.0
  0
LINE
  5
126
  8
0
 62
     7
 10
101.8149999999999
 20
204.99000000000001
 30
0.0
 11
101.22199999999999
 21
202.779
 31
0.0
  0
LINE
  5
127
  8
0
 62
     7
 10
101.22199999999999
 20
202.779
 30
0.0
 11
102.407
 21
202.779
 31
0.0
  0
LINE
  5
128
  8
0
 62
     7
 10
101.822
 20
160.99000000000001
 30
0.0
 11
101.822
 21
204.99000000000001
 31
0.0
  0
LINE
  5
129
  8
0
 62
     7
 10
102.422
 20
160.99000000000001
 30
0.0
 11
64.627499999999984
 21
160.99000000000001
 31
0.0
  0
LINE
  5
12A
  8
0
 62
     7
 10
92.826300000000003
 20
164.99000000000001
 30
0.0
 11
63.721600000000002
 21
164.99000000000001
 31
0.0
  0
LINE
  5
12B
  8
0
 62
     7
 10
92.826300000000003
 20
193.99000000000001
 30
0.0
 11
71.623800000000003
 21
193.99000000000001
 31
0.0
  0
LINE
  5
12C
  8
0
 62
     7
 10
51.423900000000003
 20
189.761
 30
0.0
 11
53.405700000000003
 21
188.6159999999999
 31
0.0
  0
LINE
  5
12D
  8
0
 62
     7
 10
53.405700000000003
 20
188.6159999999999
 30
0.0
 11
52.261600000000001
 21
190.5979999999999
 31
0.0
  0
LINE
  5
12E
  8
0
 62
     7
 10
52.261600000000001
 20
190.5979999999999
 30
0.0
 11
51.423900000000003
 21
189.761
 31
0.0
  0
LINE
  5
12F
  8
0
 62
     7
 10
58.6402
 20
184.21899999999999
 30
0.0
 11
56.6584
 21
185.364
 31
0.0
  0
LINE
  5
130
  8
0
 62
     7
 10
56.6584
 20
185.364
 30
0.0
 11
57.802500000000002
 21
183.38200000000001
 31
0.0
  0
LINE
  5
131
  8
0
 62
     7
 10
57.802500000000002
 20
183.38200000000001
 30
0.0
 11
58.6402
 21
184.21899999999999
 31
0.0
  0
LINE
  5
132
  8
0
 62
     7
 10
61.741700000000002
 20
180.27999999999989
 30
0.0
 11
49.885100000000001
 21
192.13699999999989
 31
0.0
  0
LINE
  5
133
  8
0
 62
     7
 10
51.813000000000002
 20
200.37200000000001
 30
0.0
 11
53.794800000000002
 21
199.22699999999989
 31
0.0
  0
LINE
  5
134
  8
0
 62
     7
 10
53.794800000000002
 20
199.22699999999989
 30
0.0
 11
52.650700000000001
 21
201.209
 31
0.0
  0
LINE
  5
135
  8
0
 62
     7
 10
52.650700000000001
 20
201.209
 30
0.0
 11
51.813000000000002
 21
200.37200000000001
 31
0.0
  0
LINE
  5
136
  8
0
 62
     7
 10
58.251399999999997
 20
195.608
 30
0.0
 11
56.269599999999997
 21
196.75299999999999
 31
0.0
  0
LINE
  5
137
  8
0
 62
     7
 10
56.269599999999997
 20
196.75299999999999
 30
0.0
 11
57.413699999999992
 21
194.7709999999999
 31
0.0
  0
LINE
  5
138
  8
0
 62
     7
 10
57.413699999999992
 20
194.7709999999999
 30
0.0
 11
58.251399999999997
 21
195.608
 31
0.0
  0
LINE
  5
139
  8
0
 62
     7
 10
58.457599999999999
 20
194.565
 30
0.0
 11
46.286000000000001
 21
206.7359999999999
 31
0.0
  0
LINE
  5
13A
  8
0
 62
     7
 10
92.826300000000003
 20
197.99000000000001
 30
0.0
 11
58.500300000000003
 21
197.99000000000001
 31
0.0
  0
LINE
  5
13B
  8
0
 62
     7
 10
46.286000000000001
 20
206.7359999999999
 30
0.0
 11
40.982599999999991
 21
206.7359999999999
 31
0.0
  0
LINE
  5
13C
  8
0
 62
     7
 10
67.865399999999994
 20
180.27999999999989
 30
0.0
 11
61.741700000000002
 21
180.27999999999989
 31
0.0
  0
LINE
  5
13D
  8
0
 62
     7
 10
102.422
 20
204.99000000000001
 30
0.0
 11
64.627499999999984
 21
204.99000000000001
 31
0.0
  0
LINE
  5
13E
  8
0
 62
     7
 10
76.821299999999994
 20
150.083
 30
0.0
 11
79.031899999999993
 21
150.67500000000001
 31
0.0
  0
LINE
  5
13F
  8
0
 62
     7
 10
79.031899999999993
 20
150.67500000000001
 30
0.0
 11
76.821299999999994
 21
151.268
 31
0.0
  0
LINE
  5
140
  8
0
 62
     7
 10
76.821299999999994
 20
151.268
 30
0.0
 11
76.821299999999994
 21
150.083
 31
0.0
  0
LINE
  5
141
  8
0
 62
     7
 10
33.2423
 20
151.2529999999999
 30
0.0
 11
31.0319
 21
150.661
 31
0.0
  0
LINE
  5
142
  8
0
 62
     7
 10
31.0319
 20
150.661
 30
0.0
 11
33.2423
 21
150.0689999999999
 31
0.0
  0
LINE
  5
143
  8
0
 62
     7
 10
33.2423
 20
150.0689999999999
 30
0.0
 11
33.2423
 21
151.2529999999999
 31
0.0
  0
LINE
  5
144
  8
0
 62
     7
 10
79.031999999999996
 20
150.66800000000001
 30
0.0
 11
31.031700000000001
 21
150.66800000000001
 31
0.0
  0
LINE
  5
145
  8
0
 62
     7
 10
31.031700000000001
 20
178.17199999999991
 30
0.0
 11
31.031700000000001
 21
150.0679999999999
 31
0.0
  0
LINE
  5
146
  8
0
 62
     7
 10
79.031999999999996
 20
178.17199999999991
 30
0.0
 11
79.031999999999996
 21
150.0679999999999
 31
0.0
  0
LINE
  5
147
  8
0
 62
     7
 10
96.716800000000021
 20
86.951300000000003
 30
0.0
 11
59.72699999999999
 21
86.951300000000003
 31
0.0
  0
LINE
  5
148
  8
0
 62
     7
 10
88.945499999999996
 20
103.45099999999999
 30
0.0
 11
84.006600000000006
 21
103.45099999999999
 31
0.0
  0
LINE
  5
149
  8
0
 62
     7
 10
96.716800000000021
 20
105.452
 30
0.0
 11
83.448299999999989
 21
105.452
 31
0.0
  0
LINE
  5
14A
  8
0
 62
     7
 10
80.821399999999997
 20
142.8549999999999
 30
0.0
 11
83.032000000000025
 21
143.44799999999989
 31
0.0
  0
LINE
  5
14B
  8
0
 62
     7
 10
83.032000000000025
 20
143.44799999999989
 30
0.0
 11
80.821399999999997
 21
144.03999999999991
 31
0.0
  0
LINE
  5
14C
  8
0
 62
     7
 10
80.821399999999997
 20
144.03999999999991
 30
0.0
 11
80.821399999999997
 21
142.8549999999999
 31
0.0
  0
LINE
  5
14D
  8
0
 62
     7
 10
29.2423
 20
144.02499999999989
 30
0.0
 11
27.0319
 21
143.43299999999991
 31
0.0
  0
LINE
  5
14E
  8
0
 62
     7
 10
27.0319
 20
143.43299999999991
 30
0.0
 11
29.2423
 21
142.84100000000001
 31
0.0
  0
LINE
  5
14F
  8
0
 62
     7
 10
29.2423
 20
142.84100000000001
 30
0.0
 11
29.2423
 21
144.02499999999989
 31
0.0
  0
LINE
  5
150
  8
0
 62
     7
 10
83.032099999999986
 20
143.43999999999991
 30
0.0
 11
27.0318
 21
143.43999999999991
 31
0.0
  0
LINE
  5
151
  8
0
 62
     7
 10
27.0318
 20
177.04300000000001
 30
0.0
 11
27.0318
 21
142.84
 31
0.0
  0
LINE
  5
152
  8
0
 62
     7
 10
83.032099999999986
 20
177.04300000000001
 30
0.0
 11
83.032099999999986
 21
142.84
 31
0.0
  0
LINE
  5
153
  8
0
  6
AIGENLINE001
 62
     7
 10
55.031999999999989
 20
206.958
 30
0.0
 11
55.031999999999989
 21
158.9799999999999
 31
0.0
  0
LINE
  5
154
  8
0
  6
AIGENLINE001
 62
     7
 10
57.6571
 20
197.99000000000001
 30
0.0
 11
52.407499999999999
 21
197.99000000000001
 31
0.0
  0
ARC
  5
155
  8
0
 62
     7
 10
55.032217000000003
 20
197.9899409999999
 30
0.0
 40
1.7500340000000001
 50
359.99718999999988
 51
89.997159999999994
  0
ARC
  5
156
  8
0
 62
     7
 10
55.032303000000013
 20
197.98985500000001
 30
0.0
 40
1.7501199999999999
 50
90.0
 51
179.99996999999991
  0
ARC
  5
157
  8
0
 62
     7
 10
55.032217000000003
 20
197.9899409999999
 30
0.0
 40
1.7500329999999999
 50
180.00282999999999
 51
270.00283999999988
  0
ARC
  5
158
  8
0
 62
     7
 10
55.032303000000013
 20
197.989856
 30
0.0
 40
1.7499480000000001
 50
270.00002000000001
 51
359.99998999999991
  0
ARC
  5
159
  8
0
 62
     7
 10
55.032215999999998
 20
186.98985400000001
 30
0.0
 40
3.2500379999999991
 50
359.998492
 51
89.998462000000004
  0
ARC
  5
15A
  8
0
 62
     7
 10
55.032304000000003
 20
186.989768
 30
0.0
 40
3.250124
 50
90.0
 51
179.99996999999991
  0
ARC
  5
15B
  8
0
 62
     7
 10
55.032215999999998
 20
186.98985400000001
 30
0.0
 40
3.250036999999999
 50
180.00152800000001
 51
270.00153799999993
  0
ARC
  5
15C
  8
0
 62
     7
 10
55.032303000000013
 20
186.98976899999991
 30
0.0
 40
3.2499519999999991
 50
270.00002000000001
 51
359.99998999999991
  0
LINE
  5
15D
  8
0
  6
AIGENLINE001
 62
     7
 10
60.032200000000003
 20
186.99000000000001
 30
0.0
 11
55.031999999999989
 21
186.99000000000001
 31
0.0
  0
LINE
  5
15E
  8
0
  6
AIGENLINE001
 62
     7
 10
55.031999999999989
 20
186.99000000000001
 30
0.0
 11
50.032400000000003
 21
186.99000000000001
 31
0.0
  0
ARC
  5
15F
  8
0
 62
     7
 10
55.031872
 20
186.98985400000001
 30
0.0
 40
2.3000470000000002
 50
359.99786399999988
 51
89.997834999999995
  0
ARC
  5
160
  8
0
 62
     7
 10
55.031958999999993
 20
186.989768
 30
0.0
 40
2.3001330000000002
 50
90.0
 51
179.99996999999991
  0
ARC
  5
161
  8
0
 62
     7
 10
55.031872
 20
186.98985400000001
 30
0.0
 40
2.300046
 50
180.0021549999999
 51
270.00216499999999
  0
ARC
  5
162
  8
0
 62
     7
 10
55.031958000000003
 20
186.98976899999991
 30
0.0
 40
2.2999610000000001
 50
270.00002000000001
 51
359.99998999999991
  0
LINE
  5
163
  8
_________2
 62
     7
 10
205.30099999999999
 20
127.411
 30
0.0
 11
183.55099999999999
 21
127.411
 31
0.0
  0
LINE
  5
164
  8
_________2
 62
     7
 10
100.2999999999999
 20
-4.0910799999999998
 30
0.0
 11
100.2999999999999
 21
-21.071400000000001
 31
0.0
  0
LINE
  5
165
  8
_________2
 62
     7
 10
100.2999999999999
 20
275.93099999999993
 30
0.0
 11
100.2999999999999
 21
258.91000000000003
 31
0.0
  0
LINE
  5
166
  8
_________2
 62
     7
 10
17.049499999999998
 20
127.411
 30
0.0
 11
-4.7008599999999987
 21
127.411
 31
0.0
  0
LINE
  5
167
  8
_________2
 62
     7
 10
76.741
 20
29.8047
 30
0.0
 11
74.554699999999997
 21
29.8047
 31
0.0
  0
LINE
  5
168
  8
_________2
 62
     7
 10
77.233699999999999
 20
29.8047
 30
0.0
 11
76.981499999999997
 21
29.8047
 31
0.0
  0
LINE
  5
169
  8
_________2
 62
     7
 10
77.726299999999995
 20
29.8047
 30
0.0
 11
80.651200000000003
 21
29.8047
 31
0.0
  0
LINE
  5
16A
  8
_________2
 62
     7
 10
77.233699999999999
 20
29.8047
 30
0.0
 11
77.485900000000001
 21
29.8047
 31
0.0
  0
LINE
  5
16B
  8
_________2
 62
     7
 10
70.837500000000006
 20
29.8047
 30
0.0
 11
68.650499999999994
 21
29.8047
 31
0.0
  0
LINE
  5
16C
  8
_________2
 62
     7
 10
71.329400000000007
 20
29.8047
 30
0.0
 11
71.0779
 21
29.8047
 31
0.0
  0
LINE
  5
16D
  8
_________2
 62
     7
 10
71.329400000000007
 20
30.2974
 30
0.0
 11
71.329400000000007
 21
32.484400000000001
 31
0.0
  0
LINE
  5
16E
  8
_________2
 62
     7
 10
71.329400000000007
 20
29.8047
 30
0.0
 11
71.329400000000007
 21
30.056899999999992
 31
0.0
  0
LINE
  5
16F
  8
_________2
 62
     7
 10
71.822100000000006
 20
29.8047
 30
0.0
 11
74.009
 21
29.8047
 31
0.0
  0
LINE
  5
170
  8
_________2
 62
     7
 10
71.329400000000007
 20
29.8047
 30
0.0
 11
71.581599999999995
 21
29.8047
 31
0.0
  0
LINE
  5
171
  8
_________2
 62
     7
 10
71.329400000000007
 20
29.312799999999999
 30
0.0
 11
71.329400000000007
 21
27.125800000000002
 31
0.0
  0
LINE
  5
172
  8
_________2
 62
     7
 10
71.329400000000007
 20
29.8047
 30
0.0
 11
71.329400000000007
 21
29.5532
 31
0.0
  0
LINE
  5
173
  8
_________2
 62
     7
 10
75.040499999999994
 20
28.5852
 30
0.0
 11
80.218500000000006
 21
27.720400000000001
 31
0.0
  0
LINE
  5
174
  8
_________2
 62
     7
 10
75.040499999999994
 20
31.0243
 30
0.0
 11
80.218500000000006
 21
31.889700000000001
 31
0.0
  0
LINE
  5
175
  8
_________2
 62
     7
 10
80.218500000000006
 20
27.720400000000001
 30
0.0
 11
80.218500000000006
 21
31.889700000000001
 31
0.0
  0
LINE
  5
176
  8
_________2
 62
     7
 10
75.040499999999994
 20
28.5852
 30
0.0
 11
75.040499999999994
 21
31.0243
 31
0.0
  0
ARC
  5
177
  8
_________2
 62
     7
 10
71.283190000000005
 20
29.757787
 30
0.0
 40
1.2673709999999989
 50
2.1232950000000002
 51
87.909056000000007
  0
ARC
  5
178
  8
_________2
 62
     7
 10
71.375959999999992
 20
29.758213000000001
 30
0.0
 40
1.2669559999999991
 50
92.104701000000006
 51
177.8952689999999
  0
ARC
  5
179
  8
_________2
 62
     7
 10
71.376357999999996
 20
29.851671
 30
0.0
 40
1.2673680000000001
 50
182.12203600000001
 51
267.877993
  0
ARC
  5
17A
  8
_________2
 62
     7
 10
71.282541000000009
 20
29.852347999999999
 30
0.0
 40
1.2680439999999991
 50
272.11916400000001
 51
357.84848499999993
  0
ARC
  5
17B
  8
_________2
 62
     7
 10
71.329430000000002
 20
29.804742999999998
 30
0.0
 40
2.0849849999999992
 50
0.00001
 51
89.999980000000008
  0
ARC
  5
17C
  8
_________2
 62
     7
 10
71.409075999999999
 20
29.725812999999992
 30
0.0
 40
2.165379999999999
 50
92.107876000000005
 51
177.91103200000001
  0
ARC
  5
17D
  8
_________2
 62
     7
 10
71.409439000000006
 20
29.884751999999999
 30
0.0
 40
2.1657829999999998
 50
182.117133
 51
267.88289700000001
  0
ARC
  5
17E
  8
_________2
 62
     7
 10
71.249459000000002
 20
29.885429999999989
 30
0.0
 40
2.1664590000000001
 50
272.11546800000002
 51
357.86560400000002
  0
TEXT
  5
17F
  8
_________2
 62
     7
 10
104.605
 20
1.6794899999999999
 30
0.0
 40
3.0923400000000001
  1
図番
 41
0.5
  0
LINE
  5
180
  8
_________2
 62
     7
 10
103.55
 20
5.9087199999999989
 30
0.0
 11
183.55099999999999
 21
5.9087199999999989
 31
0.0
  0
TEXT
  5
181
  8
_________2
 62
     7
 10
104.605
 20
11.679299999999991
 30
0.0
 40
3.0923400000000001
  1
品番
 41
0.5
  0
TEXT
  5
182
  8
_________2
 62
     7
 10
104.605
 20
31.818100000000001
 30
0.0
 40
3.0923400000000001
  1
名称
 41
0.5
  0
TEXT
  5
183
  8
_________2
 62
     7
 10
91.845058333333341
 20
26.821999999999989
 30
0.0
 40
3.6545800000000002
  1
mm
 41
0.5
 72
     1
 11
93.367800000000003
 21
26.821999999999989
 31
0.0
  0
TEXT
  5
184
  8
_________2
 62
     7
 10
85.643199999999993
 20
31.818100000000001
 30
0.0
 40
3.0923400000000001
  1
単位
 41
0.5
  0
TEXT
  5
185
  8
_________2
 62
     7
 10
85.643199999999993
 20
19.410799999999991
 30
0.0
 40
3.0923400000000001
  1
尺度
 41
0.5
  0
TEXT
  5
186
  8
_________2
 62
     7
 10
90.09193616666667
 20
13.2179
 30
0.0
 40
3.6545800000000002
  1
1 ： 10
 41
0.5
 72
     1
 11
93.959699999999998
 21
13.2179
 31
0.0
  0
TEXT
  5
187
  8
_________2
 62
     7
 10
137.64644999999999
 20
9.1078600000000005
 30
0.0
 40
3.9357000000000002
  1
AU13951
 41
0.5
 72
     1
 11
143.55000000000001
 21
9.1078600000000005
 31
0.0
  0
TEXT
  5
188
  8
_________2
 62
     7
 10
137.64644999999999
 20
-0.8926299999999999
 30
0.0
 40
3.9357000000000002
  1
AU13951
 41
0.5
 72
     1
 11
143.55000000000001
 21
-0.8926299999999999
 31
0.0
  0
TEXT
  5
189
  8
_________2
 62
     7
 10
24.5868
 20
0.707283
 30
0.0
 40
3.9357000000000002
  1
実容量：4.7L オーバーフロー付
 41
0.5
  0
TEXT
  5
18A
  8
_________2
 62
     7
 10
109.179
 20
24.2257
 30
0.0
 40
3.9357000000000002
  1
プロB　カウンター式洗面器
 41
0.5
  0
TEXT
  5
18B
  8
_________2
 62
     7
 10
39.364390666666658
 20
13.603
 30
0.0
 40
3.6545800000000002
  1
高橋
 41
0.5
 72
     1
 11
41.313499999999998
 21
13.603
 31
0.0
  0
TEXT
  5
18C
  8
_________2
 62
     7
 10
20.79039066666666
 20
13.603
 30
0.0
 40
3.6545800000000002
  1
石原
 41
0.5
 72
     1
 11
22.7395
 21
13.603
 31
0.0
  0
TEXT
  5
18D
  8
_________2
 62
     7
 10
67.785799999999995
 20
13.2179
 30
0.0
 40
3.6545800000000002
  1
06.02.06
 41
0.5
  0
TEXT
  5
18E
  8
_________2
 62
     7
 10
66.593100000000007
 20
19.410799999999991
 30
0.0
 40
3.0923400000000001
  1
日付
 41
0.5
  0
TEXT
  5
18F
  8
_________2
 62
     7
 10
29.639399999999998
 20
19.410799999999991
 30
0.0
 40
3.0923400000000001
  1
検図
 41
0.5
  0
TEXT
  5
190
  8
_________2
 62
     7
 10
18.021100000000001
 20
5.21143
 30
0.0
 40
3.0923400000000001
  1
備考
 41
0.5
  0
TEXT
  5
191
  8
_________2
 62
     7
 10
18.021100000000001
 20
19.410799999999991
 30
0.0
 40
3.0923400000000001
  1
製図
 41
0.5
  0
TEXT
  5
192
  8
_________2
 62
     7
 10
23.788465333333338
 20
27.936800000000002
 30
0.0
 40
4.4979399999999989
  1
セラトレーディング株式会社
 41
0.5
 72
     1
 11
41.180500000000002
 21
27.936800000000002
 31
0.0
  0
LINE
  5
193
  8
_________2
 62
     7
 10
183.55099999999999
 20
-4.0910799999999998
 30
0.0
 11
17.049499999999998
 21
-4.0910799999999998
 31
0.0
  0
LINE
  5
194
  8
_________2
 62
     7
 10
17.049499999999998
 20
-4.0910799999999998
 30
0.0
 11
17.049499999999998
 21
258.91000000000003
 31
0.0
  0
LINE
  5
195
  8
_________2
 62
     7
 10
17.049499999999998
 20
258.91000000000003
 30
0.0
 11
183.55099999999999
 21
258.91000000000003
 31
0.0
  0
LINE
  5
196
  8
_________2
 62
     7
 10
183.55099999999999
 20
258.91000000000003
 30
0.0
 11
183.55099999999999
 21
-4.0910799999999998
 31
0.0
  0
LINE
  5
197
  8
_________2
 62
     7
 10
65.549899999999994
 20
9.4089600000000004
 30
0.0
 11
65.549899999999994
 21
35.908799999999999
 31
0.0
  0
LINE
  5
198
  8
_________2
 62
     7
 10
84.549700000000016
 20
9.4089600000000004
 30
0.0
 11
84.549700000000016
 21
35.908799999999999
 31
0.0
  0
LINE
  5
199
  8
_________2
 62
     7
 10
103.55
 20
-4.0910799999999998
 30
0.0
 11
103.55
 21
35.908799999999999
 31
0.0
  0
LINE
  5
19A
  8
_________2
 62
     7
 10
28.549299999999992
 20
9.4089600000000004
 30
0.0
 11
28.549299999999992
 21
23.409199999999998
 31
0.0
  0
LINE
  5
19B
  8
_________2
 62
     7
 10
17.049499999999998
 20
9.4089600000000004
 30
0.0
 11
103.55
 21
9.4089600000000004
 31
0.0
  0
LINE
  5
19C
  8
_________2
 62
     7
 10
17.049499999999998
 20
23.409199999999998
 30
0.0
 11
103.55
 21
23.409199999999998
 31
0.0
  0
LINE
  5
19D
  8
_________2
 62
     7
 10
103.55
 20
15.9085
 30
0.0
 11
183.55099999999999
 21
15.9085
 31
0.0
  0
LINE
  5
19E
  8
_________2
 62
     7
 10
17.049499999999998
 20
35.908799999999999
 30
0.0
 11
183.55099999999999
 21
35.908799999999999
 31
0.0
  0
ENDSEC
  0
EOF
