  0
SECTION
  2
HEADER
  9
$ACADVER
  1
AC1009
  9
$INSBASE
 10
0.0
 20
0.0
 30
0.0
  9
$EXTMIN
 10
-4.70052
 20
-21.071400000000001
 30
0.0
  9
$EXTMAX
 10
205.30099999999999
 20
275.93099999999993
 30
0.0
  9
$LIMMIN
 10
0.0
 20
0.0
  9
$LIMMAX
 10
12.0
 20
9.0
  9
$ORTHOMODE
 70
     0
  9
$REGENMODE
 70
     1
  9
$FILLMODE
 70
     1
  9
$QTEXTMODE
 70
     0
  9
$MIRRTEXT
 70
     1
  9
$DRAGMODE
 70
     2
  9
$LTSCALE
 40
1.0
  9
$OSMODE
 70
    37
  9
$ATTMODE
 70
     1
  9
$TEXTSIZE
 40
0.0
  9
$TRACEWID
 40
0.05
  9
$TEXTSTYLE
  7
STANDARD
  9
$CLAYER
  8
0
  9
$CELTYPE
  6
CONTINUOUS
  9
$CECOLOR
 62
   256
  9
$DIMSCALE
 40
1.0
  9
$DIMASZ
 40
0.18
  9
$DIMEXO
 40
0.0625
  9
$DIMDLI
 40
0.38
  9
$DIMRND
 40
0.0
  9
$DIMDLE
 40
0.0
  9
$DIMEXE
 40
0.18
  9
$DIMTP
 40
0.0
  9
$DIMTM
 40
0.0
  9
$DIMTXT
 40
0.18
  9
$DIMCEN
 40
0.09
  9
$DIMTSZ
 40
0.0
  9
$DIMTOL
 70
     0
  9
$DIMLIM
 70
     0
  9
$DIMTIH
 70
     1
  9
$DIMTOH
 70
     1
  9
$DIMSE1
 70
     0
  9
$DIMSE2
 70
     0
  9
$DIMTAD
 70
     0
  9
$DIMZIN
 70
     0
  9
$DIMBLK
  1

  9
$DIMASO
 70
     1
  9
$DIMSHO
 70
     1
  9
$DIMPOST
  1

  9
$DIMAPOST
  1

  9
$DIMALT
 70
     0
  9
$DIMALTD
 70
     2
  9
$DIMALTF
 40
25.399999999999999
  9
$DIMLFAC
 40
1.0
  9
$DIMTOFL
 70
     0
  9
$DIMTVP
 40
0.0
  9
$DIMTIX
 70
     0
  9
$DIMSOXD
 70
     0
  9
$DIMSAH
 70
     0
  9
$DIMBLK1
  1

  9
$DIMBLK2
  1

  9
$DIMSTYLE
  2
STANDARD
  9
$DIMCLRD
 70
     0
  9
$DIMCLRE
 70
     0
  9
$DIMCLRT
 70
     0
  9
$DIMTFAC
 40
1.0
  9
$DIMGAP
 40
0.09
  9
$LUNITS
 70
     2
  9
$LUPREC
 70
     4
  9
$SKETCHINC
 40
0.1
  9
$FILLETRAD
 40
0.0
  9
$AUNITS
 70
     0
  9
$AUPREC
 70
     0
  9
$MENU
  1
.
  9
$ELEVATION
 40
0.0
  9
$PELEVATION
 40
0.0
  9
$THICKNESS
 40
0.0
  9
$LIMCHECK
 70
     0
  9
$BLIPMODE
 70
     0
  9
$CHAMFERA
 40
0.0
  9
$CHAMFERB
 40
0.0
  9
$SKPOLY
 70
     0
  9
$TDCREATE
 40
2444972.375
  9
$TDUPDATE
 40
2453810.2548507978
  9
$TDINDWG
 40
0.0000151157
  9
$TDUSRTIMER
 40
0.0000151157
  9
$USRTIMER
 70
     1
  9
$ANGBASE
 50
0.0
  9
$ANGDIR
 70
     0
  9
$PDMODE
 70
     0
  9
$PDSIZE
 40
0.0
  9
$PLINEWID
 40
0.0
  9
$COORDS
 70
     1
  9
$SPLFRAME
 70
     0
  9
$SPLINETYPE
 70
     6
  9
$SPLINESEGS
 70
     8
  9
$ATTDIA
 70
     0
  9
$ATTREQ
 70
     1
  9
$HANDLING
 70
     1
  9
$HANDSEED
  5
1DD
  9
$SURFTAB1
 70
     6
  9
$SURFTAB2
 70
     6
  9
$SURFTYPE
 70
     6
  9
$SURFU
 70
     6
  9
$SURFV
 70
     6
  9
$UCSNAME
  2

  9
$UCSORG
 10
0.0
 20
0.0
 30
0.0
  9
$UCSXDIR
 10
1.0
 20
0.0
 30
0.0
  9
$UCSYDIR
 10
0.0
 20
1.0
 30
0.0
  9
$PUCSNAME
  2

  9
$PUCSORG
 10
0.0
 20
0.0
 30
0.0
  9
$PUCSXDIR
 10
1.0
 20
0.0
 30
0.0
  9
$PUCSYDIR
 10
0.0
 20
1.0
 30
0.0
  9
$USERI1
 70
     0
  9
$USERI2
 70
     0
  9
$USERI3
 70
     0
  9
$USERI4
 70
     0
  9
$USERI5
 70
     0
  9
$USERR1
 40
0.0
  9
$USERR2
 40
0.0
  9
$USERR3
 40
0.0
  9
$USERR4
 40
0.0
  9
$USERR5
 40
0.0
  9
$WORLDVIEW
 70
     1
  9
$SHADEDGE
 70
     3
  9
$SHADEDIF
 70
    70
  9
$TILEMODE
 70
     1
  9
$MAXACTVP
 70
    48
  9
$PLIMCHECK
 70
     0
  9
$PEXTMIN
 10
1.0000000000000000E+020
 20
1.0000000000000000E+020
 30
1.0000000000000000E+020
  9
$PEXTMAX
 10
-1.0000000000000000E+020
 20
-1.0000000000000000E+020
 30
-1.0000000000000000E+020
  9
$PLIMMIN
 10
0.0
 20
0.0
  9
$PLIMMAX
 10
12.0
 20
9.0
  9
$UNITMODE
 70
     0
  9
$VISRETAIN
 70
     1
  9
$PLINEGEN
 70
     0
  9
$PSLTSCALE
 70
     1
  0
ENDSEC
  0
SECTION
  2
TABLES
  0
TABLE
  2
VPORT
 70
     2
  0
VPORT
  2
*ACTIVE
 70
     0
 10
0.0
 20
0.0
 11
1.0
 21
1.0
 12
189.56085651407921
 22
127.4297999999999
 13
0.0
 23
0.0
 14
1.0
 24
1.0
 15
0.0
 25
0.0
 16
0.0
 26
0.0
 36
1.0
 17
0.0
 27
0.0
 37
0.0
 40
299.2467506297229
 41
2.1842105263157889
 42
50.0
 43
0.0
 44
0.0
 50
0.0
 51
0.0
 71
     0
 72
   100
 73
     1
 74
     1
 75
     0
 76
     0
 77
     0
 78
     0
  0
ENDTAB
  0
TABLE
  2
LTYPE
 70
     3
  0
LTYPE
  2
CONTINUOUS
 70
     0
  3
Solid line
 72
    65
 73
     0
 40
0.0
  0
LTYPE
  2
AIGENLINE001
 70
     0
  3
generate AI->DXF Converter
 72
    65
 73
     4
 40
5.8561449999999988
 49
3.5278
 49
-0.776115
 49
0.776115
 49
-0.776115
  0
LTYPE
  2
AIGENLINE002
 70
     0
  3
generate AI->DXF Converter
 72
    65
 73
     2
 40
1.5522299999999991
 49
0.776115
 49
-0.776115
  0
ENDTAB
  0
TABLE
  2
LAYER
 70
     2
  0
LAYER
  2
0
 70
     0
 62
     7
  6
CONTINUOUS
  0
LAYER
  2
_________2
 70
     0
 62
     7
  6
CONTINUOUS
  0
ENDTAB
  0
TABLE
  2
STYLE
 70
     1
  0
STYLE
  2
STANDARD
 70
     0
 40
0.0
 41
0.0
 50
0.0
 71
     0
 42
0.0
  3
TXT
  4
EXTFONT.SHX
  0
ENDTAB
  0
TABLE
  2
VIEW
 70
     0
  0
ENDTAB
  0
TABLE
  2
UCS
 70
     0
  0
ENDTAB
  0
TABLE
  2
APPID
 70
     1
  0
APPID
  2
ACAD
 70
     0
  0
ENDTAB
  0
TABLE
  2
DIMSTYLE
 70
     1
  0
DIMSTYLE
  2
STANDARD
 70
     0
  3

  4

  5

  6

  7

 40
1.0
 41
0.18
 42
0.0625
 43
0.38
 44
0.18
 45
0.0
 46
0.0
 47
0.0
 48
0.0
140
0.18
141
0.09
142
0.0
143
25.399999999999999
144
1.0
145
0.0
146
1.0
147
0.09
 71
     0
 72
     0
 73
     1
 74
     1
 75
     0
 76
     0
 77
     0
 78
     0
170
     0
171
     2
172
     0
173
     0
174
     0
175
     0
176
     0
177
     0
178
     0
  0
ENDTAB
  0
ENDSEC
  0
SECTION
  2
BLOCKS
  0
BLOCK
  8
0
  2
$MODEL_SPACE
 70
     0
 10
0.0
 20
0.0
 30
0.0
  3
$MODEL_SPACE
  1

  0
ENDBLK
  5
1A
  8
0
  0
BLOCK
 67
     1
  8
0
  2
$PAPER_SPACE
 70
     0
 10
0.0
 20
0.0
 30
0.0
  3
$PAPER_SPACE
  1

  0
ENDBLK
  5
17
 67
     1
  8
0
  0
ENDSEC
  0
SECTION
  2
ENTITIES
  0
TEXT
  5
23
  8
0
 62
     7
 10
20.353400000000001
 20
38.80749999999999
 30
0.0
 40
3.9357000000000002
  1
・壁取付部には厚さ30mm以上の補強木を入れてください。
 41
0.5
  0
TEXT
  5
24
  8
0
 62
     7
 10
70.004387500000007
 20
119.70699999999999
 30
0.0
 40
3.0923400000000001
  1
280
 41
0.5
 72
     1
 11
71.937100000000001
 21
119.70699999999999
 31
0.0
  0
TEXT
  5
25
  8
0
 62
     7
 10
23.0244
 20
100.40913499999991
 30
0.0
 40
3.0923400000000001
  1
155
 50
90.0
 41
0.5
 72
     1
 11
23.0244
 21
102.21299999999989
 31
0.0
  0
TEXT
  5
26
  8
0
 62
     7
 10
28.6052
 20
114.772745
 30
0.0
 40
3.0923400000000001
  1
40
 50
90.0
 41
0.5
 72
     2
 11
28.6052
 21
117.092
 31
0.0
  0
TEXT
  5
27
  8
0
 62
     7
 10
116.2139999999999
 20
106.6653725
 30
0.0
 40
3.0923400000000001
  1
50
 50
90.0
 41
0.5
 72
     1
 11
116.2139999999999
 21
107.825
 31
0.0
  0
TEXT
  5
28
  8
0
 62
     7
 10
123.036
 20
100.53698249999999
 30
0.0
 40
3.0923400000000001
  1
160
 50
90.0
 41
0.5
 72
     1
 11
123.036
 21
102.212
 31
0.0
  0
TEXT
  5
29
  8
0
 62
     7
 10
24.9068
 20
206.06137249999989
 30
0.0
 40
3.0923400000000001
  1
90
 50
90.0
 41
0.5
 72
     1
 11
24.9068
 21
207.22099999999989
 31
0.0
  0
TEXT
  5
2A
  8
0
 62
     7
 10
164.6292875
 20
86.021799999999999
 30
0.0
 40
3.0923400000000001
  1
230
 41
0.5
 72
     1
 11
166.56200000000001
 21
86.021799999999999
 31
0.0
  0
TEXT
  5
2B
  8
0
 62
     7
 10
70.132935000000003
 20
147.07299999999989
 30
0.0
 40
3.0923400000000001
  1
800
 41
0.5
 72
     1
 11
71.936800000000005
 21
147.07299999999989
 31
0.0
  0
TEXT
  5
2C
  8
0
 62
     7
 10
43.125239999999991
 20
153.821
 30
0.0
 40
3.0923400000000001
  1
265
 41
0.5
 72
     1
 11
45.186799999999991
 21
153.821
 31
0.0
  0
TEXT
  5
2D
  8
0
 62
     7
 10
129.149
 20
184.91713499999989
 30
0.0
 40
3.0923400000000001
  1
500
 50
90.0
 41
0.5
 72
     1
 11
129.149
 21
186.72099999999989
 31
0.0
  0
TEXT
  5
2E
  8
0
 62
     7
 10
121.30199999999989
 20
198.28828749999991
 30
0.0
 40
3.0923400000000001
  1
230
 50
90.0
 41
0.5
 72
     1
 11
121.30199999999989
 21
200.22099999999989
 31
0.0
  0
TEXT
  5
2F
  8
0
 62
     7
 10
38.761382499999989
 20
219.78100000000001
 30
0.0
 40
3.0923400000000001
  1
170
 41
0.5
 72
     1
 11
40.436399999999992
 21
219.78100000000001
 31
0.0
  0
TEXT
  5
30
  8
0
 62
     7
 10
69.613780000000006
 20
181.74799999999991
 30
0.0
 40
3.0923400000000001
  1
%%c46
 41
0.5
 72
     2
 11
73.736900000000006
 21
181.74799999999991
 31
0.0
  0
TEXT
  5
31
  8
0
 62
     7
 10
34.146599999999999
 20
196.2579999999999
 30
0.0
 40
3.0923400000000001
  1
%%c35
 41
0.5
  0
LINE
  5
32
  8
0
 62
     7
 10
31.6799
 20
106.21299999999999
 30
0.0
 11
28.119700000000002
 21
106.21299999999999
 31
0.0
  0
LINE
  5
33
  8
0
 62
     7
 10
54.128599999999999
 20
94.712500000000006
 30
0.0
 11
23.117100000000001
 21
94.712500000000006
 31
0.0
  0
LINE
  5
34
  8
0
 62
     7
 10
31.759799999999998
 20
110.21299999999999
 30
0.0
 11
23.116700000000002
 21
110.21299999999999
 31
0.0
  0
LINE
  5
35
  8
0
 62
     7
 10
57.936900000000001
 20
118.7079999999999
 30
0.0
 11
85.937099999999987
 21
118.7079999999999
 31
0.0
  0
LINE
  5
36
  8
0
 62
     7
 10
85.937099999999987
 20
107.65299999999991
 30
0.0
 11
85.937099999999987
 21
119.70699999999999
 31
0.0
  0
LINE
  5
37
  8
0
 62
     7
 10
57.936900000000001
 20
107.95099999999999
 30
0.0
 11
57.936900000000001
 21
119.70699999999999
 31
0.0
  0
LINE
  5
38
  8
0
 62
     7
 10
83.725999999999999
 20
118.1159999999999
 30
0.0
 11
85.937099999999987
 21
118.7079999999999
 31
0.0
  0
LINE
  5
39
  8
0
 62
     7
 10
85.937099999999987
 20
118.7079999999999
 30
0.0
 11
83.725999999999999
 21
119.3
 31
0.0
  0
LINE
  5
3A
  8
0
 62
     7
 10
83.725999999999999
 20
119.3
 30
0.0
 11
83.725999999999999
 21
118.1159999999999
 31
0.0
  0
LINE
  5
3B
  8
0
 62
     7
 10
60.14800000000001
 20
119.3
 30
0.0
 11
57.936900000000001
 21
118.7079999999999
 31
0.0
  0
LINE
  5
3C
  8
0
 62
     7
 10
57.936900000000001
 20
118.7079999999999
 30
0.0
 11
60.14800000000001
 21
118.1149999999999
 31
0.0
  0
LINE
  5
3D
  8
0
 62
     7
 10
60.14800000000001
 20
118.1149999999999
 30
0.0
 11
60.14800000000001
 21
119.3
 31
0.0
  0
ARC
  5
3E
  8
0
 62
     7
 10
80.191420999999991
 20
179.83437499999991
 30
0.0
 40
18.789635999999991
 50
57.887702000000012
 51
77.236151000000021
  0
ARC
  5
3F
  8
0
 62
     7
 10
82.635917000000006
 20
184.07499899999991
 30
0.0
 40
13.899562
 50
51.747540999999998
 51
57.130343999999987
  0
ARC
  5
40
  8
0
 62
     7
 10
60.406911999999998
 20
110.41785400000001
 30
0.0
 40
90.515647000000001
 50
86.028584999999993
 51
90.458091999999979
  0
ARC
  5
41
  8
0
 62
     7
 10
58.950986
 20
82.536919999999995
 30
0.0
 40
118.431434
 50
79.60265200000002
 51
86.260109999999997
  0
ARC
  5
42
  8
0
 62
     7
 10
66.548113000000001
 20
125.1816189999999
 30
0.0
 40
75.116220999999996
 50
76.296716000000004
 51
79.431903000000005
  0
ARC
  5
43
  8
0
 62
     7
 10
82.675582999999989
 20
184.37523100000001
 30
0.0
 40
13.640112
 50
32.750048
 51
51.097569
  0
ARC
  5
44
  8
0
 62
     7
 10
84.808537999999999
 20
185.95802199999989
 30
0.0
 40
10.99139499999999
 50
0.060712
 51
31.825710000000001
  0
ARC
  5
45
  8
0
 62
     7
 10
67.066153999999997
 20
176.2589679999999
 30
0.0
 40
26.186394
 50
168.64485799999991
 51
179.98426199999989
  0
ARC
  5
46
  8
0
 62
     7
 10
77.844375999999997
 20
174.39736099999999
 30
0.0
 40
37.121358000000001
 50
157.2196439999999
 51
169.1031989999999
  0
ARC
  5
47
  8
0
 62
     7
 10
80.748686000000006
 20
190.93001599999991
 30
0.0
 40
17.107990000000001
 50
300.86551800000001
 51
313.72730699999988
  0
ARC
  5
48
  8
0
 62
     7
 10
84.475525000000005
 20
186.80648199999999
 30
0.0
 40
11.553146
 50
314.50664999999992
 51
336.166563
  0
ARC
  5
49
  8
0
 62
     7
 10
86.029098000000005
 20
185.90824900000001
 30
0.0
 40
9.7710210000000011
 50
337.30345599999998
 51
0.360164
  0
ARC
  5
4A
  8
0
 62
     7
 10
50.481375
 20
188.99631899999989
 30
0.0
 40
20.277408999999992
 50
270.08741700000002
 51
272.6995609999999
  0
ARC
  5
4B
  8
0
 62
     7
 10
48.664613000000003
 20
233.31950599999999
 30
0.0
 40
64.637551000000002
 50
272.45773300000002
 51
274.15102100000001
  0
ARC
  5
4C
  8
0
 62
     7
 10
42.480698999999987
 20
320.26389499999988
 30
0.0
 40
151.80153899999991
 50
274.10353300000003
 51
276.549778
  0
ARC
  5
4D
  8
0
 62
     7
 10
37.748148
 20
367.49441000000002
 30
0.0
 40
199.264791
 50
276.35260199999999
 51
280.41395699999993
  0
ARC
  5
4E
  8
0
 62
     7
 10
51.534602
 20
289.85058500000002
 30
0.0
 40
120.408873
 50
280.64018799999991
 51
283.33934900000003
  0
ARC
  5
4F
  8
0
 62
     7
 10
62.10822499999999
 20
244.8593919999999
 30
0.0
 40
74.192044999999993
 50
283.41033499999998
 51
286.91982899999988
  0
ARC
  5
50
  8
0
 62
     7
 10
71.103206
 20
214.97255000000001
 30
0.0
 40
42.981177999999993
 50
287.04306600000001
 51
291.58749699999998
  0
ARC
  5
51
  8
0
 62
     7
 10
78.615571000000003
 20
195.8533369999999
 30
0.0
 40
22.439139000000001
 50
291.71247499999998
 51
299.091205
  0
ARC
  5
52
  8
0
 62
     7
 10
50.494140000000002
 20
193.83888899999991
 30
0.0
 40
25.119962000000001
 50
262.75370800000002
 51
270.04145199999988
  0
ARC
  5
53
  8
0
 62
     7
 10
49.107674000000003
 20
181.88484399999999
 30
0.0
 40
13.087180999999999
 50
250.83602999999999
 51
262.17391800000001
  0
ARC
  5
54
  8
0
 62
     7
 10
47.296731999999992
 20
176.33789699999991
 30
0.0
 40
7.253985000000001
 50
234.1771609999999
 51
249.964572
  0
ARC
  5
55
  8
0
 62
     7
 10
46.103054999999991
 20
174.50640799999991
 30
0.0
 40
5.071388999999999
 50
194.24009599999999
 51
233.00135700000001
  0
ARC
  5
56
  8
0
 62
     7
 10
48.961837000000003
 20
175.34470899999991
 30
0.0
 40
8.0492840000000001
 50
184.23002999999991
 51
195.01830399999989
  0
ARC
  5
57
  8
0
 62
     7
 10
57.210273999999998
 20
176.09733799999989
 30
0.0
 40
16.331385000000001
 50
179.40771599999999
 51
184.728813
  0
ARC
  5
58
  8
0
 62
     7
 10
79.424983999999995
 20
172.19656000000001
 30
0.0
 40
39.456277999999998
 50
148.5102949999999
 51
155.16135499999999
  0
ARC
  5
59
  8
0
 62
     7
 10
67.322879
 20
179.42687699999991
 30
0.0
 40
25.360157999999991
 50
138.75161199999999
 51
148.15798799999999
  0
ARC
  5
5A
  8
0
 62
     7
 10
60.583026000000011
 20
185.16050999999999
 30
0.0
 40
16.512951999999991
 50
123.232586
 51
138.290583
  0
ARC
  5
5B
  8
0
 62
     7
 10
58.183413000000002
 20
188.439156
 30
0.0
 40
12.457212999999999
 50
92.747194999999991
 51
122.26512099999989
  0
ARC
  5
5C
  8
0
 62
     7
 10
59.255631000000008
 20
174.094393
 30
0.0
 40
26.839621000000001
 50
89.087176000000014
 51
93.565791000000019
  0
ARC
  5
5D
  8
0
 62
     7
 10
58.437455999999997
 20
188.72076799999991
 30
0.0
 40
3.7500110000000002
 50
270.00002000000001
 51
359.99998999999991
  0
ARC
  5
5E
  8
0
 62
     7
 10
58.437455999999997
 20
188.720767
 30
0.0
 40
3.750008999999999
 50
179.99996999999991
 51
270.00002000000001
  0
ARC
  5
5F
  8
0
 62
     7
 10
58.437543999999988
 20
188.72085300000001
 30
0.0
 40
3.7500969999999998
 50
90.001315999999989
 51
180.00132600000001
  0
ARC
  5
60
  8
0
 62
     7
 10
58.437369999999987
 20
188.72085300000001
 30
0.0
 40
3.7500969999999998
 50
359.99869399999989
 51
89.998664000000005
  0
ARC
  5
61
  8
0
 62
     7
 10
58.437456999999988
 20
188.721113
 30
0.0
 40
2.2999610000000001
 50
270.00002000000001
 51
359.99998999999991
  0
ARC
  5
62
  8
0
 62
     7
 10
58.437456999999988
 20
188.72111200000001
 30
0.0
 40
2.29996
 50
179.99996999999991
 51
270.00002000000001
  0
ARC
  5
63
  8
0
 62
     7
 10
58.437543999999988
 20
188.72119799999999
 30
0.0
 40
2.3000470000000002
 50
90.002145999999996
 51
180.0021549999999
  0
ARC
  5
64
  8
0
 62
     7
 10
58.437370999999999
 20
188.72119799999999
 30
0.0
 40
2.3000470000000002
 50
359.99786399999988
 51
89.997834999999995
  0
ARC
  5
65
  8
0
 62
     7
 10
110.940527
 20
162.72115700000001
 30
0.0
 40
1.000289999999999
 50
269.99015299999991
 51
359.99012299999993
  0
ARC
  5
66
  8
0
 62
     7
 10
32.93669899999999
 20
162.72098399999999
 30
0.0
 40
1.000116999999999
 50
179.99996999999991
 51
270.00002000000001
  0
ARC
  5
67
  8
0
 62
     7
 10
32.33319199999999
 20
211.324793
 30
0.0
 40
0.396878
 50
92.100613999999993
 51
177.89935600000001
  0
ARC
  5
68
  8
0
 62
     7
 10
111.54399600000001
 20
211.32456999999999
 30
0.0
 40
0.397096
 50
2.131721999999999
 51
87.919909000000004
  0
LINE
  5
69
  8
0
  6
AIGENLINE001
 62
     7
 10
64.060900000000004
 20
188.72099999999989
 30
0.0
 11
58.4375
 21
188.72099999999989
 31
0.0
  0
LINE
  5
6A
  8
0
  6
AIGENLINE001
 62
     7
 10
58.4375
 20
188.72099999999989
 30
0.0
 11
52.813999999999993
 21
188.72099999999989
 31
0.0
  0
ARC
  5
6B
  8
0
 62
     7
 10
48.936771
 20
202.72146599999991
 30
0.0
 40
1.7498610000000001
 50
359.99718999999988
 51
89.997159999999994
  0
ARC
  5
6C
  8
0
 62
     7
 10
49.00446500000001
 20
202.653593
 30
0.0
 40
1.818991
 50
92.130040000000008
 51
177.8642899999999
  0
ARC
  5
6D
  8
0
 62
     7
 10
49.004089
 20
202.788612
 30
0.0
 40
1.818595
 50
182.1186899999999
 51
267.88133999999991
  0
ARC
  5
6E
  8
0
 62
     7
 10
48.936684999999997
 20
202.72120799999999
 30
0.0
 40
1.7499480000000001
 50
270.00565999999998
 51
0.00563
  0
LINE
  5
6F
  8
0
  6
AIGENLINE001
 62
     7
 10
48.936900000000001
 20
199.91199999999989
 30
0.0
 11
48.936900000000001
 21
202.72099999999989
 31
0.0
  0
LINE
  5
70
  8
0
  6
AIGENLINE001
 62
     7
 10
48.936900000000001
 20
202.72099999999989
 30
0.0
 11
48.936900000000001
 21
205.52999999999989
 31
0.0
  0
LINE
  5
71
  8
0
  6
AIGENLINE001
 62
     7
 10
51.744599999999991
 20
202.72099999999989
 30
0.0
 11
48.936900000000001
 21
202.72099999999989
 31
0.0
  0
LINE
  5
72
  8
0
  6
AIGENLINE001
 62
     7
 10
48.936900000000001
 20
202.72099999999989
 30
0.0
 11
46.128700000000002
 21
202.72099999999989
 31
0.0
  0
LINE
  5
73
  8
0
  6
AIGENLINE001
 62
     7
 10
57.936900000000001
 20
214.41599999999991
 30
0.0
 11
57.936900000000001
 21
208.79900000000001
 31
0.0
  0
LINE
  5
74
  8
0
  6
AIGENLINE001
 62
     7
 10
85.937099999999987
 20
214.41599999999991
 30
0.0
 11
85.937099999999987
 21
208.79900000000001
 31
0.0
  0
LINE
  5
75
  8
0
  6
AIGENLINE001
 62
     7
 10
58.436799999999991
 20
194.33799999999991
 30
0.0
 11
58.436799999999991
 21
188.72099999999989
 31
0.0
  0
LINE
  5
76
  8
0
  6
AIGENLINE001
 62
     7
 10
58.436799999999991
 20
188.72099999999989
 30
0.0
 11
58.436799999999991
 21
183.10299999999989
 31
0.0
  0
LINE
  5
77
  8
0
 62
     7
 10
32.936700000000002
 20
161.721
 30
0.0
 11
110.9399999999999
 21
161.721
 31
0.0
  0
LINE
  5
78
  8
0
 62
     7
 10
111.941
 20
162.721
 30
0.0
 11
111.941
 21
211.339
 31
0.0
  0
LINE
  5
79
  8
0
 62
     7
 10
111.55800000000001
 20
211.72099999999989
 30
0.0
 11
32.318600000000004
 21
211.72099999999989
 31
0.0
  0
LINE
  5
7A
  8
0
 62
     7
 10
31.936599999999991
 20
211.339
 30
0.0
 11
31.936599999999991
 21
162.721
 31
0.0
  0
LINE
  5
7B
  8
0
 62
     7
 10
71.936800000000005
 20
110.21299999999999
 30
0.0
 11
111.1169999999999
 21
110.21299999999999
 31
0.0
  0
LINE
  5
7C
  8
0
 62
     7
 10
32.759999999999991
 20
110.21299999999999
 30
0.0
 11
71.936800000000005
 21
110.21299999999999
 31
0.0
  0
ARC
  5
7D
  8
0
  6
AIGENLINE002
 62
     7
 10
86.398343000000025
 20
105.25147699999999
 30
0.0
 40
1.0394639999999991
 50
272.12901799999997
 51
357.85125199999987
  0
ARC
  5
7E
  8
0
  6
AIGENLINE002
 62
     7
 10
86.436785999999984
 20
105.2126749999999
 30
0.0
 40
1.000289999999999
 50
359.99014299999999
 51
89.990113000000008
  0
LINE
  5
7F
  8
0
  6
AIGENLINE002
 62
     7
 10
86.436999999999998
 20
106.21299999999999
 30
0.0
 11
85.436800000000005
 21
106.21299999999999
 31
0.0
  0
ARC
  5
80
  8
0
  6
AIGENLINE002
 62
     7
 10
85.475523999999979
 20
105.17453500000001
 30
0.0
 40
1.03915
 50
92.133369999999999
 51
177.90607299999991
  0
ARC
  5
81
  8
0
  6
AIGENLINE002
 62
     7
 10
85.475077999999996
 20
105.25073999999989
 30
0.0
 40
1.038713999999999
 50
182.10967400000001
 51
267.890356
  0
LINE
  5
82
  8
0
  6
AIGENLINE002
 62
     7
 10
85.436800000000005
 20
104.21299999999999
 30
0.0
 11
86.436999999999998
 21
104.21299999999999
 31
0.0
  0
ARC
  5
83
  8
0
  6
AIGENLINE002
 62
     7
 10
58.398152000000003
 20
105.25147699999999
 30
0.0
 40
1.0394639999999991
 50
272.12901799999997
 51
357.85125199999987
  0
ARC
  5
84
  8
0
  6
AIGENLINE002
 62
     7
 10
58.436595999999987
 20
105.2126749999999
 30
0.0
 40
1.000289999999999
 50
359.99014299999999
 51
89.990113000000008
  0
LINE
  5
85
  8
0
  6
AIGENLINE002
 62
     7
 10
58.436799999999991
 20
106.21299999999999
 30
0.0
 11
57.436999999999998
 21
106.21299999999999
 31
0.0
  0
ARC
  5
86
  8
0
  6
AIGENLINE002
 62
     7
 10
57.475653999999999
 20
105.17420199999999
 30
0.0
 40
1.039482
 50
92.131343000000001
 51
177.88836000000001
  0
ARC
  5
87
  8
0
  6
AIGENLINE002
 62
     7
 10
57.474899000000001
 20
105.2507649999999
 30
0.0
 40
1.038726
 50
182.11099300000001
 51
267.90877699999987
  0
LINE
  5
88
  8
0
  6
AIGENLINE002
 62
     7
 10
57.436999999999998
 20
104.21299999999999
 30
0.0
 11
58.436799999999991
 21
104.21299999999999
 31
0.0
  0
ARC
  5
89
  8
0
 62
     7
 10
85.479817000000011
 20
85.363228000000007
 30
0.0
 40
15.115084
 50
78.193039999999996
 51
81.190831000000003
  0
ARC
  5
8A
  8
0
 62
     7
 10
83.486368999999996
 20
72.772584999999992
 30
0.0
 40
27.862522999999999
 50
81.104968999999997
 51
83.801658999999987
  0
ARC
  5
8B
  8
0
 62
     7
 10
81.105964
 20
51.386296000000002
 30
0.0
 40
49.380835999999988
 50
83.735055999999986
 51
85.644980999999987
  0
ARC
  5
8C
  8
0
 62
     7
 10
78.486773999999997
 20
17.158878999999999
 30
0.0
 40
83.708320000000001
 50
85.636403000000016
 51
87.223093000000006
  0
ARC
  5
8D
  8
0
 62
     7
 10
75.896264000000002
 20
-35.722476
 30
0.0
 40
136.65308400000001
 50
87.212390999999997
 51
88.467365999999984
  0
ARC
  5
8E
  8
0
 62
     7
 10
73.728142000000005
 20
-115.4970049999999
 30
0.0
 40
216.457066
 50
88.458449999999999
 51
89.473893000000004
  0
ARC
  5
8F
  8
0
 62
     7
 10
71.959671
 20
-332.734284
 30
0.0
 40
433.70148399999999
 50
89.503786000000005
 51
90.300668000000002
  0
ARC
  5
90
  8
0
 62
     7
 10
85.883891000000006
 20
88.739858999999996
 30
0.0
 40
10.583515
 50
75.282950999999997
 51
78.752188000000004
  0
ARC
  5
91
  8
0
 62
     7
 10
84.232370999999986
 20
80.523996999999994
 30
0.0
 40
18.963714
 50
78.699999000000005
 51
82.055123999999992
  0
ARC
  5
92
  8
0
 62
     7
 10
82.207843000000011
 20
66.242245999999994
 30
0.0
 40
33.388227000000001
 50
82.001806999999999
 51
84.427788000000007
  0
ARC
  5
93
  8
0
 62
     7
 10
80.031858999999997
 20
44.042854999999989
 30
0.0
 40
55.694006000000009
 50
84.417356999999996
 51
86.361992000000001
  0
ARC
  5
94
  8
0
 62
     7
 10
77.859215000000006
 20
10.164664
 30
0.0
 40
89.641789999999986
 50
86.350095999999994
 51
87.870784999999984
  0
ARC
  5
95
  8
0
 62
     7
 10
76.004570000000001
 20
-39.153370000000002
 30
0.0
 40
138.99468100000001
 50
87.862109000000018
 51
89.088853999999998
  0
ARC
  5
96
  8
0
 62
     7
 10
74.758533999999997
 20
-116.349332
 30
0.0
 40
216.20069799999999
 50
89.083994999999987
 51
90.094437000000013
  0
ARC
  5
97
  8
0
 62
     7
 10
77.312215000000009
 20
-823.74665300000004
 30
0.0
 40
923.60230999999999
 50
90.180516999999995
 51
90.450576000000012
  0
ARC
  5
98
  8
0
 62
     7
 10
94.626498999999995
 20
96.336181999999994
 30
0.0
 40
1.6289569999999991
 50
24.368715999999988
 51
45.526434999999999
  0
ARC
  5
99
  8
0
 62
     7
 10
93.556629999999984
 20
95.374701999999985
 30
0.0
 40
3.06589
 50
43.847297999999988
 51
51.659748
  0
ARC
  5
9A
  8
0
 62
     7
 10
92.503846999999993
 20
94.046587000000002
 30
0.0
 40
4.7606580000000003
 50
51.637228999999991
 51
58.561695999999998
  0
ARC
  5
9B
  8
0
 62
     7
 10
90.458849999999998
 20
90.667439999999985
 30
0.0
 40
8.7104020000000002
 50
58.678121999999988
 51
68.899613000000002
  0
ARC
  5
9C
  8
0
 62
     7
 10
86.597909999999999
 20
81.342432999999986
 30
0.0
 40
18.801724
 50
68.152869999999993
 51
75.108226999999999
  0
ARC
  5
9D
  8
0
 62
     7
 10
82.868250000000003
 20
68.279337999999996
 30
0.0
 40
32.385514000000001
 50
74.670783
 51
79.855070999999995
  0
ARC
  5
9E
  8
0
 62
     7
 10
91.618840000000006
 20
96.439486000000016
 30
0.0
 40
1.298273
 50
23.274906000000001
 51
46.460224999999987
  0
ARC
  5
9F
  8
0
 62
     7
 10
90.856884999999991
 20
95.717480000000009
 30
0.0
 40
2.347175
 50
45.118046
 51
54.652120000000011
  0
ARC
  5
A0
  8
0
 62
     7
 10
89.976570999999993
 20
94.480427000000006
 30
0.0
 40
3.8654809999999991
 50
54.617308999999999
 51
62.153834000000003
  0
ARC
  5
A1
  8
0
 62
     7
 10
88.645971000000003
 20
91.976495
 30
0.0
 40
6.7009949999999989
 50
62.094506999999993
 51
67.796105000000011
  0
ARC
  5
A2
  8
0
 62
     7
 10
86.792091999999997
 20
87.462870999999993
 30
0.0
 40
11.58050299999999
 50
67.743215000000006
 51
72.057198
  0
ARC
  5
A3
  8
0
 62
     7
 10
83.567166999999984
 20
77.474305000000001
 30
0.0
 40
22.07676699999999
 50
72.080740000000006
 51
76.895483999999996
  0
ARC
  5
A4
  8
0
 62
     7
 10
84.258814999999998
 20
93.195432999999994
 30
0.0
 40
9.2045940000000002
 50
6.6617199999999999
 51
10.326438
  0
ARC
  5
A5
  8
0
 62
     7
 10
78.572806
 20
92.153813
 30
0.0
 40
14.985222
 50
10.347448999999999
 51
13.990052999999991
  0
ARC
  5
A6
  8
0
 62
     7
 10
-58.910214000000003
 20
57.352134
 30
0.0
 40
156.80450999999999
 50
14.184585
 51
14.628223
  0
ARC
  5
A7
  8
0
 62
     7
 10
493.08436999999998
 20
208.0766209999999
 30
0.0
 40
412.219067
 50
195.63096699999991
 51
196.007924
  0
ARC
  5
A8
  8
0
 62
     7
 10
53.945346000000001
 20
85.041356000000007
 30
0.0
 40
15.394754999999989
 50
98.865410999999995
 51
101.809003
  0
ARC
  5
A9
  8
0
 62
     7
 10
55.988368999999992
 20
72.228292999999994
 30
0.0
 40
28.369634000000001
 50
96.305166000000014
 51
98.954154000000003
  0
ARC
  5
AA
  8
0
 62
     7
 10
58.605224
 20
48.919895000000011
 30
0.0
 40
51.824449999999999
 50
94.355328999999998
 51
96.350717000000003
  0
ARC
  5
AB
  8
0
 62
     7
 10
61.391976
 20
12.679183
 30
0.0
 40
88.172143000000005
 50
92.856863000000004
 51
94.37256099999999
  0
ARC
  5
AC
  8
0
 62
     7
 10
64.104623000000004
 20
-41.131448999999989
 30
0.0
 40
142.05110099999999
 50
91.658169999999998
 51
92.867870999999965
  0
ARC
  5
AD
  8
0
 62
     7
 10
66.410795999999991
 20
-119.529971
 30
0.0
 40
220.48352999999989
 50
90.673662999999991
 51
91.667684999999992
  0
ARC
  5
AE
  8
0
 62
     7
 10
68.269017000000005
 20
-287.66207400000002
 30
0.0
 40
388.62587699999989
 50
89.791421
 51
90.656159000000017
  0
ARC
  5
AF
  8
0
 62
     7
 10
55.911515999999999
 20
78.441493000000008
 30
0.0
 40
21.078229999999991
 50
97.349836999999994
 51
103.04025799999999
  0
ARC
  5
B0
  8
0
 62
     7
 10
58.635057000000003
 20
58.979027000000002
 30
0.0
 40
40.729747999999987
 50
92.815173000000001
 51
97.647190000000009
  0
ARC
  5
B1
  8
0
 62
     7
 10
61.382679000000003
 20
14.643312
 30
0.0
 40
85.148790000000005
 50
91.586708999999999
 51
93.196557999999996
  0
ARC
  5
B2
  8
0
 62
     7
 10
63.417031000000009
 20
-58.150140999999998
 30
0.0
 40
157.970663
 50
90.459778999999997
 51
91.593210999999997
  0
ARC
  5
B3
  8
0
 62
     7
 10
67.132761000000002
 20
-600.48639600000001
 30
0.0
 40
700.31956300000002
 50
89.761410999999995
 51
90.407705000000007
  0
ARC
  5
B4
  8
0
 62
     7
 10
45.171665999999988
 20
96.306671999999992
 30
0.0
 40
1.7035450000000001
 50
134.364238
 51
155.677997
  0
ARC
  5
B5
  8
0
 62
     7
 10
46.579685999999988
 20
94.976840999999993
 30
0.0
 40
3.6395749999999989
 50
119.6181909999999
 51
135.572799
  0
ARC
  5
B6
  8
0
 62
     7
 10
48.607148000000002
 20
91.762197
 30
0.0
 40
7.4382270000000004
 50
115.72265299999999
 51
120.957184
  0
ARC
  5
B7
  8
0
 62
     7
 10
50.372771999999998
 20
88.098528999999999
 30
0.0
 40
11.505153
 50
111.35726099999999
 51
115.7254989999999
  0
ARC
  5
B8
  8
0
 62
     7
 10
53.637908000000003
 20
79.643799000000001
 30
0.0
 40
20.568417
 50
104.51711
 51
111.25098300000001
  0
ARC
  5
B9
  8
0
 62
     7
 10
59.868243000000007
 20
57.185260999999997
 30
0.0
 40
43.873509999999989
 50
101.9354019999999
 51
105.0417769999999
  0
ARC
  5
BA
  8
0
 62
     7
 10
47.871115000000003
 20
96.614982999999995
 30
0.0
 40
1.0116459999999989
 50
133.55547899999991
 51
160.469798
  0
ARC
  5
BB
  8
0
 62
     7
 10
48.736244999999997
 20
95.830126000000007
 30
0.0
 40
2.1782650000000001
 50
125.79723799999999
 51
135.8222529999999
  0
ARC
  5
BC
  8
0
 62
     7
 10
49.689170000000011
 20
94.517702
 30
0.0
 40
3.8001489999999989
 50
118.25608099999999
 51
125.8763549999999
  0
ARC
  5
BD
  8
0
 62
     7
 10
51.071860000000001
 20
91.964802000000006
 30
0.0
 40
6.7034359999999991
 50
112.6268699999999
 51
118.33601899999999
  0
ARC
  5
BE
  8
0
 62
     7
 10
52.907001000000001
 20
87.592667000000006
 30
0.0
 40
11.445085000000001
 50
108.3125209999999
 51
112.685969
  0
ARC
  5
BF
  8
0
 62
     7
 10
55.946053000000013
 20
78.374870000000001
 30
0.0
 40
21.150935999999991
 50
103.09068000000001
 51
108.282484
  0
ARC
  5
C0
  8
0
 62
     7
 10
55.48048399999999
 20
93.183503999999985
 30
0.0
 40
9.214955999999999
 50
169.67256
 51
173.33150000000001
  0
ARC
  5
C1
  8
0
 62
     7
 10
61.163531000000013
 20
92.141966999999994
 30
0.0
 40
14.99265499999999
 50
166.0096969999999
 51
169.650217
  0
ARC
  5
C2
  8
0
 62
     7
 10
194.34806
 20
58.433865000000011
 30
0.0
 40
152.37652999999989
 50
165.3615749999999
 51
165.81797900000001
  0
ARC
  5
C3
  8
0
 62
     7
 10
-315.84377999999992
 20
197.48300900000001
 30
0.0
 40
373.2410569999999
 50
343.98984299999989
 51
344.38361800000001
  0
ARC
  5
C4
  8
0
 62
     7
 10
37.392884000000002
 20
105.8927259999999
 30
0.0
 40
0.320322
 50
59.778980000000011
 51
88.692577
  0
ARC
  5
C5
  8
0
 62
     7
 10
37.213054
 20
105.59528400000001
 30
0.0
 40
0.6678790000000001
 50
41.341239999999992
 51
59.292056000000002
  0
ARC
  5
C6
  8
0
 62
     7
 10
36.443595999999999
 20
104.9066429999999
 30
0.0
 40
1.700477999999999
 50
30.767963999999999
 51
41.636536999999997
  0
ARC
  5
C7
  8
0
 62
     7
 10
33.312175000000003
 20
103.04416499999989
 30
0.0
 40
5.3439129999999988
 50
20.553972999999999
 51
30.750914000000002
  0
ARC
  5
C8
  8
0
 62
     7
 10
108.4255519999999
 20
103.448717
 30
0.0
 40
4.0727890000000002
 50
140.96437399999991
 51
146.239698
  0
ARC
  5
C9
  8
0
 62
     7
 10
105.711573
 20
105.62115
 30
0.0
 40
0.596887
 50
82.525825999999995
 51
138.86882800000001
  0
ARC
  5
CA
  8
0
 62
     7
 10
96.461154000000008
 20
95.200430000000011
 30
0.0
 40
0.9875079999999998
 50
270.27346399999999
 51
312.17247300000002
  0
ARC
  5
CB
  8
0
 62
     7
 10
95.793167999999994
 20
96.103149999999985
 30
0.0
 40
2.1079249999999989
 50
309.15418899999997
 51
319.41318299999989
  0
ARC
  5
CC
  8
0
 62
     7
 10
93.878219000000001
 20
97.730211999999995
 30
0.0
 40
4.6207549999999991
 50
319.54016100000001
 51
326.231943
  0
ARC
  5
CD
  8
0
 62
     7
 10
154.95518300000001
 20
53.88935
 30
0.0
 40
70.564515
 50
143.821832
 51
144.204747
  0
ARC
  5
CE
  8
0
 62
     7
 10
93.368473999999992
 20
95.047741000000002
 30
0.0
 40
0.8349530000000001
 50
208.89696699999999
 51
271.06808699999999
  0
ARC
  5
CF
  8
0
 62
     7
 10
87.113490999999996
 20
95.633880000000005
 30
0.0
 40
4.2308440000000003
 50
38.050179999999997
 51
43.397180999999989
  0
ARC
  5
D0
  8
0
 62
     7
 10
83.640349000000001
 20
92.792568000000003
 30
0.0
 40
8.7176270000000002
 50
30.421014
 51
38.686239
  0
LINE
  5
D1
  8
0
 62
     7
 10
91.157799999999995
 20
97.206699999999998
 30
0.0
 11
92.637499999999989
 21
94.644300000000001
 31
0.0
  0
ARC
  5
D2
  8
0
 62
     7
 10
68.698318999999998
 20
133.77550500000001
 30
0.0
 40
35.055174000000001
 50
279.71294799999993
 51
284.18514299999998
  0
ARC
  5
D3
  8
0
 62
     7
 10
63.386772000000001
 20
162.907906
 30
0.0
 40
64.666888999999998
 50
276.300792
 51
279.99684899999988
  0
ARC
  5
D4
  8
0
 62
     7
 10
58.707529000000001
 20
202.3298299999999
 30
0.0
 40
104.36472500000001
 50
272.27478600000001
 51
276.47894400000001
  0
ARC
  5
D5
  8
0
 62
     7
 10
62.881992000000011
 20
97.257394000000005
 30
0.0
 40
0.790604
 50
92.321791999999988
 51
177.678178
  0
ARC
  5
D6
  8
0
 62
     7
 10
61.646393999999987
 20
95.008587000000006
 30
0.0
 40
0.296325
 50
272.16890099999989
 51
357.90034900000001
  0
ARC
  5
D7
  8
0
 62
     7
 10
55.139724999999999
 20
95.008331000000013
 30
0.0
 40
0.296059
 50
182.05198300000001
 51
267.87880799999988
  0
LINE
  5
D8
  8
0
 62
     7
 10
93.384
 20
94.212900000000005
 30
0.0
 11
96.465900000000005
 21
94.212900000000005
 31
0.0
  0
ARC
  5
D9
  8
0
 62
     7
 10
54.176792000000013
 20
97.297442000000004
 30
0.0
 40
0.5915090000000001
 50
1.626112
 51
16.474589000000002
  0
ARC
  5
DA
  8
0
 62
     7
 10
53.938549999999999
 20
97.239594999999994
 30
0.0
 40
0.836462
 50
15.646359
 51
82.050381000000016
  0
ARC
  5
DB
  8
0
 62
     7
 10
52.833539999999999
 20
106.468159
 30
0.0
 40
8.0597469999999998
 50
252.32834099999991
 51
256.14114699999999
  0
ARC
  5
DC
  8
0
 62
     7
 10
56.549984000000002
 20
120.667607
 30
0.0
 40
22.736978000000001
 50
255.61939899999999
 51
263.69817699999987
  0
ARC
  5
DD
  8
0
 62
     7
 10
46.304701999999999
 20
95.118891000000005
 30
0.0
 40
0.9063489999999999
 50
271.68263999999988
 51
328.42113499999999
  0
ARC
  5
DE
  8
0
 62
     7
 10
54.564366
 20
110.16557399999991
 30
0.0
 40
17.074096000000001
 50
197.89077800000001
 51
200.51129499999999
  0
ARC
  5
DF
  8
0
 62
     7
 10
102.7865119999999
 20
127.88478000000001
 30
0.0
 40
68.448438999999993
 50
200.25952599999999
 51
201.91055700000001
  0
ARC
  5
E0
  8
0
 62
     7
 10
158.92192199999991
 20
150.172809
 30
0.0
 40
128.84630300000001
 50
201.79080699999989
 51
204.36237399999999
  0
ARC
  5
E1
  8
0
 62
     7
 10
62.709412
 20
106.5416059999999
 30
0.0
 40
23.202985999999999
 50
204.21960699999991
 51
208.099164
  0
ARC
  5
E2
  8
0
 62
     7
 10
35.24837999999999
 20
92.172580000000011
 30
0.0
 40
7.7934080000000003
 50
22.189197
 51
26.196826999999999
  0
ARC
  5
E3
  8
0
 62
     7
 10
44.888148000000001
 20
96.155929999999998
 30
0.0
 40
2.6372640000000001
 50
203.22635899999989
 51
214.496387
  0
ARC
  5
E4
  8
0
 62
     7
 10
43.641811999999987
 20
95.293245999999996
 30
0.0
 40
1.1215079999999991
 50
214.23460299999999
 51
243.46114999999989
  0
ARC
  5
E5
  8
0
 62
     7
 10
43.507292999999997
 20
95.118139999999997
 30
0.0
 40
0.9057290000000001
 50
246.12573499999999
 51
271.94376299999988
  0
ARC
  5
E6
  8
0
 62
     7
 10
114.6915659999999
 20
107.699797
 30
0.0
 40
2.8188909999999989
 50
177.196247
 51
183.815765
  0
ARC
  5
E7
  8
0
 62
     7
 10
109.2204149999999
 20
107.25408
 30
0.0
 40
2.671009999999999
 50
349.87301500000001
 51
5.5456979999999998
  0
ARC
  5
E8
  8
0
 62
     7
 10
111.048749
 20
106.91820899999991
 30
0.0
 40
0.812156
 50
316.967218
 51
350.519338
  0
ARC
  5
E9
  8
0
 62
     7
 10
111.24265699999999
 20
106.81076400000001
 30
0.0
 40
0.599512
 50
265.66690099999988
 51
311.81979000000001
  0
ARC
  5
EA
  8
0
 62
     7
 10
117.642112
 20
107.66791499999989
 30
0.0
 40
5.768561
 50
173.62318400000001
 51
178.31353100000001
  0
ARC
  5
EB
  8
0
 62
     7
 10
106.5272809999999
 20
108.895054
 30
0.0
 40
5.413816999999999
 50
353.781297
 51
2.7992259999999991
  0
ARC
  5
EC
  8
0
 62
     7
 10
109.7590379999999
 20
109.0573
 30
0.0
 40
2.1779959999999989
 50
2.688083999999999
 51
13.813021000000001
  0
ARC
  5
ED
  8
0
 62
     7
 10
110.9116949999999
 20
109.350673
 30
0.0
 40
0.988678
 50
13.251585
 51
44.184058999999998
  0
ARC
  5
EE
  8
0
 62
     7
 10
111.1598629999999
 20
109.5178809999999
 30
0.0
 40
0.6962020000000001
 50
48.554966
 51
93.550734000000006
  0
ARC
  5
EF
  8
0
 62
     7
 10
29.16521599999999
 20
107.70133799999989
 30
0.0
 40
2.839408999999999
 50
356.18070599999999
 51
2.7523260000000001
  0
ARC
  5
F0
  8
0
 62
     7
 10
34.652656999999991
 20
107.2535629999999
 30
0.0
 40
2.6669089999999991
 50
174.434583
 51
190.131472
  0
ARC
  5
F1
  8
0
 62
     7
 10
32.828171999999988
 20
106.918204
 30
0.0
 40
0.811934
 50
189.48297400000001
 51
223.04702700000001
  0
ARC
  5
F2
  8
0
 62
     7
 10
32.634696999999989
 20
106.81110099999999
 30
0.0
 40
0.5998520000000001
 50
228.19230099999999
 51
274.33496000000002
  0
ARC
  5
F3
  8
0
 62
     7
 10
26.21791099999999
 20
107.6654409999999
 30
0.0
 40
5.786003
 50
1.7058679999999991
 51
6.3821410000000007
  0
ARC
  5
F4
  8
0
 62
     7
 10
37.345351999999991
 20
108.89460699999999
 30
0.0
 40
5.4091319999999987
 50
177.19358899999989
 51
186.219369
  0
ARC
  5
F5
  8
0
 62
     7
 10
34.119025999999991
 20
109.05703200000001
 30
0.0
 40
2.178726999999999
 50
166.18443300000001
 51
177.30574799999999
  0
ARC
  5
F6
  8
0
 62
     7
 10
32.966035999999988
 20
109.35056299999989
 30
0.0
 40
0.9890469999999998
 50
135.827742
 51
166.74683400000001
  0
ARC
  5
F7
  8
0
 62
     7
 10
32.717289999999998
 20
109.51831
 30
0.0
 40
0.6957670000000001
 50
86.455159999999978
 51
131.45790400000001
  0
LINE
  5
F8
  8
0
 62
     7
 10
61.942500000000003
 20
94.997699999999995
 30
0.0
 11
62.091999999999999
 21
97.289400000000015
 31
0.0
  0
LINE
  5
F9
  8
0
 62
     7
 10
54.768099999999997
 20
97.314199999999985
 30
0.0
 11
54.843899999999998
 21
94.997699999999995
 31
0.0
  0
LINE
  5
FA
  8
0
  6
AIGENLINE001
 62
     7
 10
58.393000000000001
 20
89.927899999999994
 30
0.0
 11
58.393000000000001
 21
98.923800000000014
 31
0.0
  0
LINE
  5
FB
  8
0
 62
     7
 10
55.128799999999998
 20
94.712500000000006
 30
0.0
 11
61.657600000000002
 21
94.712500000000006
 31
0.0
  0
LINE
  5
FC
  8
0
  6
AIGENLINE001
 62
     7
 10
83.636799999999994
 20
105.21299999999999
 30
0.0
 11
85.937099999999987
 21
105.21299999999999
 31
0.0
  0
LINE
  5
FD
  8
0
  6
AIGENLINE001
 62
     7
 10
85.937099999999987
 20
105.21299999999999
 30
0.0
 11
88.236699999999985
 21
105.21299999999999
 31
0.0
  0
LINE
  5
FE
  8
0
  6
AIGENLINE001
 62
     7
 10
85.937099999999987
 20
103.4129999999999
 30
0.0
 11
85.937099999999987
 21
107.0119999999999
 31
0.0
  0
LINE
  5
FF
  8
0
  6
AIGENLINE001
 62
     7
 10
55.637300000000003
 20
105.21299999999999
 30
0.0
 11
57.936900000000001
 21
105.21299999999999
 31
0.0
  0
LINE
  5
100
  8
0
  6
AIGENLINE001
 62
     7
 10
57.936900000000001
 20
105.21299999999999
 30
0.0
 11
60.237200000000001
 21
105.21299999999999
 31
0.0
  0
LINE
  5
101
  8
0
  6
AIGENLINE001
 62
     7
 10
57.936900000000001
 20
103.4129999999999
 30
0.0
 11
57.936900000000001
 21
107.0119999999999
 31
0.0
  0
LINE
  5
102
  8
0
 62
     7
 10
32.68
 20
106.21299999999999
 30
0.0
 11
111.197
 21
106.21299999999999
 31
0.0
  0
LINE
  5
103
  8
0
 62
     7
 10
43.537999999999997
 20
94.212900000000005
 30
0.0
 11
46.331299999999999
 21
94.212900000000005
 31
0.0
  0
LINE
  5
104
  8
0
 62
     7
 10
47.076799999999992
 20
94.644300000000001
 30
0.0
 11
48.571300000000001
 21
97.206699999999998
 31
0.0
  0
ARC
  5
105
  8
0
 62
     7
 10
55.533814
 20
93.166558999999978
 30
0.0
 40
8.0497969999999999
 50
139.53098700000001
 51
149.874302
  0
LINE
  5
106
  8
0
 62
     7
 10
49.4099
 20
98.391200000000012
 30
0.0
 11
49.519399999999997
 21
98.535899999999998
 31
0.0
  0
ARC
  5
107
  8
0
 62
     7
 10
54.133856999999992
 20
84.299956000000009
 30
0.0
 40
14.96509599999999
 50
104.494494
 51
107.95957900000001
  0
LINE
  5
108
  8
0
 62
     7
 10
50.388300000000001
 20
98.788700000000006
 30
0.0
 11
50.38689999999999
 21
98.788700000000006
 31
0.0
  0
LINE
  5
109
  8
0
 62
     7
 10
97.996499999999983
 20
95.543400000000005
 30
0.0
 11
105.04000000000001
 21
105.712
 31
0.0
  0
ARC
  5
10A
  8
0
 62
     7
 10
158.29103499999999
 20
95.012676999999996
 30
0.0
 40
0.300202
 50
270.00863299999997
 51
320.062727
  0
ARC
  5
10B
  8
0
 62
     7
 10
159.1473269999999
 20
94.281619999999975
 30
0.0
 40
0.8257299999999999
 50
95.780235000000005
 51
139.310452
  0
ARC
  5
10C
  8
0
 62
     7
 10
151.846205
 20
95.025099999999995
 30
0.0
 40
0.312828
 50
184.89259699999991
 51
267.934617
  0
LINE
  5
10D
  8
0
 62
     7
 10
128.83999999999989
 20
110.21299999999999
 30
0.0
 11
178.0629999999999
 21
110.21299999999999
 31
0.0
  0
ARC
  5
10E
  8
0
 62
     7
 10
128.91317799999999
 20
109.36447799999991
 30
0.0
 40
0.851406
 50
94.920422999999985
 51
178.09311899999989
  0
ARC
  5
10F
  8
0
 62
     7
 10
128.650441
 20
106.7315779999999
 30
0.0
 40
0.518915
 50
183.55352400000001
 51
268.04684200000003
  0
ARC
  5
110
  8
0
 62
     7
 10
177.64784
 20
106.627734
 30
0.0
 40
0.4150450000000001
 50
272.0898509999999
 51
357.91015899999991
  0
LINE
  5
111
  8
0
  6
AIGENLINE001
 62
     7
 10
181.04599999999991
 20
105.21299999999999
 30
0.0
 11
175.09099999999989
 21
105.21299999999999
 31
0.0
  0
LINE
  5
112
  8
0
  6
AIGENLINE001
 62
     7
 10
169.0629999999999
 20
113.18000000000001
 30
0.0
 11
169.0629999999999
 21
107.2239999999999
 31
0.0
  0
LINE
  5
113
  8
0
  6
AIGENLINE001
 62
     7
 10
155.06200000000001
 20
97.921899999999994
 30
0.0
 11
155.06200000000001
 21
91.966700000000003
 31
0.0
  0
LINE
  5
114
  8
0
 62
     7
 10
178.0629999999999
 20
110.21299999999999
 30
0.0
 11
178.0629999999999
 21
94.611900000000006
 31
0.0
  0
LINE
  5
115
  8
0
 62
     7
 10
128.1329999999999
 20
106.699
 30
0.0
 11
128.06200000000001
 21
109.3929999999999
 31
0.0
  0
LINE
  5
116
  8
0
 62
     7
 10
151.53499999999991
 20
94.998400000000004
 30
0.0
 11
151.42599999999999
 21
97.080600000000004
 31
0.0
  0
LINE
  5
117
  8
0
 62
     7
 10
161.57299999999989
 20
95.322900000000004
 30
0.0
 11
159.06399999999999
 21
95.103200000000001
 31
0.0
  0
LINE
  5
118
  8
0
 62
     7
 10
158.291
 20
94.712500000000006
 30
0.0
 11
151.83500000000001
 21
94.712500000000006
 31
0.0
  0
LINE
  5
119
  8
0
 62
     7
 10
177.6629999999999
 20
106.21299999999999
 30
0.0
 11
128.6329999999999
 21
106.21299999999999
 31
0.0
  0
ARC
  5
11A
  8
0
 62
     7
 10
177.64715699999991
 20
94.628411999999983
 30
0.0
 40
0.41578
 50
272.18024000000003
 51
357.72089899999997
  0
ARC
  5
11B
  8
0
 62
     7
 10
177.6781719999999
 20
211.7751549999999
 30
0.0
 40
117.562223
 50
261.9792799999999
 51
269.99260299999992
  0
ARC
  5
11C
  8
0
 62
     7
 10
178.82701900000001
 20
224.780734
 30
0.0
 40
130.60263199999989
 50
251.36763999999999
 51
262.276318
  0
ARC
  5
11D
  8
0
 62
     7
 10
137.1886189999999
 20
101.3973
 30
0.0
 40
0.384376
 50
237.942103
 51
256.695446
  0
ARC
  5
11E
  8
0
 62
     7
 10
137.37130699999989
 20
101.79819500000001
 30
0.0
 40
0.8231479999999999
 50
216.56591199999991
 51
241.979513
  0
ARC
  5
11F
  8
0
 62
     7
 10
150.6078489999999
 20
111.8556389999999
 30
0.0
 40
17.447122
 50
210.798046
 51
217.19720000000001
  0
ARC
  5
120
  8
0
 62
     7
 10
154.037317
 20
114.0934469999999
 30
0.0
 40
21.539386
 50
201.46077
 51
211.24040099999999
  0
LINE
  5
121
  8
0
 62
     7
 10
117.223
 20
105.21299999999999
 30
0.0
 11
117.223
 21
110.21299999999999
 31
0.0
  0
LINE
  5
122
  8
0
 62
     7
 10
29.290700000000001
 20
101.04000000000001
 30
0.0
 11
29.290700000000001
 21
117.092
 31
0.0
  0
LINE
  5
123
  8
0
 62
     7
 10
28.698899999999991
 20
103.901
 30
0.0
 11
29.290700000000001
 21
106.11199999999999
 31
0.0
  0
LINE
  5
124
  8
0
 62
     7
 10
29.290700000000001
 20
106.11199999999999
 30
0.0
 11
29.883299999999991
 21
103.901
 31
0.0
  0
LINE
  5
125
  8
0
 62
     7
 10
29.883299999999991
 20
103.901
 30
0.0
 11
28.698899999999991
 21
103.901
 31
0.0
  0
LINE
  5
126
  8
0
 62
     7
 10
29.8826
 20
112.42399999999989
 30
0.0
 11
29.290700000000001
 21
110.21299999999999
 31
0.0
  0
LINE
  5
127
  8
0
 62
     7
 10
29.290700000000001
 20
110.21299999999999
 30
0.0
 11
28.6982
 21
112.42399999999989
 31
0.0
  0
LINE
  5
128
  8
0
 62
     7
 10
28.6982
 20
112.42399999999989
 30
0.0
 11
29.8826
 21
112.42399999999989
 31
0.0
  0
LINE
  5
129
  8
0
 62
     7
 10
24.116900000000001
 20
94.712500000000006
 30
0.0
 11
24.116900000000001
 21
110.21299999999999
 31
0.0
  0
LINE
  5
12A
  8
0
 62
     7
 10
23.524999999999999
 20
108.002
 30
0.0
 11
24.116900000000001
 21
110.21299999999999
 31
0.0
  0
LINE
  5
12B
  8
0
 62
     7
 10
24.116900000000001
 20
110.21299999999999
 30
0.0
 11
24.709399999999999
 21
108.002
 31
0.0
  0
LINE
  5
12C
  8
0
 62
     7
 10
24.709399999999999
 20
108.002
 30
0.0
 11
23.524999999999999
 21
108.002
 31
0.0
  0
LINE
  5
12D
  8
0
 62
     7
 10
24.7087
 20
96.923599999999993
 30
0.0
 11
24.116900000000001
 21
94.712500000000006
 31
0.0
  0
LINE
  5
12E
  8
0
 62
     7
 10
24.116900000000001
 20
94.712500000000006
 30
0.0
 11
23.5243
 21
96.923599999999993
 31
0.0
  0
LINE
  5
12F
  8
0
 62
     7
 10
23.5243
 20
96.923599999999993
 30
0.0
 11
24.7087
 21
96.923599999999993
 31
0.0
  0
LINE
  5
130
  8
0
 62
     7
 10
89.236800000000002
 20
105.21299999999999
 30
0.0
 11
118.39399999999991
 21
105.21299999999999
 31
0.0
  0
LINE
  5
131
  8
0
 62
     7
 10
117.815
 20
108.002
 30
0.0
 11
117.223
 21
110.21299999999999
 31
0.0
  0
LINE
  5
132
  8
0
 62
     7
 10
117.223
 20
110.21299999999999
 30
0.0
 11
116.6299999999999
 21
108.002
 31
0.0
  0
LINE
  5
133
  8
0
 62
     7
 10
116.6299999999999
 20
108.002
 30
0.0
 11
117.815
 21
108.002
 31
0.0
  0
LINE
  5
134
  8
0
 62
     7
 10
116.6309999999999
 20
107.42399999999989
 30
0.0
 11
117.223
 21
105.21299999999999
 31
0.0
  0
LINE
  5
135
  8
0
 62
     7
 10
117.223
 20
105.21299999999999
 30
0.0
 11
117.815
 21
107.42399999999989
 31
0.0
  0
LINE
  5
136
  8
0
 62
     7
 10
117.815
 20
107.42399999999989
 30
0.0
 11
116.6309999999999
 21
107.42399999999989
 31
0.0
  0
LINE
  5
137
  8
0
 62
     7
 10
99.592100000000002
 20
94.212900000000005
 30
0.0
 11
124.72199999999999
 21
94.212900000000005
 31
0.0
  0
LINE
  5
138
  8
0
 62
     7
 10
123.72199999999999
 20
94.212900000000005
 30
0.0
 11
123.72199999999999
 21
110.21299999999999
 31
0.0
  0
LINE
  5
139
  8
0
 62
     7
 10
112.1169999999999
 20
110.21299999999999
 30
0.0
 11
124.72199999999999
 21
110.21299999999999
 31
0.0
  0
LINE
  5
13A
  8
0
 62
     7
 10
124.31399999999989
 20
108.002
 30
0.0
 11
123.72199999999999
 21
110.21299999999999
 31
0.0
  0
LINE
  5
13B
  8
0
 62
     7
 10
123.72199999999999
 20
110.21299999999999
 30
0.0
 11
123.12899999999991
 21
108.002
 31
0.0
  0
LINE
  5
13C
  8
0
 62
     7
 10
123.12899999999991
 20
108.002
 30
0.0
 11
124.31399999999989
 21
108.002
 31
0.0
  0
LINE
  5
13D
  8
0
 62
     7
 10
123.13
 20
96.424000000000007
 30
0.0
 11
123.72199999999999
 21
94.212900000000005
 31
0.0
  0
LINE
  5
13E
  8
0
 62
     7
 10
123.72199999999999
 20
94.212900000000005
 30
0.0
 11
124.31399999999989
 21
96.424000000000007
 31
0.0
  0
LINE
  5
13F
  8
0
 62
     7
 10
124.31399999999989
 20
96.424000000000007
 30
0.0
 11
123.13
 21
96.424000000000007
 31
0.0
  0
LINE
  5
140
  8
0
 62
     7
 10
58.437100000000001
 20
182.10300000000001
 30
0.0
 11
58.436799999999991
 21
152.12899999999999
 31
0.0
  0
LINE
  5
141
  8
0
 62
     7
 10
155.06200000000001
 20
85.430000000000007
 30
0.0
 11
178.0629999999999
 21
85.430000000000007
 31
0.0
  0
LINE
  5
142
  8
0
 62
     7
 10
155.06200000000001
 20
90.966300000000004
 30
0.0
 11
155.06200000000001
 21
84.429500000000004
 31
0.0
  0
LINE
  5
143
  8
0
 62
     7
 10
178.0629999999999
 20
93.612099999999984
 30
0.0
 11
178.0629999999999
 21
84.429500000000004
 31
0.0
  0
LINE
  5
144
  8
0
 62
     7
 10
175.852
 20
84.838099999999997
 30
0.0
 11
178.0629999999999
 21
85.430000000000007
 31
0.0
  0
LINE
  5
145
  8
0
 62
     7
 10
178.0629999999999
 20
85.430000000000007
 30
0.0
 11
175.852
 21
86.022499999999994
 31
0.0
  0
LINE
  5
146
  8
0
 62
     7
 10
175.852
 20
86.022499999999994
 30
0.0
 11
175.852
 21
84.838099999999997
 31
0.0
  0
LINE
  5
147
  8
0
 62
     7
 10
157.27299999999991
 20
86.021799999999999
 30
0.0
 11
155.06200000000001
 21
85.430000000000007
 31
0.0
  0
LINE
  5
148
  8
0
 62
     7
 10
155.06200000000001
 20
85.430000000000007
 30
0.0
 11
157.27299999999991
 21
84.837400000000002
 31
0.0
  0
LINE
  5
149
  8
0
 62
     7
 10
157.27299999999991
 20
84.837400000000002
 30
0.0
 11
157.27299999999991
 21
86.021799999999999
 31
0.0
  0
LINE
  5
14A
  8
0
 62
     7
 10
31.936199999999999
 20
146.48099999999991
 30
0.0
 11
111.9399999999999
 21
146.48099999999991
 31
0.0
  0
LINE
  5
14B
  8
0
 62
     7
 10
31.936599999999991
 20
153.12899999999999
 30
0.0
 11
58.436799999999991
 21
153.12899999999999
 31
0.0
  0
LINE
  5
14C
  8
0
 62
     7
 10
31.936599999999991
 20
160.721
 30
0.0
 11
31.936599999999991
 21
145.48099999999991
 31
0.0
  0
LINE
  5
14D
  8
0
 62
     7
 10
111.9399999999999
 20
160.721
 30
0.0
 11
111.9399999999999
 21
145.48099999999991
 31
0.0
  0
LINE
  5
14E
  8
0
 62
     7
 10
109.729
 20
145.88900000000001
 30
0.0
 11
111.9399999999999
 21
146.48099999999991
 31
0.0
  0
LINE
  5
14F
  8
0
 62
     7
 10
111.9399999999999
 20
146.48099999999991
 30
0.0
 11
109.729
 21
147.07299999999989
 31
0.0
  0
LINE
  5
150
  8
0
 62
     7
 10
109.729
 20
147.07299999999989
 30
0.0
 11
109.729
 21
145.88900000000001
 31
0.0
  0
LINE
  5
151
  8
0
 62
     7
 10
34.1477
 20
147.07299999999989
 30
0.0
 11
31.936599999999991
 21
146.48099999999991
 31
0.0
  0
LINE
  5
152
  8
0
 62
     7
 10
31.936599999999991
 20
146.48099999999991
 30
0.0
 11
34.1477
 21
145.88800000000001
 31
0.0
  0
LINE
  5
153
  8
0
 62
     7
 10
34.1477
 20
145.88800000000001
 30
0.0
 11
34.1477
 21
147.07299999999989
 31
0.0
  0
LINE
  5
154
  8
0
 62
     7
 10
56.225700000000003
 20
152.53700000000001
 30
0.0
 11
58.436799999999991
 21
153.12899999999999
 31
0.0
  0
LINE
  5
155
  8
0
 62
     7
 10
58.436799999999991
 20
153.12899999999999
 30
0.0
 11
56.225700000000003
 21
153.72200000000001
 31
0.0
  0
LINE
  5
156
  8
0
 62
     7
 10
56.225700000000003
 20
153.72200000000001
 30
0.0
 11
56.225700000000003
 21
152.53700000000001
 31
0.0
  0
LINE
  5
157
  8
0
 62
     7
 10
34.1477
 20
153.72099999999989
 30
0.0
 11
31.936599999999991
 21
153.12899999999999
 31
0.0
  0
LINE
  5
158
  8
0
 62
     7
 10
31.936599999999991
 20
153.12899999999999
 30
0.0
 11
34.1477
 21
152.53700000000001
 31
0.0
  0
LINE
  5
159
  8
0
 62
     7
 10
34.1477
 20
152.53700000000001
 30
0.0
 11
34.1477
 21
153.72099999999989
 31
0.0
  0
LINE
  5
15A
  8
0
 62
     7
 10
65.061000000000007
 20
188.72099999999989
 30
0.0
 11
122.89399999999991
 21
188.72099999999989
 31
0.0
  0
LINE
  5
15B
  8
0
 62
     7
 10
129.74100000000001
 20
161.721
 30
0.0
 11
129.74100000000001
 21
211.72099999999989
 31
0.0
  0
LINE
  5
15C
  8
0
 62
     7
 10
121.89399999999991
 20
188.72099999999989
 30
0.0
 11
121.89399999999991
 21
211.72099999999989
 31
0.0
  0
LINE
  5
15D
  8
0
 62
     7
 10
112.559
 20
161.721
 30
0.0
 11
130.74199999999999
 21
161.721
 31
0.0
  0
LINE
  5
15E
  8
0
 62
     7
 10
112.559
 20
211.72099999999989
 30
0.0
 11
130.74199999999999
 21
211.72099999999989
 31
0.0
  0
LINE
  5
15F
  8
0
 62
     7
 10
130.333
 20
209.50999999999991
 30
0.0
 11
129.74100000000001
 21
211.72099999999989
 31
0.0
  0
LINE
  5
160
  8
0
 62
     7
 10
129.74100000000001
 20
211.72099999999989
 30
0.0
 11
129.14799999999991
 21
209.50999999999991
 31
0.0
  0
LINE
  5
161
  8
0
 62
     7
 10
129.14799999999991
 20
209.50999999999991
 30
0.0
 11
130.333
 21
209.50999999999991
 31
0.0
  0
LINE
  5
162
  8
0
 62
     7
 10
129.149
 20
163.93199999999999
 30
0.0
 11
129.74100000000001
 21
161.721
 31
0.0
  0
LINE
  5
163
  8
0
 62
     7
 10
129.74100000000001
 20
161.721
 30
0.0
 11
130.334
 21
163.93199999999999
 31
0.0
  0
LINE
  5
164
  8
0
 62
     7
 10
130.334
 20
163.93199999999999
 30
0.0
 11
129.149
 21
163.93199999999999
 31
0.0
  0
LINE
  5
165
  8
0
 62
     7
 10
122.486
 20
209.50999999999991
 30
0.0
 11
121.89399999999991
 21
211.72099999999989
 31
0.0
  0
LINE
  5
166
  8
0
 62
     7
 10
121.89399999999991
 20
211.72099999999989
 30
0.0
 11
121.301
 21
209.50999999999991
 31
0.0
  0
LINE
  5
167
  8
0
 62
     7
 10
121.301
 20
209.50999999999991
 30
0.0
 11
122.486
 21
209.50999999999991
 31
0.0
  0
LINE
  5
168
  8
0
 62
     7
 10
121.30199999999989
 20
190.93199999999999
 30
0.0
 11
121.89399999999991
 21
188.72099999999989
 31
0.0
  0
LINE
  5
169
  8
0
 62
     7
 10
121.89399999999991
 20
188.72099999999989
 30
0.0
 11
122.486
 21
190.93199999999999
 31
0.0
  0
LINE
  5
16A
  8
0
 62
     7
 10
122.486
 20
190.93199999999999
 30
0.0
 11
121.30199999999989
 21
190.93199999999999
 31
0.0
  0
LINE
  5
16B
  8
0
 62
     7
 10
31.936599999999991
 20
218.78099999999989
 30
0.0
 11
48.936900000000001
 21
218.78099999999989
 31
0.0
  0
LINE
  5
16C
  8
0
 62
     7
 10
48.936900000000001
 20
206.53
 30
0.0
 11
48.936900000000001
 21
219.78100000000001
 31
0.0
  0
LINE
  5
16D
  8
0
 62
     7
 10
31.936599999999991
 20
212.339
 30
0.0
 11
31.936599999999991
 21
219.78100000000001
 31
0.0
  0
LINE
  5
16E
  8
0
 62
     7
 10
46.725799999999992
 20
218.18899999999999
 30
0.0
 11
48.936900000000001
 21
218.78099999999989
 31
0.0
  0
LINE
  5
16F
  8
0
 62
     7
 10
48.936900000000001
 20
218.78099999999989
 30
0.0
 11
46.725799999999992
 21
219.374
 31
0.0
  0
LINE
  5
170
  8
0
 62
     7
 10
46.725799999999992
 20
219.374
 30
0.0
 11
46.725799999999992
 21
218.18899999999999
 31
0.0
  0
LINE
  5
171
  8
0
 62
     7
 10
34.1477
 20
219.37299999999991
 30
0.0
 11
31.936599999999991
 21
218.78099999999989
 31
0.0
  0
LINE
  5
172
  8
0
 62
     7
 10
31.936599999999991
 20
218.78099999999989
 30
0.0
 11
34.1477
 21
218.18799999999999
 31
0.0
  0
LINE
  5
173
  8
0
 62
     7
 10
34.1477
 20
218.18799999999999
 30
0.0
 11
34.1477
 21
219.37299999999991
 31
0.0
  0
LINE
  5
174
  8
0
 62
     7
 10
25.798400000000001
 20
202.72099999999989
 30
0.0
 11
25.798100000000002
 21
211.72099999999989
 31
0.0
  0
LINE
  5
175
  8
0
 62
     7
 10
24.798300000000001
 20
202.72099999999989
 30
0.0
 11
45.128599999999992
 21
202.72099999999989
 31
0.0
  0
LINE
  5
176
  8
0
 62
     7
 10
24.797999999999998
 20
211.72099999999989
 30
0.0
 11
30.936499999999999
 21
211.72099999999989
 31
0.0
  0
LINE
  5
177
  8
0
 62
     7
 10
26.389900000000001
 20
209.50999999999991
 30
0.0
 11
25.798100000000002
 21
211.72099999999989
 31
0.0
  0
LINE
  5
178
  8
0
 62
     7
 10
25.798100000000002
 20
211.72099999999989
 30
0.0
 11
25.205500000000001
 21
209.50999999999991
 31
0.0
  0
LINE
  5
179
  8
0
 62
     7
 10
25.205500000000001
 20
209.50999999999991
 30
0.0
 11
26.389900000000001
 21
209.50999999999991
 31
0.0
  0
LINE
  5
17A
  8
0
 62
     7
 10
25.206499999999991
 20
204.93199999999999
 30
0.0
 11
25.798400000000001
 21
202.72099999999989
 31
0.0
  0
LINE
  5
17B
  8
0
 62
     7
 10
25.798400000000001
 20
202.72099999999989
 30
0.0
 11
26.390999999999998
 21
204.93199999999999
 31
0.0
  0
LINE
  5
17C
  8
0
 62
     7
 10
26.390999999999998
 20
204.93199999999999
 30
0.0
 11
25.206499999999991
 21
204.93199999999999
 31
0.0
  0
LINE
  5
17D
  8
0
 62
     7
 10
73.736900000000006
 20
180.601
 30
0.0
 11
66.557299999999998
 21
180.601
 31
0.0
  0
LINE
  5
17E
  8
0
 62
     7
 10
53.945399999999999
 20
193.214
 30
0.0
 11
66.557299999999998
 21
180.601
 31
0.0
  0
LINE
  5
17F
  8
0
 62
     7
 10
54.8294
 20
191.49199999999999
 30
0.0
 11
56.811700000000002
 21
190.3479999999999
 31
0.0
  0
LINE
  5
180
  8
0
 62
     7
 10
56.811700000000002
 20
190.3479999999999
 30
0.0
 11
55.667200000000001
 21
192.33000000000001
 31
0.0
  0
LINE
  5
181
  8
0
 62
     7
 10
55.667200000000001
 20
192.33000000000001
 30
0.0
 11
54.8294
 21
191.49199999999999
 31
0.0
  0
LINE
  5
182
  8
0
 62
     7
 10
62.046199999999999
 20
185.95099999999999
 30
0.0
 11
60.06389999999999
 21
187.095
 31
0.0
  0
LINE
  5
183
  8
0
 62
     7
 10
60.06389999999999
 20
187.095
 30
0.0
 11
61.208399999999997
 21
185.11299999999989
 31
0.0
  0
LINE
  5
184
  8
0
 62
     7
 10
61.208399999999997
 20
185.11299999999989
 30
0.0
 11
62.046199999999999
 21
185.95099999999999
 31
0.0
  0
LINE
  5
185
  8
0
 62
     7
 10
41.326599999999999
 20
195.1109999999999
 30
0.0
 11
34.146599999999999
 21
195.1109999999999
 31
0.0
  0
LINE
  5
186
  8
0
 62
     7
 10
41.326599999999999
 20
195.1109999999999
 30
0.0
 11
53.115099999999998
 21
206.89999999999989
 31
0.0
  0
LINE
  5
187
  8
0
 62
     7
 10
45.717100000000002
 20
200.34
 30
0.0
 11
47.699399999999997
 21
201.4839999999999
 31
0.0
  0
LINE
  5
188
  8
0
 62
     7
 10
47.699399999999997
 20
201.4839999999999
 30
0.0
 11
46.554900000000004
 21
199.50200000000001
 31
0.0
  0
LINE
  5
189
  8
0
 62
     7
 10
46.554900000000004
 20
199.50200000000001
 30
0.0
 11
45.717100000000002
 21
200.34
 31
0.0
  0
LINE
  5
18A
  8
0
 62
     7
 10
52.156300000000002
 20
205.10299999999989
 30
0.0
 11
50.173999999999999
 21
203.959
 31
0.0
  0
LINE
  5
18B
  8
0
 62
     7
 10
50.173999999999999
 20
203.959
 30
0.0
 11
51.3185
 21
205.94099999999989
 31
0.0
  0
LINE
  5
18C
  8
0
 62
     7
 10
51.3185
 20
205.94099999999989
 30
0.0
 11
52.156300000000002
 21
205.10299999999989
 31
0.0
  0
TEXT
  5
18D
  8
_________2
 62
     7
 10
24.5868
 20
0.707283
 30
0.0
 40
3.9357000000000002
  1
・実容量：5.6L  オーバーフロー付  重量：22Kg
 41
0.5
  0
LINE
  5
18E
  8
_________2
 62
     7
 10
205.30099999999999
 20
127.411
 30
0.0
 11
183.55000000000001
 21
127.411
 31
0.0
  0
LINE
  5
18F
  8
_________2
 62
     7
 10
100.2999999999999
 20
-4.0910799999999998
 30
0.0
 11
100.2999999999999
 21
-21.071400000000001
 31
0.0
  0
LINE
  5
190
  8
_________2
 62
     7
 10
100.2999999999999
 20
275.93099999999993
 30
0.0
 11
100.2999999999999
 21
258.911
 31
0.0
  0
LINE
  5
191
  8
_________2
 62
     7
 10
17.049499999999998
 20
127.411
 30
0.0
 11
-4.70052
 21
127.411
 31
0.0
  0
LINE
  5
192
  8
_________2
 62
     7
 10
76.741
 20
29.8047
 30
0.0
 11
74.554699999999997
 21
29.8047
 31
0.0
  0
LINE
  5
193
  8
_________2
 62
     7
 10
77.233699999999999
 20
29.8047
 30
0.0
 11
76.981499999999997
 21
29.8047
 31
0.0
  0
LINE
  5
194
  8
_________2
 62
     7
 10
77.726299999999995
 20
29.8047
 30
0.0
 11
80.651200000000003
 21
29.8047
 31
0.0
  0
LINE
  5
195
  8
_________2
 62
     7
 10
77.233699999999999
 20
29.8047
 30
0.0
 11
77.485500000000002
 21
29.8047
 31
0.0
  0
LINE
  5
196
  8
_________2
 62
     7
 10
70.837100000000007
 20
29.8047
 30
0.0
 11
68.650499999999994
 21
29.8047
 31
0.0
  0
LINE
  5
197
  8
_________2
 62
     7
 10
71.329400000000007
 20
29.8047
 30
0.0
 11
71.077600000000004
 21
29.8047
 31
0.0
  0
LINE
  5
198
  8
_________2
 62
     7
 10
71.329400000000007
 20
30.2974
 30
0.0
 11
71.329400000000007
 21
32.484400000000001
 31
0.0
  0
LINE
  5
199
  8
_________2
 62
     7
 10
71.329400000000007
 20
29.8047
 30
0.0
 11
71.329400000000007
 21
30.056899999999992
 31
0.0
  0
LINE
  5
19A
  8
_________2
 62
     7
 10
71.822100000000006
 20
29.8047
 30
0.0
 11
74.009
 21
29.8047
 31
0.0
  0
LINE
  5
19B
  8
_________2
 62
     7
 10
71.329400000000007
 20
29.8047
 30
0.0
 11
71.581599999999995
 21
29.8047
 31
0.0
  0
LINE
  5
19C
  8
_________2
 62
     7
 10
71.329400000000007
 20
29.312799999999999
 30
0.0
 11
71.329400000000007
 21
27.125800000000002
 31
0.0
  0
LINE
  5
19D
  8
_________2
 62
     7
 10
71.329400000000007
 20
29.8047
 30
0.0
 11
71.329400000000007
 21
29.5532
 31
0.0
  0
LINE
  5
19E
  8
_________2
 62
     7
 10
75.040499999999994
 20
28.5852
 30
0.0
 11
80.218500000000006
 21
27.720400000000001
 31
0.0
  0
LINE
  5
19F
  8
_________2
 62
     7
 10
75.040499999999994
 20
31.0243
 30
0.0
 11
80.218500000000006
 21
31.889700000000001
 31
0.0
  0
LINE
  5
1A0
  8
_________2
 62
     7
 10
80.218500000000006
 20
27.720400000000001
 30
0.0
 11
80.218500000000006
 21
31.889700000000001
 31
0.0
  0
LINE
  5
1A1
  8
_________2
 62
     7
 10
75.040499999999994
 20
28.5852
 30
0.0
 11
75.040499999999994
 21
31.0243
 31
0.0
  0
ARC
  5
1A2
  8
_________2
 62
     7
 10
71.28285600000001
 20
29.757811
 30
0.0
 40
1.2673589999999999
 50
2.122214
 51
87.893958999999995
  0
ARC
  5
1A3
  8
_________2
 62
     7
 10
71.375959999999992
 20
29.758213000000001
 30
0.0
 40
1.2669559999999991
 50
92.104701000000006
 51
177.8952689999999
  0
ARC
  5
1A4
  8
_________2
 62
     7
 10
71.376357999999996
 20
29.851671
 30
0.0
 40
1.2673680000000001
 50
182.12203600000001
 51
267.877993
  0
ARC
  5
1A5
  8
_________2
 62
     7
 10
71.282531999999989
 20
29.851998999999989
 30
0.0
 40
1.267695999999999
 50
272.12015300000002
 51
357.863674
  0
ARC
  5
1A6
  8
_________2
 62
     7
 10
71.329430000000002
 20
29.804742999999998
 30
0.0
 40
2.0849849999999992
 50
0.00001
 51
89.999980000000008
  0
ARC
  5
1A7
  8
_________2
 62
     7
 10
71.329603000000006
 20
29.804915000000001
 30
0.0
 40
2.084813
 50
90.004733999999999
 51
180.00474399999999
  0
ARC
  5
1A8
  8
_________2
 62
     7
 10
71.409106000000008
 20
29.884775999999999
 30
0.0
 40
2.1657950000000001
 50
182.11776599999999
 51
267.89173399999999
  0
ARC
  5
1A9
  8
_________2
 62
     7
 10
71.249459000000002
 20
29.885429999999989
 30
0.0
 40
2.1664590000000001
 50
272.11546800000002
 51
357.86560400000002
  0
TEXT
  5
1AA
  8
_________2
 62
     7
 10
104.605
 20
1.6794899999999999
 30
0.0
 40
3.0923400000000001
  1
図番
 41
0.5
  0
LINE
  5
1AB
  8
_________2
 62
     7
 10
103.55
 20
5.9087199999999989
 30
0.0
 11
183.55099999999999
 21
5.9087199999999989
 31
0.0
  0
TEXT
  5
1AC
  8
_________2
 62
     7
 10
104.605
 20
11.679299999999991
 30
0.0
 40
3.0923400000000001
  1
品番
 41
0.5
  0
TEXT
  5
1AD
  8
_________2
 62
     7
 10
104.605
 20
31.818100000000001
 30
0.0
 40
3.0923400000000001
  1
名称
 41
0.5
  0
TEXT
  5
1AE
  8
_________2
 62
     7
 10
91.845058333333341
 20
26.821999999999989
 30
0.0
 40
3.6545800000000002
  1
mm
 41
0.5
 72
     1
 11
93.367800000000003
 21
26.821999999999989
 31
0.0
  0
TEXT
  5
1AF
  8
_________2
 62
     7
 10
85.643199999999993
 20
31.818100000000001
 30
0.0
 40
3.0923400000000001
  1
単位
 41
0.5
  0
TEXT
  5
1B0
  8
_________2
 62
     7
 10
85.643199999999993
 20
19.410799999999991
 30
0.0
 40
3.0923400000000001
  1
尺度
 41
0.5
  0
TEXT
  5
1B1
  8
_________2
 62
     7
 10
90.09193616666667
 20
13.2179
 30
0.0
 40
3.6545800000000002
  1
1 ： 10
 41
0.5
 72
     1
 11
93.959699999999998
 21
13.2179
 31
0.0
  0
TEXT
  5
1B2
  8
_________2
 62
     7
 10
137.4824625
 20
9.1078600000000005
 30
0.0
 40
3.9357000000000002
  1
AU14804
 41
0.5
 72
     1
 11
143.55000000000001
 21
9.1078600000000005
 31
0.0
  0
TEXT
  5
1B3
  8
_________2
 62
     7
 10
137.4824625
 20
-0.8926299999999999
 30
0.0
 40
3.9357000000000002
  1
AU14804
 41
0.5
 72
     1
 11
143.55000000000001
 21
-0.8926299999999999
 31
0.0
  0
TEXT
  5
1B4
  8
_________2
 62
     7
 10
109.179
 20
24.2257
 30
0.0
 40
3.9357000000000002
  1
パロンバ 壁掛式洗面器
 41
0.5
  0
TEXT
  5
1B5
  8
_________2
 62
     7
 10
39.364390666666658
 20
13.603
 30
0.0
 40
3.6545800000000002
  1
高橋
 41
0.5
 72
     1
 11
41.313499999999998
 21
13.603
 31
0.0
  0
TEXT
  5
1B6
  8
_________2
 62
     7
 10
20.790090666666661
 20
13.603
 30
0.0
 40
3.6545800000000002
  1
石原
 41
0.5
 72
     1
 11
22.73919999999999
 21
13.603
 31
0.0
  0
TEXT
  5
1B7
  8
_________2
 62
     7
 10
67.785399999999996
 20
13.2179
 30
0.0
 40
3.6545800000000002
  1
06.02.21
 41
0.5
  0
TEXT
  5
1B8
  8
_________2
 62
     7
 10
66.593100000000007
 20
19.410799999999991
 30
0.0
 40
3.0923400000000001
  1
日付
 41
0.5
  0
TEXT
  5
1B9
  8
_________2
 62
     7
 10
29.639399999999998
 20
19.410799999999991
 30
0.0
 40
3.0923400000000001
  1
検図
 41
0.5
  0
TEXT
  5
1BA
  8
_________2
 62
     7
 10
18.021100000000001
 20
5.21143
 30
0.0
 40
3.0923400000000001
  1
備考
 41
0.5
  0
TEXT
  5
1BB
  8
_________2
 62
     7
 10
18.021100000000001
 20
19.410799999999991
 30
0.0
 40
3.0923400000000001
  1
製図
 41
0.5
  0
TEXT
  5
1BC
  8
_________2
 62
     7
 10
23.788465333333338
 20
27.936800000000002
 30
0.0
 40
4.4979399999999989
  1
セラトレーディング株式会社
 41
0.5
 72
     1
 11
41.180500000000002
 21
27.936800000000002
 31
0.0
  0
LINE
  5
1BD
  8
_________2
 62
     7
 10
183.55099999999999
 20
-4.0910799999999998
 30
0.0
 11
17.049499999999998
 21
-4.0910799999999998
 31
0.0
  0
LINE
  5
1BE
  8
_________2
 62
     7
 10
17.049499999999998
 20
-4.0910799999999998
 30
0.0
 11
17.049499999999998
 21
258.911
 31
0.0
  0
LINE
  5
1BF
  8
_________2
 62
     7
 10
17.049499999999998
 20
258.911
 30
0.0
 11
183.55099999999999
 21
258.911
 31
0.0
  0
LINE
  5
1C0
  8
_________2
 62
     7
 10
183.55099999999999
 20
258.911
 30
0.0
 11
183.55099999999999
 21
-4.0910799999999998
 31
0.0
  0
LINE
  5
1C1
  8
_________2
 62
     7
 10
65.549599999999998
 20
9.4089600000000004
 30
0.0
 11
65.549599999999998
 21
35.908799999999999
 31
0.0
  0
LINE
  5
1C2
  8
_________2
 62
     7
 10
84.549700000000016
 20
9.4089600000000004
 30
0.0
 11
84.549700000000016
 21
35.908799999999999
 31
0.0
  0
LINE
  5
1C3
  8
_________2
 62
     7
 10
103.55
 20
-4.0910799999999998
 30
0.0
 11
103.55
 21
35.908799999999999
 31
0.0
  0
LINE
  5
1C4
  8
_________2
 62
     7
 10
28.549299999999992
 20
9.4089600000000004
 30
0.0
 11
28.549299999999992
 21
23.409199999999998
 31
0.0
  0
LINE
  5
1C5
  8
_________2
 62
     7
 10
17.049499999999998
 20
9.4089600000000004
 30
0.0
 11
103.55
 21
9.4089600000000004
 31
0.0
  0
LINE
  5
1C6
  8
_________2
 62
     7
 10
17.049499999999998
 20
23.409199999999998
 30
0.0
 11
103.55
 21
23.409199999999998
 31
0.0
  0
LINE
  5
1C7
  8
_________2
 62
     7
 10
103.55
 20
15.9085
 30
0.0
 11
183.55099999999999
 21
15.9085
 31
0.0
  0
LINE
  5
1C8
  8
_________2
 62
     7
 10
17.049499999999998
 20
35.908799999999999
 30
0.0
 11
183.55099999999999
 21
35.908799999999999
 31
0.0
  0
ENDSEC
  0
EOF
