  0
SECTION
  2
HEADER
  9
$ACADVER
  1
AC1009
  9
$INSBASE
 10
0.0
 20
0.0
 30
0.0
  9
$EXTMIN
 10
-4.70052
 20
-21.071400000000001
 30
0.0
  9
$EXTMAX
 10
205.30099999999999
 20
275.93099999999998
 30
0.0
  9
$LIMMIN
 10
0.0
 20
0.0
  9
$LIMMAX
 10
12.0
 20
9.0
  9
$ORTHOMODE
 70
     0
  9
$REGENMODE
 70
     1
  9
$FILLMODE
 70
     1
  9
$QTEXTMODE
 70
     0
  9
$MIRRTEXT
 70
     1
  9
$DRAGMODE
 70
     2
  9
$LTSCALE
 40
1.0
  9
$OSMODE
 70
    37
  9
$ATTMODE
 70
     1
  9
$TEXTSIZE
 40
0.0
  9
$TRACEWID
 40
0.05
  9
$TEXTSTYLE
  7
STANDARD
  9
$CLAYER
  8
0
  9
$CELTYPE
  6
CONTINUOUS
  9
$CECOLOR
 62
   256
  9
$DIMSCALE
 40
1.0
  9
$DIMASZ
 40
0.18
  9
$DIMEXO
 40
0.0625
  9
$DIMDLI
 40
0.38
  9
$DIMRND
 40
0.0
  9
$DIMDLE
 40
0.0
  9
$DIMEXE
 40
0.18
  9
$DIMTP
 40
0.0
  9
$DIMTM
 40
0.0
  9
$DIMTXT
 40
0.18
  9
$DIMCEN
 40
0.09
  9
$DIMTSZ
 40
0.0
  9
$DIMTOL
 70
     0
  9
$DIMLIM
 70
     0
  9
$DIMTIH
 70
     1
  9
$DIMTOH
 70
     1
  9
$DIMSE1
 70
     0
  9
$DIMSE2
 70
     0
  9
$DIMTAD
 70
     0
  9
$DIMZIN
 70
     0
  9
$DIMBLK
  1

  9
$DIMASO
 70
     1
  9
$DIMSHO
 70
     1
  9
$DIMPOST
  1

  9
$DIMAPOST
  1

  9
$DIMALT
 70
     0
  9
$DIMALTD
 70
     2
  9
$DIMALTF
 40
25.399999999999999
  9
$DIMLFAC
 40
1.0
  9
$DIMTOFL
 70
     0
  9
$DIMTVP
 40
0.0
  9
$DIMTIX
 70
     0
  9
$DIMSOXD
 70
     0
  9
$DIMSAH
 70
     0
  9
$DIMBLK1
  1

  9
$DIMBLK2
  1

  9
$DIMSTYLE
  2
STANDARD
  9
$DIMCLRD
 70
     0
  9
$DIMCLRE
 70
     0
  9
$DIMCLRT
 70
     0
  9
$DIMTFAC
 40
1.0
  9
$DIMGAP
 40
0.09
  9
$LUNITS
 70
     2
  9
$LUPREC
 70
     4
  9
$SKETCHINC
 40
0.1
  9
$FILLETRAD
 40
0.0
  9
$AUNITS
 70
     0
  9
$AUPREC
 70
     0
  9
$MENU
  1
.
  9
$ELEVATION
 40
0.0
  9
$PELEVATION
 40
0.0
  9
$THICKNESS
 40
0.0
  9
$LIMCHECK
 70
     0
  9
$BLIPMODE
 70
     0
  9
$CHAMFERA
 40
0.0
  9
$CHAMFERB
 40
0.0
  9
$SKPOLY
 70
     0
  9
$TDCREATE
 40
2444972.375
  9
$TDUPDATE
 40
2457435.2481429172
  9
$TDINDWG
 40
0.0000304167
  9
$TDUSRTIMER
 40
0.0000304167
  9
$USRTIMER
 70
     1
  9
$ANGBASE
 50
0.0
  9
$ANGDIR
 70
     0
  9
$PDMODE
 70
     0
  9
$PDSIZE
 40
0.0
  9
$PLINEWID
 40
0.0
  9
$COORDS
 70
     1
  9
$SPLFRAME
 70
     0
  9
$SPLINETYPE
 70
     6
  9
$SPLINESEGS
 70
     8
  9
$ATTDIA
 70
     1
  9
$ATTREQ
 70
     1
  9
$HANDLING
 70
     1
  9
$HANDSEED
  5
308
  9
$SURFTAB1
 70
     6
  9
$SURFTAB2
 70
     6
  9
$SURFTYPE
 70
     6
  9
$SURFU
 70
     6
  9
$SURFV
 70
     6
  9
$UCSNAME
  2

  9
$UCSORG
 10
0.0
 20
0.0
 30
0.0
  9
$UCSXDIR
 10
1.0
 20
0.0
 30
0.0
  9
$UCSYDIR
 10
0.0
 20
1.0
 30
0.0
  9
$PUCSNAME
  2

  9
$PUCSORG
 10
0.0
 20
0.0
 30
0.0
  9
$PUCSXDIR
 10
1.0
 20
0.0
 30
0.0
  9
$PUCSYDIR
 10
0.0
 20
1.0
 30
0.0
  9
$USERI1
 70
     0
  9
$USERI2
 70
     0
  9
$USERI3
 70
     0
  9
$USERI4
 70
     0
  9
$USERI5
 70
     0
  9
$USERR1
 40
0.0
  9
$USERR2
 40
0.0
  9
$USERR3
 40
0.0
  9
$USERR4
 40
0.0
  9
$USERR5
 40
0.0
  9
$WORLDVIEW
 70
     1
  9
$SHADEDGE
 70
     3
  9
$SHADEDIF
 70
    70
  9
$TILEMODE
 70
     1
  9
$MAXACTVP
 70
    48
  9
$PLIMCHECK
 70
     0
  9
$PEXTMIN
 10
1.0000000000000000E+020
 20
1.0000000000000000E+020
 30
1.0000000000000000E+020
  9
$PEXTMAX
 10
-1.0000000000000000E+020
 20
-1.0000000000000000E+020
 30
-1.0000000000000000E+020
  9
$PLIMMIN
 10
0.0
 20
0.0
  9
$PLIMMAX
 10
12.0
 20
9.0
  9
$UNITMODE
 70
     0
  9
$VISRETAIN
 70
     1
  9
$PLINEGEN
 70
     0
  9
$PSLTSCALE
 70
     1
  0
ENDSEC
  0
SECTION
  2
TABLES
  0
TABLE
  2
VPORT
 70
     1
  0
VPORT
  2
*ACTIVE
 70
     0
 10
0.0
 20
0.0
 11
1.0
 21
1.0
 12
156.29059996312719
 22
127.4298
 13
0.0
 23
0.0
 14
1.0
 24
1.0
 15
0.0
 25
0.0
 16
0.0
 26
0.0
 36
1.0
 17
0.0
 27
0.0
 37
0.0
 40
282.89992383679322
 41
2.0381526104417671
 42
50.0
 43
0.0
 44
0.0
 50
0.0
 51
0.0
 71
     0
 72
   100
 73
     1
 74
     1
 75
     0
 76
     0
 77
     0
 78
     0
  0
ENDTAB
  0
TABLE
  2
LTYPE
 70
     4
  0
LTYPE
  2
CONTINUOUS
 70
     0
  3
Solid line
 72
    65
 73
     0
 40
0.0
  0
LTYPE
  2
AIGENLINE001
 70
     0
  3
generate AI->DXF Converter
 72
    65
 73
     2
 40
1.5522299999999991
 49
0.776115
 49
-0.776115
  0
LTYPE
  2
AIGENLINE002
 70
     0
  3
generate AI->DXF Converter
 72
    65
 73
     4
 40
5.8561449999999988
 49
3.5278
 49
-0.776115
 49
0.776115
 49
-0.776115
  0
LTYPE
  2
AIGENLINE003
 70
     0
  3
generate AI->DXF Converter
 72
    65
 73
     6
 40
7.4083750000000004
 49
3.5278
 49
-0.776115
 49
0.776115
 49
-0.776115
 49
0.776115
 49
-0.776115
  0
ENDTAB
  0
TABLE
  2
LAYER
 70
     2
  0
LAYER
  2
0
 70
     0
 62
     7
  6
CONTINUOUS
  0
LAYER
  2
_________2
 70
     0
 62
     7
  6
CONTINUOUS
  0
ENDTAB
  0
TABLE
  2
STYLE
 70
     1
  0
STYLE
  2
STANDARD
 70
     0
 40
0.0
 41
0.0
 50
0.0
 71
     0
 42
0.0
  3
TXT
  4
EXTFONT.SHX
  0
ENDTAB
  0
TABLE
  2
VIEW
 70
     0
  0
ENDTAB
  0
TABLE
  2
UCS
 70
     0
  0
ENDTAB
  0
TABLE
  2
APPID
 70
     3
  0
APPID
  2
ACAD
 70
     0
  0
APPID
  2
ACAD_NAV_VCDISPLAY
 70
     0
  0
APPID
  2
ACAD_MLEADERVER
 70
     0
  0
ENDTAB
  0
TABLE
  2
DIMSTYLE
 70
     1
  0
DIMSTYLE
  2
STANDARD
 70
     0
  3

  4

  5

  6

  7

 40
1.0
 41
0.18
 42
0.0625
 43
0.38
 44
0.18
 45
0.0
 46
0.0
 47
0.0
 48
0.0
140
0.18
141
0.09
142
0.0
143
25.399999999999999
144
1.0
145
0.0
146
1.0
147
0.09
 71
     0
 72
     0
 73
     1
 74
     1
 75
     0
 76
     0
 77
     0
 78
     0
170
     0
171
     2
172
     0
173
     0
174
     0
175
     0
176
     0
177
     0
178
     0
  0
ENDTAB
  0
ENDSEC
  0
SECTION
  2
BLOCKS
  0
BLOCK
  8
0
  2
$MODEL_SPACE
 70
     0
 10
0.0
 20
0.0
 30
0.0
  3
$MODEL_SPACE
  1

  0
ENDBLK
  5
1A
  8
0
  0
BLOCK
 67
     1
  8
0
  2
$PAPER_SPACE
 70
     0
 10
0.0
 20
0.0
 30
0.0
  3
$PAPER_SPACE
  1

  0
ENDBLK
  5
17
 67
     1
  8
0
  0
ENDSEC
  0
SECTION
  2
ENTITIES
  0
TEXT
  5
24
  8
0
 62
     7
 10
153.83928750000001
 20
75.573099999999997
 30
0.0
 40
3.0923400000000001
  1
220
 41
0.5
 72
     1
 11
155.77199999999999
 21
75.573099999999997
 31
0.0
  0
TEXT
  5
25
  8
0
 62
     7
 10
161.97900000000001
 20
192.85828749999999
 30
0.0
 40
3.0923400000000001
  1
220
 50
90.0
 41
0.5
 72
     1
 11
161.97900000000001
 21
194.791
 31
0.0
  0
TEXT
  5
26
  8
0
 62
     7
 10
168.917
 20
190.35828749999999
 30
0.0
 40
3.0923400000000001
  1
270
 50
90.0
 41
0.5
 72
     1
 11
168.917
 21
192.291
 31
0.0
  0
TEXT
  5
27
  8
0
 62
     7
 10
106.798
 20
181.3582874999999
 30
0.0
 40
3.0923400000000001
  1
450
 50
90.0
 41
0.5
 72
     1
 11
106.798
 21
183.291
 31
0.0
  0
TEXT
  5
28
  8
0
 62
     7
 10
99.463999999999999
 20
176.47944000000001
 30
0.0
 40
3.0923400000000001
  1
345
 50
90.0
 41
0.5
 72
     1
 11
99.463999999999999
 21
178.541
 31
0.0
  0
TEXT
  5
29
  8
0
 62
     7
 10
99.463999999999999
 20
156.322
 30
0.0
 40
3.0923400000000001
  1
5
 50
90.0
 41
0.5
  0
TEXT
  5
2A
  8
0
 62
     7
 10
99.463999999999999
 20
199.24483000000001
 30
0.0
 40
3.0923400000000001
  1
100
 50
90.0
 41
0.5
 72
     1
 11
99.463999999999999
 21
200.791
 31
0.0
  0
TEXT
  5
2B
  8
0
 62
     7
 10
92.1297
 20
201.75252499999999
 30
0.0
 40
3.0923400000000001
  1
55
 50
90.0
 41
0.5
 72
     1
 11
92.1297
 21
203.041
 31
0.0
  0
TEXT
  5
2C
  8
0
 62
     7
 10
92.1297
 20
196.75252499999999
 30
0.0
 40
3.0923400000000001
  1
45
 50
90.0
 41
0.5
 72
     1
 11
92.1297
 21
198.041
 31
0.0
  0
TEXT
  5
2D
  8
0
 62
     7
 10
142.292
 20
91.169529999999995
 30
0.0
 40
3.0923400000000001
  1
100
 50
90.0
 41
0.5
 72
     1
 11
142.292
 21
92.715699999999998
 31
0.0
  0
TEXT
  5
2E
  8
0
 62
     7
 10
26.9071
 20
90.419129999999996
 30
0.0
 40
3.0923400000000001
  1
115
 50
90.0
 41
0.5
 72
     1
 11
26.9071
 21
91.965299999999999
 31
0.0
  0
TEXT
  5
2F
  8
0
 62
     7
 10
103.108
 20
88.661834999999996
 30
0.0
 40
3.0923400000000001
  1
145
 50
90.0
 41
0.5
 72
     1
 11
103.108
 21
90.465699999999998
 31
0.0
  0
TEXT
  5
30
  8
0
 62
     7
 10
95.773099999999999
 20
94.177425000000014
 30
0.0
 40
3.0923400000000001
  1
45
 50
90.0
 41
0.5
 72
     1
 11
95.773099999999999
 21
95.465900000000005
 31
0.0
  0
TEXT
  5
31
  8
0
 62
     7
 10
59.05588749999999
 20
106.081
 30
0.0
 40
3.0923400000000001
  1
220
 41
0.5
 72
     1
 11
60.988599999999998
 21
106.081
 31
0.0
  0
TEXT
  5
32
  8
0
 62
     7
 10
146.83928750000001
 20
69.197599999999994
 30
0.0
 40
3.0923400000000001
  1
360
 41
0.5
 72
     1
 11
148.77199999999999
 21
69.197599999999994
 31
0.0
  0
TEXT
  5
33
  8
0
 62
     7
 10
59.05588749999999
 20
75.189999999999998
 30
0.0
 40
3.0923400000000001
  1
350
 41
0.5
 72
     1
 11
60.988599999999998
 21
75.189999999999998
 31
0.0
  0
TEXT
  5
34
  8
0
 62
     7
 10
59.05588749999999
 20
143.81399999999999
 30
0.0
 40
3.0923400000000001
  1
560
 41
0.5
 72
     1
 11
60.988599999999998
 21
143.81399999999999
 31
0.0
  0
TEXT
  5
35
  8
0
 62
     7
 10
59.05588749999999
 20
150.93899999999999
 30
0.0
 40
3.0923400000000001
  1
550
 41
0.5
 72
     1
 11
60.988599999999998
 21
150.93899999999999
 31
0.0
  0
TEXT
  5
36
  8
0
 62
     7
 10
59.05588749999999
 20
217.01400000000001
 30
0.0
 40
3.0923400000000001
  1
340
 41
0.5
 72
     1
 11
60.988599999999998
 21
217.01400000000001
 31
0.0
  0
TEXT
  5
37
  8
0
 62
     7
 10
145.93299999999999
 20
194.24600000000001
 30
0.0
 40
3.0923400000000001
  1
排水口
 41
0.5
  0
TEXT
  5
38
  8
0
 62
     7
 10
133.69
 20
185.51300000000001
 30
0.0
 40
3.0923400000000001
  1
R20
 41
0.5
  0
TEXT
  5
39
  8
0
 62
     7
 10
68.050380000000004
 20
179.15799999999999
 30
0.0
 40
3.0923400000000001
  1
%%c46
 41
0.5
 72
     2
 11
72.173500000000004
 21
179.15799999999999
 31
0.0
  0
TEXT
  5
3A
  8
0
 62
     7
 10
46.3187
 20
209.495
 30
0.0
 40
3.0923400000000001
  1
%%c35
 41
0.5
  0
TEXT
  5
3B
  8
0
 62
     7
 10
150.543454
 20
209.75800000000001
 30
0.0
 40
3.0923400000000001
  1
壁
 41
0.5
 72
     1
 11
151.26499999999999
 21
209.75800000000001
 31
0.0
  0
TEXT
  5
3C
  8
0
 62
     7
 10
142.83828750000001
 20
170.20699999999999
 30
0.0
 40
3.0923400000000001
  1
240
 41
0.5
 72
     1
 11
144.77099999999999
 21
170.20699999999999
 31
0.0
  0
TEXT
  5
3D
  8
0
 62
     7
 10
136.52475999999999
 20
161.119
 30
0.0
 40
3.0923400000000001
  1
カウンター切込寸法
 41
0.5
 72
     1
 11
144.77099999999999
 21
161.119
 31
0.0
  0
LINE
  5
3E
  8
0
 62
     7
 10
146.982
 20
75.458100000000002
 30
0.0
 11
144.77099999999999
 21
74.866200000000006
 31
0.0
  0
LINE
  5
3F
  8
0
 62
     7
 10
144.77099999999999
 20
74.866200000000006
 30
0.0
 11
146.982
 21
74.273600000000002
 31
0.0
  0
LINE
  5
40
  8
0
 62
     7
 10
146.982
 20
74.273600000000002
 30
0.0
 11
146.982
 21
75.458100000000002
 31
0.0
  0
LINE
  5
41
  8
0
 62
     7
 10
164.56100000000001
 20
74.2881
 30
0.0
 11
166.77199999999999
 21
74.880700000000004
 31
0.0
  0
LINE
  5
42
  8
0
 62
     7
 10
166.77199999999999
 20
74.880700000000004
 30
0.0
 11
164.56100000000001
 21
75.472899999999996
 31
0.0
  0
LINE
  5
43
  8
0
 62
     7
 10
164.56100000000001
 20
75.472899999999996
 30
0.0
 11
164.56100000000001
 21
74.2881
 31
0.0
  0
LINE
  5
44
  8
0
 62
     7
 10
144.77099999999999
 20
74.873099999999994
 30
0.0
 11
166.77199999999999
 21
74.873099999999994
 31
0.0
  0
LINE
  5
45
  8
0
 62
     7
 10
144.77099999999999
 20
74.173000000000002
 30
0.0
 11
144.77099999999999
 21
79.9054
 31
0.0
  0
LINE
  5
46
  8
0
 62
     7
 10
166.77199999999999
 20
67.804699999999997
 30
0.0
 11
166.77199999999999
 21
85.520600000000002
 31
0.0
  0
ARC
  5
47
  8
0
  6
AIGENLINE001
 62
     7
 10
141.01379299999999
 20
125.896575
 30
0.0
 40
38.181134
 50
264.79283800000002
 51
270.0114200000001
  0
ARC
  5
48
  8
0
  6
AIGENLINE001
 62
     7
 10
140.242986
 20
116.313389
 30
0.0
 40
28.567723999999998
 50
257.09332799999999
 51
264.58802800000001
  0
ARC
  5
49
  8
0
  6
AIGENLINE001
 62
     7
 10
138.80670900000001
 20
109.497287
 30
0.0
 40
21.603365
 50
248.529437
 51
256.76848799999999
  0
ARC
  5
4A
  8
0
  6
AIGENLINE001
 62
     7
 10
137.18059299999999
 20
105.154709
 30
0.0
 40
16.967110999999999
 50
232.85683700000001
 51
248.272077
  0
ARC
  5
4B
  8
0
  6
AIGENLINE001
 62
     7
 10
136.05298400000001
 20
103.402664
 30
0.0
 40
14.890494
 50
207.668237
 51
232.244831
  0
ARC
  5
4C
  8
0
  6
AIGENLINE001
 62
     7
 10
138.097981
 20
104.61605
 30
0.0
 40
17.265537999999999
 50
203.55738299999999
 51
208.08319
  0
ARC
  5
4D
  8
0
  6
AIGENLINE001
 62
     7
 10
61.297049000000001
 20
123.898735
 30
0.0
 40
98.999578999999997
 50
343.51374399999997
 51
344.66410000000002
  0
ARC
  5
4E
  8
0
  6
AIGENLINE001
 62
     7
 10
105.223133
 20
110.952994
 30
0.0
 40
53.205604999999998
 50
340.91093599999999
 51
343.45767599999999
  0
ARC
  5
4F
  8
0
  6
AIGENLINE001
 62
     7
 10
130.02462499999999
 20
102.485679
 30
0.0
 40
26.999006000000001
 50
337.11062200000009
 51
340.67896100000002
  0
ARC
  5
50
  8
0
  6
AIGENLINE001
 62
     7
 10
141.08669900000001
 20
97.883342000000013
 30
0.0
 40
15.018022999999999
 50
331.49932699999999
 51
336.87144499999999
  0
ARC
  5
51
  8
0
  6
AIGENLINE001
 62
     7
 10
146.53569400000001
 20
94.987278000000003
 30
0.0
 40
8.8476429999999997
 50
324.06000899999998
 51
331.143168
  0
ARC
  5
52
  8
0
  6
AIGENLINE001
 62
     7
 10
148.981056
 20
93.267040000000009
 30
0.0
 40
5.858280999999999
 50
313.52386500000011
 51
323.64418799999999
  0
ARC
  5
53
  8
0
  6
AIGENLINE001
 62
     7
 10
150.022524
 20
92.239141000000004
 30
0.0
 40
4.3960039999999996
 50
285.59947199999999
 51
312.90755100000001
  0
ARC
  5
54
  8
0
  6
AIGENLINE001
 62
     7
 10
149.47992400000001
 20
94.025238000000002
 30
0.0
 40
6.2623649999999991
 50
276.90196500000002
 51
285.98659800000001
  0
ARC
  5
55
  8
0
  6
AIGENLINE001
 62
     7
 10
148.881451
 20
98.295647999999986
 30
0.0
 40
10.574057
 50
271.34052400000002
 51
277.340642
  0
ARC
  5
56
  8
0
  6
AIGENLINE001
 62
     7
 10
148.546784
 20
106.414507
 30
0.0
 40
18.699082000000001
 50
269.922281
 51
271.78372100000001
  0
ARC
  5
57
  8
0
 62
     7
 10
152.23008999999999
 20
87.562448000000003
 30
0.0
 40
3.065475999999999
 50
274.94490300000001
 51
333.91921600000001
  0
ARC
  5
58
  8
0
 62
     7
 10
148.58224999999999
 20
83.905614000000014
 30
0.0
 40
0.310761
 50
96.274016000000003
 51
178.18118899999999
  0
ARC
  5
59
  8
0
 62
     7
 10
140.83618000000001
 20
101.15225700000001
 30
0.0
 40
18.011293999999999
 50
227.940597
 51
236.027219
  0
ARC
  5
5A
  8
0
 62
     7
 10
144.877568
 20
105.827955
 30
0.0
 40
24.190456000000001
 50
220.656193
 51
228.252589
  0
ARC
  5
5B
  8
0
 62
     7
 10
150.70218299999999
 20
111.04076000000001
 30
0.0
 40
32.005837
 50
207.24669700000001
 51
220.942195
  0
ARC
  5
5C
  8
0
 62
     7
 10
136.21786
 20
103.46860599999999
 30
0.0
 40
15.662264
 50
203.01037199999999
 51
206.87821099999999
  0
ARC
  5
5D
  8
0
 62
     7
 10
122.02221400000001
 20
97.465788000000003
 30
0.0
 40
0.250755
 50
180.0731199999999
 51
208.466487
  0
ARC
  5
5E
  8
0
 62
     7
 10
122.021575
 20
97.465468000000001
 30
0.0
 40
0.250116
 50
90.0
 51
179.99996999999999
  0
ARC
  5
5F
  8
0
 62
     7
 10
166.51216500000001
 20
86.474852999999996
 30
0.0
 40
0.259595
 50
272.12918200000001
 51
357.87082800000002
  0
LINE
  5
60
  8
0
 62
     7
 10
166.77199999999999
 20
97.715599999999995
 30
0.0
 11
166.77199999999999
 21
86.465199999999996
 31
0.0
  0
ARC
  5
61
  8
0
  6
AIGENLINE001
 62
     7
 10
64.969381999999996
 20
95.195972999999995
 30
0.0
 40
0.5197350000000001
 50
2.149020999999999
 51
87.870708999999991
  0
ARC
  5
62
  8
0
  6
AIGENLINE001
 62
     7
 10
64.969554000000002
 20
95.234779000000003
 30
0.0
 40
0.5195560000000001
 50
272.11098299999998
 51
357.86928599999999
  0
LINE
  5
63
  8
0
  6
AIGENLINE001
 62
     7
 10
64.988699999999994
 20
94.715599999999995
 30
0.0
 11
56.988399999999999
 21
94.715599999999995
 31
0.0
  0
ARC
  5
64
  8
0
  6
AIGENLINE001
 62
     7
 10
57.007750999999999
 20
95.234950999999995
 30
0.0
 40
0.5197350000000001
 50
182.14904100000001
 51
267.87072899999998
  0
ARC
  5
65
  8
0
  6
AIGENLINE001
 62
     7
 10
57.007579000000007
 20
95.196145000000016
 30
0.0
 40
0.5195560000000001
 50
92.110963999999996
 51
177.86926600000001
  0
LINE
  5
66
  8
0
  6
AIGENLINE001
 62
     7
 10
56.988399999999999
 20
95.715299999999999
 30
0.0
 11
64.988699999999994
 21
95.715299999999999
 31
0.0
  0
ARC
  5
67
  8
0
  6
AIGENLINE001
 62
     7
 10
50.488452000000002
 20
93.215485000000001
 30
0.0
 40
1.000032
 50
270.004954
 51
0.004925
  0
ARC
  5
68
  8
0
  6
AIGENLINE001
 62
     7
 10
50.488452000000002
 20
93.215656999999979
 30
0.0
 40
1.000032
 50
359.99507499999999
 51
89.995045999999988
  0
LINE
  5
69
  8
0
  6
AIGENLINE001
 62
     7
 10
50.488500000000002
 20
94.215699999999998
 30
0.0
 11
49.488599999999991
 21
94.215699999999998
 31
0.0
  0
ARC
  5
6A
  8
0
  6
AIGENLINE001
 62
     7
 10
49.488678999999991
 20
93.215656999999979
 30
0.0
 40
1.000032
 50
90.004935000000003
 51
180.00494499999999
  0
ARC
  5
6B
  8
0
  6
AIGENLINE001
 62
     7
 10
49.488678999999991
 20
93.215485000000001
 30
0.0
 40
1.000030999999999
 50
179.995036
 51
269.99508500000002
  0
LINE
  5
6C
  8
0
  6
AIGENLINE001
 62
     7
 10
49.488599999999991
 20
92.215500000000006
 30
0.0
 11
50.488500000000002
 21
92.215500000000006
 31
0.0
  0
ARC
  5
6D
  8
0
 62
     7
 10
141.47937300000001
 20
83.423635000000004
 30
0.0
 40
0.208361
 50
182.21259699999999
 51
267.78743300000002
  0
LINE
  5
6E
  8
0
  6
AIGENLINE001
 62
     7
 10
148.52099999999999
 20
87.715399999999988
 30
0.0
 11
147.071
 21
86.215400000000017
 31
0.0
  0
LINE
  5
6F
  8
0
  6
AIGENLINE001
 62
     7
 10
141.02099999999999
 20
87.715399999999988
 30
0.0
 11
142.471
 21
86.215400000000017
 31
0.0
  0
LINE
  5
70
  8
0
  6
AIGENLINE001
 62
     7
 10
147.071
 20
83.215400000000002
 30
0.0
 11
147.071
 21
86.215400000000017
 31
0.0
  0
LINE
  5
71
  8
0
  6
AIGENLINE001
 62
     7
 10
142.471
 20
83.215400000000002
 30
0.0
 11
142.471
 21
86.215400000000017
 31
0.0
  0
LINE
  5
72
  8
0
  6
AIGENLINE001
 62
     7
 10
142.471
 20
86.215400000000017
 30
0.0
 11
147.071
 21
86.215400000000017
 31
0.0
  0
LINE
  5
73
  8
0
  6
AIGENLINE001
 62
     7
 10
141.02099999999999
 20
87.715399999999988
 30
0.0
 11
148.52099999999999
 21
87.715399999999988
 31
0.0
  0
LINE
  5
74
  8
0
 62
     7
 10
144.77099999999999
 20
83.215400000000002
 30
0.0
 11
141.471
 21
83.215400000000002
 31
0.0
  0
LINE
  5
75
  8
0
 62
     7
 10
141.27099999999999
 20
86.215400000000017
 30
0.0
 11
141.27099999999999
 21
83.448999999999998
 31
0.0
  0
ARC
  5
76
  8
0
 62
     7
 10
148.06344000000001
 20
83.423635000000004
 30
0.0
 40
0.208361
 50
272.21258699999998
 51
357.78742299999999
  0
LINE
  5
77
  8
0
 62
     7
 10
148.548
 20
84.214500000000001
 30
0.0
 11
152.494
 21
84.508399999999995
 31
0.0
  0
LINE
  5
78
  8
0
 62
     7
 10
144.77099999999999
 20
83.215400000000002
 30
0.0
 11
148.071
 21
83.215400000000002
 31
0.0
  0
LINE
  5
79
  8
0
 62
     7
 10
130.77099999999999
 20
86.215400000000017
 30
0.0
 11
166.52199999999999
 21
86.215400000000017
 31
0.0
  0
LINE
  5
7A
  8
0
  6
AIGENLINE002
 62
     7
 10
163.91
 20
93.215599999999995
 30
0.0
 11
169.19900000000001
 21
93.215599999999995
 31
0.0
  0
LINE
  5
7B
  8
0
 62
     7
 10
122.02200000000001
 20
97.715599999999995
 30
0.0
 11
166.77199999999999
 21
97.715599999999995
 31
0.0
  0
LINE
  5
7C
  8
0
 62
     7
 10
148.27199999999999
 20
83.915499999999994
 30
0.0
 11
148.27199999999999
 21
83.415599999999984
 31
0.0
  0
LINE
  5
7D
  8
0
  6
AIGENLINE002
 62
     7
 10
161.27099999999999
 20
100.268
 30
0.0
 11
161.27099999999999
 21
94.387900000000002
 31
0.0
  0
LINE
  5
7E
  8
0
  6
AIGENLINE002
 62
     7
 10
144.77099999999999
 20
100.596
 30
0.0
 11
144.77099999999999
 21
80.605400000000003
 31
0.0
  0
ARC
  5
7F
  8
0
 62
     7
 10
57.696306999999997
 20
83.423230000000004
 30
0.0
 40
0.207948
 50
182.105391
 51
267.84530999999998
  0
ARC
  5
80
  8
0
 62
     7
 10
33.248333000000002
 20
97.455977000000004
 30
0.0
 40
0.259786
 50
92.133097000000006
 51
177.90634700000001
  0
ARC
  5
81
  8
0
 62
     7
 10
33.243836999999999
 20
97.465710000000016
 30
0.0
 40
0.255117
 50
180.05429799999999
 51
202.526667
  0
ARC
  5
82
  8
0
 62
     7
 10
48.144306999999991
 20
102.674678
 30
0.0
 40
16.038229000000001
 50
199.33256399999999
 51
217.63367500000001
  0
ARC
  5
83
  8
0
 62
     7
 10
50.949854999999992
 20
104.681449
 30
0.0
 40
19.485779000000001
 50
217.26943800000001
 51
227.12646599999999
  0
ARC
  5
84
  8
0
 62
     7
 10
54.642844999999987
 20
108.453513
 30
0.0
 40
24.763204000000002
 50
226.80256800000001
 51
233.05989099999999
  0
ARC
  5
85
  8
0
 62
     7
 10
58.808886000000001
 20
113.825639
 30
0.0
 40
31.560822000000002
 50
232.876125
 51
237.693388
  0
ARC
  5
86
  8
0
 62
     7
 10
63.144692000000013
 20
120.493368
 30
0.0
 40
39.513787000000001
 50
237.54685599999999
 51
240.16860700000001
  0
LINE
  5
87
  8
0
 62
     7
 10
69.777900000000002
 20
104.79600000000001
 30
0.0
 11
71.989500000000007
 21
105.389
 31
0.0
  0
LINE
  5
88
  8
0
 62
     7
 10
71.989500000000007
 20
105.389
 30
0.0
 11
69.777900000000002
 21
105.98099999999999
 31
0.0
  0
LINE
  5
89
  8
0
 62
     7
 10
69.777900000000002
 20
105.98099999999999
 30
0.0
 11
69.777900000000002
 21
104.79600000000001
 31
0.0
  0
LINE
  5
8A
  8
0
 62
     7
 10
52.199199999999998
 20
105.967
 30
0.0
 11
49.9876
 21
105.374
 31
0.0
  0
LINE
  5
8B
  8
0
 62
     7
 10
49.9876
 20
105.374
 30
0.0
 11
52.199199999999998
 21
104.782
 31
0.0
  0
LINE
  5
8C
  8
0
 62
     7
 10
52.199199999999998
 20
104.782
 30
0.0
 11
52.199199999999998
 21
105.967
 31
0.0
  0
LINE
  5
8D
  8
0
 62
     7
 10
71.988699999999994
 20
105.381
 30
0.0
 11
49.988500000000002
 21
105.381
 31
0.0
  0
LINE
  5
8E
  8
0
 62
     7
 10
60.988599999999998
 20
83.215400000000002
 30
0.0
 11
57.688499999999998
 21
83.215400000000002
 31
0.0
  0
LINE
  5
8F
  8
0
  6
AIGENLINE002
 62
     7
 10
52.433300000000003
 20
93.215599999999995
 30
0.0
 11
47.14439999999999
 21
93.215599999999995
 31
0.0
  0
LINE
  5
90
  8
0
 62
     7
 10
57.488500000000002
 20
86.215400000000017
 30
0.0
 11
57.488500000000002
 21
83.448999999999998
 31
0.0
  0
LINE
  5
91
  8
0
 62
     7
 10
49.988500000000002
 20
106.081
 30
0.0
 11
49.988500000000002
 21
95.953800000000001
 31
0.0
  0
LINE
  5
92
  8
0
 62
     7
 10
71.988699999999994
 20
106.081
 30
0.0
 11
71.988699999999994
 21
95.953800000000001
 31
0.0
  0
LINE
  5
93
  8
0
  6
AIGENLINE002
 62
     7
 10
49.988500000000002
 20
95.253699999999995
 30
0.0
 11
49.988500000000002
 21
91.045100000000005
 31
0.0
  0
ARC
  5
94
  8
0
  6
AIGENLINE001
 62
     7
 10
71.488681
 20
93.215485000000001
 30
0.0
 40
1.000030999999999
 50
179.995036
 51
269.99508500000002
  0
ARC
  5
95
  8
0
  6
AIGENLINE001
 62
     7
 10
71.488681
 20
93.215656999999979
 30
0.0
 40
1.000032
 50
90.004935000000003
 51
180.00494499999999
  0
LINE
  5
96
  8
0
  6
AIGENLINE001
 62
     7
 10
71.488600000000005
 20
94.215699999999998
 30
0.0
 11
72.488500000000002
 21
94.215699999999998
 31
0.0
  0
ARC
  5
97
  8
0
  6
AIGENLINE001
 62
     7
 10
72.488454000000004
 20
93.215656999999979
 30
0.0
 40
1.000032
 50
359.99507499999999
 51
89.995045999999988
  0
ARC
  5
98
  8
0
  6
AIGENLINE001
 62
     7
 10
72.488454000000004
 20
93.215485000000001
 30
0.0
 40
1.000032
 50
270.004954
 51
0.004925
  0
LINE
  5
99
  8
0
  6
AIGENLINE001
 62
     7
 10
72.488500000000002
 20
92.215500000000006
 30
0.0
 11
71.488600000000005
 21
92.215500000000006
 31
0.0
  0
ARC
  5
9A
  8
0
 62
     7
 10
64.280826000000005
 20
83.423230000000004
 30
0.0
 40
0.207948
 50
272.15472699999998
 51
357.894612
  0
ARC
  5
9B
  8
0
 62
     7
 10
88.728804999999994
 20
97.455981999999992
 30
0.0
 40
0.259781
 50
2.0925590000000001
 51
87.867958000000016
  0
ARC
  5
9C
  8
0
 62
     7
 10
88.733295999999996
 20
97.465710000000016
 30
0.0
 40
0.255117
 50
337.47335299999997
 51
359.9457220000001
  0
ARC
  5
9D
  8
0
 62
     7
 10
73.836585999999997
 20
102.67263800000001
 30
0.0
 40
16.034006000000002
 50
322.36391400000002
 51
340.66988600000002
  0
ARC
  5
9E
  8
0
 62
     7
 10
71.02727800000001
 20
104.681449
 30
0.0
 40
19.485779000000001
 50
312.87355400000001
 51
322.73058200000003
  0
ARC
  5
9F
  8
0
 62
     7
 10
67.334288000000001
 20
108.453513
 30
0.0
 40
24.763204000000002
 50
306.94012900000001
 51
313.197452
  0
ARC
  5
A0
  8
0
 62
     7
 10
63.168246999999987
 20
113.825639
 30
0.0
 40
31.560822000000002
 50
302.30663199999998
 51
307.123895
  0
ARC
  5
A1
  8
0
 62
     7
 10
58.832441000000003
 20
120.493368
 30
0.0
 40
39.513787000000001
 50
299.831413
 51
302.45316400000002
  0
ARC
  5
A2
  8
0
 62
     7
 10
80.704367000000005
 20
195.12264300000001
 30
0.0
 40
0.5494220000000001
 50
250.7326680000001
 51
254.1248379999999
  0
ARC
  5
A3
  8
0
 62
     7
 10
68.512538000000006
 20
151.385998
 30
0.0
 40
44.854712999999997
 50
73.693134000000001
 51
74.427553000000003
  0
ARC
  5
A4
  8
0
 62
     7
 10
76.069696999999991
 20
177.22673800000001
 30
0.0
 40
17.931591999999998
 50
70.633328000000006
 51
73.685286000000005
  0
ARC
  5
A5
  8
0
 62
     7
 10
78.91995
 20
185.43014600000001
 30
0.0
 40
9.2472419999999982
 50
64.092025000000007
 51
70.438913999999997
  0
ARC
  5
A6
  8
0
 62
     7
 10
80.468194999999994
 20
188.71285499999999
 30
0.0
 40
5.6181390000000002
 50
54.191054999999999
 51
63.667133999999997
  0
ARC
  5
A7
  8
0
 62
     7
 10
83.689858999999998
 20
193.17460700000001
 30
0.0
 40
0.114857
 50
50.981372
 51
55.278821000000001
  0
ARC
  5
A8
  8
0
 62
     7
 10
79.920008999999993
 20
187.84773100000001
 30
0.0
 40
6.6405179999999993
 50
50.050020000000011
 51
54.648310000000002
  0
ARC
  5
A9
  8
0
 62
     7
 10
77.865387999999996
 20
185.34009900000001
 30
0.0
 40
9.8822550000000007
 50
31.422059000000001
 51
50.253605999999991
  0
ARC
  5
AA
  8
0
 62
     7
 10
77.189164000000005
 20
184.82897399999999
 30
0.0
 40
10.726105
 50
16.125996000000001
 51
31.868773999999998
  0
ARC
  5
AB
  8
0
 62
     7
 10
88.048140999999987
 20
187.96923799999999
 30
0.0
 40
0.5778170000000001
 50
196.187231
 51
199.83389199999999
  0
ARC
  5
AC
  8
0
 62
     7
 10
79.809570999999991
 20
184.908705
 30
0.0
 40
8.2108919999999994
 50
16.277135000000001
 51
20.417838
  0
ARC
  5
AD
  8
0
 62
     7
 10
75.668451000000005
 20
183.67494600000001
 30
0.0
 40
12.531848999999999
 50
10.612829
 51
16.385117999999999
  0
ARC
  5
AE
  8
0
 62
     7
 10
67.729667000000006
 20
182.063762
 30
0.0
 40
20.631924999999999
 50
6.6622189999999986
 51
10.950313
  0
ARC
  5
AF
  8
0
 62
     7
 10
56.156708000000002
 20
180.59453199999999
 30
0.0
 40
32.297401000000001
 50
3.1868110000000001
 51
6.8691800000000001
  0
ARC
  5
B0
  8
0
 62
     7
 10
39.050091000000002
 20
179.497694
 30
0.0
 40
49.438749000000001
 50
359.795751
 51
3.3538769999999989
  0
ARC
  5
B1
  8
0
 62
     7
 10
-127.197681
 20
179.29816600000001
 30
0.0
 40
215.68620899999999
 50
359.67408499999999
 51
0.006186
  0
ARC
  5
B2
  8
0
 62
     7
 10
10.4155
 20
178.591611
 30
0.0
 40
78.071271999999993
 50
357.454836
 51
359.618135
  0
ARC
  5
B3
  8
0
 62
     7
 10
44.153013999999992
 20
177.21063599999999
 30
0.0
 40
44.305872999999998
 50
354.33644100000009
 51
357.30151000000001
  0
ARC
  5
B4
  8
0
 62
     7
 10
62.768043000000013
 20
175.44645600000001
 30
0.0
 40
25.60774
 50
350.40117099999998
 51
354.154111
  0
ARC
  5
B5
  8
0
 62
     7
 10
72.627541000000008
 20
173.855165
 30
0.0
 40
15.621116000000001
 50
347.647177
 51
350.12591200000003
  0
ARC
  5
B6
  8
0
 62
     7
 10
63.211252999999999
 20
176.76771600000001
 30
0.0
 40
25.456047000000002
 50
343.53666399999997
 51
345.77716299999997
  0
ARC
  5
B7
  8
0
 62
     7
 10
72.745982999999995
 20
173.989138
 30
0.0
 40
15.524820999999999
 50
338.37154600000002
 51
343.39826799999997
  0
ARC
  5
B8
  8
0
 62
     7
 10
77.128874999999994
 20
172.29277999999999
 30
0.0
 40
10.825327
 50
328.106898
 51
338.167506
  0
ARC
  5
B9
  8
0
 62
     7
 10
79.180803999999995
 20
171.09718799999999
 30
0.0
 40
8.4517740000000003
 50
315.74793299999999
 51
327.63907699999999
  0
ARC
  5
BA
  8
0
 62
     7
 10
79.151824000000005
 20
171.17401899999999
 30
0.0
 40
8.526216999999999
 50
300.43874
 51
315.51401199999998
  0
ARC
  5
BB
  8
0
 62
     7
 10
77.657826999999983
 20
173.50966099999999
 30
0.0
 40
11.29731
 50
291.805002
 51
300.97028499999999
  0
ARC
  5
BC
  8
0
 62
     7
 10
76.074198999999993
 20
177.219334
 30
0.0
 40
15.330083999999999
 50
285.16765900000001
 51
292.150239
  0
ARC
  5
BD
  8
0
 62
     7
 10
74.403846999999999
 20
182.98472699999999
 30
0.0
 40
21.331925999999999
 50
279.64957599999991
 51
285.44614300000001
  0
ARC
  5
BE
  8
0
 62
     7
 10
72.367407
 20
197.939787
 30
0.0
 40
36.420164999999997
 50
275.73574000000002
 51
278.86426999999998
  0
ARC
  5
BF
  8
0
 62
     7
 10
70.570307999999983
 20
214.76379900000001
 30
0.0
 40
53.339655999999998
 50
273.098769
 51
275.85036000000002
  0
ARC
  5
C0
  8
0
 62
     7
 10
68.614666999999997
 20
246.749911
 30
0.0
 40
85.385008999999997
 50
271.82769999999999
 51
273.24887999999999
  0
ARC
  5
C1
  8
0
 62
     7
 10
66.595345999999992
 20
306.03666800000002
 30
0.0
 40
144.706064
 50
270.771547
 51
271.87814900000001
  0
ARC
  5
C2
  8
0
 62
     7
 10
64.219290000000001
 20
455.07599800000003
 30
0.0
 40
293.76410899999991
 50
270.45829800000001
 51
270.84350899999998
  0
ARC
  5
C3
  8
0
 62
     7
 10
59.869875999999991
 20
1017.811
 30
0.0
 40
856.51626999999996
 50
270.20804800000002
 51
270.44814400000001
  0
ARC
  5
C4
  8
0
 62
     7
 10
65.183362000000002
 20
-499.1014009999999
 30
0.0
 40
660.40581199999986
 50
90.191163999999986
 51
90.363925999999992
  0
ARC
  5
C5
  8
0
 62
     7
 10
56.791859000000002
 20
-499.57478700000001
 30
0.0
 40
660.87920099999997
 50
89.636149000000003
 51
89.808817000000005
  0
ARC
  5
C6
  8
0
 62
     7
 10
65.718761000000001
 20
1676.039
 30
0.0
 40
1514.7529999999999
 50
269.62032299999998
 51
269.74575499999997
  0
ARC
  5
C7
  8
0
 62
     7
 10
57.626367000000002
 20
432.91668099999998
 30
0.0
 40
271.60456900000003
 50
268.82629400000002
 51
269.58960100000002
  0
ARC
  5
C8
  8
0
 62
     7
 10
54.700024999999989
 20
281.79024600000002
 30
0.0
 40
120.45001999999999
 50
267.528074
 51
268.74547100000001
  0
ARC
  5
C9
  8
0
 62
     7
 10
52.573897000000002
 20
231.11680699999999
 30
0.0
 40
69.732061000000002
 50
265.13526100000001
 51
267.47762699999998
  0
ARC
  5
CA
  8
0
 62
     7
 10
50.366610999999992
 20
203.89541399999999
 30
0.0
 40
42.421683000000002
 50
261.36473599999999
 51
264.98784499999999
  0
ARC
  5
CB
  8
0
 62
     7
 10
48.070577
 20
185.23914199999999
 30
0.0
 40
23.638127999999998
 50
255.01744199999999
 51
260.07725799999997
  0
ARC
  5
CC
  8
0
 62
     7
 10
46.288895999999987
 20
178.308707
 30
0.0
 40
16.482838000000001
 50
246.943093
 51
254.772099
  0
ARC
  5
CD
  8
0
 62
     7
 10
44.382922000000001
 20
173.609084
 30
0.0
 40
11.412502999999999
 50
235.888508
 51
246.5069740000001
  0
ARC
  5
CE
  8
0
 62
     7
 10
42.947355999999999
 20
171.34632300000001
 30
0.0
 40
8.7343520000000012
 50
224.72977800000001
 51
235.36112299999999
  0
ARC
  5
CF
  8
0
 62
     7
 10
42.64600699999999
 20
170.991253
 30
0.0
 40
8.2704759999999986
 50
208.94417799999999
 51
224.451458
  0
ARC
  5
D0
  8
0
 62
     7
 10
44.631453999999998
 20
172.17624799999999
 30
0.0
 40
10.581683999999999
 50
200.93091100000001
 51
209.35627500000001
  0
ARC
  5
D1
  8
0
 62
     7
 10
48.525251000000011
 20
173.749179
 30
0.0
 40
14.780659999999999
 50
195.97789800000001
 51
201.2337
  0
ARC
  5
D2
  8
0
 62
     7
 10
56.821230999999997
 20
176.230334
 30
0.0
 40
23.439349
 50
194.117242
 51
196.22649599999991
  0
ARC
  5
D3
  8
0
 62
     7
 10
49.905739000000011
 20
173.99168399999999
 30
0.0
 40
16.19393599999999
 50
187.74976599999999
 51
192.40346199999999
  0
ARC
  5
D4
  8
0
 62
     7
 10
62.082842999999997
 20
175.799936
 30
0.0
 40
28.504049999999999
 50
184.27959200000001
 51
188.05067
  0
ARC
  5
D5
  8
0
 62
     7
 10
82.156874999999985
 20
177.48845299999999
 30
0.0
 40
48.648468999999992
 50
181.55448899999999
 51
184.49844300000001
  0
ARC
  5
D6
  8
0
 62
     7
 10
113.668511
 20
178.585688
 30
0.0
 40
80.178638000000007
 50
180.23743300000001
 51
181.72742700000001
  0
ARC
  5
D7
  8
0
 62
     7
 10
223.82190900000001
 20
179.19708899999989
 30
0.0
 40
190.333687
 50
179.96254300000001
 51
180.28408099999999
  0
ARC
  5
D8
  8
0
 62
     7
 10
88.979575999999994
 20
179.32552699999999
 30
0.0
 40
55.491314000000003
 50
176.755244
 51
180.00422499999999
  0
ARC
  5
D9
  8
0
 62
     7
 10
68.486517000000006
 20
180.35709600000001
 30
0.0
 40
34.972960999999998
 50
173.15864500000001
 51
176.54224500000001
  0
ARC
  5
DA
  8
0
 62
     7
 10
55.793864999999997
 20
181.818544
 30
0.0
 40
22.196677999999999
 50
168.89371499999999
 51
173.001419
  0
ARC
  5
DB
  8
0
 62
     7
 10
47.242877
 20
183.44676699999999
 30
0.0
 40
13.492285000000001
 50
163.39959300000001
 51
168.68375700000001
  0
ARC
  5
DC
  8
0
 62
     7
 10
42.427115999999991
 20
184.825119
 30
0.0
 40
8.483630999999999
 50
159.665448
 51
163.028572
  0
ARC
  5
DD
  8
0
 62
     7
 10
33.904626999999998
 20
187.977047
 30
0.0
 40
0.603062
 50
340.24248
 51
343.73643700000002
  0
ARC
  5
DE
  8
0
 62
     7
 10
44.841070000000002
 20
184.77828500000001
 30
0.0
 40
10.79158
 50
134.16773000000001
 51
163.69426100000001
  0
ARC
  5
DF
  8
0
 62
     7
 10
43.301085999999991
 20
186.25927999999999
 30
0.0
 40
8.6565619999999992
 50
125.98581299999999
 51
133.686307
  0
ARC
  5
E0
  8
0
 62
     7
 10
38.293253
 20
193.16617500000001
 30
0.0
 40
0.12539
 50
124.901724
 51
128.838044
  0
ARC
  5
E1
  8
0
 62
     7
 10
41.136187999999997
 20
189.30715000000001
 30
0.0
 40
4.9185059999999989
 50
117.956653
 51
126.3413129999999
  0
ARC
  5
E2
  8
0
 62
     7
 10
42.26480999999999
 20
187.2520429999999
 30
0.0
 40
7.2629659999999996
 50
110.433993
 51
118.2207149999999
  0
ARC
  5
E3
  8
0
 62
     7
 10
44.250352999999997
 20
182.20484500000001
 30
0.0
 40
12.686159999999999
 50
107.11577200000001
 51
110.87878600000001
  0
ARC
  5
E4
  8
0
 62
     7
 10
48.710023999999997
 20
168.00191899999999
 30
0.0
 40
27.572686000000001
 50
105.32503
 51
107.286559
  0
ARC
  5
E5
  8
0
 62
     7
 10
41.290498999999997
 20
195.06555700000001
 30
0.0
 40
0.489572
 50
285.66776399999998
 51
289.47476999999998
  0
ARC
  5
E6
  8
0
 62
     7
 10
76.979517999999999
 20
180.50477699999999
 30
0.0
 40
14.535769999999999
 50
75.764102000000008
 51
78.864900000000006
  0
ARC
  5
E7
  8
0
 62
     7
 10
75.123154
 20
171.33432400000001
 30
0.0
 40
23.892144999999999
 50
78.744054000000006
 51
81.429645999999991
  0
ARC
  5
E8
  8
0
 62
     7
 10
72.936771999999991
 20
157.215171
 30
0.0
 40
38.179504999999999
 50
81.342782999999997
 51
83.630546999999993
  0
ARC
  5
E9
  8
0
 62
     7
 10
70.493036000000004
 20
136.20594299999999
 30
0.0
 40
59.33023399999999
 50
83.535994999999986
 51
85.173177999999993
  0
ARC
  5
EA
  8
0
 62
     7
 10
68.068974999999995
 20
108.431493
 30
0.0
 40
87.210189999999997
 50
85.121666000000005
 51
86.537646999999993
  0
ARC
  5
EB
  8
0
 62
     7
 10
65.091566999999998
 20
60.639696000000001
 30
0.0
 40
135.094594
 50
86.501298000000006
 51
88.274843999999987
  0
ARC
  5
EC
  8
0
 62
     7
 10
62.139114999999997
 20
-24.198657000000001
 30
0.0
 40
219.983735
 50
88.171428000000006
 51
89.539111000000005
  0
ARC
  5
ED
  8
0
 62
     7
 10
61.040241000000002
 20
-111.277501
 30
0.0
 40
307.06885899999997
 50
89.464774000000006
 51
90.009631999999996
  0
ARC
  5
EE
  8
0
 62
     7
 10
44.99727
 20
180.50477699999999
 30
0.0
 40
14.535769999999999
 50
101.13508
 51
104.235878
  0
ARC
  5
EF
  8
0
 62
     7
 10
46.854385999999998
 20
171.33002300000001
 30
0.0
 40
23.896509999999999
 50
98.570580000000007
 51
101.255681
  0
ARC
  5
F0
  8
0
 62
     7
 10
49.039873
 20
157.21614400000001
 30
0.0
 40
38.178521999999987
 50
96.369372999999996
 51
98.657203999999993
  0
ARC
  5
F1
  8
0
 62
     7
 10
51.483438
 20
136.20885000000001
 30
0.0
 40
59.327309999999997
 50
94.826721000000006
 51
96.463995000000011
  0
ARC
  5
F2
  8
0
 62
     7
 10
53.907496999999999
 20
108.435509
 30
0.0
 40
87.206160999999994
 50
93.46226399999999
 51
94.878321
  0
ARC
  5
F3
  8
0
 62
     7
 10
56.88524000000001
 20
60.638845999999987
 30
0.0
 40
135.09544099999999
 50
91.725096999999991
 51
93.498654999999985
  0
ARC
  5
F4
  8
0
 62
     7
 10
59.837910000000001
 20
-24.208483999999999
 30
0.0
 40
219.993561
 50
90.460852999999986
 51
91.828509999999994
  0
ARC
  5
F5
  8
0
 62
     7
 10
60.936871999999987
 20
-111.299812
 30
0.0
 40
307.09116999999998
 50
89.990344999999976
 51
90.535186999999993
  0
ARC
  5
F6
  8
0
 62
     7
 10
60.988480000000003
 20
200.29128
 30
0.0
 40
1.7498610000000001
 50
270.00283999999999
 51
0.00281
  0
ARC
  5
F7
  8
0
 62
     7
 10
60.988480000000003
 20
200.29145199999999
 30
0.0
 40
1.7500329999999999
 50
180.00282999999999
 51
270.00283999999999
  0
ARC
  5
F8
  8
0
 62
     7
 10
60.988481000000007
 20
200.29128
 30
0.0
 40
1.7500340000000001
 50
89.997179999999986
 51
179.99715
  0
ARC
  5
F9
  8
0
 62
     7
 10
60.988480000000003
 20
200.29145199999999
 30
0.0
 40
1.7498610000000001
 50
359.99718999999999
 51
89.997159999999994
  0
LINE
  5
FA
  8
0
  6
AIGENLINE002
 62
     7
 10
57.44769999999999
 20
200.291
 30
0.0
 11
64.644199999999998
 21
200.291
 31
0.0
  0
ARC
  5
FB
  8
0
  6
AIGENLINE001
 62
     7
 10
144.68382500000001
 20
183.87906899999999
 30
0.0
 40
2.3894980000000001
 50
272.1087950000001
 51
357.89550500000001
  0
ARC
  5
FC
  8
0
  6
AIGENLINE001
 62
     7
 10
144.77149199999999
 20
183.79158000000001
 30
0.0
 40
2.300390999999999
 50
180.0064449999999
 51
270.00645500000002
  0
ARC
  5
FD
  8
0
  6
AIGENLINE001
 62
     7
 10
144.77140700000001
 20
183.790977
 30
0.0
 40
2.3003049999999989
 50
89.991418999999993
 51
179.991389
  0
ARC
  5
FE
  8
0
  6
AIGENLINE001
 62
     7
 10
144.6831949999999
 20
183.702765
 30
0.0
 40
2.390158
 50
2.1233140000000001
 51
87.876676000000003
  0
ARC
  5
FF
  8
0
  6
AIGENLINE001
 62
     7
 10
144.77149199999999
 20
183.79106400000001
 30
0.0
 40
3.7499250000000002
 50
270.0039680000001
 51
0.003938
  0
ARC
  5
100
  8
0
  6
AIGENLINE001
 62
     7
 10
144.77166399999999
 20
183.79140699999999
 30
0.0
 40
3.7502680000000002
 50
180.00132600000001
 51
270.00133599999998
  0
ARC
  5
101
  8
0
  6
AIGENLINE001
 62
     7
 10
144.77158
 20
183.79114899999999
 30
0.0
 40
3.7501829999999998
 50
89.997367999999994
 51
179.99733800000001
  0
ARC
  5
102
  8
0
  6
AIGENLINE001
 62
     7
 10
144.77157800000001
 20
183.791493
 30
0.0
 40
3.7498390000000001
 50
359.99737800000003
 51
89.997348000000002
  0
ARC
  5
103
  8
0
 62
     7
 10
60.988480000000003
 20
183.791236
 30
0.0
 40
2.3000470000000002
 50
270.00216499999999
 51
0.002136
  0
ARC
  5
104
  8
0
 62
     7
 10
60.988480000000003
 20
183.79140699999999
 30
0.0
 40
2.3002180000000001
 50
180.00215499999999
 51
270.00216499999999
  0
ARC
  5
105
  8
0
 62
     7
 10
60.988394999999997
 20
183.79114899999999
 30
0.0
 40
2.3001330000000002
 50
89.995709000000005
 51
179.995679
  0
ARC
  5
106
  8
0
 62
     7
 10
60.988566000000013
 20
183.79132100000001
 30
0.0
 40
2.2999610000000001
 50
0.00001
 51
89.999980000000008
  0
ARC
  5
107
  8
0
 62
     7
 10
60.988480000000003
 20
183.791236
 30
0.0
 40
3.7500969999999998
 50
270.00133599999998
 51
0.001306
  0
ARC
  5
108
  8
0
 62
     7
 10
60.988480000000003
 20
183.79140699999999
 30
0.0
 40
3.7502680000000002
 50
180.00132600000001
 51
270.00133599999998
  0
ARC
  5
109
  8
0
 62
     7
 10
60.988394999999997
 20
183.79114899999999
 30
0.0
 40
3.7501829999999998
 50
89.997367999999994
 51
179.99733800000001
  0
ARC
  5
10A
  8
0
 62
     7
 10
60.988566000000013
 20
183.79132100000001
 30
0.0
 40
3.7500110000000002
 50
0.00001
 51
89.999980000000008
  0
LINE
  5
10B
  8
0
 62
     7
 10
35.698599999999999
 20
150.83099999999999
 30
0.0
 11
33.488300000000002
 21
150.239
 31
0.0
  0
LINE
  5
10C
  8
0
 62
     7
 10
33.488300000000002
 20
150.239
 30
0.0
 11
35.698599999999999
 21
149.64699999999999
 31
0.0
  0
LINE
  5
10D
  8
0
 62
     7
 10
35.698599999999999
 20
149.64699999999999
 30
0.0
 11
35.698599999999999
 21
150.83099999999999
 31
0.0
  0
LINE
  5
10E
  8
0
 62
     7
 10
86.277999999999977
 20
149.64699999999999
 30
0.0
 11
88.488500000000002
 21
150.239
 31
0.0
  0
LINE
  5
10F
  8
0
 62
     7
 10
88.488500000000002
 20
150.239
 30
0.0
 11
86.277999999999977
 21
150.83199999999999
 31
0.0
  0
LINE
  5
110
  8
0
 62
     7
 10
86.277999999999977
 20
150.83199999999999
 30
0.0
 11
86.277999999999977
 21
149.64699999999999
 31
0.0
  0
LINE
  5
111
  8
0
 62
     7
 10
33.488300000000002
 20
150.239
 30
0.0
 11
88.488500000000002
 21
150.239
 31
0.0
  0
LINE
  5
112
  8
0
 62
     7
 10
132.982
 20
69.082499999999996
 30
0.0
 11
130.77199999999999
 21
68.490700000000004
 31
0.0
  0
LINE
  5
113
  8
0
 62
     7
 10
130.77199999999999
 20
68.490700000000004
 30
0.0
 11
132.982
 21
67.898099999999999
 31
0.0
  0
LINE
  5
114
  8
0
 62
     7
 10
132.982
 20
67.898099999999999
 30
0.0
 11
132.982
 21
69.082499999999996
 31
0.0
  0
LINE
  5
115
  8
0
 62
     7
 10
164.56100000000001
 20
67.912599999999998
 30
0.0
 11
166.77199999999999
 21
68.504800000000003
 31
0.0
  0
LINE
  5
116
  8
0
 62
     7
 10
166.77199999999999
 20
68.504800000000003
 30
0.0
 11
164.56100000000001
 21
69.096999999999994
 31
0.0
  0
LINE
  5
117
  8
0
 62
     7
 10
164.56100000000001
 20
69.096999999999994
 30
0.0
 11
164.56100000000001
 21
67.912599999999998
 31
0.0
  0
LINE
  5
118
  8
0
 62
     7
 10
130.77199999999999
 20
68.497500000000002
 30
0.0
 11
166.77199999999999
 21
68.497500000000002
 31
0.0
  0
LINE
  5
119
  8
0
 62
     7
 10
130.77199999999999
 20
67.797499999999985
 30
0.0
 11
130.77199999999999
 21
85.515400000000014
 31
0.0
  0
LINE
  5
11A
  8
0
 62
     7
 10
45.698799999999999
 20
75.075000000000003
 30
0.0
 11
43.488399999999999
 21
74.483099999999993
 31
0.0
  0
LINE
  5
11B
  8
0
 62
     7
 10
43.488399999999999
 20
74.483099999999993
 30
0.0
 11
45.698799999999999
 21
73.890500000000003
 31
0.0
  0
LINE
  5
11C
  8
0
 62
     7
 10
45.698799999999999
 20
73.890500000000003
 30
0.0
 11
45.698799999999999
 21
75.075000000000003
 31
0.0
  0
LINE
  5
11D
  8
0
 62
     7
 10
76.277799999999999
 20
73.905000000000001
 30
0.0
 11
78.488399999999999
 21
74.497200000000007
 31
0.0
  0
LINE
  5
11E
  8
0
 62
     7
 10
78.488399999999999
 20
74.497200000000007
 30
0.0
 11
76.277799999999999
 21
75.089399999999983
 31
0.0
  0
LINE
  5
11F
  8
0
 62
     7
 10
76.277799999999999
 20
75.089399999999983
 30
0.0
 11
76.277799999999999
 21
73.905000000000001
 31
0.0
  0
LINE
  5
120
  8
0
 62
     7
 10
43.488399999999999
 20
74.489999999999995
 30
0.0
 11
78.488399999999999
 21
74.489999999999995
 31
0.0
  0
LINE
  5
121
  8
0
 62
     7
 10
43.488399999999999
 20
73.789900000000003
 30
0.0
 11
43.488399999999999
 21
85.515400000000014
 31
0.0
  0
LINE
  5
122
  8
0
 62
     7
 10
78.488399999999999
 20
73.789900000000003
 30
0.0
 11
78.488399999999999
 21
85.515400000000014
 31
0.0
  0
LINE
  5
123
  8
0
 62
     7
 10
35.198799999999999
 20
143.6989999999999
 30
0.0
 11
32.988399999999999
 21
143.107
 31
0.0
  0
LINE
  5
124
  8
0
 62
     7
 10
32.988399999999999
 20
143.107
 30
0.0
 11
35.198799999999999
 21
142.51400000000001
 31
0.0
  0
LINE
  5
125
  8
0
 62
     7
 10
35.198799999999999
 20
142.51400000000001
 30
0.0
 11
35.198799999999999
 21
143.6989999999999
 31
0.0
  0
LINE
  5
126
  8
0
 62
     7
 10
86.777899999999988
 20
142.529
 30
0.0
 11
88.988399999999984
 21
143.12100000000001
 31
0.0
  0
LINE
  5
127
  8
0
 62
     7
 10
88.988399999999984
 20
143.12100000000001
 30
0.0
 11
86.777899999999988
 21
143.71299999999999
 31
0.0
  0
LINE
  5
128
  8
0
 62
     7
 10
86.777899999999988
 20
143.71299999999999
 30
0.0
 11
86.777899999999988
 21
142.529
 31
0.0
  0
LINE
  5
129
  8
0
 62
     7
 10
60.988599999999998
 20
83.215400000000002
 30
0.0
 11
64.288600000000002
 21
83.215400000000002
 31
0.0
  0
LINE
  5
12A
  8
0
 62
     7
 10
43.488199999999992
 20
86.215400000000017
 30
0.0
 11
78.488600000000005
 21
86.215400000000017
 31
0.0
  0
LINE
  5
12B
  8
0
  6
AIGENLINE002
 62
     7
 10
55.722000000000001
 20
95.215500000000006
 30
0.0
 11
66.393600000000006
 21
95.215500000000006
 31
0.0
  0
LINE
  5
12C
  8
0
  6
AIGENLINE002
 62
     7
 10
69.543800000000005
 20
93.215599999999995
 30
0.0
 11
74.832800000000006
 21
93.215599999999995
 31
0.0
  0
LINE
  5
12D
  8
0
 62
     7
 10
33.238700000000001
 20
97.715599999999995
 30
0.0
 11
88.738500000000002
 21
97.715599999999995
 31
0.0
  0
LINE
  5
12E
  8
0
 62
     7
 10
64.488600000000005
 20
86.215400000000017
 30
0.0
 11
64.488600000000005
 21
83.448999999999998
 31
0.0
  0
LINE
  5
12F
  8
0
  6
AIGENLINE002
 62
     7
 10
71.988699999999994
 20
95.253699999999995
 30
0.0
 11
71.988699999999994
 21
91.045100000000005
 31
0.0
  0
LINE
  5
130
  8
0
  6
AIGENLINE002
 62
     7
 10
60.988599999999998
 20
100.596
 30
0.0
 11
60.988599999999998
 21
80.605400000000003
 31
0.0
  0
LINE
  5
131
  8
0
 62
     7
 10
32.988399999999999
 20
143.114
 30
0.0
 11
88.988399999999984
 21
143.114
 31
0.0
  0
LINE
  5
132
  8
0
 62
     7
 10
32.988399999999999
 20
142.41399999999999
 30
0.0
 11
32.988399999999999
 21
171.71000000000001
 31
0.0
  0
LINE
  5
133
  8
0
 62
     7
 10
33.488300000000002
 20
149.53899999999999
 30
0.0
 11
33.488300000000002
 21
169.41300000000001
 31
0.0
  0
LINE
  5
134
  8
0
 62
     7
 10
88.488500000000002
 20
149.53899999999999
 30
0.0
 11
88.488500000000002
 21
169.41300000000001
 31
0.0
  0
LINE
  5
135
  8
0
 62
     7
 10
88.988399999999984
 20
142.41399999999999
 30
0.0
 11
88.988399999999984
 21
171.71000000000001
 31
0.0
  0
LINE
  5
136
  8
0
 62
     7
 10
46.198700000000002
 20
216.899
 30
0.0
 11
43.988300000000002
 21
216.30699999999999
 31
0.0
  0
LINE
  5
137
  8
0
 62
     7
 10
43.988300000000002
 20
216.30699999999999
 30
0.0
 11
46.198700000000002
 21
215.714
 31
0.0
  0
LINE
  5
138
  8
0
 62
     7
 10
46.198700000000002
 20
215.714
 30
0.0
 11
46.198700000000002
 21
216.899
 31
0.0
  0
LINE
  5
139
  8
0
 62
     7
 10
75.777900000000002
 20
215.72900000000001
 30
0.0
 11
77.988500000000002
 21
216.321
 31
0.0
  0
LINE
  5
13A
  8
0
 62
     7
 10
77.988500000000002
 20
216.321
 30
0.0
 11
75.777900000000002
 21
216.91300000000001
 31
0.0
  0
LINE
  5
13B
  8
0
 62
     7
 10
75.777900000000002
 20
216.91300000000001
 30
0.0
 11
75.777900000000002
 21
215.72900000000001
 31
0.0
  0
LINE
  5
13C
  8
0
 62
     7
 10
43.988300000000002
 20
216.31399999999999
 30
0.0
 11
77.988500000000002
 21
216.31399999999999
 31
0.0
  0
LINE
  5
13D
  8
0
 62
     7
 10
43.988300000000002
 20
217.01400000000001
 30
0.0
 11
43.988300000000002
 21
206.517
 31
0.0
  0
LINE
  5
13E
  8
0
 62
     7
 10
77.988500000000002
 20
217.01400000000001
 30
0.0
 11
77.988500000000002
 21
206.517
 31
0.0
  0
LINE
  5
13F
  8
0
 62
     7
 10
73.672799999999995
 20
195.791
 30
0.0
 11
100.864
 21
195.791
 31
0.0
  0
LINE
  5
140
  8
0
 62
     7
 10
75.710599999999999
 20
93.215599999999995
 30
0.0
 11
97.173100000000005
 21
93.215599999999995
 31
0.0
  0
LINE
  5
141
  8
0
 62
     7
 10
26.9071
 20
86.215400000000017
 30
0.0
 11
42.438499999999998
 21
86.215400000000017
 31
0.0
  0
LINE
  5
142
  8
0
 62
     7
 10
26.9071
 20
97.715599999999995
 30
0.0
 11
32.188600000000001
 21
97.715599999999995
 31
0.0
  0
LINE
  5
143
  8
0
 62
     7
 10
28.199000000000002
 20
95.505200000000002
 30
0.0
 11
27.607099999999999
 21
97.715599999999995
 31
0.0
  0
LINE
  5
144
  8
0
 62
     7
 10
27.607099999999999
 20
97.715599999999995
 30
0.0
 11
27.014500000000002
 21
95.505200000000002
 31
0.0
  0
LINE
  5
145
  8
0
 62
     7
 10
27.014500000000002
 20
95.505200000000002
 30
0.0
 11
28.199000000000002
 21
95.505200000000002
 31
0.0
  0
LINE
  5
146
  8
0
 62
     7
 10
27.014500000000002
 20
88.426199999999994
 30
0.0
 11
27.607099999999999
 21
86.215400000000017
 31
0.0
  0
LINE
  5
147
  8
0
 62
     7
 10
27.607099999999999
 20
86.215400000000017
 30
0.0
 11
28.199000000000002
 21
88.426199999999994
 31
0.0
  0
LINE
  5
148
  8
0
 62
     7
 10
28.199000000000002
 20
88.426199999999994
 30
0.0
 11
27.014500000000002
 21
88.426199999999994
 31
0.0
  0
LINE
  5
149
  8
0
 62
     7
 10
27.607099999999999
 20
97.715599999999995
 30
0.0
 11
27.607099999999999
 21
86.215400000000017
 31
0.0
  0
LINE
  5
14A
  8
0
 62
     7
 10
65.387600000000006
 20
83.215400000000002
 30
0.0
 11
104.508
 21
83.215400000000002
 31
0.0
  0
LINE
  5
14B
  8
0
 62
     7
 10
89.8245
 20
97.715599999999995
 30
0.0
 11
104.508
 21
97.715599999999995
 31
0.0
  0
LINE
  5
14C
  8
0
 62
     7
 10
104.399
 20
95.505200000000002
 30
0.0
 11
103.80800000000001
 21
97.715599999999995
 31
0.0
  0
LINE
  5
14D
  8
0
 62
     7
 10
103.80800000000001
 20
97.715599999999995
 30
0.0
 11
103.215
 21
95.505200000000002
 31
0.0
  0
LINE
  5
14E
  8
0
 62
     7
 10
103.215
 20
95.505200000000002
 30
0.0
 11
104.399
 21
95.505200000000002
 31
0.0
  0
LINE
  5
14F
  8
0
 62
     7
 10
103.215
 20
85.426199999999994
 30
0.0
 11
103.80800000000001
 21
83.215400000000002
 31
0.0
  0
LINE
  5
150
  8
0
 62
     7
 10
103.80800000000001
 20
83.215400000000002
 30
0.0
 11
104.399
 21
85.426199999999994
 31
0.0
  0
LINE
  5
151
  8
0
 62
     7
 10
104.399
 20
85.426199999999994
 30
0.0
 11
103.215
 21
85.426199999999994
 31
0.0
  0
LINE
  5
152
  8
0
 62
     7
 10
103.80800000000001
 20
97.715599999999995
 30
0.0
 11
103.80800000000001
 21
83.215400000000002
 31
0.0
  0
LINE
  5
153
  8
0
 62
     7
 10
97.065299999999993
 20
91.005200000000016
 30
0.0
 11
96.473100000000002
 21
93.215599999999995
 31
0.0
  0
LINE
  5
154
  8
0
 62
     7
 10
96.473100000000002
 20
93.215599999999995
 30
0.0
 11
95.880899999999997
 21
91.005200000000016
 31
0.0
  0
LINE
  5
155
  8
0
 62
     7
 10
95.880899999999997
 20
91.005200000000016
 30
0.0
 11
97.065299999999993
 21
91.005200000000016
 31
0.0
  0
LINE
  5
156
  8
0
 62
     7
 10
95.880899999999997
 20
99.926299999999998
 30
0.0
 11
96.473100000000002
 21
97.715599999999995
 31
0.0
  0
LINE
  5
157
  8
0
 62
     7
 10
96.473100000000002
 20
97.715599999999995
 30
0.0
 11
97.065299999999993
 21
99.926299999999998
 31
0.0
  0
LINE
  5
158
  8
0
 62
     7
 10
97.065299999999993
 20
99.926299999999998
 30
0.0
 11
95.880899999999997
 21
99.926299999999998
 31
0.0
  0
LINE
  5
159
  8
0
 62
     7
 10
96.473100000000002
 20
100.88200000000001
 30
0.0
 11
96.473100000000002
 21
90.326199999999986
 31
0.0
  0
LINE
  5
15A
  8
0
 62
     7
 10
65.344200000000001
 20
200.291
 30
0.0
 11
93.529799999999994
 21
200.291
 31
0.0
  0
LINE
  5
15B
  8
0
 62
     7
 10
79.450299999999999
 20
161.291
 30
0.0
 11
100.864
 21
161.291
 31
0.0
  0
LINE
  5
15C
  8
0
 62
     7
 10
75.462900000000005
 20
160.791
 30
0.0
 11
108.19799999999999
 21
160.791
 31
0.0
  0
LINE
  5
15D
  8
0
 62
     7
 10
78.688500000000005
 20
205.791
 30
0.0
 11
108.19799999999999
 21
205.791
 31
0.0
  0
LINE
  5
15E
  8
0
 62
     7
 10
66.321600000000004
 20
178.458
 30
0.0
 11
72.173500000000004
 21
178.458
 31
0.0
  0
LINE
  5
15F
  8
0
 62
     7
 10
64.596599999999995
 20
181.02099999999999
 30
0.0
 11
62.614800000000002
 21
182.16499999999999
 31
0.0
  0
LINE
  5
160
  8
0
 62
     7
 10
62.614800000000002
 20
182.16499999999999
 30
0.0
 11
63.758999999999993
 21
180.18299999999999
 31
0.0
  0
LINE
  5
161
  8
0
 62
     7
 10
63.758999999999993
 20
180.18299999999999
 30
0.0
 11
64.596599999999995
 21
181.02099999999999
 31
0.0
  0
LINE
  5
162
  8
0
 62
     7
 10
57.3855
 20
186.56700000000001
 30
0.0
 11
59.3673
 21
185.423
 31
0.0
  0
LINE
  5
163
  8
0
 62
     7
 10
59.3673
 20
185.423
 30
0.0
 11
58.223199999999999
 21
187.405
 31
0.0
  0
LINE
  5
164
  8
0
 62
     7
 10
58.223199999999999
 20
187.405
 30
0.0
 11
57.3855
 21
186.56700000000001
 31
0.0
  0
LINE
  5
165
  8
0
 62
     7
 10
56.578800000000001
 20
188.20099999999999
 30
0.0
 11
66.321600000000004
 21
178.458
 31
0.0
  0
LINE
  5
166
  8
0
 62
     7
 10
46.3187
 20
208.79499999999999
 30
0.0
 11
52.48429999999999
 21
208.79499999999999
 31
0.0
  0
LINE
  5
167
  8
0
  6
AIGENLINE002
 62
     7
 10
49.988300000000002
 20
207.93299999999999
 30
0.0
 11
49.988300000000002
 21
203.0
 31
0.0
  0
LINE
  5
168
  8
0
 62
     7
 10
93.422300000000007
 20
193.58099999999999
 30
0.0
 11
92.829700000000003
 21
195.791
 31
0.0
  0
LINE
  5
169
  8
0
 62
     7
 10
92.829700000000003
 20
195.791
 30
0.0
 11
92.237499999999997
 21
193.58099999999999
 31
0.0
  0
LINE
  5
16A
  8
0
 62
     7
 10
92.237499999999997
 20
193.58099999999999
 30
0.0
 11
93.422300000000007
 21
193.58099999999999
 31
0.0
  0
LINE
  5
16B
  8
0
 62
     7
 10
92.237499999999997
 20
202.50200000000001
 30
0.0
 11
92.829700000000003
 21
200.291
 31
0.0
  0
LINE
  5
16C
  8
0
 62
     7
 10
92.829700000000003
 20
200.291
 30
0.0
 11
93.422300000000007
 21
202.50200000000001
 31
0.0
  0
LINE
  5
16D
  8
0
 62
     7
 10
93.422300000000007
 20
202.50200000000001
 30
0.0
 11
92.237499999999997
 21
202.50200000000001
 31
0.0
  0
LINE
  5
16E
  8
0
 62
     7
 10
100.75700000000001
 20
193.58099999999999
 30
0.0
 11
100.164
 21
195.791
 31
0.0
  0
LINE
  5
16F
  8
0
 62
     7
 10
100.164
 20
195.791
 30
0.0
 11
99.57180000000001
 21
193.58099999999999
 31
0.0
  0
LINE
  5
170
  8
0
 62
     7
 10
99.57180000000001
 20
193.58099999999999
 30
0.0
 11
100.75700000000001
 21
193.58099999999999
 31
0.0
  0
LINE
  5
171
  8
0
 62
     7
 10
100.75700000000001
 20
158.58099999999999
 30
0.0
 11
100.164
 21
160.791
 31
0.0
  0
LINE
  5
172
  8
0
 62
     7
 10
100.164
 20
160.791
 30
0.0
 11
99.57180000000001
 21
158.58099999999999
 31
0.0
  0
LINE
  5
173
  8
0
 62
     7
 10
99.57180000000001
 20
158.58099999999999
 30
0.0
 11
100.75700000000001
 21
158.58099999999999
 31
0.0
  0
LINE
  5
174
  8
0
 62
     7
 10
100.749
 20
203.58099999999999
 30
0.0
 11
100.157
 21
205.791
 31
0.0
  0
LINE
  5
175
  8
0
 62
     7
 10
100.157
 20
205.791
 30
0.0
 11
99.564599999999984
 21
203.58099999999999
 31
0.0
  0
LINE
  5
176
  8
0
 62
     7
 10
99.564599999999984
 20
203.58099999999999
 30
0.0
 11
100.749
 21
203.58099999999999
 31
0.0
  0
LINE
  5
177
  8
0
 62
     7
 10
99.57180000000001
 20
198.00200000000001
 30
0.0
 11
100.164
 21
195.791
 31
0.0
  0
LINE
  5
178
  8
0
 62
     7
 10
100.164
 20
195.791
 30
0.0
 11
100.75700000000001
 21
198.00200000000001
 31
0.0
  0
LINE
  5
179
  8
0
 62
     7
 10
100.75700000000001
 20
198.00200000000001
 30
0.0
 11
99.57180000000001
 21
198.00200000000001
 31
0.0
  0
LINE
  5
17A
  8
0
 62
     7
 10
99.57180000000001
 20
163.50200000000001
 30
0.0
 11
100.164
 21
161.291
 31
0.0
  0
LINE
  5
17B
  8
0
 62
     7
 10
100.164
 20
161.291
 30
0.0
 11
100.75700000000001
 21
163.50200000000001
 31
0.0
  0
LINE
  5
17C
  8
0
 62
     7
 10
100.75700000000001
 20
163.50200000000001
 30
0.0
 11
99.57180000000001
 21
163.50200000000001
 31
0.0
  0
LINE
  5
17D
  8
0
 62
     7
 10
100.164
 20
205.791
 30
0.0
 11
100.164
 21
156.322
 31
0.0
  0
LINE
  5
17E
  8
0
 62
     7
 10
108.09099999999999
 20
203.58099999999999
 30
0.0
 11
107.498
 21
205.791
 31
0.0
  0
LINE
  5
17F
  8
0
 62
     7
 10
107.498
 20
205.791
 30
0.0
 11
106.90600000000001
 21
203.58099999999999
 31
0.0
  0
LINE
  5
180
  8
0
 62
     7
 10
106.90600000000001
 20
203.58099999999999
 30
0.0
 11
108.09099999999999
 21
203.58099999999999
 31
0.0
  0
LINE
  5
181
  8
0
 62
     7
 10
106.90600000000001
 20
163.00200000000001
 30
0.0
 11
107.498
 21
160.791
 31
0.0
  0
LINE
  5
182
  8
0
 62
     7
 10
107.498
 20
160.791
 30
0.0
 11
108.09099999999999
 21
163.00200000000001
 31
0.0
  0
LINE
  5
183
  8
0
 62
     7
 10
108.09099999999999
 20
163.00200000000001
 30
0.0
 11
106.90600000000001
 21
163.00200000000001
 31
0.0
  0
LINE
  5
184
  8
0
 62
     7
 10
107.498
 20
205.791
 30
0.0
 11
107.498
 21
160.791
 31
0.0
  0
LINE
  5
185
  8
0
 62
     7
 10
64.207499999999996
 20
197.91
 30
0.0
 11
62.22570000000001
 21
199.054
 31
0.0
  0
LINE
  5
186
  8
0
 62
     7
 10
62.22570000000001
 20
199.054
 30
0.0
 11
63.369799999999998
 21
197.072
 31
0.0
  0
LINE
  5
187
  8
0
 62
     7
 10
63.369799999999998
 20
197.072
 30
0.0
 11
64.207499999999996
 21
197.91
 31
0.0
  0
LINE
  5
188
  8
0
 62
     7
 10
57.769100000000002
 20
202.673
 30
0.0
 11
59.750900000000001
 21
201.529
 31
0.0
  0
LINE
  5
189
  8
0
 62
     7
 10
59.750900000000001
 20
201.529
 30
0.0
 11
58.6068
 21
203.511
 31
0.0
  0
LINE
  5
18A
  8
0
 62
     7
 10
58.6068
 20
203.511
 30
0.0
 11
57.769100000000002
 21
202.673
 31
0.0
  0
LINE
  5
18B
  8
0
 62
     7
 10
52.48429999999999
 20
208.79499999999999
 30
0.0
 11
64.334500000000006
 21
196.94499999999999
 31
0.0
  0
LINE
  5
18C
  8
0
 62
     7
 10
93.414699999999996
 20
203.58099999999999
 30
0.0
 11
92.822500000000005
 21
205.791
 31
0.0
  0
LINE
  5
18D
  8
0
 62
     7
 10
92.822500000000005
 20
205.791
 30
0.0
 11
92.230099999999993
 21
203.58099999999999
 31
0.0
  0
LINE
  5
18E
  8
0
 62
     7
 10
92.230099999999993
 20
203.58099999999999
 30
0.0
 11
93.414699999999996
 21
203.58099999999999
 31
0.0
  0
LINE
  5
18F
  8
0
 62
     7
 10
92.829700000000003
 20
205.791
 30
0.0
 11
92.829700000000003
 21
192.91200000000001
 31
0.0
  0
LINE
  5
190
  8
0
  6
AIGENLINE002
 62
     7
 10
71.988500000000002
 20
207.93299999999999
 30
0.0
 11
71.988500000000002
 21
203.0
 31
0.0
  0
LINE
  5
191
  8
0
  6
AIGENLINE002
 62
     7
 10
60.988599999999998
 20
208.084
 30
0.0
 11
60.988599999999998
 21
158.33699999999999
 31
0.0
  0
ARC
  5
192
  8
0
 62
     7
 10
37.408684000000001
 20
198.78957199999999
 30
0.0
 40
6.5796070000000011
 50
352.989082
 51
0.033588
  0
ARC
  5
193
  8
0
 62
     7
 10
39.620266000000001
 20
198.54365200000001
 30
0.0
 40
4.3546219999999991
 50
340.12878499999999
 51
352.64881000000003
  0
ARC
  5
194
  8
0
 62
     7
 10
41.002800999999991
 20
198.095776
 30
0.0
 40
2.9025769999999991
 50
300.543544
 51
339.16693600000002
  0
ARC
  5
195
  8
0
 62
     7
 10
40.32885499999999
 20
199.19942900000001
 30
0.0
 40
4.1956309999999988
 50
294.06062200000002
 51
300.81070599999998
  0
ARC
  5
196
  8
0
 62
     7
 10
39.449554999999997
 20
201.09543400000001
 30
0.0
 40
6.2854650000000003
 50
291.65851199999997
 51
294.33312999999998
  0
ARC
  5
197
  8
0
 62
     7
 10
37.590879999999999
 20
205.81106399999999
 30
0.0
 40
11.354168
 50
289.00489900000002
 51
291.593099
  0
ARC
  5
198
  8
0
 62
     7
 10
54.275678000000013
 20
148.57871
 30
0.0
 40
48.276809999999998
 50
105.605822
 51
106.27502800000001
  0
ARC
  5
199
  8
0
 62
     7
 10
45.986268000000003
 20
177.00638799999999
 30
0.0
 40
18.665208
 50
106.30444799999999
 51
109.363365
  0
ARC
  5
19A
  8
0
 62
     7
 10
43.095928999999998
 20
185.33396200000001
 30
0.0
 40
9.8504290000000001
 50
109.562461
 51
115.860641
  0
ARC
  5
19B
  8
0
 62
     7
 10
41.522582
 20
188.68434500000001
 30
0.0
 40
6.1494609999999987
 50
116.285462
 51
125.805995
  0
ARC
  5
19C
  8
0
 62
     7
 10
42.714557999999997
 20
186.92935199999999
 30
0.0
 40
8.2703399999999991
 50
125.38997000000001
 51
134.39079899999999
  0
ARC
  5
19D
  8
0
 62
     7
 10
44.600183999999999
 20
184.930813
 30
0.0
 40
11.017669
 50
134.12747400000001
 51
164.10727900000001
  0
ARC
  5
19E
  8
0
 62
     7
 10
42.600709000000002
 20
184.7509
 30
0.0
 40
9.1722369999999991
 50
159.60151300000001
 51
165.759713
  0
ARC
  5
19F
  8
0
 62
     7
 10
48.306162
 20
183.20860500000001
 30
0.0
 40
15.082039999999999
 50
165.412384
 51
170.58842000000001
  0
ARC
  5
1A0
  8
0
 62
     7
 10
57.226573999999999
 20
181.609645
 30
0.0
 40
24.144138000000002
 50
170.30667399999999
 51
174.42542499999999
  0
ARC
  5
1A1
  8
0
 62
     7
 10
70.133142000000007
 20
180.21234100000001
 30
0.0
 40
37.125653999999997
 50
174.21408500000001
 51
177.62573699999999
  0
ARC
  5
1A2
  8
0
 62
     7
 10
85.768581999999995
 20
179.421075
 30
0.0
 40
52.780644999999993
 50
177.470652
 51
180.10816299999999
  0
ARC
  5
1A3
  8
0
 62
     7
 10
241.98091600000001
 20
179.29844
 30
0.0
 40
208.992886
 50
179.99367100000001
 51
180.33492200000001
  0
ARC
  5
1A4
  8
0
 62
     7
 10
111.42929700000001
 20
178.61371399999999
 30
0.0
 40
78.439533999999995
 50
180.39217099999991
 51
182.56921600000001
  0
ARC
  5
1A5
  8
0
 62
     7
 10
78.612954999999999
 20
177.266007
 30
0.0
 40
45.595936000000002
 50
182.725877
 51
185.56249199999999
  0
ARC
  5
1A6
  8
0
 62
     7
 10
59.789606999999997
 20
175.51146399999999
 30
0.0
 40
26.691271
 50
185.73054200000001
 51
189.415752
  0
ARC
  5
1A7
  8
0
 62
     7
 10
49.407297
 20
173.864901
 30
0.0
 40
16.179635999999999
 50
189.678279
 51
192.37087299999999
  0
ARC
  5
1A8
  8
0
 62
     7
 10
56.182316
 20
176.10766100000001
 30
0.0
 40
23.289569
 50
194.18975900000001
 51
197.867018
  0
ARC
  5
1A9
  8
0
 62
     7
 10
47.668246999999987
 20
173.43789000000001
 30
0.0
 40
14.367190000000001
 50
198.15087299999999
 51
204.367434
  0
ARC
  5
1AA
  8
0
 62
     7
 10
43.879658999999997
 20
171.78266400000001
 30
0.0
 40
10.233321
 50
204.67730299999999
 51
215.52048300000001
  0
ARC
  5
1AB
  8
0
 62
     7
 10
42.699827999999997
 20
171.02595099999999
 30
0.0
 40
8.8336759999999988
 50
215.971788
 51
237.593673
  0
ARC
  5
1AC
  8
0
 62
     7
 10
44.012188999999992
 20
172.94472099999999
 30
0.0
 40
11.157239000000001
 50
237.18449899999999
 51
246.53561999999999
  0
ARC
  5
1AD
  8
0
 62
     7
 10
45.617905999999998
 20
176.45429200000001
 30
0.0
 40
15.016147999999999
 50
246.247545
 51
254.232136
  0
ARC
  5
1AE
  8
0
 62
     7
 10
47.254674999999992
 20
181.80296300000001
 30
0.0
 40
20.608687
 50
253.89371299999999
 51
258.29544499999997
  0
ARC
  5
1AF
  8
0
 62
     7
 10
48.286046999999989
 20
186.50886199999999
 30
0.0
 40
25.426024999999999
 50
258.17091499999998
 51
260.09999299999998
  0
ARC
  5
1B0
  8
0
 62
     7
 10
49.857954999999997
 20
199.53549699999999
 30
0.0
 40
38.535139000000001
 50
261.12769600000001
 51
265.22026899999997
  0
ARC
  5
1B1
  8
0
 62
     7
 10
52.041567000000001
 20
222.855268
 30
0.0
 40
61.956201999999998
 50
265.00490000000002
 51
267.58246700000001
  0
ARC
  5
1B2
  8
0
 62
     7
 10
54.227428000000003
 20
268.177707
 30
0.0
 40
107.33085
 50
267.43718999999999
 51
268.73118099999999
  0
ARC
  5
1B3
  8
0
 62
     7
 10
56.03314799999999
 20
340.38050900000002
 30
0.0
 40
179.55605199999999
 50
268.6653
 51
269.14589999999998
  0
ARC
  5
1B4
  8
0
 62
     7
 10
57.639406000000008
 20
448.68636500000002
 30
0.0
 40
287.87381800000003
 50
269.14756799999998
 51
269.52334200000001
  0
ARC
  5
1B5
  8
0
 62
     7
 10
61.158853999999998
 20
882.08646899999997
 30
0.0
 40
721.28820800000005
 50
269.53019499999999
 51
269.76778000000002
  0
ARC
  5
1B6
  8
0
 62
     7
 10
78.588649000000004
 20
4184.8159999999998
 30
0.0
 40
4024.0639999999999
 50
269.71021300000001
 51
269.749414
  0
ARC
  5
1B7
  8
0
 62
     7
 10
28.614986999999999
 20
6355.9799999999987
 30
0.0
 40
6195.2735000000002
 50
270.29941200000007
 51
270.35666400000002
  0
ARC
  5
1B8
  8
0
 62
     7
 10
65.007935000000003
 20
389.70013399999999
 30
0.0
 40
228.88378800000001
 50
270.54349300000001
 51
271.347758
  0
ARC
  5
1B9
  8
0
 62
     7
 10
67.861331000000007
 20
263.41064
 30
0.0
 40
102.562185
 50
271.41355600000003
 51
273.28706799999998
  0
ARC
  5
1BA
  8
0
 62
     7
 10
70.339917
 20
217.476561
 30
0.0
 40
56.561782999999998
 50
273.448418
 51
276.053405
  0
ARC
  5
1BB
  8
0
 62
     7
 10
72.090170999999998
 20
200.05018000000001
 30
0.0
 40
39.048118000000002
 50
276.19603999999998
 51
278.7974000000001
  0
ARC
  5
1BC
  8
0
 62
     7
 10
74.006353000000004
 20
184.7024219999999
 30
0.0
 40
23.592220999999999
 50
279.89922300000001
 51
286.18591600000002
  0
ARC
  5
1BD
  8
0
 62
     7
 10
76.039474999999996
 20
177.33221900000001
 30
0.0
 40
15.947739
 50
286.55218200000002
 51
293.99578300000002
  0
ARC
  5
1BE
  8
0
 62
     7
 10
77.790665000000004
 20
173.241984
 30
0.0
 40
11.499021000000001
 50
294.31232899999998
 51
304.98149799999999
  0
ARC
  5
1BF
  8
0
 62
     7
 10
79.138264000000007
 20
171.17234300000001
 30
0.0
 40
9.0310679999999994
 50
305.50435299999998
 51
334.85762499999998
  0
ARC
  5
1C0
  8
0
 62
     7
 10
76.041673000000003
 20
172.75068099999999
 30
0.0
 40
12.505371
 50
334.33918599999998
 51
341.46712400000001
  0
ARC
  5
1C1
  8
0
 62
     7
 10
70.948781000000011
 20
174.56564800000001
 30
0.0
 40
17.911328999999999
 50
341.14059500000002
 51
344.30451199999999
  0
ARC
  5
1C2
  8
0
 62
     7
 10
64.304974000000001
 20
176.47628599999999
 30
0.0
 40
24.824318999999999
 50
344.20738399999999
 51
345.82833799999997
  0
ARC
  5
1C3
  8
0
 62
     7
 10
73.384255999999993
 20
173.70813100000001
 30
0.0
 40
15.350554000000001
 50
347.54946000000001
 51
350.654222
  0
ARC
  5
1C4
  8
0
 62
     7
 10
64.821531000000007
 20
175.16342299999999
 30
0.0
 40
24.035992
 50
350.54586799999998
 51
354.65206599999999
  0
ARC
  5
1C5
  8
0
 62
     7
 10
49.943589000000003
 20
176.74211
 30
0.0
 40
38.996749000000001
 50
354.38005399999997
 51
356.55655300000001
  0
ARC
  5
1C6
  8
0
 62
     7
 10
30.146671999999999
 20
177.99396999999999
 30
0.0
 40
58.83314699999999
 50
356.49760300000003
 51
359.187637
  0
ARC
  5
1C7
  8
0
 62
     7
 10
-19.649975000000001
 20
178.98701199999999
 30
0.0
 40
108.639247
 50
359.03631200000001
 51
0.176384
  0
ARC
  5
1C8
  8
0
 62
     7
 10
33.270902999999997
 20
179.32475099999999
 30
0.0
 40
55.717854000000003
 50
359.99660999999998
 51
3.155243
  0
ARC
  5
1C9
  8
0
 62
     7
 10
52.271434999999997
 20
180.25121100000001
 30
0.0
 40
36.69533100000001
 50
3.3438019999999988
 51
6.5045010000000003
  0
ARC
  5
1CA
  8
0
 62
     7
 10
65.086495999999997
 20
181.6567629999999
 30
0.0
 40
23.803602000000001
 50
6.6373749999999978
 51
10.778912
  0
ARC
  5
1CB
  8
0
 62
     7
 10
74.175995999999984
 20
183.32531700000001
 30
0.0
 40
14.56255
 50
11.018136999999999
 51
15.977781
  0
ARC
  5
1CC
  8
0
 62
     7
 10
79.266657999999993
 20
184.731076
 30
0.0
 40
9.281725999999999
 50
16.285359
 51
20.277740000000001
  0
ARC
  5
1CD
  8
0
 62
     7
 10
77.102234999999993
 20
184.76985999999999
 30
0.0
 40
11.325906
 50
16.295735000000001
 51
44.701968000000001
  0
ARC
  5
1CE
  8
0
 62
     7
 10
78.699431000000004
 20
186.25549100000001
 30
0.0
 40
9.1458860000000008
 50
45.125138
 51
54.180557
  0
ARC
  5
1CF
  8
0
 62
     7
 10
80.781919999999985
 20
189.229477
 30
0.0
 40
5.5158870000000002
 50
53.641893999999994
 51
64.25756899999999
  0
ARC
  5
1D0
  8
0
 62
     7
 10
79.575731999999974
 20
186.91387900000001
 30
0.0
 40
8.1259560000000004
 50
63.688153000000007
 51
68.278696999999994
  0
ARC
  5
1D1
  8
0
 62
     7
 10
78.158659999999983
 20
183.4160029999999
 30
0.0
 40
11.899933000000001
 50
68.173174000000003
 51
72.215921999999992
  0
ARC
  5
1D2
  8
0
 62
     7
 10
75.654964000000007
 20
175.844042
 30
0.0
 40
19.874897000000001
 50
72.010239999999996
 51
73.45202900000001
  0
ARC
  5
1D3
  8
0
 62
     7
 10
70.846989000000008
 20
159.607878
 30
0.0
 40
36.807985000000002
 50
73.476177000000007
 51
74.492009999999993
  0
ARC
  5
1D4
  8
0
 62
     7
 10
86.535903000000005
 20
211.7533
 30
0.0
 40
17.672910999999999
 50
249.539781
 51
250.678315
  0
ARC
  5
1D5
  8
0
 62
     7
 10
82.744365999999985
 20
201.57553999999999
 30
0.0
 40
6.8118569999999998
 50
244.56337099999999
 51
249.494687
  0
ARC
  5
1D6
  8
0
 62
     7
 10
81.448087000000001
 20
198.81052099999999
 30
0.0
 40
3.7581470000000001
 50
231.10464099999999
 51
244.304315
  0
ARC
  5
1D7
  8
0
 62
     7
 10
80.863628000000006
 20
198.0094
 30
0.0
 40
2.7680759999999989
 50
201.72945300000001
 51
230.108102
  0
ARC
  5
1D8
  8
0
 62
     7
 10
81.634338999999997
 20
198.34373099999999
 30
0.0
 40
3.6078879999999991
 50
191.33775600000001
 51
202.13024799999999
  0
ARC
  5
1D9
  8
0
 62
     7
 10
83.054372000000001
 20
198.65594899999999
 30
0.0
 40
5.0616620000000001
 50
182.557154
 51
191.6429169999999
  0
ARC
  5
1DA
  8
0
 62
     7
 10
84.937737999999996
 20
198.78865200000001
 30
0.0
 40
6.949241999999999
 50
179.96059099999999
 51
182.95738899999989
  0
ARC
  5
1DB
  8
0
 62
     7
 10
44.507497000000001
 20
205.27211700000001
 30
0.0
 40
0.5195660000000001
 50
92.131023999999996
 51
177.86894599999999
  0
LINE
  5
1DC
  8
0
  6
AIGENLINE002
 62
     7
 10
55.33100000000001
 20
183.791
 30
0.0
 11
66.760900000000007
 21
183.791
 31
0.0
  0
LINE
  5
1DD
  8
0
 62
     7
 10
44.488199999999999
 20
205.791
 30
0.0
 11
77.488600000000005
 21
205.791
 31
0.0
  0
LINE
  5
1DE
  8
0
 62
     7
 10
43.988300000000002
 20
205.291
 30
0.0
 11
43.988300000000002
 21
198.79300000000001
 31
0.0
  0
ARC
  5
1DF
  8
0
 62
     7
 10
77.469296
 20
205.272122
 30
0.0
 40
0.5195610000000001
 50
2.130487
 51
87.869502999999995
  0
LINE
  5
1E0
  8
0
 62
     7
 10
77.988500000000002
 20
205.291
 30
0.0
 11
77.988500000000002
 21
198.79300000000001
 31
0.0
  0
ARC
  5
1E1
  8
0
 62
     7
 10
134.77135100000001
 20
180.791055
 30
0.0
 40
1.9999759999999991
 50
179.99750299999999
 51
269.99755199999998
  0
ARC
  5
1E2
  8
0
 62
     7
 10
154.77146200000001
 20
180.791055
 30
0.0
 40
1.9999769999999999
 50
270.00248699999997
 51
0.002457
  0
LINE
  5
1E3
  8
0
 62
     7
 10
152.99799999999999
 20
208.791
 30
0.0
 11
151.26499999999999
 21
205.791
 31
0.0
  0
LINE
  5
1E4
  8
0
 62
     7
 10
151.26499999999999
 20
205.791
 30
0.0
 11
149.53299999999999
 21
208.791
 31
0.0
  0
LINE
  5
1E5
  8
0
 62
     7
 10
149.53299999999999
 20
208.791
 30
0.0
 11
152.99799999999999
 21
208.791
 31
0.0
  0
LINE
  5
1E6
  8
0
 62
     7
 10
132.77099999999999
 20
205.791
 30
0.0
 11
132.77099999999999
 21
180.791
 31
0.0
  0
LINE
  5
1E7
  8
0
 62
     7
 10
134.77099999999999
 20
178.791
 30
0.0
 11
154.77199999999999
 21
178.791
 31
0.0
  0
LINE
  5
1E8
  8
0
 62
     7
 10
156.77099999999999
 20
205.791
 30
0.0
 11
164.32400000000001
 21
205.791
 31
0.0
  0
LINE
  5
1E9
  8
0
 62
     7
 10
125.21899999999999
 20
205.791
 30
0.0
 11
132.77099999999999
 21
205.791
 31
0.0
  0
LINE
  5
1EA
  8
0
  6
AIGENLINE003
 62
     7
 10
126.771
 20
205.791
 30
0.0
 11
162.77099999999999
 21
205.791
 31
0.0
  0
LINE
  5
1EB
  8
0
 62
     7
 10
143.584
 20
95.504499999999993
 30
0.0
 11
142.99199999999999
 21
97.715599999999995
 31
0.0
  0
LINE
  5
1EC
  8
0
 62
     7
 10
142.99199999999999
 20
97.715599999999995
 30
0.0
 11
142.399
 21
95.504499999999993
 31
0.0
  0
LINE
  5
1ED
  8
0
 62
     7
 10
142.399
 20
95.504499999999993
 30
0.0
 11
143.584
 21
95.504499999999993
 31
0.0
  0
LINE
  5
1EE
  8
0
 62
     7
 10
142.399
 20
89.925799999999995
 30
0.0
 11
142.99199999999999
 21
87.715399999999988
 31
0.0
  0
LINE
  5
1EF
  8
0
 62
     7
 10
142.99199999999999
 20
87.715399999999988
 30
0.0
 11
143.584
 21
89.925799999999995
 31
0.0
  0
LINE
  5
1F0
  8
0
 62
     7
 10
143.584
 20
89.925799999999995
 30
0.0
 11
142.399
 21
89.925799999999995
 31
0.0
  0
LINE
  5
1F1
  8
0
 62
     7
 10
142.99199999999999
 20
97.715599999999995
 30
0.0
 11
142.99199999999999
 21
87.715399999999988
 31
0.0
  0
LINE
  5
1F2
  8
0
  6
AIGENLINE002
 62
     7
 10
144.77099999999999
 20
209.376
 30
0.0
 11
144.77099999999999
 21
175.292
 31
0.0
  0
LINE
  5
1F3
  8
0
 62
     7
 10
154.52699999999999
 20
193.54599999999999
 30
0.0
 11
145.93299999999999
 21
193.54599999999999
 31
0.0
  0
LINE
  5
1F4
  8
0
 62
     7
 10
148.56700000000001
 20
188.42500000000001
 30
0.0
 11
147.423
 21
186.44300000000001
 31
0.0
  0
LINE
  5
1F5
  8
0
 62
     7
 10
147.423
 20
186.44300000000001
 30
0.0
 11
149.405
 21
187.58699999999999
 31
0.0
  0
LINE
  5
1F6
  8
0
 62
     7
 10
149.405
 20
187.58699999999999
 30
0.0
 11
148.56700000000001
 21
188.42500000000001
 31
0.0
  0
LINE
  5
1F7
  8
0
 62
     7
 10
154.52699999999999
 20
193.54599999999999
 30
0.0
 11
147.423
 21
186.44300000000001
 31
0.0
  0
LINE
  5
1F8
  8
0
 62
     7
 10
138.79300000000001
 20
184.81299999999999
 30
0.0
 11
133.69
 21
184.81299999999999
 31
0.0
  0
LINE
  5
1F9
  8
0
 62
     7
 10
134.501
 20
181.35900000000001
 30
0.0
 11
133.357
 21
179.37700000000001
 31
0.0
  0
LINE
  5
1FA
  8
0
 62
     7
 10
133.357
 20
179.37700000000001
 30
0.0
 11
135.339
 21
180.52099999999999
 31
0.0
  0
LINE
  5
1FB
  8
0
 62
     7
 10
135.339
 20
180.52099999999999
 30
0.0
 11
134.501
 21
181.35900000000001
 31
0.0
  0
LINE
  5
1FC
  8
0
 62
     7
 10
138.79300000000001
 20
184.81299999999999
 30
0.0
 11
133.357
 21
179.37700000000001
 31
0.0
  0
LINE
  5
1FD
  8
0
 62
     7
 10
163.26400000000001
 20
203.58099999999999
 30
0.0
 11
162.672
 21
205.791
 31
0.0
  0
LINE
  5
1FE
  8
0
 62
     7
 10
162.672
 20
205.791
 30
0.0
 11
162.08000000000001
 21
203.58099999999999
 31
0.0
  0
LINE
  5
1FF
  8
0
 62
     7
 10
162.08000000000001
 20
203.58099999999999
 30
0.0
 11
163.26400000000001
 21
203.58099999999999
 31
0.0
  0
LINE
  5
200
  8
0
 62
     7
 10
162.09399999999999
 20
186.00200000000001
 30
0.0
 11
162.68600000000001
 21
183.791
 31
0.0
  0
LINE
  5
201
  8
0
 62
     7
 10
162.68600000000001
 20
183.791
 30
0.0
 11
163.279
 21
186.00200000000001
 31
0.0
  0
LINE
  5
202
  8
0
 62
     7
 10
163.279
 20
186.00200000000001
 30
0.0
 11
162.09399999999999
 21
186.00200000000001
 31
0.0
  0
LINE
  5
203
  8
0
 62
     7
 10
162.679
 20
205.791
 30
0.0
 11
162.679
 21
183.791
 31
0.0
  0
LINE
  5
204
  8
0
 62
     7
 10
151.07400000000001
 20
183.791
 30
0.0
 11
163.37899999999999
 21
183.791
 31
0.0
  0
LINE
  5
205
  8
0
 62
     7
 10
170.202
 20
203.58099999999999
 30
0.0
 11
169.61000000000001
 21
205.791
 31
0.0
  0
LINE
  5
206
  8
0
 62
     7
 10
169.61000000000001
 20
205.791
 30
0.0
 11
169.018
 21
203.58099999999999
 31
0.0
  0
LINE
  5
207
  8
0
 62
     7
 10
169.018
 20
203.58099999999999
 30
0.0
 11
170.202
 21
203.58099999999999
 31
0.0
  0
LINE
  5
208
  8
0
 62
     7
 10
169.03200000000001
 20
181.00200000000001
 30
0.0
 11
169.624
 21
178.791
 31
0.0
  0
LINE
  5
209
  8
0
 62
     7
 10
169.624
 20
178.791
 30
0.0
 11
170.21700000000001
 21
181.00200000000001
 31
0.0
  0
LINE
  5
20A
  8
0
 62
     7
 10
170.21700000000001
 20
181.00200000000001
 30
0.0
 11
169.03200000000001
 21
181.00200000000001
 31
0.0
  0
LINE
  5
20B
  8
0
 62
     7
 10
169.61699999999999
 20
205.791
 30
0.0
 11
169.61699999999999
 21
178.791
 31
0.0
  0
LINE
  5
20C
  8
0
  6
AIGENLINE002
 62
     7
 10
139.11500000000001
 20
183.791
 30
0.0
 11
150.374
 21
183.791
 31
0.0
  0
LINE
  5
20D
  8
0
 62
     7
 10
156.434
 20
178.791
 30
0.0
 11
170.31700000000001
 21
178.791
 31
0.0
  0
LINE
  5
20E
  8
0
 62
     7
 10
165.024
 20
205.791
 30
0.0
 11
170.31
 21
205.791
 31
0.0
  0
LINE
  5
20F
  8
0
 62
     7
 10
134.982
 20
170.09200000000001
 30
0.0
 11
132.77099999999999
 21
169.5
 31
0.0
  0
LINE
  5
210
  8
0
 62
     7
 10
132.77099999999999
 20
169.5
 30
0.0
 11
134.982
 21
168.90700000000001
 31
0.0
  0
LINE
  5
211
  8
0
 62
     7
 10
134.982
 20
168.90700000000001
 30
0.0
 11
134.982
 21
170.09200000000001
 31
0.0
  0
LINE
  5
212
  8
0
 62
     7
 10
154.56100000000001
 20
168.922
 30
0.0
 11
156.77099999999999
 21
169.51400000000001
 31
0.0
  0
LINE
  5
213
  8
0
 62
     7
 10
156.77099999999999
 20
169.51400000000001
 30
0.0
 11
154.56100000000001
 21
170.10599999999999
 31
0.0
  0
LINE
  5
214
  8
0
 62
     7
 10
154.56100000000001
 20
170.10599999999999
 30
0.0
 11
154.56100000000001
 21
168.922
 31
0.0
  0
LINE
  5
215
  8
0
 62
     7
 10
132.77099999999999
 20
169.50700000000001
 30
0.0
 11
156.77099999999999
 21
169.50700000000001
 31
0.0
  0
LINE
  5
216
  8
0
 62
     7
 10
156.77099999999999
 20
179.03599999999989
 30
0.0
 11
156.77099999999999
 21
168.80699999999999
 31
0.0
  0
LINE
  5
217
  8
0
 62
     7
 10
132.77099999999999
 20
179.03599999999989
 30
0.0
 11
132.77099999999999
 21
168.80699999999999
 31
0.0
  0
LINE
  5
218
  8
0
 62
     7
 10
156.77099999999999
 20
205.791
 30
0.0
 11
156.77099999999999
 21
180.791
 31
0.0
  0
TEXT
  5
219
  8
_________2
 62
     7
 10
22.801200000000001
 20
46.503599999999999
 30
0.0
 40
4.2168199999999993
  1
※壁取付部には厚さ30mm以上の補強材を入れてください。
 41
0.5
  0
TEXT
  5
21A
  8
_________2
 62
     7
 10
22.801200000000001
 20
41.232500000000002
 30
0.0
 40
4.2168199999999993
  1
　カウンターを設ける場合も壁固定が必要です。
 41
0.5
  0
TEXT
  5
21B
  8
_________2
 62
     7
 10
24.5868
 20
0.707283
 30
0.0
 40
3.9357000000000002
  1
実容量：6.2L、重量：9.0Kg、オーバーフローあり
 41
0.5
  0
LINE
  5
21C
  8
_________2
 62
     7
 10
205.30099999999999
 20
127.411
 30
0.0
 11
183.55000000000001
 21
127.411
 31
0.0
  0
LINE
  5
21D
  8
_________2
 62
     7
 10
100.3
 20
-4.0910799999999998
 30
0.0
 11
100.3
 21
-21.071400000000001
 31
0.0
  0
LINE
  5
21E
  8
_________2
 62
     7
 10
100.3
 20
275.93099999999998
 30
0.0
 11
100.3
 21
258.911
 31
0.0
  0
LINE
  5
21F
  8
_________2
 62
     7
 10
17.049499999999998
 20
127.411
 30
0.0
 11
-4.70052
 21
127.411
 31
0.0
  0
LINE
  5
220
  8
_________2
 62
     7
 10
76.741
 20
29.8047
 30
0.0
 11
74.554699999999997
 21
29.8047
 31
0.0
  0
LINE
  5
221
  8
_________2
 62
     7
 10
77.233699999999999
 20
29.8047
 30
0.0
 11
76.981499999999997
 21
29.8047
 31
0.0
  0
LINE
  5
222
  8
_________2
 62
     7
 10
77.726299999999995
 20
29.8047
 30
0.0
 11
80.651200000000003
 21
29.8047
 31
0.0
  0
LINE
  5
223
  8
_________2
 62
     7
 10
77.233699999999999
 20
29.8047
 30
0.0
 11
77.485500000000002
 21
29.8047
 31
0.0
  0
LINE
  5
224
  8
_________2
 62
     7
 10
70.837100000000007
 20
29.8047
 30
0.0
 11
68.650499999999994
 21
29.8047
 31
0.0
  0
LINE
  5
225
  8
_________2
 62
     7
 10
71.329400000000007
 20
29.8047
 30
0.0
 11
71.077600000000004
 21
29.8047
 31
0.0
  0
LINE
  5
226
  8
_________2
 62
     7
 10
71.329400000000007
 20
30.2974
 30
0.0
 11
71.329400000000007
 21
32.484400000000001
 31
0.0
  0
LINE
  5
227
  8
_________2
 62
     7
 10
71.329400000000007
 20
29.8047
 30
0.0
 11
71.329400000000007
 21
30.056899999999999
 31
0.0
  0
LINE
  5
228
  8
_________2
 62
     7
 10
71.822100000000006
 20
29.8047
 30
0.0
 11
74.009
 21
29.8047
 31
0.0
  0
LINE
  5
229
  8
_________2
 62
     7
 10
71.329400000000007
 20
29.8047
 30
0.0
 11
71.581599999999995
 21
29.8047
 31
0.0
  0
LINE
  5
22A
  8
_________2
 62
     7
 10
71.329400000000007
 20
29.312799999999999
 30
0.0
 11
71.329400000000007
 21
27.125800000000002
 31
0.0
  0
LINE
  5
22B
  8
_________2
 62
     7
 10
71.329400000000007
 20
29.8047
 30
0.0
 11
71.329400000000007
 21
29.5532
 31
0.0
  0
LINE
  5
22C
  8
_________2
 62
     7
 10
75.040499999999994
 20
28.5852
 30
0.0
 11
80.218500000000006
 21
27.720400000000001
 31
0.0
  0
LINE
  5
22D
  8
_________2
 62
     7
 10
75.040499999999994
 20
31.0243
 30
0.0
 11
80.218500000000006
 21
31.889700000000001
 31
0.0
  0
LINE
  5
22E
  8
_________2
 62
     7
 10
80.218500000000006
 20
27.720400000000001
 30
0.0
 11
80.218500000000006
 21
31.889700000000001
 31
0.0
  0
LINE
  5
22F
  8
_________2
 62
     7
 10
75.040499999999994
 20
28.5852
 30
0.0
 11
75.040499999999994
 21
31.0243
 31
0.0
  0
ARC
  5
230
  8
_________2
 62
     7
 10
71.28285600000001
 20
29.757811
 30
0.0
 40
1.2673589999999999
 50
2.122214
 51
87.893958999999995
  0
ARC
  5
231
  8
_________2
 62
     7
 10
71.375959999999992
 20
29.758213000000001
 30
0.0
 40
1.2669559999999991
 50
92.104701000000006
 51
177.89526900000001
  0
ARC
  5
232
  8
_________2
 62
     7
 10
71.376357999999996
 20
29.851671
 30
0.0
 40
1.2673680000000001
 50
182.12203600000001
 51
267.877993
  0
ARC
  5
233
  8
_________2
 62
     7
 10
71.282531999999989
 20
29.851998999999999
 30
0.0
 40
1.267695999999999
 50
272.12015300000002
 51
357.863674
  0
ARC
  5
234
  8
_________2
 62
     7
 10
71.329430000000002
 20
29.804742999999998
 30
0.0
 40
2.0849849999999992
 50
0.00001
 51
89.999980000000008
  0
ARC
  5
235
  8
_________2
 62
     7
 10
71.329603000000006
 20
29.804915000000001
 30
0.0
 40
2.084813
 50
90.004733999999999
 51
180.00474399999999
  0
ARC
  5
236
  8
_________2
 62
     7
 10
71.409106000000008
 20
29.884775999999999
 30
0.0
 40
2.1657950000000001
 50
182.11776599999999
 51
267.89173399999999
  0
ARC
  5
237
  8
_________2
 62
     7
 10
71.249459000000002
 20
29.885429999999999
 30
0.0
 40
2.1664590000000001
 50
272.11546800000002
 51
357.86560400000002
  0
TEXT
  5
238
  8
_________2
 62
     7
 10
104.605
 20
1.6794899999999999
 30
0.0
 40
3.0923400000000001
  1
図番
 41
0.5
  0
LINE
  5
239
  8
_________2
 62
     7
 10
103.55
 20
5.9087199999999989
 30
0.0
 11
183.55099999999999
 21
5.9087199999999989
 31
0.0
  0
TEXT
  5
23A
  8
_________2
 62
     7
 10
104.605
 20
11.6793
 30
0.0
 40
3.0923400000000001
  1
品番
 41
0.5
  0
TEXT
  5
23B
  8
_________2
 62
     7
 10
104.605
 20
31.818100000000001
 30
0.0
 40
3.0923400000000001
  1
名称
 41
0.5
  0
TEXT
  5
23C
  8
_________2
 62
     7
 10
91.845058333333341
 20
26.821999999999999
 30
0.0
 40
3.6545800000000002
  1
mm
 41
0.5
 72
     1
 11
93.367800000000003
 21
26.821999999999999
 31
0.0
  0
TEXT
  5
23D
  8
_________2
 62
     7
 10
85.643199999999993
 20
31.818100000000001
 30
0.0
 40
3.0923400000000001
  1
単位
 41
0.5
  0
TEXT
  5
23E
  8
_________2
 62
     7
 10
85.643199999999993
 20
19.410799999999998
 30
0.0
 40
3.0923400000000001
  1
尺度
 41
0.5
  0
TEXT
  5
23F
  8
_________2
 62
     7
 10
90.09193616666667
 20
13.2179
 30
0.0
 40
3.6545800000000002
  1
1 ： 10
 41
0.5
 72
     1
 11
93.959699999999998
 21
13.2179
 31
0.0
  0
TEXT
  5
240
  8
_________2
 62
     7
 10
137.4824625
 20
9.1078600000000005
 30
0.0
 40
3.9357000000000002
  1
AU16302
 41
0.5
 72
     1
 11
143.55000000000001
 21
9.1078600000000005
 31
0.0
  0
TEXT
  5
241
  8
_________2
 62
     7
 10
137.4824625
 20
-0.8926299999999999
 30
0.0
 40
3.9357000000000002
  1
AU16302
 41
0.5
 72
     1
 11
143.55000000000001
 21
-0.8926299999999999
 31
0.0
  0
TEXT
  5
242
  8
_________2
 62
     7
 10
109.179
 20
24.2257
 30
0.0
 40
3.9357000000000002
  1
イノ　洗面器
 41
0.5
  0
TEXT
  5
243
  8
_________2
 62
     7
 10
39.425300333333333
 20
13.603
 30
0.0
 40
3.6545800000000002
  1
早川
 41
0.5
 72
     1
 11
41.313499999999998
 21
13.603
 31
0.0
  0
TEXT
  5
244
  8
_________2
 62
     7
 10
20.790090666666661
 20
13.603
 30
0.0
 40
3.6545800000000002
  1
近藤
 41
0.5
 72
     1
 11
22.7392
 21
13.603
 31
0.0
  0
TEXT
  5
245
  8
_________2
 62
     7
 10
67.785399999999996
 20
13.2179
 30
0.0
 40
3.6545800000000002
  1
15.12.11
 41
0.5
  0
TEXT
  5
246
  8
_________2
 62
     7
 10
66.593100000000007
 20
19.410799999999998
 30
0.0
 40
3.0923400000000001
  1
日付
 41
0.5
  0
TEXT
  5
247
  8
_________2
 62
     7
 10
29.639399999999998
 20
19.410799999999998
 30
0.0
 40
3.0923400000000001
  1
検図
 41
0.5
  0
TEXT
  5
248
  8
_________2
 62
     7
 10
18.021100000000001
 20
5.21143
 30
0.0
 40
3.0923400000000001
  1
備考
 41
0.5
  0
TEXT
  5
249
  8
_________2
 62
     7
 10
18.021100000000001
 20
19.410799999999998
 30
0.0
 40
3.0923400000000001
  1
製図
 41
0.5
  0
TEXT
  5
24A
  8
_________2
 62
     7
 10
23.788465333333338
 20
27.936800000000002
 30
0.0
 40
4.4979399999999989
  1
セラトレーディング株式会社
 41
0.5
 72
     1
 11
41.180500000000002
 21
27.936800000000002
 31
0.0
  0
LINE
  5
24B
  8
_________2
 62
     7
 10
183.55099999999999
 20
-4.0910799999999998
 30
0.0
 11
17.049499999999998
 21
-4.0910799999999998
 31
0.0
  0
LINE
  5
24C
  8
_________2
 62
     7
 10
17.049499999999998
 20
-4.0910799999999998
 30
0.0
 11
17.049499999999998
 21
258.911
 31
0.0
  0
LINE
  5
24D
  8
_________2
 62
     7
 10
17.049499999999998
 20
258.911
 30
0.0
 11
183.55099999999999
 21
258.911
 31
0.0
  0
LINE
  5
24E
  8
_________2
 62
     7
 10
183.55099999999999
 20
258.911
 30
0.0
 11
183.55099999999999
 21
-4.0910799999999998
 31
0.0
  0
LINE
  5
24F
  8
_________2
 62
     7
 10
65.549599999999998
 20
9.4089600000000004
 30
0.0
 11
65.549599999999998
 21
35.908799999999999
 31
0.0
  0
LINE
  5
250
  8
_________2
 62
     7
 10
84.549700000000016
 20
9.4089600000000004
 30
0.0
 11
84.549700000000016
 21
35.908799999999999
 31
0.0
  0
LINE
  5
251
  8
_________2
 62
     7
 10
103.55
 20
-4.0910799999999998
 30
0.0
 11
103.55
 21
35.908799999999999
 31
0.0
  0
LINE
  5
252
  8
_________2
 62
     7
 10
28.549299999999999
 20
9.4089600000000004
 30
0.0
 11
28.549299999999999
 21
23.409199999999998
 31
0.0
  0
LINE
  5
253
  8
_________2
 62
     7
 10
17.049499999999998
 20
9.4089600000000004
 30
0.0
 11
103.55
 21
9.4089600000000004
 31
0.0
  0
LINE
  5
254
  8
_________2
 62
     7
 10
17.049499999999998
 20
23.409199999999998
 30
0.0
 11
103.55
 21
23.409199999999998
 31
0.0
  0
LINE
  5
255
  8
_________2
 62
     7
 10
103.55
 20
15.9085
 30
0.0
 11
183.55099999999999
 21
15.9085
 31
0.0
  0
LINE
  5
256
  8
_________2
 62
     7
 10
17.049499999999998
 20
35.908799999999999
 30
0.0
 11
183.55099999999999
 21
35.908799999999999
 31
0.0
  0
ENDSEC
  0
EOF
