  0
SECTION
  2
HEADER
  9
$ACADVER
  1
AC1009
  9
$LUNITS
 70
2
  9
$LUPREC
 70
4
  9
$LTSCALE
 40
1.0
  9
$EXTMIN
 10
-4.7008
 20
-21.0712
 30
0
  9
$EXTMAX
 10
205.2998
 20
275.9292
 30
0
  0
ENDSEC
  0
SECTION
  2
TABLES
  0
TABLE
  2
LTYPE
 70
256
  0
LTYPE
  2
AIGENLINE001
 70
64
  3
generate AI->DXF Converter
 72
65
 73
4
 40
5.8561
 49
3.5278
 49
-0.7761
 49
0.7761
 49
-0.7761
  0
LTYPE
  2
AIGENLINE002
 70
64
  3
generate AI->DXF Converter
 72
65
 73
2
 40
1.5522
 49
0.7761
 49
-0.7761
  0
ENDTAB
  0
TABLE
  2
LAYER
 70
3
  0
LAYER
  2
LAYER_1
 70
64
 62
7
  6
CONTINUOUS
  0
LAYER
  2
LAYER_2
 70
64
 62
7
  6
CONTINUOUS
  0
LAYER
  2
LAYER_3
 70
64
 62
7
  6
CONTINUOUS
  0
ENDTAB
  0
TABLE
  2
STYLE
 70
6
  0
STYLE
  2
STANDARD
 70
0
 40
0
 50
0
 71
0
 41
0
 42
0
  3
TXT
  4
BIGFONT
  0
ENDTAB
  0
ENDSEC
  0
SECTION
  2
BLOCKS
  0
BLOCK
  8
LAYER_2
  2
AIGNBL02020011
 70
64
 10
0
 20
0
 30
0
  3
AIGNBL02020011
  0
LINE
  8
LAYER_2
 10
36.0374
 20
211.2267
 11
45.4212
 21
201.9386
  0
ENDBLK
  0
BLOCK
  8
LAYER_1
  2
AIGNBL01010002
 70
64
 10
0
 20
0
 30
0
  3
AIGNBL01010002
  0
TEXT
  8
LAYER_1
 10
25.0464
 20
211.9268
 11
25.0464
 21
211.9268
 40
3.0923
 41
0.5
  1
メーカーロゴ
  0
ENDBLK
  0
BLOCK
  8
LAYER_2
  2
AIGNBL02010002
 70
64
 10
0
 20
0
 30
0
  3
AIGNBL02010002
  0
LINE
  8
LAYER_2
 10
148.9074
 20
71.3827
 11
168.0738
 21
71.3827
  0
LINE
  8
LAYER_2
 10
166.2327
 20
70.9035
 11
168.0738
 21
71.3972
  0
LINE
  8
LAYER_2
 10
168.0738
 20
71.3972
 11
166.2327
 21
71.8909
  0
LINE
  8
LAYER_2
 10
166.2327
 20
71.8909
 11
166.2327
 21
70.9035
  0
LINE
  8
LAYER_2
 10
150.7484
 20
71.8764
 11
148.9074
 21
71.3827
  0
LINE
  8
LAYER_2
 10
148.9074
 20
71.3827
 11
150.7484
 21
70.8894
  0
LINE
  8
LAYER_2
 10
150.7484
 20
70.8894
 11
150.7484
 21
71.8764
  0
ENDBLK
  0
BLOCK
  8
LAYER_2
  2
AIGNBL02010003
 70
64
 10
0
 20
0
 30
0
  3
AIGNBL02010003
  0
LINE
  8
LAYER_2
 10
68.2118
 20
214.1051
 11
102.3786
 21
214.1051
  0
LINE
  8
LAYER_2
 10
100.5372
 20
213.6264
 11
102.3786
 21
214.1197
  0
LINE
  8
LAYER_2
 10
102.3786
 20
214.1197
 11
100.5372
 21
214.6131
  0
LINE
  8
LAYER_2
 10
100.5372
 20
214.6131
 11
100.5372
 21
213.6264
  0
LINE
  8
LAYER_2
 10
92.2035
 20
213.6264
 11
94.0451
 21
214.1197
  0
LINE
  8
LAYER_2
 10
94.0451
 20
214.1197
 11
92.2035
 21
214.6131
  0
LINE
  8
LAYER_2
 10
92.2035
 20
214.6131
 11
92.2035
 21
213.6264
  0
LINE
  8
LAYER_2
 10
70.0534
 20
214.5984
 11
68.2118
 21
214.1051
  0
LINE
  8
LAYER_2
 10
68.2118
 20
214.1051
 11
70.0534
 21
213.6118
  0
LINE
  8
LAYER_2
 10
70.0534
 20
213.6118
 11
70.0534
 21
214.5984
  0
LINE
  8
LAYER_2
 10
95.8863
 20
214.5984
 11
94.0451
 21
214.1051
  0
LINE
  8
LAYER_2
 10
94.0451
 20
214.1051
 11
95.8863
 21
213.6118
  0
LINE
  8
LAYER_2
 10
95.8863
 20
213.6118
 11
95.8863
 21
214.5984
  0
ENDBLK
  0
BLOCK
  8
LAYER_2
  2
AIGNBL02010004
 70
64
 10
0
 20
0
 30
0
  3
AIGNBL02010004
  0
LINE
  8
LAYER_2
 10
102.3786
 20
222.8448
 11
42.3783
 21
222.8448
  0
LINE
  8
LAYER_2
 10
44.2195
 20
223.3381
 11
42.3783
 21
222.8448
  0
LINE
  8
LAYER_2
 10
42.3783
 20
222.8448
 11
44.2195
 21
222.3515
  0
LINE
  8
LAYER_2
 10
44.2195
 20
222.3515
 11
44.2195
 21
223.3381
  0
LINE
  8
LAYER_2
 10
70.0529
 20
223.3381
 11
68.2117
 21
222.8448
  0
LINE
  8
LAYER_2
 10
68.2117
 20
222.8448
 11
70.0529
 21
222.3515
  0
LINE
  8
LAYER_2
 10
70.0529
 20
222.3515
 11
70.0529
 21
223.3381
  0
LINE
  8
LAYER_2
 10
100.5372
 20
222.3659
 11
102.3786
 21
222.8594
  0
LINE
  8
LAYER_2
 10
102.3786
 20
222.8594
 11
100.5372
 21
223.3528
  0
LINE
  8
LAYER_2
 10
100.5372
 20
223.3528
 11
100.5372
 21
222.3659
  0
LINE
  8
LAYER_2
 10
66.37
 20
222.3659
 11
68.2117
 21
222.8594
  0
LINE
  8
LAYER_2
 10
68.2117
 20
222.8594
 11
66.37
 21
223.3528
  0
LINE
  8
LAYER_2
 10
66.37
 20
223.3528
 11
66.37
 21
222.3659
  0
ENDBLK
  0
BLOCK
  8
LAYER_2
  2
AIGNBL02010005
 70
64
 10
0
 20
0
 30
0
  3
AIGNBL02010005
  0
LINE
  8
LAYER_2
 10
111.609
 20
204.4223
 11
111.609
 21
185.2554
  0
LINE
  8
LAYER_2
 10
111.1301
 20
187.0971
 11
111.6239
 21
185.2554
  0
LINE
  8
LAYER_2
 10
111.6239
 20
185.2554
 11
112.1172
 21
187.0971
  0
LINE
  8
LAYER_2
 10
112.1172
 20
187.0971
 11
111.1301
 21
187.0971
  0
LINE
  8
LAYER_2
 10
111.1301
 20
198.7636
 11
111.6239
 21
196.922
  0
LINE
  8
LAYER_2
 10
111.6239
 20
196.922
 11
112.1172
 21
198.7636
  0
LINE
  8
LAYER_2
 10
112.1172
 20
198.7636
 11
111.1301
 21
198.7636
  0
LINE
  8
LAYER_2
 10
112.1027
 20
202.5806
 11
111.609
 21
204.4223
  0
LINE
  8
LAYER_2
 10
111.609
 20
204.4223
 11
111.1157
 21
202.5806
  0
LINE
  8
LAYER_2
 10
111.1157
 20
202.5806
 11
112.1027
 21
202.5806
  0
LINE
  8
LAYER_2
 10
112.1027
 20
195.0806
 11
111.609
 21
196.922
  0
LINE
  8
LAYER_2
 10
111.609
 20
196.922
 11
111.1157
 21
195.0806
  0
LINE
  8
LAYER_2
 10
111.1157
 20
195.0806
 11
112.1027
 21
195.0806
  0
ENDBLK
  0
BLOCK
  8
LAYER_2
  2
AIGNBL02010006
 70
64
 10
0
 20
0
 30
0
  3
AIGNBL02010006
  0
LINE
  8
LAYER_2
 10
119.5741
 20
204.4223
 11
119.5741
 21
162.7553
  0
LINE
  8
LAYER_2
 10
119.0952
 20
164.597
 11
119.5889
 21
162.7553
  0
LINE
  8
LAYER_2
 10
119.5889
 20
162.7553
 11
120.0822
 21
164.597
  0
LINE
  8
LAYER_2
 10
120.0822
 20
164.597
 11
119.0952
 21
164.597
  0
LINE
  8
LAYER_2
 10
120.0678
 20
202.5806
 11
119.5741
 21
204.4223
  0
LINE
  8
LAYER_2
 10
119.5741
 20
204.4223
 11
119.0808
 21
202.5806
  0
LINE
  8
LAYER_2
 10
119.0808
 20
202.5806
 11
120.0678
 21
202.5806
  0
ENDBLK
  0
BLOCK
  8
LAYER_2
  2
AIGNBL02010007
 70
64
 10
0
 20
0
 30
0
  3
AIGNBL02010007
  0
LINE
  8
LAYER_2
 10
60.8709
 20
192.5963
 11
76.066
 21
177.4012
  0
LINE
  8
LAYER_2
 10
63.8497
 20
188.9197
 11
65.5009
 21
187.9661
  0
LINE
  8
LAYER_2
 10
65.5009
 20
187.9661
 11
64.5476
 21
189.6175
  0
LINE
  8
LAYER_2
 10
64.5476
 20
189.6175
 11
63.8497
 21
188.9197
  0
LINE
  8
LAYER_2
 10
72.573
 20
181.5918
 11
70.9221
 21
182.5449
  0
LINE
  8
LAYER_2
 10
70.9221
 20
182.5449
 11
71.8752
 21
180.894
  0
LINE
  8
LAYER_2
 10
71.8752
 20
180.894
 11
72.573
 21
181.5918
  0
ENDBLK
  0
BLOCK
  8
LAYER_2
  2
AIGNBL02010008
 70
64
 10
0
 20
0
 30
0
  3
AIGNBL02010008
  0
LINE
  8
LAYER_2
 10
42.3783
 20
146.1017
 11
102.3786
 21
146.1017
  0
LINE
  8
LAYER_2
 10
100.5372
 20
145.6223
 11
102.3786
 21
146.1158
  0
LINE
  8
LAYER_2
 10
102.3786
 20
146.1158
 11
100.5372
 21
146.6092
  0
LINE
  8
LAYER_2
 10
100.5372
 20
146.6092
 11
100.5372
 21
145.6223
  0
LINE
  8
LAYER_2
 10
44.22
 20
146.595
 11
42.3783
 21
146.1017
  0
LINE
  8
LAYER_2
 10
42.3783
 20
146.1017
 11
44.22
 21
145.6083
  0
LINE
  8
LAYER_2
 10
44.22
 20
145.6083
 11
44.22
 21
146.595
  0
ENDBLK
  0
BLOCK
  8
LAYER_2
  2
AIGNBL02010009
 70
64
 10
0
 20
0
 30
0
  3
AIGNBL02010009
  0
LINE
  8
LAYER_2
 10
35.8548
 20
152.9781
 11
102.3786
 21
152.9781
  0
LINE
  8
LAYER_2
 10
100.5372
 20
152.4987
 11
102.3786
 21
152.9922
  0
LINE
  8
LAYER_2
 10
102.3786
 20
152.9922
 11
100.5372
 21
153.4855
  0
LINE
  8
LAYER_2
 10
100.5372
 20
153.4855
 11
100.5372
 21
152.4987
  0
LINE
  8
LAYER_2
 10
88.0366
 20
152.4987
 11
89.8781
 21
152.9922
  0
LINE
  8
LAYER_2
 10
89.8781
 20
152.9922
 11
88.0366
 21
153.4855
  0
LINE
  8
LAYER_2
 10
88.0366
 20
153.4855
 11
88.0366
 21
152.4987
  0
LINE
  8
LAYER_2
 10
40.5367
 20
152.4987
 11
42.3783
 21
152.9922
  0
LINE
  8
LAYER_2
 10
42.3783
 20
152.9922
 11
40.5367
 21
153.4855
  0
LINE
  8
LAYER_2
 10
40.5367
 20
153.4855
 11
40.5367
 21
152.4987
  0
LINE
  8
LAYER_2
 10
48.3865
 20
153.4638
 11
46.545
 21
152.9705
  0
LINE
  8
LAYER_2
 10
46.545
 20
152.9705
 11
48.3865
 21
152.4772
  0
LINE
  8
LAYER_2
 10
48.3865
 20
152.4772
 11
48.3865
 21
153.4638
  0
LINE
  8
LAYER_2
 10
91.7198
 20
153.4638
 11
89.8781
 21
152.9705
  0
LINE
  8
LAYER_2
 10
89.8781
 20
152.9705
 11
91.7198
 21
152.4772
  0
LINE
  8
LAYER_2
 10
91.7198
 20
152.4772
 11
91.7198
 21
153.4638
  0
ENDBLK
  0
BLOCK
  8
LAYER_2
  2
AIGNBL0201000A
 70
64
 10
0
 20
0
 30
0
  3
AIGNBL0201000A
  0
LINE
  8
LAYER_2
 10
89.9482
 20
192.8254
 11
104.9335
 21
207.8102
  0
LINE
  8
LAYER_2
 10
91.0298
 20
193.2087
 11
91.9827
 21
194.8596
  0
LINE
  8
LAYER_2
 10
91.9827
 20
194.8596
 11
90.3314
 21
193.9067
  0
LINE
  8
LAYER_2
 10
90.3314
 20
193.9067
 11
91.0298
 21
193.2087
  0
LINE
  8
LAYER_2
 10
97.0611
 20
200.6357
 11
96.1075
 21
198.9846
  0
LINE
  8
LAYER_2
 10
96.1075
 20
198.9846
 11
97.7591
 21
199.9376
  0
LINE
  8
LAYER_2
 10
97.7591
 20
199.9376
 11
97.0611
 21
200.6357
  0
ENDBLK
  0
BLOCK
  8
LAYER_2
  2
AIGNBL0201000B
 70
64
 10
0
 20
0
 30
0
  3
AIGNBL0201000B
  0
LINE
  8
LAYER_2
 10
33.2803
 20
204.4223
 11
33.2803
 21
159.1346
  0
LINE
  8
LAYER_2
 10
32.7866
 20
168.7638
 11
33.2803
 21
166.9221
  0
LINE
  8
LAYER_2
 10
33.2803
 20
166.9221
 11
33.7736
 21
168.7638
  0
LINE
  8
LAYER_2
 10
33.7736
 20
168.7638
 11
32.7866
 21
168.7638
  0
LINE
  8
LAYER_2
 10
32.7866
 20
196.2638
 11
33.2803
 21
194.4222
  0
LINE
  8
LAYER_2
 10
33.2803
 20
194.4222
 11
33.7736
 21
196.2638
  0
LINE
  8
LAYER_2
 10
33.7736
 20
196.2638
 11
32.7866
 21
196.2638
  0
LINE
  8
LAYER_2
 10
33.7736
 20
202.5806
 11
33.2803
 21
204.4223
  0
LINE
  8
LAYER_2
 10
33.2803
 20
204.4223
 11
32.7866
 21
202.5806
  0
LINE
  8
LAYER_2
 10
32.7866
 20
202.5806
 11
33.7736
 21
202.5806
  0
LINE
  8
LAYER_2
 10
33.7736
 20
192.5805
 11
33.2803
 21
194.4222
  0
LINE
  8
LAYER_2
 10
33.2803
 20
194.4222
 11
32.7866
 21
192.5805
  0
LINE
  8
LAYER_2
 10
32.7866
 20
192.5805
 11
33.7736
 21
192.5805
  0
LINE
  8
LAYER_2
 10
33.7736
 20
160.9137
 11
33.2803
 21
162.7553
  0
LINE
  8
LAYER_2
 10
33.2803
 20
162.7553
 11
32.7866
 21
160.9137
  0
LINE
  8
LAYER_2
 10
32.7866
 20
160.9137
 11
33.7736
 21
160.9137
  0
ENDBLK
  0
BLOCK
  8
LAYER_2
  2
AIGNBL0201000C
 70
64
 10
0
 20
0
 30
0
  3
AIGNBL0201000C
  0
LINE
  8
LAYER_2
 10
57.3784
 20
115.1203
 11
68.2117
 21
115.1203
  0
LINE
  8
LAYER_2
 10
66.3701
 20
114.6411
 11
68.2117
 21
115.1347
  0
LINE
  8
LAYER_2
 10
68.2117
 20
115.1347
 11
66.3701
 21
115.6284
  0
LINE
  8
LAYER_2
 10
66.3701
 20
115.6284
 11
66.3701
 21
114.6411
  0
LINE
  8
LAYER_2
 10
59.22
 20
115.614
 11
57.3784
 21
115.1203
  0
LINE
  8
LAYER_2
 10
57.3784
 20
115.1203
 11
59.22
 21
114.627
  0
LINE
  8
LAYER_2
 10
59.22
 20
114.627
 11
59.22
 21
115.614
  0
LINE
  8
LAYER_2
 10
57.3784
 20
120.9814
 11
87.3783
 21
120.9814
  0
LINE
  8
LAYER_2
 10
85.5369
 20
120.5025
 11
87.3783
 21
120.9959
  0
LINE
  8
LAYER_2
 10
87.3783
 20
120.9959
 11
85.5369
 21
121.4896
  0
LINE
  8
LAYER_2
 10
85.5369
 20
121.4896
 11
85.5369
 21
120.5025
  0
LINE
  8
LAYER_2
 10
59.22
 20
121.4751
 11
57.3784
 21
120.9814
  0
LINE
  8
LAYER_2
 10
57.3784
 20
120.9814
 11
59.22
 21
120.4881
  0
LINE
  8
LAYER_2
 10
59.22
 20
120.4881
 11
59.22
 21
121.4751
  0
ENDBLK
  0
BLOCK
  8
LAYER_2
  2
AIGNBL0201000D
 70
64
 10
0
 20
0
 30
0
  3
AIGNBL0201000D
  0
LINE
  8
LAYER_2
 10
33.2803
 20
107.9024
 11
33.2803
 21
100.4025
  0
LINE
  8
LAYER_2
 10
32.8015
 20
102.2442
 11
33.2948
 21
100.4025
  0
LINE
  8
LAYER_2
 10
33.2948
 20
100.4025
 11
33.7881
 21
102.2442
  0
LINE
  8
LAYER_2
 10
33.7881
 20
102.2442
 11
32.8015
 21
102.2442
  0
LINE
  8
LAYER_2
 10
33.7736
 20
106.0607
 11
33.2803
 21
107.9024
  0
LINE
  8
LAYER_2
 10
33.2803
 20
107.9024
 11
32.787
 21
106.0607
  0
LINE
  8
LAYER_2
 10
32.787
 20
106.0607
 11
33.7736
 21
106.0607
  0
ENDBLK
  0
BLOCK
  8
LAYER_2
  2
AIGNBL0201000E
 70
64
 10
0
 20
0
 30
0
  3
AIGNBL0201000E
  0
LINE
  8
LAYER_2
 10
111.0926
 20
80.4023
 11
111.0926
 21
107.9024
  0
LINE
  8
LAYER_2
 10
111.5863
 20
106.0614
 11
111.0926
 21
107.9024
  0
LINE
  8
LAYER_2
 10
111.0926
 20
107.9024
 11
110.5996
 21
106.0614
  0
LINE
  8
LAYER_2
 10
110.5996
 20
106.0614
 11
111.5863
 21
106.0614
  0
LINE
  8
LAYER_2
 10
110.6138
 20
82.2441
 11
111.1074
 21
80.4023
  0
LINE
  8
LAYER_2
 10
111.1074
 20
80.4023
 11
111.6008
 21
82.2441
  0
LINE
  8
LAYER_2
 10
111.6008
 20
82.2441
 11
110.6138
 21
82.2441
  0
ENDBLK
  0
BLOCK
  8
LAYER_2
  2
AIGNBL0201000F
 70
64
 10
0
 20
0
 30
0
  3
AIGNBL0201000F
  0
LINE
  8
LAYER_2
 10
36.0374
 20
211.2267
 11
25.0465
 21
211.2267
  0
ENDBLK
  0
BLOCK
  8
LAYER_2
  2
AIGNBL02010010
 70
64
 10
0
 20
0
 30
0
  3
AIGNBL02010010
  0
INSERT
  8
LAYER_2
  2
AIGNBL02020011
 10
0
 20
0
 30
0
  0
LINE
  8
LAYER_2
 10
43.4337
 20
203.0766
 11
45.4208
 21
201.9389
  0
LINE
  8
LAYER_2
 10
45.4208
 20
201.9389
 11
44.2688
 21
203.9178
  0
LINE
  8
LAYER_2
 10
44.2688
 20
203.9178
 11
43.4337
 21
203.0766
  0
ENDBLK
  0
BLOCK
  8
LAYER_3
  2
AIGNBL03010002
 70
64
 10
0
 20
0
 30
0
  3
AIGNBL03010002
  0
ARC
  8
LAYER_3
 10
71.329
 20
29.8046
 40
2.0849
 50
0.0006125599176
 51
89.99938743
  0
ARC
  8
LAYER_3
 10
71.3293
 20
29.8049
 40
2.0846
 50
90.00841178
 51
180.0080794
  0
ARC
  8
LAYER_3
 10
71.329
 20
29.8046
 40
2.0843
 50
179.9993872
 51
270.0006128
  0
ARC
  8
LAYER_3
 10
71.3293
 20
29.8049
 40
2.0846
 50
269.9915884
 51
359.9919204
  0
ARC
  8
LAYER_3
 10
71.3293
 20
29.8042
 40
1.2199
 50
0.01748619098
 51
90.01539247
  0
ARC
  8
LAYER_3
 10
71.329
 20
29.8045
 40
1.2196
 50
89.99793485
 51
179.997367
  0
ARC
  8
LAYER_3
 10
71.329
 20
29.8046
 40
1.2196
 50
179.9989528
 51
270.0010472
  0
ARC
  8
LAYER_3
 10
71.3293
 20
29.8049
 40
1.2199
 50
269.9856262
 51
359.9861933
  0
LINE
  8
LAYER_3
 10
75.04
 20
28.585
 11
75.04
 21
31.0241
  0
LINE
  8
LAYER_3
 10
80.218
 20
27.7203
 11
80.218
 21
31.8895
  0
LINE
  8
LAYER_3
 10
75.04
 20
31.0241
 11
80.218
 21
31.8895
  0
LINE
  8
LAYER_3
 10
75.04
 20
28.585
 11
80.218
 21
27.7203
  0
LINE
  8
LAYER_3
 10
71.329
 20
29.8046
 11
71.329
 21
29.5531
  0
LINE
  8
LAYER_3
 10
71.329
 20
29.3126
 11
71.329
 21
27.1256
  0
LINE
  8
LAYER_3
 10
71.329
 20
29.8046
 11
71.5811
 21
29.8046
  0
LINE
  8
LAYER_3
 10
71.8216
 20
29.8046
 11
74.0086
 21
29.8046
  0
LINE
  8
LAYER_3
 10
71.329
 20
29.8046
 11
71.329
 21
30.0567
  0
LINE
  8
LAYER_3
 10
71.329
 20
30.2972
 11
71.329
 21
32.4842
  0
LINE
  8
LAYER_3
 10
71.329
 20
29.8046
 11
71.0775
 21
29.8046
  0
LINE
  8
LAYER_3
 10
70.837
 20
29.8046
 11
68.6501
 21
29.8046
  0
LINE
  8
LAYER_3
 10
77.2332
 20
29.8046
 11
77.4854
 21
29.8046
  0
LINE
  8
LAYER_3
 10
77.7258
 20
29.8046
 11
80.6507
 21
29.8046
  0
LINE
  8
LAYER_3
 10
77.2332
 20
29.8046
 11
76.981
 21
29.8046
  0
LINE
  8
LAYER_3
 10
76.7405
 20
29.8046
 11
74.5543
 21
29.8046
  0
ENDBLK
  0
ENDSEC
  0
SECTION
  2
ENTITIES
  0
TEXT
  8
LAYER_1
 10
110.2338
 20
93.7317
 11
110.2338
 21
93.7317
 40
3.0923
 41
0.5
 50
89.99999999
 72
1
  1
165
  0
TEXT
  8
LAYER_1
 10
32.5715
 20
199.5661
 11
32.5715
 21
199.5661
 40
3.0923
 41
0.5
 50
89.99999999
 72
1
  1
60
  0
TEXT
  8
LAYER_1
 10
110.61
 20
200.5805
 11
110.61
 21
200.5805
 40
3.0923
 41
0.5
 50
89.99999999
 72
1
  1
45
  0
TEXT
  8
LAYER_1
 10
110.61
 20
191.2517
 11
110.61
 21
191.2517
 40
3.0923
 41
0.5
 50
89.99999999
 72
1
  1
70
  0
TEXT
  8
LAYER_1
 10
118.7693
 20
184.3052
 11
118.7693
 21
184.3052
 40
3.0923
 41
0.5
 50
89.99999999
 72
1
  1
250
  0
TEXT
  8
LAYER_1
 10
32.5715
 20
165.0211
 11
32.5715
 21
165.0211
 40
3.0923
 41
0.5
 50
89.99999999
 72
1
  1
25
  0
TEXT
  8
LAYER_1
 10
32.5715
 20
181.6375
 11
32.5715
 21
181.6375
 40
3.0923
 41
0.5
 50
89.99999999
 72
1
  1
165
  0
TEXT
  8
LAYER_1
 10
32.3953
 20
103.9971
 11
32.3953
 21
103.9971
 40
3.0923
 41
0.5
 50
89.99999999
 72
1
  1
45
  0
TEXT
  8
LAYER_1
 10
80.5257
 20
178.1225
 11
80.5257
 21
178.1225
 40
3.0923
 41
0.5
 72
2
  1
%%c46
  0
TEXT
  8
LAYER_1
 10
108.9136
 20
208.5993
 11
108.9136
 21
208.5993
 40
3.0923
 41
0.5
 72
2
  1
%%c35
  0
TEXT
  8
LAYER_1
 10
67.1899
 20
153.9925
 11
67.1899
 21
153.9925
 40
3.0923
 41
0.5
 72
1
  1
260
  0
TEXT
  8
LAYER_1
 10
98.2366
 20
215.0403
 11
98.2366
 21
215.0403
 40
3.0923
 41
0.5
 72
1
  1
50
  0
TEXT
  8
LAYER_1
 10
80.8912
 20
215.0403
 11
80.8912
 21
215.0403
 40
3.0923
 41
0.5
 72
1
  1
155
  0
TEXT
  8
LAYER_1
 10
85.5557
 20
223.7858
 11
85.5557
 21
223.7858
 40
3.0923
 41
0.5
 72
1
  1
205
  0
TEXT
  8
LAYER_1
 10
55.2381
 20
223.7858
 11
55.2381
 21
223.7858
 40
3.0923
 41
0.5
 72
1
  1
155
  0
TEXT
  8
LAYER_1
 10
71.5624
 20
147.1421
 11
71.5624
 21
147.1421
 40
3.0923
 41
0.5
 72
1
  1
360
  0
TEXT
  8
LAYER_1
 10
62.7534
 20
116.0618
 11
62.7534
 21
116.0618
 40
3.0923
 41
0.5
 72
1
  1
65
  0
TEXT
  8
LAYER_1
 10
72.5222
 20
121.8644
 11
72.5222
 21
121.8644
 40
3.0923
 41
0.5
 72
1
  1
180
  0
TEXT
  8
LAYER_1
 10
96.0496
 20
153.9925
 11
96.0496
 21
153.9925
 40
3.0923
 41
0.5
 72
1
  1
75
  0
TEXT
  8
LAYER_1
 10
37.8928
 20
153.9925
 11
37.8928
 21
153.9925
 40
3.0923
 41
0.5
 72
1
  1
25
  0
TEXT
  8
LAYER_1
 10
158.0748
 20
72.3336
 11
158.0748
 21
72.3336
 40
3.0923
 41
0.5
 72
1
  1
115
  0
INSERT
  8
LAYER_1
  2
AIGNBL01010002
 10
0
 20
0
 30
0
  0
LINE
  8
LAYER_2
 10
168.0738
 20
107.9035
 11
168.0738
 21
84.5688
  0
ARC
  8
LAYER_2
 10
127.2402
 20
107.0696
 40
0.8328
 50
89.98172255
 51
179.98388
  0
LINE
  8
LAYER_2
 10
168.0738
 20
107.9024
 11
127.2405
 21
107.9024
  0
ARC
  8
LAYER_2
 10
132.2402
 20
85.9033
 40
1.3338
 50
206.0375415
 51
269.9912447
  0
LINE
  8
LAYER_2
 10
168.0738
 20
84.5695
 11
132.24
 21
84.5695
  0
LINE
  8
LAYER_2
  6
AIGENLINE001
 10
148.9074
 20
86.5553
 11
148.9074
 21
78.0955
  0
LINE
  8
LAYER_2
 10
155.1574
 20
84.5695
 11
154.7406
 21
80.4023
  0
LINE
  8
LAYER_2
 10
154.7406
 20
80.4023
 11
143.0741
 21
80.4023
  0
LINE
  8
LAYER_2
 10
143.0741
 20
80.4033
 11
142.6573
 21
84.5695
  0
LINE
  8
LAYER_2
 10
148.9074
 20
70.683
 11
148.9074
 21
77.3355
  0
INSERT
  8
LAYER_2
  2
AIGNBL02010002
 10
0
 20
0
 30
0
  0
LINE
  8
LAYER_2
 10
168.0738
 20
83.5801
 11
168.0738
 21
70.683
  0
LINE
  8
LAYER_2
  6
AIGENLINE001
 10
171.4858
 20
100.4025
 11
164.7445
 21
100.4025
  0
LINE
  8
LAYER_2
  6
AIGENLINE001
 10
160.5738
 20
111.1422
 11
160.5738
 21
104.9293
  0
LINE
  8
LAYER_2
 10
42.3783
 20
223.5448
 11
42.3783
 21
205.8221
  0
LINE
  8
LAYER_2
 10
102.3786
 20
223.5448
 11
102.3786
 21
205.8221
  0
ARC
  8
LAYER_2
 10
43.2117
 20
203.5889
 40
0.8334
 50
90.01068153
 51
180.0099446
  0
ARC
  8
LAYER_2
 10
101.545
 20
203.5887
 40
0.8336
 50
0.007395948138
 51
90.00635063
  0
LINE
  8
LAYER_2
 10
43.2115
 20
204.4223
 11
101.5449
 21
204.4223
  0
ARC
  8
LAYER_2
 10
49.045
 20
169.422
 40
6.6667
 50
179.9969396
 51
269.9970444
  0
LINE
  8
LAYER_2
 10
42.3783
 20
169.4224
 11
42.3783
 21
203.5888
  0
ARC
  8
LAYER_2
 10
95.7118
 20
169.4221
 40
6.6668
 50
270.0020403
 51
0.002256792611
  0
LINE
  8
LAYER_2
 10
49.0447
 20
162.7553
 11
95.712
 21
162.7553
  0
LINE
  8
LAYER_2
 10
102.3786
 20
169.4224
 11
102.3786
 21
203.5888
  0
ARC
  8
LAYER_2
 10
51.5449
 20
189.4223
 40
4.9999
 50
89.99902521
 51
179.9986829
  0
ARC
  8
LAYER_2
 10
51.5449
 20
171.922
 40
4.9999
 50
180.0004117
 51
270.0007342
  0
LINE
  8
LAYER_2
 10
46.545
 20
171.922
 11
46.545
 21
189.4224
  0
ARC
  8
LAYER_2
 10
84.8783
 20
189.4224
 40
4.9998
 50
359.9998201
 51
89.99903395
  0
LINE
  8
LAYER_2
 10
51.545
 20
194.4222
 11
84.8784
 21
194.4222
  0
ARC
  8
LAYER_2
 10
84.8783
 20
171.9219
 40
4.9998
 50
270.0012066
 51
0.001085339495
  0
LINE
  8
LAYER_2
 10
51.545
 20
166.9221
 11
84.8784
 21
166.9221
  0
LINE
  8
LAYER_2
 10
89.8781
 20
171.922
 11
89.8781
 21
189.4224
  0
LINE
  8
LAYER_2
  6
AIGENLINE001
 10
94.0451
 20
192.5149
 11
94.0451
 21
201.3555
  0
LINE
  8
LAYER_2
  6
AIGENLINE001
 10
94.0451
 20
104.9741
 11
94.0451
 21
112.0297
  0
LINE
  8
LAYER_2
  6
AIGENLINE001
 10
89.5225
 20
196.922
 11
98.3633
 21
196.922
  0
CIRCLE
  8
LAYER_2
 10
94.0451
 20
196.922
 40
2.9167
  0
CIRCLE
  8
LAYER_2
 10
68.2117
 20
185.2554
 40
6.2501
  0
CIRCLE
  8
LAYER_2
 10
68.2117
 20
185.2554
 40
3.8335
  0
LINE
  8
LAYER_2
  6
AIGENLINE001
 10
59.6842
 20
185.2554
 11
76.5068
 21
185.2554
  0
LINE
  8
LAYER_2
  6
AIGENLINE001
 10
68.2117
 20
193.4969
 11
68.2117
 21
176.7975
  0
LINE
  8
LAYER_2
 10
94.0451
 20
214.8051
 11
94.0451
 21
202.7556
  0
LINE
  8
LAYER_2
 10
120.2745
 20
204.4223
 11
102.945
 21
204.4223
  0
LINE
  8
LAYER_2
 10
112.3094
 20
196.922
 11
99.7634
 21
196.922
  0
LINE
  8
LAYER_2
 10
112.3084
 20
185.2554
 11
77.9069
 21
185.2554
  0
LINE
  8
LAYER_2
 10
120.2745
 20
162.7553
 11
100.2561
 21
162.7553
  0
INSERT
  8
LAYER_2
  2
AIGNBL02010003
 10
0
 20
0
 30
0
  0
INSERT
  8
LAYER_2
  2
AIGNBL02010004
 10
0
 20
0
 30
0
  0
INSERT
  8
LAYER_2
  2
AIGNBL02010005
 10
0
 20
0
 30
0
  0
INSERT
  8
LAYER_2
  2
AIGNBL02010006
 10
0
 20
0
 30
0
  0
LINE
  8
LAYER_2
 10
68.2117
 20
223.5448
 11
68.2117
 21
194.897
  0
INSERT
  8
LAYER_2
  2
AIGNBL02010007
 10
0
 20
0
 30
0
  0
LINE
  8
LAYER_2
 10
81.9094
 20
177.4012
 11
76.066
 21
177.4012
  0
LINE
  8
LAYER_2
 10
89.8781
 20
168.4218
 11
89.8781
 21
152.278
  0
LINE
  8
LAYER_2
 10
46.545
 20
168.4218
 11
46.545
 21
152.278
  0
LINE
  8
LAYER_2
 10
42.3783
 20
165.9222
 11
42.3783
 21
145.4016
  0
LINE
  8
LAYER_2
 10
102.3786
 20
165.9222
 11
102.3786
 21
145.4016
  0
INSERT
  8
LAYER_2
  2
AIGNBL02010008
 10
0
 20
0
 30
0
  0
INSERT
  8
LAYER_2
  2
AIGNBL02010009
 10
0
 20
0
 30
0
  0
INSERT
  8
LAYER_2
  2
AIGNBL0201000A
 10
0
 20
0
 30
0
  0
LINE
  8
LAYER_2
 10
110.3078
 20
207.8102
 11
104.9335
 21
207.8102
  0
LINE
  8
LAYER_2
 10
40.4113
 20
204.4223
 11
32.5799
 21
204.4223
  0
LINE
  8
LAYER_2
 10
48.7448
 20
194.4222
 11
32.5799
 21
194.4222
  0
LINE
  8
LAYER_2
 10
48.2322
 20
166.9221
 11
32.5799
 21
166.9221
  0
LINE
  8
LAYER_2
 10
46.2445
 20
162.7553
 11
32.5799
 21
162.7553
  0
INSERT
  8
LAYER_2
  2
AIGNBL0201000B
 10
0
 20
0
 30
0
  0
LINE
  8
LAYER_2
  6
AIGENLINE001
 10
57.3782
 20
207.925
 11
57.3782
 21
201.5398
  0
LINE
  8
LAYER_2
  6
AIGENLINE001
 10
87.3781
 20
207.925
 11
87.3781
 21
201.5398
  0
ARC
  8
LAYER_2
 10
43.2427
 20
107.0379
 40
0.865
 50
92.04873477
 51
177.8893647
  0
LINE
  8
LAYER_2
 10
42.3783
 20
107.0698
 11
42.3804
 21
107.0102
  0
ARC
  8
LAYER_2
 10
181.85
 20
107.9076
 40
139.4725
 50
180.3686392
 51
183.0727077
  0
ARC
  8
LAYER_2
 10
267.5325
 20
111.605
 40
225.2318
 50
182.8435664
 51
184.9168677
  0
ARC
  8
LAYER_2
 10
150.5044
 20
101.0807
 40
107.7333
 50
184.6748823
 51
188.4564109
  0
ARC
  8
LAYER_2
 10
167.3805
 20
107.1374
 40
40.9732
 50
180.0945867
 51
184.8912719
  0
ARC
  8
LAYER_2
 10
177.5293
 20
108.0015
 40
51.1586
 50
184.8863195
 51
189.1778221
  0
ARC
  8
LAYER_2
 10
188.9653
 20
109.8404
 40
62.7416
 50
189.1698514
 51
193.1228974
  0
ARC
  8
LAYER_2
 10
201.7789
 20
112.8366
 40
75.9008
 50
193.1295788
 51
200.3571391
  0
ARC
  8
LAYER_2
 10
200.6688
 20
112.3753
 40
74.6995
 50
200.3215524
 51
201.2364254
  0
LINE
  8
LAYER_2
 10
43.2118
 20
107.9024
 11
101.5452
 21
107.9024
  0
ARC
  8
LAYER_2
 10
44.7799
 20
85.4282
 40
0.8589
 50
192.804847
 51
268.6293249
  0
LINE
  8
LAYER_2
 10
44.7594
 20
84.5695
 11
99.997
 21
84.5695
  0
ARC
  8
LAYER_2
 10
101.5456
 20
107.0694
 40
0.833
 50
0.02777018609
 51
90.02725576
  0
LINE
  8
LAYER_2
 10
102.3786
 20
107.0698
 11
102.3765
 21
107.0102
  0
ARC
  8
LAYER_2
 10
-37.0364
 20
107.9081
 40
139.4158
 50
356.9257976
 51
359.6309673
  0
ARC
  8
LAYER_2
 10
-122.9047
 20
111.6169
 40
225.3612
 50
355.0829293
 51
357.1550416
  0
ARC
  8
LAYER_2
 10
-5.8749
 20
101.092
 40
107.861
 50
351.5476137
 51
355.3246515
  0
ARC
  8
LAYER_2
 10
99.9768
 20
85.4284
 40
0.8591
 50
271.3482163
 51
347.1832557
  0
LINE
  8
LAYER_2
  6
AIGENLINE001
 10
68.2117
 20
110.1935
 11
68.2117
 21
78.1403
  0
ARC
  8
LAYER_2
 10
62.8475
 20
80.9208
 40
0.5188
 50
187.5099776
 51
268.1298329
  0
LINE
  8
LAYER_2
 10
61.9616
 20
84.5695
 11
62.3332
 21
80.853
  0
ARC
  8
LAYER_2
 10
73.592
 20
80.9025
 40
0.5002
 50
270.0230668
 51
354.3256608
  0
LINE
  8
LAYER_2
 10
62.8306
 20
80.4023
 11
73.5922
 21
80.4023
  0
LINE
  8
LAYER_2
 10
74.0902
 20
80.853
 11
74.4618
 21
84.5695
  0
ARC
  8
LAYER_2
  6
AIGENLINE002
 10
56.5447
 20
100.4025
 40
1.6667
 50
90.00015751
 51
179.9998425
  0
ARC
  8
LAYER_2
  6
AIGENLINE002
 10
56.5447
 20
100.4025
 40
1.6667
 50
179.999927
 51
270.0000729
  0
ARC
  8
LAYER_2
  6
AIGENLINE002
 10
58.2118
 20
100.4025
 40
1.6667
 50
0.0003028360735
 51
89.99969715
  0
ARC
  8
LAYER_2
  6
AIGENLINE002
 10
58.2118
 20
100.4025
 40
1.6667
 50
270.0000724
 51
359.9999276
  0
LINE
  8
LAYER_2
  6
AIGENLINE002
 10
58.2118
 20
98.7358
 11
56.5447
 21
98.7358
  0
LINE
  8
LAYER_2
  6
AIGENLINE002
 10
58.2118
 20
102.0692
 11
56.5447
 21
102.0692
  0
LINE
  8
LAYER_2
  6
AIGENLINE001
 10
57.3784
 20
103.1744
 11
57.3784
 21
97.5355
  0
LINE
  8
LAYER_2
  6
AIGENLINE001
 10
53.63
 20
100.4025
 11
61.0371
 21
100.4025
  0
ARC
  8
LAYER_2
  6
AIGENLINE002
 10
86.5452
 20
100.4024
 40
1.6668
 50
89.99627729
 51
179.9968477
  0
ARC
  8
LAYER_2
  6
AIGENLINE002
 10
86.5452
 20
100.4026
 40
1.6668
 50
180.0029218
 51
270.0039531
  0
ARC
  8
LAYER_2
  6
AIGENLINE002
 10
88.2119
 20
100.4025
 40
1.6667
 50
0.001246848104
 51
90.00219072
  0
ARC
  8
LAYER_2
  6
AIGENLINE002
 10
88.2119
 20
100.4025
 40
1.6667
 50
269.9975789
 51
359.9989836
  0
LINE
  8
LAYER_2
  6
AIGENLINE002
 10
88.2118
 20
98.7358
 11
86.5453
 21
98.7358
  0
LINE
  8
LAYER_2
  6
AIGENLINE002
 10
88.2118
 20
102.0692
 11
86.5453
 21
102.0692
  0
LINE
  8
LAYER_2
  6
AIGENLINE001
 10
87.3783
 20
103.1744
 11
87.3783
 21
97.5355
  0
LINE
  8
LAYER_2
  6
AIGENLINE001
 10
83.63
 20
100.4025
 11
91.037
 21
100.4025
  0
LINE
  8
LAYER_2
 10
57.3784
 20
103.8234
 11
57.3784
 21
121.6587
  0
LINE
  8
LAYER_2
 10
68.2117
 20
110.9273
 11
68.2117
 21
115.8206
  0
LINE
  8
LAYER_2
 10
87.3783
 20
103.8234
 11
87.3783
 21
121.6587
  0
INSERT
  8
LAYER_2
  2
AIGNBL0201000C
 10
0
 20
0
 30
0
  0
LINE
  8
LAYER_2
 10
41.7146
 20
107.9024
 11
32.5803
 21
107.9024
  0
LINE
  8
LAYER_2
 10
52.4016
 20
100.4025
 11
32.5803
 21
100.4025
  0
INSERT
  8
LAYER_2
  2
AIGNBL0201000D
 10
0
 20
0
 30
0
  0
LINE
  8
LAYER_2
 10
111.793
 20
107.9024
 11
103.3077
 21
107.9024
  0
LINE
  8
LAYER_2
 10
111.793
 20
80.4023
 11
75.5223
 21
80.4023
  0
INSERT
  8
LAYER_2
  2
AIGNBL0201000E
 10
0
 20
0
 30
0
  0
ARC
  8
LAYER_2
  6
AIGENLINE002
 10
65.8781
 20
103.736
 40
0.9997
 50
89.97945156
 51
179.9804313
  0
ARC
  8
LAYER_2
  6
AIGENLINE002
 10
65.8785
 20
103.7363
 40
1.0001
 50
180.000299
 51
269.999701
  0
ARC
  8
LAYER_2
  6
AIGENLINE002
 10
70.5454
 20
103.7361
 40
0.9996
 50
0.01057089843
 51
90.01235657
  0
ARC
  8
LAYER_2
  6
AIGENLINE002
 10
70.5451
 20
103.7361
 40
0.9999
 50
270.0084914
 51
0.00869824052
  0
LINE
  8
LAYER_2
  6
AIGENLINE002
 10
70.5452
 20
102.7362
 11
65.8785
 21
102.7362
  0
LINE
  8
LAYER_2
  6
AIGENLINE002
 10
70.5452
 20
104.7357
 11
65.8785
 21
104.7357
  0
LINE
  8
LAYER_2
  6
AIGENLINE001
 10
63.8776
 20
103.7363
 11
72.4541
 21
103.7363
  0
ARC
  8
LAYER_2
 10
155.6999
 20
81.3997
 40
0.8579
 50
105.2851987
 51
178.7365896
  0
ARC
  8
LAYER_2
 10
152.7296
 20
107.131
 40
25.0545
 50
276.2878346
 51
282.5827168
  0
ARC
  8
LAYER_2
 10
146.252
 20
138.7357
 40
57.3141
 50
282.0198736
 51
286.1143669
  0
ARC
  8
LAYER_2
 10
157.2968
 20
101.8492
 40
18.815
 50
284.9793388
 51
293.306836
  0
INSERT
  8
LAYER_2
  2
AIGNBL0201000F
 10
0
 20
0
 30
0
  0
INSERT
  8
LAYER_2
  2
AIGNBL02010010
 10
0
 20
0
 30
0
  0
LINE
  8
LAYER_3
 10
17.0494
 20
35.9086
 11
183.5495
 21
35.9086
  0
LINE
  8
LAYER_3
 10
103.5496
 20
15.9084
 11
183.5495
 21
15.9084
  0
LINE
  8
LAYER_3
 10
17.0494
 20
23.4091
 11
103.5496
 21
23.4091
  0
LINE
  8
LAYER_3
 10
17.0494
 20
9.4089
 11
103.5496
 21
9.4089
  0
LINE
  8
LAYER_3
 10
28.5492
 20
9.4089
 11
28.5492
 21
23.4091
  0
LINE
  8
LAYER_3
 10
103.5496
 20
-4.0911
 11
103.5496
 21
35.9086
  0
LINE
  8
LAYER_3
 10
84.5492
 20
9.4089
 11
84.5492
 21
35.9086
  0
LINE
  8
LAYER_3
 10
65.5495
 20
9.4089
 11
65.5495
 21
35.9086
  0
LINE
  8
LAYER_3
 10
183.5495
 20
-4.0911
 11
17.0494
 21
-4.0911
  0
LINE
  8
LAYER_3
 10
17.0494
 20
-4.0911
 11
17.0494
 21
258.9091
  0
LINE
  8
LAYER_3
 10
17.0494
 20
258.9091
 11
183.5495
 21
258.9091
  0
LINE
  8
LAYER_3
 10
183.5495
 20
258.9091
 11
183.5495
 21
-4.0911
  0
TEXT
  8
LAYER_3
 10
43.5483
 20
27.9366
 11
43.5483
 21
27.9366
 40
4.4979
 41
0.5
 72
1
  1
セラトレーディング株式会社
  0
TEXT
  8
LAYER_3
 10
18.0209
 20
19.4107
 11
18.0209
 21
19.4107
 40
3.0923
 41
0.5
  1
製図
  0
TEXT
  8
LAYER_3
 10
18.0209
 20
5.2114
 11
18.0209
 21
5.2114
 40
3.0923
 41
0.5
  1
備考
  0
TEXT
  8
LAYER_3
 10
29.6392
 20
19.4107
 11
29.6392
 21
19.4107
 40
3.0923
 41
0.5
  1
検図
  0
TEXT
  8
LAYER_3
 10
66.5927
 20
19.4107
 11
66.5927
 21
19.4107
 40
3.0923
 41
0.5
  1
日付
  0
TEXT
  8
LAYER_3
 10
67.7854
 20
13.2178
 11
67.7854
 21
13.2178
 40
3.6546
 41
0.5
  1
22.07.26
  0
TEXT
  8
LAYER_3
 10
22.7394
 20
13.603
 11
22.7394
 21
13.603
 40
3.6546
 41
0.5
 72
1
  1
木場
  0
TEXT
  8
LAYER_3
 10
41.3132
 20
13.603
 11
41.3132
 21
13.603
 40
3.6546
 41
0.5
 72
1
  1
井田
  0
TEXT
  8
LAYER_3
 10
109.1782
 20
24.2256
 11
109.1782
 21
24.2256
 40
3.9357
 41
0.5
  1
ラウフェン　プロ　手洗器
  0
TEXT
  8
LAYER_3
 10
143.5492
 20
-0.8926
 11
143.5492
 21
-0.8926
 40
3.9357
 41
0.5
 72
1
  1
AU16955R
  0
TEXT
  8
LAYER_3
 10
143.5492
 20
9.1078
 11
143.5492
 21
9.1078
 40
3.9357
 41
0.5
 72
1
  1
AU16955R
  0
TEXT
  8
LAYER_3
 10
93.9591
 20
13.2178
 11
93.9591
 21
13.2178
 40
3.6546
 41
0.5
 72
1
  1
1 ： 6
  0
TEXT
  8
LAYER_3
 10
85.6427
 20
19.4107
 11
85.6427
 21
19.4107
 40
3.0923
 41
0.5
  1
尺度
  0
TEXT
  8
LAYER_3
 10
85.6427
 20
31.8179
 11
85.6427
 21
31.8179
 40
3.0923
 41
0.5
  1
単位
  0
TEXT
  8
LAYER_3
 10
93.3673
 20
26.8218
 11
93.3673
 21
26.8218
 40
3.6546
 41
0.5
 72
1
  1
mm
  0
TEXT
  8
LAYER_3
 10
104.6045
 20
31.8179
 11
104.6045
 21
31.8179
 40
3.0923
 41
0.5
  1
名称
  0
TEXT
  8
LAYER_3
 10
104.6045
 20
11.6792
 11
104.6045
 21
11.6792
 40
3.0923
 41
0.5
  1
品番
  0
LINE
  8
LAYER_3
 10
103.5496
 20
5.9087
 11
183.5495
 21
5.9087
  0
TEXT
  8
LAYER_3
 10
104.6045
 20
1.6795
 11
104.6045
 21
1.6795
 40
3.0923
 41
0.5
  1
図番
  0
INSERT
  8
LAYER_3
  2
AIGNBL03010002
 10
0
 20
0
 30
0
  0
LINE
  8
LAYER_3
 10
17.0494
 20
127.4105
 11
-4.7008
 21
127.4105
  0
LINE
  8
LAYER_3
 10
100.2995
 20
275.9292
 11
100.2995
 21
258.9091
  0
LINE
  8
LAYER_3
 10
100.2995
 20
-4.0911
 11
100.2995
 21
-21.0712
  0
LINE
  8
LAYER_3
 10
205.2998
 20
127.4105
 11
183.5495
 21
127.4105
  0
TEXT
  8
LAYER_3
 10
24.5866
 20
0.7073
 11
24.5866
 21
0.7073
 40
3.9357
 41
0.5
  1
実容量2.6L、重量7.2kg、オーバーフロー付
  0
TEXT
  8
LAYER_3
 10
20.8552
 20
39.6947
 11
20.8552
 21
39.6947
 40
4.2168
 41
0.5
  1
※取付ボルトの位置は、手洗器現品を測定して下穴をあけてください。
  0
TEXT
  8
LAYER_3
 10
20.8552
 20
45.91
 11
20.8552
 21
45.91
 40
4.2168
 41
0.5
  1
※壁取付部には厚さ30mm以上の補強木を入れてください。
  0
ENDSEC
  0
EOF
