  0
SECTION
  2
HEADER
  9
$ACADVER
  1
AC1009
  9
$INSBASE
 10
0.0
 20
0.0
 30
0.0
  9
$EXTMIN
 10
-4.70052
 20
-21.071400000000001
 30
0.0
  9
$EXTMAX
 10
205.30099999999999
 20
275.93099999999998
 30
0.0
  9
$LIMMIN
 10
0.0
 20
0.0
  9
$LIMMAX
 10
12.0
 20
9.0
  9
$ORTHOMODE
 70
     0
  9
$REGENMODE
 70
     1
  9
$FILLMODE
 70
     1
  9
$QTEXTMODE
 70
     0
  9
$MIRRTEXT
 70
     1
  9
$DRAGMODE
 70
     2
  9
$LTSCALE
 40
1.0
  9
$OSMODE
 70
    37
  9
$ATTMODE
 70
     1
  9
$TEXTSIZE
 40
0.0
  9
$TRACEWID
 40
0.05
  9
$TEXTSTYLE
  7
STANDARD
  9
$CLAYER
  8
0
  9
$CELTYPE
  6
CONTINUOUS
  9
$CECOLOR
 62
   256
  9
$DIMSCALE
 40
1.0
  9
$DIMASZ
 40
0.18
  9
$DIMEXO
 40
0.0625
  9
$DIMDLI
 40
0.38
  9
$DIMRND
 40
0.0
  9
$DIMDLE
 40
0.0
  9
$DIMEXE
 40
0.18
  9
$DIMTP
 40
0.0
  9
$DIMTM
 40
0.0
  9
$DIMTXT
 40
0.18
  9
$DIMCEN
 40
0.09
  9
$DIMTSZ
 40
0.0
  9
$DIMTOL
 70
     0
  9
$DIMLIM
 70
     0
  9
$DIMTIH
 70
     1
  9
$DIMTOH
 70
     1
  9
$DIMSE1
 70
     0
  9
$DIMSE2
 70
     0
  9
$DIMTAD
 70
     0
  9
$DIMZIN
 70
     0
  9
$DIMBLK
  1

  9
$DIMASO
 70
     1
  9
$DIMSHO
 70
     1
  9
$DIMPOST
  1

  9
$DIMAPOST
  1

  9
$DIMALT
 70
     0
  9
$DIMALTD
 70
     2
  9
$DIMALTF
 40
25.399999999999999
  9
$DIMLFAC
 40
1.0
  9
$DIMTOFL
 70
     0
  9
$DIMTVP
 40
0.0
  9
$DIMTIX
 70
     0
  9
$DIMSOXD
 70
     0
  9
$DIMSAH
 70
     0
  9
$DIMBLK1
  1

  9
$DIMBLK2
  1

  9
$DIMSTYLE
  2
STANDARD
  9
$DIMCLRD
 70
     0
  9
$DIMCLRE
 70
     0
  9
$DIMCLRT
 70
     0
  9
$DIMTFAC
 40
1.0
  9
$DIMGAP
 40
0.09
  9
$LUNITS
 70
     2
  9
$LUPREC
 70
     4
  9
$SKETCHINC
 40
0.1
  9
$FILLETRAD
 40
0.0
  9
$AUNITS
 70
     0
  9
$AUPREC
 70
     0
  9
$MENU
  1
.
  9
$ELEVATION
 40
0.0
  9
$PELEVATION
 40
0.0
  9
$THICKNESS
 40
0.0
  9
$LIMCHECK
 70
     0
  9
$BLIPMODE
 70
     0
  9
$CHAMFERA
 40
0.0
  9
$CHAMFERB
 40
0.0
  9
$SKPOLY
 70
     0
  9
$TDCREATE
 40
2444972.375
  9
$TDUPDATE
 40
2458180.2478323262
  9
$TDINDWG
 40
0.0000366435
  9
$TDUSRTIMER
 40
0.0000366435
  9
$USRTIMER
 70
     1
  9
$ANGBASE
 50
0.0
  9
$ANGDIR
 70
     0
  9
$PDMODE
 70
     0
  9
$PDSIZE
 40
0.0
  9
$PLINEWID
 40
0.0
  9
$COORDS
 70
     1
  9
$SPLFRAME
 70
     0
  9
$SPLINETYPE
 70
     6
  9
$SPLINESEGS
 70
     8
  9
$ATTDIA
 70
     1
  9
$ATTREQ
 70
     1
  9
$HANDLING
 70
     1
  9
$HANDSEED
  5
2B5
  9
$SURFTAB1
 70
     6
  9
$SURFTAB2
 70
     6
  9
$SURFTYPE
 70
     6
  9
$SURFU
 70
     6
  9
$SURFV
 70
     6
  9
$UCSNAME
  2

  9
$UCSORG
 10
0.0
 20
0.0
 30
0.0
  9
$UCSXDIR
 10
1.0
 20
0.0
 30
0.0
  9
$UCSYDIR
 10
0.0
 20
1.0
 30
0.0
  9
$PUCSNAME
  2

  9
$PUCSORG
 10
0.0
 20
0.0
 30
0.0
  9
$PUCSXDIR
 10
1.0
 20
0.0
 30
0.0
  9
$PUCSYDIR
 10
0.0
 20
1.0
 30
0.0
  9
$USERI1
 70
     0
  9
$USERI2
 70
     0
  9
$USERI3
 70
     0
  9
$USERI4
 70
     0
  9
$USERI5
 70
     0
  9
$USERR1
 40
0.0
  9
$USERR2
 40
0.0
  9
$USERR3
 40
0.0
  9
$USERR4
 40
0.0
  9
$USERR5
 40
0.0
  9
$WORLDVIEW
 70
     1
  9
$SHADEDGE
 70
     3
  9
$SHADEDIF
 70
    70
  9
$TILEMODE
 70
     1
  9
$MAXACTVP
 70
    48
  9
$PLIMCHECK
 70
     0
  9
$PEXTMIN
 10
1.0000000000000000E+020
 20
1.0000000000000000E+020
 30
1.0000000000000000E+020
  9
$PEXTMAX
 10
-1.0000000000000000E+020
 20
-1.0000000000000000E+020
 30
-1.0000000000000000E+020
  9
$PLIMMIN
 10
0.0
 20
0.0
  9
$PLIMMAX
 10
12.0
 20
9.0
  9
$UNITMODE
 70
     0
  9
$VISRETAIN
 70
     1
  9
$PLINEGEN
 70
     0
  9
$PSLTSCALE
 70
     1
  0
ENDSEC
  0
SECTION
  2
TABLES
  0
TABLE
  2
VPORT
 70
     1
  0
VPORT
  2
*ACTIVE
 70
     0
 10
0.0
 20
0.0
 11
1.0
 21
1.0
 12
230.8193274359005
 22
127.4298
 13
0.0
 23
0.0
 14
1.0
 24
1.0
 15
0.0
 25
0.0
 16
0.0
 26
0.0
 36
1.0
 17
0.0
 27
0.0
 37
0.0
 40
285.3169481892308
 41
2.5432937181663831
 42
50.0
 43
0.0
 44
0.0
 50
0.0
 51
0.0
 71
     0
 72
   100
 73
     1
 74
     1
 75
     0
 76
     0
 77
     0
 78
     0
  0
ENDTAB
  0
TABLE
  2
LTYPE
 70
     4
  0
LTYPE
  2
CONTINUOUS
 70
     0
  3
Solid line
 72
    65
 73
     0
 40
0.0
  0
LTYPE
  2
AIGENLINE001
 70
     0
  3
generate AI->DXF Converter
 72
    65
 73
     2
 40
1.5522299999999991
 49
0.776115
 49
-0.776115
  0
LTYPE
  2
AIGENLINE002
 70
     0
  3
generate AI->DXF Converter
 72
    65
 73
     4
 40
5.8561449999999988
 49
3.5278
 49
-0.776115
 49
0.776115
 49
-0.776115
  0
LTYPE
  2
AIGENLINE003
 70
     0
  3
generate AI->DXF Converter
 72
    65
 73
     6
 40
7.4083750000000004
 49
3.5278
 49
-0.776115
 49
0.776115
 49
-0.776115
 49
0.776115
 49
-0.776115
  0
ENDTAB
  0
TABLE
  2
LAYER
 70
     4
  0
LAYER
  2
0
 70
     0
 62
     7
  6
CONTINUOUS
  0
LAYER
  2
____
 70
     0
 62
     7
  6
CONTINUOUS
  0
LAYER
  2
_________1
 70
     0
 62
     7
  6
CONTINUOUS
  0
LAYER
  2
_________2
 70
     0
 62
     7
  6
CONTINUOUS
  0
ENDTAB
  0
TABLE
  2
STYLE
 70
     1
  0
STYLE
  2
STANDARD
 70
     0
 40
0.0
 41
0.0
 50
0.0
 71
     0
 42
0.0
  3
TXT
  4
EXTFONT.SHX
  0
ENDTAB
  0
TABLE
  2
VIEW
 70
     0
  0
ENDTAB
  0
TABLE
  2
UCS
 70
     0
  0
ENDTAB
  0
TABLE
  2
APPID
 70
     3
  0
APPID
  2
ACAD
 70
     0
  0
APPID
  2
ACAD_NAV_VCDISPLAY
 70
     0
  0
APPID
  2
ACAD_MLEADERVER
 70
     0
  0
ENDTAB
  0
TABLE
  2
DIMSTYLE
 70
     1
  0
DIMSTYLE
  2
STANDARD
 70
     0
  3

  4

  5

  6

  7

 40
1.0
 41
0.18
 42
0.0625
 43
0.38
 44
0.18
 45
0.0
 46
0.0
 47
0.0
 48
0.0
140
0.18
141
0.09
142
0.0
143
25.399999999999999
144
1.0
145
0.0
146
1.0
147
0.09
 71
     0
 72
     0
 73
     1
 74
     1
 75
     0
 76
     0
 77
     0
 78
     0
170
     0
171
     2
172
     0
173
     0
174
     0
175
     0
176
     0
177
     0
178
     0
  0
ENDTAB
  0
ENDSEC
  0
SECTION
  2
BLOCKS
  0
BLOCK
  8
0
  2
$MODEL_SPACE
 70
     0
 10
0.0
 20
0.0
 30
0.0
  3
$MODEL_SPACE
  1

  0
ENDBLK
  5
1A
  8
0
  0
BLOCK
 67
     1
  8
0
  2
$PAPER_SPACE
 70
     0
 10
0.0
 20
0.0
 30
0.0
  3
$PAPER_SPACE
  1

  0
ENDBLK
  5
17
 67
     1
  8
0
  0
BLOCK
  8
_________1
  2
AIGNBL02010002
 70
     0
 10
0.0
 20
0.0
 30
0.0
  3
AIGNBL02010002
  1

  0
LINE
  5
28
  8
_________1
 62
     7
 10
129.77699999999999
 20
190.852
 30
0.0
 11
130.369
 21
188.63999999999999
 31
0.0
  0
LINE
  5
29
  8
_________1
 62
     7
 10
130.369
 20
188.63999999999999
 30
0.0
 11
130.96199999999999
 21
190.852
 31
0.0
  0
LINE
  5
2A
  8
_________1
 62
     7
 10
130.96199999999999
 20
190.852
 30
0.0
 11
129.77699999999999
 21
190.852
 31
0.0
  0
LINE
  5
2B
  8
_________1
 62
     7
 10
130.94799999999989
 20
203.93100000000001
 30
0.0
 11
130.35499999999999
 21
206.142
 31
0.0
  0
LINE
  5
2C
  8
_________1
 62
     7
 10
130.35499999999999
 20
206.142
 30
0.0
 11
129.762
 21
203.93100000000001
 31
0.0
  0
LINE
  5
2D
  8
_________1
 62
     7
 10
129.762
 20
203.93100000000001
 30
0.0
 11
130.94799999999989
 21
203.93100000000001
 31
0.0
  0
LINE
  5
2E
  8
_________1
 62
     7
 10
130.36199999999999
 20
188.64099999999999
 30
0.0
 11
130.36199999999999
 21
206.14099999999999
 31
0.0
  0
ENDBLK
  5
2F
  8
_________1
  0
BLOCK
  8
_________1
  2
AIGNBL02010003
 70
     0
 10
0.0
 20
0.0
 30
0.0
  3
AIGNBL02010003
  1

  0
LINE
  5
32
  8
_________1
 62
     7
 10
173.41499999999999
 20
178.852
 30
0.0
 11
174.00800000000001
 21
176.63999999999999
 31
0.0
  0
LINE
  5
33
  8
_________1
 62
     7
 10
174.00800000000001
 20
176.63999999999999
 30
0.0
 11
174.59999999999999
 21
178.852
 31
0.0
  0
LINE
  5
34
  8
_________1
 62
     7
 10
174.59999999999999
 20
178.852
 30
0.0
 11
173.41499999999999
 21
178.852
 31
0.0
  0
LINE
  5
35
  8
_________1
 62
     7
 10
174.58600000000001
 20
203.93100000000001
 30
0.0
 11
173.99299999999999
 21
206.142
 31
0.0
  0
LINE
  5
36
  8
_________1
 62
     7
 10
173.99299999999999
 20
206.142
 30
0.0
 11
173.40100000000001
 21
203.93100000000001
 31
0.0
  0
LINE
  5
37
  8
_________1
 62
     7
 10
173.40100000000001
 20
203.93100000000001
 30
0.0
 11
174.58600000000001
 21
203.93100000000001
 31
0.0
  0
LINE
  5
38
  8
_________1
 62
     7
 10
174.0
 20
176.64099999999999
 30
0.0
 11
174.0
 21
206.14099999999999
 31
0.0
  0
ENDBLK
  5
39
  8
_________1
  0
BLOCK
  8
_________1
  2
AIGNBL02010004
 70
     0
 10
0.0
 20
0.0
 30
0.0
  3
AIGNBL02010004
  1

  0
LINE
  5
3C
  8
_________1
 62
     7
 10
101.458
 20
202.85300000000001
 30
0.0
 11
102.051
 21
200.64099999999999
 31
0.0
  0
LINE
  5
3D
  8
_________1
 62
     7
 10
102.051
 20
200.64099999999999
 30
0.0
 11
102.643
 21
202.85300000000001
 31
0.0
  0
LINE
  5
3E
  8
_________1
 62
     7
 10
102.643
 20
202.85300000000001
 30
0.0
 11
101.458
 21
202.85300000000001
 31
0.0
  0
LINE
  5
3F
  8
_________1
 62
     7
 10
102.643
 20
198.43000000000001
 30
0.0
 11
102.051
 21
200.64099999999999
 31
0.0
  0
LINE
  5
40
  8
_________1
 62
     7
 10
102.051
 20
200.64099999999999
 30
0.0
 11
101.458
 21
198.43000000000001
 31
0.0
  0
LINE
  5
41
  8
_________1
 62
     7
 10
101.458
 20
198.43000000000001
 30
0.0
 11
102.643
 21
198.43000000000001
 31
0.0
  0
LINE
  5
42
  8
_________1
 62
     7
 10
101.46599999999999
 20
196.852
 30
0.0
 11
102.05800000000001
 21
194.64099999999999
 31
0.0
  0
LINE
  5
43
  8
_________1
 62
     7
 10
102.05800000000001
 20
194.64099999999999
 30
0.0
 11
102.651
 21
196.852
 31
0.0
  0
LINE
  5
44
  8
_________1
 62
     7
 10
102.651
 20
196.852
 30
0.0
 11
101.46599999999999
 21
196.852
 31
0.0
  0
LINE
  5
45
  8
_________1
 62
     7
 10
102.636
 20
203.93100000000001
 30
0.0
 11
102.044
 21
206.142
 31
0.0
  0
LINE
  5
46
  8
_________1
 62
     7
 10
102.044
 20
206.142
 30
0.0
 11
101.45099999999999
 21
203.93100000000001
 31
0.0
  0
LINE
  5
47
  8
_________1
 62
     7
 10
101.45099999999999
 20
203.93100000000001
 30
0.0
 11
102.636
 21
203.93100000000001
 31
0.0
  0
LINE
  5
48
  8
_________1
 62
     7
 10
102.051
 20
194.64099999999999
 30
0.0
 11
102.051
 21
206.14099999999999
 31
0.0
  0
ENDBLK
  5
49
  8
_________1
  0
BLOCK
  8
_________1
  2
AIGNBL02010005
 70
     0
 10
0.0
 20
0.0
 30
0.0
  3
AIGNBL02010005
  1

  0
LINE
  5
4C
  8
_________1
 62
     7
 10
100.80800000000001
 20
100.288
 30
0.0
 11
100.215
 21
102.5
 31
0.0
  0
LINE
  5
4D
  8
_________1
 62
     7
 10
100.215
 20
102.5
 30
0.0
 11
99.622799999999984
 21
100.288
 31
0.0
  0
LINE
  5
4E
  8
_________1
 62
     7
 10
99.622799999999984
 20
100.288
 30
0.0
 11
100.80800000000001
 21
100.288
 31
0.0
  0
LINE
  5
4F
  8
_________1
 62
     7
 10
99.637299999999996
 20
93.009600000000006
 30
0.0
 11
100.23
 21
90.798500000000004
 31
0.0
  0
LINE
  5
50
  8
_________1
 62
     7
 10
100.23
 20
90.798500000000004
 30
0.0
 11
100.822
 21
93.009600000000006
 31
0.0
  0
LINE
  5
51
  8
_________1
 62
     7
 10
100.822
 20
93.009600000000006
 30
0.0
 11
99.637299999999996
 21
93.009600000000006
 31
0.0
  0
LINE
  5
52
  8
_________1
 62
     7
 10
100.223
 20
102.499
 30
0.0
 11
100.223
 21
90.799199999999985
 31
0.0
  0
ENDBLK
  5
53
  8
_________1
  0
BLOCK
  8
_________1
  2
AIGNBL02010006
 70
     0
 10
0.0
 20
0.0
 30
0.0
  3
AIGNBL02010006
  1

  0
LINE
  5
56
  8
_________1
 62
     7
 10
108.85599999999999
 20
100.288
 30
0.0
 11
108.26300000000001
 21
102.5
 31
0.0
  0
LINE
  5
57
  8
_________1
 62
     7
 10
108.26300000000001
 20
102.5
 30
0.0
 11
107.67100000000001
 21
100.288
 31
0.0
  0
LINE
  5
58
  8
_________1
 62
     7
 10
107.67100000000001
 20
100.288
 30
0.0
 11
108.85599999999999
 21
100.288
 31
0.0
  0
LINE
  5
59
  8
_________1
 62
     7
 10
107.685
 20
90.209400000000016
 30
0.0
 11
108.27800000000001
 21
87.9983
 31
0.0
  0
LINE
  5
5A
  8
_________1
 62
     7
 10
108.27800000000001
 20
87.9983
 30
0.0
 11
108.87
 21
90.209400000000016
 31
0.0
  0
LINE
  5
5B
  8
_________1
 62
     7
 10
108.87
 20
90.209400000000016
 30
0.0
 11
107.685
 21
90.209400000000016
 31
0.0
  0
LINE
  5
5C
  8
_________1
 62
     7
 10
108.27
 20
102.499
 30
0.0
 11
108.27
 21
87.998999999999995
 31
0.0
  0
ENDBLK
  5
5D
  8
_________1
  0
BLOCK
  8
_________1
  2
AIGNBL02010007
 70
     0
 10
0.0
 20
0.0
 30
0.0
  3
AIGNBL02010007
  1

  0
LINE
  5
60
  8
_________1
 62
     7
 10
38.8416
 20
95.787400000000005
 30
0.0
 11
38.249099999999999
 21
97.999099999999999
 31
0.0
  0
LINE
  5
61
  8
_________1
 62
     7
 10
38.249099999999999
 20
97.999099999999999
 30
0.0
 11
37.656500000000001
 21
95.787400000000005
 31
0.0
  0
LINE
  5
62
  8
_________1
 62
     7
 10
37.656500000000001
 20
95.787400000000005
 30
0.0
 11
38.8416
 21
95.787400000000005
 31
0.0
  0
LINE
  5
63
  8
_________1
 62
     7
 10
37.656500000000001
 20
104.711
 30
0.0
 11
38.249099999999999
 21
102.499
 31
0.0
  0
LINE
  5
64
  8
_________1
 62
     7
 10
38.249099999999999
 20
102.499
 30
0.0
 11
38.8416
 21
104.711
 31
0.0
  0
LINE
  5
65
  8
_________1
 62
     7
 10
38.8416
 20
104.711
 30
0.0
 11
37.656500000000001
 21
104.711
 31
0.0
  0
LINE
  5
66
  8
_________1
 62
     7
 10
38.249099999999999
 20
105.999
 30
0.0
 11
38.249099999999999
 21
94.827899999999985
 31
0.0
  0
ENDBLK
  5
67
  8
_________1
  0
BLOCK
  8
_________1
  2
AIGNBL02010008
 70
     0
 10
0.0
 20
0.0
 30
0.0
  3
AIGNBL02010008
  1

  0
LINE
  5
6A
  8
_________1
 62
     7
 10
30.7866
 20
100.288
 30
0.0
 11
30.193999999999999
 21
102.5
 31
0.0
  0
LINE
  5
6B
  8
_________1
 62
     7
 10
30.193999999999999
 20
102.5
 30
0.0
 11
29.601500000000001
 21
100.288
 31
0.0
  0
LINE
  5
6C
  8
_________1
 62
     7
 10
29.601500000000001
 20
100.288
 30
0.0
 11
30.7866
 21
100.288
 31
0.0
  0
LINE
  5
6D
  8
_________1
 62
     7
 10
29.616
 20
96.209699999999984
 30
0.0
 11
30.208500000000001
 21
93.998299999999986
 31
0.0
  0
LINE
  5
6E
  8
_________1
 62
     7
 10
30.208500000000001
 20
93.998299999999986
 30
0.0
 11
30.801100000000002
 21
96.209699999999984
 31
0.0
  0
LINE
  5
6F
  8
_________1
 62
     7
 10
30.801100000000002
 20
96.209699999999984
 30
0.0
 11
29.616
 21
96.209699999999984
 31
0.0
  0
LINE
  5
70
  8
_________1
 62
     7
 10
30.2013
 20
102.499
 30
0.0
 11
30.2013
 21
93.998999999999995
 31
0.0
  0
ENDBLK
  5
71
  8
_________1
  0
BLOCK
  8
_________1
  2
AIGNBL02010009
 70
     0
 10
0.0
 20
0.0
 30
0.0
  3
AIGNBL02010009
  1

  0
LINE
  5
74
  8
_________1
 62
     7
 10
38.191200000000002
 20
169.93000000000001
 30
0.0
 11
37.598599999999998
 21
172.14099999999999
 31
0.0
  0
LINE
  5
75
  8
_________1
 62
     7
 10
37.598599999999998
 20
172.14099999999999
 30
0.0
 11
37.006100000000011
 21
169.93000000000001
 31
0.0
  0
LINE
  5
76
  8
_________1
 62
     7
 10
37.006100000000011
 20
169.93000000000001
 30
0.0
 11
38.191200000000002
 21
169.93000000000001
 31
0.0
  0
LINE
  5
77
  8
_________1
 62
     7
 10
38.191200000000002
 20
192.43000000000001
 30
0.0
 11
37.598599999999998
 21
194.64099999999999
 31
0.0
  0
LINE
  5
78
  8
_________1
 62
     7
 10
37.598599999999998
 20
194.64099999999999
 30
0.0
 11
37.006100000000011
 21
192.43000000000001
 31
0.0
  0
LINE
  5
79
  8
_________1
 62
     7
 10
37.006100000000011
 20
192.43000000000001
 30
0.0
 11
38.191200000000002
 21
192.43000000000001
 31
0.0
  0
LINE
  5
7A
  8
_________1
 62
     7
 10
38.183999999999997
 20
203.93100000000001
 30
0.0
 11
37.5914
 21
206.142
 31
0.0
  0
LINE
  5
7B
  8
_________1
 62
     7
 10
37.5914
 20
206.142
 30
0.0
 11
36.998800000000003
 21
203.93100000000001
 31
0.0
  0
LINE
  5
7C
  8
_________1
 62
     7
 10
36.998800000000003
 20
203.93100000000001
 30
0.0
 11
38.183999999999997
 21
203.93100000000001
 31
0.0
  0
LINE
  5
7D
  8
_________1
 62
     7
 10
37.006100000000011
 20
176.15299999999999
 30
0.0
 11
37.598599999999998
 21
173.94099999999989
 31
0.0
  0
LINE
  5
7E
  8
_________1
 62
     7
 10
37.598599999999998
 20
173.94099999999989
 30
0.0
 11
38.191200000000002
 21
176.15299999999999
 31
0.0
  0
LINE
  5
7F
  8
_________1
 62
     7
 10
38.191200000000002
 20
176.15299999999999
 30
0.0
 11
37.006100000000011
 21
176.15299999999999
 31
0.0
  0
LINE
  5
80
  8
_________1
 62
     7
 10
37.006100000000011
 20
196.85300000000001
 30
0.0
 11
37.598599999999998
 21
194.64099999999999
 31
0.0
  0
LINE
  5
81
  8
_________1
 62
     7
 10
37.598599999999998
 20
194.64099999999999
 30
0.0
 11
38.191200000000002
 21
196.85300000000001
 31
0.0
  0
LINE
  5
82
  8
_________1
 62
     7
 10
38.191200000000002
 20
196.85300000000001
 30
0.0
 11
37.006100000000011
 21
196.85300000000001
 31
0.0
  0
LINE
  5
83
  8
_________1
 62
     7
 10
37.598599999999998
 20
206.142
 30
0.0
 11
37.598599999999998
 21
166.09100000000001
 31
0.0
  0
ENDBLK
  5
84
  8
_________1
  0
BLOCK
  8
_________1
  2
AIGNBL0201000A
 70
     0
 10
0.0
 20
0.0
 30
0.0
  3
AIGNBL0201000A
  1

  0
LINE
  5
87
  8
_________1
 62
     7
 10
30.1358
 20
203.93100000000001
 30
0.0
 11
29.543299999999999
 21
206.142
 31
0.0
  0
LINE
  5
88
  8
_________1
 62
     7
 10
29.543299999999999
 20
206.142
 30
0.0
 11
28.950700000000001
 21
203.93100000000001
 31
0.0
  0
LINE
  5
89
  8
_________1
 62
     7
 10
28.950700000000001
 20
203.93100000000001
 30
0.0
 11
30.1358
 21
203.93100000000001
 31
0.0
  0
LINE
  5
8A
  8
_________1
 62
     7
 10
28.965199999999999
 20
174.352
 30
0.0
 11
29.557700000000001
 21
172.13999999999999
 31
0.0
  0
LINE
  5
8B
  8
_________1
 62
     7
 10
29.557700000000001
 20
172.13999999999999
 30
0.0
 11
30.150300000000001
 21
174.352
 31
0.0
  0
LINE
  5
8C
  8
_________1
 62
     7
 10
30.150300000000001
 20
174.352
 30
0.0
 11
28.965199999999999
 21
174.352
 31
0.0
  0
LINE
  5
8D
  8
_________1
 62
     7
 10
29.5505
 20
206.14099999999999
 30
0.0
 11
29.5505
 21
172.14099999999999
 31
0.0
  0
ENDBLK
  5
8E
  8
_________1
  0
BLOCK
  8
_________1
  2
AIGNBL0201000B
 70
     0
 10
0.0
 20
0.0
 30
0.0
  3
AIGNBL0201000B
  1

  0
LINE
  5
91
  8
_________1
 62
     7
 10
142.94200000000001
 20
80.328800000000001
 30
0.0
 11
140.73099999999999
 21
79.736199999999997
 31
0.0
  0
LINE
  5
92
  8
_________1
 62
     7
 10
140.73099999999999
 20
79.736199999999997
 30
0.0
 11
142.94200000000001
 21
79.143600000000006
 31
0.0
  0
LINE
  5
93
  8
_________1
 62
     7
 10
142.94200000000001
 20
79.143600000000006
 30
0.0
 11
142.94200000000001
 21
80.328800000000001
 31
0.0
  0
LINE
  5
94
  8
_________1
 62
     7
 10
156.02099999999999
 20
79.158100000000005
 30
0.0
 11
158.232
 21
79.750699999999995
 31
0.0
  0
LINE
  5
95
  8
_________1
 62
     7
 10
158.232
 20
79.750699999999995
 30
0.0
 11
156.02099999999999
 21
80.343199999999996
 31
0.0
  0
LINE
  5
96
  8
_________1
 62
     7
 10
156.02099999999999
 20
80.343199999999996
 30
0.0
 11
156.02099999999999
 21
79.158100000000005
 31
0.0
  0
LINE
  5
97
  8
_________1
 62
     7
 10
140.73099999999999
 20
79.743399999999994
 30
0.0
 11
158.23099999999999
 21
79.743399999999994
 31
0.0
  0
ENDBLK
  5
98
  8
_________1
  0
BLOCK
  8
_________1
  2
AIGNBL0201000C
 70
     0
 10
0.0
 20
0.0
 30
0.0
  3
AIGNBL0201000C
  1

  0
LINE
  5
9B
  8
_________1
 62
     7
 10
124.69199999999999
 20
166.977
 30
0.0
 11
122.48
 21
166.38399999999999
 31
0.0
  0
LINE
  5
9C
  8
_________1
 62
     7
 10
122.48
 20
166.38399999999999
 30
0.0
 11
124.69199999999999
 21
165.791
 31
0.0
  0
LINE
  5
9D
  8
_________1
 62
     7
 10
124.69199999999999
 20
165.791
 30
0.0
 11
124.69199999999999
 21
166.977
 31
0.0
  0
LINE
  5
9E
  8
_________1
 62
     7
 10
156.77099999999999
 20
165.80600000000001
 30
0.0
 11
158.982
 21
166.398
 31
0.0
  0
LINE
  5
9F
  8
_________1
 62
     7
 10
158.982
 20
166.398
 30
0.0
 11
156.77099999999999
 21
166.9909999999999
 31
0.0
  0
LINE
  5
A0
  8
_________1
 62
     7
 10
156.77099999999999
 20
166.9909999999999
 30
0.0
 11
156.77099999999999
 21
165.80600000000001
 31
0.0
  0
LINE
  5
A1
  8
_________1
 62
     7
 10
122.48099999999999
 20
166.39099999999999
 30
0.0
 11
158.98099999999999
 21
166.39099999999999
 31
0.0
  0
ENDBLK
  5
A2
  8
_________1
  0
BLOCK
  8
_________1
  2
AIGNBL0201000D
 70
     0
 10
0.0
 20
0.0
 30
0.0
  3
AIGNBL0201000D
  1

  0
LINE
  5
A5
  8
_________1
 62
     7
 10
76.082999999999984
 20
109.473
 30
0.0
 11
78.294799999999995
 21
110.066
 31
0.0
  0
LINE
  5
A6
  8
_________1
 62
     7
 10
78.294799999999995
 20
110.066
 30
0.0
 11
76.082999999999984
 21
110.658
 31
0.0
  0
LINE
  5
A7
  8
_________1
 62
     7
 10
76.082999999999984
 20
110.658
 30
0.0
 11
76.082999999999984
 21
109.473
 31
0.0
  0
LINE
  5
A8
  8
_________1
 62
     7
 10
62.505099999999999
 20
110.651
 30
0.0
 11
60.293700000000001
 21
110.05800000000001
 31
0.0
  0
LINE
  5
A9
  8
_________1
 62
     7
 10
60.293700000000001
 20
110.05800000000001
 30
0.0
 11
62.505099999999999
 21
109.46599999999999
 31
0.0
  0
LINE
  5
AA
  8
_________1
 62
     7
 10
62.505099999999999
 20
109.46599999999999
 30
0.0
 11
62.505099999999999
 21
110.651
 31
0.0
  0
LINE
  5
AB
  8
_________1
 62
     7
 10
78.293700000000001
 20
110.05800000000001
 30
0.0
 11
60.293700000000001
 21
110.05800000000001
 31
0.0
  0
ENDBLK
  5
AC
  8
_________1
  0
BLOCK
  8
_________1
  2
AIGNBL0201000E
 70
     0
 10
0.0
 20
0.0
 30
0.0
  3
AIGNBL0201000E
  1

  0
LINE
  5
AF
  8
_________1
 62
     7
 10
49.00439999999999
 20
156.16999999999999
 30
0.0
 11
46.7926
 21
155.577
 31
0.0
  0
LINE
  5
B0
  8
_________1
 62
     7
 10
46.7926
 20
155.577
 30
0.0
 11
49.00439999999999
 21
154.98400000000001
 31
0.0
  0
LINE
  5
B1
  8
_________1
 62
     7
 10
49.00439999999999
 20
154.98400000000001
 30
0.0
 11
49.00439999999999
 21
156.16999999999999
 31
0.0
  0
LINE
  5
B2
  8
_________1
 62
     7
 10
89.582999999999984
 20
154.999
 30
0.0
 11
91.794799999999995
 21
155.59100000000001
 31
0.0
  0
LINE
  5
B3
  8
_________1
 62
     7
 10
91.794799999999995
 20
155.59100000000001
 30
0.0
 11
89.582999999999984
 21
156.184
 31
0.0
  0
LINE
  5
B4
  8
_________1
 62
     7
 10
89.582999999999984
 20
156.184
 30
0.0
 11
89.582999999999984
 21
154.999
 31
0.0
  0
LINE
  5
B5
  8
_________1
 62
     7
 10
46.793599999999991
 20
155.584
 30
0.0
 11
91.793800000000005
 21
155.584
 31
0.0
  0
ENDBLK
  5
B6
  8
_________1
  0
BLOCK
  8
_________1
  2
AIGNBL0201000F
 70
     0
 10
0.0
 20
0.0
 30
0.0
  3
AIGNBL0201000F
  1

  0
LINE
  5
B9
  8
_________1
 62
     7
 10
94.314599999999984
 20
163.83099999999999
 30
0.0
 11
92.103099999999984
 21
163.238
 31
0.0
  0
LINE
  5
BA
  8
_________1
 62
     7
 10
92.103099999999984
 20
163.238
 30
0.0
 11
94.314599999999984
 21
162.64599999999999
 31
0.0
  0
LINE
  5
BB
  8
_________1
 62
     7
 10
94.314599999999984
 20
162.64599999999999
 30
0.0
 11
94.314599999999984
 21
163.83099999999999
 31
0.0
  0
LINE
  5
BC
  8
_________1
 62
     7
 10
50.805100000000003
 20
163.83099999999999
 30
0.0
 11
48.593699999999998
 21
163.238
 31
0.0
  0
LINE
  5
BD
  8
_________1
 62
     7
 10
48.593699999999998
 20
163.238
 30
0.0
 11
50.805100000000003
 21
162.64599999999999
 31
0.0
  0
LINE
  5
BE
  8
_________1
 62
     7
 10
50.805100000000003
 20
162.64599999999999
 30
0.0
 11
50.805100000000003
 21
163.83099999999999
 31
0.0
  0
LINE
  5
BF
  8
_________1
 62
     7
 10
44.582199999999993
 20
162.64599999999999
 30
0.0
 11
46.793599999999991
 21
163.238
 31
0.0
  0
LINE
  5
C0
  8
_________1
 62
     7
 10
46.793599999999991
 20
163.238
 30
0.0
 11
44.582199999999993
 21
163.83099999999999
 31
0.0
  0
LINE
  5
C1
  8
_________1
 62
     7
 10
44.582199999999993
 20
163.83099999999999
 30
0.0
 11
44.582199999999993
 21
162.64599999999999
 31
0.0
  0
LINE
  5
C2
  8
_________1
 62
     7
 10
87.782300000000006
 20
162.64599999999999
 30
0.0
 11
89.993700000000004
 21
163.238
 31
0.0
  0
LINE
  5
C3
  8
_________1
 62
     7
 10
89.993700000000004
 20
163.238
 30
0.0
 11
87.782300000000006
 21
163.83099999999999
 31
0.0
  0
LINE
  5
C4
  8
_________1
 62
     7
 10
87.782300000000006
 20
163.83099999999999
 30
0.0
 11
87.782300000000006
 21
162.64599999999999
 31
0.0
  0
LINE
  5
C5
  8
_________1
 62
     7
 10
40.45259999999999
 20
163.238
 30
0.0
 11
98.371899999999997
 21
163.238
 31
0.0
  0
ENDBLK
  5
C6
  8
_________1
  0
BLOCK
  8
_________1
  2
AIGNBL02010010
 70
     0
 10
0.0
 20
0.0
 30
0.0
  3
AIGNBL02010010
  1

  0
LINE
  5
C9
  8
_________1
 62
     7
 10
143.50200000000001
 20
192.25
 30
0.0
 11
142.358
 21
190.267
 31
0.0
  0
LINE
  5
CA
  8
_________1
 62
     7
 10
142.358
 20
190.267
 30
0.0
 11
144.34
 21
191.41200000000001
 31
0.0
  0
LINE
  5
CB
  8
_________1
 62
     7
 10
144.34
 20
191.41200000000001
 30
0.0
 11
143.50200000000001
 21
192.25
 31
0.0
  0
LINE
  5
CC
  8
_________1
 62
     7
 10
142.358
 20
190.267
 30
0.0
 11
146.65899999999999
 21
194.56999999999999
 31
0.0
  0
ENDBLK
  5
CD
  8
_________1
  0
BLOCK
  8
_________1
  2
AIGNBL02010011
 70
     0
 10
0.0
 20
0.0
 30
0.0
  3
AIGNBL02010011
  1

  0
LINE
  5
D0
  8
_________1
 62
     7
 10
125.23699999999999
 20
180.23500000000001
 30
0.0
 11
124.092
 21
178.25200000000001
 31
0.0
  0
LINE
  5
D1
  8
_________1
 62
     7
 10
124.092
 20
178.25200000000001
 30
0.0
 11
126.075
 21
179.39699999999999
 31
0.0
  0
LINE
  5
D2
  8
_________1
 62
     7
 10
126.075
 20
179.39699999999999
 30
0.0
 11
125.23699999999999
 21
180.23500000000001
 31
0.0
  0
LINE
  5
D3
  8
_________1
 62
     7
 10
124.092
 20
178.25200000000001
 30
0.0
 11
128.39400000000001
 21
182.55500000000001
 31
0.0
  0
ENDBLK
  5
D4
  8
_________1
  0
BLOCK
  8
_________1
  2
AIGNBL02010012
 70
     0
 10
0.0
 20
0.0
 30
0.0
  3
AIGNBL02010012
  1

  0
LINE
  5
D7
  8
_________1
 62
     7
 10
72.064999999999998
 20
192.25
 30
0.0
 11
70.920199999999994
 21
190.267
 31
0.0
  0
LINE
  5
D8
  8
_________1
 62
     7
 10
70.920199999999994
 20
190.267
 30
0.0
 11
72.903199999999998
 21
191.41200000000001
 31
0.0
  0
LINE
  5
D9
  8
_________1
 62
     7
 10
72.903199999999998
 20
191.41200000000001
 30
0.0
 11
72.064999999999998
 21
192.25
 31
0.0
  0
LINE
  5
DA
  8
_________1
 62
     7
 10
66.522800000000004
 20
185.03200000000001
 30
0.0
 11
67.667599999999993
 21
187.01499999999999
 31
0.0
  0
LINE
  5
DB
  8
_________1
 62
     7
 10
67.667599999999993
 20
187.01499999999999
 30
0.0
 11
65.684600000000003
 21
185.87
 31
0.0
  0
LINE
  5
DC
  8
_________1
 62
     7
 10
65.684600000000003
 20
185.87
 30
0.0
 11
66.522800000000004
 21
185.03200000000001
 31
0.0
  0
LINE
  5
DD
  8
_________1
 62
     7
 10
63.394300000000001
 20
182.74100000000001
 30
0.0
 11
73.840599999999995
 21
193.1879999999999
 31
0.0
  0
ENDBLK
  5
DE
  8
_________1
  0
BLOCK
  8
_________1
  2
AIGNBL02010013
 70
     0
 10
0.0
 20
0.0
 30
0.0
  3
AIGNBL02010013
  1

  0
LINE
  5
E1
  8
_________1
 62
     7
 10
48.523099999999999
 20
204.96700000000001
 30
0.0
 11
49.846699999999998
 21
203.09899999999999
 31
0.0
  0
LINE
  5
E2
  8
_________1
 62
     7
 10
49.846699999999998
 20
203.09899999999999
 30
0.0
 11
49.634500000000003
 21
205.37899999999999
 31
0.0
  0
LINE
  5
E3
  8
_________1
 62
     7
 10
49.634500000000003
 20
205.37899999999999
 30
0.0
 11
48.523099999999999
 21
204.96700000000001
 31
0.0
  0
LINE
  5
E4
  8
_________1
 62
     7
 10
49.846699999999998
 20
203.09899999999999
 30
0.0
 11
45.682899999999997
 21
214.34299999999999
 31
0.0
  0
ENDBLK
  5
E5
  8
_________1
  0
BLOCK
  8
_________1
  2
AIGNBL02010014
 70
     0
 10
0.0
 20
0.0
 30
0.0
  3
AIGNBL02010014
  1

  0
LINE
  5
E8
  8
_________1
 62
     7
 10
71.680800000000005
 20
203.85599999999999
 30
0.0
 11
70.536000000000001
 21
201.874
 31
0.0
  0
LINE
  5
E9
  8
_________1
 62
     7
 10
70.536000000000001
 20
201.874
 30
0.0
 11
72.518999999999991
 21
203.018
 31
0.0
  0
LINE
  5
EA
  8
_________1
 62
     7
 10
72.518999999999991
 20
203.018
 30
0.0
 11
71.680800000000005
 21
203.85599999999999
 31
0.0
  0
LINE
  5
EB
  8
_________1
 62
     7
 10
66.911799999999999
 20
197.42099999999999
 30
0.0
 11
68.056600000000003
 21
199.404
 31
0.0
  0
LINE
  5
EC
  8
_________1
 62
     7
 10
68.056600000000003
 20
199.404
 30
0.0
 11
66.073599999999985
 21
198.25899999999999
 31
0.0
  0
LINE
  5
ED
  8
_________1
 62
     7
 10
66.073599999999985
 20
198.25899999999999
 30
0.0
 11
66.911799999999999
 21
197.42099999999999
 31
0.0
  0
LINE
  5
EE
  8
_________1
 62
     7
 10
65.100999999999999
 20
196.44900000000001
 30
0.0
 11
73.438500000000005
 21
204.786
 31
0.0
  0
ENDBLK
  5
EF
  8
_________1
  0
BLOCK
  8
_________1
  2
AIGNBL02010015
 70
     0
 10
0.0
 20
0.0
 30
0.0
  3
AIGNBL02010015
  1

  0
LINE
  5
F2
  8
_________1
 62
     7
 10
138.70400000000001
 20
100.289
 30
0.0
 11
138.11199999999999
 21
102.499
 31
0.0
  0
LINE
  5
F3
  8
_________1
 62
     7
 10
138.11199999999999
 20
102.499
 30
0.0
 11
137.51900000000001
 21
100.289
 31
0.0
  0
LINE
  5
F4
  8
_________1
 62
     7
 10
137.51900000000001
 20
100.289
 30
0.0
 11
138.70400000000001
 21
100.289
 31
0.0
  0
LINE
  5
F5
  8
_________1
 62
     7
 10
137.53399999999999
 20
94.709400000000002
 30
0.0
 11
138.126
 21
92.498999999999995
 31
0.0
  0
LINE
  5
F6
  8
_________1
 62
     7
 10
138.126
 20
92.498999999999995
 30
0.0
 11
138.71799999999999
 21
94.709400000000002
 31
0.0
  0
LINE
  5
F7
  8
_________1
 62
     7
 10
138.71799999999999
 20
94.709400000000002
 30
0.0
 11
137.53399999999999
 21
94.709400000000002
 31
0.0
  0
LINE
  5
F8
  8
_________1
 62
     7
 10
138.119
 20
102.499
 30
0.0
 11
138.119
 21
92.498999999999995
 31
0.0
  0
ENDBLK
  5
F9
  8
_________1
  0
BLOCK
  8
_________2
  2
AIGNBL03010002
 70
     0
 10
0.0
 20
0.0
 30
0.0
  3
AIGNBL03010002
  1

  0
LINE
  5
FC
  8
_________2
 62
     7
 10
76.741
 20
29.8047
 30
0.0
 11
74.554699999999997
 21
29.8047
 31
0.0
  0
LINE
  5
FD
  8
_________2
 62
     7
 10
77.233699999999999
 20
29.8047
 30
0.0
 11
76.981499999999997
 21
29.8047
 31
0.0
  0
LINE
  5
FE
  8
_________2
 62
     7
 10
77.726299999999995
 20
29.8047
 30
0.0
 11
80.651200000000003
 21
29.8047
 31
0.0
  0
LINE
  5
FF
  8
_________2
 62
     7
 10
77.233699999999999
 20
29.8047
 30
0.0
 11
77.485500000000002
 21
29.8047
 31
0.0
  0
LINE
  5
100
  8
_________2
 62
     7
 10
70.837100000000007
 20
29.8047
 30
0.0
 11
68.650499999999994
 21
29.8047
 31
0.0
  0
LINE
  5
101
  8
_________2
 62
     7
 10
71.329400000000007
 20
29.8047
 30
0.0
 11
71.077600000000004
 21
29.8047
 31
0.0
  0
LINE
  5
102
  8
_________2
 62
     7
 10
71.329400000000007
 20
30.2974
 30
0.0
 11
71.329400000000007
 21
32.484400000000001
 31
0.0
  0
LINE
  5
103
  8
_________2
 62
     7
 10
71.329400000000007
 20
29.8047
 30
0.0
 11
71.329400000000007
 21
30.056899999999999
 31
0.0
  0
LINE
  5
104
  8
_________2
 62
     7
 10
71.822100000000006
 20
29.8047
 30
0.0
 11
74.009
 21
29.8047
 31
0.0
  0
LINE
  5
105
  8
_________2
 62
     7
 10
71.329400000000007
 20
29.8047
 30
0.0
 11
71.581599999999995
 21
29.8047
 31
0.0
  0
LINE
  5
106
  8
_________2
 62
     7
 10
71.329400000000007
 20
29.312799999999999
 30
0.0
 11
71.329400000000007
 21
27.125800000000002
 31
0.0
  0
LINE
  5
107
  8
_________2
 62
     7
 10
71.329400000000007
 20
29.8047
 30
0.0
 11
71.329400000000007
 21
29.5532
 31
0.0
  0
LINE
  5
108
  8
_________2
 62
     7
 10
75.040499999999994
 20
28.5852
 30
0.0
 11
80.218500000000006
 21
27.720400000000001
 31
0.0
  0
LINE
  5
109
  8
_________2
 62
     7
 10
75.040499999999994
 20
31.0243
 30
0.0
 11
80.218500000000006
 21
31.889700000000001
 31
0.0
  0
LINE
  5
10A
  8
_________2
 62
     7
 10
80.218500000000006
 20
27.720400000000001
 30
0.0
 11
80.218500000000006
 21
31.889700000000001
 31
0.0
  0
LINE
  5
10B
  8
_________2
 62
     7
 10
75.040499999999994
 20
28.5852
 30
0.0
 11
75.040499999999994
 21
31.0243
 31
0.0
  0
ARC
  5
10C
  8
_________2
 62
     7
 10
71.28285600000001
 20
29.757811
 30
0.0
 40
1.2673589999999999
 50
2.122214
 51
87.893958999999995
  0
ARC
  5
10D
  8
_________2
 62
     7
 10
71.375959999999992
 20
29.758213000000001
 30
0.0
 40
1.2669559999999991
 50
92.104701000000006
 51
177.89526900000001
  0
ARC
  5
10E
  8
_________2
 62
     7
 10
71.376357999999996
 20
29.851671
 30
0.0
 40
1.2673680000000001
 50
182.12203600000001
 51
267.877993
  0
ARC
  5
10F
  8
_________2
 62
     7
 10
71.282531999999989
 20
29.851998999999999
 30
0.0
 40
1.267695999999999
 50
272.12015300000002
 51
357.863674
  0
ARC
  5
110
  8
_________2
 62
     7
 10
71.329430000000002
 20
29.804742999999998
 30
0.0
 40
2.0849849999999992
 50
0.00001
 51
89.999980000000008
  0
ARC
  5
111
  8
_________2
 62
     7
 10
71.329603000000006
 20
29.804915000000001
 30
0.0
 40
2.084813
 50
90.004733999999999
 51
180.00474399999999
  0
ARC
  5
112
  8
_________2
 62
     7
 10
71.409106000000008
 20
29.884775999999999
 30
0.0
 40
2.1657950000000001
 50
182.11776599999999
 51
267.89173399999999
  0
ARC
  5
113
  8
_________2
 62
     7
 10
71.249459000000002
 20
29.885429999999999
 30
0.0
 40
2.1664590000000001
 50
272.11546800000002
 51
357.86560400000002
  0
ENDBLK
  5
114
  8
_________2
  0
ENDSEC
  0
SECTION
  2
ENTITIES
  0
TEXT
  5
115
  8
____
 62
     7
 10
29.501200000000001
 20
96.960724999999996
 30
0.0
 40
3.0923400000000001
  1
85
 50
90.0
 41
0.5
 72
     1
 11
29.501200000000001
 21
98.249200000000002
 31
0.0
  0
TEXT
  5
116
  8
____
 62
     7
 10
37.548999999999999
 20
98.96052499999999
 30
0.0
 40
3.0923400000000001
  1
45
 50
90.0
 41
0.5
 72
     1
 11
37.548999999999999
 21
100.249
 31
0.0
  0
TEXT
  5
117
  8
____
 62
     7
 10
107.56999999999999
 20
93.399235000000004
 30
0.0
 40
3.0923400000000001
  1
145
 50
90.0
 41
0.5
 72
     1
 11
107.56999999999999
 21
95.203100000000006
 31
0.0
  0
TEXT
  5
118
  8
____
 62
     7
 10
99.522499999999994
 20
95.510329999999996
 30
0.0
 40
3.0923400000000001
  1
117
 50
90.0
 41
0.5
 72
     1
 11
99.522499999999994
 21
97.0565
 31
0.0
  0
TEXT
  5
119
  8
____
 62
     7
 10
137.41900000000001
 20
95.952730000000003
 30
0.0
 40
3.0923400000000001
  1
100
 50
90.0
 41
0.5
 72
     1
 11
137.41900000000001
 21
97.498900000000006
 31
0.0
  0
TEXT
  5
11A
  8
____
 62
     7
 10
67.618682500000006
 20
110.758
 30
0.0
 40
3.0923400000000001
  1
180
 41
0.5
 72
     1
 11
69.293700000000001
 21
110.758
 31
0.0
  0
TEXT
  5
11B
  8
____
 62
     7
 10
147.67713499999999
 20
80.443499999999986
 30
0.0
 40
3.0923400000000001
  1
175
 41
0.5
 72
     1
 11
149.48099999999999
 21
80.443499999999986
 31
0.0
  0
TEXT
  5
11C
  8
____
 62
     7
 10
150.814178
 20
195.27000000000001
 30
0.0
 40
3.0923400000000001
  1
排水口
 41
0.5
 72
     2
 11
155.86500000000001
 21
195.27000000000001
 31
0.0
  0
TEXT
  5
11D
  8
____
 62
     7
 10
129.37188
 20
183.255
 30
0.0
 40
3.0923400000000001
  1
R55
 41
0.5
 72
     2
 11
133.495
 21
183.255
 31
0.0
  0
TEXT
  5
11E
  8
____
 62
     7
 10
101.351
 20
202.10252500000001
 30
0.0
 40
3.0923400000000001
  1
55
 50
90.0
 41
0.5
 72
     1
 11
101.351
 21
203.39099999999999
 31
0.0
  0
TEXT
  5
11F
  8
____
 62
     7
 10
101.351
 20
196.48137249999999
 30
0.0
 40
3.0923400000000001
  1
60
 50
90.0
 41
0.5
 72
     1
 11
101.351
 21
197.64099999999999
 31
0.0
  0
TEXT
  5
120
  8
____
 62
     7
 10
28.8504
 20
187.20828750000001
 30
0.0
 40
3.0923400000000001
  1
340
 50
90.0
 41
0.5
 72
     1
 11
28.8504
 21
189.14099999999999
 31
0.0
  0
TEXT
  5
121
  8
____
 62
     7
 10
36.898600000000002
 20
166.09
 30
0.0
 40
3.0923400000000001
  1
18
 50
90.0
 41
0.5
  0
TEXT
  5
122
  8
____
 62
     7
 10
36.898600000000002
 20
198.39483000000001
 30
0.0
 40
3.0923400000000001
  1
115
 50
90.0
 41
0.5
 72
     1
 11
36.898600000000002
 21
199.94099999999989
 31
0.0
  0
TEXT
  5
123
  8
____
 62
     7
 10
36.898600000000002
 20
182.3582874999999
 30
0.0
 40
3.0923400000000001
  1
207
 50
90.0
 41
0.5
 72
     1
 11
36.898600000000002
 21
184.291
 31
0.0
  0
TEXT
  5
124
  8
____
 62
     7
 10
67.360987499999993
 20
156.28399999999999
 30
0.0
 40
3.0923400000000001
  1
450
 41
0.5
 72
     1
 11
69.293700000000001
 21
156.28399999999999
 31
0.0
  0
TEXT
  5
125
  8
____
 62
     7
 10
56.8934
 20
183.441
 30
0.0
 40
3.0923400000000001
  1
%%c46
 41
0.5
  0
TEXT
  5
126
  8
____
 62
     7
 10
58.600099999999991
 20
197.149
 30
0.0
 40
3.0923400000000001
  1
%%c35
 41
0.5
  0
TEXT
  5
127
  8
____
 62
     7
 10
53.024188000000002
 20
215.04300000000001
 30
0.0
 40
3.0923400000000001
  1
メーカーロゴ
 41
0.5
 72
     2
 11
63.744300000000003
 21
215.04300000000001
 31
0.0
  0
TEXT
  5
128
  8
____
 62
     7
 10
40.45259999999999
 20
163.93799999999999
 30
0.0
 40
3.0923400000000001
  1
18
 41
0.5
  0
TEXT
  5
129
  8
____
 62
     7
 10
96.310339999999997
 20
163.93799999999999
 30
0.0
 40
3.0923400000000001
  1
18
 41
0.5
 72
     2
 11
98.371899999999997
 21
163.93799999999999
 31
0.0
  0
TEXT
  5
12A
  8
____
 62
     7
 10
67.489834999999999
 20
163.93799999999999
 30
0.0
 40
3.0923400000000001
  1
414
 41
0.5
 72
     1
 11
69.293700000000001
 21
163.93799999999999
 31
0.0
  0
TEXT
  5
12B
  8
____
 62
     7
 10
173.30000000000001
 20
189.32944000000001
 30
0.0
 40
3.0923400000000001
  1
295
 50
90.0
 41
0.5
 72
     1
 11
173.30000000000001
 21
191.39099999999999
 31
0.0
  0
TEXT
  5
12C
  8
____
 62
     7
 10
149.04864599999999
 20
209.60599999999999
 30
0.0
 40
3.0923400000000001
  1
手洗器後端
 41
0.5
 72
     1
 11
153.48099999999999
 21
209.60599999999999
 31
0.0
  0
TEXT
  5
12D
  8
____
 62
     7
 10
129.66200000000001
 20
195.58713499999999
 30
0.0
 40
3.0923400000000001
  1
175
 50
90.0
 41
0.5
 72
     1
 11
129.66200000000001
 21
197.39099999999999
 31
0.0
  0
TEXT
  5
12E
  8
____
 62
     7
 10
138.66944000000001
 20
167.09100000000001
 30
0.0
 40
3.0923400000000001
  1
365
 41
0.5
 72
     1
 11
140.73099999999999
 21
167.09100000000001
 31
0.0
  0
TEXT
  5
12F
  8
____
 62
     7
 10
132.48475999999999
 20
155.74299999999999
 30
0.0
 40
3.0923400000000001
  1
カウンター切込寸法
 41
0.5
 72
     1
 11
140.73099999999999
 21
155.74299999999999
 31
0.0
  0
ARC
  5
130
  8
_________1
 62
     7
 10
146.932772
 20
92.074189000000004
 30
0.0
 40
3.0754759999999992
 50
270.90047600000003
 51
335.50025199999999
  0
LINE
  5
131
  8
_________1
  6
AIGENLINE001
 62
     7
 10
143.03100000000001
 20
91.516099999999994
 30
0.0
 11
138.43100000000001
 21
91.516099999999994
 31
0.0
  0
ARC
  5
132
  8
_________1
  6
AIGENLINE001
 62
     7
 10
124.946805
 20
101.159848
 30
0.0
 40
1.3396479999999991
 50
14.300148999999999
 51
88.658200000000008
  0
ARC
  5
133
  8
_________1
  6
AIGENLINE001
 62
     7
 10
138.14031600000001
 20
104.85908999999999
 30
0.0
 40
12.36317
 50
195.81179299999999
 51
268.72388899999999
  0
LINE
  5
134
  8
_________1
  6
AIGENLINE001
 62
     7
 10
61.728900000000003
 20
96.9983
 30
0.0
 11
58.858800000000002
 21
96.9983
 31
0.0
  0
LINE
  5
135
  8
_________1
  6
AIGENLINE001
 62
     7
 10
61.728900000000003
 20
98.999200000000016
 30
0.0
 11
58.858800000000002
 21
98.999200000000016
 31
0.0
  0
LINE
  5
136
  8
_________1
  6
AIGENLINE002
 62
     7
 10
63.5548
 20
97.999099999999999
 30
0.0
 11
56.81689999999999
 21
97.999099999999999
 31
0.0
  0
LINE
  5
137
  8
_________1
  6
AIGENLINE002
 62
     7
 10
60.293700000000001
 20
95.326700000000017
 30
0.0
 11
60.293700000000001
 21
101.366
 31
0.0
  0
LINE
  5
138
  8
_________1
  6
AIGENLINE001
 62
     7
 10
67.544300000000007
 20
98.999200000000016
 30
0.0
 11
71.043800000000005
 21
98.999200000000016
 31
0.0
  0
LINE
  5
139
  8
_________1
  6
AIGENLINE001
 62
     7
 10
67.544300000000007
 20
100.399
 30
0.0
 11
71.043800000000005
 21
100.399
 31
0.0
  0
ARC
  5
13A
  8
_________1
  6
AIGENLINE001
 62
     7
 10
67.570858999999984
 20
99.725860999999995
 30
0.0
 40
0.7271130000000001
 50
182.09490199999999
 51
267.90512799999999
  0
ARC
  5
13B
  8
_________1
  6
AIGENLINE001
 62
     7
 10
67.571252000000001
 20
99.672309999999996
 30
0.0
 40
0.7275199999999999
 50
92.124624999999995
 51
177.87534500000001
  0
ARC
  5
13C
  8
_________1
  6
AIGENLINE001
 62
     7
 10
71.017251000000002
 20
99.672702999999998
 30
0.0
 40
0.7271130000000001
 50
2.0948989999999998
 51
87.905091000000013
  0
ARC
  5
13D
  8
_________1
  6
AIGENLINE001
 62
     7
 10
71.016858999999997
 20
99.726253999999997
 30
0.0
 40
0.7275199999999999
 50
272.1246450000001
 51
357.87536499999999
  0
ARC
  5
13E
  8
_________1
  6
AIGENLINE001
 62
     7
 10
145.73087200000001
 20
93.499105
 30
0.0
 40
1.0001180000000001
 50
270.00002000000001
 51
359.99999000000003
  0
ARC
  5
13F
  8
_________1
 62
     7
 10
133.98579699999999
 20
95.929372999999998
 30
0.0
 40
5.1309649999999989
 50
202.07081700000001
 51
269.01490799999999
  0
LINE
  5
140
  8
_________1
 62
     7
 10
144.232
 20
88.999099999999999
 30
0.0
 11
146.98099999999999
 21
88.999099999999999
 31
0.0
  0
LINE
  5
141
  8
_________1
 62
     7
 10
137.23099999999999
 20
87.998999999999995
 30
0.0
 11
144.232
 21
87.998999999999995
 31
0.0
  0
LINE
  5
142
  8
_________1
  6
AIGENLINE001
 62
     7
 10
143.03100000000001
 20
87.998999999999995
 30
0.0
 11
143.03100000000001
 21
91.516099999999994
 31
0.0
  0
LINE
  5
143
  8
_________1
  6
AIGENLINE001
 62
     7
 10
138.43100000000001
 20
87.998999999999995
 30
0.0
 11
138.43100000000001
 21
91.516099999999994
 31
0.0
  0
LINE
  5
144
  8
_________1
  6
AIGENLINE001
 62
     7
 10
143.03100000000001
 20
91.516099999999994
 30
0.0
 11
144.232
 21
92.498999999999995
 31
0.0
  0
LINE
  5
145
  8
_________1
  6
AIGENLINE001
 62
     7
 10
138.43100000000001
 20
91.516099999999994
 30
0.0
 11
137.23099999999999
 21
92.516199999999998
 31
0.0
  0
LINE
  5
146
  8
_________1
 62
     7
 10
144.232
 20
87.998999999999995
 30
0.0
 11
144.232
 21
88.999099999999999
 31
0.0
  0
ARC
  5
147
  8
_________1
 62
     7
 10
125.29203699999999
 20
94.518181999999996
 30
0.0
 40
0.51955
 50
182.12941499999999
 51
267.87061499999999
  0
ARC
  5
148
  8
_________1
 62
     7
 10
157.71194399999999
 20
101.979938
 30
0.0
 40
0.51955
 50
2.1293950000000001
 51
87.870594999999994
  0
ARC
  5
149
  8
_________1
  6
AIGENLINE001
 62
     7
 10
147.250181
 20
101.979938
 30
0.0
 40
0.51955
 50
92.129384999999985
 51
177.87058500000001
  0
ARC
  5
14A
  8
_________1
 62
     7
 10
124.75012
 20
101.979938
 30
0.0
 40
0.51955
 50
92.129384999999985
 51
177.87058500000001
  0
LINE
  5
14B
  8
_________1
 62
     7
 10
137.23099999999999
 20
87.998999999999995
 30
0.0
 11
137.23099999999999
 21
90.799199999999985
 31
0.0
  0
LINE
  5
14C
  8
_________1
  6
AIGENLINE002
 62
     7
 10
140.73099999999999
 20
85.918099999999995
 30
0.0
 11
140.73099999999999
 21
105.008
 31
0.0
  0
LINE
  5
14D
  8
_________1
 62
     7
 10
125.273
 20
93.998999999999995
 30
0.0
 11
158.23099999999999
 21
93.998999999999995
 31
0.0
  0
LINE
  5
14E
  8
_________1
 62
     7
 10
133.898
 20
90.799199999999985
 30
0.0
 11
158.23099999999999
 21
90.799199999999985
 31
0.0
  0
LINE
  5
14F
  8
_________1
  6
AIGENLINE001
 62
     7
 10
137.86500000000001
 20
92.498999999999995
 30
0.0
 11
145.73099999999999
 21
92.498999999999995
 31
0.0
  0
LINE
  5
150
  8
_________1
 62
     7
 10
124.73099999999999
 20
102.499
 30
0.0
 11
157.73099999999999
 21
102.499
 31
0.0
  0
LINE
  5
151
  8
_________1
 62
     7
 10
124.23099999999999
 20
101.999
 30
0.0
 11
124.373
 21
98.561000000000007
 31
0.0
  0
LINE
  5
152
  8
_________1
 62
     7
 10
124.373
 20
98.561000000000007
 30
0.0
 11
124.773
 21
94.498900000000006
 31
0.0
  0
LINE
  5
153
  8
_________1
 62
     7
 10
65.793800000000005
 20
87.998999999999995
 30
0.0
 11
72.794300000000007
 21
87.998999999999995
 31
0.0
  0
ARC
  5
154
  8
_________1
 62
     7
 10
83.023655000000005
 20
94.925200000000004
 30
0.0
 40
4.1272989999999989
 50
271.41893399999998
 51
346.94834900000001
  0
ARC
  5
155
  8
_________1
 62
     7
 10
90.733351999999996
 20
94.518181999999996
 30
0.0
 40
0.51955
 50
272.12940500000002
 51
357.87060500000001
  0
ARC
  5
156
  8
_________1
 62
     7
 10
91.275257999999994
 20
101.979913
 30
0.0
 40
0.519562
 50
2.1320320000000001
 51
87.907431000000003
  0
LINE
  5
157
  8
_________1
 62
     7
 10
72.794300000000007
 20
87.998999999999995
 30
0.0
 11
72.794300000000007
 21
90.799199999999985
 31
0.0
  0
LINE
  5
158
  8
_________1
 62
     7
 10
90.752700000000004
 20
93.998999999999995
 30
0.0
 11
69.2941
 21
93.998999999999995
 31
0.0
  0
LINE
  5
159
  8
_________1
 62
     7
 10
83.125900000000001
 20
90.799199999999985
 30
0.0
 11
69.2941
 21
90.799199999999985
 31
0.0
  0
LINE
  5
15A
  8
_________1
  6
AIGENLINE002
 62
     7
 10
149.36699999999999
 20
99.699299999999994
 30
0.0
 11
143.96899999999999
 21
99.699299999999994
 31
0.0
  0
LINE
  5
15B
  8
_________1
  6
AIGENLINE002
 62
     7
 10
72.794300000000007
 20
99.699299999999994
 30
0.0
 11
65.707300000000004
 21
99.699299999999994
 31
0.0
  0
LINE
  5
15C
  8
_________1
  6
AIGENLINE001
 62
     7
 10
79.728999999999999
 20
96.9983
 30
0.0
 11
76.858800000000002
 21
96.9983
 31
0.0
  0
LINE
  5
15D
  8
_________1
  6
AIGENLINE001
 62
     7
 10
79.728999999999999
 20
98.999200000000016
 30
0.0
 11
76.858800000000002
 21
98.999200000000016
 31
0.0
  0
LINE
  5
15E
  8
_________1
  6
AIGENLINE002
 62
     7
 10
161.15600000000001
 20
97.999099999999999
 30
0.0
 11
154.41800000000001
 21
97.999099999999999
 31
0.0
  0
LINE
  5
15F
  8
_________1
  6
AIGENLINE002
 62
     7
 10
81.554900000000004
 20
97.999099999999999
 30
0.0
 11
74.816900000000004
 21
97.999099999999999
 31
0.0
  0
LINE
  5
160
  8
_________1
 62
     7
 10
91.294200000000004
 20
102.499
 30
0.0
 11
69.2941
 21
102.499
 31
0.0
  0
LINE
  5
161
  8
_________1
 62
     7
 10
91.794499999999999
 20
101.999
 30
0.0
 11
91.652500000000003
 21
98.561000000000007
 31
0.0
  0
LINE
  5
162
  8
_________1
 62
     7
 10
91.652500000000003
 20
98.561000000000007
 30
0.0
 11
91.252499999999984
 21
94.498900000000006
 31
0.0
  0
ARC
  5
163
  8
_________1
 62
     7
 10
55.564456
 20
94.925200000000004
 30
0.0
 40
4.1272989999999989
 50
193.051671
 51
268.58108600000003
  0
ARC
  5
164
  8
_________1
 62
     7
 10
47.854762999999998
 20
94.518186999999998
 30
0.0
 40
0.519555
 50
182.12996100000001
 51
267.870069
  0
ARC
  5
165
  8
_________1
 62
     7
 10
47.312851999999999
 20
101.979913
 30
0.0
 40
0.519562
 50
92.092549000000005
 51
177.86794800000001
  0
LINE
  5
166
  8
_________1
 62
     7
 10
154.88999999999999
 20
208.58099999999999
 30
0.0
 11
153.48099999999999
 21
206.14099999999999
 31
0.0
  0
LINE
  5
167
  8
_________1
 62
     7
 10
153.48099999999999
 20
206.14099999999999
 30
0.0
 11
152.07300000000001
 21
208.58099999999999
 31
0.0
  0
LINE
  5
168
  8
_________1
 62
     7
 10
152.07300000000001
 20
208.58099999999999
 30
0.0
 11
154.88999999999999
 21
208.58099999999999
 31
0.0
  0
INSERT
  5
169
  8
_________1
 62
     7
  2
AIGNBL02010002
 10
0.0
 20
0.0
 30
0.0
  0
INSERT
  5
16A
  8
_________1
 62
     7
  2
AIGNBL02010003
 10
0.0
 20
0.0
 30
0.0
  0
LINE
  5
16B
  8
_________1
 62
     7
 10
156.34700000000001
 20
176.64099999999999
 30
0.0
 11
174.70099999999999
 21
176.64099999999999
 31
0.0
  0
LINE
  5
16C
  8
_________1
 62
     7
 10
167.41999999999999
 20
206.14099999999999
 30
0.0
 11
174.70099999999999
 21
206.14099999999999
 31
0.0
  0
INSERT
  5
16D
  8
_________1
 62
     7
  2
AIGNBL02010004
 10
0.0
 20
0.0
 30
0.0
  0
LINE
  5
16E
  8
_________1
 62
     7
 10
89.993700000000004
 20
174.041
 30
0.0
 11
89.993700000000004
 21
162.53800000000001
 31
0.0
  0
LINE
  5
16F
  8
_________1
 62
     7
 10
48.593699999999998
 20
174.041
 30
0.0
 11
48.593699999999998
 21
162.53800000000001
 31
0.0
  0
INSERT
  5
170
  8
_________1
 62
     7
  2
AIGNBL02010005
 10
0.0
 20
0.0
 30
0.0
  0
INSERT
  5
171
  8
_________1
 62
     7
  2
AIGNBL02010006
 10
0.0
 20
0.0
 30
0.0
  0
LINE
  5
172
  8
_________1
 62
     7
 10
108.97
 20
87.998999999999995
 30
0.0
 11
73.494299999999996
 21
87.998999999999995
 31
0.0
  0
LINE
  5
173
  8
_________1
 62
     7
 10
100.923
 20
90.799199999999985
 30
0.0
 11
85.167100000000005
 21
90.799199999999985
 31
0.0
  0
LINE
  5
174
  8
_________1
 62
     7
 10
108.97
 20
102.499
 30
0.0
 11
92.427700000000002
 21
102.499
 31
0.0
  0
INSERT
  5
175
  8
_________1
 62
     7
  2
AIGNBL02010007
 10
0.0
 20
0.0
 30
0.0
  0
INSERT
  5
176
  8
_________1
 62
     7
  2
AIGNBL02010008
 10
0.0
 20
0.0
 30
0.0
  0
LINE
  5
177
  8
_________1
 62
     7
 10
29.501200000000001
 20
93.998999999999995
 30
0.0
 11
46.635499999999993
 21
93.998999999999995
 31
0.0
  0
LINE
  5
178
  8
_________1
 62
     7
 10
37.548999999999999
 20
97.999099999999999
 30
0.0
 11
56.116799999999991
 21
97.999099999999999
 31
0.0
  0
LINE
  5
179
  8
_________1
 62
     7
 10
29.501200000000001
 20
102.499
 30
0.0
 11
46.043999999999997
 21
102.499
 31
0.0
  0
INSERT
  5
17A
  8
_________1
 62
     7
  2
AIGNBL02010009
 10
0.0
 20
0.0
 30
0.0
  0
INSERT
  5
17B
  8
_________1
 62
     7
  2
AIGNBL0201000A
 10
0.0
 20
0.0
 30
0.0
  0
LINE
  5
17C
  8
_________1
 62
     7
 10
140.73099999999999
 20
85.218100000000007
 30
0.0
 11
140.73099999999999
 21
79.043400000000005
 31
0.0
  0
LINE
  5
17D
  8
_________1
 62
     7
 10
158.23099999999999
 20
90.099100000000007
 30
0.0
 11
158.23099999999999
 21
79.043400000000005
 31
0.0
  0
INSERT
  5
17E
  8
_________1
 62
     7
  2
AIGNBL0201000B
 10
0.0
 20
0.0
 30
0.0
  0
LINE
  5
17F
  8
_________1
 62
     7
 10
122.48099999999999
 20
179.441
 30
0.0
 11
122.48099999999999
 21
165.691
 31
0.0
  0
LINE
  5
180
  8
_________1
 62
     7
 10
158.98099999999999
 20
179.441
 30
0.0
 11
158.98099999999999
 21
165.691
 31
0.0
  0
INSERT
  5
181
  8
_________1
 62
     7
  2
AIGNBL0201000C
 10
0.0
 20
0.0
 30
0.0
  0
LINE
  5
182
  8
_________1
 62
     7
 10
78.293700000000001
 20
102.066
 30
0.0
 11
78.293700000000001
 21
110.758
 31
0.0
  0
LINE
  5
183
  8
_________1
 62
     7
 10
60.293700000000001
 20
102.066
 30
0.0
 11
60.293700000000001
 21
110.758
 31
0.0
  0
INSERT
  5
184
  8
_________1
 62
     7
  2
AIGNBL0201000D
 10
0.0
 20
0.0
 30
0.0
  0
LINE
  5
185
  8
_________1
 62
     7
 10
46.793599999999991
 20
173.041
 30
0.0
 11
46.793599999999991
 21
154.88399999999999
 31
0.0
  0
LINE
  5
186
  8
_________1
 62
     7
 10
91.793800000000005
 20
173.041
 30
0.0
 11
91.793800000000005
 21
154.88399999999999
 31
0.0
  0
INSERT
  5
187
  8
_________1
 62
     7
  2
AIGNBL0201000E
 10
0.0
 20
0.0
 30
0.0
  0
INSERT
  5
188
  8
_________1
 62
     7
  2
AIGNBL0201000F
 10
0.0
 20
0.0
 30
0.0
  0
LINE
  5
189
  8
_________1
 62
     7
 10
28.8504
 20
172.14099999999999
 30
0.0
 11
47.49369999999999
 21
172.14099999999999
 31
0.0
  0
LINE
  5
18A
  8
_________1
 62
     7
 10
36.898600000000002
 20
173.94099999999989
 30
0.0
 11
48.375599999999991
 21
173.94099999999989
 31
0.0
  0
LINE
  5
18B
  8
_________1
 62
     7
 10
36.898600000000002
 20
194.64099999999999
 30
0.0
 11
48.375599999999991
 21
194.64099999999999
 31
0.0
  0
LINE
  5
18C
  8
_________1
 62
     7
 10
28.8504
 20
206.14099999999999
 30
0.0
 11
46.093600000000002
 21
206.14099999999999
 31
0.0
  0
LINE
  5
18D
  8
_________1
 62
     7
 10
89.943700000000007
 20
194.64099999999999
 30
0.0
 11
102.751
 21
194.64099999999999
 31
0.0
  0
LINE
  5
18E
  8
_________1
 62
     7
 10
129.66200000000001
 20
188.64099999999999
 30
0.0
 11
134.41300000000001
 21
188.64099999999999
 31
0.0
  0
LINE
  5
18F
  8
_________1
 62
     7
 10
146.65899999999999
 20
194.56999999999999
 30
0.0
 11
155.86500000000001
 21
194.56999999999999
 31
0.0
  0
INSERT
  5
190
  8
_________1
 62
     7
  2
AIGNBL02010010
 10
0.0
 20
0.0
 30
0.0
  0
LINE
  5
191
  8
_________1
 62
     7
 10
128.39400000000001
 20
182.55500000000001
 30
0.0
 11
133.495
 21
182.55500000000001
 31
0.0
  0
INSERT
  5
192
  8
_________1
 62
     7
  2
AIGNBL02010011
 10
0.0
 20
0.0
 30
0.0
  0
LINE
  5
193
  8
_________1
 62
     7
 10
56.8934
 20
182.74100000000001
 30
0.0
 11
63.394300000000001
 21
182.74100000000001
 31
0.0
  0
INSERT
  5
194
  8
_________1
 62
     7
  2
AIGNBL02010012
 10
0.0
 20
0.0
 30
0.0
  0
LINE
  5
195
  8
_________1
 62
     7
 10
45.682899999999997
 20
214.34299999999999
 30
0.0
 11
63.744300000000003
 21
214.34299999999999
 31
0.0
  0
LINE
  5
196
  8
_________1
 62
     7
 10
58.600099999999991
 20
196.44900000000001
 30
0.0
 11
65.100999999999999
 21
196.44900000000001
 31
0.0
  0
INSERT
  5
197
  8
_________1
 62
     7
  2
AIGNBL02010013
 10
0.0
 20
0.0
 30
0.0
  0
INSERT
  5
198
  8
_________1
 62
     7
  2
AIGNBL02010014
 10
0.0
 20
0.0
 30
0.0
  0
LINE
  5
199
  8
_________1
 62
     7
 10
73.424400000000006
 20
200.64099999999999
 30
0.0
 11
102.751
 21
200.64099999999999
 31
0.0
  0
LINE
  5
19A
  8
_________1
 62
     7
 10
92.493799999999993
 20
206.14099999999999
 30
0.0
 11
102.751
 21
206.14099999999999
 31
0.0
  0
ARC
  5
19B
  8
_________1
 62
     7
 10
153.48152300000001
 20
182.141111
 30
0.0
 40
5.4999580000000003
 50
270.00181400000002
 51
0.001785
  0
ARC
  5
19C
  8
_________1
 62
     7
 10
127.981455
 20
182.14145400000001
 30
0.0
 40
5.5003010000000003
 50
180.00180399999999
 51
270.00181400000002
  0
LINE
  5
19D
  8
_________1
 62
     7
 10
166.72
 20
206.14099999999999
 30
0.0
 11
158.98099999999999
 21
206.14099999999999
 31
0.0
  0
LINE
  5
19E
  8
_________1
 62
     7
 10
122.48099999999999
 20
206.14099999999999
 30
0.0
 11
114.74299999999999
 21
206.14099999999999
 31
0.0
  0
ARC
  5
19F
  8
_________1
  6
AIGENLINE001
 62
     7
 10
140.731403
 20
188.64127199999999
 30
0.0
 40
3.5001540000000002
 50
269.99860999999999
 51
359.99858
  0
ARC
  5
1A0
  8
_________1
  6
AIGENLINE001
 62
     7
 10
140.73157499999999
 20
188.64092600000001
 30
0.0
 40
3.4998079999999998
 50
179.99574000000001
 51
269.99579
  0
ARC
  5
1A1
  8
_________1
  6
AIGENLINE001
 62
     7
 10
140.73157699999999
 20
188.64144300000001
 30
0.0
 40
3.4998089999999991
 50
90.004230000000007
 51
180.00424000000001
  0
ARC
  5
1A2
  8
_________1
  6
AIGENLINE001
 62
     7
 10
140.731403
 20
188.641099
 30
0.0
 40
3.5001540000000002
 50
0.00142
 51
90.001390000000001
  0
ARC
  5
1A3
  8
_________1
  6
AIGENLINE001
 62
     7
 10
140.64356599999999
 20
188.728937
 30
0.0
 40
2.3893239999999998
 50
272.10476699999998
 51
357.89524299999999
  0
ARC
  5
1A4
  8
_________1
  6
AIGENLINE001
 62
     7
 10
140.819874
 20
188.72974199999999
 30
0.0
 40
2.390158
 50
182.123334
 51
267.87669599999998
  0
ARC
  5
1A5
  8
_________1
  6
AIGENLINE001
 62
     7
 10
140.81906900000001
 20
188.55343400000001
 30
0.0
 40
2.3893230000000001
 50
92.104730000000004
 51
177.89524
  0
ARC
  5
1A6
  8
_________1
  6
AIGENLINE001
 62
     7
 10
140.64278200000001
 20
188.55265
 30
0.0
 40
2.390136
 50
2.122844999999999
 51
87.877145999999996
  0
LINE
  5
1A7
  8
_________1
  6
AIGENLINE002
 62
     7
 10
135.113
 20
188.64099999999999
 30
0.0
 11
146.351
 21
188.64099999999999
 31
0.0
  0
ARC
  5
1A8
  8
_________1
 62
     7
 10
69.293796
 20
188.64127199999999
 30
0.0
 40
3.5001540000000002
 50
269.99860999999999
 51
359.99858
  0
ARC
  5
1A9
  8
_________1
 62
     7
 10
69.293796
 20
188.641099
 30
0.0
 40
3.4999799999999999
 50
179.99856
 51
269.99860999999999
  0
ARC
  5
1AA
  8
_________1
 62
     7
 10
69.293796999999998
 20
188.64127099999999
 30
0.0
 40
3.4999809999999991
 50
90.001410000000007
 51
180.00142
  0
ARC
  5
1AB
  8
_________1
 62
     7
 10
69.293796
 20
188.641099
 30
0.0
 40
3.5001540000000002
 50
0.00142
 51
90.001390000000001
  0
ARC
  5
1AC
  8
_________1
 62
     7
 10
69.205567000000002
 20
188.72932900000001
 30
0.0
 40
2.3897300000000001
 50
272.113811
 51
357.88619899999998
  0
ARC
  5
1AD
  8
_________1
 62
     7
 10
69.382261999999983
 20
188.729737
 30
0.0
 40
2.3901520000000001
 50
182.12321700000001
 51
267.87681300000003
  0
ARC
  5
1AE
  8
_________1
 62
     7
 10
69.381854000000004
 20
188.553042
 30
0.0
 40
2.3897289999999991
 50
92.113772999999981
 51
177.88619700000001
  0
ARC
  5
1AF
  8
_________1
 62
     7
 10
69.205174999999997
 20
188.55265
 30
0.0
 40
2.390136
 50
2.122844999999999
 51
87.877145999999996
  0
INSERT
  5
1B0
  8
_________1
 62
     7
  2
AIGNBL02010015
 10
0.0
 20
0.0
 30
0.0
  0
LINE
  5
1B1
  8
_________1
  6
AIGENLINE001
 62
     7
 10
146.73099999999999
 20
101.999
 30
0.0
 11
146.73099999999999
 21
93.499099999999984
 31
0.0
  0
LINE
  5
1B2
  8
_________1
  6
AIGENLINE002
 62
     7
 10
152.73099999999999
 20
105.008
 30
0.0
 11
152.73099999999999
 21
100.28
 31
0.0
  0
LINE
  5
1B3
  8
_________1
  6
AIGENLINE002
 62
     7
 10
63.675400000000003
 20
188.64099999999999
 30
0.0
 11
74.913399999999996
 21
188.64099999999999
 31
0.0
  0
ARC
  5
1B4
  8
_________1
 62
     7
 10
69.293796
 20
200.64147700000001
 30
0.0
 40
1.7500340000000001
 50
269.99720000000002
 51
359.9971700000001
  0
ARC
  5
1B5
  8
_________1
 62
     7
 10
69.293796
 20
200.64130399999999
 30
0.0
 40
1.7498610000000001
 50
179.99715
 51
269.99720000000002
  0
ARC
  5
1B6
  8
_________1
 62
     7
 10
69.293796999999998
 20
200.64147600000001
 30
0.0
 40
1.7498610000000001
 50
90.002820000000014
 51
180.00282999999999
  0
ARC
  5
1B7
  8
_________1
 62
     7
 10
69.293796
 20
200.64130399999999
 30
0.0
 40
1.7500340000000001
 50
0.00283
 51
90.002800000000008
  0
ARC
  5
1B8
  8
_________1
 62
     7
 10
87.993720999999994
 20
192.64139700000001
 30
0.0
 40
1.9999769999999999
 50
359.99754300000001
 51
89.997512999999984
  0
ARC
  5
1B9
  8
_________1
 62
     7
 10
87.993720999999994
 20
175.941192
 30
0.0
 40
1.9999769999999999
 50
270.00248699999997
 51
0.002457
  0
LINE
  5
1BA
  8
_________1
  6
AIGENLINE002
 62
     7
 10
78.293700000000001
 20
95.326700000000017
 30
0.0
 11
78.293700000000001
 21
101.366
 31
0.0
  0
LINE
  5
1BB
  8
_________1
  6
AIGENLINE002
 62
     7
 10
78.293700000000001
 20
203.75299999999999
 30
0.0
 11
78.293700000000001
 21
208.904
 31
0.0
  0
LINE
  5
1BC
  8
_________1
  6
AIGENLINE002
 62
     7
 10
60.293700000000001
 20
203.75299999999999
 30
0.0
 11
60.293700000000001
 21
208.904
 31
0.0
  0
LINE
  5
1BD
  8
_________1
 62
     7
 10
89.993700000000004
 20
175.94099999999989
 30
0.0
 11
89.993700000000004
 21
192.64099999999999
 31
0.0
  0
ARC
  5
1BE
  8
_________1
 62
     7
 10
50.592838999999998
 20
192.64122499999999
 30
0.0
 40
2.0001489999999991
 50
89.997533000000004
 51
179.99750299999999
  0
ARC
  5
1BF
  8
_________1
 62
     7
 10
50.592838999999998
 20
175.941363
 30
0.0
 40
2.0001489999999991
 50
180.002477
 51
270.00248699999997
  0
ARC
  5
1C0
  8
_________1
 62
     7
 10
88.793762999999998
 20
175.14114900000001
 30
0.0
 40
3.000008999999999
 50
270.00002000000001
 51
359.99999000000003
  0
ARC
  5
1C1
  8
_________1
 62
     7
 10
49.793657000000003
 20
175.1411479999999
 30
0.0
 40
3.0000079999999998
 50
179.99996999999999
 51
270.00002000000001
  0
LINE
  5
1C2
  8
_________1
 62
     7
 10
158.98099999999999
 20
182.14099999999999
 30
0.0
 11
158.98099999999999
 21
206.14099999999999
 31
0.0
  0
LINE
  5
1C3
  8
_________1
  6
AIGENLINE002
 62
     7
 10
140.73099999999999
 20
173.61799999999999
 30
0.0
 11
140.73099999999999
 21
208.58099999999999
 31
0.0
  0
LINE
  5
1C4
  8
_________1
 62
     7
 10
122.48099999999999
 20
182.14099999999999
 30
0.0
 11
122.48099999999999
 21
206.14099999999999
 31
0.0
  0
LINE
  5
1C5
  8
_________1
 62
     7
 10
127.982
 20
176.64099999999999
 30
0.0
 11
153.482
 21
176.64099999999999
 31
0.0
  0
LINE
  5
1C6
  8
_________1
  6
AIGENLINE003
 62
     7
 10
122.48099999999999
 20
206.14099999999999
 30
0.0
 11
158.98099999999999
 21
206.14099999999999
 31
0.0
  0
LINE
  5
1C7
  8
_________1
 62
     7
 10
65.793800000000005
 20
87.998999999999995
 30
0.0
 11
65.793800000000005
 21
90.799199999999985
 31
0.0
  0
LINE
  5
1C8
  8
_________1
 62
     7
 10
91.793800000000005
 20
175.14099999999999
 30
0.0
 11
91.793800000000005
 21
206.14099999999999
 31
0.0
  0
LINE
  5
1C9
  8
_________1
  6
AIGENLINE002
 62
     7
 10
69.293700000000001
 20
85.918099999999995
 30
0.0
 11
69.293700000000001
 21
105.008
 31
0.0
  0
LINE
  5
1CA
  8
_________1
  6
AIGENLINE002
 62
     7
 10
69.293700000000001
 20
170.11699999999999
 30
0.0
 11
69.293700000000001
 21
208.58099999999999
 31
0.0
  0
LINE
  5
1CB
  8
_________1
 62
     7
 10
48.592700000000001
 20
175.94099999999989
 30
0.0
 11
48.592700000000001
 21
192.64099999999999
 31
0.0
  0
LINE
  5
1CC
  8
_________1
 62
     7
 10
46.793599999999991
 20
175.14099999999999
 30
0.0
 11
46.793599999999991
 21
206.14099999999999
 31
0.0
  0
LINE
  5
1CD
  8
_________1
 62
     7
 10
158.23099999999999
 20
101.999
 30
0.0
 11
158.23099999999999
 21
90.799199999999985
 31
0.0
  0
LINE
  5
1CE
  8
_________1
 62
     7
 10
49.793700000000001
 20
172.14099999999999
 30
0.0
 11
88.793800000000005
 21
172.14099999999999
 31
0.0
  0
LINE
  5
1CF
  8
_________1
 62
     7
 10
50.5929
 20
173.94099999999989
 30
0.0
 11
87.993799999999993
 21
173.94099999999989
 31
0.0
  0
LINE
  5
1D0
  8
_________1
 62
     7
 10
50.5929
 20
194.64099999999999
 30
0.0
 11
87.993799999999993
 21
194.64099999999999
 31
0.0
  0
LINE
  5
1D1
  8
_________1
  6
AIGENLINE002
 62
     7
 10
65.863100000000003
 20
200.64099999999999
 30
0.0
 11
72.724400000000003
 21
200.64099999999999
 31
0.0
  0
LINE
  5
1D2
  8
_________1
 62
     7
 10
47.835500000000003
 20
93.998999999999995
 30
0.0
 11
69.2941
 21
93.998999999999995
 31
0.0
  0
LINE
  5
1D3
  8
_________1
 62
     7
 10
55.462299999999999
 20
90.799199999999985
 30
0.0
 11
69.2941
 21
90.799199999999985
 31
0.0
  0
LINE
  5
1D4
  8
_________1
 62
     7
 10
47.293900000000001
 20
102.499
 30
0.0
 11
69.2941
 21
102.499
 31
0.0
  0
LINE
  5
1D5
  8
_________1
 62
     7
 10
46.793599999999991
 20
206.14099999999999
 30
0.0
 11
91.793800000000005
 21
206.14099999999999
 31
0.0
  0
LINE
  5
1D6
  8
_________1
 62
     7
 10
46.793599999999991
 20
101.999
 30
0.0
 11
46.935600000000001
 21
98.561000000000007
 31
0.0
  0
LINE
  5
1D7
  8
_________1
 62
     7
 10
46.935600000000001
 20
98.561000000000007
 30
0.0
 11
47.335599999999992
 21
94.498900000000006
 31
0.0
  0
TEXT
  5
1D8
  8
_________2
 62
     7
 10
22.801200000000001
 20
52.536999999999999
 30
0.0
 40
4.2168199999999993
  1
※壁取付部には厚さ30mm以上の補強材を入れてください。
 41
0.5
  0
TEXT
  5
1D9
  8
_________2
 62
     7
 10
22.801200000000001
 20
47.265999999999998
 30
0.0
 40
4.2168199999999993
  1
※カウンターを設ける場合も壁固定が必要です。
 41
0.5
  0
TEXT
  5
1DA
  8
_________2
 62
     7
 10
22.801200000000001
 20
41.994899999999987
 30
0.0
 40
4.2168199999999993
  1
※カウンター制作可否は、カウンター業者様にご確認ください。
 41
0.5
  0
TEXT
  5
1DB
  8
_________2
 62
     7
 10
24.5868
 20
0.707283
 30
0.0
 40
3.9357000000000002
  1
実容量：2.9L、重量：9.5Kg、オーバーフローあり
 41
0.5
  0
LINE
  5
1DC
  8
_________2
 62
     7
 10
205.30099999999999
 20
127.411
 30
0.0
 11
183.55000000000001
 21
127.411
 31
0.0
  0
LINE
  5
1DD
  8
_________2
 62
     7
 10
100.3
 20
-4.0910799999999998
 30
0.0
 11
100.3
 21
-21.071400000000001
 31
0.0
  0
LINE
  5
1DE
  8
_________2
 62
     7
 10
100.3
 20
275.93099999999998
 30
0.0
 11
100.3
 21
258.911
 31
0.0
  0
LINE
  5
1DF
  8
_________2
 62
     7
 10
17.049499999999998
 20
127.411
 30
0.0
 11
-4.70052
 21
127.411
 31
0.0
  0
INSERT
  5
1E0
  8
_________2
 62
     7
  2
AIGNBL03010002
 10
0.0
 20
0.0
 30
0.0
  0
TEXT
  5
1E1
  8
_________2
 62
     7
 10
104.605
 20
1.6794899999999999
 30
0.0
 40
3.0923400000000001
  1
図番
 41
0.5
  0
LINE
  5
1E2
  8
_________2
 62
     7
 10
103.55
 20
5.9087199999999989
 30
0.0
 11
183.55099999999999
 21
5.9087199999999989
 31
0.0
  0
TEXT
  5
1E3
  8
_________2
 62
     7
 10
104.605
 20
11.6793
 30
0.0
 40
3.0923400000000001
  1
品番
 41
0.5
  0
TEXT
  5
1E4
  8
_________2
 62
     7
 10
104.605
 20
31.818100000000001
 30
0.0
 40
3.0923400000000001
  1
名称
 41
0.5
  0
TEXT
  5
1E5
  8
_________2
 62
     7
 10
91.845058333333341
 20
26.821999999999999
 30
0.0
 40
3.6545800000000002
  1
mm
 41
0.5
 72
     1
 11
93.367800000000003
 21
26.821999999999999
 31
0.0
  0
TEXT
  5
1E6
  8
_________2
 62
     7
 10
85.643199999999993
 20
31.818100000000001
 30
0.0
 40
3.0923400000000001
  1
単位
 41
0.5
  0
TEXT
  5
1E7
  8
_________2
 62
     7
 10
85.643199999999993
 20
19.410799999999998
 30
0.0
 40
3.0923400000000001
  1
尺度
 41
0.5
  0
TEXT
  5
1E8
  8
_________2
 62
     7
 10
90.09193616666667
 20
13.2179
 30
0.0
 40
3.6545800000000002
  1
1 ： 10
 41
0.5
 72
     1
 11
93.959699999999998
 21
13.2179
 31
0.0
  0
TEXT
  5
1E9
  8
_________2
 62
     7
 10
137.64644999999999
 20
9.1078600000000005
 30
0.0
 40
3.9357000000000002
  1
AU16961
 41
0.5
 72
     1
 11
143.55000000000001
 21
9.1078600000000005
 31
0.0
  0
TEXT
  5
1EA
  8
_________2
 62
     7
 10
137.64644999999999
 20
-0.8926299999999999
 30
0.0
 40
3.9357000000000002
  1
AU16961
 41
0.5
 72
     1
 11
143.55000000000001
 21
-0.8926299999999999
 31
0.0
  0
TEXT
  5
1EB
  8
_________2
 62
     7
 10
109.179
 20
24.2257
 30
0.0
 40
3.9357000000000002
  1
ラウフェン プロS　手洗器
 41
0.5
  0
TEXT
  5
1EC
  8
_________2
 62
     7
 10
39.364390666666672
 20
13.603
 30
0.0
 40
3.6545800000000002
  1
篠崎
 41
0.5
 72
     1
 11
41.313499999999998
 21
13.603
 31
0.0
  0
TEXT
  5
1ED
  8
_________2
 62
     7
 10
20.790090666666671
 20
13.603
 30
0.0
 40
3.6545800000000002
  1
菅原
 41
0.5
 72
     1
 11
22.7392
 21
13.603
 31
0.0
  0
TEXT
  5
1EE
  8
_________2
 62
     7
 10
67.785399999999996
 20
13.2179
 30
0.0
 40
3.6545800000000002
  1
17.11.28
 41
0.5
  0
TEXT
  5
1EF
  8
_________2
 62
     7
 10
66.593100000000007
 20
19.410799999999998
 30
0.0
 40
3.0923400000000001
  1
日付
 41
0.5
  0
TEXT
  5
1F0
  8
_________2
 62
     7
 10
29.639399999999998
 20
19.410799999999998
 30
0.0
 40
3.0923400000000001
  1
検図
 41
0.5
  0
TEXT
  5
1F1
  8
_________2
 62
     7
 10
18.021100000000001
 20
5.21143
 30
0.0
 40
3.0923400000000001
  1
備考
 41
0.5
  0
TEXT
  5
1F2
  8
_________2
 62
     7
 10
18.021100000000001
 20
19.410799999999998
 30
0.0
 40
3.0923400000000001
  1
製図
 41
0.5
  0
TEXT
  5
1F3
  8
_________2
 62
     7
 10
23.788465333333338
 20
27.936800000000002
 30
0.0
 40
4.4979399999999989
  1
セラトレーディング株式会社
 41
0.5
 72
     1
 11
41.180500000000002
 21
27.936800000000002
 31
0.0
  0
LINE
  5
1F4
  8
_________2
 62
     7
 10
183.55099999999999
 20
-4.0910799999999998
 30
0.0
 11
17.049499999999998
 21
-4.0910799999999998
 31
0.0
  0
LINE
  5
1F5
  8
_________2
 62
     7
 10
17.049499999999998
 20
-4.0910799999999998
 30
0.0
 11
17.049499999999998
 21
258.911
 31
0.0
  0
LINE
  5
1F6
  8
_________2
 62
     7
 10
17.049499999999998
 20
258.911
 30
0.0
 11
183.55099999999999
 21
258.911
 31
0.0
  0
LINE
  5
1F7
  8
_________2
 62
     7
 10
183.55099999999999
 20
258.911
 30
0.0
 11
183.55099999999999
 21
-4.0910799999999998
 31
0.0
  0
LINE
  5
1F8
  8
_________2
 62
     7
 10
65.549599999999998
 20
9.4089600000000004
 30
0.0
 11
65.549599999999998
 21
35.908799999999999
 31
0.0
  0
LINE
  5
1F9
  8
_________2
 62
     7
 10
84.549700000000016
 20
9.4089600000000004
 30
0.0
 11
84.549700000000016
 21
35.908799999999999
 31
0.0
  0
LINE
  5
1FA
  8
_________2
 62
     7
 10
103.55
 20
-4.0910799999999998
 30
0.0
 11
103.55
 21
35.908799999999999
 31
0.0
  0
LINE
  5
1FB
  8
_________2
 62
     7
 10
28.549299999999999
 20
9.4089600000000004
 30
0.0
 11
28.549299999999999
 21
23.409199999999998
 31
0.0
  0
LINE
  5
1FC
  8
_________2
 62
     7
 10
17.049499999999998
 20
9.4089600000000004
 30
0.0
 11
103.55
 21
9.4089600000000004
 31
0.0
  0
LINE
  5
1FD
  8
_________2
 62
     7
 10
17.049499999999998
 20
23.409199999999998
 30
0.0
 11
103.55
 21
23.409199999999998
 31
0.0
  0
LINE
  5
1FE
  8
_________2
 62
     7
 10
103.55
 20
15.9085
 30
0.0
 11
183.55099999999999
 21
15.9085
 31
0.0
  0
LINE
  5
1FF
  8
_________2
 62
     7
 10
17.049499999999998
 20
35.908799999999999
 30
0.0
 11
183.55099999999999
 21
35.908799999999999
 31
0.0
  0
ENDSEC
  0
EOF
