  0
SECTION
  2
HEADER
  9
$ACADVER
  1
AC1009
  9
$INSBASE
 10
0.0
 20
0.0
 30
0.0
  9
$EXTMIN
 10
-4.7012099999999988
 20
-21.071000000000002
 30
0.0
  9
$EXTMAX
 10
205.30099999999999
 20
275.93099999999998
 30
0.0
  9
$LIMMIN
 10
0.0
 20
0.0
  9
$LIMMAX
 10
12.0
 20
9.0
  9
$ORTHOMODE
 70
     0
  9
$REGENMODE
 70
     1
  9
$FILLMODE
 70
     1
  9
$QTEXTMODE
 70
     0
  9
$MIRRTEXT
 70
     1
  9
$DRAGMODE
 70
     2
  9
$LTSCALE
 40
1.0
  9
$OSMODE
 70
    37
  9
$ATTMODE
 70
     1
  9
$TEXTSIZE
 40
0.0
  9
$TRACEWID
 40
0.05
  9
$TEXTSTYLE
  7
STANDARD
  9
$CLAYER
  8
0
  9
$CELTYPE
  6
CONTINUOUS
  9
$CECOLOR
 62
   256
  9
$DIMSCALE
 40
1.0
  9
$DIMASZ
 40
0.18
  9
$DIMEXO
 40
0.0625
  9
$DIMDLI
 40
0.38
  9
$DIMRND
 40
0.0
  9
$DIMDLE
 40
0.0
  9
$DIMEXE
 40
0.18
  9
$DIMTP
 40
0.0
  9
$DIMTM
 40
0.0
  9
$DIMTXT
 40
0.18
  9
$DIMCEN
 40
0.09
  9
$DIMTSZ
 40
0.0
  9
$DIMTOL
 70
     0
  9
$DIMLIM
 70
     0
  9
$DIMTIH
 70
     1
  9
$DIMTOH
 70
     1
  9
$DIMSE1
 70
     0
  9
$DIMSE2
 70
     0
  9
$DIMTAD
 70
     0
  9
$DIMZIN
 70
     0
  9
$DIMBLK
  1

  9
$DIMASO
 70
     1
  9
$DIMSHO
 70
     1
  9
$DIMPOST
  1

  9
$DIMAPOST
  1

  9
$DIMALT
 70
     0
  9
$DIMALTD
 70
     2
  9
$DIMALTF
 40
25.399999999999999
  9
$DIMLFAC
 40
1.0
  9
$DIMTOFL
 70
     0
  9
$DIMTVP
 40
0.0
  9
$DIMTIX
 70
     0
  9
$DIMSOXD
 70
     0
  9
$DIMSAH
 70
     0
  9
$DIMBLK1
  1

  9
$DIMBLK2
  1

  9
$DIMSTYLE
  2
STANDARD
  9
$DIMCLRD
 70
     0
  9
$DIMCLRE
 70
     0
  9
$DIMCLRT
 70
     0
  9
$DIMTFAC
 40
1.0
  9
$DIMGAP
 40
0.09
  9
$LUNITS
 70
     2
  9
$LUPREC
 70
     4
  9
$SKETCHINC
 40
0.1
  9
$FILLETRAD
 40
0.0
  9
$AUNITS
 70
     0
  9
$AUPREC
 70
     0
  9
$MENU
  1
.
  9
$ELEVATION
 40
0.0
  9
$PELEVATION
 40
0.0
  9
$THICKNESS
 40
0.0
  9
$LIMCHECK
 70
     0
  9
$BLIPMODE
 70
     0
  9
$CHAMFERA
 40
0.0
  9
$CHAMFERB
 40
0.0
  9
$SKPOLY
 70
     0
  9
$TDCREATE
 40
2444972.375
  9
$TDUPDATE
 40
2457663.2478903471
  9
$TDINDWG
 40
0.0000293056
  9
$TDUSRTIMER
 40
0.0000293056
  9
$USRTIMER
 70
     1
  9
$ANGBASE
 50
0.0
  9
$ANGDIR
 70
     0
  9
$PDMODE
 70
     0
  9
$PDSIZE
 40
0.0
  9
$PLINEWID
 40
0.0
  9
$COORDS
 70
     1
  9
$SPLFRAME
 70
     0
  9
$SPLINETYPE
 70
     6
  9
$SPLINESEGS
 70
     8
  9
$ATTDIA
 70
     1
  9
$ATTREQ
 70
     1
  9
$HANDLING
 70
     1
  9
$HANDSEED
  5
302
  9
$SURFTAB1
 70
     6
  9
$SURFTAB2
 70
     6
  9
$SURFTYPE
 70
     6
  9
$SURFU
 70
     6
  9
$SURFV
 70
     6
  9
$UCSNAME
  2

  9
$UCSORG
 10
0.0
 20
0.0
 30
0.0
  9
$UCSXDIR
 10
1.0
 20
0.0
 30
0.0
  9
$UCSYDIR
 10
0.0
 20
1.0
 30
0.0
  9
$PUCSNAME
  2

  9
$PUCSORG
 10
0.0
 20
0.0
 30
0.0
  9
$PUCSXDIR
 10
1.0
 20
0.0
 30
0.0
  9
$PUCSYDIR
 10
0.0
 20
1.0
 30
0.0
  9
$USERI1
 70
     0
  9
$USERI2
 70
     0
  9
$USERI3
 70
     0
  9
$USERI4
 70
     0
  9
$USERI5
 70
     0
  9
$USERR1
 40
0.0
  9
$USERR2
 40
0.0
  9
$USERR3
 40
0.0
  9
$USERR4
 40
0.0
  9
$USERR5
 40
0.0
  9
$WORLDVIEW
 70
     1
  9
$SHADEDGE
 70
     3
  9
$SHADEDIF
 70
    70
  9
$TILEMODE
 70
     1
  9
$MAXACTVP
 70
    48
  9
$PLIMCHECK
 70
     0
  9
$PEXTMIN
 10
1.0000000000000000E+020
 20
1.0000000000000000E+020
 30
1.0000000000000000E+020
  9
$PEXTMAX
 10
-1.0000000000000000E+020
 20
-1.0000000000000000E+020
 30
-1.0000000000000000E+020
  9
$PLIMMIN
 10
0.0
 20
0.0
  9
$PLIMMAX
 10
12.0
 20
9.0
  9
$UNITMODE
 70
     0
  9
$VISRETAIN
 70
     1
  9
$PLINEGEN
 70
     0
  9
$PSLTSCALE
 70
     1
  0
ENDSEC
  0
SECTION
  2
TABLES
  0
TABLE
  2
VPORT
 70
     1
  0
VPORT
  2
*ACTIVE
 70
     0
 10
0.0
 20
0.0
 11
1.0
 21
1.0
 12
173.05850873675899
 22
127.42999999999989
 13
0.0
 23
0.0
 14
1.0
 24
1.0
 15
0.0
 25
0.0
 16
0.0
 26
0.0
 36
1.0
 17
0.0
 27
0.0
 37
0.0
 40
289.64129411868203
 41
2.1063583815028899
 42
50.0
 43
0.0
 44
0.0
 50
0.0
 51
0.0
 71
     0
 72
   100
 73
     1
 74
     1
 75
     0
 76
     0
 77
     0
 78
     0
  0
ENDTAB
  0
TABLE
  2
LTYPE
 70
     3
  0
LTYPE
  2
CONTINUOUS
 70
     0
  3
Solid line
 72
    65
 73
     0
 40
0.0
  0
LTYPE
  2
AIGENLINE001
 70
     0
  3
generate AI->DXF Converter
 72
    65
 73
     2
 40
1.5522299999999991
 49
0.776115
 49
-0.776115
  0
LTYPE
  2
AIGENLINE002
 70
     0
  3
generate AI->DXF Converter
 72
    65
 73
     4
 40
5.8561449999999988
 49
3.5278
 49
-0.776115
 49
0.776115
 49
-0.776115
  0
ENDTAB
  0
TABLE
  2
LAYER
 70
     2
  0
LAYER
  2
0
 70
     0
 62
     7
  6
CONTINUOUS
  0
LAYER
  2
_________2
 70
     0
 62
     7
  6
CONTINUOUS
  0
ENDTAB
  0
TABLE
  2
STYLE
 70
     1
  0
STYLE
  2
STANDARD
 70
     0
 40
0.0
 41
0.0
 50
0.0
 71
     0
 42
0.0
  3
TXT
  4
EXTFONT.SHX
  0
ENDTAB
  0
TABLE
  2
VIEW
 70
     0
  0
ENDTAB
  0
TABLE
  2
UCS
 70
     0
  0
ENDTAB
  0
TABLE
  2
APPID
 70
     3
  0
APPID
  2
ACAD
 70
     0
  0
APPID
  2
ACAD_NAV_VCDISPLAY
 70
     0
  0
APPID
  2
ACAD_MLEADERVER
 70
     0
  0
ENDTAB
  0
TABLE
  2
DIMSTYLE
 70
     1
  0
DIMSTYLE
  2
STANDARD
 70
     0
  3

  4

  5

  6

  7

 40
1.0
 41
0.18
 42
0.0625
 43
0.38
 44
0.18
 45
0.0
 46
0.0
 47
0.0
 48
0.0
140
0.18
141
0.09
142
0.0
143
25.399999999999999
144
1.0
145
0.0
146
1.0
147
0.09
 71
     0
 72
     0
 73
     1
 74
     1
 75
     0
 76
     0
 77
     0
 78
     0
170
     0
171
     2
172
     0
173
     0
174
     0
175
     0
176
     0
177
     0
178
     0
  0
ENDTAB
  0
ENDSEC
  0
SECTION
  2
BLOCKS
  0
BLOCK
  8
0
  2
$MODEL_SPACE
 70
     0
 10
0.0
 20
0.0
 30
0.0
  3
$MODEL_SPACE
  1

  0
ENDBLK
  5
1A
  8
0
  0
BLOCK
 67
     1
  8
0
  2
$PAPER_SPACE
 70
     0
 10
0.0
 20
0.0
 30
0.0
  3
$PAPER_SPACE
  1

  0
ENDBLK
  5
17
 67
     1
  8
0
  0
ENDSEC
  0
SECTION
  2
ENTITIES
  0
TEXT
  5
23
  8
0
 62
     7
 10
151.45217799999989
 20
204.095
 30
0.0
 40
3.0923400000000001
  1
排水口
 41
0.5
 72
     2
 11
156.50299999999999
 21
204.095
 31
0.0
  0
TEXT
  5
24
  8
0
 62
     7
 10
121.7000336902381
 20
172.64292562543261
 30
0.0
 40
3.0923400000000001
  1
R75
 50
48.502400000000002
 41
0.5
 72
     1
 11
123.066
 21
174.18700000000001
 31
0.0
  0
TEXT
  5
25
  8
0
 62
     7
 10
122.07493516171409
 20
193.6709770894013
 30
0.0
 40
3.0923400000000001
  1
R95
 50
318.50200000000001
 41
0.5
 72
     1
 11
123.619
 21
192.30500000000001
 31
0.0
  0
TEXT
  5
26
  8
0
 62
     7
 10
130.37200000000001
 20
184.6923725
 30
0.0
 40
3.0923400000000001
  1
50
 50
90.0
 41
0.5
 72
     1
 11
130.37200000000001
 21
185.852
 31
0.0
  0
TEXT
  5
27
  8
0
 62
     7
 10
130.37200000000001
 20
178.41152500000001
 30
0.0
 40
3.0923400000000001
  1
78
 50
90.0
 41
0.5
 72
     1
 11
130.37200000000001
 21
179.69999999999999
 31
0.0
  0
TEXT
  5
28
  8
0
 62
     7
 10
23.2258
 20
175.72
 30
0.0
 40
3.0923400000000001
  1
LAUFEN
 41
0.5
  0
TEXT
  5
29
  8
0
 62
     7
 10
120.25519814798341
 20
179.7790744863118
 30
0.0
 40
3.0923400000000001
  1
R500
 50
5.5655799999999997
 41
0.5
 72
     1
 11
122.81999999999999
 21
180.029
 31
0.0
  0
TEXT
  5
2A
  8
0
 62
     7
 10
135.0830277427801
 20
190.17334494082101
 30
0.0
 40
3.0922200000000002
  1
R520
 50
93.496799999999993
 41
0.5
 72
     1
 11
134.91800000000001
 21
192.874
 31
0.0
  0
TEXT
  5
2B
  8
0
 62
     7
 10
136.02098382633841
 20
170.54259140835359
 30
0.0
 40
3.0924700000000001
  1
R1050
 50
88.498800000000003
 41
0.5
 72
     1
 11
136.102
 21
173.63399999999999
 31
0.0
  0
TEXT
  5
2C
  8
0
 62
     7
 10
131.55013500000001
 20
204.102
 30
0.0
 40
3.0923400000000001
  1
122
 41
0.5
 72
     1
 11
133.35400000000001
 21
204.102
 31
0.0
  0
TEXT
  5
2D
  8
0
 62
     7
 10
130.750135
 20
161.983
 30
0.0
 40
3.0923400000000001
  1
138
 41
0.5
 72
     1
 11
132.554
 21
161.983
 31
0.0
  0
TEXT
  5
2E
  8
0
 62
     7
 10
137.5212875
 20
156.483
 30
0.0
 40
3.0923400000000001
  1
440
 41
0.5
 72
     1
 11
139.45400000000001
 21
156.483
 31
0.0
  0
TEXT
  5
2F
  8
0
 62
     7
 10
169.761
 20
191.946135
 30
0.0
 40
3.0923400000000001
  1
122
 50
90.0
 41
0.5
 72
     1
 11
169.761
 21
193.75
 31
0.0
  0
TEXT
  5
30
  8
0
 62
     7
 10
175.261
 20
181.53844000000001
 30
0.0
 40
3.0923400000000001
  1
325
 50
90.0
 41
0.5
 72
     1
 11
175.261
 21
183.59999999999999
 31
0.0
  0
TEXT
  5
31
  8
0
 62
     7
 10
133.34276
 20
145.65799999999999
 30
0.0
 40
3.0923400000000001
  1
カウンター切込寸法
 41
0.5
 72
     1
 11
141.589
 21
145.65799999999999
 31
0.0
  0
TEXT
  5
32
  8
0
 62
     7
 10
136.858
 20
118.12166000000001
 30
0.0
 40
3.0923400000000001
  1
100
 50
90.0
 41
0.5
 72
     2
 11
136.858
 21
121.214
 31
0.0
  0
TEXT
  5
33
  8
0
 62
     7
 10
144.047135
 20
89.747699999999995
 30
0.0
 40
3.0923400000000001
  1
135
 41
0.5
 72
     1
 11
145.851
 21
89.747699999999995
 31
0.0
  0
TEXT
  5
34
  8
0
 62
     7
 10
69.726780000000005
 20
192.958
 30
0.0
 40
3.0923400000000001
  1
%%c46
 41
0.5
 72
     2
 11
73.849900000000005
 21
192.958
 31
0.0
  0
TEXT
  5
35
  8
0
 62
     7
 10
99.302899999999994
 20
204.41344000000001
 30
0.0
 40
3.0923400000000001
  1
17
 50
90.0
 41
0.5
 72
     2
 11
99.302899999999994
 21
206.47499999999999
 31
0.0
  0
TEXT
  5
36
  8
0
 62
     7
 10
99.302899999999994
 20
179.98844
 30
0.0
 40
3.0923400000000001
  1
348
 50
90.0
 41
0.5
 72
     1
 11
99.302899999999994
 21
182.05000000000001
 31
0.0
  0
TEXT
  5
37
  8
0
 62
     7
 10
32.943899999999999
 20
192.49613500000001
 30
0.0
 40
3.0923400000000001
  1
135
 50
90.0
 41
0.5
 72
     1
 11
32.943899999999999
 21
194.30000000000001
 31
0.0
  0
TEXT
  5
38
  8
0
 62
     7
 10
32.949399999999997
 20
111.5733725
 30
0.0
 40
3.0923400000000001
  1
40
 50
90.0
 41
0.5
 72
     1
 11
32.949399999999997
 21
112.733
 31
0.0
  0
TEXT
  5
39
  8
0
 62
     7
 10
93.803099999999986
 20
105.813135
 30
0.0
 40
3.0923400000000001
  1
145
 50
90.0
 41
0.5
 72
     1
 11
93.803099999999986
 21
107.617
 31
0.0
  0
TEXT
  5
3A
  8
0
 62
     7
 10
104.803
 20
180.73844
 30
0.0
 40
3.0923400000000001
  1
365
 50
90.0
 41
0.5
 72
     1
 11
104.803
 21
182.80000000000001
 31
0.0
  0
TEXT
  5
3B
  8
0
 62
     7
 10
61.781835000000001
 20
149.428
 30
0.0
 40
3.0923400000000001
  1
500
 41
0.5
 72
     1
 11
63.585700000000003
 21
149.428
 31
0.0
  0
TEXT
  5
3C
  8
0
 62
     7
 10
61.524140000000003
 20
154.928
 30
0.0
 40
3.0923400000000001
  1
488
 41
0.5
 72
     1
 11
63.585700000000003
 21
154.928
 31
0.0
  0
TEXT
  5
3D
  8
0
 62
     7
 10
93.803099999999986
 20
160.48099999999999
 30
0.0
 40
3.0923400000000001
  1
6
 50
90.0
 41
0.5
  0
TEXT
  5
3E
  8
0
 62
     7
 10
93.803099999999986
 20
203.28822
 30
0.0
 40
3.0923400000000001
  1
6
 50
90.0
 41
0.5
 72
     2
 11
93.803099999999986
 21
204.31899999999999
 31
0.0
  0
TEXT
  5
3F
  8
0
 62
     7
 10
93.803099999999986
 20
179.98844
 30
0.0
 40
3.0923400000000001
  1
336
 50
90.0
 41
0.5
 72
     1
 11
93.803099999999986
 21
182.05000000000001
 31
0.0
  0
LINE
  5
40
  8
0
 62
     7
 10
156.50299999999999
 20
203.39500000000001
 30
0.0
 11
146.642
 21
203.39500000000001
 31
0.0
  0
LINE
  5
41
  8
0
 62
     7
 10
142.2579999999999
 20
191.44399999999999
 30
0.0
 11
140.83699999999999
 21
189.65000000000001
 31
0.0
  0
LINE
  5
42
  8
0
 62
     7
 10
140.83699999999999
 20
189.65000000000001
 30
0.0
 11
141.17099999999999
 21
191.91399999999999
 31
0.0
  0
LINE
  5
43
  8
0
 62
     7
 10
141.17099999999999
 20
191.91399999999999
 30
0.0
 11
142.2579999999999
 21
191.44399999999999
 31
0.0
  0
LINE
  5
44
  8
0
 62
     7
 10
146.642
 20
203.39500000000001
 30
0.0
 11
140.785
 21
189.625
 31
0.0
  0
LINE
  5
45
  8
0
 62
     7
 10
121.384
 20
171.977
 30
0.0
 11
120.55200000000001
 21
170.345
 31
0.0
  0
LINE
  5
46
  8
0
 62
     7
 10
120.55200000000001
 20
170.345
 30
0.0
 11
122.087
 21
171.34299999999999
 31
0.0
  0
LINE
  5
47
  8
0
 62
     7
 10
122.087
 20
171.34299999999999
 30
0.0
 11
121.384
 21
171.977
 31
0.0
  0
LINE
  5
48
  8
0
 62
     7
 10
121.611
 20
193.85900000000001
 30
0.0
 11
119.95099999999999
 21
194.63300000000001
 31
0.0
  0
LINE
  5
49
  8
0
 62
     7
 10
119.95099999999999
 20
194.63300000000001
 30
0.0
 11
121.001
 21
193.13399999999999
 31
0.0
  0
LINE
  5
4A
  8
0
 62
     7
 10
121.001
 20
193.13399999999999
 30
0.0
 11
121.611
 21
193.85900000000001
 31
0.0
  0
LINE
  5
4B
  8
0
 62
     7
 10
119.379
 20
179.57900000000001
 30
0.0
 11
117.673
 21
178.91499999999999
 31
0.0
  0
LINE
  5
4C
  8
0
 62
     7
 10
117.673
 20
178.91499999999999
 30
0.0
 11
119.483
 21
178.637
 31
0.0
  0
LINE
  5
4D
  8
0
 62
     7
 10
119.483
 20
178.637
 30
0.0
 11
119.379
 21
179.57900000000001
 31
0.0
  0
LINE
  5
4E
  8
0
 62
     7
 10
135.78100000000001
 20
197.94800000000001
 30
0.0
 11
135.19300000000001
 21
199.68199999999999
 31
0.0
  0
LINE
  5
4F
  8
0
 62
     7
 10
135.19300000000001
 20
199.68199999999999
 30
0.0
 11
134.83500000000001
 21
197.886
 31
0.0
  0
LINE
  5
50
  8
0
 62
     7
 10
134.83500000000001
 20
197.886
 30
0.0
 11
135.78100000000001
 21
197.94800000000001
 31
0.0
  0
LINE
  5
51
  8
0
 62
     7
 10
130.61199999999999
 20
185.369
 30
0.0
 11
131.08500000000001
 21
183.59999999999999
 31
0.0
  0
LINE
  5
52
  8
0
 62
     7
 10
131.08500000000001
 20
183.59999999999999
 30
0.0
 11
131.559
 21
185.369
 31
0.0
  0
LINE
  5
53
  8
0
 62
     7
 10
131.559
 20
185.369
 30
0.0
 11
130.61199999999999
 21
185.369
 31
0.0
  0
LINE
  5
54
  8
0
 62
     7
 10
130.61199999999999
 20
177.56899999999999
 30
0.0
 11
131.08500000000001
 21
175.80000000000001
 31
0.0
  0
LINE
  5
55
  8
0
 62
     7
 10
131.08500000000001
 20
175.80000000000001
 30
0.0
 11
131.559
 21
177.56899999999999
 31
0.0
  0
LINE
  5
56
  8
0
 62
     7
 10
131.559
 20
177.56899999999999
 30
0.0
 11
130.61199999999999
 21
177.56899999999999
 31
0.0
  0
LINE
  5
57
  8
0
 62
     7
 10
131.548
 20
186.83099999999999
 30
0.0
 11
131.07400000000001
 21
188.59999999999999
 31
0.0
  0
LINE
  5
58
  8
0
 62
     7
 10
131.07400000000001
 20
188.59999999999999
 30
0.0
 11
130.59999999999999
 21
186.83099999999999
 31
0.0
  0
LINE
  5
59
  8
0
 62
     7
 10
130.59999999999999
 20
186.83099999999999
 30
0.0
 11
131.548
 21
186.83099999999999
 31
0.0
  0
LINE
  5
5A
  8
0
 62
     7
 10
131.548
 20
181.83099999999999
 30
0.0
 11
131.07400000000001
 21
183.59999999999999
 31
0.0
  0
LINE
  5
5B
  8
0
 62
     7
 10
131.07400000000001
 20
183.59999999999999
 30
0.0
 11
130.59999999999999
 21
181.83099999999999
 31
0.0
  0
LINE
  5
5C
  8
0
 62
     7
 10
130.59999999999999
 20
181.83099999999999
 30
0.0
 11
131.548
 21
181.83099999999999
 31
0.0
  0
LINE
  5
5D
  8
0
 62
     7
 10
131.08000000000001
 20
175.821
 30
0.0
 11
131.08000000000001
 21
188.59999999999999
 31
0.0
  0
LINE
  5
5E
  8
0
 62
     7
 10
136.161
 20
169.15599999999989
 30
0.0
 11
136.63499999999999
 21
167.387
 31
0.0
  0
LINE
  5
5F
  8
0
 62
     7
 10
136.63499999999999
 20
167.387
 30
0.0
 11
137.10900000000001
 21
169.15599999999989
 31
0.0
  0
LINE
  5
60
  8
0
 62
     7
 10
137.10900000000001
 20
169.15599999999989
 30
0.0
 11
136.161
 21
169.15599999999989
 31
0.0
  0
LINE
  5
61
  8
0
 62
     7
 10
136.90799999999999
 20
177.572
 30
0.0
 11
137.58699999999999
 21
175.67400000000001
 31
0.0
  0
LINE
  5
62
  8
0
 62
     7
 10
139.45400000000001
 20
186.56899999999999
 30
0.0
 11
137.58699999999999
 21
175.67400000000001
 31
0.0
  0
LINE
  5
63
  8
0
 62
     7
 10
136.90799999999999
 20
177.572
 30
0.0
 11
136.63499999999999
 21
167.387
 31
0.0
  0
LINE
  5
64
  8
0
 62
     7
 10
136.529
 20
189.715
 30
0.0
 11
136.036
 21
186.74600000000001
 31
0.0
  0
LINE
  5
65
  8
0
 62
     7
 10
136.529
 20
189.715
 30
0.0
 11
139.45400000000001
 21
178.18100000000001
 31
0.0
  0
LINE
  5
66
  8
0
 62
     7
 10
135.19300000000001
 20
199.68199999999999
 30
0.0
 11
136.036
 21
186.74600000000001
 31
0.0
  0
LINE
  5
67
  8
0
 62
     7
 10
140.22300000000001
 20
181.7759999999999
 30
0.0
 11
142.56299999999999
 21
181.25700000000001
 31
0.0
  0
LINE
  5
68
  8
0
 62
     7
 10
140.22300000000001
 20
181.7759999999999
 30
0.0
 11
151.49199999999999
 21
183.59999999999999
 31
0.0
  0
LINE
  5
69
  8
0
 62
     7
 10
117.673
 20
178.91499999999999
 30
0.0
 11
126.28
 21
179.72499999999999
 31
0.0
  0
LINE
  5
6A
  8
0
 62
     7
 10
131.976
 20
180.261
 30
0.0
 11
142.56299999999999
 21
181.25700000000001
 31
0.0
  0
LINE
  5
6B
  8
0
 62
     7
 10
120.55200000000001
 20
170.345
 30
0.0
 11
125.65300000000001
 21
175.80000000000001
 31
0.0
  0
LINE
  5
6C
  8
0
 62
     7
 10
124.67
 20
175.80000000000001
 30
0.0
 11
126.67
 21
175.80000000000001
 31
0.0
  0
LINE
  5
6D
  8
0
 62
     7
 10
125.65300000000001
 20
174.82900000000001
 30
0.0
 11
125.65300000000001
 21
176.82900000000001
 31
0.0
  0
LINE
  5
6E
  8
0
 62
     7
 10
119.95099999999999
 20
194.63300000000001
 30
0.0
 11
127.258
 21
188.59999999999999
 31
0.0
  0
LINE
  5
6F
  8
0
 62
     7
 10
127.254
 20
187.56399999999999
 30
0.0
 11
127.254
 21
189.56200000000001
 31
0.0
  0
LINE
  5
70
  8
0
 62
     7
 10
126.259
 20
188.59999999999999
 30
0.0
 11
128.25800000000001
 21
188.59999999999999
 31
0.0
  0
LINE
  5
71
  8
0
 62
     7
 10
127.37
 20
175.80000000000001
 30
0.0
 11
131.785
 21
175.80000000000001
 31
0.0
  0
LINE
  5
72
  8
0
 62
     7
 10
139.45400000000001
 20
164.40000000000001
 30
0.0
 11
139.45400000000001
 21
160.422
 31
0.0
  0
LINE
  5
73
  8
0
 62
     7
 10
125.65300000000001
 20
174.18799999999999
 30
0.0
 11
125.65300000000001
 21
160.63399999999999
 31
0.0
  0
LINE
  5
74
  8
0
 62
     7
 10
128.958
 20
188.59999999999999
 30
0.0
 11
131.785
 21
188.59999999999999
 31
0.0
  0
LINE
  5
75
  8
0
 62
     7
 10
139.45400000000001
 20
202.80000000000001
 30
0.0
 11
139.45400000000001
 21
204.09999999999999
 31
0.0
  0
LINE
  5
76
  8
0
 62
     7
 10
127.254
 20
190.262
 30
0.0
 11
127.254
 21
204.089
 31
0.0
  0
LINE
  5
77
  8
0
 62
     7
 10
136.63499999999999
 20
167.387
 30
0.0
 11
136.66200000000001
 21
168.38800000000001
 31
0.0
  0
LINE
  5
78
  8
0
 62
     7
 10
136.66200000000001
 20
168.38800000000001
 30
0.0
 11
136.80199999999999
 21
173.63399999999999
 31
0.0
  0
ARC
  5
79
  8
0
 62
     7
 10
111.360876
 20
183.560114
 30
0.0
 40
50.092838
 50
349.531901
 51
0.045756
  0
ARC
  5
7A
  8
0
 62
     7
 10
153.07350099999999
 20
176.01084399999999
 30
0.0
 40
7.7046950000000001
 50
279.14357799999999
 51
348.36861499999998
  0
ARC
  5
7B
  8
0
 62
     7
 10
139.46115399999999
 20
272.29843899999997
 30
0.0
 40
104.94842300000001
 50
269.99584399999998
 51
278.12721199999999
  0
ARC
  5
7C
  8
0
 62
     7
 10
167.628197
 20
183.56759500000001
 30
0.0
 40
50.174858
 50
179.96284199999999
 51
190.4595009999999
  0
ARC
  5
7D
  8
0
 62
     7
 10
111.513622
 20
183.60248000000001
 30
0.0
 40
49.940075999999991
 50
359.99729000000002
 51
7.043641
  0
ARC
  5
7E
  8
0
 62
     7
 10
137.40077400000001
 20
139.552964
 30
0.0
 40
60.538054000000002
 50
73.717551999999984
 51
78.643174000000002
  0
ARC
  5
7F
  8
0
 62
     7
 10
139.623198
 20
149.600043
 30
0.0
 40
50.250461999999999
 50
78.871731000000011
 51
90.193453999999974
  0
ARC
  5
80
  8
0
 62
     7
 10
151.43937
 20
188.38576800000001
 30
0.0
 40
9.7302309999999999
 50
7.9193939999999996
 51
72.446421000000001
  0
ARC
  5
81
  8
0
 62
     7
 10
167.34759099999999
 20
183.60251500000001
 30
0.0
 40
49.894241999999998
 50
172.94987699999999
 51
180.00277299999991
  0
ARC
  5
82
  8
0
 62
     7
 10
141.501587
 20
139.57578899999999
 30
0.0
 40
60.514735000000002
 50
101.356622
 51
106.28391499999999
  0
ARC
  5
83
  8
0
 62
     7
 10
139.28350599999999
 20
149.60462699999999
 30
0.0
 40
50.24588
 50
89.806117
 51
101.128765
  0
ARC
  5
84
  8
0
 62
     7
 10
127.466458
 20
188.387089
 30
0.0
 40
9.7285000000000004
 50
107.547124
 51
172.08702199999999
  0
ARC
  5
85
  8
0
 62
     7
 10
125.832745
 20
176.00957700000001
 30
0.0
 40
7.7033179999999994
 50
191.623897
 51
260.86083000000002
  0
ARC
  5
86
  8
0
 62
     7
 10
139.44589400000001
 20
272.29843899999997
 30
0.0
 40
104.94842300000001
 50
261.87280800000002
 51
270.00417599999997
  0
LINE
  5
87
  8
0
 62
     7
 10
161.45400000000001
 20
176.89500000000001
 30
0.0
 11
161.45400000000001
 21
155.14500000000001
 31
0.0
  0
LINE
  5
88
  8
0
 62
     7
 10
117.453
 20
176.89500000000001
 30
0.0
 11
117.453
 21
155.14500000000001
 31
0.0
  0
LINE
  5
89
  8
0
 62
     7
 10
171.16900000000001
 20
187.65000000000001
 30
0.0
 11
143.95599999999999
 21
187.65000000000001
 31
0.0
  0
LINE
  5
8A
  8
0
 62
     7
 10
176.67400000000001
 20
199.84999999999999
 30
0.0
 11
149.29300000000001
 21
199.84999999999999
 31
0.0
  0
LINE
  5
8B
  8
0
 62
     7
 10
176.67400000000001
 20
167.34999999999999
 30
0.0
 11
149.643
 21
167.34999999999999
 31
0.0
  0
LINE
  5
8C
  8
0
  6
AIGENLINE002
 62
     7
 10
135.65100000000001
 20
187.65000000000001
 30
0.0
 11
143.256
 21
187.65000000000001
 31
0.0
  0
LINE
  5
8D
  8
0
  6
AIGENLINE002
 62
     7
 10
115.953
 20
183.59999999999999
 30
0.0
 11
162.95400000000001
 21
183.59999999999999
 31
0.0
  0
LINE
  5
8E
  8
0
 62
     7
 10
129.02199999999999
 20
203.863
 30
0.0
 11
127.254
 21
203.38900000000001
 31
0.0
  0
LINE
  5
8F
  8
0
 62
     7
 10
127.254
 20
203.38900000000001
 30
0.0
 11
129.02199999999999
 21
202.91499999999999
 31
0.0
  0
LINE
  5
90
  8
0
 62
     7
 10
129.02199999999999
 20
202.91499999999999
 30
0.0
 11
129.02199999999999
 21
203.863
 31
0.0
  0
LINE
  5
91
  8
0
 62
     7
 10
137.685
 20
202.92699999999999
 30
0.0
 11
139.45400000000001
 21
203.40000000000001
 31
0.0
  0
LINE
  5
92
  8
0
 62
     7
 10
139.45400000000001
 20
203.40000000000001
 30
0.0
 11
137.685
 21
203.874
 31
0.0
  0
LINE
  5
93
  8
0
 62
     7
 10
137.685
 20
203.874
 30
0.0
 11
137.685
 21
202.92699999999999
 31
0.0
  0
LINE
  5
94
  8
0
 62
     7
 10
127.27500000000001
 20
203.39500000000001
 30
0.0
 11
139.43199999999999
 21
203.39500000000001
 31
0.0
  0
LINE
  5
95
  8
0
 62
     7
 10
127.422
 20
161.744
 30
0.0
 11
125.65300000000001
 21
161.27000000000001
 31
0.0
  0
LINE
  5
96
  8
0
 62
     7
 10
125.65300000000001
 20
161.27000000000001
 30
0.0
 11
127.422
 21
160.79599999999999
 31
0.0
  0
LINE
  5
97
  8
0
 62
     7
 10
127.422
 20
160.79599999999999
 30
0.0
 11
127.422
 21
161.744
 31
0.0
  0
LINE
  5
98
  8
0
 62
     7
 10
137.685
 20
160.80799999999999
 30
0.0
 11
139.45400000000001
 21
161.28100000000001
 31
0.0
  0
LINE
  5
99
  8
0
 62
     7
 10
139.45400000000001
 20
161.28100000000001
 30
0.0
 11
137.685
 21
161.755
 31
0.0
  0
LINE
  5
9A
  8
0
 62
     7
 10
137.685
 20
161.755
 30
0.0
 11
137.685
 21
160.80799999999999
 31
0.0
  0
LINE
  5
9B
  8
0
 62
     7
 10
125.675
 20
161.27600000000001
 30
0.0
 11
139.43199999999999
 21
161.27600000000001
 31
0.0
  0
LINE
  5
9C
  8
0
 62
     7
 10
119.22199999999999
 20
156.244
 30
0.0
 11
117.453
 21
155.77000000000001
 31
0.0
  0
LINE
  5
9D
  8
0
 62
     7
 10
117.453
 20
155.77000000000001
 30
0.0
 11
119.22199999999999
 21
155.29599999999999
 31
0.0
  0
LINE
  5
9E
  8
0
 62
     7
 10
119.22199999999999
 20
155.29599999999999
 30
0.0
 11
119.22199999999999
 21
156.244
 31
0.0
  0
LINE
  5
9F
  8
0
 62
     7
 10
159.685
 20
155.30799999999999
 30
0.0
 11
161.45400000000001
 21
155.78100000000001
 31
0.0
  0
LINE
  5
A0
  8
0
 62
     7
 10
161.45400000000001
 20
155.78100000000001
 30
0.0
 11
159.685
 21
156.255
 31
0.0
  0
LINE
  5
A1
  8
0
 62
     7
 10
159.685
 20
156.255
 30
0.0
 11
159.685
 21
155.30799999999999
 31
0.0
  0
LINE
  5
A2
  8
0
 62
     7
 10
117.47499999999999
 20
155.77600000000001
 30
0.0
 11
161.43199999999999
 21
155.77600000000001
 31
0.0
  0
LINE
  5
A3
  8
0
  6
AIGENLINE002
 62
     7
 10
139.45400000000001
 20
202.09999999999999
 30
0.0
 11
139.45400000000001
 21
165.09999999999999
 31
0.0
  0
LINE
  5
A4
  8
0
 62
     7
 10
170.00099999999989
 20
189.41900000000001
 30
0.0
 11
170.47399999999999
 21
187.65000000000001
 31
0.0
  0
LINE
  5
A5
  8
0
 62
     7
 10
170.47399999999999
 20
187.65000000000001
 30
0.0
 11
170.94800000000001
 21
189.41900000000001
 31
0.0
  0
LINE
  5
A6
  8
0
 62
     7
 10
170.94800000000001
 20
189.41900000000001
 30
0.0
 11
170.00099999999989
 21
189.41900000000001
 31
0.0
  0
LINE
  5
A7
  8
0
 62
     7
 10
170.93600000000001
 20
198.08199999999999
 30
0.0
 11
170.46299999999999
 21
199.84999999999999
 31
0.0
  0
LINE
  5
A8
  8
0
 62
     7
 10
170.46299999999999
 20
199.84999999999999
 30
0.0
 11
169.989
 21
198.08199999999999
 31
0.0
  0
LINE
  5
A9
  8
0
 62
     7
 10
169.989
 20
198.08199999999999
 30
0.0
 11
170.93600000000001
 21
198.08199999999999
 31
0.0
  0
LINE
  5
AA
  8
0
 62
     7
 10
170.46899999999999
 20
187.672
 30
0.0
 11
170.46899999999999
 21
199.82900000000001
 31
0.0
  0
LINE
  5
AB
  8
0
 62
     7
 10
175.50099999999989
 20
169.119
 30
0.0
 11
175.97399999999999
 21
167.34999999999999
 31
0.0
  0
LINE
  5
AC
  8
0
 62
     7
 10
175.97399999999999
 20
167.34999999999999
 30
0.0
 11
176.44800000000001
 21
169.119
 31
0.0
  0
LINE
  5
AD
  8
0
 62
     7
 10
176.44800000000001
 20
169.119
 30
0.0
 11
175.50099999999989
 21
169.119
 31
0.0
  0
LINE
  5
AE
  8
0
 62
     7
 10
176.43700000000001
 20
198.08199999999999
 30
0.0
 11
175.96299999999999
 21
199.84999999999999
 31
0.0
  0
LINE
  5
AF
  8
0
 62
     7
 10
175.96299999999999
 20
199.84999999999999
 30
0.0
 11
175.489
 21
198.08199999999999
 31
0.0
  0
LINE
  5
B0
  8
0
 62
     7
 10
175.489
 20
198.08199999999999
 30
0.0
 11
176.43700000000001
 21
198.08199999999999
 31
0.0
  0
LINE
  5
B1
  8
0
 62
     7
 10
175.96899999999999
 20
167.37200000000001
 30
0.0
 11
175.96899999999999
 21
199.82900000000001
 31
0.0
  0
LINE
  5
B2
  8
0
 62
     7
 10
38.025500000000001
 20
179.14699999999999
 30
0.0
 11
38.424100000000003
 21
181.40000000000001
 31
0.0
  0
LINE
  5
B3
  8
0
 62
     7
 10
38.424100000000003
 20
181.40000000000001
 30
0.0
 11
36.952300000000001
 21
179.648
 31
0.0
  0
LINE
  5
B4
  8
0
 62
     7
 10
36.952300000000001
 20
179.648
 30
0.0
 11
38.025500000000001
 21
179.14699999999999
 31
0.0
  0
LINE
  5
B5
  8
0
 62
     7
 10
38.430799999999998
 20
181.39699999999999
 30
0.0
 11
35.518000000000001
 21
175.02000000000001
 31
0.0
  0
LINE
  5
B6
  8
0
 62
     7
 10
35.518000000000001
 20
175.02000000000001
 30
0.0
 11
23.2258
 21
175.02000000000001
 31
0.0
  0
LINE
  5
B7
  8
0
 62
     7
 10
136.97300000000001
 20
107.095
 30
0.0
 11
137.565
 21
104.884
 31
0.0
  0
LINE
  5
B8
  8
0
 62
     7
 10
137.565
 20
104.884
 30
0.0
 11
138.15799999999999
 21
107.095
 31
0.0
  0
LINE
  5
B9
  8
0
 62
     7
 10
138.15799999999999
 20
107.095
 30
0.0
 11
136.97300000000001
 21
107.095
 31
0.0
  0
LINE
  5
BA
  8
0
 62
     7
 10
138.143
 20
112.65600000000001
 30
0.0
 11
137.55099999999999
 21
114.867
 31
0.0
  0
LINE
  5
BB
  8
0
 62
     7
 10
137.55099999999999
 20
114.867
 30
0.0
 11
136.959
 21
112.65600000000001
 31
0.0
  0
LINE
  5
BC
  8
0
 62
     7
 10
136.959
 20
112.65600000000001
 30
0.0
 11
138.143
 21
112.65600000000001
 31
0.0
  0
LINE
  5
BD
  8
0
 62
     7
 10
137.55799999999999
 20
104.884
 30
0.0
 11
137.55799999999999
 21
121.214
 31
0.0
  0
LINE
  5
BE
  8
0
 62
     7
 10
152.953
 20
110.167
 30
0.0
 11
152.953
 21
88.345600000000005
 31
0.0
  0
LINE
  5
BF
  8
0
 62
     7
 10
139.453
 20
96.590800000000016
 30
0.0
 11
139.453
 21
88.345600000000005
 31
0.0
  0
LINE
  5
C0
  8
0
 62
     7
 10
141.22200000000001
 20
89.507900000000006
 30
0.0
 11
139.453
 21
89.034599999999998
 31
0.0
  0
LINE
  5
C1
  8
0
 62
     7
 10
139.453
 20
89.034599999999998
 30
0.0
 11
141.22200000000001
 21
88.560500000000005
 31
0.0
  0
LINE
  5
C2
  8
0
 62
     7
 10
141.22200000000001
 20
88.560500000000005
 30
0.0
 11
141.22200000000001
 21
89.507900000000006
 31
0.0
  0
LINE
  5
C3
  8
0
 62
     7
 10
151.185
 20
88.572199999999995
 30
0.0
 11
152.953
 21
89.045599999999993
 31
0.0
  0
LINE
  5
C4
  8
0
 62
     7
 10
152.953
 20
89.045599999999993
 30
0.0
 11
151.185
 21
89.519599999999997
 31
0.0
  0
LINE
  5
C5
  8
0
 62
     7
 10
151.185
 20
89.519599999999997
 30
0.0
 11
151.185
 21
88.572199999999995
 31
0.0
  0
LINE
  5
C6
  8
0
 62
     7
 10
139.47499999999999
 20
89.040099999999995
 30
0.0
 11
152.93199999999999
 21
89.040099999999995
 31
0.0
  0
LINE
  5
C7
  8
0
 62
     7
 10
73.849900000000005
 20
192.25800000000001
 30
0.0
 11
68.1892
 21
192.25800000000001
 31
0.0
  0
LINE
  5
C8
  8
0
 62
     7
 10
60.043599999999998
 20
184.94999999999999
 30
0.0
 11
62.025500000000001
 21
186.095
 31
0.0
  0
LINE
  5
C9
  8
0
 62
     7
 10
62.025500000000001
 20
186.095
 30
0.0
 11
60.881100000000004
 21
184.113
 31
0.0
  0
LINE
  5
CA
  8
0
 62
     7
 10
60.881100000000004
 20
184.113
 30
0.0
 11
60.043599999999998
 21
184.94999999999999
 31
0.0
  0
LINE
  5
CB
  8
0
 62
     7
 10
67.189099999999996
 20
190.42099999999999
 30
0.0
 11
65.207499999999996
 21
189.27699999999999
 31
0.0
  0
LINE
  5
CC
  8
0
 62
     7
 10
65.207499999999996
 20
189.27699999999999
 30
0.0
 11
66.351600000000005
 21
191.25899999999999
 31
0.0
  0
LINE
  5
CD
  8
0
 62
     7
 10
66.351600000000005
 20
191.25899999999999
 30
0.0
 11
67.189099999999996
 21
190.42099999999999
 31
0.0
  0
LINE
  5
CE
  8
0
 62
     7
 10
68.1892
 20
192.25800000000001
 30
0.0
 11
59.385199999999998
 21
183.45400000000001
 31
0.0
  0
LINE
  5
CF
  8
0
 62
     7
 10
88.585899999999995
 20
174.27699999999999
 30
0.0
 11
88.585899999999995
 21
148.01499999999999
 31
0.0
  0
LINE
  5
D0
  8
0
 62
     7
 10
87.985900000000001
 20
171.572
 30
0.0
 11
87.985900000000001
 21
153.52600000000001
 31
0.0
  0
LINE
  5
D1
  8
0
 62
     7
 10
38.585700000000003
 20
174.27699999999999
 30
0.0
 11
38.585700000000003
 21
148.01499999999999
 31
0.0
  0
ARC
  5
D2
  8
0
  6
AIGENLINE001
 62
     7
 10
116.835461
 20
114.359408
 30
0.0
 40
0.507707
 50
35.112828
 51
89.552182000000002
  0
ARC
  5
D3
  8
0
  6
AIGENLINE001
 62
     7
 10
150.93337600000001
 20
114.351786
 30
0.0
 40
0.5154250000000001
 50
91.190845999999993
 51
161.78004000000001
  0
ARC
  5
D4
  8
0
  6
AIGENLINE001
 62
     7
 10
122.739921
 20
122.452639
 30
0.0
 40
28.819051999999999
 50
334.75850800000001
 51
344.008802
  0
ARC
  5
D5
  8
0
  6
AIGENLINE001
 62
     7
 10
130.72976800000001
 20
118.762489
 30
0.0
 40
20.018601
 50
328.87624
 51
334.56005399999998
  0
ARC
  5
D6
  8
0
  6
AIGENLINE001
 62
     7
 10
136.46043999999989
 20
115.37280199999999
 30
0.0
 40
13.360891000000001
 50
321.20612499999999
 51
328.617367
  0
ARC
  5
D7
  8
0
  6
AIGENLINE001
 62
     7
 10
140.20138600000001
 20
112.44779200000001
 30
0.0
 40
8.6128379999999982
 50
312.06253400000003
 51
320.78028599999999
  0
ARC
  5
D8
  8
0
  6
AIGENLINE001
 62
     7
 10
142.211094
 20
110.278356
 30
0.0
 40
5.6559639999999991
 50
298.23270100000002
 51
311.67109499999998
  0
ARC
  5
D9
  8
0
  6
AIGENLINE001
 62
     7
 10
143.110614
 20
108.719568
 30
0.0
 40
3.8574919999999988
 50
274.31455499999998
 51
297.41399799999999
  0
ARC
  5
DA
  8
0
  6
AIGENLINE001
 62
     7
 10
143.20372800000001
 20
108.27409299999999
 30
0.0
 40
3.4067899999999991
 50
269.99674900000002
 51
273.31659200000001
  0
ARC
  5
DB
  8
0
  6
AIGENLINE001
 62
     7
 10
129.644318
 20
123.267804
 30
0.0
 40
15.094229
 50
214.80715000000001
 51
217.82287199999999
  0
ARC
  5
DC
  8
0
  6
AIGENLINE001
 62
     7
 10
136.19712100000001
 20
128.27369899999999
 30
0.0
 40
23.340170000000001
 50
217.665479
 51
226.90957299999999
  0
ARC
  5
DD
  8
0
  6
AIGENLINE001
 62
     7
 10
137.22845599999999
 20
129.19446400000001
 30
0.0
 40
24.717452999999999
 50
226.62181899999999
 51
244.250122
  0
ARC
  5
DE
  8
0
  6
AIGENLINE001
 62
     7
 10
135.70980299999999
 20
126.48935400000001
 30
0.0
 40
21.622052
 50
244.76057900000001
 51
269.98334399999999
  0
ARC
  5
DF
  8
0
 62
     7
 10
151.23862299999999
 20
114.359461
 30
0.0
 40
0.507648
 50
40.834297999999997
 51
89.654833999999994
  0
ARC
  5
E0
  8
0
 62
     7
 10
148.97633300000001
 20
112.37093299999999
 30
0.0
 40
3.5196419999999988
 50
31.496970999999998
 51
41.245769000000003
  0
ARC
  5
E1
  8
0
 62
     7
 10
147.352194
 20
111.312585
 30
0.0
 40
5.4576960000000003
 50
23.74364400000001
 51
32.062638
  0
ARC
  5
E2
  8
0
 62
     7
 10
145.84276800000001
 20
110.606835
 30
0.0
 40
7.1236289999999993
 50
4.8705790000000002
 51
24.051288
  0
ARC
  5
E3
  8
0
 62
     7
 10
148.03633500000001
 20
110.86063300000001
 30
0.0
 40
4.9168849999999988
 50
0.077906
 51
4.094053999999999
  0
ARC
  5
E4
  8
0
  6
AIGENLINE001
 62
     7
 10
142.46131
 20
107.395549
 30
0.0
 40
6.5123119999999997
 50
281.01716800000003
 51
295.27341999999999
  0
ARC
  5
E5
  8
0
  6
AIGENLINE001
 62
     7
 10
143.80717000000001
 20
100.51196299999999
 30
0.0
 40
0.5016390000000001
 50
101.65471700000001
 51
134.918835
  0
LINE
  5
E6
  8
0
  6
AIGENLINE001
 62
     7
 10
143.453
 20
100.867
 30
0.0
 11
143.078
 21
100.492
 31
0.0
  0
LINE
  5
E7
  8
0
  6
AIGENLINE001
 62
     7
 10
143.078
 20
100.492
 30
0.0
 11
143.09899999999999
 21
100.514
 31
0.0
  0
ARC
  5
E8
  8
0
  6
AIGENLINE001
 62
     7
 10
142.744992
 20
100.86964500000001
 30
0.0
 40
0.502356
 50
270.117572
 51
314.884052
  0
LINE
  5
E9
  8
0
  6
AIGENLINE001
 62
     7
 10
142.74600000000001
 20
100.367
 30
0.0
 11
139.453
 21
100.367
 31
0.0
  0
LINE
  5
EA
  8
0
 62
     7
 10
149.08500000000001
 20
109.498
 30
0.0
 11
144.453
 21
99.867099999999994
 31
0.0
  0
LINE
  5
EB
  8
0
 62
     7
 10
120.69499999999999
 20
109.596
 30
0.0
 11
125.453
 21
99.867099999999994
 31
0.0
  0
ARC
  5
EC
  8
0
 62
     7
 10
120.132142
 20
109.328362
 30
0.0
 40
0.622842
 50
25.455969
 51
45.889396999999988
  0
LINE
  5
ED
  8
0
 62
     7
 10
119.453
 20
110.867
 30
0.0
 11
120.566
 21
109.776
 31
0.0
  0
LINE
  5
EE
  8
0
 62
     7
 10
125.453
 20
99.867099999999994
 30
0.0
 11
144.453
 21
99.867099999999994
 31
0.0
  0
LINE
  5
EF
  8
0
 62
     7
 10
149.08500000000001
 20
109.498
 30
0.0
 11
120.742
 21
109.498
 31
0.0
  0
ARC
  5
F0
  8
0
 62
     7
 10
116.76076399999999
 20
114.57017999999999
 30
0.0
 40
0.30789
 50
180.522064
 51
195.38774699999999
  0
ARC
  5
F1
  8
0
 62
     7
 10
116.763902
 20
114.55606
 30
0.0
 40
0.311221
 50
91.951989999999995
 51
177.916417
  0
LINE
  5
F2
  8
0
 62
     7
 10
116.464
 20
114.488
 30
0.0
 11
117.65300000000001
 21
110.867
 31
0.0
  0
LINE
  5
F3
  8
0
 62
     7
 10
152.953
 20
110.867
 30
0.0
 11
117.65300000000001
 21
110.867
 31
0.0
  0
LINE
  5
F4
  8
0
 62
     7
 10
151.24199999999999
 20
114.867
 30
0.0
 11
116.753
 21
114.867
 31
0.0
  0
ARC
  5
F5
  8
0
 62
     7
 10
88.261064999999988
 20
114.56923500000001
 30
0.0
 40
0.3204849999999999
 50
345.4056490000001
 51
359.66736400000002
  0
ARC
  5
F6
  8
0
 62
     7
 10
88.270150000000015
 20
114.55569199999999
 30
0.0
 40
0.311614
 50
2.1485389999999991
 51
87.917269999999988
  0
ARC
  5
F7
  8
0
 62
     7
 10
78.278556999999992
 20
100.27758300000001
 30
0.0
 40
0.410576
 50
270.916269
 51
335.10872000000001
  0
LINE
  5
F8
  8
0
 62
     7
 10
88.571200000000005
 20
114.488
 30
0.0
 11
87.581400000000002
 21
110.867
 31
0.0
  0
LINE
  5
F9
  8
0
 62
     7
 10
63.581400000000002
 20
110.867
 30
0.0
 11
87.581400000000002
 21
110.867
 31
0.0
  0
LINE
  5
FA
  8
0
 62
     7
 10
63.581400000000002
 20
114.867
 30
0.0
 11
88.281499999999994
 21
114.867
 31
0.0
  0
ARC
  5
FB
  8
0
 62
     7
 10
47.349167999999992
 20
156.39372800000001
 30
0.0
 40
58.702379999999998
 50
307.49570199999999
 51
309.14542399999999
  0
ARC
  5
FC
  8
0
 62
     7
 10
79.942629000000011
 20
113.88561199999999
 30
0.0
 40
5.1368039999999988
 50
306.99292200000002
 51
307.664647
  0
ARC
  5
FD
  8
0
 62
     7
 10
83.392023999999992
 20
109.30133499999999
 30
0.0
 40
0.60027
 50
126.6714139999999
 51
154.958055
  0
LINE
  5
FE
  8
0
 62
     7
 10
82.848200000000006
 20
109.55500000000001
 30
0.0
 11
78.65100000000001
 21
100.105
 31
0.0
  0
LINE
  5
FF
  8
0
 62
     7
 10
78.284800000000004
 20
99.867099999999994
 30
0.0
 11
63.581400000000002
 21
99.867099999999994
 31
0.0
  0
LINE
  5
100
  8
0
 62
     7
 10
63.581400000000002
 20
109.498
 30
0.0
 11
82.822299999999998
 21
109.498
 31
0.0
  0
ARC
  5
101
  8
0
 62
     7
 10
38.901658000000012
 20
114.56923500000001
 30
0.0
 40
0.3204849999999999
 50
180.33265599999999
 51
194.594371
  0
ARC
  5
102
  8
0
 62
     7
 10
38.892574000000003
 20
114.55569199999999
 30
0.0
 40
0.311614
 50
92.082709999999992
 51
177.85144099999999
  0
ARC
  5
103
  8
0
 62
     7
 10
48.884166999999998
 20
100.27758300000001
 30
0.0
 40
0.410576
 50
204.8913
 51
269.08375100000001
  0
LINE
  5
104
  8
0
 62
     7
 10
38.591500000000011
 20
114.488
 30
0.0
 11
39.581299999999999
 21
110.867
 31
0.0
  0
LINE
  5
105
  8
0
 62
     7
 10
63.581400000000002
 20
110.867
 30
0.0
 11
39.581299999999999
 21
110.867
 31
0.0
  0
LINE
  5
106
  8
0
 62
     7
 10
63.581400000000002
 20
114.867
 30
0.0
 11
38.8812
 21
114.867
 31
0.0
  0
ARC
  5
107
  8
0
  6
AIGENLINE001
 62
     7
 10
67.665732999999989
 20
112.282388
 30
0.0
 40
0.415579
 50
272.11238800000001
 51
357.88762200000002
  0
LINE
  5
108
  8
0
  6
AIGENLINE001
 62
     7
 10
67.681100000000001
 20
111.867
 30
0.0
 11
59.481000000000002
 21
111.867
 31
0.0
  0
ARC
  5
109
  8
0
  6
AIGENLINE001
 62
     7
 10
59.496301000000003
 20
112.282388
 30
0.0
 40
0.415578
 50
182.112381
 51
267.88764900000001
  0
ARC
  5
10A
  8
0
  6
AIGENLINE001
 62
     7
 10
59.496301000000003
 20
112.251752
 30
0.0
 40
0.415578
 50
92.112351000000004
 51
177.887619
  0
LINE
  5
10B
  8
0
  6
AIGENLINE001
 62
     7
 10
59.481000000000002
 20
112.667
 30
0.0
 11
67.681100000000001
 21
112.667
 31
0.0
  0
ARC
  5
10C
  8
0
  6
AIGENLINE001
 62
     7
 10
67.665738000000005
 20
112.251757
 30
0.0
 40
0.4155730000000001
 50
2.1117140000000001
 51
87.888276000000005
  0
ARC
  5
10D
  8
0
  6
AIGENLINE001
 62
     7
 10
134.995632
 20
103.25022300000001
 30
0.0
 40
0.618947
 50
35.052427000000002
 51
85.826851000000005
  0
ARC
  5
10E
  8
0
  6
AIGENLINE001
 62
     7
 10
135.00179900000001
 20
103.259995
 30
0.0
 40
0.6083029999999999
 50
5.0512959999999989
 51
34.632561000000003
  0
LINE
  5
10F
  8
0
  6
AIGENLINE001
 62
     7
 10
135.608
 20
103.31399999999999
 30
0.0
 11
135.82499999999999
 21
100.824
 31
0.0
  0
ARC
  5
110
  8
0
  6
AIGENLINE001
 62
     7
 10
136.33837700000001
 20
100.884199
 30
0.0
 40
0.5171390000000001
 50
186.710656
 51
268.29001399999999
  0
LINE
  5
111
  8
0
  6
AIGENLINE001
 62
     7
 10
136.32299999999989
 20
100.367
 30
0.0
 11
139.453
 21
100.367
 31
0.0
  0
ARC
  5
112
  8
0
  6
AIGENLINE001
 62
     7
 10
66.695357999999999
 20
100.884702
 30
0.0
 40
0.5176560000000001
 50
271.75938500000001
 51
353.23998499999999
  0
ARC
  5
113
  8
0
  6
AIGENLINE001
 62
     7
 10
68.038848000000002
 20
103.250331
 30
0.0
 40
0.6188360000000001
 50
94.168227000000002
 51
144.95245600000001
  0
ARC
  5
114
  8
0
  6
AIGENLINE001
 62
     7
 10
68.028745000000001
 20
103.261437
 30
0.0
 40
0.604196
 50
145.26455100000001
 51
175.05155199999999
  0
LINE
  5
115
  8
0
  6
AIGENLINE001
 62
     7
 10
67.4268
 20
103.31399999999999
 30
0.0
 11
67.209400000000002
 21
100.824
 31
0.0
  0
LINE
  5
116
  8
0
  6
AIGENLINE001
 62
     7
 10
66.711299999999994
 20
100.367
 30
0.0
 11
63.581000000000003
 21
100.367
 31
0.0
  0
ARC
  5
117
  8
0
  6
AIGENLINE001
 62
     7
 10
60.466676999999997
 20
100.884702
 30
0.0
 40
0.5176560000000001
 50
186.76003499999999
 51
268.240635
  0
ARC
  5
118
  8
0
  6
AIGENLINE001
 62
     7
 10
59.123578000000002
 20
103.251081
 30
0.0
 40
0.618084
 50
35.011451999999998
 51
85.831108
  0
ARC
  5
119
  8
0
  6
AIGENLINE001
 62
     7
 10
59.133288999999998
 20
103.261437
 30
0.0
 40
0.604196
 50
4.9484279999999989
 51
34.735429000000003
  0
LINE
  5
11A
  8
0
  6
AIGENLINE001
 62
     7
 10
59.735199999999999
 20
103.31399999999999
 30
0.0
 11
59.952599999999997
 21
100.824
 31
0.0
  0
LINE
  5
11B
  8
0
  6
AIGENLINE001
 62
     7
 10
60.450800000000001
 20
100.367
 30
0.0
 11
63.581000000000003
 21
100.367
 31
0.0
  0
ARC
  5
11C
  8
0
 62
     7
 10
51.623649
 20
179.898831
 30
0.0
 40
18.485889
 50
98.467557999999997
 51
102.825108
  0
ARC
  5
11D
  8
0
 62
     7
 10
52.877204000000013
 20
171.98489900000001
 30
0.0
 40
26.498245000000001
 50
95.914745000000025
 51
98.628791000000007
  0
ARC
  5
11E
  8
0
 62
     7
 10
54.343203000000003
 20
158.55490800000001
 30
0.0
 40
40.007877000000001
 50
94.985393000000016
 51
96.021082000000007
  0
ARC
  5
11F
  8
0
 62
     7
 10
57.16099899999999
 20
125.732871
 30
0.0
 40
72.950630000000004
 50
93.785163999999995
 51
94.949922000000015
  0
ARC
  5
120
  8
0
 62
     7
 10
58.858511999999997
 20
104.032298
 30
0.0
 40
94.716288000000006
 50
92.770431000000002
 51
93.943187999999978
  0
ARC
  5
121
  8
0
 62
     7
 10
61.053953999999997
 20
60.633966000000001
 30
0.0
 40
138.17004499999999
 50
92.252077
 51
92.809925000000007
  0
ARC
  5
122
  8
0
 62
     7
 10
64.469498999999985
 20
-27.013916999999999
 30
0.0
 40
225.88444899999999
 50
91.792383999999998
 51
92.244131000000024
  0
ARC
  5
123
  8
0
 62
     7
 10
62.778433999999997
 20
29.949867000000001
 30
0.0
 40
168.895668
 50
90.382623999999979
 51
91.823418000000004
  0
ARC
  5
124
  8
0
 62
     7
 10
63.722530999999996
 20
-57.560645999999998
 30
0.0
 40
256.41078700000003
 50
90.031611999999996
 51
90.462993000000012
  0
ARC
  5
125
  8
0
 62
     7
 10
62.810339999999997
 20
-96.176075999999995
 30
0.0
 40
295.02718399999998
 50
89.210496000000006
 51
89.850319999999996
  0
ARC
  5
126
  8
0
 62
     7
 10
64.171371999999991
 20
10.759247
 30
0.0
 40
188.083293
 50
87.718730000000008
 51
89.176213000000004
  0
ARC
  5
127
  8
0
 62
     7
 10
65.811273999999983
 20
56.689225999999998
 30
0.0
 40
142.12456499999999
 50
86.851767000000009
 51
87.642278999999988
  0
ARC
  5
128
  8
0
 62
     7
 10
57.276340000000012
 20
-99.222543999999985
 30
0.0
 40
298.269768
 50
86.586816999999996
 51
86.859546999999992
  0
ARC
  5
129
  8
0
 62
     7
 10
71.815386000000004
 20
146.49848499999999
 30
0.0
 40
52.119140999999999
 50
84.680882999999994
 51
86.459337000000005
  0
ARC
  5
12A
  8
0
 62
     7
 10
74.007509999999996
 20
170.71855400000001
 30
0.0
 40
27.800222999999999
 50
80.831716
 51
84.551905000000005
  0
ARC
  5
12B
  8
0
 62
     7
 10
75.365543999999986
 20
179.601382
 30
0.0
 40
18.814641999999999
 50
76.861698000000004
 51
80.604365999999999
  0
LINE
  5
12C
  8
0
 62
     7
 10
47.520200000000003
 20
197.92400000000001
 30
0.0
 11
47.5075
 21
197.92400000000001
 31
0.0
  0
ARC
  5
12D
  8
0
 62
     7
 10
50.010570000000001
 20
187.98058599999999
 30
0.0
 40
10.253182000000001
 50
104.130315
 51
151.945851
  0
ARC
  5
12E
  8
0
 62
     7
 10
50.870253999999989
 20
187.57915
 30
0.0
 40
11.200766
 50
152.20185000000001
 51
161.86391599999999
  0
ARC
  5
12F
  8
0
 62
     7
 10
54.299156999999987
 20
186.37628100000001
 30
0.0
 40
14.833937000000001
 50
161.57121599999999
 51
168.66329200000001
  0
ARC
  5
130
  8
0
 62
     7
 10
61.787345999999999
 20
184.75772900000001
 30
0.0
 40
22.494482999999999
 50
168.37040099999999
 51
173.51156700000001
  0
ARC
  5
131
  8
0
 62
     7
 10
75.923597000000001
 20
183.21371400000001
 30
0.0
 40
36.714719000000002
 50
173.61035799999999
 51
177.83237800000001
  0
ARC
  5
132
  8
0
 62
     7
 10
97.573175000000006
 20
182.18522100000001
 30
0.0
 40
58.388080000000002
 50
177.627376
 51
180.20067599999999
  0
ARC
  5
133
  8
0
 62
     7
 10
205.543779
 20
182.70586599999999
 30
0.0
 40
166.359906
 50
180.24976000000001
 51
180.63512
  0
ARC
  5
134
  8
0
 62
     7
 10
99.434357000000006
 20
181.55948699999999
 30
0.0
 40
60.244304
 50
180.66350499999999
 51
182.31962799999999
  0
ARC
  5
135
  8
0
 62
     7
 10
72.990634
 20
180.547078
 30
0.0
 40
33.781323999999998
 50
182.41918200000001
 51
185.782062
  0
ARC
  5
136
  8
0
 62
     7
 10
61.321438999999991
 20
179.434462
 30
0.0
 40
22.059515000000001
 50
185.960375
 51
191.486918
  0
ARC
  5
137
  8
0
 62
     7
 10
54.966037
 20
178.21880200000001
 30
0.0
 40
15.589494999999999
 50
191.760098
 51
200.07170600000001
  0
ARC
  5
138
  8
0
 62
     7
 10
52.204380999999991
 20
177.302301
 30
0.0
 40
12.681331
 50
200.46456499999999
 51
202.50451799999999
  0
ARC
  5
139
  8
0
 62
     7
 10
50.89614199999999
 20
176.764421
 30
0.0
 40
11.266838999999999
 50
202.52392499999999
 51
221.825604
  0
ARC
  5
13A
  8
0
 62
     7
 10
49.982219000000001
 20
176.08606
 30
0.0
 40
10.133962
 50
222.41341
 51
256.99342000000001
  0
ARC
  5
13B
  8
0
 62
     7
 10
51.529392999999992
 20
182.76645199999999
 30
0.0
 40
16.991174999999998
 50
256.98003399999999
 51
261.516908
  0
ARC
  5
13C
  8
0
 62
     7
 10
52.794432999999998
 20
190.69083599999999
 30
0.0
 40
25.015612000000001
 50
261.32860899999997
 51
263.97543200000001
  0
ARC
  5
13D
  8
0
 62
     7
 10
54.322167999999998
 20
204.49254400000001
 30
0.0
 40
38.901499999999999
 50
263.87124599999999
 51
264.95016099999998
  0
ARC
  5
13E
  8
0
 62
     7
 10
56.892524000000002
 20
233.746951
 30
0.0
 40
68.268606999999989
 50
264.962469
 51
265.73838799999999
  0
ARC
  5
13F
  8
0
 62
     7
 10
62.797769999999993
 20
309.258152
 30
0.0
 40
144.01012
 50
265.62793299999998
 51
265.933582
  0
ARC
  5
140
  8
0
 62
     7
 10
60.969372999999997
 20
279.40035599999999
 30
0.0
 40
114.098212
 50
265.78619099999997
 51
268.21188100000001
  0
ARC
  5
141
  8
0
 62
     7
 10
64.007171999999997
 20
366.96939099999997
 30
0.0
 40
201.71962400000001
 50
268.12557800000002
 51
269.87896599999999
  0
ARC
  5
142
  8
0
 62
     7
 10
62.971362999999997
 20
386.90911799999998
 30
0.0
 40
221.659739
 50
270.15759700000001
 51
271.34764799999999
  0
ARC
  5
143
  8
0
 62
     7
 10
64.553390000000007
 20
312.07358699999997
 30
0.0
 40
146.80780899999999
 50
271.41728699999999
 51
273.655169
  0
ARC
  5
144
  8
0
 62
     7
 10
43.204180000000001
 20
632.99707599999999
 30
0.0
 40
468.4402849999999
 50
273.75870500000002
 51
273.95337799999999
  0
ARC
  5
145
  8
0
 62
     7
 10
72.221541000000002
 20
210.44065399999999
 30
0.0
 40
44.889130000000002
 50
274.18906800000002
 51
276.04388999999998
  0
ARC
  5
146
  8
0
 62
     7
 10
74.367765000000006
 20
189.64627999999999
 30
0.0
 40
23.984428000000001
 50
276.17562900000001
 51
280.18624899999998
  0
ARC
  5
147
  8
0
 62
     7
 10
75.845212000000004
 20
181.06137200000001
 30
0.0
 40
15.273685
 50
280.42658299999999
 51
287.23106100000001
  0
ARC
  5
148
  8
0
 62
     7
 10
77.185682999999997
 20
176.52599499999999
 30
0.0
 40
10.544972
 50
287.57439199999999
 51
300.67060099999998
  0
ARC
  5
149
  8
0
 62
     7
 10
78.039603999999997
 20
174.897085
 30
0.0
 40
8.7088710000000003
 50
301.30509599999999
 51
306.35127699999998
  0
ARC
  5
14A
  8
0
 62
     7
 10
77.529962999999995
 20
175.568153
 30
0.0
 40
9.5514379999999992
 50
306.42745100000002
 51
319.28938199999999
  0
ARC
  5
14B
  8
0
 62
     7
 10
76.045395999999997
 20
176.944579
 30
0.0
 40
11.574762
 50
318.9178490000001
 51
325.70077500000002
  0
ARC
  5
14C
  8
0
 62
     7
 10
76.597596999999993
 20
176.43537900000001
 30
0.0
 40
10.832197000000001
 50
326.27986499999997
 51
338.60954099999998
  0
ARC
  5
14D
  8
0
 62
     7
 10
73.861972999999992
 20
177.59331299999999
 30
0.0
 40
13.801939000000001
 50
338.27564999999998
 51
347.02291200000002
  0
ARC
  5
14E
  8
0
 62
     7
 10
68.529083999999997
 20
178.932537
 30
0.0
 40
19.299664
 50
346.703892
 51
352.98643700000002
  0
ARC
  5
14F
  8
0
 62
     7
 10
58.391833999999989
 20
180.33272299999999
 30
0.0
 40
29.532419000000001
 50
352.69172200000003
 51
356.37976800000001
  0
ARC
  5
150
  8
0
 62
     7
 10
42.03801
 20
181.54821100000001
 30
0.0
 40
45.930712999999997
 50
356.15468700000002
 51
356.85194100000001
  0
ARC
  5
151
  8
0
 62
     7
 10
27.667859
 20
182.35098199999999
 30
0.0
 40
60.323264999999992
 50
356.84016000000003
 51
0.8365719999999999
  0
ARC
  5
152
  8
0
 62
     7
 10
43.278657000000003
 20
182.42847
 30
0.0
 40
44.713251999999997
 50
1.0293529999999991
 51
6.2543759999999997
  0
ARC
  5
153
  8
0
 62
     7
 10
65.076827000000009
 20
184.60885999999999
 30
0.0
 40
22.808229000000001
 50
6.7752380000000008
 51
12.006878
  0
ARC
  5
154
  8
0
 62
     7
 10
71.643546999999998
 20
185.92645099999999
 30
0.0
 40
16.111260000000001
 50
12.281789
 51
20.150767999999999
  0
ARC
  5
155
  8
0
 62
     7
 10
75.560884000000001
 20
187.285562
 30
0.0
 40
11.965729
 50
20.503052
 51
32.056238
  0
ARC
  5
156
  8
0
 62
     7
 10
77.395399999999995
 20
188.34369599999999
 30
0.0
 40
9.8496199999999998
 50
32.503425999999997
 51
46.843146999999988
  0
ARC
  5
157
  8
0
 62
     7
 10
77.349050000000005
 20
188.229231
 30
0.0
 40
9.9649229999999989
 50
47.098907000000011
 51
76.616601000000003
  0
LINE
  5
158
  8
0
  6
AIGENLINE002
 62
     7
 10
58.081200000000003
 20
112.267
 30
0.0
 11
69.081500000000005
 21
112.267
 31
0.0
  0
LINE
  5
159
  8
0
  6
AIGENLINE002
 62
     7
 10
58.081200000000003
 20
187.65000000000001
 30
0.0
 11
69.081500000000005
 21
187.65000000000001
 31
0.0
  0
LINE
  5
15A
  8
0
  6
AIGENLINE002
 62
     7
 10
63.581000000000003
 20
204.05000000000001
 30
0.0
 11
63.581000000000003
 21
161.55000000000001
 31
0.0
  0
ARC
  5
15B
  8
0
 62
     7
 10
63.715736
 20
187.515849
 30
0.0
 40
3.6367389999999991
 50
92.122934999999984
 51
177.88831499999989
  0
ARC
  5
15C
  8
0
 62
     7
 10
63.581017000000003
 20
187.64985200000001
 30
0.0
 40
3.5002399999999998
 50
0.00001
 51
89.999980000000008
  0
ARC
  5
15D
  8
0
 62
     7
 10
63.581274999999998
 20
187.65011200000001
 30
0.0
 40
3.4999809999999991
 50
269.99579
 51
359.99576000000002
  0
ARC
  5
15E
  8
0
 62
     7
 10
63.714674000000002
 20
187.783331
 30
0.0
 40
3.6356579999999998
 50
182.10402500000001
 51
267.89318400000002
  0
ARC
  5
15F
  8
0
  6
AIGENLINE001
 62
     7
 10
139.79207199999999
 20
187.56213500000001
 30
0.0
 40
2.3896589999999991
 50
92.120795999999984
 51
177.89633900000001
  0
ARC
  5
160
  8
0
  6
AIGENLINE001
 62
     7
 10
139.61508799999999
 20
187.56130200000001
 30
0.0
 40
2.3904969999999999
 50
2.122892999999999
 51
87.877096999999978
  0
ARC
  5
161
  8
0
  6
AIGENLINE001
 62
     7
 10
139.61637500000001
 20
187.73765399999999
 30
0.0
 40
2.3891830000000001
 50
272.093187
 51
357.89395000000002
  0
ARC
  5
162
  8
0
  6
AIGENLINE001
 62
     7
 10
139.792202
 20
187.738236
 30
0.0
 40
2.3898130000000002
 50
182.11949899999999
 51
267.876239
  0
ARC
  5
163
  8
0
 62
     7
 10
63.669842000000003
 20
187.56174300000001
 30
0.0
 40
2.390066
 50
92.129840000000002
 51
177.88729499999999
  0
ARC
  5
164
  8
0
 62
     7
 10
63.492466
 20
187.56130200000001
 30
0.0
 40
2.3904969999999999
 50
2.122892999999999
 51
87.877096999999978
  0
ARC
  5
165
  8
0
 62
     7
 10
63.493361
 20
187.738046
 30
0.0
 40
2.3895889999999991
 50
272.102237
 51
357.88490000000002
  0
ARC
  5
166
  8
0
 62
     7
 10
63.669580000000003
 20
187.738236
 30
0.0
 40
2.3898130000000002
 50
182.11949899999999
 51
267.876239
  0
ARC
  5
167
  8
0
 62
     7
 10
51.292673000000001
 20
180.42724999999999
 30
0.0
 40
18.537562000000001
 50
98.538115000000005
 51
102.99224599999999
  0
ARC
  5
168
  8
0
 62
     7
 10
52.57799399999999
 20
172.462513
 30
0.0
 40
26.605004000000001
 50
96.126670000000004
 51
98.728861000000023
  0
ARC
  5
169
  8
0
 62
     7
 10
54.533852000000003
 20
154.70684299999999
 30
0.0
 40
44.468029999999999
 50
94.130504000000016
 51
96.190674999999985
  0
ARC
  5
16A
  8
0
 62
     7
 10
61.900215000000003
 20
58.182447000000003
 30
0.0
 40
141.272852
 50
93.990518999999992
 51
94.290584999999979
  0
ARC
  5
16B
  8
0
 62
     7
 10
58.581294999999997
 20
106.01685000000001
 30
0.0
 40
93.323452000000003
 50
92.782006999999965
 51
94.001568999999975
  0
ARC
  5
16C
  8
0
 62
     7
 10
60.977946000000003
 20
59.63931800000001
 30
0.0
 40
139.76272299999999
 50
92.275514000000015
 51
92.840562000000006
  0
ARC
  5
16D
  8
0
 62
     7
 10
64.594196999999994
 20
-32.033804000000003
 30
0.0
 40
231.50713999999999
 50
91.817419000000015
 51
92.268961000000019
  0
ARC
  5
16E
  8
0
 62
     7
 10
62.664566999999998
 20
32.223059999999997
 30
0.0
 40
167.22143799999989
 50
90.431512999999995
 51
91.854846999999992
  0
ARC
  5
16F
  8
0
 62
     7
 10
63.703977000000002
 20
-56.012327999999997
 30
0.0
 40
255.46242699999999
 50
90.027567999999974
 51
90.515584000000004
  0
ARC
  5
170
  8
0
 62
     7
 10
62.887436000000001
 20
-74.423365000000004
 30
0.0
 40
273.87431099999998
 50
88.795651000000007
 51
89.854889
  0
ARC
  5
171
  8
0
 62
     7
 10
64.885894999999991
 20
33.225226999999997
 30
0.0
 40
166.207707
 50
86.903751999999997
 51
88.704453000000001
  0
ARC
  5
172
  8
0
 62
     7
 10
57.340082999999993
 20
-99.429247000000004
 30
0.0
 40
299.07633700000002
 50
86.563558000000015
 51
86.832926999999998
  0
ARC
  5
173
  8
0
 62
     7
 10
71.981432999999996
 20
145.93255300000001
 30
0.0
 40
53.278179000000002
 50
84.629292000000007
 51
86.464370000000002
  0
ARC
  5
174
  8
0
 62
     7
 10
74.263801999999998
 20
170.92862400000001
 30
0.0
 40
28.178294000000001
 50
80.731289999999987
 51
84.492525999999984
  0
ARC
  5
175
  8
0
 62
     7
 10
75.635304000000005
 20
179.83229800000001
 30
0.0
 40
19.170135999999999
 50
76.725863000000004
 51
80.490771999999993
  0
LINE
  5
176
  8
0
 62
     7
 10
47.125100000000003
 20
198.49000000000001
 30
0.0
 11
47.111999999999988
 21
198.49000000000001
 31
0.0
  0
ARC
  5
177
  8
0
 62
     7
 10
49.696980000000003
 20
188.32982799999999
 30
0.0
 40
10.484111
 50
104.274254
 51
152.40246400000001
  0
ARC
  5
178
  8
0
 62
     7
 10
50.672697999999997
 20
187.82785999999999
 30
0.0
 40
11.581358
 50
152.437849
 51
161.64157299999999
  0
ARC
  5
179
  8
0
 62
     7
 10
54.000203999999997
 20
186.64421200000001
 30
0.0
 40
15.112500000000001
 50
161.355807
 51
168.20796000000001
  0
ARC
  5
17A
  8
0
 62
     7
 10
60.54329899999999
 20
185.173475
 30
0.0
 40
21.818308999999999
 50
167.93865099999999
 51
172.329002
  0
ARC
  5
17B
  8
0
 62
     7
 10
70.571235999999999
 20
183.697982
 30
0.0
 40
31.953700000000001
 50
172.10716400000001
 51
173.18947700000001
  0
ARC
  5
17C
  8
0
 62
     7
 10
76.799728999999999
 20
183.281115
 30
0.0
 40
38.189058000000003
 50
173.67661699999999
 51
177.75104099999999
  0
ARC
  5
17D
  8
0
 62
     7
 10
95.246921999999998
 20
182.353781
 30
0.0
 40
56.658794999999991
 50
177.54603299999999
 51
179.376924
  0
ARC
  5
17E
  8
0
 62
     7
 10
119.42078100000001
 20
181.99974599999999
 30
0.0
 40
80.835126000000002
 50
179.31232199999999
 51
180.015323
  0
ARC
  5
17F
  8
0
 62
     7
 10
212.011608
 20
182.706895
 30
0.0
 40
173.427481
 50
180.24077600000001
 51
180.62365500000001
  0
ARC
  5
180
  8
0
 62
     7
 10
101.61963900000001
 20
181.536226
 30
0.0
 40
63.029317000000013
 50
180.65177800000001
 51
182.29131599999999
  0
ARC
  5
181
  8
0
 62
     7
 10
73.946580000000012
 20
180.49015900000001
 30
0.0
 40
35.336614000000012
 50
182.39044699999999
 51
185.71990500000001
  0
ARC
  5
182
  8
0
 62
     7
 10
61.836199000000001
 20
179.34955600000001
 30
0.0
 40
23.172964
 50
185.89807300000001
 51
191.151635
  0
ARC
  5
183
  8
0
 62
     7
 10
55.226744999999987
 20
178.118684
 30
0.0
 40
16.450398
 50
191.397796
 51
199.550421
  0
ARC
  5
184
  8
0
 62
     7
 10
52.203431999999999
 20
177.14086800000001
 30
0.0
 40
13.274482000000001
 50
199.94003699999999
 51
202.29128700000001
  0
ARC
  5
185
  8
0
 62
     7
 10
50.749519999999997
 20
176.54701499999999
 30
0.0
 40
11.703967
 50
202.301165
 51
221.48635899999999
  0
ARC
  5
186
  8
0
 62
     7
 10
49.689042999999998
 20
175.75754499999999
 30
0.0
 40
10.387166000000001
 50
222.09920500000001
 51
256.76590900000002
  0
ARC
  5
187
  8
0
 62
     7
 10
51.211535999999988
 20
182.31890799999999
 30
0.0
 40
17.122834000000001
 50
256.83294899999999
 51
261.31476600000002
  0
ARC
  5
188
  8
0
 62
     7
 10
52.480578000000001
 20
190.10004000000001
 30
0.0
 40
25.006498000000001
 50
261.13263599999999
 51
263.84562899999997
  0
ARC
  5
189
  8
0
 62
     7
 10
53.988377
 20
203.42342199999999
 30
0.0
 40
38.414805000000001
 50
263.74012199999999
 51
264.80073399999998
  0
ARC
  5
18A
  8
0
 62
     7
 10
56.306834999999992
 20
229.11437000000001
 30
0.0
 40
64.210149999999999
 50
264.81786299999999
 51
265.62813499999999
  0
ARC
  5
18B
  8
0
 62
     7
 10
81.555485000000004
 20
562.13377700000001
 30
0.0
 40
398.185318
 50
265.65846099999999
 51
265.78876099999991
  0
ARC
  5
18C
  8
0
 62
     7
 10
60.818434000000003
 20
278.82702999999998
 30
0.0
 40
114.120739
 50
265.72686199999998
 51
268.21173599999997
  0
ARC
  5
18D
  8
0
 62
     7
 10
63.998704000000011
 20
367.50675000000001
 30
0.0
 40
202.85693000000001
 50
268.09554900000001
 51
269.88203700000003
  0
ARC
  5
18E
  8
0
 62
     7
 10
62.949942999999998
 20
389.34505799999999
 30
0.0
 40
224.695694
 50
270.16092900000001
 51
271.36371200000002
  0
ARC
  5
18F
  8
0
 62
     7
 10
64.573335
 20
313.65492799999998
 30
0.0
 40
148.988474
 50
271.432321
 51
273.69188700000001
  0
ARC
  5
190
  8
0
 62
     7
 10
43.967979
 20
620.09877699999993
 30
0.0
 40
456.12392999999992
 50
273.7962
 51
274.00105000000002
  0
ARC
  5
191
  8
0
 62
     7
 10
72.430216000000001
 20
210.50226499999999
 30
0.0
 40
45.540134000000002
 50
274.23577
 51
276.10910899999999
  0
ARC
  5
192
  8
0
 62
     7
 10
74.630284000000003
 20
189.41064800000001
 30
0.0
 40
24.334226999999998
 50
276.24340599999999
 51
280.29428000000001
  0
ARC
  5
193
  8
0
 62
     7
 10
76.143034999999998
 20
180.71340599999999
 30
0.0
 40
15.506790000000001
 50
280.53751800000009
 51
287.40852100000001
  0
ARC
  5
194
  8
0
 62
     7
 10
77.477888000000007
 20
176.22057799999999
 30
0.0
 40
10.820617
 50
287.78163499999999
 51
300.46821699999998
  0
ARC
  5
195
  8
0
 62
     7
 10
78.348667000000006
 20
174.55051
 30
0.0
 40
8.9401479999999989
 50
301.08534400000002
 51
306.63960700000001
  0
ARC
  5
196
  8
0
 62
     7
 10
77.844635999999994
 20
175.208057
 30
0.0
 40
9.7685710000000014
 50
306.71014400000001
 51
319.16365400000001
  0
ARC
  5
197
  8
0
 62
     7
 10
76.288449
 20
176.65347
 30
0.0
 40
11.891349999999999
 50
318.79756300000003
 51
326.0153160000001
  0
ARC
  5
198
  8
0
 62
     7
 10
76.779714999999996
 20
176.193488
 30
0.0
 40
11.22739
 50
326.560383
 51
338.48333500000001
  0
ARC
  5
199
  8
0
 62
     7
 10
73.982369999999989
 20
177.38133500000001
 30
0.0
 40
14.26568
 50
338.16572599999989
 51
346.92183
  0
ARC
  5
19A
  8
0
 62
     7
 10
68.667824999999993
 20
178.73441700000001
 30
0.0
 40
19.748889999999999
 50
346.58699999999999
 51
352.73087299999997
  0
ARC
  5
19B
  8
0
 62
     7
 10
58.829850999999991
 20
180.13897900000001
 30
0.0
 40
29.685884000000001
 50
352.44430800000009
 51
356.10564099999999
  0
ARC
  5
19C
  8
0
 62
     7
 10
43.028987000000001
 20
181.375258
 30
0.0
 40
45.534511000000002
 50
355.90396600000003
 51
356.90636699999999
  0
ARC
  5
19D
  8
0
 62
     7
 10
25.529154999999999
 20
182.36630199999999
 30
0.0
 40
63.062339999999992
 50
356.86532599999998
 51
0.7636759999999999
  0
ARC
  5
19E
  8
0
 62
     7
 10
41.645231000000003
 20
182.43254400000001
 30
0.0
 40
46.947047999999988
 50
0.9449880000000001
 51
6.1809079999999996
  0
ARC
  5
19F
  8
0
 62
     7
 10
64.523432999999983
 20
184.690586
 30
0.0
 40
23.959714999999999
 50
6.7030339999999988
 51
11.682190999999991
  0
ARC
  5
1A0
  8
0
 62
     7
 10
71.400629000000009
 20
186.04107200000001
 30
0.0
 40
16.951668999999999
 50
11.918796
 51
19.660501
  0
ARC
  5
1A1
  8
0
 62
     7
 10
75.563579000000004
 20
187.44973300000001
 30
0.0
 40
12.557687
 50
19.998452
 51
31.375667
  0
ARC
  5
1A2
  8
0
 62
     7
 10
77.609548000000004
 20
188.60269099999999
 30
0.0
 40
10.210932
 50
31.82942000000001
 51
46.505535999999999
  0
ARC
  5
1A3
  8
0
 62
     7
 10
77.658765000000002
 20
188.58491100000001
 30
0.0
 40
10.190068
 50
46.775098
 51
76.423908999999995
  0
LINE
  5
1A4
  8
0
 62
     7
 10
56.580500000000001
 20
201.15000000000001
 30
0.0
 11
32.945999999999998
 21
201.15000000000001
 31
0.0
  0
LINE
  5
1A5
  8
0
 62
     7
 10
80.050700000000006
 20
198.58500000000001
 30
0.0
 11
79.668700000000001
 21
198.678
 31
0.0
  0
ARC
  5
1A6
  8
0
 62
     7
 10
82.192924000000005
 20
209.73798500000001
 30
0.0
 40
11.344535
 50
253.61624599999999
 51
257.143664
  0
ARC
  5
1A7
  8
0
 62
     7
 10
84.426218999999975
 20
217.54000300000001
 30
0.0
 40
19.459775
 50
252.275384
 51
253.787319
  0
ARC
  5
1A8
  8
0
 62
     7
 10
93.688964999999996
 20
246.383061
 30
0.0
 40
49.753666000000003
 50
251.321235
 51
252.22702100000001
  0
ARC
  5
1A9
  8
0
 62
     7
 10
69.065882999999999
 20
174.11897500000001
 30
0.0
 40
26.590664
 50
70.92751899999999
 51
74.069778999999997
  0
ARC
  5
1AA
  8
0
 62
     7
 10
68.256476000000006
 20
170.091307
 30
0.0
 40
30.687555
 50
74.680577
 51
79.949082000000004
  0
ARC
  5
1AB
  8
0
 62
     7
 10
64.638505000000009
 20
149.698001
 30
0.0
 40
51.399307
 50
79.945355000000006
 51
85.301152000000002
  0
ARC
  5
1AC
  8
0
 62
     7
 10
63.499001
 20
137.63635199999999
 30
0.0
 40
63.513934999999996
 50
85.167998999999995
 51
89.926004000000006
  0
ARC
  5
1AD
  8
0
 62
     7
 10
63.910924000000001
 20
125.148539
 30
0.0
 40
76.002410999999995
 50
90.248696999999993
 51
92.55946400000002
  0
ARC
  5
1AE
  8
0
 62
     7
 10
63.653329000000006
 20
135.55754899999999
 30
0.0
 40
65.592609999999993
 50
92.740710000000007
 51
95.758088999999998
  0
ARC
  5
1AF
  8
0
 62
     7
 10
61.759739000000003
 20
155.636156
 30
0.0
 40
45.425519000000001
 50
95.922595999999999
 51
100.870908
  0
ARC
  5
1B0
  8
0
 62
     7
 10
59.935757000000002
 20
165.88584
 30
0.0
 40
35.016059000000013
 50
101.102948
 51
105.1277
  0
ARC
  5
1B1
  8
0
 62
     7
 10
55.311531000000002
 20
183.39232899999999
 30
0.0
 40
16.909763999999999
 50
105.482508
 51
108.40203700000001
  0
ARC
  5
1B2
  8
0
 62
     7
 10
-47.098436
 20
492.51654699999989
 30
0.0
 40
308.73665899999997
 50
288.02882399999999
 51
288.32558899999998
  0
ARC
  5
1B3
  8
0
 62
     7
 10
44.205744000000003
 20
212.68934300000001
 30
0.0
 40
14.392106
 50
283.20615800000002
 51
287.16872999999998
  0
LINE
  5
1B4
  8
0
 62
     7
 10
47.49369999999999
 20
198.678
 30
0.0
 11
47.125100000000003
 21
198.58500000000001
 31
0.0
  0
LINE
  5
1B5
  8
0
 62
     7
 10
145.24199999999999
 20
101.50700000000001
 30
0.0
 11
145.255
 21
101.51300000000001
 31
0.0
  0
ARC
  5
1B6
  8
0
 62
     7
 10
142.440202
 20
107.41050799999999
 30
0.0
 40
6.5348750000000004
 50
295.51853499999999
 51
325.293857
  0
ARC
  5
1B7
  8
0
 62
     7
 10
123.18847599999999
 20
120.69237
 30
0.0
 40
29.923684999999999
 50
325.375269
 51
340.83213599999999
  0
ARC
  5
1B8
  8
0
 62
     7
 10
109.77584400000001
 20
128.357043
 30
0.0
 40
44.277863000000004
 50
335.090799
 51
336.73407200000003
  0
ARC
  5
1B9
  8
0
 62
     7
 10
128.28118000000001
 20
119.84104000000001
 30
0.0
 40
23.907281000000001
 50
331.78206699999998
 51
334.92233800000002
  0
ARC
  5
1BA
  8
0
 62
     7
 10
135.761235
 20
115.85323
 30
0.0
 40
15.430662999999999
 50
323.98177700000002
 51
331.69708200000002
  0
LINE
  5
1BB
  8
0
  6
AIGENLINE001
 62
     7
 10
137.15299999999999
 20
99.867099999999994
 30
0.0
 11
137.15299999999999
 21
103.867
 31
0.0
  0
LINE
  5
1BC
  8
0
  6
AIGENLINE001
 62
     7
 10
135.70400000000001
 20
104.867
 30
0.0
 11
137.15299999999999
 21
103.867
 31
0.0
  0
LINE
  5
1BD
  8
0
  6
AIGENLINE001
 62
     7
 10
143.20400000000001
 20
104.867
 30
0.0
 11
141.75299999999999
 21
103.867
 31
0.0
  0
LINE
  5
1BE
  8
0
  6
AIGENLINE001
 62
     7
 10
143.20400000000001
 20
104.867
 30
0.0
 11
135.70400000000001
 21
104.867
 31
0.0
  0
LINE
  5
1BF
  8
0
  6
AIGENLINE001
 62
     7
 10
141.75299999999999
 20
103.867
 30
0.0
 11
137.15299999999999
 21
103.867
 31
0.0
  0
LINE
  5
1C0
  8
0
  6
AIGENLINE001
 62
     7
 10
141.75299999999999
 20
99.867099999999994
 30
0.0
 11
141.75299999999999
 21
103.867
 31
0.0
  0
LINE
  5
1C1
  8
0
  6
AIGENLINE002
 62
     7
 10
139.453
 20
97.290800000000004
 30
0.0
 11
139.453
 21
106.396
 31
0.0
  0
LINE
  5
1C2
  8
0
  6
AIGENLINE002
 62
     7
 10
63.581400000000002
 20
96.909099999999995
 30
0.0
 11
63.581400000000002
 21
116.22199999999999
 31
0.0
  0
ARC
  5
1C3
  8
0
 62
     7
 10
76.727448999999993
 20
152.488921
 30
0.0
 40
53.725839999999998
 50
230.77818400000001
 51
232.58072999999999
  0
ARC
  5
1C4
  8
0
 62
     7
 10
46.064154999999992
 20
112.38805600000001
 30
0.0
 40
3.245013999999999
 50
232.33499800000001
 51
233.40318099999999
  0
ARC
  5
1C5
  8
0
 62
     7
 10
43.769964999999992
 20
109.301281
 30
0.0
 40
0.6009590000000001
 50
25.016957999999999
 51
53.249144999999999
  0
LINE
  5
1C6
  8
0
 62
     7
 10
44.314500000000002
 20
109.55500000000001
 30
0.0
 11
48.51169999999999
 21
100.105
 31
0.0
  0
LINE
  5
1C7
  8
0
 62
     7
 10
48.87789999999999
 20
99.867099999999994
 30
0.0
 11
63.581400000000002
 21
99.867099999999994
 31
0.0
  0
LINE
  5
1C8
  8
0
 62
     7
 10
63.581400000000002
 20
109.498
 30
0.0
 11
44.340400000000002
 21
109.498
 31
0.0
  0
LINE
  5
1C9
  8
0
 62
     7
 10
32.957000000000001
 20
187.65000000000001
 30
0.0
 11
57.3812
 21
187.65000000000001
 31
0.0
  0
LINE
  5
1CA
  8
0
 62
     7
 10
33.183700000000002
 20
189.41900000000001
 30
0.0
 11
33.6571
 21
187.65000000000001
 31
0.0
  0
LINE
  5
1CB
  8
0
 62
     7
 10
33.6571
 20
187.65000000000001
 30
0.0
 11
34.131100000000004
 21
189.41900000000001
 31
0.0
  0
LINE
  5
1CC
  8
0
 62
     7
 10
34.131100000000004
 20
189.41900000000001
 30
0.0
 11
33.183700000000002
 21
189.41900000000001
 31
0.0
  0
LINE
  5
1CD
  8
0
 62
     7
 10
34.119399999999999
 20
199.38200000000001
 30
0.0
 11
33.646000000000001
 21
201.15000000000001
 31
0.0
  0
LINE
  5
1CE
  8
0
 62
     7
 10
33.646000000000001
 20
201.15000000000001
 30
0.0
 11
33.171999999999997
 21
199.38200000000001
 31
0.0
  0
LINE
  5
1CF
  8
0
 62
     7
 10
33.171999999999997
 20
199.38200000000001
 30
0.0
 11
34.119399999999999
 21
199.38200000000001
 31
0.0
  0
LINE
  5
1D0
  8
0
 62
     7
 10
33.651600000000002
 20
187.672
 30
0.0
 11
33.651600000000002
 21
201.15000000000001
 31
0.0
  0
LINE
  5
1D1
  8
0
 62
     7
 10
32.951500000000003
 20
110.867
 30
0.0
 11
37.831200000000003
 21
110.867
 31
0.0
  0
LINE
  5
1D2
  8
0
 62
     7
 10
32.951500000000003
 20
114.867
 30
0.0
 11
37.831200000000003
 21
114.867
 31
0.0
  0
LINE
  5
1D3
  8
0
 62
     7
 10
34.124899999999997
 20
112.636
 30
0.0
 11
33.651600000000002
 21
110.867
 31
0.0
  0
LINE
  5
1D4
  8
0
 62
     7
 10
33.651600000000002
 20
110.867
 30
0.0
 11
33.177500000000002
 21
112.636
 31
0.0
  0
LINE
  5
1D5
  8
0
 62
     7
 10
33.177500000000002
 20
112.636
 30
0.0
 11
34.124899999999997
 21
112.636
 31
0.0
  0
LINE
  5
1D6
  8
0
 62
     7
 10
34.124899999999997
 20
113.099
 30
0.0
 11
33.651600000000002
 21
114.867
 31
0.0
  0
LINE
  5
1D7
  8
0
 62
     7
 10
33.651600000000002
 20
114.867
 30
0.0
 11
33.177500000000002
 21
113.099
 31
0.0
  0
LINE
  5
1D8
  8
0
 62
     7
 10
33.177500000000002
 20
113.099
 30
0.0
 11
34.124899999999997
 21
113.099
 31
0.0
  0
LINE
  5
1D9
  8
0
 62
     7
 10
33.6571
 20
110.867
 30
0.0
 11
33.6571
 21
114.846
 31
0.0
  0
LINE
  5
1DA
  8
0
 62
     7
 10
89.331500000000005
 20
114.867
 30
0.0
 11
95.205600000000004
 21
114.867
 31
0.0
  0
LINE
  5
1DB
  8
0
 62
     7
 10
67.761300000000006
 20
100.367
 30
0.0
 11
95.205600000000004
 21
100.367
 31
0.0
  0
LINE
  5
1DC
  8
0
 62
     7
 10
94.978300000000004
 20
102.157
 30
0.0
 11
94.504900000000006
 21
100.389
 31
0.0
  0
LINE
  5
1DD
  8
0
 62
     7
 10
94.504900000000006
 20
100.389
 30
0.0
 11
94.030500000000004
 21
102.157
 31
0.0
  0
LINE
  5
1DE
  8
0
 62
     7
 10
94.030500000000004
 20
102.157
 30
0.0
 11
94.978300000000004
 21
102.157
 31
0.0
  0
LINE
  5
1DF
  8
0
 62
     7
 10
94.978300000000004
 20
113.099
 30
0.0
 11
94.504900000000006
 21
114.867
 31
0.0
  0
LINE
  5
1E0
  8
0
 62
     7
 10
94.504900000000006
 20
114.867
 30
0.0
 11
94.030500000000004
 21
113.099
 31
0.0
  0
LINE
  5
1E1
  8
0
 62
     7
 10
94.030500000000004
 20
113.099
 30
0.0
 11
94.978300000000004
 21
113.099
 31
0.0
  0
LINE
  5
1E2
  8
0
 62
     7
 10
94.510400000000004
 20
100.389
 30
0.0
 11
94.510400000000004
 21
114.846
 31
0.0
  0
LINE
  5
1E3
  8
0
 62
     7
 10
70.581500000000005
 20
201.15000000000001
 30
0.0
 11
106.205
 21
201.15000000000001
 31
0.0
  0
LINE
  5
1E4
  8
0
 62
     7
 10
78.453900000000004
 20
164.65000000000001
 30
0.0
 11
106.205
 21
164.65000000000001
 31
0.0
  0
LINE
  5
1E5
  8
0
 62
     7
 10
78.453900000000004
 20
199.44999999999999
 30
0.0
 11
100.705
 21
199.44999999999999
 31
0.0
  0
LINE
  5
1E6
  8
0
 62
     7
 10
39.185499999999998
 20
171.572
 30
0.0
 11
39.185499999999998
 21
153.52600000000001
 31
0.0
  0
LINE
  5
1E7
  8
0
 62
     7
 10
40.353000000000002
 20
149.18799999999999
 30
0.0
 11
38.584299999999999
 21
148.715
 31
0.0
  0
LINE
  5
1E8
  8
0
 62
     7
 10
38.584299999999999
 20
148.715
 30
0.0
 11
40.353000000000002
 21
148.24100000000001
 31
0.0
  0
LINE
  5
1E9
  8
0
 62
     7
 10
40.353000000000002
 20
148.24100000000001
 30
0.0
 11
40.353000000000002
 21
149.18799999999999
 31
0.0
  0
LINE
  5
1EA
  8
0
 62
     7
 10
86.818299999999994
 20
148.25299999999999
 30
0.0
 11
88.587100000000007
 21
148.726
 31
0.0
  0
LINE
  5
1EB
  8
0
 62
     7
 10
88.587100000000007
 20
148.726
 30
0.0
 11
86.818299999999994
 21
149.19999999999999
 31
0.0
  0
LINE
  5
1EC
  8
0
 62
     7
 10
86.818299999999994
 20
149.19999999999999
 30
0.0
 11
86.818299999999994
 21
148.25299999999999
 31
0.0
  0
LINE
  5
1ED
  8
0
 62
     7
 10
38.605600000000003
 20
148.721
 30
0.0
 11
88.565700000000007
 21
148.721
 31
0.0
  0
LINE
  5
1EE
  8
0
 62
     7
 10
40.954199999999993
 20
154.6879999999999
 30
0.0
 11
39.185499999999998
 21
154.215
 31
0.0
  0
LINE
  5
1EF
  8
0
 62
     7
 10
39.185499999999998
 20
154.215
 30
0.0
 11
40.954199999999993
 21
153.74100000000001
 31
0.0
  0
LINE
  5
1F0
  8
0
 62
     7
 10
40.954199999999993
 20
153.74100000000001
 30
0.0
 11
40.954199999999993
 21
154.6879999999999
 31
0.0
  0
LINE
  5
1F1
  8
0
 62
     7
 10
86.217200000000005
 20
153.75200000000001
 30
0.0
 11
87.985900000000001
 21
154.226
 31
0.0
  0
LINE
  5
1F2
  8
0
 62
     7
 10
87.985900000000001
 20
154.226
 30
0.0
 11
86.217200000000005
 21
154.69999999999999
 31
0.0
  0
LINE
  5
1F3
  8
0
 62
     7
 10
86.217200000000005
 20
154.69999999999999
 30
0.0
 11
86.217200000000005
 21
153.75200000000001
 31
0.0
  0
LINE
  5
1F4
  8
0
 62
     7
 10
39.206800000000001
 20
154.22
 30
0.0
 11
87.964500000000001
 21
154.22
 31
0.0
  0
LINE
  5
1F5
  8
0
 62
     7
 10
81.159400000000005
 20
198.84999999999999
 30
0.0
 11
95.204999999999998
 21
198.84999999999999
 31
0.0
  0
LINE
  5
1F6
  8
0
 62
     7
 10
81.159400000000005
 20
165.25
 30
0.0
 11
95.204999999999998
 21
165.25
 31
0.0
  0
LINE
  5
1F7
  8
0
 62
     7
 10
99.542700000000011
 20
166.41900000000001
 30
0.0
 11
100.01600000000001
 21
164.65000000000001
 31
0.0
  0
LINE
  5
1F8
  8
0
 62
     7
 10
100.01600000000001
 20
164.65000000000001
 30
0.0
 11
100.48999999999999
 21
166.41900000000001
 31
0.0
  0
LINE
  5
1F9
  8
0
 62
     7
 10
100.48999999999999
 20
166.41900000000001
 30
0.0
 11
99.542700000000011
 21
166.41900000000001
 31
0.0
  0
LINE
  5
1FA
  8
0
 62
     7
 10
100.47799999999999
 20
202.81899999999999
 30
0.0
 11
100.005
 21
201.05000000000001
 31
0.0
  0
LINE
  5
1FB
  8
0
 62
     7
 10
100.005
 20
201.05000000000001
 30
0.0
 11
99.531000000000006
 21
202.81899999999999
 31
0.0
  0
LINE
  5
1FC
  8
0
 62
     7
 10
99.531000000000006
 20
202.81899999999999
 30
0.0
 11
100.47799999999999
 21
202.81899999999999
 31
0.0
  0
LINE
  5
1FD
  8
0
 62
     7
 10
100.47799999999999
 20
197.78200000000001
 30
0.0
 11
100.005
 21
199.55000000000001
 31
0.0
  0
LINE
  5
1FE
  8
0
 62
     7
 10
100.005
 20
199.55000000000001
 30
0.0
 11
99.531000000000006
 21
197.78200000000001
 31
0.0
  0
LINE
  5
1FF
  8
0
 62
     7
 10
99.531000000000006
 20
197.78200000000001
 30
0.0
 11
100.47799999999999
 21
197.78200000000001
 31
0.0
  0
LINE
  5
200
  8
0
 62
     7
 10
100.011
 20
164.672
 30
0.0
 11
100.011
 21
206.47499999999999
 31
0.0
  0
LINE
  5
201
  8
0
 62
     7
 10
105.042
 20
166.41900000000001
 30
0.0
 11
105.51600000000001
 21
164.65000000000001
 31
0.0
  0
LINE
  5
202
  8
0
 62
     7
 10
105.51600000000001
 20
164.65000000000001
 30
0.0
 11
105.98999999999999
 21
166.41900000000001
 31
0.0
  0
LINE
  5
203
  8
0
 62
     7
 10
105.98999999999999
 20
166.41900000000001
 30
0.0
 11
105.042
 21
166.41900000000001
 31
0.0
  0
LINE
  5
204
  8
0
 62
     7
 10
105.97799999999999
 20
199.28200000000001
 30
0.0
 11
105.505
 21
201.05000000000001
 31
0.0
  0
LINE
  5
205
  8
0
 62
     7
 10
105.505
 20
201.05000000000001
 30
0.0
 11
105.03100000000001
 21
199.28200000000001
 31
0.0
  0
LINE
  5
206
  8
0
 62
     7
 10
105.03100000000001
 20
199.28200000000001
 30
0.0
 11
105.97799999999999
 21
199.28200000000001
 31
0.0
  0
LINE
  5
207
  8
0
 62
     7
 10
105.51000000000001
 20
164.672
 30
0.0
 11
105.51000000000001
 21
201.029
 31
0.0
  0
LINE
  5
208
  8
0
 62
     7
 10
94.042199999999994
 20
162.88200000000001
 30
0.0
 11
94.515900000000016
 21
164.65000000000001
 31
0.0
  0
LINE
  5
209
  8
0
 62
     7
 10
94.515900000000016
 20
164.65000000000001
 30
0.0
 11
94.989999999999995
 21
162.88200000000001
 31
0.0
  0
LINE
  5
20A
  8
0
 62
     7
 10
94.989999999999995
 20
162.88200000000001
 30
0.0
 11
94.042199999999994
 21
162.88200000000001
 31
0.0
  0
LINE
  5
20B
  8
0
 62
     7
 10
94.042199999999994
 20
167.01900000000001
 30
0.0
 11
94.515900000000016
 21
165.25
 31
0.0
  0
LINE
  5
20C
  8
0
 62
     7
 10
94.515900000000016
 20
165.25
 30
0.0
 11
94.989999999999995
 21
167.01900000000001
 31
0.0
  0
LINE
  5
20D
  8
0
 62
     7
 10
94.989999999999995
 20
167.01900000000001
 30
0.0
 11
94.042199999999994
 21
167.01900000000001
 31
0.0
  0
LINE
  5
20E
  8
0
 62
     7
 10
94.978300000000004
 20
201.21799999999999
 30
0.0
 11
94.504900000000006
 21
199.44999999999999
 31
0.0
  0
LINE
  5
20F
  8
0
 62
     7
 10
94.504900000000006
 20
199.44999999999999
 30
0.0
 11
94.030500000000004
 21
201.21799999999999
 31
0.0
  0
LINE
  5
210
  8
0
 62
     7
 10
94.030500000000004
 20
201.21799999999999
 30
0.0
 11
94.978300000000004
 21
201.21799999999999
 31
0.0
  0
LINE
  5
211
  8
0
 62
     7
 10
94.978300000000004
 20
197.08199999999999
 30
0.0
 11
94.504900000000006
 21
198.84999999999999
 31
0.0
  0
LINE
  5
212
  8
0
 62
     7
 10
94.504900000000006
 20
198.84999999999999
 30
0.0
 11
94.030500000000004
 21
197.08199999999999
 31
0.0
  0
LINE
  5
213
  8
0
 62
     7
 10
94.030500000000004
 20
197.08199999999999
 30
0.0
 11
94.978300000000004
 21
197.08199999999999
 31
0.0
  0
LINE
  5
214
  8
0
 62
     7
 10
94.510400000000004
 20
160.48099999999999
 30
0.0
 11
94.510400000000004
 21
204.31899999999999
 31
0.0
  0
TEXT
  5
215
  8
_________2
 62
     7
 10
39.364090666666669
 20
13.603400000000001
 30
0.0
 40
3.6545800000000002
  1
篠崎
 41
0.5
 72
     1
 11
41.313200000000002
 21
13.603400000000001
 31
0.0
  0
TEXT
  5
216
  8
_________2
 62
     7
 10
24.586400000000001
 20
0.707627
 30
0.0
 40
3.9357000000000002
  1
実容量：4.1L、重量：6.3kg、オーバーフロー付
 41
0.5
  0
TEXT
  5
217
  8
_________2
 62
     7
 10
109.179
 20
24.226099999999999
 30
0.0
 40
3.9357000000000002
  1
イノ　洗面器
 41
0.5
  0
LINE
  5
218
  8
_________2
 62
     7
 10
205.30099999999999
 20
127.411
 30
0.0
 11
183.55099999999999
 21
127.411
 31
0.0
  0
LINE
  5
219
  8
_________2
 62
     7
 10
100.3
 20
-4.0910799999999998
 30
0.0
 11
100.3
 21
-21.071000000000002
 31
0.0
  0
LINE
  5
21A
  8
_________2
 62
     7
 10
100.3
 20
275.93099999999998
 30
0.0
 11
100.3
 21
258.911
 31
0.0
  0
LINE
  5
21B
  8
_________2
 62
     7
 10
17.049199999999999
 20
127.411
 30
0.0
 11
-4.7012099999999988
 21
127.411
 31
0.0
  0
LINE
  5
21C
  8
_________2
 62
     7
 10
76.740700000000004
 20
29.8047
 30
0.0
 11
74.554400000000001
 21
29.8047
 31
0.0
  0
LINE
  5
21D
  8
_________2
 62
     7
 10
77.2333
 20
29.8047
 30
0.0
 11
76.981099999999984
 21
29.8047
 31
0.0
  0
LINE
  5
21E
  8
_________2
 62
     7
 10
77.725999999999999
 20
29.8047
 30
0.0
 11
80.650899999999993
 21
29.8047
 31
0.0
  0
LINE
  5
21F
  8
_________2
 62
     7
 10
77.2333
 20
29.8047
 30
0.0
 11
77.485500000000002
 21
29.8047
 31
0.0
  0
LINE
  5
220
  8
_________2
 62
     7
 10
70.837100000000007
 20
29.8047
 30
0.0
 11
68.650199999999998
 21
29.8047
 31
0.0
  0
LINE
  5
221
  8
_________2
 62
     7
 10
71.329099999999997
 20
29.8047
 30
0.0
 11
71.077600000000004
 21
29.8047
 31
0.0
  0
LINE
  5
222
  8
_________2
 62
     7
 10
71.329099999999997
 20
30.2974
 30
0.0
 11
71.329099999999997
 21
32.484400000000001
 31
0.0
  0
LINE
  5
223
  8
_________2
 62
     7
 10
71.329099999999997
 20
29.8047
 30
0.0
 11
71.329099999999997
 21
30.057300000000001
 31
0.0
  0
LINE
  5
224
  8
_________2
 62
     7
 10
71.821700000000007
 20
29.8047
 30
0.0
 11
74.008700000000005
 21
29.8047
 31
0.0
  0
LINE
  5
225
  8
_________2
 62
     7
 10
71.329099999999997
 20
29.8047
 30
0.0
 11
71.581299999999985
 21
29.8047
 31
0.0
  0
LINE
  5
226
  8
_________2
 62
     7
 10
71.329099999999997
 20
29.312799999999999
 30
0.0
 11
71.329099999999997
 21
27.126200000000001
 31
0.0
  0
LINE
  5
227
  8
_________2
 62
     7
 10
71.329099999999997
 20
29.8047
 30
0.0
 11
71.329099999999997
 21
29.5532
 31
0.0
  0
LINE
  5
228
  8
_________2
 62
     7
 10
75.040199999999999
 20
28.5852
 30
0.0
 11
80.218199999999996
 21
27.720400000000001
 31
0.0
  0
LINE
  5
229
  8
_________2
 62
     7
 10
75.040199999999999
 20
31.024699999999999
 30
0.0
 11
80.218199999999996
 21
31.8901
 31
0.0
  0
LINE
  5
22A
  8
_________2
 62
     7
 10
80.218199999999996
 20
27.720400000000001
 30
0.0
 11
80.218199999999996
 21
31.8901
 31
0.0
  0
LINE
  5
22B
  8
_________2
 62
     7
 10
75.040199999999999
 20
28.5852
 30
0.0
 11
75.040199999999999
 21
31.024699999999999
 31
0.0
  0
ARC
  5
22C
  8
_________2
 62
     7
 10
71.282501999999994
 20
29.757801000000001
 30
0.0
 40
1.267714
 50
2.1220840000000001
 51
87.894083999999992
  0
ARC
  5
22D
  8
_________2
 62
     7
 10
71.375640000000004
 20
29.758545999999999
 30
0.0
 40
1.2669680000000001
 50
92.105782999999988
 51
177.91037
  0
ARC
  5
22E
  8
_________2
 62
     7
 10
71.376013999999998
 20
29.851671
 30
0.0
 40
1.2673680000000001
 50
182.12203600000001
 51
267.877993
  0
ARC
  5
22F
  8
_________2
 62
     7
 10
71.282195999999999
 20
29.852347999999999
 30
0.0
 40
1.2680439999999991
 50
272.11916400000001
 51
357.84848499999998
  0
ARC
  5
230
  8
_________2
 62
     7
 10
71.248716999999985
 20
29.724731999999999
 30
0.0
 40
2.1668310000000002
 50
2.1161439999999989
 51
87.874379000000005
  0
ARC
  5
231
  8
_________2
 62
     7
 10
71.408756000000011
 20
29.726146
 30
0.0
 40
2.165392999999999
 50
92.108508999999998
 51
177.91986499999999
  0
ARC
  5
232
  8
_________2
 62
     7
 10
71.409094999999994
 20
29.884751999999999
 30
0.0
 40
2.1657829999999998
 50
182.117133
 51
267.88289700000001
  0
ARC
  5
233
  8
_________2
 62
     7
 10
71.249115000000003
 20
29.885429999999999
 30
0.0
 40
2.1664590000000001
 50
272.11546800000002
 51
357.86560400000002
  0
TEXT
  5
234
  8
_________2
 62
     7
 10
104.605
 20
1.6794899999999999
 30
0.0
 40
3.0923400000000001
  1
図番
 41
0.5
  0
LINE
  5
235
  8
_________2
 62
     7
 10
103.55
 20
5.9087199999999989
 30
0.0
 11
183.55099999999999
 21
5.9087199999999989
 31
0.0
  0
TEXT
  5
236
  8
_________2
 62
     7
 10
104.605
 20
11.6793
 30
0.0
 40
3.0923400000000001
  1
品番
 41
0.5
  0
TEXT
  5
237
  8
_________2
 62
     7
 10
104.605
 20
31.8184
 30
0.0
 40
3.0923400000000001
  1
名称
 41
0.5
  0
TEXT
  5
238
  8
_________2
 62
     7
 10
91.844758333333345
 20
26.822299999999998
 30
0.0
 40
3.6545800000000002
  1
mm
 41
0.5
 72
     1
 11
93.367500000000007
 21
26.822299999999998
 31
0.0
  0
TEXT
  5
239
  8
_________2
 62
     7
 10
85.642899999999983
 20
31.8184
 30
0.0
 40
3.0923400000000001
  1
単位
 41
0.5
  0
TEXT
  5
23A
  8
_________2
 62
     7
 10
85.642899999999983
 20
19.410799999999998
 30
0.0
 40
3.0923400000000001
  1
尺度
 41
0.5
  0
TEXT
  5
23B
  8
_________2
 62
     7
 10
90.091636166666675
 20
13.2182
 30
0.0
 40
3.6545800000000002
  1
1 ： 10
 41
0.5
 72
     1
 11
93.959400000000016
 21
13.2182
 31
0.0
  0
TEXT
  5
23C
  8
_________2
 62
     7
 10
137.4824625
 20
9.1082000000000001
 30
0.0
 40
3.9357000000000002
  1
AU17302
 41
0.5
 72
     1
 11
143.55000000000001
 21
9.1082000000000001
 31
0.0
  0
TEXT
  5
23D
  8
_________2
 62
     7
 10
137.4824625
 20
-0.8926299999999999
 30
0.0
 40
3.9357000000000002
  1
AU17302
 41
0.5
 72
     1
 11
143.55000000000001
 21
-0.8926299999999999
 31
0.0
  0
TEXT
  5
23E
  8
_________2
 62
     7
 10
20.790090666666671
 20
13.603400000000001
 30
0.0
 40
3.6545800000000002
  1
飯塚
 41
0.5
 72
     1
 11
22.7392
 21
13.603400000000001
 31
0.0
  0
TEXT
  5
23F
  8
_________2
 62
     7
 10
67.785399999999996
 20
13.2182
 30
0.0
 40
3.6545800000000002
  1
16.07.26
 41
0.5
  0
TEXT
  5
240
  8
_________2
 62
     7
 10
66.592699999999994
 20
19.410799999999998
 30
0.0
 40
3.0923400000000001
  1
日付
 41
0.5
  0
TEXT
  5
241
  8
_________2
 62
     7
 10
29.638999999999999
 20
19.410799999999998
 30
0.0
 40
3.0923400000000001
  1
検図
 41
0.5
  0
TEXT
  5
242
  8
_________2
 62
     7
 10
18.020700000000001
 20
5.21143
 30
0.0
 40
3.0923400000000001
  1
備考
 41
0.5
  0
TEXT
  5
243
  8
_________2
 62
     7
 10
18.020700000000001
 20
19.410799999999998
 30
0.0
 40
3.0923400000000001
  1
製図
 41
0.5
  0
TEXT
  5
244
  8
_________2
 62
     7
 10
23.788165333333339
 20
27.936800000000002
 30
0.0
 40
4.4979399999999989
  1
セラトレーディング株式会社
 41
0.5
 72
     1
 11
41.180199999999999
 21
27.936800000000002
 31
0.0
  0
LINE
  5
245
  8
_________2
 62
     7
 10
183.55099999999999
 20
-4.0910799999999998
 30
0.0
 11
17.049199999999999
 21
-4.0910799999999998
 31
0.0
  0
LINE
  5
246
  8
_________2
 62
     7
 10
17.049199999999999
 20
-4.0910799999999998
 30
0.0
 11
17.049199999999999
 21
258.911
 31
0.0
  0
LINE
  5
247
  8
_________2
 62
     7
 10
17.049199999999999
 20
258.911
 30
0.0
 11
183.55099999999999
 21
258.911
 31
0.0
  0
LINE
  5
248
  8
_________2
 62
     7
 10
183.55099999999999
 20
258.911
 30
0.0
 11
183.55099999999999
 21
-4.0910799999999998
 31
0.0
  0
LINE
  5
249
  8
_________2
 62
     7
 10
65.549599999999998
 20
9.4092999999999982
 30
0.0
 11
65.549599999999998
 21
35.909100000000002
 31
0.0
  0
LINE
  5
24A
  8
_________2
 62
     7
 10
84.549400000000006
 20
9.4092999999999982
 30
0.0
 11
84.549400000000006
 21
35.909100000000002
 31
0.0
  0
LINE
  5
24B
  8
_________2
 62
     7
 10
103.55
 20
-4.0910799999999998
 30
0.0
 11
103.55
 21
35.909100000000002
 31
0.0
  0
LINE
  5
24C
  8
_________2
 62
     7
 10
28.548999999999999
 20
9.4092999999999982
 30
0.0
 11
28.548999999999999
 21
23.409199999999998
 31
0.0
  0
LINE
  5
24D
  8
_________2
 62
     7
 10
17.049199999999999
 20
9.4092999999999982
 30
0.0
 11
103.55
 21
9.4092999999999982
 31
0.0
  0
LINE
  5
24E
  8
_________2
 62
     7
 10
17.049199999999999
 20
23.409199999999998
 30
0.0
 11
103.55
 21
23.409199999999998
 31
0.0
  0
LINE
  5
24F
  8
_________2
 62
     7
 10
103.55
 20
15.9085
 30
0.0
 11
183.55099999999999
 21
15.9085
 31
0.0
  0
LINE
  5
250
  8
_________2
 62
     7
 10
17.049199999999999
 20
35.909100000000002
 30
0.0
 11
183.55099999999999
 21
35.909100000000002
 31
0.0
  0
ENDSEC
  0
EOF
