  0
SECTION
  2
HEADER
  9
$ACADVER
  1
AC1009
  9
$INSBASE
 10
0.0
 20
0.0
 30
0.0
  9
$EXTMIN
 10
-4.7012099999999988
 20
-21.071000000000002
 30
0.0
  9
$EXTMAX
 10
205.30099999999999
 20
275.93099999999998
 30
0.0
  9
$LIMMIN
 10
0.0
 20
0.0
  9
$LIMMAX
 10
12.0
 20
9.0
  9
$ORTHOMODE
 70
     0
  9
$REGENMODE
 70
     1
  9
$FILLMODE
 70
     1
  9
$QTEXTMODE
 70
     0
  9
$MIRRTEXT
 70
     1
  9
$DRAGMODE
 70
     2
  9
$LTSCALE
 40
1.0
  9
$OSMODE
 70
    37
  9
$ATTMODE
 70
     1
  9
$TEXTSIZE
 40
0.0
  9
$TRACEWID
 40
0.05
  9
$TEXTSTYLE
  7
STANDARD
  9
$CLAYER
  8
0
  9
$CELTYPE
  6
CONTINUOUS
  9
$CECOLOR
 62
   256
  9
$DIMSCALE
 40
1.0
  9
$DIMASZ
 40
0.18
  9
$DIMEXO
 40
0.0625
  9
$DIMDLI
 40
0.38
  9
$DIMRND
 40
0.0
  9
$DIMDLE
 40
0.0
  9
$DIMEXE
 40
0.18
  9
$DIMTP
 40
0.0
  9
$DIMTM
 40
0.0
  9
$DIMTXT
 40
0.18
  9
$DIMCEN
 40
0.09
  9
$DIMTSZ
 40
0.0
  9
$DIMTOL
 70
     0
  9
$DIMLIM
 70
     0
  9
$DIMTIH
 70
     1
  9
$DIMTOH
 70
     1
  9
$DIMSE1
 70
     0
  9
$DIMSE2
 70
     0
  9
$DIMTAD
 70
     0
  9
$DIMZIN
 70
     0
  9
$DIMBLK
  1

  9
$DIMASO
 70
     1
  9
$DIMSHO
 70
     1
  9
$DIMPOST
  1

  9
$DIMAPOST
  1

  9
$DIMALT
 70
     0
  9
$DIMALTD
 70
     2
  9
$DIMALTF
 40
25.399999999999999
  9
$DIMLFAC
 40
1.0
  9
$DIMTOFL
 70
     0
  9
$DIMTVP
 40
0.0
  9
$DIMTIX
 70
     0
  9
$DIMSOXD
 70
     0
  9
$DIMSAH
 70
     0
  9
$DIMBLK1
  1

  9
$DIMBLK2
  1

  9
$DIMSTYLE
  2
STANDARD
  9
$DIMCLRD
 70
     0
  9
$DIMCLRE
 70
     0
  9
$DIMCLRT
 70
     0
  9
$DIMTFAC
 40
1.0
  9
$DIMGAP
 40
0.09
  9
$LUNITS
 70
     2
  9
$LUPREC
 70
     4
  9
$SKETCHINC
 40
0.1
  9
$FILLETRAD
 40
0.0
  9
$AUNITS
 70
     0
  9
$AUPREC
 70
     0
  9
$MENU
  1
.
  9
$ELEVATION
 40
0.0
  9
$PELEVATION
 40
0.0
  9
$THICKNESS
 40
0.0
  9
$LIMCHECK
 70
     0
  9
$BLIPMODE
 70
     0
  9
$CHAMFERA
 40
0.0
  9
$CHAMFERB
 40
0.0
  9
$SKPOLY
 70
     0
  9
$TDCREATE
 40
2444972.375
  9
$TDUPDATE
 40
2457675.248438959
  9
$TDINDWG
 40
0.0000306597
  9
$TDUSRTIMER
 40
0.0000306597
  9
$USRTIMER
 70
     1
  9
$ANGBASE
 50
0.0
  9
$ANGDIR
 70
     0
  9
$PDMODE
 70
     0
  9
$PDSIZE
 40
0.0
  9
$PLINEWID
 40
0.0
  9
$COORDS
 70
     1
  9
$SPLFRAME
 70
     0
  9
$SPLINETYPE
 70
     6
  9
$SPLINESEGS
 70
     8
  9
$ATTDIA
 70
     1
  9
$ATTREQ
 70
     1
  9
$HANDLING
 70
     1
  9
$HANDSEED
  5
1FD
  9
$SURFTAB1
 70
     6
  9
$SURFTAB2
 70
     6
  9
$SURFTYPE
 70
     6
  9
$SURFU
 70
     6
  9
$SURFV
 70
     6
  9
$UCSNAME
  2

  9
$UCSORG
 10
0.0
 20
0.0
 30
0.0
  9
$UCSXDIR
 10
1.0
 20
0.0
 30
0.0
  9
$UCSYDIR
 10
0.0
 20
1.0
 30
0.0
  9
$PUCSNAME
  2

  9
$PUCSORG
 10
0.0
 20
0.0
 30
0.0
  9
$PUCSXDIR
 10
1.0
 20
0.0
 30
0.0
  9
$PUCSYDIR
 10
0.0
 20
1.0
 30
0.0
  9
$USERI1
 70
     0
  9
$USERI2
 70
     0
  9
$USERI3
 70
     0
  9
$USERI4
 70
     0
  9
$USERI5
 70
     0
  9
$USERR1
 40
0.0
  9
$USERR2
 40
0.0
  9
$USERR3
 40
0.0
  9
$USERR4
 40
0.0
  9
$USERR5
 40
0.0
  9
$WORLDVIEW
 70
     1
  9
$SHADEDGE
 70
     3
  9
$SHADEDIF
 70
    70
  9
$TILEMODE
 70
     1
  9
$MAXACTVP
 70
    48
  9
$PLIMCHECK
 70
     0
  9
$PEXTMIN
 10
1.0000000000000000E+020
 20
1.0000000000000000E+020
 30
1.0000000000000000E+020
  9
$PEXTMAX
 10
-1.0000000000000000E+020
 20
-1.0000000000000000E+020
 30
-1.0000000000000000E+020
  9
$PLIMMIN
 10
0.0
 20
0.0
  9
$PLIMMAX
 10
12.0
 20
9.0
  9
$UNITMODE
 70
     0
  9
$VISRETAIN
 70
     1
  9
$PLINEGEN
 70
     0
  9
$PSLTSCALE
 70
     1
  0
ENDSEC
  0
SECTION
  2
TABLES
  0
TABLE
  2
VPORT
 70
     1
  0
VPORT
  2
*ACTIVE
 70
     0
 10
0.0
 20
0.0
 11
1.0
 21
1.0
 12
242.94244138791149
 22
127.42999999999989
 13
0.0
 23
0.0
 14
1.0
 24
1.0
 15
0.0
 25
0.0
 16
0.0
 26
0.0
 36
1.0
 17
0.0
 27
0.0
 37
0.0
 40
271.07266271200172
 41
1.5328467153284671
 42
50.0
 43
0.0
 44
0.0
 50
0.0
 51
0.0
 71
     0
 72
   100
 73
     1
 74
     1
 75
     0
 76
     0
 77
     0
 78
     0
  0
ENDTAB
  0
TABLE
  2
LTYPE
 70
     3
  0
LTYPE
  2
CONTINUOUS
 70
     0
  3
Solid line
 72
    65
 73
     0
 40
0.0
  0
LTYPE
  2
AIGENLINE001
 70
     0
  3
generate AI->DXF Converter
 72
    65
 73
     4
 40
5.8561449999999988
 49
3.5278
 49
-0.776115
 49
0.776115
 49
-0.776115
  0
LTYPE
  2
AIGENLINE002
 70
     0
  3
generate AI->DXF Converter
 72
    65
 73
     2
 40
1.5522299999999991
 49
0.776115
 49
-0.776115
  0
ENDTAB
  0
TABLE
  2
LAYER
 70
     2
  0
LAYER
  2
0
 70
     0
 62
     7
  6
CONTINUOUS
  0
LAYER
  2
_________2
 70
     0
 62
     7
  6
CONTINUOUS
  0
ENDTAB
  0
TABLE
  2
STYLE
 70
     1
  0
STYLE
  2
STANDARD
 70
     0
 40
0.0
 41
0.0
 50
0.0
 71
     0
 42
0.0
  3
TXT
  4
EXTFONT.SHX
  0
ENDTAB
  0
TABLE
  2
VIEW
 70
     0
  0
ENDTAB
  0
TABLE
  2
UCS
 70
     0
  0
ENDTAB
  0
TABLE
  2
APPID
 70
     3
  0
APPID
  2
ACAD
 70
     0
  0
APPID
  2
ACAD_NAV_VCDISPLAY
 70
     0
  0
APPID
  2
ACAD_MLEADERVER
 70
     0
  0
ENDTAB
  0
TABLE
  2
DIMSTYLE
 70
     1
  0
DIMSTYLE
  2
STANDARD
 70
     0
  3

  4

  5

  6

  7

 40
1.0
 41
0.18
 42
0.0625
 43
0.38
 44
0.18
 45
0.0
 46
0.0
 47
0.0
 48
0.0
140
0.18
141
0.09
142
0.0
143
25.399999999999999
144
1.0
145
0.0
146
1.0
147
0.09
 71
     0
 72
     0
 73
     1
 74
     1
 75
     0
 76
     0
 77
     0
 78
     0
170
     0
171
     2
172
     0
173
     0
174
     0
175
     0
176
     0
177
     0
178
     0
  0
ENDTAB
  0
ENDSEC
  0
SECTION
  2
BLOCKS
  0
BLOCK
  8
0
  2
$MODEL_SPACE
 70
     0
 10
0.0
 20
0.0
 30
0.0
  3
$MODEL_SPACE
  1

  0
ENDBLK
  5
1A
  8
0
  0
BLOCK
 67
     1
  8
0
  2
$PAPER_SPACE
 70
     0
 10
0.0
 20
0.0
 30
0.0
  3
$PAPER_SPACE
  1

  0
ENDBLK
  5
17
 67
     1
  8
0
  0
ENDSEC
  0
SECTION
  2
ENTITIES
  0
TEXT
  5
23
  8
0
 62
     7
 10
44.691469999999988
 20
217.97800000000001
 30
0.0
 40
3.0923400000000001
  1
LAUFEN
 41
0.5
 72
     2
 11
53.453099999999999
 21
217.97800000000001
 31
0.0
  0
TEXT
  5
24
  8
0
 62
     7
 10
52.151800000000001
 20
78.863900000000001
 30
0.0
 40
3.0923400000000001
  1
クッション材\U+00D74ヶ所
 41
0.5
  0
TEXT
  5
25
  8
0
 62
     7
 10
78.811380502568426
 20
186.72698050256841
 30
0.0
 40
3.0922499999999991
  1
%%c130
 50
45.0
 41
0.5
 72
     1
 11
80.542400000000001
 21
188.458
 31
0.0
  0
TEXT
  5
26
  8
0
 62
     7
 10
32.908362500000003
 20
212.673
 30
0.0
 40
3.0922499999999991
  1
85
 41
0.5
 72
     1
 11
34.196800000000003
 21
212.673
 31
0.0
  0
TEXT
  5
27
  8
0
 62
     7
 10
85.279918749999993
 20
212.673
 30
0.0
 40
3.0922499999999991
  1
110
 41
0.5
 72
     1
 11
86.697199999999995
 21
212.673
 31
0.0
  0
TEXT
  5
28
  8
0
 62
     7
 10
106.962
 20
192.19471874999999
 30
0.0
 40
3.0922499999999991
  1
110
 50
90.0
 41
0.5
 72
     1
 11
106.962
 21
193.61199999999999
 31
0.0
  0
TEXT
  5
29
  8
0
 62
     7
 10
106.962
 20
81.820199999999986
 30
0.0
 40
3.0922499999999991
  1
2
 50
90.0
 41
0.5
  0
TEXT
  5
2A
  8
0
 62
     7
 10
106.962
 20
91.185406249999986
 30
0.0
 40
3.0922499999999991
  1
60
 50
90.0
 41
0.5
 72
     1
 11
106.962
 21
92.344999999999999
 31
0.0
  0
TEXT
  5
2B
  8
0
 62
     7
 10
112.462
 20
174.67934374999999
 30
0.0
 40
3.0922499999999991
  1
280
 50
90.0
 41
0.5
 72
     1
 11
112.462
 21
176.61199999999999
 31
0.0
  0
TEXT
  5
2C
  8
0
 62
     7
 10
59.75444375
 20
137.59700000000001
 30
0.0
 40
3.0922499999999991
  1
360
 41
0.5
 72
     1
 11
61.687100000000001
 21
137.59700000000001
 31
0.0
  0
LINE
  5
2D
  8
0
 62
     7
 10
35.793599999999998
 20
206.88999999999999
 30
0.0
 11
35.395000000000003
 21
204.637
 31
0.0
  0
LINE
  5
2E
  8
0
 62
     7
 10
35.395000000000003
 20
204.637
 30
0.0
 11
36.866700000000002
 21
206.38900000000001
 31
0.0
  0
LINE
  5
2F
  8
0
 62
     7
 10
36.866700000000002
 20
206.38900000000001
 30
0.0
 11
35.793599999999998
 21
206.88999999999999
 31
0.0
  0
LINE
  5
30
  8
0
 62
     7
 10
35.388199999999998
 20
204.63999999999999
 30
0.0
 11
41.160899999999991
 21
217.27799999999999
 31
0.0
  0
LINE
  5
31
  8
0
 62
     7
 10
41.160899999999991
 20
217.27799999999999
 30
0.0
 11
53.453099999999999
 21
217.27799999999999
 31
0.0
  0
LINE
  5
32
  8
0
 62
     7
 10
89.028400000000005
 20
83.838699999999989
 30
0.0
 11
90.172499999999999
 21
85.820599999999999
 31
0.0
  0
LINE
  5
33
  8
0
 62
     7
 10
90.172499999999999
 20
85.820599999999999
 30
0.0
 11
88.190899999999999
 21
84.676500000000004
 31
0.0
  0
LINE
  5
34
  8
0
 62
     7
 10
88.190899999999999
 20
84.676500000000004
 30
0.0
 11
89.028400000000005
 21
83.838699999999989
 31
0.0
  0
LINE
  5
35
  8
0
 62
     7
 10
90.177700000000002
 20
85.8155
 30
0.0
 11
82.525700000000001
 21
78.163899999999998
 31
0.0
  0
LINE
  5
36
  8
0
 62
     7
 10
82.525700000000001
 20
78.163899999999998
 30
0.0
 11
52.151800000000001
 21
78.163899999999998
 31
0.0
  0
LINE
  5
37
  8
0
 62
     7
 10
67.424700000000001
 20
175.001
 30
0.0
 11
66.508899999999997
 21
173.416
 31
0.0
  0
LINE
  5
38
  8
0
 62
     7
 10
66.508899999999997
 20
173.416
 30
0.0
 11
68.094800000000006
 21
174.33199999999999
 31
0.0
  0
LINE
  5
39
  8
0
 62
     7
 10
68.094800000000006
 20
174.33199999999999
 30
0.0
 11
67.424700000000001
 21
175.001
 31
0.0
  0
LINE
  5
3A
  8
0
 62
     7
 10
83.974400000000017
 20
190.22
 30
0.0
 11
84.889399999999995
 21
191.804
 31
0.0
  0
LINE
  5
3B
  8
0
 62
     7
 10
84.889399999999995
 20
191.804
 30
0.0
 11
83.304000000000002
 21
190.88900000000001
 31
0.0
  0
LINE
  5
3C
  8
0
 62
     7
 10
83.304000000000002
 20
190.88900000000001
 30
0.0
 11
83.974400000000017
 21
190.22
 31
0.0
  0
LINE
  5
3D
  8
0
 62
     7
 10
66.519900000000007
 20
173.435
 30
0.0
 11
84.878399999999999
 21
191.78599999999989
 31
0.0
  0
LINE
  5
3E
  8
0
 62
     7
 10
42.696899999999992
 20
203.697
 30
0.0
 11
42.696899999999992
 21
212.67099999999999
 31
0.0
  0
LINE
  5
3F
  8
0
 62
     7
 10
25.6968
 20
203.697
 30
0.0
 11
25.6968
 21
212.67099999999999
 31
0.0
  0
LINE
  5
40
  8
0
 62
     7
 10
97.697199999999995
 20
204.047
 30
0.0
 11
97.697199999999995
 21
212.67099999999999
 31
0.0
  0
LINE
  5
41
  8
0
 62
     7
 10
75.697199999999995
 20
212.66
 30
0.0
 11
75.697199999999995
 21
199.36199999999999
 31
0.0
  0
LINE
  5
42
  8
0
 62
     7
 10
27.465499999999999
 20
212.434
 30
0.0
 11
25.6968
 21
211.96000000000001
 31
0.0
  0
LINE
  5
43
  8
0
 62
     7
 10
25.6968
 20
211.96000000000001
 30
0.0
 11
27.465499999999999
 21
211.48599999999999
 31
0.0
  0
LINE
  5
44
  8
0
 62
     7
 10
27.465499999999999
 20
211.48599999999999
 30
0.0
 11
27.465499999999999
 21
212.434
 31
0.0
  0
LINE
  5
45
  8
0
 62
     7
 10
40.928899999999992
 20
211.49799999999999
 30
0.0
 11
42.696899999999992
 21
211.971
 31
0.0
  0
LINE
  5
46
  8
0
 62
     7
 10
42.696899999999992
 20
211.971
 30
0.0
 11
40.928899999999992
 21
212.44499999999999
 31
0.0
  0
LINE
  5
47
  8
0
 62
     7
 10
40.928899999999992
 20
212.44499999999999
 30
0.0
 11
40.928899999999992
 21
211.49799999999999
 31
0.0
  0
LINE
  5
48
  8
0
 62
     7
 10
25.6968
 20
211.96600000000001
 30
0.0
 11
42.675499999999992
 21
211.96600000000001
 31
0.0
  0
LINE
  5
49
  8
0
 62
     7
 10
77.465900000000005
 20
212.434
 30
0.0
 11
75.697199999999995
 21
211.96000000000001
 31
0.0
  0
LINE
  5
4A
  8
0
 62
     7
 10
75.697199999999995
 20
211.96000000000001
 30
0.0
 11
77.465900000000005
 21
211.48599999999999
 31
0.0
  0
LINE
  5
4B
  8
0
 62
     7
 10
77.465900000000005
 20
211.48599999999999
 30
0.0
 11
77.465900000000005
 21
212.434
 31
0.0
  0
LINE
  5
4C
  8
0
 62
     7
 10
95.929100000000005
 20
211.49799999999999
 30
0.0
 11
97.697199999999995
 21
211.971
 31
0.0
  0
LINE
  5
4D
  8
0
 62
     7
 10
97.697199999999995
 20
211.971
 30
0.0
 11
95.929100000000005
 21
212.44499999999999
 31
0.0
  0
LINE
  5
4E
  8
0
 62
     7
 10
95.929100000000005
 20
212.44499999999999
 30
0.0
 11
95.929100000000005
 21
211.49799999999999
 31
0.0
  0
LINE
  5
4F
  8
0
 62
     7
 10
75.697199999999995
 20
211.96600000000001
 30
0.0
 11
97.675799999999995
 21
211.96600000000001
 31
0.0
  0
LINE
  5
50
  8
0
 62
     7
 10
92.447500000000005
 20
182.61199999999999
 30
0.0
 11
108.375
 21
182.61199999999999
 31
0.0
  0
LINE
  5
51
  8
0
 62
     7
 10
98.181500000000014
 20
98.344999999999999
 30
0.0
 11
108.364
 21
98.344999999999999
 31
0.0
  0
LINE
  5
52
  8
0
 62
     7
 10
98.299400000000006
 20
85.944999999999993
 30
0.0
 11
108.482
 21
85.944999999999993
 31
0.0
  0
LINE
  5
53
  8
0
 62
     7
 10
98.299400000000006
 20
86.3446
 30
0.0
 11
108.482
 21
86.3446
 31
0.0
  0
LINE
  5
54
  8
0
 62
     7
 10
107.20099999999999
 20
88.113399999999984
 30
0.0
 11
107.675
 21
86.3446
 31
0.0
  0
LINE
  5
55
  8
0
 62
     7
 10
107.675
 20
86.3446
 30
0.0
 11
108.149
 21
88.113399999999984
 31
0.0
  0
LINE
  5
56
  8
0
 62
     7
 10
108.149
 20
88.113399999999984
 30
0.0
 11
107.20099999999999
 21
88.113399999999984
 31
0.0
  0
LINE
  5
57
  8
0
 62
     7
 10
108.137
 20
84.177000000000007
 30
0.0
 11
107.664
 21
85.944999999999993
 31
0.0
  0
LINE
  5
58
  8
0
 62
     7
 10
107.664
 20
85.944999999999993
 30
0.0
 11
107.19
 21
84.177000000000007
 31
0.0
  0
LINE
  5
59
  8
0
 62
     7
 10
107.19
 20
84.177000000000007
 30
0.0
 11
108.137
 21
84.177000000000007
 31
0.0
  0
LINE
  5
5A
  8
0
 62
     7
 10
108.137
 20
96.577000000000012
 30
0.0
 11
107.664
 21
98.344999999999999
 31
0.0
  0
LINE
  5
5B
  8
0
 62
     7
 10
107.664
 20
98.344999999999999
 30
0.0
 11
107.19
 21
96.577000000000012
 31
0.0
  0
LINE
  5
5C
  8
0
 62
     7
 10
107.19
 20
96.577000000000012
 30
0.0
 11
108.137
 21
96.577000000000012
 31
0.0
  0
LINE
  5
5D
  8
0
 62
     7
 10
107.669
 20
81.820199999999986
 30
0.0
 11
107.669
 21
98.323600000000013
 31
0.0
  0
LINE
  5
5E
  8
0
 62
     7
 10
97.131500000000003
 20
204.61199999999999
 30
0.0
 11
113.86499999999999
 21
204.61199999999999
 31
0.0
  0
LINE
  5
5F
  8
0
 62
     7
 10
97.131500000000003
 20
148.61199999999999
 30
0.0
 11
113.982
 21
148.61199999999999
 31
0.0
  0
LINE
  5
60
  8
0
 62
     7
 10
107.20099999999999
 20
184.38099999999989
 30
0.0
 11
107.675
 21
182.61199999999999
 31
0.0
  0
LINE
  5
61
  8
0
 62
     7
 10
107.675
 20
182.61199999999999
 30
0.0
 11
108.149
 21
184.38099999999989
 31
0.0
  0
LINE
  5
62
  8
0
 62
     7
 10
108.149
 20
184.38099999999989
 30
0.0
 11
107.20099999999999
 21
184.38099999999989
 31
0.0
  0
LINE
  5
63
  8
0
 62
     7
 10
108.137
 20
202.84399999999999
 30
0.0
 11
107.664
 21
204.61199999999999
 31
0.0
  0
LINE
  5
64
  8
0
 62
     7
 10
107.664
 20
204.61199999999999
 30
0.0
 11
107.19
 21
202.84399999999999
 31
0.0
  0
LINE
  5
65
  8
0
 62
     7
 10
107.19
 20
202.84399999999999
 30
0.0
 11
108.137
 21
202.84399999999999
 31
0.0
  0
LINE
  5
66
  8
0
 62
     7
 10
107.669
 20
182.61199999999999
 30
0.0
 11
107.669
 21
204.59100000000001
 31
0.0
  0
LINE
  5
67
  8
0
 62
     7
 10
112.70099999999999
 20
150.381
 30
0.0
 11
113.176
 21
148.61199999999999
 31
0.0
  0
LINE
  5
68
  8
0
 62
     7
 10
113.176
 20
148.61199999999999
 30
0.0
 11
113.649
 21
150.381
 31
0.0
  0
LINE
  5
69
  8
0
 62
     7
 10
113.649
 20
150.381
 30
0.0
 11
112.70099999999999
 21
150.381
 31
0.0
  0
LINE
  5
6A
  8
0
 62
     7
 10
113.637
 20
202.84399999999999
 30
0.0
 11
113.164
 21
204.61199999999999
 31
0.0
  0
LINE
  5
6B
  8
0
 62
     7
 10
113.164
 20
204.61199999999999
 30
0.0
 11
112.69
 21
202.84399999999999
 31
0.0
  0
LINE
  5
6C
  8
0
 62
     7
 10
112.69
 20
202.84399999999999
 30
0.0
 11
113.637
 21
202.84399999999999
 31
0.0
  0
LINE
  5
6D
  8
0
 62
     7
 10
113.169
 20
148.61199999999999
 30
0.0
 11
113.169
 21
204.59100000000001
 31
0.0
  0
ARC
  5
6E
  8
0
 62
     7
 10
41.096890000000002
 20
201.61231000000001
 30
0.0
 40
1.5999989999999991
 50
0.003094
 51
90.003064000000009
  0
ARC
  5
6F
  8
0
 62
     7
 10
94.697143999999994
 20
201.61239599999999
 30
0.0
 40
1.599912999999999
 50
0.00001
 51
89.999980000000008
  0
ARC
  5
70
  8
0
 62
     7
 10
94.697143999999994
 20
151.612032
 30
0.0
 40
1.599912999999999
 50
270.00002000000001
 51
359.99999000000003
  0
LINE
  5
71
  8
0
 62
     7
 10
94.697100000000006
 20
203.21199999999999
 30
0.0
 11
45.696899999999999
 21
203.21199999999999
 31
0.0
  0
LINE
  5
72
  8
0
 62
     7
 10
94.697100000000006
 20
150.012
 30
0.0
 11
45.696899999999999
 21
150.012
 31
0.0
  0
LINE
  5
73
  8
0
 62
     7
 10
96.297100000000015
 20
151.61199999999999
 30
0.0
 11
96.297100000000015
 21
201.61199999999999
 31
0.0
  0
ARC
  5
74
  8
0
 62
     7
 10
45.69681099999999
 20
201.61231000000001
 30
0.0
 40
1.5999989999999991
 50
89.996916000000013
 51
179.99688599999999
  0
ARC
  5
75
  8
0
 62
     7
 10
45.696809999999999
 20
151.61211700000001
 30
0.0
 40
1.599998
 50
180.003094
 51
270.00310400000001
  0
ARC
  5
76
  8
0
 62
     7
 10
28.696707
 20
201.61231000000001
 30
0.0
 40
1.5999989999999991
 50
89.996916000000013
 51
179.99688599999999
  0
LINE
  5
77
  8
0
 62
     7
 10
27.096699999999998
 20
156.21199999999999
 30
0.0
 11
42.696899999999992
 21
156.21199999999999
 31
0.0
  0
LINE
  5
78
  8
0
 62
     7
 10
27.096699999999998
 20
157.012
 30
0.0
 11
42.696899999999992
 21
157.012
 31
0.0
  0
LINE
  5
79
  8
0
 62
     7
 10
27.096699999999998
 20
157.81200000000001
 30
0.0
 11
42.696899999999992
 21
157.81200000000001
 31
0.0
  0
LINE
  5
7A
  8
0
 62
     7
 10
27.096699999999998
 20
158.61199999999999
 30
0.0
 11
42.696899999999992
 21
158.61199999999999
 31
0.0
  0
LINE
  5
7B
  8
0
 62
     7
 10
27.096699999999998
 20
159.41200000000001
 30
0.0
 11
42.696899999999992
 21
159.41200000000001
 31
0.0
  0
LINE
  5
7C
  8
0
 62
     7
 10
27.096699999999998
 20
160.21199999999999
 30
0.0
 11
42.696899999999992
 21
160.21199999999999
 31
0.0
  0
LINE
  5
7D
  8
0
 62
     7
 10
27.096699999999998
 20
155.41200000000001
 30
0.0
 11
42.696899999999992
 21
155.41200000000001
 31
0.0
  0
LINE
  5
7E
  8
0
 62
     7
 10
27.096699999999998
 20
154.61199999999999
 30
0.0
 11
42.696899999999992
 21
154.61199999999999
 31
0.0
  0
LINE
  5
7F
  8
0
 62
     7
 10
27.096699999999998
 20
152.21199999999999
 30
0.0
 11
42.696899999999992
 21
152.21199999999999
 31
0.0
  0
LINE
  5
80
  8
0
 62
     7
 10
27.096699999999998
 20
153.012
 30
0.0
 11
42.696899999999992
 21
153.012
 31
0.0
  0
LINE
  5
81
  8
0
 62
     7
 10
27.096699999999998
 20
153.81200000000001
 30
0.0
 11
42.696899999999992
 21
153.81200000000001
 31
0.0
  0
LINE
  5
82
  8
0
 62
     7
 10
27.096699999999998
 20
161.012
 30
0.0
 11
42.696899999999992
 21
161.012
 31
0.0
  0
LINE
  5
83
  8
0
 62
     7
 10
27.096699999999998
 20
164.21199999999999
 30
0.0
 11
42.696899999999992
 21
164.21199999999999
 31
0.0
  0
LINE
  5
84
  8
0
 62
     7
 10
27.096699999999998
 20
165.012
 30
0.0
 11
42.696899999999992
 21
165.012
 31
0.0
  0
LINE
  5
85
  8
0
 62
     7
 10
27.096699999999998
 20
165.81200000000001
 30
0.0
 11
42.696899999999992
 21
165.81200000000001
 31
0.0
  0
LINE
  5
86
  8
0
 62
     7
 10
27.096699999999998
 20
166.61199999999999
 30
0.0
 11
42.696899999999992
 21
166.61199999999999
 31
0.0
  0
LINE
  5
87
  8
0
 62
     7
 10
27.096699999999998
 20
167.41200000000001
 30
0.0
 11
42.696899999999992
 21
167.41200000000001
 31
0.0
  0
LINE
  5
88
  8
0
 62
     7
 10
27.096699999999998
 20
168.21199999999999
 30
0.0
 11
42.696899999999992
 21
168.21199999999999
 31
0.0
  0
LINE
  5
89
  8
0
 62
     7
 10
27.096699999999998
 20
163.41200000000001
 30
0.0
 11
42.696899999999992
 21
163.41200000000001
 31
0.0
  0
LINE
  5
8A
  8
0
 62
     7
 10
27.096699999999998
 20
162.61199999999999
 30
0.0
 11
42.696899999999992
 21
162.61199999999999
 31
0.0
  0
LINE
  5
8B
  8
0
 62
     7
 10
27.096699999999998
 20
161.81200000000001
 30
0.0
 11
42.696899999999992
 21
161.81200000000001
 31
0.0
  0
LINE
  5
8C
  8
0
 62
     7
 10
27.096699999999998
 20
169.012
 30
0.0
 11
42.696899999999992
 21
169.012
 31
0.0
  0
LINE
  5
8D
  8
0
 62
     7
 10
27.096699999999998
 20
172.21199999999999
 30
0.0
 11
42.696899999999992
 21
172.21199999999999
 31
0.0
  0
LINE
  5
8E
  8
0
 62
     7
 10
27.096699999999998
 20
173.012
 30
0.0
 11
42.696899999999992
 21
173.012
 31
0.0
  0
LINE
  5
8F
  8
0
 62
     7
 10
27.096699999999998
 20
173.81200000000001
 30
0.0
 11
42.696899999999992
 21
173.81200000000001
 31
0.0
  0
LINE
  5
90
  8
0
 62
     7
 10
27.096699999999998
 20
174.61199999999999
 30
0.0
 11
42.696899999999992
 21
174.61199999999999
 31
0.0
  0
LINE
  5
91
  8
0
 62
     7
 10
27.096699999999998
 20
175.41200000000001
 30
0.0
 11
42.696899999999992
 21
175.41200000000001
 31
0.0
  0
LINE
  5
92
  8
0
 62
     7
 10
27.096699999999998
 20
176.21199999999999
 30
0.0
 11
42.696899999999992
 21
176.21199999999999
 31
0.0
  0
LINE
  5
93
  8
0
 62
     7
 10
27.096699999999998
 20
171.41200000000001
 30
0.0
 11
42.696899999999992
 21
171.41200000000001
 31
0.0
  0
LINE
  5
94
  8
0
 62
     7
 10
27.096699999999998
 20
170.61199999999999
 30
0.0
 11
42.696899999999992
 21
170.61199999999999
 31
0.0
  0
LINE
  5
95
  8
0
 62
     7
 10
27.096699999999998
 20
169.81200000000001
 30
0.0
 11
42.696899999999992
 21
169.81200000000001
 31
0.0
  0
LINE
  5
96
  8
0
 62
     7
 10
27.096699999999998
 20
177.012
 30
0.0
 11
42.696899999999992
 21
177.012
 31
0.0
  0
LINE
  5
97
  8
0
 62
     7
 10
27.096699999999998
 20
180.21199999999999
 30
0.0
 11
42.696899999999992
 21
180.21199999999999
 31
0.0
  0
LINE
  5
98
  8
0
 62
     7
 10
27.096699999999998
 20
181.012
 30
0.0
 11
42.696899999999992
 21
181.012
 31
0.0
  0
LINE
  5
99
  8
0
 62
     7
 10
27.096699999999998
 20
181.81200000000001
 30
0.0
 11
42.696899999999992
 21
181.81200000000001
 31
0.0
  0
LINE
  5
9A
  8
0
 62
     7
 10
27.096699999999998
 20
182.61199999999999
 30
0.0
 11
42.696899999999992
 21
182.61199999999999
 31
0.0
  0
LINE
  5
9B
  8
0
 62
     7
 10
27.096699999999998
 20
183.41200000000001
 30
0.0
 11
42.696899999999992
 21
183.41200000000001
 31
0.0
  0
LINE
  5
9C
  8
0
 62
     7
 10
27.096699999999998
 20
184.21199999999999
 30
0.0
 11
42.696899999999992
 21
184.21199999999999
 31
0.0
  0
LINE
  5
9D
  8
0
 62
     7
 10
27.096699999999998
 20
179.41200000000001
 30
0.0
 11
42.696899999999992
 21
179.41200000000001
 31
0.0
  0
LINE
  5
9E
  8
0
 62
     7
 10
27.096699999999998
 20
178.61199999999999
 30
0.0
 11
42.696899999999992
 21
178.61199999999999
 31
0.0
  0
LINE
  5
9F
  8
0
 62
     7
 10
27.096699999999998
 20
177.81200000000001
 30
0.0
 11
42.696899999999992
 21
177.81200000000001
 31
0.0
  0
LINE
  5
A0
  8
0
 62
     7
 10
27.096699999999998
 20
185.012
 30
0.0
 11
42.696899999999992
 21
185.012
 31
0.0
  0
LINE
  5
A1
  8
0
 62
     7
 10
27.096699999999998
 20
188.21199999999999
 30
0.0
 11
42.696899999999992
 21
188.21199999999999
 31
0.0
  0
LINE
  5
A2
  8
0
 62
     7
 10
27.096699999999998
 20
189.012
 30
0.0
 11
42.696899999999992
 21
189.012
 31
0.0
  0
LINE
  5
A3
  8
0
 62
     7
 10
27.096699999999998
 20
189.81200000000001
 30
0.0
 11
42.696899999999992
 21
189.81200000000001
 31
0.0
  0
LINE
  5
A4
  8
0
 62
     7
 10
27.096699999999998
 20
190.61199999999999
 30
0.0
 11
42.696899999999992
 21
190.61199999999999
 31
0.0
  0
LINE
  5
A5
  8
0
 62
     7
 10
27.096699999999998
 20
191.41200000000001
 30
0.0
 11
42.696899999999992
 21
191.41200000000001
 31
0.0
  0
LINE
  5
A6
  8
0
 62
     7
 10
27.096699999999998
 20
192.21199999999999
 30
0.0
 11
42.696899999999992
 21
192.21199999999999
 31
0.0
  0
LINE
  5
A7
  8
0
 62
     7
 10
27.096699999999998
 20
187.41200000000001
 30
0.0
 11
42.696899999999992
 21
187.41200000000001
 31
0.0
  0
LINE
  5
A8
  8
0
 62
     7
 10
27.096699999999998
 20
186.61199999999999
 30
0.0
 11
42.696899999999992
 21
186.61199999999999
 31
0.0
  0
LINE
  5
A9
  8
0
 62
     7
 10
27.096699999999998
 20
185.81200000000001
 30
0.0
 11
42.696899999999992
 21
185.81200000000001
 31
0.0
  0
LINE
  5
AA
  8
0
 62
     7
 10
27.096699999999998
 20
193.012
 30
0.0
 11
42.696899999999992
 21
193.012
 31
0.0
  0
LINE
  5
AB
  8
0
 62
     7
 10
27.096699999999998
 20
196.21299999999999
 30
0.0
 11
42.696899999999992
 21
196.21299999999999
 31
0.0
  0
LINE
  5
AC
  8
0
 62
     7
 10
27.096699999999998
 20
197.012
 30
0.0
 11
42.696899999999992
 21
197.012
 31
0.0
  0
LINE
  5
AD
  8
0
 62
     7
 10
27.096699999999998
 20
197.81200000000001
 30
0.0
 11
42.696899999999992
 21
197.81200000000001
 31
0.0
  0
LINE
  5
AE
  8
0
 62
     7
 10
27.096699999999998
 20
198.61199999999999
 30
0.0
 11
42.696899999999992
 21
198.61199999999999
 31
0.0
  0
LINE
  5
AF
  8
0
 62
     7
 10
27.096699999999998
 20
199.41200000000001
 30
0.0
 11
42.696899999999992
 21
199.41200000000001
 31
0.0
  0
LINE
  5
B0
  8
0
 62
     7
 10
27.096699999999998
 20
200.21199999999999
 30
0.0
 11
42.696899999999992
 21
200.21199999999999
 31
0.0
  0
LINE
  5
B1
  8
0
 62
     7
 10
27.096699999999998
 20
195.41200000000001
 30
0.0
 11
42.696899999999992
 21
195.41200000000001
 31
0.0
  0
LINE
  5
B2
  8
0
 62
     7
 10
27.096699999999998
 20
194.61199999999999
 30
0.0
 11
42.696899999999992
 21
194.61199999999999
 31
0.0
  0
LINE
  5
B3
  8
0
 62
     7
 10
27.096699999999998
 20
193.81200000000001
 30
0.0
 11
42.696899999999992
 21
193.81200000000001
 31
0.0
  0
LINE
  5
B4
  8
0
 62
     7
 10
27.096699999999998
 20
201.012
 30
0.0
 11
42.696899999999992
 21
201.012
 31
0.0
  0
LINE
  5
B5
  8
0
 62
     7
 10
28.6968
 20
203.21199999999999
 30
0.0
 11
41.096799999999988
 21
203.21199999999999
 31
0.0
  0
LINE
  5
B6
  8
0
 62
     7
 10
28.6968
 20
150.012
 30
0.0
 11
41.096799999999988
 21
150.012
 31
0.0
  0
ARC
  5
B7
  8
0
 62
     7
 10
41.096890000000002
 20
151.61211800000001
 30
0.0
 40
1.5999989999999991
 50
269.99693600000001
 51
359.99690600000002
  0
ARC
  5
B8
  8
0
 62
     7
 10
28.696707
 20
151.61211700000001
 30
0.0
 40
1.599998
 50
180.003094
 51
270.00310400000001
  0
ARC
  5
B9
  8
0
 62
     7
 10
75.697062000000003
 20
182.61214699999999
 30
0.0
 40
14.000184000000001
 50
270.00037200000003
 51
0.000343
  0
ARC
  5
BA
  8
0
 62
     7
 10
75.697233999999995
 20
182.61214200000001
 30
0.0
 40
14.000178999999999
 50
179.999618
 51
269.99966699999999
  0
ARC
  5
BB
  8
0
 62
     7
 10
75.697152000000003
 20
182.61222799999999
 30
0.0
 40
14.000097999999999
 50
90.0
 51
179.99996999999999
  0
ARC
  5
BC
  8
0
 62
     7
 10
75.697147999999984
 20
182.61222799999999
 30
0.0
 40
14.000097999999999
 50
0.00001
 51
89.999980000000008
  0
LINE
  5
BD
  8
0
  6
AIGENLINE001
 62
     7
 10
75.697199999999995
 20
166.56200000000001
 30
0.0
 11
75.697199999999995
 21
198.66200000000001
 31
0.0
  0
ARC
  5
BE
  8
0
 62
     7
 10
75.697062000000003
 20
182.612146
 30
0.0
 40
13.000066
 50
270.00039900000002
 51
0.00037
  0
ARC
  5
BF
  8
0
 62
     7
 10
75.697147999999984
 20
182.61222799999999
 30
0.0
 40
13.000147999999999
 50
179.99996999999999
 51
270.00002000000001
  0
ARC
  5
C0
  8
0
 62
     7
 10
75.697152000000003
 20
182.61222799999999
 30
0.0
 40
13.000152
 50
90.0
 51
179.99996999999999
  0
ARC
  5
C1
  8
0
 62
     7
 10
75.697062000000003
 20
182.612314
 30
0.0
 40
13.000066
 50
359.99963000000002
 51
89.999600999999998
  0
LINE
  5
C2
  8
0
  6
AIGENLINE001
 62
     7
 10
59.646999999999998
 20
182.61199999999999
 30
0.0
 11
91.747399999999985
 21
182.61199999999999
 31
0.0
  0
ARC
  5
C3
  8
0
 62
     7
 10
28.696794000000001
 20
201.61239599999999
 30
0.0
 40
3.000008999999999
 50
90.0
 51
179.99996999999999
  0
ARC
  5
C4
  8
0
 62
     7
 10
94.697143999999994
 20
201.61239599999999
 30
0.0
 40
3.000008999999999
 50
0.00001
 51
89.999980000000008
  0
LINE
  5
C5
  8
0
 62
     7
 10
28.6968
 20
204.61199999999999
 30
0.0
 11
94.697100000000006
 21
204.61199999999999
 31
0.0
  0
ARC
  5
C6
  8
0
 62
     7
 10
28.696793
 20
151.612031
 30
0.0
 40
3.0000079999999998
 50
179.99996999999999
 51
270.00002000000001
  0
ARC
  5
C7
  8
0
 62
     7
 10
94.697143999999994
 20
151.612032
 30
0.0
 40
3.000008999999999
 50
270.00002000000001
 51
359.99999000000003
  0
LINE
  5
C8
  8
0
 62
     7
 10
27.096699999999998
 20
151.61199999999999
 30
0.0
 11
27.096699999999998
 21
201.61199999999999
 31
0.0
  0
LINE
  5
C9
  8
0
 62
     7
 10
42.696899999999992
 20
151.61199999999999
 30
0.0
 11
42.696899999999992
 21
201.61199999999999
 31
0.0
  0
LINE
  5
CA
  8
0
 62
     7
 10
44.096800000000002
 20
151.61199999999999
 30
0.0
 11
44.096800000000002
 21
201.61199999999999
 31
0.0
  0
LINE
  5
CB
  8
0
 62
     7
 10
25.6968
 20
151.61199999999999
 30
0.0
 11
25.6968
 21
201.61199999999999
 31
0.0
  0
LINE
  5
CC
  8
0
 62
     7
 10
97.697199999999995
 20
151.61199999999999
 30
0.0
 11
97.697199999999995
 21
201.61199999999999
 31
0.0
  0
LINE
  5
CD
  8
0
 62
     7
 10
28.6968
 20
148.61199999999999
 30
0.0
 11
94.697100000000006
 21
148.61199999999999
 31
0.0
  0
ARC
  5
CE
  8
0
  6
AIGENLINE002
 62
     7
 10
88.353936000000004
 20
93.332252999999994
 30
0.0
 40
0.41262
 50
11.965729
 51
88.556547999999992
  0
ARC
  5
CF
  8
0
  6
AIGENLINE002
 62
     7
 10
63.040019999999998
 20
93.332252999999994
 30
0.0
 40
0.41262
 50
91.443431999999987
 51
168.03425100000001
  0
ARC
  5
D0
  8
0
  6
AIGENLINE002
 62
     7
 10
90.562933000000001
 20
89.330581999999993
 30
0.0
 40
1.031166
 50
191.90014400000001
 51
268.57764400000002
  0
ARC
  5
D1
  8
0
  6
AIGENLINE002
 62
     7
 10
60.839706999999997
 20
89.375302000000005
 30
0.0
 40
1.030745
 50
271.399809
 51
348.09871700000002
  0
ARC
  5
D2
  8
0
  6
AIGENLINE002
 62
     7
 10
95.259022000000002
 20
89.382885999999985
 30
0.0
 40
1.0387269999999991
 50
272.11100099999999
 51
357.908749
  0
ARC
  5
D3
  8
0
  6
AIGENLINE002
 62
     7
 10
45.135176999999999
 20
89.383230000000026
 30
0.0
 40
1.039069
 50
182.10952
 51
267.89050900000001
  0
ARC
  5
D4
  8
0
  6
AIGENLINE002
 62
     7
 10
26.423805000000002
 20
97.617986999999985
 30
0.0
 40
0.7275199999999999
 50
92.124624999999995
 51
177.87534500000001
  0
ARC
  5
D5
  8
0
  6
AIGENLINE002
 62
     7
 10
26.370253999999999
 20
97.618557999999993
 30
0.0
 40
0.726934
 50
2.0812940000000002
 51
87.904595999999998
  0
ARC
  5
D6
  8
0
  6
AIGENLINE002
 62
     7
 10
43.423907999999997
 20
97.617986999999985
 30
0.0
 40
0.7275199999999999
 50
92.124624999999995
 51
177.87534500000001
  0
ARC
  5
D7
  8
0
  6
AIGENLINE002
 62
     7
 10
43.370356999999998
 20
97.618557999999993
 30
0.0
 40
0.726934
 50
2.0812940000000002
 51
87.904595999999998
  0
ARC
  5
D8
  8
0
  6
AIGENLINE002
 62
     7
 10
34.681939999999997
 20
98.616876000000005
 30
0.0
 40
8.0736629999999998
 50
271.49194599999998
 51
353.08589799999999
  0
ARC
  5
D9
  8
0
  6
AIGENLINE002
 62
     7
 10
35.143126000000002
 20
98.651197999999994
 30
0.0
 40
8.1091329999999981
 50
187.13051899999999
 51
268.22641900000002
  0
ARC
  5
DA
  8
0
 62
     7
 10
33.089088000000011
 20
86.152628000000007
 30
0.0
 40
0.207773
 50
272.10643900000002
 51
357.8442
  0
ARC
  5
DB
  8
0
 62
     7
 10
31.104471
 20
86.152628000000007
 30
0.0
 40
0.207773
 50
182.15582000000001
 51
267.89358099999998
  0
LINE
  5
DC
  8
0
 62
     7
 10
33.296700000000001
 20
86.144800000000004
 30
0.0
 11
33.296700000000001
 21
86.3446
 31
0.0
  0
LINE
  5
DD
  8
0
 62
     7
 10
30.896799999999999
 20
86.144800000000004
 30
0.0
 11
30.896799999999999
 21
86.3446
 31
0.0
  0
LINE
  5
DE
  8
0
 62
     7
 10
31.096800000000002
 20
85.944999999999993
 30
0.0
 11
33.096699999999998
 21
85.944999999999993
 31
0.0
  0
ARC
  5
DF
  8
0
 62
     7
 10
92.289633999999992
 20
86.152454000000006
 30
0.0
 40
0.207599
 50
272.10945800000002
 51
357.89055200000001
  0
ARC
  5
E0
  8
0
 62
     7
 10
90.304676999999998
 20
86.152628000000007
 30
0.0
 40
0.207773
 50
182.15582000000001
 51
267.89358099999998
  0
LINE
  5
E1
  8
0
 62
     7
 10
92.497100000000003
 20
86.144800000000004
 30
0.0
 11
92.497100000000003
 21
86.3446
 31
0.0
  0
LINE
  5
E2
  8
0
 62
     7
 10
90.097099999999998
 20
86.144800000000004
 30
0.0
 11
90.097099999999998
 21
86.3446
 31
0.0
  0
LINE
  5
E3
  8
0
 62
     7
 10
90.297000000000011
 20
85.944999999999993
 30
0.0
 11
92.297300000000007
 21
85.944999999999993
 31
0.0
  0
ARC
  5
E4
  8
0
 62
     7
 10
173.99592999999999
 20
86.152454000000006
 30
0.0
 40
0.207599
 50
272.10945800000002
 51
357.89055200000001
  0
ARC
  5
E5
  8
0
 62
     7
 10
172.010977
 20
86.152454000000006
 30
0.0
 40
0.207599
 50
182.10945100000001
 51
267.890579
  0
LINE
  5
E6
  8
0
 62
     7
 10
174.203
 20
86.144800000000004
 30
0.0
 11
174.203
 21
86.3446
 31
0.0
  0
LINE
  5
E7
  8
0
 62
     7
 10
171.804
 20
86.144800000000004
 30
0.0
 11
171.804
 21
86.3446
 31
0.0
  0
LINE
  5
E8
  8
0
 62
     7
 10
172.00299999999999
 20
85.944999999999993
 30
0.0
 11
174.00399999999999
 21
85.944999999999993
 31
0.0
  0
ARC
  5
E9
  8
0
 62
     7
 10
123.195609
 20
86.152454000000006
 30
0.0
 40
0.207599
 50
272.10945800000002
 51
357.89055200000001
  0
ARC
  5
EA
  8
0
 62
     7
 10
121.210656
 20
86.152454000000006
 30
0.0
 40
0.207599
 50
182.10945100000001
 51
267.890579
  0
LINE
  5
EB
  8
0
 62
     7
 10
123.40300000000001
 20
86.144800000000004
 30
0.0
 11
123.40300000000001
 21
86.3446
 31
0.0
  0
LINE
  5
EC
  8
0
 62
     7
 10
121.003
 20
86.144800000000004
 30
0.0
 11
121.003
 21
86.3446
 31
0.0
  0
LINE
  5
ED
  8
0
 62
     7
 10
121.203
 20
85.944999999999993
 30
0.0
 11
123.203
 21
85.944999999999993
 31
0.0
  0
ARC
  5
EE
  8
0
 62
     7
 10
120.32973
 20
97.618379000000004
 30
0.0
 40
0.7271130000000001
 50
92.094871999999995
 51
177.90509800000001
  0
ARC
  5
EF
  8
0
 62
     7
 10
120.64184899999999
 20
87.383363000000003
 30
0.0
 40
1.0394639999999991
 50
182.12902700000001
 51
267.85126200000002
  0
LINE
  5
F0
  8
0
 62
     7
 10
119.60299999999999
 20
87.344699999999989
 30
0.0
 11
119.60299999999999
 21
97.644999999999996
 31
0.0
  0
LINE
  5
F1
  8
0
 62
     7
 10
147.60299999999989
 20
86.3446
 30
0.0
 11
120.60299999999999
 21
86.3446
 31
0.0
  0
LINE
  5
F2
  8
0
 62
     7
 10
147.60299999999989
 20
98.344999999999999
 30
0.0
 11
120.303
 21
98.344999999999999
 31
0.0
  0
ARC
  5
F3
  8
0
 62
     7
 10
174.876856
 20
97.618379000000004
 30
0.0
 40
0.7271130000000001
 50
2.0948989999999998
 51
87.905091000000013
  0
ARC
  5
F4
  8
0
 62
     7
 10
174.603194
 20
87.344919000000004
 30
0.0
 40
1.000289999999999
 50
269.99015299999991
 51
359.99012299999998
  0
LINE
  5
F5
  8
0
 62
     7
 10
175.60299999999989
 20
87.344699999999989
 30
0.0
 11
175.60299999999989
 21
97.644999999999996
 31
0.0
  0
LINE
  5
F6
  8
0
 62
     7
 10
147.60299999999989
 20
86.3446
 30
0.0
 11
174.60300000000001
 21
86.3446
 31
0.0
  0
LINE
  5
F7
  8
0
 62
     7
 10
147.60299999999989
 20
98.344999999999999
 30
0.0
 11
174.90299999999999
 21
98.344999999999999
 31
0.0
  0
ARC
  5
F8
  8
0
 62
     7
 10
26.423407000000001
 20
97.618384000000006
 30
0.0
 40
0.727108
 50
92.094503000000003
 51
177.90546699999999
  0
ARC
  5
F9
  8
0
 62
     7
 10
26.696815999999998
 20
87.344661000000002
 30
0.0
 40
1.000030999999999
 50
179.995036
 51
269.99508500000002
  0
LINE
  5
FA
  8
0
 62
     7
 10
25.6968
 20
87.344699999999989
 30
0.0
 11
25.6968
 21
97.644999999999996
 31
0.0
  0
LINE
  5
FB
  8
0
 62
     7
 10
61.696899999999999
 20
86.3446
 30
0.0
 11
26.6967
 21
86.3446
 31
0.0
  0
LINE
  5
FC
  8
0
 62
     7
 10
61.696899999999999
 20
98.344999999999999
 30
0.0
 11
26.396699999999999
 21
98.344999999999999
 31
0.0
  0
ARC
  5
FD
  8
0
 62
     7
 10
96.970524999999995
 20
97.618379000000004
 30
0.0
 40
0.7271130000000001
 50
2.0948989999999998
 51
87.905091000000013
  0
ARC
  5
FE
  8
0
 62
     7
 10
96.697034000000016
 20
87.344746999999984
 30
0.0
 40
1.0001180000000001
 50
270.00002000000001
 51
359.99999000000003
  0
LINE
  5
FF
  8
0
 62
     7
 10
97.697199999999995
 20
87.344699999999989
 30
0.0
 11
97.697199999999995
 21
97.644999999999996
 31
0.0
  0
LINE
  5
100
  8
0
 62
     7
 10
61.696899999999999
 20
86.3446
 30
0.0
 11
96.697400000000002
 21
86.3446
 31
0.0
  0
LINE
  5
101
  8
0
 62
     7
 10
61.696899999999999
 20
98.344999999999999
 30
0.0
 11
96.997100000000003
 21
98.344999999999999
 31
0.0
  0
LINE
  5
102
  8
0
  6
AIGENLINE002
 62
     7
 10
61.848300000000002
 20
89.162700000000001
 30
0.0
 11
62.636400000000002
 21
93.417799999999986
 31
0.0
  0
LINE
  5
103
  8
0
  6
AIGENLINE002
 62
     7
 10
89.553899999999985
 20
89.117900000000006
 30
0.0
 11
88.757599999999996
 21
93.417799999999986
 31
0.0
  0
LINE
  5
104
  8
0
  6
AIGENLINE002
 62
     7
 10
96.297100000000015
 20
89.344599999999986
 30
0.0
 11
96.297100000000015
 21
98.344999999999999
 31
0.0
  0
LINE
  5
105
  8
0
  6
AIGENLINE002
 62
     7
 10
88.2971
 20
93.744699999999995
 30
0.0
 11
63.096800000000002
 21
93.744699999999995
 31
0.0
  0
LINE
  5
106
  8
0
  6
AIGENLINE002
 62
     7
 10
95.297300000000007
 20
88.344899999999996
 30
0.0
 11
45.096899999999991
 21
88.344899999999996
 31
0.0
  0
LINE
  5
107
  8
0
  6
AIGENLINE002
 62
     7
 10
44.096800000000002
 20
89.344599999999986
 30
0.0
 11
44.096800000000002
 21
97.644999999999996
 31
0.0
  0
LINE
  5
108
  8
0
 62
     7
 10
97.697199999999995
 20
149.178
 30
0.0
 11
97.697199999999995
 21
136.19499999999999
 31
0.0
  0
LINE
  5
109
  8
0
 62
     7
 10
25.6968
 20
149.178
 30
0.0
 11
25.6968
 21
136.07599999999999
 31
0.0
  0
LINE
  5
10A
  8
0
 62
     7
 10
27.465900000000001
 20
137.357
 30
0.0
 11
25.6968
 21
136.88399999999999
 31
0.0
  0
LINE
  5
10B
  8
0
 62
     7
 10
25.6968
 20
136.88399999999999
 30
0.0
 11
27.465900000000001
 21
136.41
 31
0.0
  0
LINE
  5
10C
  8
0
 62
     7
 10
27.465900000000001
 20
136.41
 30
0.0
 11
27.465900000000001
 21
137.357
 31
0.0
  0
LINE
  5
10D
  8
0
 62
     7
 10
95.929100000000005
 20
136.42099999999999
 30
0.0
 11
97.697199999999995
 21
136.89500000000001
 31
0.0
  0
LINE
  5
10E
  8
0
 62
     7
 10
97.697199999999995
 20
136.89500000000001
 30
0.0
 11
95.929100000000005
 21
137.369
 31
0.0
  0
LINE
  5
10F
  8
0
 62
     7
 10
95.929100000000005
 20
137.369
 30
0.0
 11
95.929100000000005
 21
136.42099999999999
 31
0.0
  0
LINE
  5
110
  8
0
 62
     7
 10
25.6968
 20
136.88900000000001
 30
0.0
 11
97.675799999999995
 21
136.88900000000001
 31
0.0
  0
TEXT
  5
111
  8
_________2
 62
     7
 10
39.364090666666669
 20
13.603400000000001
 30
0.0
 40
3.6545800000000002
  1
篠崎
 41
0.5
 72
     1
 11
41.313200000000002
 21
13.603400000000001
 31
0.0
  0
TEXT
  5
112
  8
_________2
 62
     7
 10
24.586400000000001
 20
0.707627
 30
0.0
 40
3.9357000000000002
  1
陶器製、重量：3.2kg
 41
0.5
  0
TEXT
  5
113
  8
_________2
 62
     7
 10
109.179
 20
24.226099999999999
 30
0.0
 40
3.9357000000000002
  1
バル　トレイ（角型）
 41
0.5
  0
LINE
  5
114
  8
_________2
 62
     7
 10
205.30099999999999
 20
127.411
 30
0.0
 11
183.55099999999999
 21
127.411
 31
0.0
  0
LINE
  5
115
  8
_________2
 62
     7
 10
100.3
 20
-4.0910799999999998
 30
0.0
 11
100.3
 21
-21.071000000000002
 31
0.0
  0
LINE
  5
116
  8
_________2
 62
     7
 10
100.3
 20
275.93099999999998
 30
0.0
 11
100.3
 21
258.911
 31
0.0
  0
LINE
  5
117
  8
_________2
 62
     7
 10
17.049199999999999
 20
127.411
 30
0.0
 11
-4.7012099999999988
 21
127.411
 31
0.0
  0
LINE
  5
118
  8
_________2
 62
     7
 10
76.740700000000004
 20
29.8047
 30
0.0
 11
74.554400000000001
 21
29.8047
 31
0.0
  0
LINE
  5
119
  8
_________2
 62
     7
 10
77.2333
 20
29.8047
 30
0.0
 11
76.981099999999984
 21
29.8047
 31
0.0
  0
LINE
  5
11A
  8
_________2
 62
     7
 10
77.725999999999999
 20
29.8047
 30
0.0
 11
80.650899999999993
 21
29.8047
 31
0.0
  0
LINE
  5
11B
  8
_________2
 62
     7
 10
77.2333
 20
29.8047
 30
0.0
 11
77.485500000000002
 21
29.8047
 31
0.0
  0
LINE
  5
11C
  8
_________2
 62
     7
 10
70.837100000000007
 20
29.8047
 30
0.0
 11
68.650199999999998
 21
29.8047
 31
0.0
  0
LINE
  5
11D
  8
_________2
 62
     7
 10
71.329099999999997
 20
29.8047
 30
0.0
 11
71.077600000000004
 21
29.8047
 31
0.0
  0
LINE
  5
11E
  8
_________2
 62
     7
 10
71.329099999999997
 20
30.2974
 30
0.0
 11
71.329099999999997
 21
32.484400000000001
 31
0.0
  0
LINE
  5
11F
  8
_________2
 62
     7
 10
71.329099999999997
 20
29.8047
 30
0.0
 11
71.329099999999997
 21
30.057300000000001
 31
0.0
  0
LINE
  5
120
  8
_________2
 62
     7
 10
71.821700000000007
 20
29.8047
 30
0.0
 11
74.008700000000005
 21
29.8047
 31
0.0
  0
LINE
  5
121
  8
_________2
 62
     7
 10
71.329099999999997
 20
29.8047
 30
0.0
 11
71.581299999999985
 21
29.8047
 31
0.0
  0
LINE
  5
122
  8
_________2
 62
     7
 10
71.329099999999997
 20
29.312799999999999
 30
0.0
 11
71.329099999999997
 21
27.126200000000001
 31
0.0
  0
LINE
  5
123
  8
_________2
 62
     7
 10
71.329099999999997
 20
29.8047
 30
0.0
 11
71.329099999999997
 21
29.5532
 31
0.0
  0
LINE
  5
124
  8
_________2
 62
     7
 10
75.040199999999999
 20
28.5852
 30
0.0
 11
80.218199999999996
 21
27.720400000000001
 31
0.0
  0
LINE
  5
125
  8
_________2
 62
     7
 10
75.040199999999999
 20
31.024699999999999
 30
0.0
 11
80.218199999999996
 21
31.8901
 31
0.0
  0
LINE
  5
126
  8
_________2
 62
     7
 10
80.218199999999996
 20
27.720400000000001
 30
0.0
 11
80.218199999999996
 21
31.8901
 31
0.0
  0
LINE
  5
127
  8
_________2
 62
     7
 10
75.040199999999999
 20
28.5852
 30
0.0
 11
75.040199999999999
 21
31.024699999999999
 31
0.0
  0
ARC
  5
128
  8
_________2
 62
     7
 10
71.282501999999994
 20
29.757801000000001
 30
0.0
 40
1.267714
 50
2.1220840000000001
 51
87.894083999999992
  0
ARC
  5
129
  8
_________2
 62
     7
 10
71.375640000000004
 20
29.758545999999999
 30
0.0
 40
1.2669680000000001
 50
92.105782999999988
 51
177.91037
  0
ARC
  5
12A
  8
_________2
 62
     7
 10
71.376013999999998
 20
29.851671
 30
0.0
 40
1.2673680000000001
 50
182.12203600000001
 51
267.877993
  0
ARC
  5
12B
  8
_________2
 62
     7
 10
71.282195999999999
 20
29.852347999999999
 30
0.0
 40
1.2680439999999991
 50
272.11916400000001
 51
357.84848499999998
  0
ARC
  5
12C
  8
_________2
 62
     7
 10
71.248716999999985
 20
29.724731999999999
 30
0.0
 40
2.1668310000000002
 50
2.1161439999999989
 51
87.874379000000005
  0
ARC
  5
12D
  8
_________2
 62
     7
 10
71.408756000000011
 20
29.726146
 30
0.0
 40
2.165392999999999
 50
92.108508999999998
 51
177.91986499999999
  0
ARC
  5
12E
  8
_________2
 62
     7
 10
71.409094999999994
 20
29.884751999999999
 30
0.0
 40
2.1657829999999998
 50
182.117133
 51
267.88289700000001
  0
ARC
  5
12F
  8
_________2
 62
     7
 10
71.249115000000003
 20
29.885429999999999
 30
0.0
 40
2.1664590000000001
 50
272.11546800000002
 51
357.86560400000002
  0
TEXT
  5
130
  8
_________2
 62
     7
 10
104.605
 20
1.6794899999999999
 30
0.0
 40
3.0923400000000001
  1
図番
 41
0.5
  0
LINE
  5
131
  8
_________2
 62
     7
 10
103.55
 20
5.9087199999999989
 30
0.0
 11
183.55099999999999
 21
5.9087199999999989
 31
0.0
  0
TEXT
  5
132
  8
_________2
 62
     7
 10
104.605
 20
11.6793
 30
0.0
 40
3.0923400000000001
  1
品番
 41
0.5
  0
TEXT
  5
133
  8
_________2
 62
     7
 10
104.605
 20
31.8184
 30
0.0
 40
3.0923400000000001
  1
名称
 41
0.5
  0
TEXT
  5
134
  8
_________2
 62
     7
 10
91.844758333333345
 20
26.822299999999998
 30
0.0
 40
3.6545800000000002
  1
mm
 41
0.5
 72
     1
 11
93.367500000000007
 21
26.822299999999998
 31
0.0
  0
TEXT
  5
135
  8
_________2
 62
     7
 10
85.642899999999983
 20
31.8184
 30
0.0
 40
3.0923400000000001
  1
単位
 41
0.5
  0
TEXT
  5
136
  8
_________2
 62
     7
 10
85.642899999999983
 20
19.410799999999998
 30
0.0
 40
3.0923400000000001
  1
尺度
 41
0.5
  0
TEXT
  5
137
  8
_________2
 62
     7
 10
90.548458666666676
 20
13.2182
 30
0.0
 40
3.6545800000000002
  1
1 ： 5
 41
0.5
 72
     1
 11
93.959400000000016
 21
13.2182
 31
0.0
  0
TEXT
  5
138
  8
_________2
 62
     7
 10
137.15448749999999
 20
9.1082000000000001
 30
0.0
 40
3.9357000000000002
  1
AU70282
 41
0.5
 72
     1
 11
143.55000000000001
 21
9.1082000000000001
 31
0.0
  0
TEXT
  5
139
  8
_________2
 62
     7
 10
137.15448749999999
 20
-0.8926299999999999
 30
0.0
 40
3.9357000000000002
  1
AU70282
 41
0.5
 72
     1
 11
143.55000000000001
 21
-0.8926299999999999
 31
0.0
  0
TEXT
  5
13A
  8
_________2
 62
     7
 10
20.790090666666671
 20
13.603400000000001
 30
0.0
 40
3.6545800000000002
  1
菅原
 41
0.5
 72
     1
 11
22.7392
 21
13.603400000000001
 31
0.0
  0
TEXT
  5
13B
  8
_________2
 62
     7
 10
67.785399999999996
 20
13.2182
 30
0.0
 40
3.6545800000000002
  1
16.10.07
 41
0.5
  0
TEXT
  5
13C
  8
_________2
 62
     7
 10
66.592699999999994
 20
19.410799999999998
 30
0.0
 40
3.0923400000000001
  1
日付
 41
0.5
  0
TEXT
  5
13D
  8
_________2
 62
     7
 10
29.638999999999999
 20
19.410799999999998
 30
0.0
 40
3.0923400000000001
  1
検図
 41
0.5
  0
TEXT
  5
13E
  8
_________2
 62
     7
 10
18.020700000000001
 20
5.21143
 30
0.0
 40
3.0923400000000001
  1
備考
 41
0.5
  0
TEXT
  5
13F
  8
_________2
 62
     7
 10
18.020700000000001
 20
19.410799999999998
 30
0.0
 40
3.0923400000000001
  1
製図
 41
0.5
  0
TEXT
  5
140
  8
_________2
 62
     7
 10
23.788165333333339
 20
27.936800000000002
 30
0.0
 40
4.4979399999999989
  1
セラトレーディング株式会社
 41
0.5
 72
     1
 11
41.180199999999999
 21
27.936800000000002
 31
0.0
  0
LINE
  5
141
  8
_________2
 62
     7
 10
183.55099999999999
 20
-4.0910799999999998
 30
0.0
 11
17.049199999999999
 21
-4.0910799999999998
 31
0.0
  0
LINE
  5
142
  8
_________2
 62
     7
 10
17.049199999999999
 20
-4.0910799999999998
 30
0.0
 11
17.049199999999999
 21
258.911
 31
0.0
  0
LINE
  5
143
  8
_________2
 62
     7
 10
17.049199999999999
 20
258.911
 30
0.0
 11
183.55099999999999
 21
258.911
 31
0.0
  0
LINE
  5
144
  8
_________2
 62
     7
 10
183.55099999999999
 20
258.911
 30
0.0
 11
183.55099999999999
 21
-4.0910799999999998
 31
0.0
  0
LINE
  5
145
  8
_________2
 62
     7
 10
65.549599999999998
 20
9.4092999999999982
 30
0.0
 11
65.549599999999998
 21
35.909100000000002
 31
0.0
  0
LINE
  5
146
  8
_________2
 62
     7
 10
84.549400000000006
 20
9.4092999999999982
 30
0.0
 11
84.549400000000006
 21
35.909100000000002
 31
0.0
  0
LINE
  5
147
  8
_________2
 62
     7
 10
103.55
 20
-4.0910799999999998
 30
0.0
 11
103.55
 21
35.909100000000002
 31
0.0
  0
LINE
  5
148
  8
_________2
 62
     7
 10
28.548999999999999
 20
9.4092999999999982
 30
0.0
 11
28.548999999999999
 21
23.409199999999998
 31
0.0
  0
LINE
  5
149
  8
_________2
 62
     7
 10
17.049199999999999
 20
9.4092999999999982
 30
0.0
 11
103.55
 21
9.4092999999999982
 31
0.0
  0
LINE
  5
14A
  8
_________2
 62
     7
 10
17.049199999999999
 20
23.409199999999998
 30
0.0
 11
103.55
 21
23.409199999999998
 31
0.0
  0
LINE
  5
14B
  8
_________2
 62
     7
 10
103.55
 20
15.9085
 30
0.0
 11
183.55099999999999
 21
15.9085
 31
0.0
  0
LINE
  5
14C
  8
_________2
 62
     7
 10
17.049199999999999
 20
35.909100000000002
 30
0.0
 11
183.55099999999999
 21
35.909100000000002
 31
0.0
  0
ENDSEC
  0
EOF
