  0
SECTION
  2
HEADER
  9
$ACADVER
  1
AC1009
  9
$INSBASE
 10
0.0
 20
0.0
 30
0.0
  9
$EXTMIN
 10
-4.70052
 20
-21.071400000000001
 30
0.0
  9
$EXTMAX
 10
205.30099999999999
 20
275.93099999999998
 30
0.0
  9
$LIMMIN
 10
0.0
 20
0.0
  9
$LIMMAX
 10
12.0
 20
9.0
  9
$ORTHOMODE
 70
     0
  9
$REGENMODE
 70
     1
  9
$FILLMODE
 70
     1
  9
$QTEXTMODE
 70
     0
  9
$MIRRTEXT
 70
     1
  9
$DRAGMODE
 70
     2
  9
$LTSCALE
 40
1.0
  9
$OSMODE
 70
    37
  9
$ATTMODE
 70
     1
  9
$TEXTSIZE
 40
0.0
  9
$TRACEWID
 40
0.05
  9
$TEXTSTYLE
  7
STANDARD
  9
$CLAYER
  8
0
  9
$CELTYPE
  6
CONTINUOUS
  9
$CECOLOR
 62
   256
  9
$DIMSCALE
 40
1.0
  9
$DIMASZ
 40
0.18
  9
$DIMEXO
 40
0.0625
  9
$DIMDLI
 40
0.38
  9
$DIMRND
 40
0.0
  9
$DIMDLE
 40
0.0
  9
$DIMEXE
 40
0.18
  9
$DIMTP
 40
0.0
  9
$DIMTM
 40
0.0
  9
$DIMTXT
 40
0.18
  9
$DIMCEN
 40
0.09
  9
$DIMTSZ
 40
0.0
  9
$DIMTOL
 70
     0
  9
$DIMLIM
 70
     0
  9
$DIMTIH
 70
     1
  9
$DIMTOH
 70
     1
  9
$DIMSE1
 70
     0
  9
$DIMSE2
 70
     0
  9
$DIMTAD
 70
     0
  9
$DIMZIN
 70
     0
  9
$DIMBLK
  1

  9
$DIMASO
 70
     1
  9
$DIMSHO
 70
     1
  9
$DIMPOST
  1

  9
$DIMAPOST
  1

  9
$DIMALT
 70
     0
  9
$DIMALTD
 70
     2
  9
$DIMALTF
 40
25.399999999999999
  9
$DIMLFAC
 40
1.0
  9
$DIMTOFL
 70
     0
  9
$DIMTVP
 40
0.0
  9
$DIMTIX
 70
     0
  9
$DIMSOXD
 70
     0
  9
$DIMSAH
 70
     0
  9
$DIMBLK1
  1

  9
$DIMBLK2
  1

  9
$DIMSTYLE
  2
STANDARD
  9
$DIMCLRD
 70
     0
  9
$DIMCLRE
 70
     0
  9
$DIMCLRT
 70
     0
  9
$DIMTFAC
 40
1.0
  9
$DIMGAP
 40
0.09
  9
$LUNITS
 70
     2
  9
$LUPREC
 70
     4
  9
$SKETCHINC
 40
0.1
  9
$FILLETRAD
 40
0.0
  9
$AUNITS
 70
     0
  9
$AUPREC
 70
     0
  9
$MENU
  1
.
  9
$ELEVATION
 40
0.0
  9
$PELEVATION
 40
0.0
  9
$THICKNESS
 40
0.0
  9
$LIMCHECK
 70
     0
  9
$BLIPMODE
 70
     0
  9
$CHAMFERA
 40
0.0
  9
$CHAMFERB
 40
0.0
  9
$SKPOLY
 70
     0
  9
$TDCREATE
 40
2444972.375
  9
$TDUPDATE
 40
2457675.2491391199
  9
$TDINDWG
 40
0.0000256829
  9
$TDUSRTIMER
 40
0.0000256829
  9
$USRTIMER
 70
     1
  9
$ANGBASE
 50
0.0
  9
$ANGDIR
 70
     0
  9
$PDMODE
 70
     0
  9
$PDSIZE
 40
0.0
  9
$PLINEWID
 40
0.0
  9
$COORDS
 70
     1
  9
$SPLFRAME
 70
     0
  9
$SPLINETYPE
 70
     6
  9
$SPLINESEGS
 70
     8
  9
$ATTDIA
 70
     1
  9
$ATTREQ
 70
     1
  9
$HANDLING
 70
     1
  9
$HANDSEED
  5
1CD
  9
$SURFTAB1
 70
     6
  9
$SURFTAB2
 70
     6
  9
$SURFTYPE
 70
     6
  9
$SURFU
 70
     6
  9
$SURFV
 70
     6
  9
$UCSNAME
  2

  9
$UCSORG
 10
0.0
 20
0.0
 30
0.0
  9
$UCSXDIR
 10
1.0
 20
0.0
 30
0.0
  9
$UCSYDIR
 10
0.0
 20
1.0
 30
0.0
  9
$PUCSNAME
  2

  9
$PUCSORG
 10
0.0
 20
0.0
 30
0.0
  9
$PUCSXDIR
 10
1.0
 20
0.0
 30
0.0
  9
$PUCSYDIR
 10
0.0
 20
1.0
 30
0.0
  9
$USERI1
 70
     0
  9
$USERI2
 70
     0
  9
$USERI3
 70
     0
  9
$USERI4
 70
     0
  9
$USERI5
 70
     0
  9
$USERR1
 40
0.0
  9
$USERR2
 40
0.0
  9
$USERR3
 40
0.0
  9
$USERR4
 40
0.0
  9
$USERR5
 40
0.0
  9
$WORLDVIEW
 70
     1
  9
$SHADEDGE
 70
     3
  9
$SHADEDIF
 70
    70
  9
$TILEMODE
 70
     1
  9
$MAXACTVP
 70
    48
  9
$PLIMCHECK
 70
     0
  9
$PEXTMIN
 10
1.0000000000000000E+020
 20
1.0000000000000000E+020
 30
1.0000000000000000E+020
  9
$PEXTMAX
 10
-1.0000000000000000E+020
 20
-1.0000000000000000E+020
 30
-1.0000000000000000E+020
  9
$PLIMMIN
 10
0.0
 20
0.0
  9
$PLIMMAX
 10
12.0
 20
9.0
  9
$UNITMODE
 70
     0
  9
$VISRETAIN
 70
     1
  9
$PLINEGEN
 70
     0
  9
$PSLTSCALE
 70
     1
  0
ENDSEC
  0
SECTION
  2
TABLES
  0
TABLE
  2
VPORT
 70
     1
  0
VPORT
  2
*ACTIVE
 70
     0
 10
0.0
 20
0.0
 11
1.0
 21
1.0
 12
173.0589517274982
 22
127.4298
 13
0.0
 23
0.0
 14
1.0
 24
1.0
 15
0.0
 25
0.0
 16
0.0
 26
0.0
 36
1.0
 17
0.0
 27
0.0
 37
0.0
 40
289.64168420534031
 41
2.1063583815028899
 42
50.0
 43
0.0
 44
0.0
 50
0.0
 51
0.0
 71
     0
 72
   100
 73
     1
 74
     1
 75
     0
 76
     0
 77
     0
 78
     0
  0
ENDTAB
  0
TABLE
  2
LTYPE
 70
     2
  0
LTYPE
  2
CONTINUOUS
 70
     0
  3
Solid line
 72
    65
 73
     0
 40
0.0
  0
LTYPE
  2
AIGENLINE001
 70
     0
  3
generate AI->DXF Converter
 72
    65
 73
     4
 40
5.8561449999999988
 49
3.5278
 49
-0.776115
 49
0.776115
 49
-0.776115
  0
ENDTAB
  0
TABLE
  2
LAYER
 70
     2
  0
LAYER
  2
0
 70
     0
 62
     7
  6
CONTINUOUS
  0
LAYER
  2
_________2
 70
     0
 62
     7
  6
CONTINUOUS
  0
ENDTAB
  0
TABLE
  2
STYLE
 70
     1
  0
STYLE
  2
STANDARD
 70
     0
 40
0.0
 41
0.0
 50
0.0
 71
     0
 42
0.0
  3
TXT
  4
EXTFONT.SHX
  0
ENDTAB
  0
TABLE
  2
VIEW
 70
     0
  0
ENDTAB
  0
TABLE
  2
UCS
 70
     0
  0
ENDTAB
  0
TABLE
  2
APPID
 70
     3
  0
APPID
  2
ACAD
 70
     0
  0
APPID
  2
ACAD_NAV_VCDISPLAY
 70
     0
  0
APPID
  2
ACAD_MLEADERVER
 70
     0
  0
ENDTAB
  0
TABLE
  2
DIMSTYLE
 70
     1
  0
DIMSTYLE
  2
STANDARD
 70
     0
  3

  4

  5

  6

  7

 40
1.0
 41
0.18
 42
0.0625
 43
0.38
 44
0.18
 45
0.0
 46
0.0
 47
0.0
 48
0.0
140
0.18
141
0.09
142
0.0
143
25.399999999999999
144
1.0
145
0.0
146
1.0
147
0.09
 71
     0
 72
     0
 73
     1
 74
     1
 75
     0
 76
     0
 77
     0
 78
     0
170
     0
171
     2
172
     0
173
     0
174
     0
175
     0
176
     0
177
     0
178
     0
  0
ENDTAB
  0
ENDSEC
  0
SECTION
  2
BLOCKS
  0
BLOCK
  8
0
  2
$MODEL_SPACE
 70
     0
 10
0.0
 20
0.0
 30
0.0
  3
$MODEL_SPACE
  1

  0
ENDBLK
  5
1A
  8
0
  0
BLOCK
 67
     1
  8
0
  2
$PAPER_SPACE
 70
     0
 10
0.0
 20
0.0
 30
0.0
  3
$PAPER_SPACE
  1

  0
ENDBLK
  5
17
 67
     1
  8
0
  0
ENDSEC
  0
SECTION
  2
ENTITIES
  0
TEXT
  5
22
  8
0
 62
     7
 10
67.607299999999995
 20
127.535
 30
0.0
 40
3.0923400000000001
  1
パッキン
 41
0.5
  0
TEXT
  5
23
  8
0
 62
     7
 10
67.607299999999995
 20
137.53399999999999
 30
0.0
 40
3.0923400000000001
  1
パッキン
 41
0.5
  0
TEXT
  5
24
  8
0
 62
     7
 10
130.066
 20
143.41522000000001
 30
0.0
 40
3.0923400000000001
  1
14
 50
90.0
 41
0.5
 72
     1
 11
130.066
 21
144.446
 31
0.0
  0
TEXT
  5
25
  8
0
 62
     7
 10
130.066
 20
127.95457500000001
 30
0.0
 40
3.0923400000000001
  1
max.55
 50
90.0
 41
0.5
 72
     1
 11
130.066
 21
131.81999999999999
 31
0.0
  0
TEXT
  5
26
  8
0
 62
     7
 10
130.066
 20
149.54406750000001
 30
0.0
 40
3.0923400000000001
  1
10
 50
90.0
 41
0.5
 72
     1
 11
130.066
 21
150.446
 31
0.0
  0
TEXT
  5
27
  8
0
 62
     7
 10
130.066
 20
115.906525
 30
0.0
 40
3.0923400000000001
  1
22
 50
90.0
 41
0.5
 72
     1
 11
130.066
 21
117.19499999999999
 31
0.0
  0
TEXT
  5
28
  8
0
 62
     7
 10
130.066
 20
107.41422
 30
0.0
 40
3.0923400000000001
  1
13
 50
90.0
 41
0.5
 72
     1
 11
130.066
 21
108.44499999999999
 31
0.0
  0
TEXT
  5
29
  8
0
 62
     7
 10
96.743808999999999
 20
78.728499999999997
 30
0.0
 40
3.0923400000000001
  1
G1 1/4
 41
0.5
 72
     1
 11
100.3
 21
78.728499999999997
 31
0.0
  0
TEXT
  5
2A
  8
0
 62
     7
 10
76.095799999999997
 20
143.661
 30
0.0
 40
3.0923400000000001
  1
%%c63
 41
0.5
  0
TEXT
  5
2B
  8
0
 62
     7
 10
105.607365885166
 20
200.73936588516599
 30
0.0
 40
3.0923400000000001
  1
%%c80
 50
45.0
 41
0.5
 72
     1
 11
106.974
 21
202.10599999999999
 31
0.0
  0
LINE
  5
2C
  8
0
 62
     7
 10
87.302000000000007
 20
182.28100000000001
 30
0.0
 11
86.157700000000006
 21
180.29900000000001
 31
0.0
  0
LINE
  5
2D
  8
0
 62
     7
 10
86.157700000000006
 20
180.29900000000001
 30
0.0
 11
88.139700000000005
 21
181.4429999999999
 31
0.0
  0
LINE
  5
2E
  8
0
 62
     7
 10
88.139700000000005
 20
181.4429999999999
 30
0.0
 11
87.302000000000007
 21
182.28100000000001
 31
0.0
  0
LINE
  5
2F
  8
0
 62
     7
 10
113.288
 20
206.61199999999999
 30
0.0
 11
114.432
 21
208.59399999999999
 31
0.0
  0
LINE
  5
30
  8
0
 62
     7
 10
114.432
 20
208.59399999999999
 30
0.0
 11
112.45
 21
207.44900000000001
 31
0.0
  0
LINE
  5
31
  8
0
 62
     7
 10
112.45
 20
207.44900000000001
 30
0.0
 11
113.288
 21
206.61199999999999
 31
0.0
  0
LINE
  5
32
  8
0
 62
     7
 10
86.157000000000025
 20
180.298
 30
0.0
 11
114.443
 21
208.584
 31
0.0
  0
ARC
  5
33
  8
0
 62
     7
 10
100.300107
 20
194.44586699999999
 30
0.0
 40
19.999942999999998
 50
270.00051300000001
 51
0.000484
  0
ARC
  5
34
  8
0
 62
     7
 10
100.30019299999999
 20
194.44611800000001
 30
0.0
 40
20.000194
 50
180.000257
 51
270.00026700000001
  0
ARC
  5
35
  8
0
 62
     7
 10
100.3002
 20
194.44594599999999
 30
0.0
 40
20.000201000000001
 50
89.999752999999998
 51
179.99972299999999
  0
ARC
  5
36
  8
0
 62
     7
 10
100.300107
 20
194.44620499999999
 30
0.0
 40
19.999942999999998
 50
359.99951600000003
 51
89.999487000000002
  0
LINE
  5
37
  8
0
 62
     7
 10
83.2971
 20
126.166
 30
0.0
 11
85.049999999999997
 21
124.69499999999999
 31
0.0
  0
LINE
  5
38
  8
0
 62
     7
 10
85.049999999999997
 20
124.69499999999999
 30
0.0
 11
82.796499999999995
 21
125.093
 31
0.0
  0
LINE
  5
39
  8
0
 62
     7
 10
82.796499999999995
 20
125.093
 30
0.0
 11
83.2971
 21
126.166
 31
0.0
  0
LINE
  5
3A
  8
0
 62
     7
 10
85.053099999999986
 20
124.702
 30
0.0
 11
80.480000000000004
 21
126.83499999999999
 31
0.0
  0
LINE
  5
3B
  8
0
 62
     7
 10
80.480000000000004
 20
126.83499999999999
 30
0.0
 11
67.607299999999995
 21
126.83499999999999
 31
0.0
  0
LINE
  5
3C
  8
0
 62
     7
 10
83.2971
 20
136.166
 30
0.0
 11
85.049999999999997
 21
134.69499999999999
 31
0.0
  0
LINE
  5
3D
  8
0
 62
     7
 10
85.049999999999997
 20
134.69499999999999
 30
0.0
 11
82.796499999999995
 21
135.09299999999999
 31
0.0
  0
LINE
  5
3E
  8
0
 62
     7
 10
82.796499999999995
 20
135.09299999999999
 30
0.0
 11
83.2971
 21
136.166
 31
0.0
  0
LINE
  5
3F
  8
0
 62
     7
 10
85.053099999999986
 20
134.702
 30
0.0
 11
80.480000000000004
 21
136.834
 31
0.0
  0
LINE
  5
40
  8
0
 62
     7
 10
80.480000000000004
 20
136.834
 30
0.0
 11
67.607299999999995
 21
136.834
 31
0.0
  0
LINE
  5
41
  8
0
 62
     7
 10
130.18100000000001
 20
143.15600000000001
 30
0.0
 11
130.773
 21
140.946
 31
0.0
  0
LINE
  5
42
  8
0
 62
     7
 10
130.773
 20
140.946
 30
0.0
 11
131.36500000000001
 21
143.15600000000001
 31
0.0
  0
LINE
  5
43
  8
0
 62
     7
 10
131.36500000000001
 20
143.15600000000001
 30
0.0
 11
130.18100000000001
 21
143.15600000000001
 31
0.0
  0
LINE
  5
44
  8
0
 62
     7
 10
130.18100000000001
 20
150.15600000000001
 30
0.0
 11
130.773
 21
147.946
 31
0.0
  0
LINE
  5
45
  8
0
 62
     7
 10
130.773
 20
147.946
 30
0.0
 11
131.36500000000001
 21
150.15600000000001
 31
0.0
  0
LINE
  5
46
  8
0
 62
     7
 10
131.36500000000001
 20
150.15600000000001
 30
0.0
 11
130.18100000000001
 21
150.15600000000001
 31
0.0
  0
LINE
  5
47
  8
0
 62
     7
 10
130.18100000000001
 20
113.90600000000001
 30
0.0
 11
130.773
 21
111.69499999999999
 31
0.0
  0
LINE
  5
48
  8
0
 62
     7
 10
130.773
 20
111.69499999999999
 30
0.0
 11
131.36500000000001
 21
113.90600000000001
 31
0.0
  0
LINE
  5
49
  8
0
 62
     7
 10
131.36500000000001
 20
113.90600000000001
 30
0.0
 11
130.18100000000001
 21
113.90600000000001
 31
0.0
  0
LINE
  5
4A
  8
0
 62
     7
 10
130.18100000000001
 20
107.405
 30
0.0
 11
130.773
 21
105.19499999999999
 31
0.0
  0
LINE
  5
4B
  8
0
 62
     7
 10
130.773
 20
105.19499999999999
 30
0.0
 11
131.36500000000001
 21
107.405
 31
0.0
  0
LINE
  5
4C
  8
0
 62
     7
 10
131.36500000000001
 20
107.405
 30
0.0
 11
130.18100000000001
 21
107.405
 31
0.0
  0
LINE
  5
4D
  8
0
 62
     7
 10
131.351
 20
109.485
 30
0.0
 11
130.75899999999999
 21
111.69499999999999
 31
0.0
  0
LINE
  5
4E
  8
0
 62
     7
 10
130.75899999999999
 20
111.69499999999999
 30
0.0
 11
130.167
 21
109.485
 31
0.0
  0
LINE
  5
4F
  8
0
 62
     7
 10
130.167
 20
109.485
 30
0.0
 11
131.351
 21
109.485
 31
0.0
  0
LINE
  5
50
  8
0
 62
     7
 10
131.351
 20
138.73500000000001
 30
0.0
 11
130.75899999999999
 21
140.946
 31
0.0
  0
LINE
  5
51
  8
0
 62
     7
 10
130.75899999999999
 20
140.946
 30
0.0
 11
130.167
 21
138.73500000000001
 31
0.0
  0
LINE
  5
52
  8
0
 62
     7
 10
130.167
 20
138.73500000000001
 30
0.0
 11
131.351
 21
138.73500000000001
 31
0.0
  0
LINE
  5
53
  8
0
 62
     7
 10
131.351
 20
145.23500000000001
 30
0.0
 11
130.75899999999999
 21
147.946
 31
0.0
  0
LINE
  5
54
  8
0
 62
     7
 10
130.75899999999999
 20
147.946
 30
0.0
 11
130.167
 21
145.23500000000001
 31
0.0
  0
LINE
  5
55
  8
0
 62
     7
 10
130.167
 20
145.23500000000001
 30
0.0
 11
131.351
 21
145.23500000000001
 31
0.0
  0
LINE
  5
56
  8
0
 62
     7
 10
131.351
 20
150.73500000000001
 30
0.0
 11
130.75899999999999
 21
152.946
 31
0.0
  0
LINE
  5
57
  8
0
 62
     7
 10
130.75899999999999
 20
152.946
 30
0.0
 11
130.167
 21
150.73500000000001
 31
0.0
  0
LINE
  5
58
  8
0
 62
     7
 10
130.167
 20
150.73500000000001
 30
0.0
 11
131.351
 21
150.73500000000001
 31
0.0
  0
LINE
  5
59
  8
0
 62
     7
 10
131.351
 20
120.485
 30
0.0
 11
130.75899999999999
 21
122.69499999999999
 31
0.0
  0
LINE
  5
5A
  8
0
 62
     7
 10
130.75899999999999
 20
122.69499999999999
 30
0.0
 11
130.167
 21
120.485
 31
0.0
  0
LINE
  5
5B
  8
0
 62
     7
 10
130.167
 20
120.485
 30
0.0
 11
131.351
 21
120.485
 31
0.0
  0
LINE
  5
5C
  8
0
 62
     7
 10
130.76599999999999
 20
105.19499999999999
 30
0.0
 11
130.76599999999999
 21
152.946
 31
0.0
  0
LINE
  5
5D
  8
0
 62
     7
 10
92.260199999999998
 20
78.613399999999999
 30
0.0
 11
90.049899999999994
 21
78.021199999999993
 31
0.0
  0
LINE
  5
5E
  8
0
 62
     7
 10
90.049899999999994
 20
78.021199999999993
 30
0.0
 11
92.260199999999998
 21
77.429000000000002
 31
0.0
  0
LINE
  5
5F
  8
0
 62
     7
 10
92.260199999999998
 20
77.429000000000002
 30
0.0
 11
92.260199999999998
 21
78.613399999999999
 31
0.0
  0
LINE
  5
60
  8
0
 62
     7
 10
108.34
 20
77.4435
 30
0.0
 11
110.55
 21
78.035700000000006
 31
0.0
  0
LINE
  5
61
  8
0
 62
     7
 10
110.55
 20
78.035700000000006
 30
0.0
 11
108.34
 21
78.627899999999997
 31
0.0
  0
LINE
  5
62
  8
0
 62
     7
 10
108.34
 20
78.627899999999997
 30
0.0
 11
108.34
 21
77.4435
 31
0.0
  0
LINE
  5
63
  8
0
 62
     7
 10
90.049899999999994
 20
78.028499999999994
 30
0.0
 11
110.55
 21
78.028499999999994
 31
0.0
  0
LINE
  5
64
  8
0
 62
     7
 10
113.5
 20
111.69499999999999
 30
0.0
 11
131.47300000000001
 21
111.69499999999999
 31
0.0
  0
LINE
  5
65
  8
0
 62
     7
 10
110.751
 20
105.19499999999999
 30
0.0
 11
131.47300000000001
 21
105.19499999999999
 31
0.0
  0
LINE
  5
66
  8
0
 62
     7
 10
111.91200000000001
 20
152.946
 30
0.0
 11
131.47300000000001
 21
152.946
 31
0.0
  0
LINE
  5
67
  8
0
 62
     7
 10
120.70099999999999
 20
147.946
 30
0.0
 11
131.47300000000001
 21
147.946
 31
0.0
  0
LINE
  5
68
  8
0
 62
     7
 10
116.84999999999999
 20
140.946
 30
0.0
 11
131.47300000000001
 21
140.946
 31
0.0
  0
LINE
  5
69
  8
0
 62
     7
 10
116.15000000000001
 20
122.69499999999999
 30
0.0
 11
131.47300000000001
 21
122.69499999999999
 31
0.0
  0
LINE
  5
6A
  8
0
 62
     7
 10
110.55
 20
104.295
 30
0.0
 11
110.55
 21
77.264300000000006
 31
0.0
  0
LINE
  5
6B
  8
0
 62
     7
 10
90.049899999999994
 20
104.295
 30
0.0
 11
90.049899999999994
 21
77.264300000000006
 31
0.0
  0
LINE
  5
6C
  8
0
 62
     7
 10
86.760499999999993
 20
143.553
 30
0.0
 11
84.550099999999986
 21
142.96000000000001
 31
0.0
  0
LINE
  5
6D
  8
0
 62
     7
 10
84.550099999999986
 20
142.96000000000001
 30
0.0
 11
86.760499999999993
 21
142.36799999999999
 31
0.0
  0
LINE
  5
6E
  8
0
 62
     7
 10
86.760499999999993
 20
142.36799999999999
 30
0.0
 11
86.760499999999993
 21
143.553
 31
0.0
  0
LINE
  5
6F
  8
0
 62
     7
 10
113.84
 20
142.38300000000001
 30
0.0
 11
116.05
 21
142.97499999999999
 31
0.0
  0
LINE
  5
70
  8
0
 62
     7
 10
116.05
 20
142.97499999999999
 30
0.0
 11
113.84
 21
143.56800000000001
 31
0.0
  0
LINE
  5
71
  8
0
 62
     7
 10
113.84
 20
143.56800000000001
 30
0.0
 11
113.84
 21
142.38300000000001
 31
0.0
  0
LINE
  5
72
  8
0
 62
     7
 10
76.095799999999997
 20
142.96000000000001
 30
0.0
 11
116.051
 21
142.96000000000001
 31
0.0
  0
LINE
  5
73
  8
0
 62
     7
 10
116.05
 20
141.39599999999999
 30
0.0
 11
116.05
 21
143.67500000000001
 31
0.0
  0
LINE
  5
74
  8
0
 62
     7
 10
84.550099999999986
 20
141.39599999999999
 30
0.0
 11
84.550099999999986
 21
143.67500000000001
 31
0.0
  0
ARC
  5
75
  8
0
 62
     7
 10
117.77003000000001
 20
148.933178
 30
0.0
 40
2.5303939999999989
 50
0.275343
 51
44.710472000000003
  0
ARC
  5
76
  8
0
 62
     7
 10
117.78553100000001
 20
148.926457
 30
0.0
 40
2.524154999999999
 50
45.066445000000002
 51
65.195123999999993
  0
ARC
  5
77
  8
0
 62
     7
 10
100.347379
 20
21.609893
 30
0.0
 40
131.33591699999999
 50
85.035595999999998
 51
89.994008999999991
  0
ARC
  5
78
  8
0
 62
     7
 10
105.002033
 20
77.705255000000008
 30
0.0
 40
75.048502999999997
 50
82.774342000000004
 51
84.869840999999994
  0
ARC
  5
79
  8
0
 62
     7
 10
109.248002
 20
111.82154800000001
 30
0.0
 40
40.669173999999998
 50
79.527189000000007
 51
82.663318000000004
  0
ARC
  5
7A
  8
0
 62
     7
 10
113.115599
 20
133.26039800000001
 30
0.0
 40
18.884691
 50
75.053034999999994
 51
79.242765000000006
  0
ARC
  5
7B
  8
0
 62
     7
 10
115.886281
 20
143.840147
 30
0.0
 40
7.9484500000000002
 50
68.126153000000002
 51
74.679330000000007
  0
ARC
  5
7C
  8
0
 62
     7
 10
119.26199099999999
 20
148.983968
 30
0.0
 40
1.0391209999999991
 50
272.1304970000001
 51
357.86951299999998
  0
LINE
  5
7D
  8
0
 62
     7
 10
101.3
 20
87.194900000000004
 30
0.0
 11
101.8
 21
87.695099999999996
 31
0.0
  0
LINE
  5
7E
  8
0
 62
     7
 10
101.8
 20
87.695099999999996
 30
0.0
 11
100.3
 21
87.695099999999996
 31
0.0
  0
LINE
  5
7F
  8
0
 62
     7
 10
101.3
 20
87.194900000000004
 30
0.0
 11
100.3
 21
87.194900000000004
 31
0.0
  0
LINE
  5
80
  8
0
 62
     7
 10
110.55
 20
111.69499999999999
 30
0.0
 11
110.05
 21
111.19499999999999
 31
0.0
  0
LINE
  5
81
  8
0
 62
     7
 10
110.55
 20
105.69499999999999
 30
0.0
 11
110.05
 21
105.19499999999999
 31
0.0
  0
LINE
  5
82
  8
0
 62
     7
 10
103.3
 20
105.19499999999999
 30
0.0
 11
103.3
 21
104.19499999999999
 31
0.0
  0
LINE
  5
83
  8
0
 62
     7
 10
110.55
 20
111.69499999999999
 30
0.0
 11
110.55
 21
105.69499999999999
 31
0.0
  0
LINE
  5
84
  8
0
 62
     7
 10
100.3
 20
111.19499999999999
 30
0.0
 11
110.55
 21
111.19499999999999
 31
0.0
  0
LINE
  5
85
  8
0
 62
     7
 10
100.3
 20
105.69499999999999
 30
0.0
 11
110.55
 21
105.69499999999999
 31
0.0
  0
LINE
  5
86
  8
0
 62
     7
 10
100.3
 20
105.19499999999999
 30
0.0
 11
110.05
 21
105.19499999999999
 31
0.0
  0
LINE
  5
87
  8
0
 62
     7
 10
100.3
 20
104.19499999999999
 30
0.0
 11
103.3
 21
104.19499999999999
 31
0.0
  0
LINE
  5
88
  8
0
 62
     7
 10
110.051
 20
105.19499999999999
 30
0.0
 11
110.051
 21
111.19499999999999
 31
0.0
  0
ARC
  5
89
  8
0
 62
     7
 10
114.550494
 20
136.44541899999999
 30
0.0
 40
4.000125999999999
 50
90.0
 51
179.99996999999999
  0
LINE
  5
8A
  8
0
 62
     7
 10
100.3
 20
134.69499999999999
 30
0.0
 11
115.55
 21
134.69499999999999
 31
0.0
  0
LINE
  5
8B
  8
0
 62
     7
 10
112.8
 20
119.69499999999999
 30
0.0
 11
112.8
 21
111.69499999999999
 31
0.0
  0
LINE
  5
8C
  8
0
 62
     7
 10
115.8
 20
122.69499999999999
 30
0.0
 11
115.8
 21
119.69499999999999
 31
0.0
  0
LINE
  5
8D
  8
0
 62
     7
 10
115.3
 20
123.69499999999999
 30
0.0
 11
115.3
 21
122.69499999999999
 31
0.0
  0
LINE
  5
8E
  8
0
 62
     7
 10
115.55
 20
124.69499999999999
 30
0.0
 11
115.55
 21
123.69499999999999
 31
0.0
  0
LINE
  5
8F
  8
0
 62
     7
 10
115.55
 20
134.69499999999999
 30
0.0
 11
115.55
 21
133.44499999999999
 31
0.0
  0
LINE
  5
90
  8
0
 62
     7
 10
100.3
 20
133.44499999999999
 30
0.0
 11
115.55
 21
133.44499999999999
 31
0.0
  0
ARC
  5
91
  8
0
 62
     7
 10
115.790717
 20
140.70532600000001
 30
0.0
 40
0.25996
 50
272.13072
 51
357.86928999999998
  0
ARC
  5
92
  8
0
 62
     7
 10
115.790717
 20
140.68599599999999
 30
0.0
 40
0.25996
 50
2.1307099999999992
 51
87.869280000000003
  0
LINE
  5
93
  8
0
 62
     7
 10
104.05
 20
147.44499999999999
 30
0.0
 11
104.05
 21
140.946
 31
0.0
  0
LINE
  5
94
  8
0
 62
     7
 10
119.301
 20
147.946
 30
0.0
 11
100.3
 21
147.946
 31
0.0
  0
ARC
  5
95
  8
0
 62
     7
 10
113.319963
 20
147.42669100000001
 30
0.0
 40
0.5192350000000001
 50
92.136610000000005
 51
177.94233500000001
  0
LINE
  5
96
  8
0
 62
     7
 10
110.55
 20
136.44499999999999
 30
0.0
 11
110.55
 21
134.696
 31
0.0
  0
LINE
  5
97
  8
0
 62
     7
 10
104.05
 20
130.44499999999999
 30
0.0
 11
104.05
 21
128.94499999999999
 31
0.0
  0
LINE
  5
98
  8
0
 62
     7
 10
104.05
 20
128.94499999999999
 30
0.0
 11
102.55
 21
127.196
 31
0.0
  0
LINE
  5
99
  8
0
 62
     7
 10
110.55
 20
133.44499999999999
 30
0.0
 11
110.55
 21
130.44499999999999
 31
0.0
  0
LINE
  5
9A
  8
0
 62
     7
 10
101.3
 20
104.19499999999999
 30
0.0
 11
101.3
 21
87.194900000000004
 31
0.0
  0
LINE
  5
9B
  8
0
 62
     7
 10
101.8
 20
104.19499999999999
 30
0.0
 11
101.8
 21
87.695099999999996
 31
0.0
  0
LINE
  5
9C
  8
0
 62
     7
 10
101.3
 20
127.196
 30
0.0
 11
101.3
 21
124.69499999999999
 31
0.0
  0
LINE
  5
9D
  8
0
 62
     7
 10
101.8
 20
127.196
 30
0.0
 11
101.8
 21
124.69499999999999
 31
0.0
  0
LINE
  5
9E
  8
0
 62
     7
 10
100.3
 20
111.69499999999999
 30
0.0
 11
112.8
 21
111.69499999999999
 31
0.0
  0
LINE
  5
9F
  8
0
 62
     7
 10
100.3
 20
119.69499999999999
 30
0.0
 11
115.8
 21
119.69499999999999
 31
0.0
  0
LINE
  5
A0
  8
0
 62
     7
 10
100.3
 20
122.69499999999999
 30
0.0
 11
115.8
 21
122.69499999999999
 31
0.0
  0
LINE
  5
A1
  8
0
 62
     7
 10
100.3
 20
123.69499999999999
 30
0.0
 11
115.55
 21
123.69499999999999
 31
0.0
  0
LINE
  5
A2
  8
0
 62
     7
 10
100.3
 20
124.69499999999999
 30
0.0
 11
115.55
 21
124.69499999999999
 31
0.0
  0
LINE
  5
A3
  8
0
 62
     7
 10
100.3
 20
127.196
 30
0.0
 11
102.55
 21
127.196
 31
0.0
  0
LINE
  5
A4
  8
0
 62
     7
 10
100.3
 20
128.94499999999999
 30
0.0
 11
104.05
 21
128.94499999999999
 31
0.0
  0
LINE
  5
A5
  8
0
 62
     7
 10
100.3
 20
130.44499999999999
 30
0.0
 11
110.55
 21
130.44499999999999
 31
0.0
  0
LINE
  5
A6
  8
0
 62
     7
 10
114.55
 20
140.446
 30
0.0
 11
115.8
 21
140.446
 31
0.0
  0
LINE
  5
A7
  8
0
 62
     7
 10
100.3
 20
140.946
 30
0.0
 11
115.8
 21
140.946
 31
0.0
  0
LINE
  5
A8
  8
0
 62
     7
 10
100.3
 20
147.44499999999999
 30
0.0
 11
112.8
 21
147.44499999999999
 31
0.0
  0
ARC
  5
A9
  8
0
 62
     7
 10
82.830772999999994
 20
148.93318400000001
 30
0.0
 40
2.5308039999999998
 50
135.29887099999999
 51
179.724806
  0
ARC
  5
AA
  8
0
 62
     7
 10
82.814689999999985
 20
148.926457
 30
0.0
 40
2.524154999999999
 50
114.804856
 51
134.93353500000001
  0
ARC
  5
AB
  8
0
 62
     7
 10
100.25319
 20
21.60548
 30
0.0
 40
131.340329
 50
90.005971999999986
 51
94.964301000000006
  0
ARC
  5
AC
  8
0
 62
     7
 10
95.598092000000008
 20
77.705348000000001
 30
0.0
 40
75.048387000000005
 50
95.129953999999984
 51
97.225509000000017
  0
ARC
  5
AD
  8
0
 62
     7
 10
91.352378000000002
 20
111.81992700000001
 30
0.0
 40
40.670790999999987
 50
97.336473000000012
 51
100.47255199999999
  0
ARC
  5
AE
  8
0
 62
     7
 10
87.485256000000007
 20
133.25733500000001
 30
0.0
 40
18.887813000000001
 50
100.757273
 51
104.94638999999999
  0
ARC
  5
AF
  8
0
 62
     7
 10
84.713586000000006
 20
143.841161
 30
0.0
 40
7.9473770000000004
 50
105.320081
 51
111.87418099999999
  0
ARC
  5
B0
  8
0
 62
     7
 10
81.338564000000005
 20
148.984138
 30
0.0
 40
1.03929
 50
182.13950199999999
 51
267.87039900000002
  0
LINE
  5
B1
  8
0
 62
     7
 10
99.300299999999993
 20
87.194900000000004
 30
0.0
 11
98.8001
 21
87.695099999999996
 31
0.0
  0
LINE
  5
B2
  8
0
 62
     7
 10
98.8001
 20
87.695099999999996
 30
0.0
 11
100.3
 21
87.695099999999996
 31
0.0
  0
LINE
  5
B3
  8
0
 62
     7
 10
99.300299999999993
 20
87.194900000000004
 30
0.0
 11
100.3
 21
87.194900000000004
 31
0.0
  0
LINE
  5
B4
  8
0
 62
     7
 10
90.049899999999994
 20
111.69499999999999
 30
0.0
 11
90.550100000000015
 21
111.19499999999999
 31
0.0
  0
LINE
  5
B5
  8
0
 62
     7
 10
90.049899999999994
 20
105.69499999999999
 30
0.0
 11
90.550100000000015
 21
105.19499999999999
 31
0.0
  0
LINE
  5
B6
  8
0
 62
     7
 10
97.3001
 20
105.19499999999999
 30
0.0
 11
97.3001
 21
104.19499999999999
 31
0.0
  0
LINE
  5
B7
  8
0
 62
     7
 10
90.049899999999994
 20
111.69499999999999
 30
0.0
 11
90.049899999999994
 21
105.69499999999999
 31
0.0
  0
LINE
  5
B8
  8
0
 62
     7
 10
100.3
 20
111.19499999999999
 30
0.0
 11
90.049899999999994
 21
111.19499999999999
 31
0.0
  0
LINE
  5
B9
  8
0
 62
     7
 10
100.3
 20
105.69499999999999
 30
0.0
 11
90.049899999999994
 21
105.69499999999999
 31
0.0
  0
LINE
  5
BA
  8
0
 62
     7
 10
100.3
 20
105.19499999999999
 30
0.0
 11
90.550100000000015
 21
105.19499999999999
 31
0.0
  0
LINE
  5
BB
  8
0
 62
     7
 10
100.3
 20
104.19499999999999
 30
0.0
 11
97.3001
 21
104.19499999999999
 31
0.0
  0
LINE
  5
BC
  8
0
 62
     7
 10
90.549400000000006
 20
105.19499999999999
 30
0.0
 11
90.549400000000006
 21
111.19499999999999
 31
0.0
  0
ARC
  5
BD
  8
0
 62
     7
 10
86.049898999999996
 20
136.44559099999989
 30
0.0
 40
3.9999539999999998
 50
359.99754300000001
 51
89.997512999999984
  0
LINE
  5
BE
  8
0
 62
     7
 10
100.3
 20
134.69499999999999
 30
0.0
 11
85.049999999999997
 21
134.69499999999999
 31
0.0
  0
LINE
  5
BF
  8
0
 62
     7
 10
87.799800000000005
 20
119.69499999999999
 30
0.0
 11
87.799800000000005
 21
111.69499999999999
 31
0.0
  0
LINE
  5
C0
  8
0
 62
     7
 10
84.800200000000004
 20
122.69499999999999
 30
0.0
 11
84.800200000000004
 21
119.69499999999999
 31
0.0
  0
LINE
  5
C1
  8
0
 62
     7
 10
85.3001
 20
123.69499999999999
 30
0.0
 11
85.3001
 21
122.69499999999999
 31
0.0
  0
LINE
  5
C2
  8
0
 62
     7
 10
85.049999999999997
 20
124.69499999999999
 30
0.0
 11
85.049999999999997
 21
123.69499999999999
 31
0.0
  0
LINE
  5
C3
  8
0
 62
     7
 10
85.049999999999997
 20
134.69499999999999
 30
0.0
 11
85.049999999999997
 21
133.44499999999999
 31
0.0
  0
LINE
  5
C4
  8
0
 62
     7
 10
100.3
 20
133.44499999999999
 30
0.0
 11
85.049999999999997
 21
133.44499999999999
 31
0.0
  0
ARC
  5
C5
  8
0
 62
     7
 10
84.80018299999999
 20
140.695661
 30
0.0
 40
0.250115
 50
179.99996999999999
 51
270.00002000000001
  0
ARC
  5
C6
  8
0
 62
     7
 10
84.80018299999999
 20
140.695661
 30
0.0
 40
0.250116
 50
90.0
 51
179.99996999999999
  0
LINE
  5
C7
  8
0
 62
     7
 10
96.5501
 20
147.44499999999999
 30
0.0
 11
96.5501
 21
140.946
 31
0.0
  0
LINE
  5
C8
  8
0
 62
     7
 10
81.299899999999994
 20
147.946
 30
0.0
 11
100.3
 21
147.946
 31
0.0
  0
ARC
  5
C9
  8
0
 62
     7
 10
87.280601999999988
 20
147.42669100000001
 30
0.0
 40
0.5192350000000001
 50
2.0576620000000001
 51
87.863353000000004
  0
LINE
  5
CA
  8
0
 62
     7
 10
90.049899999999994
 20
136.44499999999999
 30
0.0
 11
90.049899999999994
 21
134.696
 31
0.0
  0
LINE
  5
CB
  8
0
 62
     7
 10
96.5501
 20
130.44499999999999
 30
0.0
 11
96.5501
 21
128.94499999999999
 31
0.0
  0
LINE
  5
CC
  8
0
 62
     7
 10
96.5501
 20
128.94499999999999
 30
0.0
 11
98.050100000000015
 21
127.196
 31
0.0
  0
LINE
  5
CD
  8
0
 62
     7
 10
90.049899999999994
 20
133.44499999999999
 30
0.0
 11
90.049899999999994
 21
130.44499999999999
 31
0.0
  0
LINE
  5
CE
  8
0
 62
     7
 10
99.300299999999993
 20
104.19499999999999
 30
0.0
 11
99.300299999999993
 21
87.194900000000004
 31
0.0
  0
LINE
  5
CF
  8
0
 62
     7
 10
98.8001
 20
104.19499999999999
 30
0.0
 11
98.8001
 21
87.695099999999996
 31
0.0
  0
LINE
  5
D0
  8
0
 62
     7
 10
99.300299999999993
 20
127.196
 30
0.0
 11
99.300299999999993
 21
124.69499999999999
 31
0.0
  0
LINE
  5
D1
  8
0
 62
     7
 10
98.8001
 20
127.196
 30
0.0
 11
98.8001
 21
124.69499999999999
 31
0.0
  0
LINE
  5
D2
  8
0
 62
     7
 10
100.3
 20
111.69499999999999
 30
0.0
 11
87.799800000000005
 21
111.69499999999999
 31
0.0
  0
LINE
  5
D3
  8
0
 62
     7
 10
100.3
 20
119.69499999999999
 30
0.0
 11
84.800200000000004
 21
119.69499999999999
 31
0.0
  0
LINE
  5
D4
  8
0
 62
     7
 10
100.3
 20
122.69499999999999
 30
0.0
 11
84.800200000000004
 21
122.69499999999999
 31
0.0
  0
LINE
  5
D5
  8
0
 62
     7
 10
100.3
 20
123.69499999999999
 30
0.0
 11
85.049999999999997
 21
123.69499999999999
 31
0.0
  0
LINE
  5
D6
  8
0
 62
     7
 10
100.3
 20
124.69499999999999
 30
0.0
 11
85.049999999999997
 21
124.69499999999999
 31
0.0
  0
LINE
  5
D7
  8
0
 62
     7
 10
100.3
 20
127.196
 30
0.0
 11
98.050100000000015
 21
127.196
 31
0.0
  0
LINE
  5
D8
  8
0
 62
     7
 10
100.3
 20
128.94499999999999
 30
0.0
 11
96.5501
 21
128.94499999999999
 31
0.0
  0
LINE
  5
D9
  8
0
 62
     7
 10
100.3
 20
130.44499999999999
 30
0.0
 11
90.049899999999994
 21
130.44499999999999
 31
0.0
  0
LINE
  5
DA
  8
0
 62
     7
 10
86.0501
 20
140.446
 30
0.0
 11
84.800200000000004
 21
140.446
 31
0.0
  0
LINE
  5
DB
  8
0
 62
     7
 10
100.3
 20
140.946
 30
0.0
 11
84.800200000000004
 21
140.946
 31
0.0
  0
LINE
  5
DC
  8
0
 62
     7
 10
100.3
 20
147.44499999999999
 30
0.0
 11
87.799800000000005
 21
147.44499999999999
 31
0.0
  0
LINE
  5
DD
  8
0
  6
AIGENLINE001
 62
     7
 10
124.3
 20
194.446
 30
0.0
 11
76.299899999999994
 21
194.446
 31
0.0
  0
LINE
  5
DE
  8
0
  6
AIGENLINE001
 62
     7
 10
100.3
 20
170.446
 30
0.0
 11
100.3
 21
218.446
 31
0.0
  0
LINE
  5
DF
  8
0
  6
AIGENLINE001
 62
     7
 10
100.3
 20
84.569999999999979
 30
0.0
 11
100.3
 21
156.571
 31
0.0
  0
TEXT
  5
E0
  8
_________2
 62
     7
 10
27.0366
 20
3.857839999999999
 30
0.0
 40
3.9357000000000002
  1
ヨーロッパ仕様洗面器、手洗器用、
 41
0.5
  0
TEXT
  5
E1
  8
_________2
 62
     7
 10
27.0366
 20
-1.06179
 30
0.0
 40
3.9357000000000002
  1
サファイアケラミック専用品
 41
0.5
  0
LINE
  5
E2
  8
_________2
 62
     7
 10
205.30099999999999
 20
127.411
 30
0.0
 11
183.55000000000001
 21
127.411
 31
0.0
  0
LINE
  5
E3
  8
_________2
 62
     7
 10
100.3
 20
-4.0910799999999998
 30
0.0
 11
100.3
 21
-21.071400000000001
 31
0.0
  0
LINE
  5
E4
  8
_________2
 62
     7
 10
100.3
 20
275.93099999999998
 30
0.0
 11
100.3
 21
258.911
 31
0.0
  0
LINE
  5
E5
  8
_________2
 62
     7
 10
17.049499999999998
 20
127.411
 30
0.0
 11
-4.70052
 21
127.411
 31
0.0
  0
LINE
  5
E6
  8
_________2
 62
     7
 10
76.741
 20
29.8047
 30
0.0
 11
74.554699999999997
 21
29.8047
 31
0.0
  0
LINE
  5
E7
  8
_________2
 62
     7
 10
77.233699999999999
 20
29.8047
 30
0.0
 11
76.981499999999997
 21
29.8047
 31
0.0
  0
LINE
  5
E8
  8
_________2
 62
     7
 10
77.726299999999995
 20
29.8047
 30
0.0
 11
80.651200000000003
 21
29.8047
 31
0.0
  0
LINE
  5
E9
  8
_________2
 62
     7
 10
77.233699999999999
 20
29.8047
 30
0.0
 11
77.485500000000002
 21
29.8047
 31
0.0
  0
LINE
  5
EA
  8
_________2
 62
     7
 10
70.837100000000007
 20
29.8047
 30
0.0
 11
68.650499999999994
 21
29.8047
 31
0.0
  0
LINE
  5
EB
  8
_________2
 62
     7
 10
71.329400000000007
 20
29.8047
 30
0.0
 11
71.077600000000004
 21
29.8047
 31
0.0
  0
LINE
  5
EC
  8
_________2
 62
     7
 10
71.329400000000007
 20
30.2974
 30
0.0
 11
71.329400000000007
 21
32.484400000000001
 31
0.0
  0
LINE
  5
ED
  8
_________2
 62
     7
 10
71.329400000000007
 20
29.8047
 30
0.0
 11
71.329400000000007
 21
30.056899999999999
 31
0.0
  0
LINE
  5
EE
  8
_________2
 62
     7
 10
71.822100000000006
 20
29.8047
 30
0.0
 11
74.009
 21
29.8047
 31
0.0
  0
LINE
  5
EF
  8
_________2
 62
     7
 10
71.329400000000007
 20
29.8047
 30
0.0
 11
71.581599999999995
 21
29.8047
 31
0.0
  0
LINE
  5
F0
  8
_________2
 62
     7
 10
71.329400000000007
 20
29.312799999999999
 30
0.0
 11
71.329400000000007
 21
27.125800000000002
 31
0.0
  0
LINE
  5
F1
  8
_________2
 62
     7
 10
71.329400000000007
 20
29.8047
 30
0.0
 11
71.329400000000007
 21
29.5532
 31
0.0
  0
LINE
  5
F2
  8
_________2
 62
     7
 10
75.040499999999994
 20
28.5852
 30
0.0
 11
80.218500000000006
 21
27.720400000000001
 31
0.0
  0
LINE
  5
F3
  8
_________2
 62
     7
 10
75.040499999999994
 20
31.0243
 30
0.0
 11
80.218500000000006
 21
31.889700000000001
 31
0.0
  0
LINE
  5
F4
  8
_________2
 62
     7
 10
80.218500000000006
 20
27.720400000000001
 30
0.0
 11
80.218500000000006
 21
31.889700000000001
 31
0.0
  0
LINE
  5
F5
  8
_________2
 62
     7
 10
75.040499999999994
 20
28.5852
 30
0.0
 11
75.040499999999994
 21
31.0243
 31
0.0
  0
ARC
  5
F6
  8
_________2
 62
     7
 10
71.28285600000001
 20
29.757811
 30
0.0
 40
1.2673589999999999
 50
2.122214
 51
87.893958999999995
  0
ARC
  5
F7
  8
_________2
 62
     7
 10
71.375959999999992
 20
29.758213000000001
 30
0.0
 40
1.2669559999999991
 50
92.104701000000006
 51
177.89526900000001
  0
ARC
  5
F8
  8
_________2
 62
     7
 10
71.376357999999996
 20
29.851671
 30
0.0
 40
1.2673680000000001
 50
182.12203600000001
 51
267.877993
  0
ARC
  5
F9
  8
_________2
 62
     7
 10
71.282531999999989
 20
29.851998999999999
 30
0.0
 40
1.267695999999999
 50
272.12015300000002
 51
357.863674
  0
ARC
  5
FA
  8
_________2
 62
     7
 10
71.329430000000002
 20
29.804742999999998
 30
0.0
 40
2.0849849999999992
 50
0.00001
 51
89.999980000000008
  0
ARC
  5
FB
  8
_________2
 62
     7
 10
71.329603000000006
 20
29.804915000000001
 30
0.0
 40
2.084813
 50
90.004733999999999
 51
180.00474399999999
  0
ARC
  5
FC
  8
_________2
 62
     7
 10
71.409106000000008
 20
29.884775999999999
 30
0.0
 40
2.1657950000000001
 50
182.11776599999999
 51
267.89173399999999
  0
ARC
  5
FD
  8
_________2
 62
     7
 10
71.249459000000002
 20
29.885429999999999
 30
0.0
 40
2.1664590000000001
 50
272.11546800000002
 51
357.86560400000002
  0
TEXT
  5
FE
  8
_________2
 62
     7
 10
104.605
 20
1.6794899999999999
 30
0.0
 40
3.0923400000000001
  1
図番
 41
0.5
  0
LINE
  5
FF
  8
_________2
 62
     7
 10
103.55
 20
5.9087199999999989
 30
0.0
 11
183.55099999999999
 21
5.9087199999999989
 31
0.0
  0
TEXT
  5
100
  8
_________2
 62
     7
 10
104.605
 20
11.6793
 30
0.0
 40
3.0923400000000001
  1
品番
 41
0.5
  0
TEXT
  5
101
  8
_________2
 62
     7
 10
104.605
 20
31.818100000000001
 30
0.0
 40
3.0923400000000001
  1
名称
 41
0.5
  0
TEXT
  5
102
  8
_________2
 62
     7
 10
91.845058333333341
 20
26.821999999999999
 30
0.0
 40
3.6545800000000002
  1
mm
 41
0.5
 72
     1
 11
93.367800000000003
 21
26.821999999999999
 31
0.0
  0
TEXT
  5
103
  8
_________2
 62
     7
 10
85.643199999999993
 20
31.818100000000001
 30
0.0
 40
3.0923400000000001
  1
単位
 41
0.5
  0
TEXT
  5
104
  8
_________2
 62
     7
 10
85.643199999999993
 20
19.410799999999998
 30
0.0
 40
3.0923400000000001
  1
尺度
 41
0.5
  0
TEXT
  5
105
  8
_________2
 62
     7
 10
90.548758666666686
 20
13.2179
 30
0.0
 40
3.6545800000000002
  1
1 ： 2
 41
0.5
 72
     1
 11
93.959699999999998
 21
13.2179
 31
0.0
  0
TEXT
  5
106
  8
_________2
 62
     7
 10
137.31847500000001
 20
9.1078600000000005
 30
0.0
 40
3.9357000000000002
  1
AU98184
 41
0.5
 72
     1
 11
143.55000000000001
 21
9.1078600000000005
 31
0.0
  0
TEXT
  5
107
  8
_________2
 62
     7
 10
137.31847500000001
 20
-0.8926299999999999
 30
0.0
 40
3.9357000000000002
  1
AU98184
 41
0.5
 72
     1
 11
143.55000000000001
 21
-0.8926299999999999
 31
0.0
  0
TEXT
  5
108
  8
_________2
 62
     7
 10
109.179
 20
24.2257
 30
0.0
 40
3.9357000000000002
  1
排水目皿（陶器製）
 41
0.5
  0
TEXT
  5
109
  8
_________2
 62
     7
 10
39.364390666666672
 20
13.603
 30
0.0
 40
3.6545800000000002
  1
篠崎
 41
0.5
 72
     1
 11
41.313499999999998
 21
13.603
 31
0.0
  0
TEXT
  5
10A
  8
_________2
 62
     7
 10
20.790090666666661
 20
13.603
 30
0.0
 40
3.6545800000000002
  1
近藤
 41
0.5
 72
     1
 11
22.7392
 21
13.603
 31
0.0
  0
TEXT
  5
10B
  8
_________2
 62
     7
 10
67.785399999999996
 20
13.2179
 30
0.0
 40
3.6545800000000002
  1
16.10.07
 41
0.5
  0
TEXT
  5
10C
  8
_________2
 62
     7
 10
66.593100000000007
 20
19.410799999999998
 30
0.0
 40
3.0923400000000001
  1
日付
 41
0.5
  0
TEXT
  5
10D
  8
_________2
 62
     7
 10
29.639399999999998
 20
19.410799999999998
 30
0.0
 40
3.0923400000000001
  1
検図
 41
0.5
  0
TEXT
  5
10E
  8
_________2
 62
     7
 10
18.021100000000001
 20
5.21143
 30
0.0
 40
3.0923400000000001
  1
備考
 41
0.5
  0
TEXT
  5
10F
  8
_________2
 62
     7
 10
18.021100000000001
 20
19.410799999999998
 30
0.0
 40
3.0923400000000001
  1
製図
 41
0.5
  0
TEXT
  5
110
  8
_________2
 62
     7
 10
23.788465333333338
 20
27.936800000000002
 30
0.0
 40
4.4979399999999989
  1
セラトレーディング株式会社
 41
0.5
 72
     1
 11
41.180500000000002
 21
27.936800000000002
 31
0.0
  0
LINE
  5
111
  8
_________2
 62
     7
 10
183.55099999999999
 20
-4.0910799999999998
 30
0.0
 11
17.049499999999998
 21
-4.0910799999999998
 31
0.0
  0
LINE
  5
112
  8
_________2
 62
     7
 10
17.049499999999998
 20
-4.0910799999999998
 30
0.0
 11
17.049499999999998
 21
258.911
 31
0.0
  0
LINE
  5
113
  8
_________2
 62
     7
 10
17.049499999999998
 20
258.911
 30
0.0
 11
183.55099999999999
 21
258.911
 31
0.0
  0
LINE
  5
114
  8
_________2
 62
     7
 10
183.55099999999999
 20
258.911
 30
0.0
 11
183.55099999999999
 21
-4.0910799999999998
 31
0.0
  0
LINE
  5
115
  8
_________2
 62
     7
 10
65.549599999999998
 20
9.4089600000000004
 30
0.0
 11
65.549599999999998
 21
35.908799999999999
 31
0.0
  0
LINE
  5
116
  8
_________2
 62
     7
 10
84.549700000000016
 20
9.4089600000000004
 30
0.0
 11
84.549700000000016
 21
35.908799999999999
 31
0.0
  0
LINE
  5
117
  8
_________2
 62
     7
 10
103.55
 20
-4.0910799999999998
 30
0.0
 11
103.55
 21
35.908799999999999
 31
0.0
  0
LINE
  5
118
  8
_________2
 62
     7
 10
28.549299999999999
 20
9.4089600000000004
 30
0.0
 11
28.549299999999999
 21
23.409199999999998
 31
0.0
  0
LINE
  5
119
  8
_________2
 62
     7
 10
17.049499999999998
 20
9.4089600000000004
 30
0.0
 11
103.55
 21
9.4089600000000004
 31
0.0
  0
LINE
  5
11A
  8
_________2
 62
     7
 10
17.049499999999998
 20
23.409199999999998
 30
0.0
 11
103.55
 21
23.409199999999998
 31
0.0
  0
LINE
  5
11B
  8
_________2
 62
     7
 10
103.55
 20
15.9085
 30
0.0
 11
183.55099999999999
 21
15.9085
 31
0.0
  0
LINE
  5
11C
  8
_________2
 62
     7
 10
17.049499999999998
 20
35.908799999999999
 30
0.0
 11
183.55099999999999
 21
35.908799999999999
 31
0.0
  0
ENDSEC
  0
EOF
