  0
SECTION
  2
HEADER
  9
$ACADVER
  1
AC1009
  9
$INSBASE
 10
0.0
 20
0.0
 30
0.0
  9
$EXTMIN
 10
-4.70052
 20
-21.071400000000001
 30
0.0
  9
$EXTMAX
 10
205.30099999999999
 20
275.93099999999998
 30
0.0
  9
$LIMMIN
 10
0.0
 20
0.0
  9
$LIMMAX
 10
12.0
 20
9.0
  9
$ORTHOMODE
 70
     0
  9
$REGENMODE
 70
     1
  9
$FILLMODE
 70
     1
  9
$QTEXTMODE
 70
     0
  9
$MIRRTEXT
 70
     1
  9
$DRAGMODE
 70
     2
  9
$LTSCALE
 40
1.0
  9
$OSMODE
 70
    37
  9
$ATTMODE
 70
     1
  9
$TEXTSIZE
 40
0.0
  9
$TRACEWID
 40
0.05
  9
$TEXTSTYLE
  7
STANDARD
  9
$CLAYER
  8
0
  9
$CELTYPE
  6
CONTINUOUS
  9
$CECOLOR
 62
   256
  9
$DIMSCALE
 40
1.0
  9
$DIMASZ
 40
0.18
  9
$DIMEXO
 40
0.0625
  9
$DIMDLI
 40
0.38
  9
$DIMRND
 40
0.0
  9
$DIMDLE
 40
0.0
  9
$DIMEXE
 40
0.18
  9
$DIMTP
 40
0.0
  9
$DIMTM
 40
0.0
  9
$DIMTXT
 40
0.18
  9
$DIMCEN
 40
0.09
  9
$DIMTSZ
 40
0.0
  9
$DIMTOL
 70
     0
  9
$DIMLIM
 70
     0
  9
$DIMTIH
 70
     1
  9
$DIMTOH
 70
     1
  9
$DIMSE1
 70
     0
  9
$DIMSE2
 70
     0
  9
$DIMTAD
 70
     0
  9
$DIMZIN
 70
     0
  9
$DIMBLK
  1

  9
$DIMASO
 70
     1
  9
$DIMSHO
 70
     1
  9
$DIMPOST
  1

  9
$DIMAPOST
  1

  9
$DIMALT
 70
     0
  9
$DIMALTD
 70
     2
  9
$DIMALTF
 40
25.399999999999999
  9
$DIMLFAC
 40
1.0
  9
$DIMTOFL
 70
     0
  9
$DIMTVP
 40
0.0
  9
$DIMTIX
 70
     0
  9
$DIMSOXD
 70
     0
  9
$DIMSAH
 70
     0
  9
$DIMBLK1
  1

  9
$DIMBLK2
  1

  9
$DIMSTYLE
  2
STANDARD
  9
$DIMCLRD
 70
     0
  9
$DIMCLRE
 70
     0
  9
$DIMCLRT
 70
     0
  9
$DIMTFAC
 40
1.0
  9
$DIMGAP
 40
0.09
  9
$LUNITS
 70
     2
  9
$LUPREC
 70
     4
  9
$SKETCHINC
 40
0.1
  9
$FILLETRAD
 40
0.0
  9
$AUNITS
 70
     0
  9
$AUPREC
 70
     0
  9
$MENU
  1
.
  9
$ELEVATION
 40
0.0
  9
$PELEVATION
 40
0.0
  9
$THICKNESS
 40
0.0
  9
$LIMCHECK
 70
     0
  9
$BLIPMODE
 70
     0
  9
$CHAMFERA
 40
0.0
  9
$CHAMFERB
 40
0.0
  9
$SKPOLY
 70
     0
  9
$TDCREATE
 40
2444972.375
  9
$TDUPDATE
 40
2457675.2490302441
  9
$TDINDWG
 40
0.0000314815
  9
$TDUSRTIMER
 40
0.0000314815
  9
$USRTIMER
 70
     1
  9
$ANGBASE
 50
0.0
  9
$ANGDIR
 70
     0
  9
$PDMODE
 70
     0
  9
$PDSIZE
 40
0.0
  9
$PLINEWID
 40
0.0
  9
$COORDS
 70
     1
  9
$SPLFRAME
 70
     0
  9
$SPLINETYPE
 70
     6
  9
$SPLINESEGS
 70
     8
  9
$ATTDIA
 70
     1
  9
$ATTREQ
 70
     1
  9
$HANDLING
 70
     1
  9
$HANDSEED
  5
29B
  9
$SURFTAB1
 70
     6
  9
$SURFTAB2
 70
     6
  9
$SURFTYPE
 70
     6
  9
$SURFU
 70
     6
  9
$SURFV
 70
     6
  9
$UCSNAME
  2

  9
$UCSORG
 10
0.0
 20
0.0
 30
0.0
  9
$UCSXDIR
 10
1.0
 20
0.0
 30
0.0
  9
$UCSYDIR
 10
0.0
 20
1.0
 30
0.0
  9
$PUCSNAME
  2

  9
$PUCSORG
 10
0.0
 20
0.0
 30
0.0
  9
$PUCSXDIR
 10
1.0
 20
0.0
 30
0.0
  9
$PUCSYDIR
 10
0.0
 20
1.0
 30
0.0
  9
$USERI1
 70
     0
  9
$USERI2
 70
     0
  9
$USERI3
 70
     0
  9
$USERI4
 70
     0
  9
$USERI5
 70
     0
  9
$USERR1
 40
0.0
  9
$USERR2
 40
0.0
  9
$USERR3
 40
0.0
  9
$USERR4
 40
0.0
  9
$USERR5
 40
0.0
  9
$WORLDVIEW
 70
     1
  9
$SHADEDGE
 70
     3
  9
$SHADEDIF
 70
    70
  9
$TILEMODE
 70
     1
  9
$MAXACTVP
 70
    48
  9
$PLIMCHECK
 70
     0
  9
$PEXTMIN
 10
1.0000000000000000E+020
 20
1.0000000000000000E+020
 30
1.0000000000000000E+020
  9
$PEXTMAX
 10
-1.0000000000000000E+020
 20
-1.0000000000000000E+020
 30
-1.0000000000000000E+020
  9
$PLIMMIN
 10
0.0
 20
0.0
  9
$PLIMMAX
 10
12.0
 20
9.0
  9
$UNITMODE
 70
     0
  9
$VISRETAIN
 70
     1
  9
$PLINEGEN
 70
     0
  9
$PSLTSCALE
 70
     1
  0
ENDSEC
  0
SECTION
  2
TABLES
  0
TABLE
  2
VPORT
 70
     1
  0
VPORT
  2
*ACTIVE
 70
     0
 10
0.0
 20
0.0
 11
1.0
 21
1.0
 12
242.94297849779139
 22
127.4298
 13
0.0
 23
0.0
 14
1.0
 24
1.0
 15
0.0
 25
0.0
 16
0.0
 26
0.0
 36
1.0
 17
0.0
 27
0.0
 37
0.0
 40
271.07302779057062
 41
1.5328467153284671
 42
50.0
 43
0.0
 44
0.0
 50
0.0
 51
0.0
 71
     0
 72
   100
 73
     1
 74
     1
 75
     0
 76
     0
 77
     0
 78
     0
  0
ENDTAB
  0
TABLE
  2
LTYPE
 70
     3
  0
LTYPE
  2
CONTINUOUS
 70
     0
  3
Solid line
 72
    65
 73
     0
 40
0.0
  0
LTYPE
  2
AIGENLINE001
 70
     0
  3
generate AI->DXF Converter
 72
    65
 73
     4
 40
5.8561449999999988
 49
3.5278
 49
-0.776115
 49
0.776115
 49
-0.776115
  0
LTYPE
  2
AIGENLINE002
 70
     0
  3
generate AI->DXF Converter
 72
    65
 73
     2
 40
1.5522299999999991
 49
0.776115
 49
-0.776115
  0
ENDTAB
  0
TABLE
  2
LAYER
 70
     2
  0
LAYER
  2
0
 70
     0
 62
     7
  6
CONTINUOUS
  0
LAYER
  2
_________2
 70
     0
 62
     7
  6
CONTINUOUS
  0
ENDTAB
  0
TABLE
  2
STYLE
 70
     1
  0
STYLE
  2
STANDARD
 70
     0
 40
0.0
 41
0.0
 50
0.0
 71
     0
 42
0.0
  3
TXT
  4
EXTFONT.SHX
  0
ENDTAB
  0
TABLE
  2
VIEW
 70
     0
  0
ENDTAB
  0
TABLE
  2
UCS
 70
     0
  0
ENDTAB
  0
TABLE
  2
APPID
 70
     3
  0
APPID
  2
ACAD
 70
     0
  0
APPID
  2
ACAD_NAV_VCDISPLAY
 70
     0
  0
APPID
  2
ACAD_MLEADERVER
 70
     0
  0
ENDTAB
  0
TABLE
  2
DIMSTYLE
 70
     1
  0
DIMSTYLE
  2
STANDARD
 70
     0
  3

  4

  5

  6

  7

 40
1.0
 41
0.18
 42
0.0625
 43
0.38
 44
0.18
 45
0.0
 46
0.0
 47
0.0
 48
0.0
140
0.18
141
0.09
142
0.0
143
25.399999999999999
144
1.0
145
0.0
146
1.0
147
0.09
 71
     0
 72
     0
 73
     1
 74
     1
 75
     0
 76
     0
 77
     0
 78
     0
170
     0
171
     2
172
     0
173
     0
174
     0
175
     0
176
     0
177
     0
178
     0
  0
ENDTAB
  0
ENDSEC
  0
SECTION
  2
BLOCKS
  0
BLOCK
  8
0
  2
$MODEL_SPACE
 70
     0
 10
0.0
 20
0.0
 30
0.0
  3
$MODEL_SPACE
  1

  0
ENDBLK
  5
1A
  8
0
  0
BLOCK
 67
     1
  8
0
  2
$PAPER_SPACE
 70
     0
 10
0.0
 20
0.0
 30
0.0
  3
$PAPER_SPACE
  1

  0
ENDBLK
  5
17
 67
     1
  8
0
  0
ENDSEC
  0
SECTION
  2
ENTITIES
  0
TEXT
  5
23
  8
0
 62
     7
 10
106.66144
 20
135.489
 30
0.0
 40
3.0923400000000001
  1
%%c79
 41
0.5
 72
     1
 11
108.723
 21
135.489
 31
0.0
  0
TEXT
  5
24
  8
0
 62
     7
 10
150.13200000000001
 20
102.01405
 30
0.0
 40
3.0923400000000001
  1
%%c5
 50
90.0
 41
0.5
 72
     2
 11
150.13200000000001
 21
104.59099999999999
 31
0.0
  0
TEXT
  5
25
  8
0
 62
     7
 10
88.115099999999998
 20
111.074575
 30
0.0
 40
3.0923400000000001
  1
max.45
 50
90.0
 41
0.5
 72
     1
 11
88.115099999999998
 21
114.94
 31
0.0
  0
TEXT
  5
26
  8
0
 62
     7
 10
88.115099999999998
 20
123.25761
 30
0.0
 40
3.0923400000000001
  1
9
 50
90.0
 41
0.5
 72
     1
 11
88.115099999999998
 21
123.773
 31
0.0
  0
TEXT
  5
27
  8
0
 62
     7
 10
88.115099999999998
 20
98.984524999999991
 30
0.0
 40
3.0923400000000001
  1
44
 50
90.0
 41
0.5
 72
     1
 11
88.115099999999998
 21
100.273
 31
0.0
  0
TEXT
  5
28
  8
0
 62
     7
 10
137.75313499999999
 20
81.470099999999988
 30
0.0
 40
3.0923400000000001
  1
185
 41
0.5
 72
     1
 11
139.55699999999999
 21
81.470099999999988
 31
0.0
  0
TEXT
  5
29
  8
0
 62
     7
 10
105.166809
 20
73.510199999999998
 30
0.0
 40
3.0923400000000001
  1
G1 1/4
 41
0.5
 72
     1
 11
108.723
 21
73.510199999999998
 31
0.0
  0
LINE
  5
2A
  8
0
 62
     7
 10
58.983699999999992
 20
122.273
 30
0.0
 11
55.650500000000001
 21
122.273
 31
0.0
  0
LINE
  5
2B
  8
0
 62
     7
 10
55.650500000000001
 20
122.273
 30
0.0
 11
55.650500000000001
 21
125.273
 31
0.0
  0
LINE
  5
2C
  8
0
 62
     7
 10
55.650500000000001
 20
125.273
 30
0.0
 11
58.983699999999992
 21
125.273
 31
0.0
  0
LINE
  5
2D
  8
0
 62
     7
 10
58.983699999999992
 20
125.273
 30
0.0
 11
58.983699999999992
 21
122.273
 31
0.0
  0
ARC
  5
2E
  8
0
 62
     7
 10
68.970062999999996
 20
125.03494600000001
 30
0.0
 40
1.9060209999999991
 50
47.595185999999998
 51
55.595951999999997
  0
ARC
  5
2F
  8
0
 62
     7
 10
69.259146000000001
 20
125.42269899999999
 30
0.0
 40
1.422888999999999
 50
56.378174000000001
 51
69.345660999999993
  0
ARC
  5
30
  8
0
 62
     7
 10
69.806476000000004
 20
125.93512
 30
0.0
 40
0.6773680000000001
 50
0.417115
 51
48.488551999999999
  0
ARC
  5
31
  8
0
 62
     7
 10
69.791698999999994
 20
125.965548
 30
0.0
 40
0.692596
 50
272.109737
 51
357.89027299999998
  0
LINE
  5
32
  8
0
 62
     7
 10
69.8172
 20
125.273
 30
0.0
 11
44.817
 21
125.273
 31
0.0
  0
ARC
  5
33
  8
0
 62
     7
 10
44.842504999999989
 20
125.965543
 30
0.0
 40
0.692591
 50
182.10933299999999
 51
267.89069699999999
  0
ARC
  5
34
  8
0
 62
     7
 10
44.826798999999987
 20
125.93585299999999
 30
0.0
 40
0.6764280000000001
 50
131.51508799999999
 51
179.64434900000001
  0
ARC
  5
35
  8
0
 62
     7
 10
65.749678000000003
 20
116.609703
 30
0.0
 40
10.908734000000001
 50
68.424906000000007
 51
74.251881999999995
  0
ARC
  5
36
  8
0
 62
     7
 10
63.866880000000002
 20
110.31017900000001
 30
0.0
 40
17.483108000000001
 50
73.916358000000002
 51
78.263605999999996
  0
ARC
  5
37
  8
0
 62
     7
 10
61.775354
 20
100.674211
 30
0.0
 40
27.343201000000001
 50
78.079718
 51
82.04340400000001
  0
ARC
  5
38
  8
0
 62
     7
 10
59.632568999999997
 20
86.344658999999993
 30
0.0
 40
41.831645999999999
 50
81.853537000000003
 51
84.999662000000015
  0
ARC
  5
39
  8
0
 62
     7
 10
57.801501000000002
 20
67.052153000000004
 30
0.0
 40
61.210492000000002
 50
84.866241999999986
 51
88.320172000000014
  0
ARC
  5
3A
  8
0
 62
     7
 10
57.291423999999999
 20
56.674635000000002
 30
0.0
 40
71.598798000000002
 50
88.155605000000008
 51
89.979577000000006
  0
ARC
  5
3B
  8
0
 62
     7
 10
45.662520000000001
 20
125.036354
 30
0.0
 40
1.904115999999999
 50
124.39531700000001
 51
132.40486200000001
  0
ARC
  5
3C
  8
0
 62
     7
 10
45.373652999999997
 20
125.42377500000001
 30
0.0
 40
1.4213849999999999
 50
110.616422
 51
123.608964
  0
ARC
  5
3D
  8
0
 62
     7
 10
48.884644000000002
 20
116.609415
 30
0.0
 40
10.909043
 50
105.748283
 51
111.5750669999999
  0
ARC
  5
3E
  8
0
 62
     7
 10
50.767055999999997
 20
110.311561
 30
0.0
 40
17.481705999999999
 50
101.73652199999999
 51
106.08403300000001
  0
ARC
  5
3F
  8
0
 62
     7
 10
52.858930999999998
 20
100.674099
 30
0.0
 40
27.343333000000001
 50
97.956855000000004
 51
101.920433
  0
ARC
  5
40
  8
0
 62
     7
 10
55.00145899999999
 20
86.346630000000005
 30
0.0
 40
41.829679999999989
 50
95.000510999999975
 51
98.146681000000001
  0
ARC
  5
41
  8
0
 62
     7
 10
56.832420999999997
 20
67.055522999999994
 30
0.0
 40
61.207124
 50
91.679891999999995
 51
95.133891999999975
  0
ARC
  5
42
  8
0
 62
     7
 10
57.342434999999988
 20
56.679003000000002
 30
0.0
 40
71.594431
 50
90.020398999999969
 51
91.844432000000026
  0
LINE
  5
43
  8
0
 62
     7
 10
110.39
 20
122.273
 30
0.0
 11
107.057
 21
122.273
 31
0.0
  0
LINE
  5
44
  8
0
 62
     7
 10
107.057
 20
122.273
 30
0.0
 11
107.057
 21
125.273
 31
0.0
  0
LINE
  5
45
  8
0
 62
     7
 10
107.057
 20
125.273
 30
0.0
 11
110.39
 21
125.273
 31
0.0
  0
LINE
  5
46
  8
0
 62
     7
 10
110.39
 20
125.273
 30
0.0
 11
110.39
 21
122.273
 31
0.0
  0
LINE
  5
47
  8
0
 62
     7
 10
54.8172
 20
108.607
 30
0.0
 11
54.8172
 21
113.607
 31
0.0
  0
ARC
  5
48
  8
0
 62
     7
 10
55.855505000000001
 20
113.568313
 30
0.0
 40
1.0390520000000001
 50
92.12764700000001
 51
177.89206300000001
  0
LINE
  5
49
  8
0
 62
     7
 10
55.816899999999997
 20
114.607
 30
0.0
 11
58.81689999999999
 21
114.607
 31
0.0
  0
ARC
  5
4A
  8
0
 62
     7
 10
58.778301999999996
 20
113.567897
 30
0.0
 40
1.0394709999999989
 50
2.1300520000000001
 51
87.869938000000005
  0
LINE
  5
4B
  8
0
 62
     7
 10
59.817100000000003
 20
113.607
 30
0.0
 11
59.817100000000003
 21
108.607
 31
0.0
  0
LINE
  5
4C
  8
0
 62
     7
 10
47.483499999999999
 20
106.273
 30
0.0
 11
67.150700000000001
 21
106.273
 31
0.0
  0
ARC
  5
4D
  8
0
 62
     7
 10
67.397330000000011
 20
117.89106
 30
0.0
 40
3.4137539999999991
 50
116.814398
 51
179.181905
  0
LINE
  5
4E
  8
0
 62
     7
 10
65.746399999999994
 20
120.881
 30
0.0
 11
67.816999999999993
 21
121.94
 31
0.0
  0
LINE
  5
4F
  8
0
 62
     7
 10
63.983899999999998
 20
116.94
 30
0.0
 11
63.983899999999998
 21
117.94
 31
0.0
  0
LINE
  5
50
  8
0
 62
     7
 10
67.877600000000001
 20
106.279
 30
0.0
 11
65.908699999999996
 21
105.91800000000001
 31
0.0
  0
ARC
  5
51
  8
0
 62
     7
 10
67.807559999999995
 20
106.61451700000001
 30
0.0
 40
0.3429769999999999
 50
281.78263399999997
 51
358.70101499999998
  0
ARC
  5
52
  8
0
 62
     7
 10
66.191855000000004
 20
104.57219499999999
 30
0.0
 40
1.3753299999999991
 50
101.88063
 51
178.57040000000001
  0
LINE
  5
53
  8
0
 62
     7
 10
57.316899999999997
 20
92.939999999999998
 30
0.0
 11
64.816999999999993
 21
92.939999999999998
 31
0.0
  0
LINE
  5
54
  8
0
 62
     7
 10
64.816999999999993
 20
92.939999999999998
 30
0.0
 11
64.816999999999993
 21
104.607
 31
0.0
  0
LINE
  5
55
  8
0
 62
     7
 10
64.396000000000001
 20
89.272999999999996
 30
0.0
 11
64.0625
 21
88.939800000000005
 31
0.0
  0
LINE
  5
56
  8
0
 62
     7
 10
64.0625
 20
88.939800000000005
 30
0.0
 11
64.0625
 21
92.939999999999998
 31
0.0
  0
LINE
  5
57
  8
0
 62
     7
 10
64.396000000000001
 20
89.272999999999996
 30
0.0
 11
64.396000000000001
 21
92.939999999999998
 31
0.0
  0
LINE
  5
58
  8
0
 62
     7
 10
57.316899999999997
 20
89.272999999999996
 30
0.0
 11
64.396000000000001
 21
89.272999999999996
 31
0.0
  0
LINE
  5
59
  8
0
 62
     7
 10
57.316899999999997
 20
88.939800000000005
 30
0.0
 11
64.0625
 21
88.939800000000005
 31
0.0
  0
ARC
  5
5A
  8
0
 62
     7
 10
47.236879999999999
 20
117.89106
 30
0.0
 40
3.4137539999999991
 50
0.8180750000000001
 51
63.185581999999997
  0
LINE
  5
5B
  8
0
 62
     7
 10
48.887799999999999
 20
120.881
 30
0.0
 11
46.81689999999999
 21
121.94
 31
0.0
  0
LINE
  5
5C
  8
0
 62
     7
 10
50.650300000000001
 20
116.94
 30
0.0
 11
50.650300000000001
 21
117.94
 31
0.0
  0
LINE
  5
5D
  8
0
 62
     7
 10
63.983899999999998
 20
108.607
 30
0.0
 11
50.650300000000001
 21
108.607
 31
0.0
  0
LINE
  5
5E
  8
0
 62
     7
 10
50.650300000000001
 20
108.607
 30
0.0
 11
50.650300000000001
 21
115.273
 31
0.0
  0
LINE
  5
5F
  8
0
 62
     7
 10
50.650300000000001
 20
115.273
 30
0.0
 11
63.983899999999998
 21
115.273
 31
0.0
  0
LINE
  5
60
  8
0
 62
     7
 10
63.983899999999998
 20
115.273
 30
0.0
 11
63.983899999999998
 21
108.607
 31
0.0
  0
LINE
  5
61
  8
0
 62
     7
 10
46.81689999999999
 20
121.94
 30
0.0
 11
46.81689999999999
 21
122.273
 31
0.0
  0
LINE
  5
62
  8
0
 62
     7
 10
46.81689999999999
 20
122.273
 30
0.0
 11
67.816999999999993
 21
122.273
 31
0.0
  0
LINE
  5
63
  8
0
 62
     7
 10
67.816999999999993
 20
122.273
 30
0.0
 11
67.816999999999993
 21
121.94
 31
0.0
  0
LINE
  5
64
  8
0
 62
     7
 10
67.816999999999993
 20
121.94
 30
0.0
 11
46.81689999999999
 21
121.94
 31
0.0
  0
LINE
  5
65
  8
0
 62
     7
 10
46.983600000000003
 20
115.273
 30
0.0
 11
46.983600000000003
 21
116.94
 31
0.0
  0
LINE
  5
66
  8
0
 62
     7
 10
46.983600000000003
 20
116.94
 30
0.0
 11
67.650599999999997
 21
116.94
 31
0.0
  0
LINE
  5
67
  8
0
 62
     7
 10
67.650599999999997
 20
116.94
 30
0.0
 11
67.650599999999997
 21
115.273
 31
0.0
  0
LINE
  5
68
  8
0
 62
     7
 10
67.650599999999997
 20
115.273
 30
0.0
 11
46.983600000000003
 21
115.273
 31
0.0
  0
LINE
  5
69
  8
0
 62
     7
 10
46.983600000000003
 20
107.607
 30
0.0
 11
46.983600000000003
 21
108.607
 31
0.0
  0
LINE
  5
6A
  8
0
 62
     7
 10
46.983600000000003
 20
108.607
 30
0.0
 11
67.650599999999997
 21
108.607
 31
0.0
  0
LINE
  5
6B
  8
0
 62
     7
 10
67.650599999999997
 20
108.607
 30
0.0
 11
67.650599999999997
 21
107.607
 31
0.0
  0
LINE
  5
6C
  8
0
 62
     7
 10
46.756599999999992
 20
106.279
 30
0.0
 11
48.725499999999997
 21
105.91800000000001
 31
0.0
  0
ARC
  5
6D
  8
0
 62
     7
 10
46.826545000000003
 20
106.61443
 30
0.0
 40
0.34287
 50
181.284817
 51
258.23157400000002
  0
ARC
  5
6E
  8
0
 62
     7
 10
48.442009999999989
 20
104.57219499999999
 30
0.0
 40
1.3753299999999991
 50
1.429597999999999
 51
78.119332999999983
  0
LINE
  5
6F
  8
0
 62
     7
 10
46.483800000000002
 20
106.607
 30
0.0
 11
46.483800000000002
 21
107.607
 31
0.0
  0
LINE
  5
70
  8
0
 62
     7
 10
46.483800000000002
 20
107.607
 30
0.0
 11
68.150400000000005
 21
107.607
 31
0.0
  0
LINE
  5
71
  8
0
 62
     7
 10
68.150400000000005
 20
107.607
 30
0.0
 11
68.150400000000005
 21
106.607
 31
0.0
  0
LINE
  5
72
  8
0
 62
     7
 10
57.316899999999997
 20
92.939999999999998
 30
0.0
 11
49.816899999999997
 21
92.939999999999998
 31
0.0
  0
LINE
  5
73
  8
0
 62
     7
 10
49.816899999999997
 20
92.939999999999998
 30
0.0
 11
49.816899999999997
 21
104.607
 31
0.0
  0
LINE
  5
74
  8
0
 62
     7
 10
50.237900000000003
 20
89.272999999999996
 30
0.0
 11
50.571399999999997
 21
88.939800000000005
 31
0.0
  0
LINE
  5
75
  8
0
 62
     7
 10
50.571399999999997
 20
88.939800000000005
 30
0.0
 11
50.571399999999997
 21
92.939999999999998
 31
0.0
  0
LINE
  5
76
  8
0
 62
     7
 10
50.237900000000003
 20
89.272999999999996
 30
0.0
 11
50.237900000000003
 21
92.939999999999998
 31
0.0
  0
LINE
  5
77
  8
0
 62
     7
 10
57.316899999999997
 20
89.272999999999996
 30
0.0
 11
50.237900000000003
 21
89.272999999999996
 31
0.0
  0
LINE
  5
78
  8
0
 62
     7
 10
57.316899999999997
 20
88.939800000000005
 30
0.0
 11
50.571399999999997
 21
88.939800000000005
 31
0.0
  0
ARC
  5
79
  8
0
 62
     7
 10
117.808284
 20
99.494492000000008
 30
0.0
 40
2.036111
 50
141.11130800000001
 51
149.49887699999999
  0
ARC
  5
7A
  8
0
 62
     7
 10
118.657764
 20
98.975293000000022
 30
0.0
 40
3.0316040000000002
 50
149.19282200000001
 51
156.799015
  0
ARC
  5
7B
  8
0
 62
     7
 10
119.96709799999999
 20
98.392218
 30
0.0
 40
4.4648019999999988
 50
156.54108500000001
 51
162.89315099999999
  0
ARC
  5
7C
  8
0
 62
     7
 10
122.000953
 20
97.744685000000004
 30
0.0
 40
6.599183
 50
162.71414100000001
 51
170.49738099999999
  0
ARC
  5
7D
  8
0
 62
     7
 10
124.451105
 20
97.277146000000002
 30
0.0
 40
9.0930769999999992
 50
170.14060599999999
 51
180.02469400000001
  0
ARC
  5
7E
  8
0
 62
     7
 10
117.81249200000001
 20
95.052710999999988
 30
0.0
 40
2.0405000000000002
 50
210.47759099999999
 51
218.853317
  0
ARC
  5
7F
  8
0
 62
     7
 10
118.661725
 20
95.571738999999994
 30
0.0
 40
3.0356900000000002
 50
203.19116099999999
 51
210.790549
  0
ARC
  5
80
  8
0
 62
     7
 10
119.97142599999999
 20
96.154946999999993
 30
0.0
 40
4.4692759999999989
 50
197.10456500000001
 51
203.45169200000001
  0
ARC
  5
81
  8
0
 62
     7
 10
122.004058
 20
96.80198
 30
0.0
 40
6.6023389999999988
 50
189.50304700000001
 51
197.283198
  0
ARC
  5
82
  8
0
 62
     7
 10
124.453208
 20
97.269130000000004
 30
0.0
 40
9.0951799999999992
 50
179.97415100000001
 51
189.85825500000001
  0
LINE
  5
83
  8
0
 62
     7
 10
106.224
 20
108.607
 30
0.0
 11
106.224
 21
113.607
 31
0.0
  0
ARC
  5
84
  8
0
 62
     7
 10
107.262387
 20
113.567921
 30
0.0
 40
1.039458999999999
 50
92.148465000000002
 51
177.87124600000001
  0
LINE
  5
85
  8
0
 62
     7
 10
107.223
 20
114.607
 30
0.0
 11
110.223
 21
114.607
 31
0.0
  0
ARC
  5
86
  8
0
 62
     7
 10
110.184791
 20
113.567897
 30
0.0
 40
1.0394709999999989
 50
2.1300520000000001
 51
87.869938000000005
  0
LINE
  5
87
  8
0
 62
     7
 10
111.224
 20
113.607
 30
0.0
 11
111.224
 21
108.607
 31
0.0
  0
LINE
  5
88
  8
0
 62
     7
 10
98.890000000000015
 20
106.273
 30
0.0
 11
118.557
 21
106.273
 31
0.0
  0
ARC
  5
89
  8
0
 62
     7
 10
120.392854
 20
125.054929
 30
0.0
 40
1.8802719999999999
 50
47.551347
 51
55.797443000000008
  0
ARC
  5
8A
  8
0
 62
     7
 10
120.664573
 20
125.42055499999999
 30
0.0
 40
1.4252709999999991
 50
56.569352000000002
 51
69.336078999999998
  0
ARC
  5
8B
  8
0
 62
     7
 10
121.214158
 20
125.93566199999999
 30
0.0
 40
0.6761720000000001
 50
0.371888
 51
48.53378
  0
ARC
  5
8C
  8
0
 62
     7
 10
121.198189
 20
125.965548
 30
0.0
 40
0.692596
 50
272.109737
 51
357.89027299999998
  0
LINE
  5
8D
  8
0
 62
     7
 10
121.224
 20
125.273
 30
0.0
 11
96.223500000000001
 21
125.273
 31
0.0
  0
ARC
  5
8E
  8
0
 62
     7
 10
96.248990000000006
 20
125.965538
 30
0.0
 40
0.692586
 50
182.108936
 51
267.89109400000001
  0
ARC
  5
8F
  8
0
 62
     7
 10
96.231622999999999
 20
125.936609
 30
0.0
 40
0.674758
 50
131.45175599999999
 51
179.70768200000001
  0
ARC
  5
90
  8
0
 62
     7
 10
118.803819
 20
117.89106
 30
0.0
 40
3.4137539999999991
 50
116.814398
 51
179.181905
  0
LINE
  5
91
  8
0
 62
     7
 10
117.15300000000001
 20
120.881
 30
0.0
 11
119.223
 21
121.94
 31
0.0
  0
LINE
  5
92
  8
0
 62
     7
 10
115.39
 20
116.94
 30
0.0
 11
115.39
 21
117.94
 31
0.0
  0
LINE
  5
93
  8
0
 62
     7
 10
119.28400000000001
 20
106.279
 30
0.0
 11
117.315
 21
105.91800000000001
 31
0.0
  0
ARC
  5
94
  8
0
 62
     7
 10
119.214049
 20
106.61451700000001
 30
0.0
 40
0.3429769999999999
 50
281.78263399999997
 51
358.70101499999998
  0
ARC
  5
95
  8
0
 62
     7
 10
117.59823799999999
 20
104.572284
 30
0.0
 40
1.3752209999999989
 50
101.87705
 51
178.57397900000001
  0
LINE
  5
96
  8
0
 62
     7
 10
108.723
 20
92.939999999999998
 30
0.0
 11
116.223
 21
92.939999999999998
 31
0.0
  0
LINE
  5
97
  8
0
 62
     7
 10
116.223
 20
92.939999999999998
 30
0.0
 11
116.223
 21
93.772599999999997
 31
0.0
  0
LINE
  5
98
  8
0
 62
     7
 10
116.223
 20
100.773
 30
0.0
 11
116.223
 21
104.607
 31
0.0
  0
ARC
  5
99
  8
0
 62
     7
 10
117.15628
 20
116.60999099999999
 30
0.0
 40
10.908424999999999
 50
68.424898999999996
 51
74.252067000000011
  0
ARC
  5
9A
  8
0
 62
     7
 10
115.274883
 20
110.316433
 30
0.0
 40
17.476678
 50
73.915463000000003
 51
78.264277000000007
  0
ARC
  5
9B
  8
0
 62
     7
 10
113.182002
 20
100.674958
 30
0.0
 40
27.342438999999999
 50
78.079707999999997
 51
82.043526999999983
  0
ARC
  5
9C
  8
0
 62
     7
 10
111.039002
 20
86.344292999999993
 30
0.0
 40
41.832014999999998
 50
81.853538999999998
 51
84.999628999999985
  0
ARC
  5
9D
  8
0
 62
     7
 10
109.20815899999999
 20
67.054986999999997
 30
0.0
 40
61.207655000000003
 50
84.866161000000005
 51
88.320251999999996
  0
ARC
  5
9E
  8
0
 62
     7
 10
108.69789
 20
56.673159999999989
 30
0.0
 40
71.600273999999999
 50
88.155622999999991
 51
89.979558999999995
  0
LINE
  5
9F
  8
0
 62
     7
 10
115.80200000000001
 20
89.272999999999996
 30
0.0
 11
115.46899999999999
 21
88.939800000000005
 31
0.0
  0
LINE
  5
A0
  8
0
 62
     7
 10
115.46899999999999
 20
88.939800000000005
 30
0.0
 11
115.46899999999999
 21
92.939999999999998
 31
0.0
  0
LINE
  5
A1
  8
0
 62
     7
 10
115.80200000000001
 20
89.272999999999996
 30
0.0
 11
115.80200000000001
 21
92.939999999999998
 31
0.0
  0
LINE
  5
A2
  8
0
 62
     7
 10
108.723
 20
89.272999999999996
 30
0.0
 11
115.80200000000001
 21
89.272999999999996
 31
0.0
  0
LINE
  5
A3
  8
0
 62
     7
 10
108.723
 20
88.939800000000005
 30
0.0
 11
115.46899999999999
 21
88.939800000000005
 31
0.0
  0
ARC
  5
A4
  8
0
 62
     7
 10
97.052789000000004
 20
125.056246
 30
0.0
 40
1.878488999999999
 50
124.193985
 51
132.44869800000001
  0
ARC
  5
A5
  8
0
 62
     7
 10
96.78174300000002
 20
125.420565
 30
0.0
 40
1.4249529999999999
 50
110.631202
 51
123.41203899999999
  0
ARC
  5
A6
  8
0
 62
     7
 10
98.64336999999999
 20
117.89106
 30
0.0
 40
3.4137539999999991
 50
0.8180750000000001
 51
63.185581999999997
  0
LINE
  5
A7
  8
0
 62
     7
 10
100.294
 20
120.881
 30
0.0
 11
98.223399999999998
 21
121.94
 31
0.0
  0
LINE
  5
A8
  8
0
 62
     7
 10
102.057
 20
116.94
 30
0.0
 11
102.057
 21
117.94
 31
0.0
  0
LINE
  5
A9
  8
0
 62
     7
 10
115.39
 20
108.607
 30
0.0
 11
102.057
 21
108.607
 31
0.0
  0
LINE
  5
AA
  8
0
 62
     7
 10
102.057
 20
108.607
 30
0.0
 11
102.057
 21
115.273
 31
0.0
  0
LINE
  5
AB
  8
0
 62
     7
 10
102.057
 20
115.273
 30
0.0
 11
115.39
 21
115.273
 31
0.0
  0
LINE
  5
AC
  8
0
 62
     7
 10
115.39
 20
115.273
 30
0.0
 11
115.39
 21
108.607
 31
0.0
  0
LINE
  5
AD
  8
0
 62
     7
 10
98.223399999999998
 20
121.94
 30
0.0
 11
98.223399999999998
 21
122.273
 31
0.0
  0
LINE
  5
AE
  8
0
 62
     7
 10
98.223399999999998
 20
122.273
 30
0.0
 11
119.223
 21
122.273
 31
0.0
  0
LINE
  5
AF
  8
0
 62
     7
 10
119.223
 20
122.273
 30
0.0
 11
119.223
 21
121.94
 31
0.0
  0
LINE
  5
B0
  8
0
 62
     7
 10
119.223
 20
121.94
 30
0.0
 11
98.223399999999998
 21
121.94
 31
0.0
  0
LINE
  5
B1
  8
0
 62
     7
 10
98.390100000000004
 20
115.273
 30
0.0
 11
98.390100000000004
 21
116.94
 31
0.0
  0
LINE
  5
B2
  8
0
 62
     7
 10
98.390100000000004
 20
116.94
 30
0.0
 11
119.057
 21
116.94
 31
0.0
  0
LINE
  5
B3
  8
0
 62
     7
 10
119.057
 20
116.94
 30
0.0
 11
119.057
 21
115.273
 31
0.0
  0
LINE
  5
B4
  8
0
 62
     7
 10
119.057
 20
115.273
 30
0.0
 11
98.390100000000004
 21
115.273
 31
0.0
  0
LINE
  5
B5
  8
0
 62
     7
 10
98.390100000000004
 20
107.607
 30
0.0
 11
98.390100000000004
 21
108.607
 31
0.0
  0
LINE
  5
B6
  8
0
 62
     7
 10
98.390100000000004
 20
108.607
 30
0.0
 11
119.057
 21
108.607
 31
0.0
  0
LINE
  5
B7
  8
0
 62
     7
 10
119.057
 20
108.607
 30
0.0
 11
119.057
 21
107.607
 31
0.0
  0
LINE
  5
B8
  8
0
 62
     7
 10
98.163100000000014
 20
106.279
 30
0.0
 11
100.13200000000001
 21
105.91800000000001
 31
0.0
  0
ARC
  5
B9
  8
0
 62
     7
 10
98.232930999999994
 20
106.61434300000001
 30
0.0
 40
0.342764
 50
181.27068700000001
 51
258.24570399999999
  0
ARC
  5
BA
  8
0
 62
     7
 10
99.848606000000004
 20
104.572283
 30
0.0
 40
1.3752219999999991
 50
1.4260189999999999
 51
78.122911999999999
  0
LINE
  5
BB
  8
0
 62
     7
 10
97.890299999999996
 20
106.607
 30
0.0
 11
97.890299999999996
 21
107.607
 31
0.0
  0
LINE
  5
BC
  8
0
 62
     7
 10
97.890299999999996
 20
107.607
 30
0.0
 11
119.557
 21
107.607
 31
0.0
  0
LINE
  5
BD
  8
0
 62
     7
 10
119.557
 20
107.607
 30
0.0
 11
119.557
 21
106.607
 31
0.0
  0
LINE
  5
BE
  8
0
 62
     7
 10
118.224
 20
93.772599999999997
 30
0.0
 11
116.223
 21
93.772599999999997
 31
0.0
  0
LINE
  5
BF
  8
0
 62
     7
 10
116.223
 20
100.773
 30
0.0
 11
118.224
 21
100.773
 31
0.0
  0
LINE
  5
C0
  8
0
 62
     7
 10
118.89
 20
93.439800000000005
 30
0.0
 11
118.224
 21
93.439800000000005
 31
0.0
  0
LINE
  5
C1
  8
0
 62
     7
 10
118.224
 20
93.439800000000005
 30
0.0
 11
118.224
 21
101.10599999999999
 31
0.0
  0
LINE
  5
C2
  8
0
 62
     7
 10
118.224
 20
101.10599999999999
 30
0.0
 11
118.89
 21
101.10599999999999
 31
0.0
  0
ARC
  5
C3
  8
0
 62
     7
 10
121.665375
 20
94.029910999999984
 30
0.0
 40
0.557742
 50
0.185815
 51
35.041013
  0
ARC
  5
C4
  8
0
 62
     7
 10
121.375224
 20
93.851332999999997
 30
0.0
 40
0.898065
 50
33.740347
 51
54.860315999999997
  0
ARC
  5
C5
  8
0
 62
     7
 10
120.977498
 20
93.343705
 30
0.0
 40
1.5424530000000001
 50
53.63202600000001
 51
69.999724999999998
  0
ARC
  5
C6
  8
0
 62
     7
 10
120.629621
 20
92.495327000000003
 30
0.0
 40
2.4589229999999991
 50
69.143806000000012
 51
87.23825699999999
  0
ARC
  5
C7
  8
0
 62
     7
 10
120.556969
 20
91.924848999999995
 30
0.0
 40
3.0325729999999989
 50
86.386512999999994
 51
90.004868999999999
  0
ARC
  5
C8
  8
0
 62
     7
 10
120.556853
 20
92.116604000000009
 30
0.0
 40
2.8408189999999989
 50
90.002845999999977
 51
108.432931
  0
ARC
  5
C9
  8
0
 62
     7
 10
120.25834999999999
 20
93.109698999999992
 30
0.0
 40
1.8045539999999991
 50
109.411636
 51
124.13366499999999
  0
ARC
  5
CA
  8
0
 62
     7
 10
119.843284
 20
93.747348000000002
 30
0.0
 40
1.0439439999999991
 50
124.915153
 51
144.014465
  0
ARC
  5
CB
  8
0
 62
     7
 10
119.502287
 20
94.012698999999998
 30
0.0
 40
0.612275
 50
145.357417
 51
178.2197919999999
  0
ARC
  5
CC
  8
0
 62
     7
 10
119.44728600000001
 20
94.033532999999991
 30
0.0
 40
0.5569810000000001
 50
180.1865139999999
 51
215.073443
  0
ARC
  5
CD
  8
0
 62
     7
 10
119.737911
 20
94.212377000000004
 30
0.0
 40
0.8978389999999999
 50
213.75673399999999
 51
234.88100499999999
  0
ARC
  5
CE
  8
0
 62
     7
 10
120.135661
 20
94.719871999999995
 30
0.0
 40
1.5421269999999989
 50
233.64024800000001
 51
250.011707
  0
ARC
  5
CF
  8
0
 62
     7
 10
120.456885
 20
95.491600999999989
 30
0.0
 40
2.377476999999999
 50
249.09406300000001
 51
262.83399900000001
  0
ARC
  5
D0
  8
0
 62
     7
 10
120.55286
 20
96.045128000000005
 30
0.0
 40
2.9387689999999989
 50
262.323643
 51
270.07508200000001
  0
ARC
  5
D1
  8
0
 62
     7
 10
120.55657600000001
 20
95.948266000000004
 30
0.0
 40
2.8419050000000001
 50
270.00272699999999
 51
288.42871100000002
  0
ARC
  5
D2
  8
0
 62
     7
 10
120.85583
 20
94.953046999999998
 30
0.0
 40
1.803383
 50
289.40430199999997
 51
304.13393400000001
  0
ARC
  5
D3
  8
0
 62
     7
 10
121.26991700000001
 20
94.316688999999997
 30
0.0
 40
1.044394
 50
304.91999900000002
 51
324.00424299999997
  0
ARC
  5
D4
  8
0
 62
     7
 10
121.61183200000001
 20
94.050655000000006
 30
0.0
 40
0.611576
 50
325.34271699999999
 51
358.225753
  0
LINE
  5
D5
  8
0
 62
     7
 10
122.146
 20
93.250399999999985
 30
0.0
 11
121.449
 21
93.250399999999985
 31
0.0
  0
LINE
  5
D6
  8
0
 62
     7
 10
122.557
 20
97.273200000000003
 30
0.0
 11
122.557
 21
93.742999999999995
 31
0.0
  0
ARC
  5
D7
  8
0
 62
     7
 10
122.142938
 20
93.623132999999996
 30
0.0
 40
0.372781
 50
270.51497799999999
 51
322.8567470000001
  0
ARC
  5
D8
  8
0
 62
     7
 10
122.02575299999999
 20
93.730672999999996
 30
0.0
 40
0.531336
 50
321.24274700000001
 51
1.3314529999999991
  0
LINE
  5
D9
  8
0
 62
     7
 10
118.89
 20
97.273200000000003
 30
0.0
 11
118.89
 21
93.359199999999987
 31
0.0
  0
LINE
  5
DA
  8
0
 62
     7
 10
119.413
 20
93.359199999999987
 30
0.0
 11
118.89
 21
93.359199999999987
 31
0.0
  0
ARC
  5
DB
  8
0
 62
     7
 10
121.666782
 20
100.515524
 30
0.0
 40
0.556335
 50
324.91326400000003
 51
359.81291700000003
  0
ARC
  5
DC
  8
0
 62
     7
 10
121.374928
 20
100.695172
 30
0.0
 40
0.8986589999999999
 50
305.136146
 51
326.23701
  0
ARC
  5
DD
  8
0
 62
     7
 10
120.97596299999999
 20
101.204847
 30
0.0
 40
1.545428
 50
290.02070900000001
 51
306.35744499999998
  0
ARC
  5
DE
  8
0
 62
     7
 10
120.656335
 20
101.97288500000001
 30
0.0
 40
2.3767740000000002
 50
277.17568399999999
 51
290.92154199999999
  0
ARC
  5
DF
  8
0
 62
     7
 10
120.560661
 20
102.52247
 30
0.0
 40
2.9341240000000002
 50
269.92288000000002
 51
277.6887680000001
  0
ARC
  5
E0
  8
0
 62
     7
 10
120.556845
 20
102.42633499999999
 30
0.0
 40
2.837985999999999
 50
251.54817499999999
 51
269.99731000000003
  0
ARC
  5
E1
  8
0
 62
     7
 10
120.25927799999999
 20
101.437523
 30
0.0
 40
1.8060879999999999
 50
235.863742
 51
250.574285
  0
ARC
  5
E2
  8
0
 62
     7
 10
119.844154
 20
100.79980999999999
 30
0.0
 40
1.0453939999999999
 50
216.01370800000009
 51
235.082099
  0
ARC
  5
E3
  8
0
 62
     7
 10
119.501361
 20
100.53291299999999
 30
0.0
 40
0.611355
 50
181.80023600000001
 51
214.670481
  0
ARC
  5
E4
  8
0
 62
     7
 10
119.447568
 20
100.511892
 30
0.0
 40
0.5572630000000001
 50
144.935712
 51
179.81327999999999
  0
ARC
  5
E5
  8
0
 62
     7
 10
119.73876
 20
100.33281100000001
 30
0.0
 40
0.898726
 50
125.14542400000001
 51
146.256102
  0
ARC
  5
E6
  8
0
 62
     7
 10
120.136381
 20
99.825962000000004
 30
0.0
 40
1.5424260000000001
 50
110.012742
 51
126.38482
  0
ARC
  5
E7
  8
0
 62
     7
 10
120.48406199999999
 20
98.980153000000001
 30
0.0
 40
2.4564300000000001
 50
92.769109
 51
110.881072
  0
ARC
  5
E8
  8
0
 62
     7
 10
120.55632199999999
 20
98.418755000000004
 30
0.0
 40
3.0209999999999999
 50
89.992617000000024
 51
93.623621
  0
ARC
  5
E9
  8
0
 62
     7
 10
120.556586
 20
98.601493000000005
 30
0.0
 40
2.838261999999999
 50
71.547000999999995
 51
89.997473999999997
  0
ARC
  5
EA
  8
0
 62
     7
 10
120.854805
 20
99.592462999999995
 30
0.0
 40
1.8041130000000001
 50
55.842421000000002
 51
70.569322999999983
  0
ARC
  5
EB
  8
0
 62
     7
 10
121.26889300000001
 20
100.22842799999999
 30
0.0
 40
1.045455
 50
35.980359999999997
 51
55.052185999999999
  0
ARC
  5
EC
  8
0
 62
     7
 10
121.61134699999999
 20
100.494704
 30
0.0
 40
0.612062
 50
1.7792449999999991
 51
34.643374999999999
  0
ARC
  5
ED
  8
0
 62
     7
 10
120.23911
 20
97.281255000000002
 30
0.0
 40
1.9840209999999989
 50
317.69807200000002
 51
359.76827200000002
  0
ARC
  5
EE
  8
0
 62
     7
 10
120.518216
 20
97.086129
 30
0.0
 40
1.6468400000000001
 50
271.33942100000002
 51
316.18334900000002
  0
ARC
  5
EF
  8
0
 62
     7
 10
120.56558
 20
97.017591000000024
 30
0.0
 40
1.5778769999999991
 50
223.530112
 51
269.67796700000002
  0
ARC
  5
F0
  8
0
 62
     7
 10
120.788027
 20
97.247988000000021
 30
0.0
 40
1.897886999999999
 50
179.23791
 51
223.94772399999999
  0
ARC
  5
F1
  8
0
 62
     7
 10
120.872432
 20
97.265189000000021
 30
0.0
 40
1.98214
 50
137.67147800000001
 51
179.76753600000001
  0
ARC
  5
F2
  8
0
 62
     7
 10
120.595614
 20
97.458826000000016
 30
0.0
 40
1.6476660000000001
 50
91.352912000000003
 51
136.16737499999999
  0
ARC
  5
F3
  8
0
 62
     7
 10
120.547853
 20
97.527713000000006
 30
0.0
 40
1.5783439999999991
 50
43.541150000000002
 51
89.678445999999994
  0
ARC
  5
F4
  8
0
 62
     7
 10
120.325892
 20
97.298210000000012
 30
0.0
 40
1.897386
 50
359.24566399999998
 51
43.94756799999999
  0
LINE
  5
F5
  8
0
 62
     7
 10
122.146
 20
101.29600000000001
 30
0.0
 11
121.449
 21
101.29600000000001
 31
0.0
  0
LINE
  5
F6
  8
0
 62
     7
 10
122.557
 20
97.273200000000003
 30
0.0
 11
122.557
 21
100.803
 31
0.0
  0
ARC
  5
F7
  8
0
 62
     7
 10
122.142938
 20
100.922983
 30
0.0
 40
0.372781
 50
37.143253000000001
 51
89.485022000000001
  0
ARC
  5
F8
  8
0
 62
     7
 10
122.02575299999999
 20
100.815444
 30
0.0
 40
0.531336
 50
358.66854699999999
 51
38.757253000000013
  0
LINE
  5
F9
  8
0
 62
     7
 10
118.89
 20
97.273200000000003
 30
0.0
 11
118.89
 21
101.187
 31
0.0
  0
LINE
  5
FA
  8
0
 62
     7
 10
119.413
 20
101.187
 30
0.0
 11
118.89
 21
101.187
 31
0.0
  0
LINE
  5
FB
  8
0
  6
AIGENLINE001
 62
     7
 10
108.723
 20
97.273200000000003
 30
0.0
 11
172.637
 21
97.273200000000003
 31
0.0
  0
LINE
  5
FC
  8
0
 62
     7
 10
108.723
 20
92.939999999999998
 30
0.0
 11
101.223
 21
92.939999999999998
 31
0.0
  0
LINE
  5
FD
  8
0
 62
     7
 10
101.223
 20
92.939999999999998
 30
0.0
 11
101.223
 21
104.607
 31
0.0
  0
ARC
  5
FE
  8
0
 62
     7
 10
100.291133
 20
116.609415
 30
0.0
 40
10.909043
 50
105.748283
 51
111.5750669999999
  0
ARC
  5
FF
  8
0
 62
     7
 10
102.172541
 20
110.315561
 30
0.0
 40
17.477584
 50
101.735945
 51
106.08449899999999
  0
ARC
  5
100
  8
0
 62
     7
 10
104.264922
 20
100.676975
 30
0.0
 40
27.340415
 50
97.956644000000011
 51
101.92064499999989
  0
ARC
  5
101
  8
0
 62
     7
 10
106.408005
 20
86.346264000000005
 30
0.0
 40
41.830049000000002
 50
95.000543999999991
 51
98.146679000000006
  0
ARC
  5
102
  8
0
 62
     7
 10
108.238741
 20
67.058357000000001
 30
0.0
 40
61.204286000000003
 50
91.679811999999984
 51
95.133973000000012
  0
ARC
  5
103
  8
0
 62
     7
 10
108.748925
 20
56.679003000000002
 30
0.0
 40
71.594431
 50
90.020398999999969
 51
91.844432000000026
  0
LINE
  5
104
  8
0
  6
AIGENLINE001
 62
     7
 10
57.316899999999997
 20
130.03700000000001
 30
0.0
 11
57.316899999999997
 21
86.913399999999996
 31
0.0
  0
LINE
  5
105
  8
0
  6
AIGENLINE001
 62
     7
 10
108.723
 20
130.03700000000001
 30
0.0
 11
108.723
 21
86.913399999999996
 31
0.0
  0
LINE
  5
106
  8
0
 62
     7
 10
101.64400000000001
 20
89.272999999999996
 30
0.0
 11
101.97799999999999
 21
88.939800000000005
 31
0.0
  0
LINE
  5
107
  8
0
 62
     7
 10
101.97799999999999
 20
88.939800000000005
 30
0.0
 11
101.97799999999999
 21
92.939999999999998
 31
0.0
  0
LINE
  5
108
  8
0
 62
     7
 10
101.64400000000001
 20
89.272999999999996
 30
0.0
 11
101.64400000000001
 21
92.939999999999998
 31
0.0
  0
LINE
  5
109
  8
0
 62
     7
 10
108.723
 20
89.272999999999996
 30
0.0
 11
101.64400000000001
 21
89.272999999999996
 31
0.0
  0
LINE
  5
10A
  8
0
 62
     7
 10
108.723
 20
88.939800000000005
 30
0.0
 11
101.97799999999999
 21
88.939800000000005
 31
0.0
  0
ARC
  5
10B
  8
0
 62
     7
 10
59.254972999999993
 20
185.11164600000001
 30
0.0
 40
2.2136740000000001
 50
14.097149
 51
26.277135000000001
  0
ARC
  5
10C
  8
0
 62
     7
 10
59.994759000000002
 20
185.46176399999999
 30
0.0
 40
1.3953990000000001
 50
26.834551000000008
 51
43.306474999999999
  0
ARC
  5
10D
  8
0
 62
     7
 10
60.443718999999987
 20
185.86390900000001
 30
0.0
 40
0.79301
 50
44.412202999999998
 51
66.270909000000003
  0
ARC
  5
10E
  8
0
 62
     7
 10
60.554528000000012
 20
186.080163
 30
0.0
 40
0.550636
 50
67.771360999999985
 51
89.628455999999986
  0
ARC
  5
10F
  8
0
 62
     7
 10
60.559775000000002
 20
186.074443
 30
0.0
 40
0.5563470000000002
 50
90.172573
 51
124.8929
  0
ARC
  5
110
  8
0
 62
     7
 10
60.702399999999997
 20
185.832616
 30
0.0
 40
0.8365590000000001
 50
123.430413
 51
137.94623899999999
  0
ARC
  5
111
  8
0
 62
     7
 10
61.040759999999999
 20
185.51705100000001
 30
0.0
 40
1.2991939999999991
 50
137.60799700000001
 51
155.44254599999999
  0
LINE
  5
112
  8
0
 62
     7
 10
61.339799999999997
 20
186.554
 30
0.0
 11
61.339799999999997
 21
185.857
 31
0.0
  0
LINE
  5
113
  8
0
 62
     7
 10
57.316899999999997
 20
186.965
 30
0.0
 11
60.847099999999998
 21
186.965
 31
0.0
  0
ARC
  5
114
  8
0
 62
     7
 10
60.967751999999997
 20
186.55097000000001
 30
0.0
 40
0.372056
 50
0.4606840000000001
 51
52.912696999999987
  0
ARC
  5
115
  8
0
 62
     7
 10
60.859570999999988
 20
186.43368000000001
 30
0.0
 40
0.5310850000000001
 50
51.232854000000003
 51
91.340783000000002
  0
ARC
  5
116
  8
0
 62
     7
 10
55.382401999999999
 20
185.11057
 30
0.0
 40
2.2170079999999999
 50
153.71078499999999
 51
165.85907
  0
ARC
  5
117
  8
0
 62
     7
 10
54.637630000000001
 20
185.463031
 30
0.0
 40
1.393230999999999
 50
136.66281599999999
 51
153.141009
  0
ARC
  5
118
  8
0
 62
     7
 10
54.190206999999987
 20
185.864226
 30
0.0
 40
0.792619
 50
113.710148
 51
135.559495
  0
ARC
  5
119
  8
0
 62
     7
 10
54.079613000000002
 20
186.08027799999999
 30
0.0
 40
0.550521
 50
90.364440999999999
 51
112.21307899999999
  0
ARC
  5
11A
  8
0
 62
     7
 10
54.074435999999999
 20
186.07474999999999
 30
0.0
 40
0.5560390000000001
 50
55.093246999999998
 51
89.827434999999994
  0
ARC
  5
11B
  8
0
 62
     7
 10
53.929358999999998
 20
185.83041499999999
 30
0.0
 40
0.8396930000000001
 50
42.053234000000003
 51
56.515647999999999
  0
ARC
  5
11C
  8
0
 62
     7
 10
53.590859000000002
 20
185.51615699999999
 30
0.0
 40
1.3015499999999991
 50
24.528310999999999
 51
42.344192
  0
ARC
  5
11D
  8
0
 62
     7
 10
57.298887999999998
 20
184.709226
 30
0.0
 40
1.9216459999999991
 50
89.461956999999998
 51
126.85566
  0
ARC
  5
11E
  8
0
 62
     7
 10
57.312856999999987
 20
184.64106200000001
 30
0.0
 40
1.9897290000000001
 50
53.814942000000002
 51
89.882626000000002
  0
LINE
  5
11F
  8
0
 62
     7
 10
53.2941
 20
186.554
 30
0.0
 11
53.2941
 21
185.857
 31
0.0
  0
LINE
  5
120
  8
0
 62
     7
 10
57.316899999999997
 20
186.965
 30
0.0
 11
53.787100000000002
 21
186.965
 31
0.0
  0
ARC
  5
121
  8
0
 62
     7
 10
53.665861999999997
 20
186.55096499999999
 30
0.0
 40
0.371804
 50
127.03474799999999
 51
179.53820999999999
  0
ARC
  5
122
  8
0
 62
     7
 10
53.774737000000002
 20
186.43289899999999
 30
0.0
 40
0.531863
 50
88.671766000000005
 51
128.737178
  0
ARC
  5
123
  8
0
 62
     7
 10
162.10207500000001
 20
97.228080000000006
 30
0.0
 40
1.2124950000000001
 50
92.117118999999988
 51
177.86593199999999
  0
ARC
  5
124
  8
0
 62
     7
 10
162.10208900000001
 20
97.318037000000004
 30
0.0
 40
1.212496
 50
182.11780300000001
 51
267.882227
  0
ARC
  5
125
  8
0
 62
     7
 10
162.01244700000001
 20
97.317708999999994
 30
0.0
 40
1.2121690000000001
 50
272.11976399999998
 51
357.89716499999997
  0
ARC
  5
126
  8
0
 62
     7
 10
162.01247100000001
 20
97.228418999999974
 30
0.0
 40
1.212156999999999
 50
2.1186240000000001
 51
87.881365999999986
  0
LINE
  5
127
  8
0
 62
     7
 10
157.72399999999999
 20
96.606300000000005
 30
0.0
 11
157.05699999999999
 21
96.606300000000005
 31
0.0
  0
LINE
  5
128
  8
0
 62
     7
 10
157.72399999999999
 20
97.939499999999995
 30
0.0
 11
157.05699999999999
 21
97.939499999999995
 31
0.0
  0
LINE
  5
129
  8
0
 62
     7
 10
161.88999999999999
 20
98.427700000000016
 30
0.0
 11
161.88999999999999
 21
96.118399999999994
 31
0.0
  0
LINE
  5
12A
  8
0
 62
     7
 10
162.22399999999999
 20
98.427700000000016
 30
0.0
 11
162.22399999999999
 21
96.118399999999994
 31
0.0
  0
LINE
  5
12B
  8
0
 62
     7
 10
162.89099999999999
 20
95.939999999999984
 30
0.0
 11
161.22399999999999
 21
95.939999999999984
 31
0.0
  0
LINE
  5
12C
  8
0
 62
     7
 10
156.05699999999999
 20
98.27300000000001
 30
0.0
 11
156.05699999999999
 21
96.273100000000014
 31
0.0
  0
LINE
  5
12D
  8
0
 62
     7
 10
157.05699999999999
 20
98.27300000000001
 30
0.0
 11
157.05699999999999
 21
96.273100000000014
 31
0.0
  0
LINE
  5
12E
  8
0
 62
     7
 10
157.05699999999999
 20
96.273100000000014
 30
0.0
 11
156.05699999999999
 21
96.273100000000014
 31
0.0
  0
LINE
  5
12F
  8
0
 62
     7
 10
157.05699999999999
 20
98.27300000000001
 30
0.0
 11
156.05699999999999
 21
98.27300000000001
 31
0.0
  0
LINE
  5
130
  8
0
 62
     7
 10
157.72399999999999
 20
98.606499999999997
 30
0.0
 11
157.72399999999999
 21
95.939999999999984
 31
0.0
  0
LINE
  5
131
  8
0
 62
     7
 10
163.72399999999999
 20
98.606499999999997
 30
0.0
 11
163.72399999999999
 21
95.939999999999984
 31
0.0
  0
LINE
  5
132
  8
0
 62
     7
 10
163.72399999999999
 20
95.939999999999984
 30
0.0
 11
157.72399999999999
 21
95.939999999999984
 31
0.0
  0
LINE
  5
133
  8
0
 62
     7
 10
163.72399999999999
 20
98.606499999999997
 30
0.0
 11
157.72399999999999
 21
98.606499999999997
 31
0.0
  0
LINE
  5
134
  8
0
 62
     7
 10
122.557
 20
98.106300000000005
 30
0.0
 11
156.05699999999999
 21
98.106300000000005
 31
0.0
  0
LINE
  5
135
  8
0
 62
     7
 10
157.05699999999999
 20
98.106300000000005
 30
0.0
 11
157.72399999999999
 21
98.106300000000005
 31
0.0
  0
LINE
  5
136
  8
0
 62
     7
 10
163.72399999999999
 20
98.106300000000005
 30
0.0
 11
170.39099999999999
 21
98.106300000000005
 31
0.0
  0
LINE
  5
137
  8
0
 62
     7
 10
170.39099999999999
 20
98.106300000000005
 30
0.0
 11
170.39099999999999
 21
96.439499999999995
 31
0.0
  0
LINE
  5
138
  8
0
 62
     7
 10
170.39099999999999
 20
96.439499999999995
 30
0.0
 11
163.72399999999999
 21
96.439499999999995
 31
0.0
  0
LINE
  5
139
  8
0
 62
     7
 10
157.72399999999999
 20
96.439499999999995
 30
0.0
 11
157.05699999999999
 21
96.439499999999995
 31
0.0
  0
LINE
  5
13A
  8
0
 62
     7
 10
156.05699999999999
 20
96.439499999999995
 30
0.0
 11
122.557
 21
96.439499999999995
 31
0.0
  0
LINE
  5
13B
  8
0
 62
     7
 10
169.86000000000001
 20
98.109700000000004
 30
0.0
 11
169.86000000000001
 21
96.433999999999983
 31
0.0
  0
ARC
  5
13C
  8
0
 62
     7
 10
60.316941
 20
224.13175000000001
 30
0.0
 40
1.000116999999999
 50
179.99996999999999
 51
270.00002000000001
  0
ARC
  5
13D
  8
0
 62
     7
 10
60.316854999999997
 20
224.131664
 30
0.0
 40
1.000032
 50
270.004954
 51
0.004925
  0
ARC
  5
13E
  8
0
 62
     7
 10
60.316941
 20
224.13175000000001
 30
0.0
 40
0.9999450000000001
 50
0.00001
 51
89.999980000000008
  0
ARC
  5
13F
  8
0
 62
     7
 10
60.316854999999997
 20
224.131664
 30
0.0
 40
1.000032
 50
89.995064999999997
 51
179.995036
  0
ARC
  5
140
  8
0
 62
     7
 10
62.315530000000003
 20
225.716568
 30
0.0
 40
0.418304
 50
270.17832700000002
 51
309.88065399999999
  0
ARC
  5
141
  8
0
 62
     7
 10
62.155059000000001
 20
225.94864100000001
 30
0.0
 40
0.6997550000000001
 50
307.77912600000002
 51
324.122052
  0
ARC
  5
142
  8
0
 62
     7
 10
61.809569999999987
 20
226.21051700000001
 30
0.0
 40
1.1332100000000001
 50
323.63099399999999
 51
342.62514800000002
  0
ARC
  5
143
  8
0
 62
     7
 10
61.191848
 20
226.44054199999999
 30
0.0
 40
1.791779999999999
 50
341.503827
 51
0.7806930000000002
  0
ARC
  5
144
  8
0
 62
     7
 10
61.038876000000002
 20
226.46491900000001
 30
0.0
 40
1.9445859999999999
 50
0.001073
 51
18.128059
  0
ARC
  5
145
  8
0
 62
     7
 10
61.708283000000002
 20
226.666472
 30
0.0
 40
1.245806999999999
 50
18.897586
 51
36.540089999999999
  0
ARC
  5
146
  8
0
 62
     7
 10
62.176581999999989
 20
226.99681200000001
 30
0.0
 40
0.6730100000000001
 50
37.681829
 51
61.345390000000002
  0
ARC
  5
147
  8
0
 62
     7
 10
62.312249000000001
 20
227.21435399999999
 30
0.0
 40
0.417315
 50
63.36863799999999
 51
89.370776000000006
  0
ARC
  5
148
  8
0
 62
     7
 10
57.317278999999999
 20
222.37522899999999
 30
0.0
 40
2.842422
 50
90.006978000000004
 51
96.634431000000021
  0
ARC
  5
149
  8
0
 62
     7
 10
57.171434999999988
 20
223.67402999999999
 30
0.0
 40
1.535477
 50
96.828041999999996
 51
107.538077
  0
ARC
  5
14A
  8
0
 62
     7
 10
56.893194999999992
 20
224.57525999999999
 30
0.0
 40
0.592328
 50
108.14454499999999
 51
125.025193
  0
ARC
  5
14B
  8
0
 62
     7
 10
56.669445999999994
 20
224.90227200000001
 30
0.0
 40
0.19617
 50
126.32691800000001
 51
161.36641
  0
ARC
  5
14C
  8
0
 62
     7
 10
57.316586000000001
 20
222.375325
 30
0.0
 40
2.842325999999999
 50
83.365437
 51
89.993006000000037
  0
ARC
  5
14D
  8
0
 62
     7
 10
57.462499000000001
 20
223.67453800000001
 30
0.0
 40
1.5349639999999991
 50
72.459593999999996
 51
83.172431000000003
  0
ARC
  5
14E
  8
0
 62
     7
 10
57.740794999999999
 20
224.57579799999999
 30
0.0
 40
0.5917690000000001
 50
54.961176999999999
 51
71.853164000000007
  0
ARC
  5
14F
  8
0
 62
     7
 10
57.964506999999998
 20
224.90257299999999
 30
0.0
 40
0.195828
 50
18.574401000000002
 51
53.660508
  0
LINE
  5
150
  8
0
 62
     7
 10
58.983499999999999
 20
224.965
 30
0.0
 11
58.150100000000002
 21
224.965
 31
0.0
  0
LINE
  5
151
  8
0
 62
     7
 10
56.483600000000003
 20
224.965
 30
0.0
 11
55.650199999999998
 21
224.965
 31
0.0
  0
ARC
  5
152
  8
0
 62
     7
 10
57.316586000000001
 20
230.55475899999999
 30
0.0
 40
2.842325999999999
 50
270.00699400000002
 51
276.63456300000001
  0
ARC
  5
153
  8
0
 62
     7
 10
57.462499000000001
 20
229.25554600000001
 30
0.0
 40
1.5349639999999991
 50
276.82756899999998
 51
287.54040600000002
  0
ARC
  5
154
  8
0
 62
     7
 10
57.740794999999999
 20
228.354286
 30
0.0
 40
0.5917690000000001
 50
288.14683600000001
 51
305.03882299999998
  0
ARC
  5
155
  8
0
 62
     7
 10
57.964506999999998
 20
228.02751000000001
 30
0.0
 40
0.195828
 50
306.33949200000001
 51
341.42559899999998
  0
ARC
  5
156
  8
0
 62
     7
 10
57.317278999999999
 20
230.554855
 30
0.0
 40
2.842422
 50
263.36556899999999
 51
269.993022
  0
ARC
  5
157
  8
0
 62
     7
 10
57.171434999999988
 20
229.25605400000001
 30
0.0
 40
1.535477
 50
252.4619229999999
 51
263.17195800000002
  0
ARC
  5
158
  8
0
 62
     7
 10
56.893194999999992
 20
228.35482400000001
 30
0.0
 40
0.592328
 50
234.974807
 51
251.85545500000001
  0
ARC
  5
159
  8
0
 62
     7
 10
56.669445999999994
 20
228.02781100000001
 30
0.0
 40
0.19617
 50
198.63359
 51
233.67308199999999
  0
LINE
  5
15A
  8
0
  6
AIGENLINE001
 62
     7
 10
54.562399999999997
 20
226.465
 30
0.0
 11
64.309700000000007
 21
226.465
 31
0.0
  0
LINE
  5
15B
  8
0
 62
     7
 10
55.650199999999998
 20
227.965
 30
0.0
 11
56.483600000000003
 21
227.965
 31
0.0
  0
LINE
  5
15C
  8
0
 62
     7
 10
60.983600000000003
 20
222.13200000000001
 30
0.0
 11
60.983600000000003
 21
221.465
 31
0.0
  0
LINE
  5
15D
  8
0
 62
     7
 10
59.650300000000001
 20
222.13200000000001
 30
0.0
 11
59.650300000000001
 21
221.465
 31
0.0
  0
LINE
  5
15E
  8
0
 62
     7
 10
62.316800000000001
 20
227.63200000000001
 30
0.0
 11
62.316800000000001
 21
225.298
 31
0.0
  0
LINE
  5
15F
  8
0
 62
     7
 10
61.650199999999998
 20
225.63200000000001
 30
0.0
 11
62.316800000000001
 21
225.63200000000001
 31
0.0
  0
LINE
  5
160
  8
0
 62
     7
 10
61.650199999999998
 20
227.298
 30
0.0
 11
62.316800000000001
 21
227.298
 31
0.0
  0
LINE
  5
161
  8
0
 62
     7
 10
61.650199999999998
 20
227.298
 30
0.0
 11
61.650199999999998
 21
225.63200000000001
 31
0.0
  0
LINE
  5
162
  8
0
 62
     7
 10
59.316800000000001
 20
220.465
 30
0.0
 11
61.31689999999999
 21
220.465
 31
0.0
  0
LINE
  5
163
  8
0
 62
     7
 10
59.316800000000001
 20
221.465
 30
0.0
 11
61.31689999999999
 21
221.465
 31
0.0
  0
LINE
  5
164
  8
0
 62
     7
 10
61.31689999999999
 20
221.465
 30
0.0
 11
61.31689999999999
 21
220.465
 31
0.0
  0
LINE
  5
165
  8
0
 62
     7
 10
59.316800000000001
 20
221.465
 30
0.0
 11
59.316800000000001
 21
220.465
 31
0.0
  0
LINE
  5
166
  8
0
 62
     7
 10
58.983499999999999
 20
222.13200000000001
 30
0.0
 11
61.650199999999998
 21
222.13200000000001
 31
0.0
  0
LINE
  5
167
  8
0
 62
     7
 10
58.983499999999999
 20
228.13200000000001
 30
0.0
 11
61.650199999999998
 21
228.13200000000001
 31
0.0
  0
LINE
  5
168
  8
0
 62
     7
 10
58.150100000000002
 20
227.965
 30
0.0
 11
58.983499999999999
 21
227.965
 31
0.0
  0
LINE
  5
169
  8
0
 62
     7
 10
61.650199999999998
 20
228.13200000000001
 30
0.0
 11
61.650199999999998
 21
222.13200000000001
 31
0.0
  0
LINE
  5
16A
  8
0
 62
     7
 10
58.983499999999999
 20
228.13200000000001
 30
0.0
 11
58.983499999999999
 21
222.13200000000001
 31
0.0
  0
LINE
  5
16B
  8
0
 62
     7
 10
55.650199999999998
 20
227.965
 30
0.0
 11
55.650199999999998
 21
224.965
 31
0.0
  0
LINE
  5
16C
  8
0
 62
     7
 10
97.766599999999997
 20
135.37700000000001
 30
0.0
 11
95.556899999999999
 21
134.785
 31
0.0
  0
LINE
  5
16D
  8
0
 62
     7
 10
95.556899999999999
 20
134.785
 30
0.0
 11
97.766599999999997
 21
134.19200000000001
 31
0.0
  0
LINE
  5
16E
  8
0
 62
     7
 10
97.766599999999997
 20
134.19200000000001
 30
0.0
 11
97.766599999999997
 21
135.37700000000001
 31
0.0
  0
LINE
  5
16F
  8
0
 62
     7
 10
119.681
 20
134.202
 30
0.0
 11
121.89
 21
134.79400000000001
 31
0.0
  0
LINE
  5
170
  8
0
 62
     7
 10
121.89
 20
134.79400000000001
 30
0.0
 11
119.681
 21
135.386
 31
0.0
  0
LINE
  5
171
  8
0
 62
     7
 10
119.681
 20
135.386
 30
0.0
 11
119.681
 21
134.202
 31
0.0
  0
LINE
  5
172
  8
0
 62
     7
 10
95.556899999999999
 20
134.79400000000001
 30
0.0
 11
121.89
 21
134.79400000000001
 31
0.0
  0
LINE
  5
173
  8
0
 62
     7
 10
121.89
 20
135.61000000000001
 30
0.0
 11
121.89
 21
127.06
 31
0.0
  0
LINE
  5
174
  8
0
 62
     7
 10
95.556899999999999
 20
127.06
 30
0.0
 11
95.556899999999999
 21
135.554
 31
0.0
  0
ARC
  5
175
  8
0
 62
     7
 10
57.317017000000007
 20
173.13135600000001
 30
0.0
 40
13.16681
 50
269.99964499999999
 51
359.99961500000001
  0
ARC
  5
176
  8
0
 62
     7
 10
57.317017000000007
 20
173.131179
 30
0.0
 40
13.166632999999999
 50
179.999595
 51
269.99964499999999
  0
ARC
  5
177
  8
0
 62
     7
 10
57.31702099999999
 20
173.131351
 30
0.0
 40
13.166638000000001
 50
90.000375000000005
 51
180.00038499999999
  0
ARC
  5
178
  8
0
 62
     7
 10
57.317017000000007
 20
173.131179
 30
0.0
 40
13.16681
 50
0.000385
 51
90.000354999999985
  0
LINE
  5
179
  8
0
  6
AIGENLINE001
 62
     7
 10
57.316899999999997
 20
157.20099999999999
 30
0.0
 11
57.316899999999997
 21
238.52199999999999
 31
0.0
  0
LINE
  5
17A
  8
0
  6
AIGENLINE002
 62
     7
 10
40.827100000000002
 20
173.13099999999989
 30
0.0
 11
73.346199999999996
 21
173.13099999999989
 31
0.0
  0
LINE
  5
17B
  8
0
 62
     7
 10
56.483899999999998
 20
186.965
 30
0.0
 11
56.483899999999998
 21
224.965
 31
0.0
  0
LINE
  5
17C
  8
0
 62
     7
 10
56.483899999999998
 20
227.965
 30
0.0
 11
56.483899999999998
 21
234.798
 31
0.0
  0
LINE
  5
17D
  8
0
 62
     7
 10
56.483899999999998
 20
234.798
 30
0.0
 11
58.150700000000001
 21
234.798
 31
0.0
  0
LINE
  5
17E
  8
0
 62
     7
 10
58.150700000000001
 20
234.798
 30
0.0
 11
58.150700000000001
 21
227.965
 31
0.0
  0
LINE
  5
17F
  8
0
 62
     7
 10
58.150700000000001
 20
224.965
 30
0.0
 11
58.150700000000001
 21
186.965
 31
0.0
  0
LINE
  5
180
  8
0
 62
     7
 10
56.480499999999999
 20
234.268
 30
0.0
 11
58.156199999999998
 21
234.268
 31
0.0
  0
LINE
  5
181
  8
0
 62
     7
 10
168.18100000000001
 20
80.145099999999985
 30
0.0
 11
170.39099999999999
 21
80.736999999999995
 31
0.0
  0
LINE
  5
182
  8
0
 62
     7
 10
170.39099999999999
 20
80.736999999999995
 30
0.0
 11
168.18100000000001
 21
81.329599999999999
 31
0.0
  0
LINE
  5
183
  8
0
 62
     7
 10
168.18100000000001
 20
81.329599999999999
 30
0.0
 11
168.18100000000001
 21
80.145099999999985
 31
0.0
  0
LINE
  5
184
  8
0
 62
     7
 10
110.94199999999999
 20
81.325100000000006
 30
0.0
 11
108.732
 21
80.732499999999987
 31
0.0
  0
LINE
  5
185
  8
0
 62
     7
 10
108.732
 20
80.732499999999987
 30
0.0
 11
110.94199999999999
 21
80.140699999999995
 31
0.0
  0
LINE
  5
186
  8
0
 62
     7
 10
110.94199999999999
 20
80.140699999999995
 30
0.0
 11
110.94199999999999
 21
81.325100000000006
 31
0.0
  0
LINE
  5
187
  8
0
 62
     7
 10
170.39099999999999
 20
80.732499999999987
 30
0.0
 11
108.732
 21
80.732499999999987
 31
0.0
  0
LINE
  5
188
  8
0
 62
     7
 10
170.39099999999999
 20
95.739500000000007
 30
0.0
 11
170.39099999999999
 21
79.945700000000002
 31
0.0
  0
LINE
  5
189
  8
0
 62
     7
 10
115.80200000000001
 20
71.953699999999998
 30
0.0
 11
115.80200000000001
 21
88.239800000000002
 31
0.0
  0
LINE
  5
18A
  8
0
 62
     7
 10
113.538
 20
71.991200000000006
 30
0.0
 11
115.749
 21
72.582800000000006
 31
0.0
  0
LINE
  5
18B
  8
0
 62
     7
 10
115.749
 20
72.582800000000006
 30
0.0
 11
113.538
 21
73.175299999999993
 31
0.0
  0
LINE
  5
18C
  8
0
 62
     7
 10
113.538
 20
73.175299999999993
 30
0.0
 11
113.538
 21
71.991200000000006
 31
0.0
  0
LINE
  5
18D
  8
0
 62
     7
 10
103.866
 20
73.165700000000001
 30
0.0
 11
101.655
 21
72.573099999999997
 31
0.0
  0
LINE
  5
18E
  8
0
 62
     7
 10
101.655
 20
72.573099999999997
 30
0.0
 11
103.866
 21
71.980599999999995
 31
0.0
  0
LINE
  5
18F
  8
0
 62
     7
 10
103.866
 20
71.980599999999995
 30
0.0
 11
103.866
 21
73.165700000000001
 31
0.0
  0
LINE
  5
190
  8
0
 62
     7
 10
115.749
 20
72.578599999999994
 30
0.0
 11
101.655
 21
72.578599999999994
 31
0.0
  0
LINE
  5
191
  8
0
 62
     7
 10
101.64400000000001
 20
88.239800000000002
 30
0.0
 11
101.64400000000001
 21
71.953699999999998
 31
0.0
  0
LINE
  5
192
  8
0
 62
     7
 10
108.723
 20
86.213399999999993
 30
0.0
 11
108.723
 21
80.010799999999989
 31
0.0
  0
LINE
  5
193
  8
0
 62
     7
 10
150.245
 20
100.31699999999999
 30
0.0
 11
150.83699999999999
 21
98.106300000000005
 31
0.0
  0
LINE
  5
194
  8
0
 62
     7
 10
150.83699999999999
 20
98.106300000000005
 30
0.0
 11
151.429
 21
100.31699999999999
 31
0.0
  0
LINE
  5
195
  8
0
 62
     7
 10
151.429
 20
100.31699999999999
 30
0.0
 11
150.245
 21
100.31699999999999
 31
0.0
  0
LINE
  5
196
  8
0
 62
     7
 10
151.41900000000001
 20
94.196399999999997
 30
0.0
 11
150.828
 21
96.4071
 31
0.0
  0
LINE
  5
197
  8
0
 62
     7
 10
150.828
 20
96.4071
 30
0.0
 11
150.23500000000001
 21
94.196399999999997
 31
0.0
  0
LINE
  5
198
  8
0
 62
     7
 10
150.23500000000001
 20
94.196399999999997
 30
0.0
 11
151.41900000000001
 21
94.196399999999997
 31
0.0
  0
LINE
  5
199
  8
0
 62
     7
 10
150.83199999999999
 20
92.927199999999999
 30
0.0
 11
150.83199999999999
 21
104.59099999999999
 31
0.0
  0
LINE
  5
19A
  8
0
 62
     7
 10
89.407999999999987
 20
105.396
 30
0.0
 11
88.815100000000001
 21
107.607
 31
0.0
  0
LINE
  5
19B
  8
0
 62
     7
 10
88.815100000000001
 20
107.607
 30
0.0
 11
88.222899999999996
 21
105.396
 31
0.0
  0
LINE
  5
19C
  8
0
 62
     7
 10
88.222899999999996
 20
105.396
 30
0.0
 11
89.407999999999987
 21
105.396
 31
0.0
  0
LINE
  5
19D
  8
0
 62
     7
 10
89.407999999999987
 20
120.063
 30
0.0
 11
88.815100000000001
 21
122.273
 31
0.0
  0
LINE
  5
19E
  8
0
 62
     7
 10
88.815100000000001
 20
122.273
 30
0.0
 11
88.222899999999996
 21
120.063
 31
0.0
  0
LINE
  5
19F
  8
0
 62
     7
 10
88.222899999999996
 20
120.063
 30
0.0
 11
89.407999999999987
 21
120.063
 31
0.0
  0
LINE
  5
1A0
  8
0
 62
     7
 10
88.223299999999995
 20
127.48399999999999
 30
0.0
 11
88.815100000000001
 21
125.273
 31
0.0
  0
LINE
  5
1A1
  8
0
 62
     7
 10
88.815100000000001
 20
125.273
 30
0.0
 11
89.407700000000006
 21
127.48399999999999
 31
0.0
  0
LINE
  5
1A2
  8
0
 62
     7
 10
89.407700000000006
 20
127.48399999999999
 30
0.0
 11
88.223299999999995
 21
127.48399999999999
 31
0.0
  0
LINE
  5
1A3
  8
0
 62
     7
 10
88.223299999999995
 20
109.81699999999999
 30
0.0
 11
88.815100000000001
 21
107.607
 31
0.0
  0
LINE
  5
1A4
  8
0
 62
     7
 10
88.815100000000001
 20
107.607
 30
0.0
 11
89.407700000000006
 21
109.81699999999999
 31
0.0
  0
LINE
  5
1A5
  8
0
 62
     7
 10
89.407700000000006
 20
109.81699999999999
 30
0.0
 11
88.223299999999995
 21
109.81699999999999
 31
0.0
  0
LINE
  5
1A6
  8
0
 62
     7
 10
88.223299999999995
 20
95.150300000000016
 30
0.0
 11
88.815100000000001
 21
92.939999999999998
 31
0.0
  0
LINE
  5
1A7
  8
0
 62
     7
 10
88.815100000000001
 20
92.939999999999998
 30
0.0
 11
89.407700000000006
 21
95.150300000000016
 31
0.0
  0
LINE
  5
1A8
  8
0
 62
     7
 10
89.407700000000006
 20
95.150300000000016
 30
0.0
 11
88.223299999999995
 21
95.150300000000016
 31
0.0
  0
LINE
  5
1A9
  8
0
 62
     7
 10
88.815100000000001
 20
128.66499999999999
 30
0.0
 11
88.815100000000001
 21
92.939999999999998
 31
0.0
  0
LINE
  5
1AA
  8
0
 62
     7
 10
88.115099999999998
 20
92.939999999999998
 30
0.0
 11
100.523
 21
92.939999999999998
 31
0.0
  0
LINE
  5
1AB
  8
0
 62
     7
 10
88.115099999999998
 20
125.273
 30
0.0
 11
94.917100000000005
 21
125.273
 31
0.0
  0
LINE
  5
1AC
  8
0
 62
     7
 10
88.115099999999998
 20
122.273
 30
0.0
 11
97.523300000000006
 21
122.273
 31
0.0
  0
LINE
  5
1AD
  8
0
 62
     7
 10
88.115099999999998
 20
107.607
 30
0.0
 11
97.190200000000004
 21
107.607
 31
0.0
  0
LINE
  5
1AE
  8
_________2
 62
     7
 10
100.3
 20
-4.0910799999999998
 30
0.0
 11
100.3
 21
-21.071400000000001
 31
0.0
  0
LINE
  5
1AF
  8
_________2
 62
     7
 10
76.741200000000006
 20
29.8047
 30
0.0
 11
74.554900000000004
 21
29.8047
 31
0.0
  0
LINE
  5
1B0
  8
_________2
 62
     7
 10
77.233800000000002
 20
29.8047
 30
0.0
 11
76.981700000000004
 21
29.8047
 31
0.0
  0
LINE
  5
1B1
  8
_________2
 62
     7
 10
77.726500000000001
 20
29.8047
 30
0.0
 11
80.651399999999995
 21
29.8047
 31
0.0
  0
LINE
  5
1B2
  8
_________2
 62
     7
 10
77.233800000000002
 20
29.8047
 30
0.0
 11
77.486000000000004
 21
29.8047
 31
0.0
  0
LINE
  5
1B3
  8
_________2
 62
     7
 10
70.837599999999995
 20
29.8047
 30
0.0
 11
68.650700000000001
 21
29.8047
 31
0.0
  0
LINE
  5
1B4
  8
_________2
 62
     7
 10
71.329599999999999
 20
29.8047
 30
0.0
 11
71.078100000000006
 21
29.8047
 31
0.0
  0
LINE
  5
1B5
  8
_________2
 62
     7
 10
71.329599999999999
 20
30.2974
 30
0.0
 11
71.329599999999999
 21
32.484400000000001
 31
0.0
  0
LINE
  5
1B6
  8
_________2
 62
     7
 10
71.329599999999999
 20
29.8047
 30
0.0
 11
71.329599999999999
 21
30.056899999999999
 31
0.0
  0
LINE
  5
1B7
  8
_________2
 62
     7
 10
71.822299999999998
 20
29.8047
 30
0.0
 11
74.009200000000007
 21
29.8047
 31
0.0
  0
LINE
  5
1B8
  8
_________2
 62
     7
 10
71.329599999999999
 20
29.8047
 30
0.0
 11
71.581800000000001
 21
29.8047
 31
0.0
  0
LINE
  5
1B9
  8
_________2
 62
     7
 10
71.329599999999999
 20
29.312799999999999
 30
0.0
 11
71.329599999999999
 21
27.125800000000002
 31
0.0
  0
LINE
  5
1BA
  8
_________2
 62
     7
 10
71.329599999999999
 20
29.8047
 30
0.0
 11
71.329599999999999
 21
29.5532
 31
0.0
  0
LINE
  5
1BB
  8
_________2
 62
     7
 10
75.040700000000001
 20
28.5852
 30
0.0
 11
80.218699999999984
 21
27.720400000000001
 31
0.0
  0
LINE
  5
1BC
  8
_________2
 62
     7
 10
75.040700000000001
 20
31.0243
 30
0.0
 11
80.218699999999984
 21
31.889700000000001
 31
0.0
  0
LINE
  5
1BD
  8
_________2
 62
     7
 10
80.218699999999984
 20
27.720400000000001
 30
0.0
 11
80.218699999999984
 21
31.889700000000001
 31
0.0
  0
LINE
  5
1BE
  8
_________2
 62
     7
 10
75.040700000000001
 20
28.5852
 30
0.0
 11
75.040700000000001
 21
31.0243
 31
0.0
  0
ARC
  5
1BF
  8
_________2
 62
     7
 10
71.283361999999997
 20
29.757787
 30
0.0
 40
1.2673709999999989
 50
2.1232950000000002
 51
87.909056000000007
  0
ARC
  5
1C0
  8
_________2
 62
     7
 10
71.376132999999996
 20
29.758213000000001
 30
0.0
 40
1.2669559999999991
 50
92.104701000000006
 51
177.89526900000001
  0
ARC
  5
1C1
  8
_________2
 62
     7
 10
71.376530000000002
 20
29.851671
 30
0.0
 40
1.2673680000000001
 50
182.12203600000001
 51
267.877993
  0
ARC
  5
1C2
  8
_________2
 62
     7
 10
71.282713000000001
 20
29.852347999999999
 30
0.0
 40
1.2680439999999991
 50
272.11916400000001
 51
357.84848499999998
  0
ARC
  5
1C3
  8
_________2
 62
     7
 10
71.329602000000008
 20
29.804742999999998
 30
0.0
 40
2.0849849999999992
 50
0.00001
 51
89.999980000000008
  0
ARC
  5
1C4
  8
_________2
 62
     7
 10
71.409248000000005
 20
29.725812999999999
 30
0.0
 40
2.165379999999999
 50
92.107876000000005
 51
177.91103200000001
  0
ARC
  5
1C5
  8
_________2
 62
     7
 10
71.409610999999998
 20
29.884751999999999
 30
0.0
 40
2.1657829999999998
 50
182.117133
 51
267.88289700000001
  0
ARC
  5
1C6
  8
_________2
 62
     7
 10
71.249631000000008
 20
29.885429999999999
 30
0.0
 40
2.1664590000000001
 50
272.11546800000002
 51
357.86560400000002
  0
TEXT
  5
1C7
  8
_________2
 62
     7
 10
104.605
 20
1.6794899999999999
 30
0.0
 40
3.0923400000000001
  1
図番
 41
0.5
  0
LINE
  5
1C8
  8
_________2
 62
     7
 10
103.55
 20
5.9087199999999989
 30
0.0
 11
183.55099999999999
 21
5.9087199999999989
 31
0.0
  0
TEXT
  5
1C9
  8
_________2
 62
     7
 10
104.605
 20
11.6793
 30
0.0
 40
3.0923400000000001
  1
品番
 41
0.5
  0
TEXT
  5
1CA
  8
_________2
 62
     7
 10
104.605
 20
31.818100000000001
 30
0.0
 40
3.0923400000000001
  1
名称
 41
0.5
  0
TEXT
  5
1CB
  8
_________2
 62
     7
 10
91.845258333333334
 20
26.821999999999999
 30
0.0
 40
3.6545800000000002
  1
mm
 41
0.5
 72
     1
 11
93.367999999999995
 21
26.821999999999999
 31
0.0
  0
TEXT
  5
1CC
  8
_________2
 62
     7
 10
85.643399999999986
 20
31.818100000000001
 30
0.0
 40
3.0923400000000001
  1
単位
 41
0.5
  0
TEXT
  5
1CD
  8
_________2
 62
     7
 10
85.643399999999986
 20
19.410799999999998
 30
0.0
 40
3.0923400000000001
  1
尺度
 41
0.5
  0
TEXT
  5
1CE
  8
_________2
 62
     7
 10
90.548958666666664
 20
13.2179
 30
0.0
 40
3.6545800000000002
  1
1 ： 3
 41
0.5
 72
     1
 11
93.959900000000005
 21
13.2179
 31
0.0
  0
TEXT
  5
1CF
  8
_________2
 62
     7
 10
137.31847500000001
 20
9.1078600000000005
 30
0.0
 40
3.9357000000000002
  1
AU98187
 41
0.5
 72
     1
 11
143.55000000000001
 21
9.1078600000000005
 31
0.0
  0
TEXT
  5
1D0
  8
_________2
 62
     7
 10
137.31847500000001
 20
-0.8926299999999999
 30
0.0
 40
3.9357000000000002
  1
AU98187
 41
0.5
 72
     1
 11
143.55000000000001
 21
-0.8926299999999999
 31
0.0
  0
TEXT
  5
1D1
  8
_________2
 62
     7
 10
27.0366
 20
3.857839999999999
 30
0.0
 40
3.9357000000000002
  1
ヨーロッパ仕様洗面器、手洗器用、
 41
0.5
  0
TEXT
  5
1D2
  8
_________2
 62
     7
 10
27.0366
 20
-1.06179
 30
0.0
 40
3.9357000000000002
  1
サファイアケラミック専用品
 41
0.5
  0
TEXT
  5
1D3
  8
_________2
 62
     7
 10
109.179
 20
24.2257
 30
0.0
 40
3.9357000000000002
  1
ポップアップ式排水ヘッド部（陶器製）
 41
0.5
  0
TEXT
  5
1D4
  8
_________2
 62
     7
 10
39.364590666666672
 20
13.603
 30
0.0
 40
3.6545800000000002
  1
篠崎
 41
0.5
 72
     1
 11
41.31369999999999
 21
13.603
 31
0.0
  0
TEXT
  5
1D5
  8
_________2
 62
     7
 10
20.79059066666666
 20
13.603
 30
0.0
 40
3.6545800000000002
  1
近藤
 41
0.5
 72
     1
 11
22.739699999999999
 21
13.603
 31
0.0
  0
TEXT
  5
1D6
  8
_________2
 62
     7
 10
67.786000000000001
 20
13.2179
 30
0.0
 40
3.6545800000000002
  1
16.10.07
 41
0.5
  0
TEXT
  5
1D7
  8
_________2
 62
     7
 10
66.593299999999999
 20
19.410799999999998
 30
0.0
 40
3.0923400000000001
  1
日付
 41
0.5
  0
TEXT
  5
1D8
  8
_________2
 62
     7
 10
29.639500000000002
 20
19.410799999999998
 30
0.0
 40
3.0923400000000001
  1
検図
 41
0.5
  0
TEXT
  5
1D9
  8
_________2
 62
     7
 10
18.0212
 20
5.21143
 30
0.0
 40
3.0923400000000001
  1
備考
 41
0.5
  0
TEXT
  5
1DA
  8
_________2
 62
     7
 10
18.0212
 20
19.410799999999998
 30
0.0
 40
3.0923400000000001
  1
製図
 41
0.5
  0
TEXT
  5
1DB
  8
_________2
 62
     7
 10
23.788665333333341
 20
27.936800000000002
 30
0.0
 40
4.4979399999999989
  1
セラトレーディング株式会社
 41
0.5
 72
     1
 11
41.180700000000002
 21
27.936800000000002
 31
0.0
  0
LINE
  5
1DC
  8
_________2
 62
     7
 10
183.55099999999999
 20
-4.0910799999999998
 30
0.0
 11
17.049700000000001
 21
-4.0910799999999998
 31
0.0
  0
LINE
  5
1DD
  8
_________2
 62
     7
 10
17.049700000000001
 20
-4.0910799999999998
 30
0.0
 11
17.049700000000001
 21
258.91000000000003
 31
0.0
  0
LINE
  5
1DE
  8
_________2
 62
     7
 10
17.049700000000001
 20
258.91000000000003
 30
0.0
 11
183.55099999999999
 21
258.91000000000003
 31
0.0
  0
LINE
  5
1DF
  8
_________2
 62
     7
 10
183.55099999999999
 20
258.91000000000003
 30
0.0
 11
183.55099999999999
 21
-4.0910799999999998
 31
0.0
  0
LINE
  5
1E0
  8
_________2
 62
     7
 10
65.5501
 20
9.4089600000000004
 30
0.0
 11
65.5501
 21
35.908799999999999
 31
0.0
  0
LINE
  5
1E1
  8
_________2
 62
     7
 10
84.549899999999994
 20
9.4089600000000004
 30
0.0
 11
84.549899999999994
 21
35.908799999999999
 31
0.0
  0
LINE
  5
1E2
  8
_________2
 62
     7
 10
103.55
 20
-4.0910799999999998
 30
0.0
 11
103.55
 21
35.908799999999999
 31
0.0
  0
LINE
  5
1E3
  8
_________2
 62
     7
 10
28.549499999999998
 20
9.4089600000000004
 30
0.0
 11
28.549499999999998
 21
23.409199999999998
 31
0.0
  0
LINE
  5
1E4
  8
_________2
 62
     7
 10
17.049700000000001
 20
9.4089600000000004
 30
0.0
 11
103.55
 21
9.4089600000000004
 31
0.0
  0
LINE
  5
1E5
  8
_________2
 62
     7
 10
17.049700000000001
 20
23.409199999999998
 30
0.0
 11
103.55
 21
23.409199999999998
 31
0.0
  0
LINE
  5
1E6
  8
_________2
 62
     7
 10
103.55
 20
15.9085
 30
0.0
 11
183.55099999999999
 21
15.9085
 31
0.0
  0
LINE
  5
1E7
  8
_________2
 62
     7
 10
17.049700000000001
 20
35.908799999999999
 30
0.0
 11
183.55099999999999
 21
35.908799999999999
 31
0.0
  0
LINE
  5
1E8
  8
_________2
 62
     7
 10
205.30099999999999
 20
127.41200000000001
 30
0.0
 11
183.55099999999999
 21
127.41200000000001
 31
0.0
  0
LINE
  5
1E9
  8
_________2
 62
     7
 10
100.3
 20
275.93099999999998
 30
0.0
 11
100.3
 21
258.911
 31
0.0
  0
LINE
  5
1EA
  8
_________2
 62
     7
 10
17.049499999999998
 20
127.41200000000001
 30
0.0
 11
-4.70052
 21
127.41200000000001
 31
0.0
  0
ENDSEC
  0
EOF
