  0
SECTION
  2
HEADER
  9
$ACADVER
  1
AC1009
  9
$LUNITS
 70
2
  9
$LUPREC
 70
4
  9
$LTSCALE
 40
1.0
  9
$EXTMIN
 10
33.7873
 20
-259.334
 30
0
  9
$EXTMAX
 10
230.7955
 20
22.6587
 30
0
  0
ENDSEC
  0
SECTION
  2
TABLES
  0
TABLE
  2
LTYPE
 70
256
  0
LTYPE
  2
AIGENLINE001
 70
64
  3
generate AI->DXF Converter
 72
65
 73
2
 40
1.0389
 49
0.5195
 49
-0.5195
  0
LTYPE
  2
AIGENLINE002
 70
64
  3
generate AI->DXF Converter
 72
65
 73
4
 40
4.1557
 49
2.5973
 49
-0.5195
 49
0.5195
 49
-0.5195
  0
LTYPE
  2
AIGENLINE003
 70
64
  3
generate AI->DXF Converter
 72
65
 73
4
 40
3.5278
 49
2.2049
 49
-0.441
 49
0.441
 49
-0.441
  0
ENDTAB
  0
TABLE
  2
LAYER
 70
6
  0
LAYER
  2
LAYER_1
 70
64
 62
7
  6
CONTINUOUS
  0
LAYER
  2
LAYER_2
 70
64
 62
7
  6
CONTINUOUS
  0
LAYER
  2
LAYER_3
 70
64
 62
7
  6
CONTINUOUS
  0
LAYER
  2
LAYER_4
 70
64
 62
7
  6
CONTINUOUS
  0
LAYER
  2
LAYER_5
 70
64
 62
7
  6
CONTINUOUS
  0
LAYER
  2
LAYER_6
 70
64
 62
7
  6
CONTINUOUS
  0
ENDTAB
  0
TABLE
  2
STYLE
 70
6
  0
STYLE
  2
STANDARD
 70
0
 40
0
 50
0
 71
0
 41
0
 42
0
  3
TXT
  4
BIGFONT
  0
ENDTAB
  0
ENDSEC
  0
SECTION
  2
BLOCKS
  0
BLOCK
  8
LAYER_3
  2
AIGNBL03050008
 70
64
 10
0
 20
0
 30
0
  3
AIGNBL03050008
  0
POLYLINE
  8
LAYER_3
 40
0.05
 41
0.05
 66
1
 10
0
 20
0
 30
0
 70
1
  0
VERTEX
  8
LAYER_3
 10
139.4175
 20
-149.2891
  0
VERTEX
  8
LAYER_3
 10
140.6694
 20
-150.012
  0
VERTEX
  8
LAYER_3
 10
139.4175
 20
-150.735
  0
SEQEND
  0
ENDBLK
  0
BLOCK
  8
LAYER_3
  2
AIGNBL03050009
 70
64
 10
0
 20
0
 30
0
  3
AIGNBL03050009
  0
POLYLINE
  8
LAYER_3
 40
0.05
 41
0.05
 66
1
 10
0
 20
0
 30
0
 70
1
  0
VERTEX
  8
LAYER_3
 10
119.078
 20
-149.2891
  0
VERTEX
  8
LAYER_3
 10
117.8261
 20
-150.012
  0
VERTEX
  8
LAYER_3
 10
119.078
 20
-150.735
  0
SEQEND
  0
ENDBLK
  0
BLOCK
  8
LAYER_3
  2
AIGNBL03050011
 70
64
 10
0
 20
0
 30
0
  3
AIGNBL03050011
  0
POLYLINE
  8
LAYER_3
 40
0.05
 41
0.05
 66
1
 10
0
 20
0
 30
0
 70
1
  0
VERTEX
  8
LAYER_3
 10
108.0548
 20
-144.7958
  0
VERTEX
  8
LAYER_3
 10
106.8028
 20
-144.0729
  0
VERTEX
  8
LAYER_3
 10
108.0548
 20
-143.3499
  0
SEQEND
  0
ENDBLK
  0
BLOCK
  8
LAYER_3
  2
AIGNBL03050012
 70
64
 10
0
 20
0
 30
0
  3
AIGNBL03050012
  0
POLYLINE
  8
LAYER_3
 40
0.05
 41
0.05
 66
1
 10
0
 20
0
 30
0
 70
1
  0
VERTEX
  8
LAYER_3
 10
150.3079
 20
-144.7958
  0
VERTEX
  8
LAYER_3
 10
151.5599
 20
-144.0729
  0
VERTEX
  8
LAYER_3
 10
150.3079
 20
-143.3499
  0
SEQEND
  0
ENDBLK
  0
BLOCK
  8
LAYER_3
  2
AIGNBL03050021
 70
64
 10
0
 20
0
 30
0
  3
AIGNBL03050021
  0
POLYLINE
  8
LAYER_3
 40
0.05
 41
0.05
 66
1
 10
0
 20
0
 30
0
 70
1
  0
VERTEX
  8
LAYER_3
 10
144.9955
 20
-102.3485
  0
VERTEX
  8
LAYER_3
 10
146.2475
 20
-103.0714
  0
VERTEX
  8
LAYER_3
 10
144.9955
 20
-103.7944
  0
SEQEND
  0
ENDBLK
  0
BLOCK
  8
LAYER_3
  2
AIGNBL03050022
 70
64
 10
0
 20
0
 30
0
  3
AIGNBL03050022
  0
POLYLINE
  8
LAYER_3
 40
0.05
 41
0.05
 66
1
 10
0
 20
0
 30
0
 70
1
  0
VERTEX
  8
LAYER_3
 10
112.9688
 20
-102.3485
  0
VERTEX
  8
LAYER_3
 10
111.7168
 20
-103.0714
  0
VERTEX
  8
LAYER_3
 10
112.9688
 20
-103.7944
  0
SEQEND
  0
ENDBLK
  0
BLOCK
  8
LAYER_3
  2
AIGNBL0305002A
 70
64
 10
0
 20
0
 30
0
  3
AIGNBL0305002A
  0
POLYLINE
  8
LAYER_3
 40
0.05
 41
0.05
 66
1
 10
0
 20
0
 30
0
 70
1
  0
VERTEX
  8
LAYER_3
 10
107.1251
 20
-94.8449
  0
VERTEX
  8
LAYER_3
 10
105.8732
 20
-94.122
  0
VERTEX
  8
LAYER_3
 10
107.1251
 20
-93.399
  0
SEQEND
  0
ENDBLK
  0
BLOCK
  8
LAYER_3
  2
AIGNBL0305002B
 70
64
 10
0
 20
0
 30
0
  3
AIGNBL0305002B
  0
POLYLINE
  8
LAYER_3
 40
0.05
 41
0.05
 66
1
 10
0
 20
0
 30
0
 70
1
  0
VERTEX
  8
LAYER_3
 10
151.1048
 20
-94.8449
  0
VERTEX
  8
LAYER_3
 10
152.3567
 20
-94.122
  0
VERTEX
  8
LAYER_3
 10
151.1048
 20
-93.399
  0
SEQEND
  0
ENDBLK
  0
BLOCK
  8
LAYER_3
  2
AIGNBL03050054
 70
64
 10
0
 20
0
 30
0
  3
AIGNBL03050054
  0
POLYLINE
  8
LAYER_3
 40
0.05
 41
0.05
 66
1
 10
0
 20
0
 30
0
 70
1
  0
VERTEX
  8
LAYER_3
 10
138.8115
 20
-38.0177
  0
VERTEX
  8
LAYER_3
 10
140.0634
 20
-38.7406
  0
VERTEX
  8
LAYER_3
 10
138.8115
 20
-39.4636
  0
SEQEND
  0
ENDBLK
  0
BLOCK
  8
LAYER_3
  2
AIGNBL0305005C
 70
64
 10
0
 20
0
 30
0
  3
AIGNBL0305005C
  0
POLYLINE
  8
LAYER_3
 40
0.05
 41
0.05
 66
1
 10
0
 20
0
 30
0
 70
1
  0
VERTEX
  8
LAYER_3
 10
152.0344
 20
-28.139
  0
VERTEX
  8
LAYER_3
 10
153.2864
 20
-28.8619
  0
VERTEX
  8
LAYER_3
 10
152.0344
 20
-29.5849
  0
SEQEND
  0
ENDBLK
  0
BLOCK
  8
LAYER_3
  2
AIGNBL0305005D
 70
64
 10
0
 20
0
 30
0
  3
AIGNBL0305005D
  0
POLYLINE
  8
LAYER_3
 40
0.05
 41
0.05
 66
1
 10
0
 20
0
 30
0
 70
1
  0
VERTEX
  8
LAYER_3
 10
105.9356
 20
-28.139
  0
VERTEX
  8
LAYER_3
 10
104.6837
 20
-28.8619
  0
VERTEX
  8
LAYER_3
 10
105.9356
 20
-29.5849
  0
SEQEND
  0
ENDBLK
  0
BLOCK
  8
LAYER_3
  2
AIGNBL03050065
 70
64
 10
0
 20
0
 30
0
  3
AIGNBL03050065
  0
POLYLINE
  8
LAYER_3
 40
0.05
 41
0.05
 66
1
 10
0
 20
0
 30
0
 70
1
  0
VERTEX
  8
LAYER_3
 10
114.4297
 20
-65.5889
  0
VERTEX
  8
LAYER_3
 10
113.1777
 20
-64.866
  0
VERTEX
  8
LAYER_3
 10
114.4297
 20
-64.143
  0
SEQEND
  0
ENDBLK
  0
BLOCK
  8
LAYER_3
  2
AIGNBL03050066
 70
64
 10
0
 20
0
 30
0
  3
AIGNBL03050066
  0
POLYLINE
  8
LAYER_3
 40
0.05
 41
0.05
 66
1
 10
0
 20
0
 30
0
 70
1
  0
VERTEX
  8
LAYER_3
 10
143.933
 20
-65.5889
  0
VERTEX
  8
LAYER_3
 10
145.185
 20
-64.866
  0
VERTEX
  8
LAYER_3
 10
143.933
 20
-64.143
  0
SEQEND
  0
ENDBLK
  0
BLOCK
  8
LAYER_1
  2
AIGNBL01040005
 70
64
 10
0
 20
0
 30
0
  3
AIGNBL01040005
  0
POLYLINE
  8
LAYER_1
 40
0.05
 41
0.05
 66
1
 10
0
 20
0
 30
0
 70
1
  0
VERTEX
  8
LAYER_1
 10
124.7369
 20
-249.1011
  0
VERTEX
  8
LAYER_1
 10
124.2512
 20
-250.2793
  0
VERTEX
  8
LAYER_1
 10
123.6266
 20
-250.2793
  0
VERTEX
  8
LAYER_1
 10
125.2172
 20
-246.5355
  0
VERTEX
  8
LAYER_1
 10
125.9461
 20
-246.5355
  0
VERTEX
  8
LAYER_1
 10
127.5429
 20
-250.2793
  0
VERTEX
  8
LAYER_1
 10
126.8966
 20
-250.2793
  0
VERTEX
  8
LAYER_1
 10
126.3971
 20
-249.1011
  0
SEQEND
  0
POLYLINE
  8
LAYER_1
 40
0.05
 41
0.05
 66
1
 10
0
 20
0
 30
0
 70
1
  0
VERTEX
  8
LAYER_1
 10
126.2717
 20
-248.7245
  0
VERTEX
  8
LAYER_1
 10
125.8135
 20
-247.6459
  0
VERTEX
  8
LAYER_1
 10
125.5703
 20
-246.963
  0
VERTEX
  8
LAYER_1
 10
125.5568
 20
-246.963
  0
VERTEX
  8
LAYER_1
 10
125.3205
 20
-247.6414
  0
VERTEX
  8
LAYER_1
 10
124.8623
 20
-248.7245
  0
SEQEND
  0
ENDBLK
  0
BLOCK
  8
LAYER_1
  2
AIGNBL01040006
 70
64
 10
0
 20
0
 30
0
  3
AIGNBL01040006
  0
POLYLINE
  8
LAYER_1
 40
0.05
 41
0.05
 66
1
 10
0
 20
0
 30
0
 70
1
  0
VERTEX
  8
LAYER_1
 10
131.8827
 20
-250.8295
 42
-0.01590126506
  0
VERTEX
  8
LAYER_1
 10
130.0913
 20
-250.3954
  0
VERTEX
  8
LAYER_1
 10
129.8067
 20
-250.3406
 42
-0.08603985201
  0
VERTEX
  8
LAYER_1
 10
128.925
 20
-250.1665
 42
-0.09807603942
  0
VERTEX
  8
LAYER_1
 10
128.2733
 20
-249.7557
 42
-0.2094886647
  0
VERTEX
  8
LAYER_1
 10
127.7441
 20
-248.4469
 42
-0.0968676037
  0
VERTEX
  8
LAYER_1
 10
127.8878
 20
-247.6779
 42
-0.20464409
  0
VERTEX
  8
LAYER_1
 10
128.9294
 20
-246.6597
 42
-0.09823236226
  0
VERTEX
  8
LAYER_1
 10
129.9245
 20
-246.4745
 42
-0.08550649701
  0
VERTEX
  8
LAYER_1
 10
130.7884
 20
-246.615
 42
-0.1004265983
  0
VERTEX
  8
LAYER_1
 10
131.4498
 20
-247.0069
 42
-0.2141433282
  0
VERTEX
  8
LAYER_1
 10
132.0219
 20
-248.3686
 42
-0.09538251124
  0
VERTEX
  8
LAYER_1
 10
131.8838
 20
-249.1322
 42
-0.2145004706
  0
VERTEX
  8
LAYER_1
 10
130.8665
 20
-250.1049
 42
-0.02339472194
  0
VERTEX
  8
LAYER_1
 10
130.6883
 20
-250.1628
  0
VERTEX
  8
LAYER_1
 10
130.6883
 20
-250.1852
  0
VERTEX
  8
LAYER_1
 10
132.0567
 20
-250.424
  0
SEQEND
  0
POLYLINE
  8
LAYER_1
 40
0.05
 41
0.05
 66
1
 10
0
 20
0
 30
0
 70
1
  0
VERTEX
  8
LAYER_1
 10
131.3835
 20
-248.39
 42
0.1071465477
  0
VERTEX
  8
LAYER_1
 10
131.2331
 20
-247.6894
 42
0.2977221891
  0
VERTEX
  8
LAYER_1
 10
129.9035
 20
-246.8687
 42
0.1072153727
  0
VERTEX
  8
LAYER_1
 10
129.2177
 20
-247.0073
 42
0.238519471
  0
VERTEX
  8
LAYER_1
 10
128.4351
 20
-248.007
 42
0.05758151541
  0
VERTEX
  8
LAYER_1
 10
128.3897
 20
-248.4344
 42
0.2181847844
  0
VERTEX
  8
LAYER_1
 10
128.9177
 20
-249.6231
 42
0.1771924371
  0
VERTEX
  8
LAYER_1
 10
129.8763
 20
-249.9468
 42
0.1075716854
  0
VERTEX
  8
LAYER_1
 10
130.5534
 20
-249.8086
 42
0.2369671519
  0
VERTEX
  8
LAYER_1
 10
131.336
 20
-248.8146
 42
0.05605778465
  0
SEQEND
  0
ENDBLK
  0
BLOCK
  8
LAYER_1
  2
AIGNBL01040007
 70
64
 10
0
 20
0
 30
0
  3
AIGNBL01040007
  0
POLYLINE
  8
LAYER_1
 40
0.05
 41
0.05
 66
1
 10
0
 20
0
 30
0
 70
1
  0
VERTEX
  8
LAYER_1
 10
133.3417
 20
-246.5355
  0
VERTEX
  8
LAYER_1
 10
133.3417
 20
-248.7517
 42
0.114472655
  0
VERTEX
  8
LAYER_1
 10
133.4748
 20
-249.4136
 42
0.1464766
  0
VERTEX
  8
LAYER_1
 10
133.823
 20
-249.7966
 42
0.1363197034
  0
VERTEX
  8
LAYER_1
 10
134.4318
 20
-249.9468
 42
0.1219363095
  0
VERTEX
  8
LAYER_1
 10
135.0515
 20
-249.8128
 42
0.1503291203
  0
VERTEX
  8
LAYER_1
 10
135.4211
 20
-249.446
 42
0.1255921242
  0
VERTEX
  8
LAYER_1
 10
135.5707
 20
-248.7517
  0
VERTEX
  8
LAYER_1
 10
135.5707
 20
-246.5355
  0
VERTEX
  8
LAYER_1
 10
136.1818
 20
-246.5355
  0
VERTEX
  8
LAYER_1
 10
136.1818
 20
-248.7187
 42
-0.1000085929
  0
VERTEX
  8
LAYER_1
 10
136.0477
 20
-249.4569
 42
-0.1214827265
  0
VERTEX
  8
LAYER_1
 10
135.6765
 20
-249.9606
 42
-0.1105962365
  0
VERTEX
  8
LAYER_1
 10
135.0547
 20
-250.2654
 42
-0.06129970406
  0
VERTEX
  8
LAYER_1
 10
134.4111
 20
-250.3406
 42
-0.09420892198
  0
VERTEX
  8
LAYER_1
 10
133.5967
 20
-250.2032
 42
-0.2431575096
  0
VERTEX
  8
LAYER_1
 10
132.798
 20
-249.2978
 42
-0.06319469768
  0
VERTEX
  8
LAYER_1
 10
132.7309
 20
-248.7404
  0
VERTEX
  8
LAYER_1
 10
132.7309
 20
-246.5355
  0
SEQEND
  0
ENDBLK
  0
BLOCK
  8
LAYER_1
  2
AIGNBL01040008
 70
64
 10
0
 20
0
 30
0
  3
AIGNBL01040008
  0
POLYLINE
  8
LAYER_1
 40
0.05
 41
0.05
 66
1
 10
0
 20
0
 30
0
 70
1
  0
VERTEX
  8
LAYER_1
 10
137.9175
 20
-249.1011
  0
VERTEX
  8
LAYER_1
 10
137.431
 20
-250.2793
  0
VERTEX
  8
LAYER_1
 10
136.8071
 20
-250.2793
  0
VERTEX
  8
LAYER_1
 10
138.3967
 20
-246.5355
  0
VERTEX
  8
LAYER_1
 10
139.1257
 20
-246.5355
  0
VERTEX
  8
LAYER_1
 10
140.7225
 20
-250.2793
  0
VERTEX
  8
LAYER_1
 10
140.0769
 20
-250.2793
  0
VERTEX
  8
LAYER_1
 10
139.5777
 20
-249.1011
  0
SEQEND
  0
POLYLINE
  8
LAYER_1
 40
0.05
 41
0.05
 66
1
 10
0
 20
0
 30
0
 70
1
  0
VERTEX
  8
LAYER_1
 10
139.4523
 20
-248.7245
  0
VERTEX
  8
LAYER_1
 10
138.9934
 20
-247.6459
  0
VERTEX
  8
LAYER_1
 10
138.7498
 20
-246.963
  0
VERTEX
  8
LAYER_1
 10
138.736
 20
-246.963
  0
VERTEX
  8
LAYER_1
 10
138.5004
 20
-247.6414
  0
VERTEX
  8
LAYER_1
 10
138.0422
 20
-248.7245
  0
SEQEND
  0
ENDBLK
  0
BLOCK
  8
LAYER_1
  2
AIGNBL01040009
 70
64
 10
0
 20
0
 30
0
  3
AIGNBL01040009
  0
POLYLINE
  8
LAYER_1
 40
0.05
 41
0.05
 66
1
 10
0
 20
0
 30
0
 70
1
  0
VERTEX
  8
LAYER_1
 10
141.757
 20
-246.58
 42
-0.03255982265
  0
VERTEX
  8
LAYER_1
 10
142.9177
 20
-246.5072
 42
-0.08095352545
  0
VERTEX
  8
LAYER_1
 10
143.8682
 20
-246.6384
 42
-0.07796985545
  0
VERTEX
  8
LAYER_1
 10
144.2292
 20
-246.8184
 42
-0.2485467741
  0
VERTEX
  8
LAYER_1
 10
144.6392
 20
-247.6018
 42
-0.2264164316
  0
VERTEX
  8
LAYER_1
 10
144.2778
 20
-248.4014
 42
-0.1098737081
  0
VERTEX
  8
LAYER_1
 10
143.6533
 20
-248.7128
 42
-0.0656399675
  0
VERTEX
  8
LAYER_1
 10
142.8474
 20
-248.8127
 42
-0.06249465713
  0
VERTEX
  8
LAYER_1
 10
142.3617
 20
-248.7793
  0
VERTEX
  8
LAYER_1
 10
142.3617
 20
-250.2793
  0
VERTEX
  8
LAYER_1
 10
141.757
 20
-250.2793
  0
SEQEND
  0
POLYLINE
  8
LAYER_1
 40
0.05
 41
0.05
 66
1
 10
0
 20
0
 30
0
 70
1
  0
VERTEX
  8
LAYER_1
 10
142.3617
 20
-248.3852
 42
0.04167858666
  0
VERTEX
  8
LAYER_1
 10
142.8612
 20
-248.4245
 42
0.1033682296
  0
VERTEX
  8
LAYER_1
 10
143.5762
 20
-248.2977
 42
0.300261568
  0
VERTEX
  8
LAYER_1
 10
144.0353
 20
-247.6242
 42
0.1736263594
  0
VERTEX
  8
LAYER_1
 10
143.9014
 20
-247.2193
 42
0.1517866652
  0
VERTEX
  8
LAYER_1
 10
143.4829
 20
-246.9614
 42
0.06878961185
  0
VERTEX
  8
LAYER_1
 10
142.9315
 20
-246.891
 42
0.064067404
  0
VERTEX
  8
LAYER_1
 10
142.3617
 20
-246.93
  0
SEQEND
  0
ENDBLK
  0
BLOCK
  8
LAYER_1
  2
AIGNBL0104000A
 70
64
 10
0
 20
0
 30
0
  3
AIGNBL0104000A
  0
POLYLINE
  8
LAYER_1
 40
0.05
 41
0.05
 66
1
 10
0
 20
0
 30
0
 70
1
  0
VERTEX
  8
LAYER_1
 10
146.1819
 20
-246.8352
 42
-0.2759912144
  0
VERTEX
  8
LAYER_1
 10
146.043
 20
-247.0742
 42
-0.1267005996
  0
VERTEX
  8
LAYER_1
 10
145.7926
 20
-247.1356
 42
-0.2240111603
  0
VERTEX
  8
LAYER_1
 10
145.4843
 20
-247.0039
 42
-0.1705290285
  0
VERTEX
  8
LAYER_1
 10
145.4247
 20
-246.8352
 42
-0.2641883957
  0
VERTEX
  8
LAYER_1
 10
145.5729
 20
-246.5896
 42
-0.1291792354
  0
VERTEX
  8
LAYER_1
 10
145.8061
 20
-246.53
 42
-0.2252404285
  0
VERTEX
  8
LAYER_1
 10
146.1211
 20
-246.6599
 42
-0.169236244
  0
SEQEND
  0
POLYLINE
  8
LAYER_1
 40
0.05
 41
0.05
 66
1
 10
0
 20
0
 30
0
 70
1
  0
VERTEX
  8
LAYER_1
 10
145.5008
 20
-250.2793
  0
VERTEX
  8
LAYER_1
 10
145.5008
 20
-247.5907
  0
VERTEX
  8
LAYER_1
 10
146.1117
 20
-247.5907
  0
VERTEX
  8
LAYER_1
 10
146.1117
 20
-250.2793
  0
SEQEND
  0
ENDBLK
  0
BLOCK
  8
LAYER_1
  2
AIGNBL0104000B
 70
64
 10
0
 20
0
 30
0
  3
AIGNBL0104000B
  0
POLYLINE
  8
LAYER_1
 40
0.05
 41
0.05
 66
1
 10
0
 20
0
 30
0
 70
1
  0
VERTEX
  8
LAYER_1
 10
147.972
 20
-249.1011
  0
VERTEX
  8
LAYER_1
 10
147.4873
 20
-250.2793
  0
VERTEX
  8
LAYER_1
 10
146.8616
 20
-250.2793
  0
VERTEX
  8
LAYER_1
 10
148.4519
 20
-246.5355
  0
VERTEX
  8
LAYER_1
 10
149.1812
 20
-246.5355
  0
VERTEX
  8
LAYER_1
 10
150.7787
 20
-250.2793
  0
VERTEX
  8
LAYER_1
 10
150.1321
 20
-250.2793
  0
VERTEX
  8
LAYER_1
 10
149.6329
 20
-249.1011
  0
SEQEND
  0
POLYLINE
  8
LAYER_1
 40
0.05
 41
0.05
 66
1
 10
0
 20
0
 30
0
 70
1
  0
VERTEX
  8
LAYER_1
 10
149.5075
 20
-248.7245
  0
VERTEX
  8
LAYER_1
 10
149.0493
 20
-247.6459
  0
VERTEX
  8
LAYER_1
 10
148.8067
 20
-246.963
  0
VERTEX
  8
LAYER_1
 10
148.7923
 20
-246.963
  0
VERTEX
  8
LAYER_1
 10
148.5563
 20
-247.6414
  0
VERTEX
  8
LAYER_1
 10
148.0981
 20
-248.7245
  0
SEQEND
  0
ENDBLK
  0
BLOCK
  8
LAYER_3
  2
AIGNBL03040007
 70
64
 10
0
 20
0
 30
0
  3
AIGNBL03040007
  0
POLYLINE
  8
LAYER_3
 40
0.1058
 41
0.1058
 66
1
 10
0
 20
0
 30
0
  0
VERTEX
  8
LAYER_3
 10
139.629
 20
-150.012
  0
VERTEX
  8
LAYER_3
 10
118.8665
 20
-150.012
  0
SEQEND
  0
INSERT
  8
LAYER_3
  2
AIGNBL03050008
 10
0
 20
0
 30
0
  0
INSERT
  8
LAYER_3
  2
AIGNBL03050009
 10
0
 20
0
 30
0
  0
ENDBLK
  0
BLOCK
  8
LAYER_3
  2
AIGNBL03040010
 70
64
 10
0
 20
0
 30
0
  3
AIGNBL03040010
  0
POLYLINE
  8
LAYER_3
 40
0.1058
 41
0.1058
 66
1
 10
0
 20
0
 30
0
  0
VERTEX
  8
LAYER_3
 10
107.8433
 20
-144.0728
  0
VERTEX
  8
LAYER_3
 10
150.5195
 20
-144.0728
  0
SEQEND
  0
INSERT
  8
LAYER_3
  2
AIGNBL03050011
 10
0
 20
0
 30
0
  0
INSERT
  8
LAYER_3
  2
AIGNBL03050012
 10
0
 20
0
 30
0
  0
ENDBLK
  0
BLOCK
  8
LAYER_3
  2
AIGNBL03040020
 70
64
 10
0
 20
0
 30
0
  3
AIGNBL03040020
  0
POLYLINE
  8
LAYER_3
 40
0.1058
 41
0.1058
 66
1
 10
0
 20
0
 30
0
  0
VERTEX
  8
LAYER_3
 10
145.207
 20
-103.0715
  0
VERTEX
  8
LAYER_3
 10
112.7572
 20
-103.0715
  0
SEQEND
  0
INSERT
  8
LAYER_3
  2
AIGNBL03050021
 10
0
 20
0
 30
0
  0
INSERT
  8
LAYER_3
  2
AIGNBL03050022
 10
0
 20
0
 30
0
  0
ENDBLK
  0
BLOCK
  8
LAYER_3
  2
AIGNBL03040029
 70
64
 10
0
 20
0
 30
0
  3
AIGNBL03040029
  0
POLYLINE
  8
LAYER_3
 40
0.1058
 41
0.1058
 66
1
 10
0
 20
0
 30
0
  0
VERTEX
  8
LAYER_3
 10
106.9136
 20
-94.1219
  0
VERTEX
  8
LAYER_3
 10
151.3163
 20
-94.1219
  0
SEQEND
  0
INSERT
  8
LAYER_3
  2
AIGNBL0305002A
 10
0
 20
0
 30
0
  0
INSERT
  8
LAYER_3
  2
AIGNBL0305002B
 10
0
 20
0
 30
0
  0
ENDBLK
  0
BLOCK
  8
LAYER_3
  2
AIGNBL03040053
 70
64
 10
0
 20
0
 30
0
  3
AIGNBL03040053
  0
POLYLINE
  8
LAYER_3
 40
0.1058
 41
0.1058
 66
1
 10
0
 20
0
 30
0
  0
VERTEX
  8
LAYER_3
 10
139.023
 20
-38.7407
  0
VERTEX
  8
LAYER_3
 10
125.6009
 20
-38.7407
  0
SEQEND
  0
INSERT
  8
LAYER_3
  2
AIGNBL03050054
 10
0
 20
0
 30
0
  0
ENDBLK
  0
BLOCK
  8
LAYER_3
  2
AIGNBL0304005B
 70
64
 10
0
 20
0
 30
0
  3
AIGNBL0304005B
  0
POLYLINE
  8
LAYER_3
 40
0.1058
 41
0.1058
 66
1
 10
0
 20
0
 30
0
  0
VERTEX
  8
LAYER_3
 10
152.246
 20
-28.8619
  0
VERTEX
  8
LAYER_3
 10
105.7241
 20
-28.8619
  0
SEQEND
  0
INSERT
  8
LAYER_3
  2
AIGNBL0305005C
 10
0
 20
0
 30
0
  0
INSERT
  8
LAYER_3
  2
AIGNBL0305005D
 10
0
 20
0
 30
0
  0
ENDBLK
  0
BLOCK
  8
LAYER_3
  2
AIGNBL03040064
 70
64
 10
0
 20
0
 30
0
  3
AIGNBL03040064
  0
POLYLINE
  8
LAYER_3
 40
0.1058
 41
0.1058
 66
1
 10
0
 20
0
 30
0
  0
VERTEX
  8
LAYER_3
 10
114.2181
 20
-64.8659
  0
VERTEX
  8
LAYER_3
 10
144.1446
 20
-64.8659
  0
SEQEND
  0
INSERT
  8
LAYER_3
  2
AIGNBL03050065
 10
0
 20
0
 30
0
  0
INSERT
  8
LAYER_3
  2
AIGNBL03050066
 10
0
 20
0
 30
0
  0
ENDBLK
  0
BLOCK
  8
LAYER_1
  2
AIGNBL01030004
 70
64
 10
0
 20
0
 30
0
  3
AIGNBL01030004
  0
INSERT
  8
LAYER_1
  2
AIGNBL01040005
 10
0
 20
0
 30
0
  0
INSERT
  8
LAYER_1
  2
AIGNBL01040006
 10
0
 20
0
 30
0
  0
INSERT
  8
LAYER_1
  2
AIGNBL01040007
 10
0
 20
0
 30
0
  0
INSERT
  8
LAYER_1
  2
AIGNBL01040008
 10
0
 20
0
 30
0
  0
INSERT
  8
LAYER_1
  2
AIGNBL01040009
 10
0
 20
0
 30
0
  0
INSERT
  8
LAYER_1
  2
AIGNBL0104000A
 10
0
 20
0
 30
0
  0
INSERT
  8
LAYER_1
  2
AIGNBL0104000B
 10
0
 20
0
 30
0
  0
ENDBLK
  0
BLOCK
  8
LAYER_1
  2
AIGNBL0103000D
 70
64
 10
0
 20
0
 30
0
  3
AIGNBL0103000D
  0
POLYLINE
  8
LAYER_1
 40
0.05
 41
0.05
 66
1
 10
0
 20
0
 30
0
 70
1
  0
VERTEX
  8
LAYER_1
 10
123.7357
 20
-252.1676
  0
VERTEX
  8
LAYER_1
 10
124.2859
 20
-252.1676
  0
VERTEX
  8
LAYER_1
 10
124.2859
 20
-252.2609
  0
VERTEX
  8
LAYER_1
 10
123.6317
 20
-252.2609
  0
VERTEX
  8
LAYER_1
 10
123.6317
 20
-251.2339
  0
VERTEX
  8
LAYER_1
 10
124.2684
 20
-251.2339
  0
VERTEX
  8
LAYER_1
 10
124.2684
 20
-251.3266
  0
VERTEX
  8
LAYER_1
 10
123.7357
 20
-251.3266
  0
VERTEX
  8
LAYER_1
 10
123.7357
 20
-251.6787
  0
VERTEX
  8
LAYER_1
 10
124.2336
 20
-251.6787
  0
VERTEX
  8
LAYER_1
 10
124.2336
 20
-251.7717
  0
VERTEX
  8
LAYER_1
 10
123.7357
 20
-251.7717
  0
SEQEND
  0
ENDBLK
  0
BLOCK
  8
LAYER_1
  2
AIGNBL0103000E
 70
64
 10
0
 20
0
 30
0
  3
AIGNBL0103000E
  0
POLYLINE
  8
LAYER_1
 40
0.05
 41
0.05
 66
1
 10
0
 20
0
 30
0
 70
1
  0
VERTEX
  8
LAYER_1
 10
125.419
 20
-252.1079
  0
VERTEX
  8
LAYER_1
 10
125.4215
 20
-252.1079
  0
VERTEX
  8
LAYER_1
 10
125.4215
 20
-251.2339
  0
VERTEX
  8
LAYER_1
 10
125.5265
 20
-251.2339
  0
VERTEX
  8
LAYER_1
 10
125.5265
 20
-252.2609
  0
VERTEX
  8
LAYER_1
 10
125.3966
 20
-252.2609
  0
VERTEX
  8
LAYER_1
 10
124.7986
 20
-251.3772
  0
VERTEX
  8
LAYER_1
 10
124.7951
 20
-251.3772
  0
VERTEX
  8
LAYER_1
 10
124.7951
 20
-252.2609
  0
VERTEX
  8
LAYER_1
 10
124.6907
 20
-252.2609
  0
VERTEX
  8
LAYER_1
 10
124.6907
 20
-251.2339
  0
VERTEX
  8
LAYER_1
 10
124.8213
 20
-251.2339
  0
SEQEND
  0
ENDBLK
  0
BLOCK
  8
LAYER_1
  2
AIGNBL0103000F
 70
64
 10
0
 20
0
 30
0
  3
AIGNBL0103000F
  0
POLYLINE
  8
LAYER_1
 40
0.05
 41
0.05
 66
1
 10
0
 20
0
 30
0
 70
1
  0
VERTEX
  8
LAYER_1
 10
125.9971
 20
-252.0501
  0
VERTEX
  8
LAYER_1
 10
126.0512
 20
-252.1527
 42
0.1792799501
  0
VERTEX
  8
LAYER_1
 10
126.1635
 20
-252.1937
  0
VERTEX
  8
LAYER_1
 10
126.2524
 20
-252.1744
  0
VERTEX
  8
LAYER_1
 10
126.3082
 20
-252.1214
  0
VERTEX
  8
LAYER_1
 10
126.3365
 20
-252.0453
  0
VERTEX
  8
LAYER_1
 10
126.3454
 20
-251.956
  0
VERTEX
  8
LAYER_1
 10
126.3454
 20
-251.2339
  0
VERTEX
  8
LAYER_1
 10
126.4495
 20
-251.2339
  0
VERTEX
  8
LAYER_1
 10
126.4495
 20
-251.965
  0
VERTEX
  8
LAYER_1
 10
126.4384
 20
-252.0718
  0
VERTEX
  8
LAYER_1
 10
126.3971
 20
-252.1765
  0
VERTEX
  8
LAYER_1
 10
126.313
 20
-252.2554
  0
VERTEX
  8
LAYER_1
 10
126.1749
 20
-252.2868
 42
-0.188534717
  0
VERTEX
  8
LAYER_1
 10
125.9913
 20
-252.2268
 42
-0.1787547906
  0
VERTEX
  8
LAYER_1
 10
125.8993
 20
-252.0769
  0
SEQEND
  0
ENDBLK
  0
BLOCK
  8
LAYER_1
  2
AIGNBL01030010
 70
64
 10
0
 20
0
 30
0
  3
AIGNBL01030010
  0
POLYLINE
  8
LAYER_1
 40
0.05
 41
0.05
 66
1
 10
0
 20
0
 30
0
 70
1
  0
VERTEX
  8
LAYER_1
 10
127.9295
 20
-251.7469
 42
-0.104348301
  0
VERTEX
  8
LAYER_1
 10
127.8881
 20
-251.9629
 42
-0.1013865216
  0
VERTEX
  8
LAYER_1
 10
127.7765
 20
-252.1338
  0
VERTEX
  8
LAYER_1
 10
127.606
 20
-252.2461
 42
-0.094970271
  0
VERTEX
  8
LAYER_1
 10
127.3934
 20
-252.2868
 42
-0.1003757553
  0
VERTEX
  8
LAYER_1
 10
127.1809
 20
-252.2461
  0
VERTEX
  8
LAYER_1
 10
127.0114
 20
-252.1338
  0
VERTEX
  8
LAYER_1
 10
126.899
 20
-251.9629
 42
-0.09313918959
  0
VERTEX
  8
LAYER_1
 10
126.8587
 20
-251.7469
 42
-0.1046350969
  0
VERTEX
  8
LAYER_1
 10
126.899
 20
-251.5306
 42
-0.09980744904
  0
VERTEX
  8
LAYER_1
 10
127.0114
 20
-251.3604
 42
-0.09581503346
  0
VERTEX
  8
LAYER_1
 10
127.1809
 20
-251.2481
 42
-0.09562905358
  0
VERTEX
  8
LAYER_1
 10
127.3934
 20
-251.2071
 42
-0.1024660515
  0
VERTEX
  8
LAYER_1
 10
127.606
 20
-251.2481
 42
-0.101470605
  0
VERTEX
  8
LAYER_1
 10
127.7765
 20
-251.3604
 42
-0.09815577957
  0
VERTEX
  8
LAYER_1
 10
127.8881
 20
-251.5306
 42
-0.09523735002
  0
SEQEND
  0
POLYLINE
  8
LAYER_1
 40
0.05
 41
0.05
 66
1
 10
0
 20
0
 30
0
 70
1
  0
VERTEX
  8
LAYER_1
 10
127.8185
 20
-251.7476
  0
VERTEX
  8
LAYER_1
 10
127.7903
 20
-251.5767
  0
VERTEX
  8
LAYER_1
 10
127.7056
 20
-251.4344
  0
VERTEX
  8
LAYER_1
 10
127.5712
 20
-251.337
 42
0.1026236834
  0
VERTEX
  8
LAYER_1
 10
127.3934
 20
-251.3001
 42
0.1147987019
  0
VERTEX
  8
LAYER_1
 10
127.216
 20
-251.337
  0
VERTEX
  8
LAYER_1
 10
127.0827
 20
-251.4344
  0
VERTEX
  8
LAYER_1
 10
126.9976
 20
-251.5767
  0
VERTEX
  8
LAYER_1
 10
126.9683
 20
-251.7476
  0
VERTEX
  8
LAYER_1
 10
126.9976
 20
-251.9188
  0
VERTEX
  8
LAYER_1
 10
127.0827
 20
-252.0607
  0
VERTEX
  8
LAYER_1
 10
127.216
 20
-252.1575
  0
VERTEX
  8
LAYER_1
 10
127.3934
 20
-252.1937
 42
0.1181494107
  0
VERTEX
  8
LAYER_1
 10
127.5712
 20
-252.1575
  0
VERTEX
  8
LAYER_1
 10
127.7056
 20
-252.0607
  0
VERTEX
  8
LAYER_1
 10
127.7903
 20
-251.9188
  0
SEQEND
  0
ENDBLK
  0
BLOCK
  8
LAYER_1
  2
AIGNBL01030011
 70
64
 10
0
 20
0
 30
0
  3
AIGNBL01030011
  0
POLYLINE
  8
LAYER_1
 40
0.05
 41
0.05
 66
1
 10
0
 20
0
 30
0
 70
1
  0
VERTEX
  8
LAYER_1
 10
128.6994
 20
-252.2609
  0
VERTEX
  8
LAYER_1
 10
128.595
 20
-252.2609
  0
VERTEX
  8
LAYER_1
 10
128.595
 20
-251.8182
  0
VERTEX
  8
LAYER_1
 10
128.2106
 20
-251.2339
  0
VERTEX
  8
LAYER_1
 10
128.3415
 20
-251.2339
  0
VERTEX
  8
LAYER_1
 10
128.6505
 20
-251.7311
  0
VERTEX
  8
LAYER_1
 10
128.9623
 20
-251.2339
  0
VERTEX
  8
LAYER_1
 10
129.0836
 20
-251.2339
  0
VERTEX
  8
LAYER_1
 10
128.6994
 20
-251.8182
  0
SEQEND
  0
ENDBLK
  0
BLOCK
  8
LAYER_1
  2
AIGNBL01030012
 70
64
 10
0
 20
0
 30
0
  3
AIGNBL01030012
  0
POLYLINE
  8
LAYER_1
 40
0.05
 41
0.05
 66
1
 10
0
 20
0
 30
0
 70
1
  0
VERTEX
  8
LAYER_1
 10
129.9838
 20
-251.2339
  0
VERTEX
  8
LAYER_1
 10
130.289
 20
-251.2339
  0
VERTEX
  8
LAYER_1
 10
130.4072
 20
-251.2457
  0
VERTEX
  8
LAYER_1
 10
130.513
 20
-251.288
  0
VERTEX
  8
LAYER_1
 10
130.5908
 20
-251.3686
  0
VERTEX
  8
LAYER_1
 10
130.6204
 20
-251.4961
 42
-0.17745421
  0
VERTEX
  8
LAYER_1
 10
130.5705
 20
-251.6373
 42
-0.1614829203
  0
VERTEX
  8
LAYER_1
 10
130.4382
 20
-251.7166
  0
VERTEX
  8
LAYER_1
 10
130.4382
 20
-251.7194
 42
-0.1739254549
  0
VERTEX
  8
LAYER_1
 10
130.6035
 20
-251.7969
 42
-0.1927426373
  0
VERTEX
  8
LAYER_1
 10
130.67
 20
-251.9764
  0
VERTEX
  8
LAYER_1
 10
130.6425
 20
-252.0928
  0
VERTEX
  8
LAYER_1
 10
130.5663
 20
-252.1831
  0
VERTEX
  8
LAYER_1
 10
130.4468
 20
-252.2402
  0
VERTEX
  8
LAYER_1
 10
130.2876
 20
-252.2609
  0
VERTEX
  8
LAYER_1
 10
129.9838
 20
-252.2609
  0
SEQEND
  0
POLYLINE
  8
LAYER_1
 40
0.05
 41
0.05
 66
1
 10
0
 20
0
 30
0
 70
1
  0
VERTEX
  8
LAYER_1
 10
130.0878
 20
-251.6832
  0
VERTEX
  8
LAYER_1
 10
130.2983
 20
-251.6832
  0
VERTEX
  8
LAYER_1
 10
130.3748
 20
-251.6742
  0
VERTEX
  8
LAYER_1
 10
130.4444
 20
-251.6453
  0
VERTEX
  8
LAYER_1
 10
130.4964
 20
-251.5888
  0
VERTEX
  8
LAYER_1
 10
130.5154
 20
-251.5034
  0
VERTEX
  8
LAYER_1
 10
130.4964
 20
-251.4203
  0
VERTEX
  8
LAYER_1
 10
130.4437
 20
-251.3638
  0
VERTEX
  8
LAYER_1
 10
130.3651
 20
-251.3328
  0
VERTEX
  8
LAYER_1
 10
130.269
 20
-251.3235
  0
VERTEX
  8
LAYER_1
 10
130.0878
 20
-251.3235
  0
SEQEND
  0
POLYLINE
  8
LAYER_1
 40
0.05
 41
0.05
 66
1
 10
0
 20
0
 30
0
 70
1
  0
VERTEX
  8
LAYER_1
 10
130.0878
 20
-252.171
  0
VERTEX
  8
LAYER_1
 10
130.2825
 20
-252.171
  0
VERTEX
  8
LAYER_1
 10
130.3903
 20
-252.1596
  0
VERTEX
  8
LAYER_1
 10
130.4806
 20
-252.1252
  0
VERTEX
  8
LAYER_1
 10
130.5412
 20
-252.0625
  0
VERTEX
  8
LAYER_1
 10
130.565
 20
-251.9705
 42
0.2546661425
  0
VERTEX
  8
LAYER_1
 10
130.4964
 20
-251.8189
 42
0.1384656248
  0
VERTEX
  8
LAYER_1
 10
130.3014
 20
-251.7686
  0
VERTEX
  8
LAYER_1
 10
130.0878
 20
-251.7686
  0
SEQEND
  0
ENDBLK
  0
BLOCK
  8
LAYER_1
  2
AIGNBL01030013
 70
64
 10
0
 20
0
 30
0
  3
AIGNBL01030013
  0
POLYLINE
  8
LAYER_1
 40
0.05
 41
0.05
 66
1
 10
0
 20
0
 30
0
 70
1
  0
VERTEX
  8
LAYER_1
 10
131.099
 20
-252.2609
  0
VERTEX
  8
LAYER_1
 10
130.9842
 20
-252.2609
  0
VERTEX
  8
LAYER_1
 10
131.4287
 20
-251.2339
  0
VERTEX
  8
LAYER_1
 10
131.5306
 20
-251.2339
  0
VERTEX
  8
LAYER_1
 10
131.9713
 20
-252.2609
  0
VERTEX
  8
LAYER_1
 10
131.8545
 20
-252.2609
  0
VERTEX
  8
LAYER_1
 10
131.7415
 20
-251.9912
  0
VERTEX
  8
LAYER_1
 10
131.2106
 20
-251.9912
  0
SEQEND
  0
POLYLINE
  8
LAYER_1
 40
0.05
 41
0.05
 66
1
 10
0
 20
0
 30
0
 70
1
  0
VERTEX
  8
LAYER_1
 10
131.2495
 20
-251.8947
  0
VERTEX
  8
LAYER_1
 10
131.7025
 20
-251.8947
  0
VERTEX
  8
LAYER_1
 10
131.4765
 20
-251.3493
  0
SEQEND
  0
ENDBLK
  0
BLOCK
  8
LAYER_1
  2
AIGNBL01030014
 70
64
 10
0
 20
0
 30
0
  3
AIGNBL01030014
  0
POLYLINE
  8
LAYER_1
 40
0.05
 41
0.05
 66
1
 10
0
 20
0
 30
0
 70
1
  0
VERTEX
  8
LAYER_1
 10
132.6517
 20
-252.2609
  0
VERTEX
  8
LAYER_1
 10
132.5473
 20
-252.2609
  0
VERTEX
  8
LAYER_1
 10
132.5473
 20
-251.3266
  0
VERTEX
  8
LAYER_1
 10
132.2028
 20
-251.3266
  0
VERTEX
  8
LAYER_1
 10
132.2028
 20
-251.2339
  0
VERTEX
  8
LAYER_1
 10
132.9951
 20
-251.2339
  0
VERTEX
  8
LAYER_1
 10
132.9951
 20
-251.3266
  0
VERTEX
  8
LAYER_1
 10
132.6517
 20
-251.3266
  0
SEQEND
  0
ENDBLK
  0
BLOCK
  8
LAYER_1
  2
AIGNBL01030015
 70
64
 10
0
 20
0
 30
0
  3
AIGNBL01030015
  0
POLYLINE
  8
LAYER_1
 40
0.05
 41
0.05
 66
1
 10
0
 20
0
 30
0
 70
1
  0
VERTEX
  8
LAYER_1
 10
133.3489
 20
-251.2339
  0
VERTEX
  8
LAYER_1
 10
133.4533
 20
-251.2339
  0
VERTEX
  8
LAYER_1
 10
133.4533
 20
-251.6787
  0
VERTEX
  8
LAYER_1
 10
134.0142
 20
-251.6787
  0
VERTEX
  8
LAYER_1
 10
134.0142
 20
-251.2339
  0
VERTEX
  8
LAYER_1
 10
134.1182
 20
-251.2339
  0
VERTEX
  8
LAYER_1
 10
134.1182
 20
-252.2609
  0
VERTEX
  8
LAYER_1
 10
134.0142
 20
-252.2609
  0
VERTEX
  8
LAYER_1
 10
134.0142
 20
-251.7745
  0
VERTEX
  8
LAYER_1
 10
133.4533
 20
-251.7745
  0
VERTEX
  8
LAYER_1
 10
133.4533
 20
-252.2609
  0
VERTEX
  8
LAYER_1
 10
133.3489
 20
-252.2609
  0
SEQEND
  0
ENDBLK
  0
BLOCK
  8
LAYER_1
  2
AIGNBL01030016
 70
64
 10
0
 20
0
 30
0
  3
AIGNBL01030016
  0
POLYLINE
  8
LAYER_1
 40
0.05
 41
0.05
 66
1
 10
0
 20
0
 30
0
 70
1
  0
VERTEX
  8
LAYER_1
 10
134.6953
 20
-252.2609
  0
VERTEX
  8
LAYER_1
 10
134.5912
 20
-252.2609
  0
VERTEX
  8
LAYER_1
 10
134.5912
 20
-251.2339
  0
VERTEX
  8
LAYER_1
 10
134.8923
 20
-251.2339
  0
VERTEX
  8
LAYER_1
 10
135.0326
 20
-251.2481
  0
VERTEX
  8
LAYER_1
 10
135.1445
 20
-251.2953
  0
VERTEX
  8
LAYER_1
 10
135.2172
 20
-251.38
  0
VERTEX
  8
LAYER_1
 10
135.2431
 20
-251.5078
  0
VERTEX
  8
LAYER_1
 10
135.2238
 20
-251.6108
  0
VERTEX
  8
LAYER_1
 10
135.169
 20
-251.6911
  0
VERTEX
  8
LAYER_1
 10
135.086
 20
-251.7459
  0
VERTEX
  8
LAYER_1
 10
134.9816
 20
-251.7717
  0
VERTEX
  8
LAYER_1
 10
135.2813
 20
-252.2609
  0
VERTEX
  8
LAYER_1
 10
135.1538
 20
-252.2609
  0
VERTEX
  8
LAYER_1
 10
134.87
 20
-251.7807
  0
VERTEX
  8
LAYER_1
 10
134.6953
 20
-251.7807
  0
SEQEND
  0
POLYLINE
  8
LAYER_1
 40
0.05
 41
0.05
 66
1
 10
0
 20
0
 30
0
 70
1
  0
VERTEX
  8
LAYER_1
 10
134.6953
 20
-251.6904
  0
VERTEX
  8
LAYER_1
 10
134.8772
 20
-251.6904
 42
0.162183433
  0
VERTEX
  8
LAYER_1
 10
135.0712
 20
-251.6453
 42
0.2500476248
  0
VERTEX
  8
LAYER_1
 10
135.1401
 20
-251.5078
  0
VERTEX
  8
LAYER_1
 10
135.1204
 20
-251.4224
  0
VERTEX
  8
LAYER_1
 10
135.0681
 20
-251.3652
  0
VERTEX
  8
LAYER_1
 10
134.9871
 20
-251.3338
  0
VERTEX
  8
LAYER_1
 10
134.8813
 20
-251.3235
  0
VERTEX
  8
LAYER_1
 10
134.6953
 20
-251.3235
  0
SEQEND
  0
ENDBLK
  0
BLOCK
  8
LAYER_1
  2
AIGNBL01030017
 70
64
 10
0
 20
0
 30
0
  3
AIGNBL01030017
  0
POLYLINE
  8
LAYER_1
 40
0.05
 41
0.05
 66
1
 10
0
 20
0
 30
0
 70
1
  0
VERTEX
  8
LAYER_1
 10
136.6755
 20
-251.7469
 42
-0.1017125503
  0
VERTEX
  8
LAYER_1
 10
136.6349
 20
-251.9629
 42
-0.09993540576
  0
VERTEX
  8
LAYER_1
 10
136.5226
 20
-252.1338
 42
-0.0953872374
  0
VERTEX
  8
LAYER_1
 10
136.3527
 20
-252.2461
 42
-0.09491289379
  0
VERTEX
  8
LAYER_1
 10
136.1401
 20
-252.2868
 42
-0.1001583674
  0
VERTEX
  8
LAYER_1
 10
135.9276
 20
-252.2461
 42
-0.1021832622
  0
VERTEX
  8
LAYER_1
 10
135.7581
 20
-252.1338
 42
-0.09667300425
  0
VERTEX
  8
LAYER_1
 10
135.6458
 20
-251.9629
 42
-0.09262920428
  0
VERTEX
  8
LAYER_1
 10
135.6055
 20
-251.7469
 42
-0.09846568495
  0
VERTEX
  8
LAYER_1
 10
135.6458
 20
-251.5306
 42
-0.09950302227
  0
VERTEX
  8
LAYER_1
 10
135.7581
 20
-251.3604
 42
-0.09832881302
  0
VERTEX
  8
LAYER_1
 10
135.9276
 20
-251.2481
 42
-0.09568539315
  0
VERTEX
  8
LAYER_1
 10
136.1401
 20
-251.2071
 42
-0.1016800676
  0
VERTEX
  8
LAYER_1
 10
136.3527
 20
-251.2481
 42
-0.1037545255
  0
VERTEX
  8
LAYER_1
 10
136.5226
 20
-251.3604
 42
-0.09489987116
  0
VERTEX
  8
LAYER_1
 10
136.6349
 20
-251.5306
 42
-0.09321402264
  0
SEQEND
  0
POLYLINE
  8
LAYER_1
 40
0.05
 41
0.05
 66
1
 10
0
 20
0
 30
0
 70
1
  0
VERTEX
  8
LAYER_1
 10
136.5653
 20
-251.7476
  0
VERTEX
  8
LAYER_1
 10
136.5364
 20
-251.5767
  0
VERTEX
  8
LAYER_1
 10
136.4523
 20
-251.4344
  0
VERTEX
  8
LAYER_1
 10
136.3183
 20
-251.337
 42
0.102226117
  0
VERTEX
  8
LAYER_1
 10
136.1401
 20
-251.3001
 42
0.1183817808
  0
VERTEX
  8
LAYER_1
 10
135.9627
 20
-251.337
  0
VERTEX
  8
LAYER_1
 10
135.8284
 20
-251.4344
  0
VERTEX
  8
LAYER_1
 10
135.7443
 20
-251.5767
  0
VERTEX
  8
LAYER_1
 10
135.7151
 20
-251.7476
  0
VERTEX
  8
LAYER_1
 10
135.7443
 20
-251.9188
  0
VERTEX
  8
LAYER_1
 10
135.8284
 20
-252.0607
  0
VERTEX
  8
LAYER_1
 10
135.9627
 20
-252.1575
  0
VERTEX
  8
LAYER_1
 10
136.1401
 20
-252.1937
  0
VERTEX
  8
LAYER_1
 10
136.3183
 20
-252.1575
  0
VERTEX
  8
LAYER_1
 10
136.4523
 20
-252.0607
  0
VERTEX
  8
LAYER_1
 10
136.5364
 20
-251.9188
  0
SEQEND
  0
ENDBLK
  0
BLOCK
  8
LAYER_1
  2
AIGNBL01030018
 70
64
 10
0
 20
0
 30
0
  3
AIGNBL01030018
  0
POLYLINE
  8
LAYER_1
 40
0.05
 41
0.05
 66
1
 10
0
 20
0
 30
0
 70
1
  0
VERTEX
  8
LAYER_1
 10
138.109
 20
-251.7469
 42
-0.1023323716
  0
VERTEX
  8
LAYER_1
 10
138.0687
 20
-251.9629
  0
VERTEX
  8
LAYER_1
 10
137.9564
 20
-252.1338
  0
VERTEX
  8
LAYER_1
 10
137.7866
 20
-252.2461
 42
-0.09490310361
  0
VERTEX
  8
LAYER_1
 10
137.574
 20
-252.2868
 42
-0.1021695304
  0
VERTEX
  8
LAYER_1
 10
137.3615
 20
-252.2461
 42
-0.1021914323
  0
VERTEX
  8
LAYER_1
 10
137.192
 20
-252.1338
 42
-0.09636018285
  0
VERTEX
  8
LAYER_1
 10
137.079
 20
-251.9629
 42
-0.09364604827
  0
VERTEX
  8
LAYER_1
 10
137.0383
 20
-251.7469
 42
-0.1001287453
  0
VERTEX
  8
LAYER_1
 10
137.079
 20
-251.5306
 42
-0.1037227634
  0
VERTEX
  8
LAYER_1
 10
137.192
 20
-251.3604
 42
-0.0985967677
  0
VERTEX
  8
LAYER_1
 10
137.3615
 20
-251.2481
 42
-0.09577700643
  0
VERTEX
  8
LAYER_1
 10
137.574
 20
-251.2071
 42
-0.101420024
  0
VERTEX
  8
LAYER_1
 10
137.7866
 20
-251.2481
 42
-0.09899187334
  0
VERTEX
  8
LAYER_1
 10
137.9564
 20
-251.3604
 42
-0.09487953686
  0
VERTEX
  8
LAYER_1
 10
138.0687
 20
-251.5306
 42
-0.0925924222
  0
SEQEND
  0
POLYLINE
  8
LAYER_1
 40
0.05
 41
0.05
 66
1
 10
0
 20
0
 30
0
 70
1
  0
VERTEX
  8
LAYER_1
 10
137.9991
 20
-251.7476
  0
VERTEX
  8
LAYER_1
 10
137.9702
 20
-251.5767
  0
VERTEX
  8
LAYER_1
 10
137.8862
 20
-251.4344
  0
VERTEX
  8
LAYER_1
 10
137.7518
 20
-251.337
 42
0.1024530178
  0
VERTEX
  8
LAYER_1
 10
137.574
 20
-251.3001
 42
0.1188282125
  0
VERTEX
  8
LAYER_1
 10
137.3963
 20
-251.337
  0
VERTEX
  8
LAYER_1
 10
137.2619
 20
-251.4344
  0
VERTEX
  8
LAYER_1
 10
137.1782
 20
-251.5767
  0
VERTEX
  8
LAYER_1
 10
137.1489
 20
-251.7476
  0
VERTEX
  8
LAYER_1
 10
137.1782
 20
-251.9188
  0
VERTEX
  8
LAYER_1
 10
137.2619
 20
-252.0607
  0
VERTEX
  8
LAYER_1
 10
137.3963
 20
-252.1575
 42
0.1006432731
  0
VERTEX
  8
LAYER_1
 10
137.574
 20
-252.1937
  0
VERTEX
  8
LAYER_1
 10
137.7518
 20
-252.1575
  0
VERTEX
  8
LAYER_1
 10
137.8862
 20
-252.0607
  0
VERTEX
  8
LAYER_1
 10
137.9702
 20
-251.9188
  0
SEQEND
  0
ENDBLK
  0
BLOCK
  8
LAYER_1
  2
AIGNBL01030019
 70
64
 10
0
 20
0
 30
0
  3
AIGNBL01030019
  0
POLYLINE
  8
LAYER_1
 40
0.05
 41
0.05
 66
1
 10
0
 20
0
 30
0
 70
1
  0
VERTEX
  8
LAYER_1
 10
139.0344
 20
-252.0839
  0
VERTEX
  8
LAYER_1
 10
139.0358
 20
-252.0839
  0
VERTEX
  8
LAYER_1
 10
139.3796
 20
-251.2339
  0
VERTEX
  8
LAYER_1
 10
139.5394
 20
-251.2339
  0
VERTEX
  8
LAYER_1
 10
139.5394
 20
-252.2609
  0
VERTEX
  8
LAYER_1
 10
139.4351
 20
-252.2609
  0
VERTEX
  8
LAYER_1
 10
139.4351
 20
-251.3686
  0
VERTEX
  8
LAYER_1
 10
139.432
 20
-251.3686
  0
VERTEX
  8
LAYER_1
 10
139.0609
 20
-252.2609
  0
VERTEX
  8
LAYER_1
 10
139.0062
 20
-252.2609
  0
VERTEX
  8
LAYER_1
 10
138.6344
 20
-251.3686
  0
VERTEX
  8
LAYER_1
 10
138.631
 20
-251.3686
  0
VERTEX
  8
LAYER_1
 10
138.631
 20
-252.2609
  0
VERTEX
  8
LAYER_1
 10
138.5269
 20
-252.2609
  0
VERTEX
  8
LAYER_1
 10
138.5269
 20
-251.2339
  0
VERTEX
  8
LAYER_1
 10
138.6871
 20
-251.2339
  0
SEQEND
  0
ENDBLK
  0
BLOCK
  8
LAYER_1
  2
AIGNBL0103001A
 70
64
 10
0
 20
0
 30
0
  3
AIGNBL0103001A
  0
POLYLINE
  8
LAYER_1
 40
0.05
 41
0.05
 66
1
 10
0
 20
0
 30
0
 70
1
  0
VERTEX
  8
LAYER_1
 10
140.6798
 20
-252.1676
  0
VERTEX
  8
LAYER_1
 10
141.2296
 20
-252.1676
  0
VERTEX
  8
LAYER_1
 10
141.2296
 20
-252.2609
  0
VERTEX
  8
LAYER_1
 10
140.5747
 20
-252.2609
  0
VERTEX
  8
LAYER_1
 10
140.5747
 20
-251.2339
  0
VERTEX
  8
LAYER_1
 10
141.2124
 20
-251.2339
  0
VERTEX
  8
LAYER_1
 10
141.2124
 20
-251.3263
  0
VERTEX
  8
LAYER_1
 10
140.6798
 20
-251.3263
  0
VERTEX
  8
LAYER_1
 10
140.6798
 20
-251.6787
  0
VERTEX
  8
LAYER_1
 10
141.1769
 20
-251.6787
  0
VERTEX
  8
LAYER_1
 10
141.1769
 20
-251.7717
  0
VERTEX
  8
LAYER_1
 10
140.6798
 20
-251.7717
  0
SEQEND
  0
ENDBLK
  0
BLOCK
  8
LAYER_1
  2
AIGNBL0103001B
 70
64
 10
0
 20
0
 30
0
  3
AIGNBL0103001B
  0
POLYLINE
  8
LAYER_1
 40
0.05
 41
0.05
 66
1
 10
0
 20
0
 30
0
 70
1
  0
VERTEX
  8
LAYER_1
 10
141.9703
 20
-251.6484
  0
VERTEX
  8
LAYER_1
 10
142.2507
 20
-251.2339
  0
VERTEX
  8
LAYER_1
 10
142.3754
 20
-251.2339
  0
VERTEX
  8
LAYER_1
 10
142.0351
 20
-251.7221
  0
VERTEX
  8
LAYER_1
 10
142.412
 20
-252.2609
  0
VERTEX
  8
LAYER_1
 10
142.2817
 20
-252.2609
  0
VERTEX
  8
LAYER_1
 10
141.9683
 20
-251.7979
  0
VERTEX
  8
LAYER_1
 10
141.6561
 20
-252.2609
  0
VERTEX
  8
LAYER_1
 10
141.5252
 20
-252.2609
  0
VERTEX
  8
LAYER_1
 10
141.9028
 20
-251.7211
  0
VERTEX
  8
LAYER_1
 10
141.559
 20
-251.2339
  0
VERTEX
  8
LAYER_1
 10
141.6892
 20
-251.2339
  0
SEQEND
  0
ENDBLK
  0
BLOCK
  8
LAYER_1
  2
AIGNBL0103001C
 70
64
 10
0
 20
0
 30
0
  3
AIGNBL0103001C
  0
POLYLINE
  8
LAYER_1
 40
0.05
 41
0.05
 66
1
 10
0
 20
0
 30
0
 70
1
  0
VERTEX
  8
LAYER_1
 10
142.7761
 20
-251.2339
  0
VERTEX
  8
LAYER_1
 10
143.0662
 20
-251.2339
  0
VERTEX
  8
LAYER_1
 10
143.2088
 20
-251.2498
  0
VERTEX
  8
LAYER_1
 10
143.3177
 20
-251.3015
  0
VERTEX
  8
LAYER_1
 10
143.389
 20
-251.3866
  0
VERTEX
  8
LAYER_1
 10
143.4131
 20
-251.5078
  0
VERTEX
  8
LAYER_1
 10
143.3883
 20
-251.6291
  0
VERTEX
  8
LAYER_1
 10
143.317
 20
-251.7145
  0
VERTEX
  8
LAYER_1
 10
143.206
 20
-251.7659
  0
VERTEX
  8
LAYER_1
 10
143.0634
 20
-251.7831
  0
VERTEX
  8
LAYER_1
 10
142.8805
 20
-251.7831
  0
VERTEX
  8
LAYER_1
 10
142.8805
 20
-252.2609
  0
VERTEX
  8
LAYER_1
 10
142.7761
 20
-252.2609
  0
SEQEND
  0
POLYLINE
  8
LAYER_1
 40
0.05
 41
0.05
 66
1
 10
0
 20
0
 30
0
 70
1
  0
VERTEX
  8
LAYER_1
 10
142.8805
 20
-251.6949
  0
VERTEX
  8
LAYER_1
 10
143.0576
 20
-251.6949
 42
0.179800284
  0
VERTEX
  8
LAYER_1
 10
143.245
 20
-251.6474
 42
0.2340645064
  0
VERTEX
  8
LAYER_1
 10
143.3091
 20
-251.5078
 42
0.2635647854
  0
VERTEX
  8
LAYER_1
 10
143.2426
 20
-251.3676
 42
0.1264560216
  0
VERTEX
  8
LAYER_1
 10
143.0576
 20
-251.3235
  0
VERTEX
  8
LAYER_1
 10
142.8805
 20
-251.3235
  0
SEQEND
  0
ENDBLK
  0
BLOCK
  8
LAYER_1
  2
AIGNBL0103001D
 70
64
 10
0
 20
0
 30
0
  3
AIGNBL0103001D
  0
POLYLINE
  8
LAYER_1
 40
0.05
 41
0.05
 66
1
 10
0
 20
0
 30
0
 70
1
  0
VERTEX
  8
LAYER_1
 10
143.9223
 20
-252.1676
  0
VERTEX
  8
LAYER_1
 10
144.4718
 20
-252.1676
  0
VERTEX
  8
LAYER_1
 10
144.4718
 20
-252.2609
  0
VERTEX
  8
LAYER_1
 10
143.8179
 20
-252.2609
  0
VERTEX
  8
LAYER_1
 10
143.8179
 20
-251.2339
  0
VERTEX
  8
LAYER_1
 10
144.4549
 20
-251.2339
  0
VERTEX
  8
LAYER_1
 10
144.4549
 20
-251.3263
  0
VERTEX
  8
LAYER_1
 10
143.9223
 20
-251.3263
  0
VERTEX
  8
LAYER_1
 10
143.9223
 20
-251.6787
  0
VERTEX
  8
LAYER_1
 10
144.4201
 20
-251.6787
  0
VERTEX
  8
LAYER_1
 10
144.4201
 20
-251.7717
  0
VERTEX
  8
LAYER_1
 10
143.9223
 20
-251.7717
  0
SEQEND
  0
ENDBLK
  0
BLOCK
  8
LAYER_1
  2
AIGNBL0103001E
 70
64
 10
0
 20
0
 30
0
  3
AIGNBL0103001E
  0
POLYLINE
  8
LAYER_1
 40
0.05
 41
0.05
 66
1
 10
0
 20
0
 30
0
 70
1
  0
VERTEX
  8
LAYER_1
 10
144.981
 20
-252.2609
  0
VERTEX
  8
LAYER_1
 10
144.8769
 20
-252.2609
  0
VERTEX
  8
LAYER_1
 10
144.8769
 20
-251.2339
  0
VERTEX
  8
LAYER_1
 10
145.1787
 20
-251.2339
  0
VERTEX
  8
LAYER_1
 10
145.3186
 20
-251.2481
  0
VERTEX
  8
LAYER_1
 10
145.4302
 20
-251.2953
  0
VERTEX
  8
LAYER_1
 10
145.5039
 20
-251.38
  0
VERTEX
  8
LAYER_1
 10
145.5298
 20
-251.5078
  0
VERTEX
  8
LAYER_1
 10
145.5094
 20
-251.6105
  0
VERTEX
  8
LAYER_1
 10
145.4547
 20
-251.6915
  0
VERTEX
  8
LAYER_1
 10
145.3713
 20
-251.7459
  0
VERTEX
  8
LAYER_1
 10
145.2669
 20
-251.7717
  0
VERTEX
  8
LAYER_1
 10
145.5677
 20
-252.2609
  0
VERTEX
  8
LAYER_1
 10
145.4402
 20
-252.2609
  0
VERTEX
  8
LAYER_1
 10
145.1556
 20
-251.7803
  0
VERTEX
  8
LAYER_1
 10
144.981
 20
-251.7803
  0
SEQEND
  0
POLYLINE
  8
LAYER_1
 40
0.05
 41
0.05
 66
1
 10
0
 20
0
 30
0
 70
1
  0
VERTEX
  8
LAYER_1
 10
144.981
 20
-251.69
  0
VERTEX
  8
LAYER_1
 10
145.1629
 20
-251.69
 42
0.1625939114
  0
VERTEX
  8
LAYER_1
 10
145.3575
 20
-251.6453
 42
0.2503606374
  0
VERTEX
  8
LAYER_1
 10
145.4254
 20
-251.5078
  0
VERTEX
  8
LAYER_1
 10
145.4071
 20
-251.4224
  0
VERTEX
  8
LAYER_1
 10
145.3544
 20
-251.3652
  0
VERTEX
  8
LAYER_1
 10
145.2724
 20
-251.3338
  0
VERTEX
  8
LAYER_1
 10
145.1667
 20
-251.3235
  0
VERTEX
  8
LAYER_1
 10
144.981
 20
-251.3235
  0
SEQEND
  0
ENDBLK
  0
BLOCK
  8
LAYER_1
  2
AIGNBL0103001F
 70
64
 10
0
 20
0
 30
0
  3
AIGNBL0103001F
  0
POLYLINE
  8
LAYER_1
 40
0.05
 41
0.05
 66
1
 10
0
 20
0
 30
0
 70
1
  0
VERTEX
  8
LAYER_1
 10
146.05
 20
-252.2609
  0
VERTEX
  8
LAYER_1
 10
145.9466
 20
-252.2609
  0
VERTEX
  8
LAYER_1
 10
145.9466
 20
-251.2339
  0
VERTEX
  8
LAYER_1
 10
146.05
 20
-251.2339
  0
SEQEND
  0
ENDBLK
  0
BLOCK
  8
LAYER_1
  2
AIGNBL01030020
 70
64
 10
0
 20
0
 30
0
  3
AIGNBL01030020
  0
POLYLINE
  8
LAYER_1
 40
0.05
 41
0.05
 66
1
 10
0
 20
0
 30
0
 70
1
  0
VERTEX
  8
LAYER_1
 10
146.6277
 20
-252.1676
  0
VERTEX
  8
LAYER_1
 10
147.1776
 20
-252.1676
  0
VERTEX
  8
LAYER_1
 10
147.1776
 20
-252.2609
  0
VERTEX
  8
LAYER_1
 10
146.524
 20
-252.2609
  0
VERTEX
  8
LAYER_1
 10
146.524
 20
-251.2339
  0
VERTEX
  8
LAYER_1
 10
147.1607
 20
-251.2339
  0
VERTEX
  8
LAYER_1
 10
147.1607
 20
-251.3263
  0
VERTEX
  8
LAYER_1
 10
146.6277
 20
-251.3263
  0
VERTEX
  8
LAYER_1
 10
146.6277
 20
-251.6787
  0
VERTEX
  8
LAYER_1
 10
147.1255
 20
-251.6787
  0
VERTEX
  8
LAYER_1
 10
147.1255
 20
-251.7717
  0
VERTEX
  8
LAYER_1
 10
146.6277
 20
-251.7717
  0
SEQEND
  0
ENDBLK
  0
BLOCK
  8
LAYER_1
  2
AIGNBL01030021
 70
64
 10
0
 20
0
 30
0
  3
AIGNBL01030021
  0
POLYLINE
  8
LAYER_1
 40
0.05
 41
0.05
 66
1
 10
0
 20
0
 30
0
 70
1
  0
VERTEX
  8
LAYER_1
 10
148.3107
 20
-252.1079
  0
VERTEX
  8
LAYER_1
 10
148.3138
 20
-252.1079
  0
VERTEX
  8
LAYER_1
 10
148.3138
 20
-251.2339
  0
VERTEX
  8
LAYER_1
 10
148.4182
 20
-251.2339
  0
VERTEX
  8
LAYER_1
 10
148.4182
 20
-252.2609
  0
VERTEX
  8
LAYER_1
 10
148.2879
 20
-252.2609
  0
VERTEX
  8
LAYER_1
 10
147.6898
 20
-251.3772
  0
VERTEX
  8
LAYER_1
 10
147.6867
 20
-251.3772
  0
VERTEX
  8
LAYER_1
 10
147.6867
 20
-252.2609
  0
VERTEX
  8
LAYER_1
 10
147.5824
 20
-252.2609
  0
VERTEX
  8
LAYER_1
 10
147.5824
 20
-251.2339
  0
VERTEX
  8
LAYER_1
 10
147.7136
 20
-251.2339
  0
SEQEND
  0
ENDBLK
  0
BLOCK
  8
LAYER_1
  2
AIGNBL01030022
 70
64
 10
0
 20
0
 30
0
  3
AIGNBL01030022
  0
POLYLINE
  8
LAYER_1
 40
0.05
 41
0.05
 66
1
 10
0
 20
0
 30
0
 70
1
  0
VERTEX
  8
LAYER_1
 10
149.7562
 20
-252.0942
  0
VERTEX
  8
LAYER_1
 10
149.6925
 20
-252.1679
  0
VERTEX
  8
LAYER_1
 10
149.6071
 20
-252.2295
  0
VERTEX
  8
LAYER_1
 10
149.4996
 20
-252.2716
  0
VERTEX
  8
LAYER_1
 10
149.3714
 20
-252.2868
 42
-0.1011741457
  0
VERTEX
  8
LAYER_1
 10
149.1568
 20
-252.2461
 42
-0.1032611777
  0
VERTEX
  8
LAYER_1
 10
148.9873
 20
-252.1335
 42
-0.1006103475
  0
VERTEX
  8
LAYER_1
 10
148.8763
 20
-251.9633
 42
-0.09295224097
  0
VERTEX
  8
LAYER_1
 10
148.836
 20
-251.7469
 42
-0.1023262951
  0
VERTEX
  8
LAYER_1
 10
148.877
 20
-251.5306
 42
-0.1009097123
  0
VERTEX
  8
LAYER_1
 10
148.9886
 20
-251.3604
  0
VERTEX
  8
LAYER_1
 10
149.1581
 20
-251.2481
 42
-0.09531952667
  0
VERTEX
  8
LAYER_1
 10
149.3714
 20
-251.2071
  0
VERTEX
  8
LAYER_1
 10
149.4823
 20
-251.2191
  0
VERTEX
  8
LAYER_1
 10
149.5853
 20
-251.2522
  0
VERTEX
  8
LAYER_1
 10
149.6718
 20
-251.3035
  0
VERTEX
  8
LAYER_1
 10
149.7369
 20
-251.3711
  0
VERTEX
  8
LAYER_1
 10
149.6508
 20
-251.4355
  0
VERTEX
  8
LAYER_1
 10
149.6071
 20
-251.3858
  0
VERTEX
  8
LAYER_1
 10
149.5437
 20
-251.3421
  0
VERTEX
  8
LAYER_1
 10
149.4644
 20
-251.3114
  0
VERTEX
  8
LAYER_1
 10
149.3728
 20
-251.3001
  0
VERTEX
  8
LAYER_1
 10
149.194
 20
-251.3362
  0
VERTEX
  8
LAYER_1
 10
149.06
 20
-251.4338
  0
VERTEX
  8
LAYER_1
 10
148.9749
 20
-251.5764
  0
VERTEX
  8
LAYER_1
 10
148.947
 20
-251.7469
  0
VERTEX
  8
LAYER_1
 10
148.9766
 20
-251.9178
  0
VERTEX
  8
LAYER_1
 10
149.0613
 20
-252.0601
  0
VERTEX
  8
LAYER_1
 10
149.1957
 20
-252.1575
 42
0.1011662531
  0
VERTEX
  8
LAYER_1
 10
149.3728
 20
-252.1937
  0
VERTEX
  8
LAYER_1
 10
149.5406
 20
-252.1575
 42
0.130187872
  0
VERTEX
  8
LAYER_1
 10
149.6749
 20
-252.0414
  0
SEQEND
  0
ENDBLK
  0
BLOCK
  8
LAYER_1
  2
AIGNBL01030023
 70
64
 10
0
 20
0
 30
0
  3
AIGNBL01030023
  0
POLYLINE
  8
LAYER_1
 40
0.05
 41
0.05
 66
1
 10
0
 20
0
 30
0
 70
1
  0
VERTEX
  8
LAYER_1
 10
150.2403
 20
-252.1676
  0
VERTEX
  8
LAYER_1
 10
150.7901
 20
-252.1676
  0
VERTEX
  8
LAYER_1
 10
150.7901
 20
-252.2609
  0
VERTEX
  8
LAYER_1
 10
150.1365
 20
-252.2609
  0
VERTEX
  8
LAYER_1
 10
150.1365
 20
-251.2339
  0
VERTEX
  8
LAYER_1
 10
150.7729
 20
-251.2339
  0
VERTEX
  8
LAYER_1
 10
150.7729
 20
-251.3263
  0
VERTEX
  8
LAYER_1
 10
150.2403
 20
-251.3263
  0
VERTEX
  8
LAYER_1
 10
150.2403
 20
-251.6787
  0
VERTEX
  8
LAYER_1
 10
150.7384
 20
-251.6787
  0
VERTEX
  8
LAYER_1
 10
150.7384
 20
-251.7717
  0
VERTEX
  8
LAYER_1
 10
150.2403
 20
-251.7717
  0
SEQEND
  0
ENDBLK
  0
BLOCK
  8
LAYER_3
  2
AIGNBL03030006
 70
64
 10
0
 20
0
 30
0
  3
AIGNBL03030006
  0
INSERT
  8
LAYER_3
  2
AIGNBL03040007
 10
0
 20
0
 30
0
  0
ENDBLK
  0
BLOCK
  8
LAYER_3
  2
AIGNBL0303000F
 70
64
 10
0
 20
0
 30
0
  3
AIGNBL0303000F
  0
INSERT
  8
LAYER_3
  2
AIGNBL03040010
 10
0
 20
0
 30
0
  0
ENDBLK
  0
BLOCK
  8
LAYER_3
  2
AIGNBL0303001F
 70
64
 10
0
 20
0
 30
0
  3
AIGNBL0303001F
  0
INSERT
  8
LAYER_3
  2
AIGNBL03040020
 10
0
 20
0
 30
0
  0
ENDBLK
  0
BLOCK
  8
LAYER_3
  2
AIGNBL03030028
 70
64
 10
0
 20
0
 30
0
  3
AIGNBL03030028
  0
INSERT
  8
LAYER_3
  2
AIGNBL03040029
 10
0
 20
0
 30
0
  0
ENDBLK
  0
BLOCK
  8
LAYER_3
  2
AIGNBL03030052
 70
64
 10
0
 20
0
 30
0
  3
AIGNBL03030052
  0
INSERT
  8
LAYER_3
  2
AIGNBL03040053
 10
0
 20
0
 30
0
  0
ENDBLK
  0
BLOCK
  8
LAYER_3
  2
AIGNBL0303005A
 70
64
 10
0
 20
0
 30
0
  3
AIGNBL0303005A
  0
INSERT
  8
LAYER_3
  2
AIGNBL0304005B
 10
0
 20
0
 30
0
  0
ENDBLK
  0
BLOCK
  8
LAYER_3
  2
AIGNBL03030063
 70
64
 10
0
 20
0
 30
0
  3
AIGNBL03030063
  0
INSERT
  8
LAYER_3
  2
AIGNBL03040064
 10
0
 20
0
 30
0
  0
ENDBLK
  0
BLOCK
  8
LAYER_3
  2
AIGNBL03030083
 70
64
 10
0
 20
0
 30
0
  3
AIGNBL03030083
  0
POLYLINE
  8
LAYER_3
 40
0.1058
 41
0.1058
 66
1
 10
0
 20
0
 30
0
  0
VERTEX
  8
LAYER_3
 10
129.0698
 20
-154.8619
  0
VERTEX
  8
LAYER_3
 10
129.0698
 20
-155.9643
  0
SEQEND
  0
POLYLINE
  8
LAYER_3
  6
AIGENLINE001
 40
0.1058
 41
0.1058
 66
1
 10
0
 20
0
 30
0
 70
128
  0
VERTEX
  8
LAYER_3
 10
129.0698
 20
-156.4838
  0
VERTEX
  8
LAYER_3
 10
129.0698
 20
-157.263
  0
SEQEND
  0
POLYLINE
  8
LAYER_3
  6
AIGENLINE002
 40
0.1058
 41
0.1058
 66
1
 10
0
 20
0
 30
0
 70
128
  0
VERTEX
  8
LAYER_3
 10
129.0698
 20
-157.5227
  0
VERTEX
  8
LAYER_3
 10
129.0698
 20
-161.4187
  0
SEQEND
  0
POLYLINE
  8
LAYER_3
 40
0.1058
 41
0.1058
 66
1
 10
0
 20
0
 30
0
  0
VERTEX
  8
LAYER_3
 10
129.0698
 20
-161.6784
  0
VERTEX
  8
LAYER_3
 10
129.0698
 20
-162.7809
  0
SEQEND
  0
ENDBLK
  0
BLOCK
  8
LAYER_1
  2
AIGNBL01020003
 70
64
 10
0
 20
0
 30
0
  3
AIGNBL01020003
  0
INSERT
  8
LAYER_1
  2
AIGNBL01030004
 10
0
 20
0
 30
0
  0
ENDBLK
  0
BLOCK
  8
LAYER_1
  2
AIGNBL0102000C
 70
64
 10
0
 20
0
 30
0
  3
AIGNBL0102000C
  0
INSERT
  8
LAYER_1
  2
AIGNBL0103000D
 10
0
 20
0
 30
0
  0
INSERT
  8
LAYER_1
  2
AIGNBL0103000E
 10
0
 20
0
 30
0
  0
INSERT
  8
LAYER_1
  2
AIGNBL0103000F
 10
0
 20
0
 30
0
  0
INSERT
  8
LAYER_1
  2
AIGNBL01030010
 10
0
 20
0
 30
0
  0
INSERT
  8
LAYER_1
  2
AIGNBL01030011
 10
0
 20
0
 30
0
  0
INSERT
  8
LAYER_1
  2
AIGNBL01030012
 10
0
 20
0
 30
0
  0
INSERT
  8
LAYER_1
  2
AIGNBL01030013
 10
0
 20
0
 30
0
  0
INSERT
  8
LAYER_1
  2
AIGNBL01030014
 10
0
 20
0
 30
0
  0
INSERT
  8
LAYER_1
  2
AIGNBL01030015
 10
0
 20
0
 30
0
  0
INSERT
  8
LAYER_1
  2
AIGNBL01030016
 10
0
 20
0
 30
0
  0
INSERT
  8
LAYER_1
  2
AIGNBL01030017
 10
0
 20
0
 30
0
  0
INSERT
  8
LAYER_1
  2
AIGNBL01030018
 10
0
 20
0
 30
0
  0
INSERT
  8
LAYER_1
  2
AIGNBL01030019
 10
0
 20
0
 30
0
  0
INSERT
  8
LAYER_1
  2
AIGNBL0103001A
 10
0
 20
0
 30
0
  0
INSERT
  8
LAYER_1
  2
AIGNBL0103001B
 10
0
 20
0
 30
0
  0
INSERT
  8
LAYER_1
  2
AIGNBL0103001C
 10
0
 20
0
 30
0
  0
INSERT
  8
LAYER_1
  2
AIGNBL0103001D
 10
0
 20
0
 30
0
  0
INSERT
  8
LAYER_1
  2
AIGNBL0103001E
 10
0
 20
0
 30
0
  0
INSERT
  8
LAYER_1
  2
AIGNBL0103001F
 10
0
 20
0
 30
0
  0
INSERT
  8
LAYER_1
  2
AIGNBL01030020
 10
0
 20
0
 30
0
  0
INSERT
  8
LAYER_1
  2
AIGNBL01030021
 10
0
 20
0
 30
0
  0
INSERT
  8
LAYER_1
  2
AIGNBL01030022
 10
0
 20
0
 30
0
  0
INSERT
  8
LAYER_1
  2
AIGNBL01030023
 10
0
 20
0
 30
0
  0
ENDBLK
  0
BLOCK
  8
LAYER_3
  2
AIGNBL03020003
 70
64
 10
0
 20
0
 30
0
  3
AIGNBL03020003
  0
POLYLINE
  8
LAYER_3
 40
0.1058
 41
0.1058
 66
1
 10
0
 20
0
 30
0
  0
VERTEX
  8
LAYER_3
 10
140.9482
 20
-155.9715
  0
VERTEX
  8
LAYER_3
 10
140.9482
 20
-148.0323
  0
SEQEND
  0
ENDBLK
  0
BLOCK
  8
LAYER_3
  2
AIGNBL03020004
 70
64
 10
0
 20
0
 30
0
  3
AIGNBL03020004
  0
POLYLINE
  8
LAYER_3
 40
0.1058
 41
0.1058
 66
1
 10
0
 20
0
 30
0
  0
VERTEX
  8
LAYER_3
 10
117.1914
 20
-155.9715
  0
VERTEX
  8
LAYER_3
 10
117.1914
 20
-148.0323
  0
SEQEND
  0
ENDBLK
  0
BLOCK
  8
LAYER_3
  2
AIGNBL03020005
 70
64
 10
0
 20
0
 30
0
  3
AIGNBL03020005
  0
INSERT
  8
LAYER_3
  2
AIGNBL03030006
 10
0
 20
0
 30
0
  0
ENDBLK
  0
BLOCK
  8
LAYER_3
  2
AIGNBL0302000A
 70
64
 10
0
 20
0
 30
0
  3
AIGNBL0302000A
  0
TEXT
  8
LAYER_3
 10
124.719
 20
-149.4177
 11
124.719
 21
-149.4177
 40
3.8668
 41
0.5
  1
%%c24
  0
ENDBLK
  0
BLOCK
  8
LAYER_3
  2
AIGNBL0302000C
 70
64
 10
0
 20
0
 30
0
  3
AIGNBL0302000C
  0
POLYLINE
  8
LAYER_3
 40
0.1058
 41
0.1058
 66
1
 10
0
 20
0
 30
0
  0
VERTEX
  8
LAYER_3
 10
106.3028
 20
-155.9513
  0
VERTEX
  8
LAYER_3
 10
106.3028
 20
-142.0931
  0
SEQEND
  0
ENDBLK
  0
BLOCK
  8
LAYER_3
  2
AIGNBL0302000D
 70
64
 10
0
 20
0
 30
0
  3
AIGNBL0302000D
  0
POLYLINE
  8
LAYER_3
 40
0.1058
 41
0.1058
 66
1
 10
0
 20
0
 30
0
  0
VERTEX
  8
LAYER_3
 10
151.8368
 20
-155.9513
  0
VERTEX
  8
LAYER_3
 10
151.8368
 20
-142.0931
  0
SEQEND
  0
ENDBLK
  0
BLOCK
  8
LAYER_3
  2
AIGNBL0302000E
 70
64
 10
0
 20
0
 30
0
  3
AIGNBL0302000E
  0
INSERT
  8
LAYER_3
  2
AIGNBL0303000F
 10
0
 20
0
 30
0
  0
ENDBLK
  0
BLOCK
  8
LAYER_3
  2
AIGNBL03020013
 70
64
 10
0
 20
0
 30
0
  3
AIGNBL03020013
  0
TEXT
  8
LAYER_3
 10
124.7779
 20
-143.4787
 11
124.7779
 21
-143.4787
 40
3.8668
 41
0.5
  1
%%c46
  0
ENDBLK
  0
BLOCK
  8
LAYER_3
  2
AIGNBL03020015
 70
64
 10
0
 20
0
 30
0
  3
AIGNBL03020015
  0
POLYLINE
  8
LAYER_3
 40
0.1058
 41
0.1058
 66
1
 10
0
 20
0
 30
0
  0
VERTEX
  8
LAYER_3
 10
153.6145
 20
-157.8315
  0
VERTEX
  8
LAYER_3
 10
162.3631
 20
-157.8315
  0
SEQEND
  0
ENDBLK
  0
BLOCK
  8
LAYER_3
  2
AIGNBL03020016
 70
64
 10
0
 20
0
 30
0
  3
AIGNBL03020016
  0
POLYLINE
  8
LAYER_3
 40
0.1058
 41
0.1058
 66
1
 10
0
 20
0
 30
0
  0
VERTEX
  8
LAYER_3
 10
153.6145
 20
-160.8011
  0
VERTEX
  8
LAYER_3
 10
162.3631
 20
-160.8011
  0
SEQEND
  0
ENDBLK
  0
BLOCK
  8
LAYER_3
  2
AIGNBL03020017
 70
64
 10
0
 20
0
 30
0
  3
AIGNBL03020017
  0
POLYLINE
  8
LAYER_3
 40
0.1058
 41
0.1058
 66
1
 10
0
 20
0
 30
0
  0
VERTEX
  8
LAYER_3
 10
160.3834
 20
-162.2859
  0
VERTEX
  8
LAYER_3
 10
160.3834
 20
-163.7707
  0
SEQEND
  0
ENDBLK
  0
BLOCK
  8
LAYER_3
  2
AIGNBL03020018
 70
64
 10
0
 20
0
 30
0
  3
AIGNBL03020018
  0
POLYLINE
  8
LAYER_3
 40
0.1058
 41
0.1058
 66
1
 10
0
 20
0
 30
0
  0
VERTEX
  8
LAYER_3
 10
160.3834
 20
-156.3467
  0
VERTEX
  8
LAYER_3
 10
160.3834
 20
-151.7935
  0
SEQEND
  0
ENDBLK
  0
BLOCK
  8
LAYER_3
  2
AIGNBL03020019
 70
64
 10
0
 20
0
 30
0
  3
AIGNBL03020019
  0
POLYLINE
  8
LAYER_3
 40
0.1058
 41
0.1058
 66
1
 10
0
 20
0
 30
0
  0
VERTEX
  8
LAYER_3
 10
160.3834
 20
-160.8011
  0
VERTEX
  8
LAYER_3
 10
160.3834
 20
-157.8315
  0
SEQEND
  0
ENDBLK
  0
BLOCK
  8
LAYER_3
  2
AIGNBL0302001A
 70
64
 10
0
 20
0
 30
0
  3
AIGNBL0302001A
  0
TEXT
  8
LAYER_3
 10
159.9162
 20
-154.88
 11
159.9162
 21
-154.88
 40
3.8668
 41
0.5
 50
89.99999999
  1
3
  0
ENDBLK
  0
BLOCK
  8
LAYER_3
  2
AIGNBL0302001C
 70
64
 10
0
 20
0
 30
0
  3
AIGNBL0302001C
  0
POLYLINE
  8
LAYER_3
 40
0.1058
 41
0.1058
 66
1
 10
0
 20
0
 30
0
  0
VERTEX
  8
LAYER_3
 10
146.64
 20
-107.9171
  0
VERTEX
  8
LAYER_3
 10
146.64
 20
-101.0917
  0
SEQEND
  0
ENDBLK
  0
BLOCK
  8
LAYER_3
  2
AIGNBL0302001D
 70
64
 10
0
 20
0
 30
0
  3
AIGNBL0302001D
  0
POLYLINE
  8
LAYER_3
 40
0.1058
 41
0.1058
 66
1
 10
0
 20
0
 30
0
  0
VERTEX
  8
LAYER_3
 10
111.4996
 20
-107.9171
  0
VERTEX
  8
LAYER_3
 10
111.4996
 20
-101.0917
  0
SEQEND
  0
ENDBLK
  0
BLOCK
  8
LAYER_3
  2
AIGNBL0302001E
 70
64
 10
0
 20
0
 30
0
  3
AIGNBL0302001E
  0
INSERT
  8
LAYER_3
  2
AIGNBL0303001F
 10
0
 20
0
 30
0
  0
ENDBLK
  0
BLOCK
  8
LAYER_3
  2
AIGNBL03020023
 70
64
 10
0
 20
0
 30
0
  3
AIGNBL03020023
  0
TEXT
  8
LAYER_3
 10
123.1997
 20
-102.4774
 11
123.1997
 21
-102.4774
 40
3.8668
 41
0.5
  1
%%c35.5
  0
ENDBLK
  0
BLOCK
  8
LAYER_3
  2
AIGNBL03020025
 70
64
 10
0
 20
0
 30
0
  3
AIGNBL03020025
  0
POLYLINE
  8
LAYER_3
 40
0.1058
 41
0.1058
 66
1
 10
0
 20
0
 30
0
  0
VERTEX
  8
LAYER_3
 10
105.5604
 20
-107.9171
  0
VERTEX
  8
LAYER_3
 10
105.5604
 20
-92.1422
  0
SEQEND
  0
ENDBLK
  0
BLOCK
  8
LAYER_3
  2
AIGNBL03020026
 70
64
 10
0
 20
0
 30
0
  3
AIGNBL03020026
  0
POLYLINE
  8
LAYER_3
 40
0.1058
 41
0.1058
 66
1
 10
0
 20
0
 30
0
  0
VERTEX
  8
LAYER_3
 10
152.5792
 20
-107.9171
  0
VERTEX
  8
LAYER_3
 10
152.5792
 20
-92.1422
  0
SEQEND
  0
ENDBLK
  0
BLOCK
  8
LAYER_3
  2
AIGNBL03020027
 70
64
 10
0
 20
0
 30
0
  3
AIGNBL03020027
  0
INSERT
  8
LAYER_3
  2
AIGNBL03030028
 10
0
 20
0
 30
0
  0
ENDBLK
  0
BLOCK
  8
LAYER_3
  2
AIGNBL0302002C
 70
64
 10
0
 20
0
 30
0
  3
AIGNBL0302002C
  0
TEXT
  8
LAYER_3
 10
123.7885
 20
-93.5277
 11
123.7885
 21
-93.5277
 40
3.8668
 41
0.5
  1
%%c47.5
  0
ENDBLK
  0
BLOCK
  8
LAYER_3
  2
AIGNBL0302002E
 70
64
 10
0
 20
0
 30
0
  3
AIGNBL0302002E
  0
POLYLINE
  8
LAYER_3
 40
0.1058
 41
0.1058
 66
1
 10
0
 20
0
 30
0
  0
VERTEX
  8
LAYER_3
 10
154.0026
 20
-109.706
  0
VERTEX
  8
LAYER_3
 10
162.1723
 20
-109.706
  0
SEQEND
  0
ENDBLK
  0
BLOCK
  8
LAYER_3
  2
AIGNBL0302002F
 70
64
 10
0
 20
0
 30
0
  3
AIGNBL0302002F
  0
POLYLINE
  8
LAYER_3
 40
0.1058
 41
0.1058
 66
1
 10
0
 20
0
 30
0
  0
VERTEX
  8
LAYER_3
 10
154.0026
 20
-112.6756
  0
VERTEX
  8
LAYER_3
 10
162.1723
 20
-112.6756
  0
SEQEND
  0
ENDBLK
  0
BLOCK
  8
LAYER_3
  2
AIGNBL03020030
 70
64
 10
0
 20
0
 30
0
  3
AIGNBL03020030
  0
POLYLINE
  8
LAYER_3
 40
0.1058
 41
0.1058
 66
1
 10
0
 20
0
 30
0
  0
VERTEX
  8
LAYER_3
 10
160.1925
 20
-114.1604
  0
VERTEX
  8
LAYER_3
 10
160.1925
 20
-115.6452
  0
SEQEND
  0
ENDBLK
  0
BLOCK
  8
LAYER_3
  2
AIGNBL03020031
 70
64
 10
0
 20
0
 30
0
  3
AIGNBL03020031
  0
POLYLINE
  8
LAYER_3
 40
0.1058
 41
0.1058
 66
1
 10
0
 20
0
 30
0
  0
VERTEX
  8
LAYER_3
 10
160.1925
 20
-108.2212
  0
VERTEX
  8
LAYER_3
 10
160.1925
 20
-103.8994
  0
SEQEND
  0
ENDBLK
  0
BLOCK
  8
LAYER_3
  2
AIGNBL03020032
 70
64
 10
0
 20
0
 30
0
  3
AIGNBL03020032
  0
POLYLINE
  8
LAYER_3
 40
0.1058
 41
0.1058
 66
1
 10
0
 20
0
 30
0
  0
VERTEX
  8
LAYER_3
 10
160.1925
 20
-112.6756
  0
VERTEX
  8
LAYER_3
 10
160.1925
 20
-109.706
  0
SEQEND
  0
ENDBLK
  0
BLOCK
  8
LAYER_3
  2
AIGNBL03020033
 70
64
 10
0
 20
0
 30
0
  3
AIGNBL03020033
  0
TEXT
  8
LAYER_3
 10
159.7255
 20
-107.1825
 11
159.7255
 21
-107.1825
 40
3.8668
 41
0.5
 50
89.99999999
  1
3
  0
ENDBLK
  0
BLOCK
  8
LAYER_3
  2
AIGNBL03020044
 70
64
 10
0
 20
0
 30
0
  3
AIGNBL03020044
  0
POLYLINE
  8
LAYER_3
 40
0.1058
 41
0.1058
 66
1
 10
0
 20
0
 30
0
  0
VERTEX
  8
LAYER_3
 10
155.5011
 20
-47.5087
  0
VERTEX
  8
LAYER_3
 10
182.8738
 20
-47.5087
  0
SEQEND
  0
ENDBLK
  0
BLOCK
  8
LAYER_3
  2
AIGNBL03020045
 70
64
 10
0
 20
0
 30
0
  3
AIGNBL03020045
  0
POLYLINE
  8
LAYER_3
 40
0.1058
 41
0.1058
 66
1
 10
0
 20
0
 30
0
  0
VERTEX
  8
LAYER_3
 10
148.1265
 20
-53.448
  0
VERTEX
  8
LAYER_3
 10
182.8738
 20
-53.448
  0
SEQEND
  0
ENDBLK
  0
BLOCK
  8
LAYER_3
  2
AIGNBL03020046
 70
64
 10
0
 20
0
 30
0
  3
AIGNBL03020046
  0
POLYLINE
  8
LAYER_3
 40
0.1058
 41
0.1058
 66
1
 10
0
 20
0
 30
0
  0
VERTEX
  8
LAYER_3
 10
180.8941
 20
-48.9936
  0
VERTEX
  8
LAYER_3
 10
180.8941
 20
-51.9632
  0
SEQEND
  0
ENDBLK
  0
BLOCK
  8
LAYER_3
  2
AIGNBL03020047
 70
64
 10
0
 20
0
 30
0
  3
AIGNBL03020047
  0
TEXT
  8
LAYER_3
 10
180.4676
 20
-51.7157
 11
180.4676
 21
-51.7157
 40
5.1083
 41
0.5
 50
89.99999999
  1
6
  0
ENDBLK
  0
BLOCK
  8
LAYER_3
  2
AIGNBL03020049
 70
64
 10
0
 20
0
 30
0
  3
AIGNBL03020049
  0
POLYLINE
  8
LAYER_3
 40
0.1058
 41
0.1058
 66
1
 10
0
 20
0
 30
0
  0
VERTEX
  8
LAYER_3
 10
156.4909
 20
-50.4784
  0
VERTEX
  8
LAYER_3
 10
174.3527
 20
-50.4784
  0
SEQEND
  0
ENDBLK
  0
BLOCK
  8
LAYER_3
  2
AIGNBL0302004A
 70
64
 10
0
 20
0
 30
0
  3
AIGNBL0302004A
  0
POLYLINE
  8
LAYER_3
 40
0.1058
 41
0.1058
 66
1
 10
0
 20
0
 30
0
  0
VERTEX
  8
LAYER_3
 10
155.0061
 20
-47.5087
  0
VERTEX
  8
LAYER_3
 10
174.3527
 20
-47.5087
  0
SEQEND
  0
ENDBLK
  0
BLOCK
  8
LAYER_3
  2
AIGNBL0302004B
 70
64
 10
0
 20
0
 30
0
  3
AIGNBL0302004B
  0
POLYLINE
  8
LAYER_3
 40
0.1058
 41
0.1058
 66
1
 10
0
 20
0
 30
0
  0
VERTEX
  8
LAYER_3
 10
172.3729
 20
-51.9632
  0
VERTEX
  8
LAYER_3
 10
172.3729
 20
-53.448
  0
SEQEND
  0
ENDBLK
  0
BLOCK
  8
LAYER_3
  2
AIGNBL0302004C
 70
64
 10
0
 20
0
 30
0
  3
AIGNBL0302004C
  0
POLYLINE
  8
LAYER_3
 40
0.1058
 41
0.1058
 66
1
 10
0
 20
0
 30
0
  0
VERTEX
  8
LAYER_3
 10
172.3729
 20
-46.0239
  0
VERTEX
  8
LAYER_3
 10
172.3729
 20
-44.5391
  0
SEQEND
  0
ENDBLK
  0
BLOCK
  8
LAYER_3
  2
AIGNBL0302004D
 70
64
 10
0
 20
0
 30
0
  3
AIGNBL0302004D
  0
POLYLINE
  8
LAYER_3
 40
0.1058
 41
0.1058
 66
1
 10
0
 20
0
 30
0
  0
VERTEX
  8
LAYER_3
 10
172.3729
 20
-50.4784
  0
VERTEX
  8
LAYER_3
 10
172.3729
 20
-47.5087
  0
SEQEND
  0
ENDBLK
  0
BLOCK
  8
LAYER_3
  2
AIGNBL0302004E
 70
64
 10
0
 20
0
 30
0
  3
AIGNBL0302004E
  0
TEXT
  8
LAYER_3
 10
171.9465
 20
-50.1717
 11
171.9465
 21
-50.1717
 40
5.1083
 41
0.5
 50
89.99999999
  1
3
  0
ENDBLK
  0
BLOCK
  8
LAYER_3
  2
AIGNBL03020050
 70
64
 10
0
 20
0
 30
0
  3
AIGNBL03020050
  0
POLYLINE
  8
LAYER_3
 40
0.1058
 41
0.1058
 66
1
 10
0
 20
0
 30
0
  0
VERTEX
  8
LAYER_3
 10
140.9482
 20
-46.1443
  0
VERTEX
  8
LAYER_3
 10
140.9482
 20
-36.7609
  0
SEQEND
  0
ENDBLK
  0
BLOCK
  8
LAYER_3
  2
AIGNBL03020051
 70
64
 10
0
 20
0
 30
0
  3
AIGNBL03020051
  0
INSERT
  8
LAYER_3
  2
AIGNBL03030052
 10
0
 20
0
 30
0
  0
ENDBLK
  0
BLOCK
  8
LAYER_3
  2
AIGNBL03020055
 70
64
 10
0
 20
0
 30
0
  3
AIGNBL03020055
  0
TEXT
  8
LAYER_3
 10
126.3127
 20
-37.6153
 11
126.3127
 21
-37.6153
 40
3.8668
 41
0.5
  1
%%c24
  0
ENDBLK
  0
BLOCK
  8
LAYER_3
  2
AIGNBL03020057
 70
64
 10
0
 20
0
 30
0
  3
AIGNBL03020057
  0
POLYLINE
  8
LAYER_3
 40
0.1058
 41
0.1058
 66
1
 10
0
 20
0
 30
0
  0
VERTEX
  8
LAYER_3
 10
153.5692
 20
-45.8625
  0
VERTEX
  8
LAYER_3
 10
153.5692
 20
-26.8822
  0
SEQEND
  0
ENDBLK
  0
BLOCK
  8
LAYER_3
  2
AIGNBL03020058
 70
64
 10
0
 20
0
 30
0
  3
AIGNBL03020058
  0
POLYLINE
  8
LAYER_3
 40
0.1058
 41
0.1058
 66
1
 10
0
 20
0
 30
0
  0
VERTEX
  8
LAYER_3
 10
104.5692
 20
-45.8625
  0
VERTEX
  8
LAYER_3
 10
104.5692
 20
-26.8822
  0
SEQEND
  0
ENDBLK
  0
BLOCK
  8
LAYER_3
  2
AIGNBL03020059
 70
64
 10
0
 20
0
 30
0
  3
AIGNBL03020059
  0
INSERT
  8
LAYER_3
  2
AIGNBL0303005A
 10
0
 20
0
 30
0
  0
ENDBLK
  0
BLOCK
  8
LAYER_3
  2
AIGNBL0302005E
 70
64
 10
0
 20
0
 30
0
  3
AIGNBL0302005E
  0
TEXT
  8
LAYER_3
 10
123.6207
 20
-27.1268
 11
123.6207
 21
-27.1268
 40
3.8668
 41
0.5
  1
%%c49.5
  0
ENDBLK
  0
BLOCK
  8
LAYER_3
  2
AIGNBL03020060
 70
64
 10
0
 20
0
 30
0
  3
AIGNBL03020060
  0
POLYLINE
  8
LAYER_3
 40
0.1058
 41
0.1058
 66
1
 10
0
 20
0
 30
0
  0
VERTEX
  8
LAYER_3
 10
112.44
 20
-55.6807
  0
VERTEX
  8
LAYER_3
 10
112.44
 20
-66.8457
  0
SEQEND
  0
ENDBLK
  0
BLOCK
  8
LAYER_3
  2
AIGNBL03020061
 70
64
 10
0
 20
0
 30
0
  3
AIGNBL03020061
  0
POLYLINE
  8
LAYER_3
 40
0.1058
 41
0.1058
 66
1
 10
0
 20
0
 30
0
  0
VERTEX
  8
LAYER_3
 10
145.6996
 20
-55.6807
  0
VERTEX
  8
LAYER_3
 10
145.6996
 20
-66.8457
  0
SEQEND
  0
ENDBLK
  0
BLOCK
  8
LAYER_3
  2
AIGNBL03020062
 70
64
 10
0
 20
0
 30
0
  3
AIGNBL03020062
  0
INSERT
  8
LAYER_3
  2
AIGNBL03030063
 10
0
 20
0
 30
0
  0
ENDBLK
  0
BLOCK
  8
LAYER_3
  2
AIGNBL03020067
 70
64
 10
0
 20
0
 30
0
  3
AIGNBL03020067
  0
TEXT
  8
LAYER_3
 10
123.0085
 20
-64.2716
 11
123.0085
 21
-64.2716
 40
3.8668
 41
0.5
  1
%%c33.6
  0
ENDBLK
  0
BLOCK
  8
LAYER_3
  2
AIGNBL03020074
 70
64
 10
0
 20
0
 30
0
  3
AIGNBL03020074
  0
POLYLINE
  8
LAYER_3
 40
0.05
 41
0.05
 66
1
 10
0
 20
0
 30
0
  0
VERTEX
  8
LAYER_3
 10
152.5792
 20
-109.706
  0
VERTEX
  8
LAYER_3
 10
146.64
 20
-109.706
  0
VERTEX
  8
LAYER_3
 10
146.64
 20
-112.6756
  0
VERTEX
  8
LAYER_3
 10
152.5792
 20
-112.6756
  0
VERTEX
  8
LAYER_3
 10
152.5792
 20
-109.706
  0
SEQEND
  0
POLYLINE
  8
LAYER_3
 40
0.05
 41
0.05
 66
1
 10
0
 20
0
 30
0
 70
1
  0
VERTEX
  8
LAYER_3
 10
105.5604
 20
-112.6756
  0
VERTEX
  8
LAYER_3
 10
111.4996
 20
-112.6756
  0
VERTEX
  8
LAYER_3
 10
111.4996
 20
-109.706
  0
VERTEX
  8
LAYER_3
 10
105.5604
 20
-109.706
  0
SEQEND
  0
ENDBLK
  0
BLOCK
  8
LAYER_3
  2
AIGNBL03020075
 70
64
 10
0
 20
0
 30
0
  3
AIGNBL03020075
  0
POLYLINE
  8
LAYER_3
 40
0.0882
 41
0.0882
 66
1
 10
0
 20
0
 30
0
  0
VERTEX
  8
LAYER_3
 10
151.9656
 20
-109.706
  0
VERTEX
  8
LAYER_3
 10
152.5792
 20
-110.3197
  0
SEQEND
  0
POLYLINE
  8
LAYER_3
 40
0.0882
 41
0.0882
 66
1
 10
0
 20
0
 30
0
  0
VERTEX
  8
LAYER_3
 10
149.7432
 20
-109.706
  0
VERTEX
  8
LAYER_3
 10
152.5792
 20
-112.542
  0
SEQEND
  0
POLYLINE
  8
LAYER_3
 40
0.0882
 41
0.0882
 66
1
 10
0
 20
0
 30
0
  0
VERTEX
  8
LAYER_3
 10
147.5209
 20
-109.706
  0
VERTEX
  8
LAYER_3
 10
150.4905
 20
-112.6756
  0
SEQEND
  0
POLYLINE
  8
LAYER_3
 40
0.0882
 41
0.0882
 66
1
 10
0
 20
0
 30
0
  0
VERTEX
  8
LAYER_3
 10
146.64
 20
-111.0474
  0
VERTEX
  8
LAYER_3
 10
148.2682
 20
-112.6756
  0
SEQEND
  0
POLYLINE
  8
LAYER_3
 40
0.0882
 41
0.0882
 66
1
 10
0
 20
0
 30
0
  0
VERTEX
  8
LAYER_3
 10
109.7414
 20
-109.706
  0
VERTEX
  8
LAYER_3
 10
111.4996
 20
-111.4642
  0
SEQEND
  0
POLYLINE
  8
LAYER_3
 40
0.0882
 41
0.0882
 66
1
 10
0
 20
0
 30
0
  0
VERTEX
  8
LAYER_3
 10
107.5191
 20
-109.706
  0
VERTEX
  8
LAYER_3
 10
110.4887
 20
-112.6756
  0
SEQEND
  0
POLYLINE
  8
LAYER_3
 40
0.0882
 41
0.0882
 66
1
 10
0
 20
0
 30
0
  0
VERTEX
  8
LAYER_3
 10
105.5604
 20
-109.9696
  0
VERTEX
  8
LAYER_3
 10
108.2664
 20
-112.6756
  0
SEQEND
  0
POLYLINE
  8
LAYER_3
 40
0.0882
 41
0.0882
 66
1
 10
0
 20
0
 30
0
  0
VERTEX
  8
LAYER_3
 10
105.5604
 20
-112.1919
  0
VERTEX
  8
LAYER_3
 10
106.0441
 20
-112.6756
  0
SEQEND
  0
ENDBLK
  0
BLOCK
  8
LAYER_3
  2
AIGNBL03020082
 70
64
 10
0
 20
0
 30
0
  3
AIGNBL03020082
  0
INSERT
  8
LAYER_3
  2
AIGNBL03030083
 10
0
 20
0
 30
0
  0
ENDBLK
  0
BLOCK
  8
LAYER_1
  2
AIGNBL01010002
 70
64
 10
0
 20
0
 30
0
  3
AIGNBL01010002
  0
INSERT
  8
LAYER_1
  2
AIGNBL01020003
 10
0
 20
0
 30
0
  0
INSERT
  8
LAYER_1
  2
AIGNBL0102000C
 10
0
 20
0
 30
0
  0
ENDBLK
  0
BLOCK
  8
LAYER_3
  2
AIGNBL03010002
 70
64
 10
0
 20
0
 30
0
  3
AIGNBL03010002
  0
INSERT
  8
LAYER_3
  2
AIGNBL03020003
 10
0
 20
0
 30
0
  0
INSERT
  8
LAYER_3
  2
AIGNBL03020004
 10
0
 20
0
 30
0
  0
INSERT
  8
LAYER_3
  2
AIGNBL03020005
 10
0
 20
0
 30
0
  0
INSERT
  8
LAYER_3
  2
AIGNBL0302000A
 10
0
 20
0
 30
0
  0
ENDBLK
  0
BLOCK
  8
LAYER_3
  2
AIGNBL0301000B
 70
64
 10
0
 20
0
 30
0
  3
AIGNBL0301000B
  0
INSERT
  8
LAYER_3
  2
AIGNBL0302000C
 10
0
 20
0
 30
0
  0
INSERT
  8
LAYER_3
  2
AIGNBL0302000D
 10
0
 20
0
 30
0
  0
INSERT
  8
LAYER_3
  2
AIGNBL0302000E
 10
0
 20
0
 30
0
  0
INSERT
  8
LAYER_3
  2
AIGNBL03020013
 10
0
 20
0
 30
0
  0
ENDBLK
  0
BLOCK
  8
LAYER_3
  2
AIGNBL03010014
 70
64
 10
0
 20
0
 30
0
  3
AIGNBL03010014
  0
INSERT
  8
LAYER_3
  2
AIGNBL03020015
 10
0
 20
0
 30
0
  0
INSERT
  8
LAYER_3
  2
AIGNBL03020016
 10
0
 20
0
 30
0
  0
INSERT
  8
LAYER_3
  2
AIGNBL03020017
 10
0
 20
0
 30
0
  0
INSERT
  8
LAYER_3
  2
AIGNBL03020018
 10
0
 20
0
 30
0
  0
INSERT
  8
LAYER_3
  2
AIGNBL03020019
 10
0
 20
0
 30
0
  0
INSERT
  8
LAYER_3
  2
AIGNBL0302001A
 10
0
 20
0
 30
0
  0
ENDBLK
  0
BLOCK
  8
LAYER_3
  2
AIGNBL0301001B
 70
64
 10
0
 20
0
 30
0
  3
AIGNBL0301001B
  0
INSERT
  8
LAYER_3
  2
AIGNBL0302001C
 10
0
 20
0
 30
0
  0
INSERT
  8
LAYER_3
  2
AIGNBL0302001D
 10
0
 20
0
 30
0
  0
INSERT
  8
LAYER_3
  2
AIGNBL0302001E
 10
0
 20
0
 30
0
  0
INSERT
  8
LAYER_3
  2
AIGNBL03020023
 10
0
 20
0
 30
0
  0
ENDBLK
  0
BLOCK
  8
LAYER_3
  2
AIGNBL03010024
 70
64
 10
0
 20
0
 30
0
  3
AIGNBL03010024
  0
INSERT
  8
LAYER_3
  2
AIGNBL03020025
 10
0
 20
0
 30
0
  0
INSERT
  8
LAYER_3
  2
AIGNBL03020026
 10
0
 20
0
 30
0
  0
INSERT
  8
LAYER_3
  2
AIGNBL03020027
 10
0
 20
0
 30
0
  0
INSERT
  8
LAYER_3
  2
AIGNBL0302002C
 10
0
 20
0
 30
0
  0
ENDBLK
  0
BLOCK
  8
LAYER_3
  2
AIGNBL0301002D
 70
64
 10
0
 20
0
 30
0
  3
AIGNBL0301002D
  0
INSERT
  8
LAYER_3
  2
AIGNBL0302002E
 10
0
 20
0
 30
0
  0
INSERT
  8
LAYER_3
  2
AIGNBL0302002F
 10
0
 20
0
 30
0
  0
INSERT
  8
LAYER_3
  2
AIGNBL03020030
 10
0
 20
0
 30
0
  0
INSERT
  8
LAYER_3
  2
AIGNBL03020031
 10
0
 20
0
 30
0
  0
INSERT
  8
LAYER_3
  2
AIGNBL03020032
 10
0
 20
0
 30
0
  0
INSERT
  8
LAYER_3
  2
AIGNBL03020033
 10
0
 20
0
 30
0
  0
ENDBLK
  0
BLOCK
  8
LAYER_3
  2
AIGNBL03010034
 70
64
 10
0
 20
0
 30
0
  3
AIGNBL03010034
  0
TEXT
  8
LAYER_3
 10
47.0918
 20
-51.6438
 11
47.0918
 21
-51.6438
 40
4.3291
 41
0.5
  1
カウンターホールアダプター
  0
ENDBLK
  0
BLOCK
  8
LAYER_3
  2
AIGNBL03010035
 70
64
 10
0
 20
0
 30
0
  3
AIGNBL03010035
  0
TEXT
  8
LAYER_3
 10
71.0589
 20
-112.6149
 11
71.0589
 21
-112.6149
 40
4.3291
 41
0.5
  1
シートパッキン
  0
ENDBLK
  0
BLOCK
  8
LAYER_3
  2
AIGNBL03010036
 70
64
 10
0
 20
0
 30
0
  3
AIGNBL03010036
  0
TEXT
  8
LAYER_3
 10
91.5734
 20
-160.7278
 11
91.5734
 21
-160.7278
 40
4.3291
 41
0.5
  1
座金
  0
ENDBLK
  0
BLOCK
  8
LAYER_3
  2
AIGNBL03010037
 70
64
 10
0
 20
0
 30
0
  3
AIGNBL03010037
  0
POLYLINE
  8
LAYER_3
 40
0.1058
 41
0.1058
 66
1
 10
0
 20
0
 30
0
  0
VERTEX
  8
LAYER_3
 10
145.6996
 20
-49.4885
  0
VERTEX
  8
LAYER_3
 10
152.5792
 20
-49.4885
  0
SEQEND
  0
ENDBLK
  0
BLOCK
  8
LAYER_3
  2
AIGNBL03010038
 70
64
 10
0
 20
0
 30
0
  3
AIGNBL03010038
  0
POLYLINE
  8
LAYER_3
 40
0.1058
 41
0.1058
 66
1
 10
0
 20
0
 30
0
  0
VERTEX
  8
LAYER_3
 10
145.6996
 20
-50.4784
  0
VERTEX
  8
LAYER_3
 10
153.5691
 20
-50.4784
  0
SEQEND
  0
ENDBLK
  0
BLOCK
  8
LAYER_3
  2
AIGNBL03010039
 70
64
 10
0
 20
0
 30
0
  3
AIGNBL03010039
  0
POLYLINE
  8
LAYER_3
 40
0.1058
 41
0.1058
 66
1
 10
0
 20
0
 30
0
  0
VERTEX
  8
LAYER_3
 10
153.5691
 20
-50.4784
  0
VERTEX
  8
LAYER_3
 10
153.5691
 20
-48.4986
  0
SEQEND
  0
ENDBLK
  0
BLOCK
  8
LAYER_3
  2
AIGNBL0301003A
 70
64
 10
0
 20
0
 30
0
  3
AIGNBL0301003A
  0
POLYLINE
  8
LAYER_3
  6
AIGENLINE003
 40
0.1058
 41
0.1058
 66
1
 10
0
 20
0
 30
0
 70
128
  0
VERTEX
  8
LAYER_3
 10
129.0698
 20
-43.1054
  0
VERTEX
  8
LAYER_3
 10
129.0698
 20
-57.5184
  0
SEQEND
  0
ENDBLK
  0
BLOCK
  8
LAYER_3
  2
AIGNBL0301003B
 70
64
 10
0
 20
0
 30
0
  3
AIGNBL0301003B
  0
POLYLINE
  8
LAYER_3
 40
0.1058
 41
0.1058
 66
1
 10
0
 20
0
 30
0
  0
VERTEX
  8
LAYER_3
 10
145.6996
 20
-52.953
  0
VERTEX
  8
LAYER_3
 10
145.6996
 20
-49.4885
  0
SEQEND
  0
ENDBLK
  0
BLOCK
  8
LAYER_3
  2
AIGNBL0301003C
 70
64
 10
0
 20
0
 30
0
  3
AIGNBL0301003C
  0
POLYLINE
  8
LAYER_3
 40
0.1058
 41
0.1058
 66
1
 10
0
 20
0
 30
0
  0
VERTEX
  8
LAYER_3
 10
152.5792
 20
-50.4784
  0
VERTEX
  8
LAYER_3
 10
152.5792
 20
-49.4885
  0
SEQEND
  0
ENDBLK
  0
BLOCK
  8
LAYER_3
  2
AIGNBL0301003D
 70
64
 10
0
 20
0
 30
0
  3
AIGNBL0301003D
  0
POLYLINE
  8
LAYER_3
 40
0.1058
 41
0.1058
 66
1
 10
0
 20
0
 30
0
  0
VERTEX
  8
LAYER_3
 10
129.0698
 20
-47.5087
  0
VERTEX
  8
LAYER_3
 10
152.5792
 20
-47.5087
  0
SEQEND
  0
ENDBLK
  0
BLOCK
  8
LAYER_3
  2
AIGNBL0301003E
 70
64
 10
0
 20
0
 30
0
  3
AIGNBL0301003E
  0
POLYLINE
  8
LAYER_3
 40
0.1058
 41
0.1058
 66
1
 10
0
 20
0
 30
0
  0
VERTEX
  8
LAYER_3
 10
153.5691
 20
-48.4986
 42
0.4142175663
  0
VERTEX
  8
LAYER_3
 10
152.5792
 20
-47.5087
  0
SEQEND
  0
ENDBLK
  0
BLOCK
  8
LAYER_3
  2
AIGNBL0301003F
 70
64
 10
0
 20
0
 30
0
  3
AIGNBL0301003F
  0
POLYLINE
  8
LAYER_3
 40
0.1058
 41
0.1058
 66
1
 10
0
 20
0
 30
0
  0
VERTEX
  8
LAYER_3
 10
140.9482
 20
-48.0037
  0
VERTEX
  8
LAYER_3
 10
141.4432
 20
-47.5087
  0
SEQEND
  0
ENDBLK
  0
BLOCK
  8
LAYER_3
  2
AIGNBL03010040
 70
64
 10
0
 20
0
 30
0
  3
AIGNBL03010040
  0
POLYLINE
  8
LAYER_3
 40
0.1058
 41
0.1058
 66
1
 10
0
 20
0
 30
0
  0
VERTEX
  8
LAYER_3
 10
129.0698
 20
-52.953
  0
VERTEX
  8
LAYER_3
 10
112.44
 20
-52.953
  0
SEQEND
  0
ENDBLK
  0
BLOCK
  8
LAYER_3
  2
AIGNBL03010041
 70
64
 10
0
 20
0
 30
0
  3
AIGNBL03010041
  0
POLYLINE
  8
LAYER_3
 40
0.1058
 41
0.1058
 66
1
 10
0
 20
0
 30
0
  0
VERTEX
  8
LAYER_3
 10
145.6996
 20
-52.953
  0
VERTEX
  8
LAYER_3
 10
145.2047
 20
-53.448
  0
SEQEND
  0
ENDBLK
  0
BLOCK
  8
LAYER_3
  2
AIGNBL03010042
 70
64
 10
0
 20
0
 30
0
  3
AIGNBL03010042
  0
POLYLINE
  8
LAYER_3
 40
0.1058
 41
0.1058
 66
1
 10
0
 20
0
 30
0
  0
VERTEX
  8
LAYER_3
 10
129.0698
 20
-48.0037
  0
VERTEX
  8
LAYER_3
 10
140.9482
 20
-48.0037
  0
SEQEND
  0
ENDBLK
  0
BLOCK
  8
LAYER_3
  2
AIGNBL03010043
 70
64
 10
0
 20
0
 30
0
  3
AIGNBL03010043
  0
INSERT
  8
LAYER_3
  2
AIGNBL03020044
 10
0
 20
0
 30
0
  0
INSERT
  8
LAYER_3
  2
AIGNBL03020045
 10
0
 20
0
 30
0
  0
INSERT
  8
LAYER_3
  2
AIGNBL03020046
 10
0
 20
0
 30
0
  0
INSERT
  8
LAYER_3
  2
AIGNBL03020047
 10
0
 20
0
 30
0
  0
ENDBLK
  0
BLOCK
  8
LAYER_3
  2
AIGNBL03010048
 70
64
 10
0
 20
0
 30
0
  3
AIGNBL03010048
  0
INSERT
  8
LAYER_3
  2
AIGNBL03020049
 10
0
 20
0
 30
0
  0
INSERT
  8
LAYER_3
  2
AIGNBL0302004A
 10
0
 20
0
 30
0
  0
INSERT
  8
LAYER_3
  2
AIGNBL0302004B
 10
0
 20
0
 30
0
  0
INSERT
  8
LAYER_3
  2
AIGNBL0302004C
 10
0
 20
0
 30
0
  0
INSERT
  8
LAYER_3
  2
AIGNBL0302004D
 10
0
 20
0
 30
0
  0
INSERT
  8
LAYER_3
  2
AIGNBL0302004E
 10
0
 20
0
 30
0
  0
ENDBLK
  0
BLOCK
  8
LAYER_3
  2
AIGNBL0301004F
 70
64
 10
0
 20
0
 30
0
  3
AIGNBL0301004F
  0
INSERT
  8
LAYER_3
  2
AIGNBL03020050
 10
0
 20
0
 30
0
  0
INSERT
  8
LAYER_3
  2
AIGNBL03020051
 10
0
 20
0
 30
0
  0
INSERT
  8
LAYER_3
  2
AIGNBL03020055
 10
0
 20
0
 30
0
  0
ENDBLK
  0
BLOCK
  8
LAYER_3
  2
AIGNBL03010056
 70
64
 10
0
 20
0
 30
0
  3
AIGNBL03010056
  0
INSERT
  8
LAYER_3
  2
AIGNBL03020057
 10
0
 20
0
 30
0
  0
INSERT
  8
LAYER_3
  2
AIGNBL03020058
 10
0
 20
0
 30
0
  0
INSERT
  8
LAYER_3
  2
AIGNBL03020059
 10
0
 20
0
 30
0
  0
INSERT
  8
LAYER_3
  2
AIGNBL0302005E
 10
0
 20
0
 30
0
  0
ENDBLK
  0
BLOCK
  8
LAYER_3
  2
AIGNBL0301005F
 70
64
 10
0
 20
0
 30
0
  3
AIGNBL0301005F
  0
INSERT
  8
LAYER_3
  2
AIGNBL03020060
 10
0
 20
0
 30
0
  0
INSERT
  8
LAYER_3
  2
AIGNBL03020061
 10
0
 20
0
 30
0
  0
INSERT
  8
LAYER_3
  2
AIGNBL03020062
 10
0
 20
0
 30
0
  0
INSERT
  8
LAYER_3
  2
AIGNBL03020067
 10
0
 20
0
 30
0
  0
ENDBLK
  0
BLOCK
  8
LAYER_3
  2
AIGNBL03010068
 70
64
 10
0
 20
0
 30
0
  3
AIGNBL03010068
  0
POLYLINE
  8
LAYER_3
 40
0.1058
 41
0.1058
 66
1
 10
0
 20
0
 30
0
  0
VERTEX
  8
LAYER_3
 10
112.44
 20
-52.953
  0
VERTEX
  8
LAYER_3
 10
112.44
 20
-50.4784
  0
SEQEND
  0
ENDBLK
  0
BLOCK
  8
LAYER_3
  2
AIGNBL03010069
 70
64
 10
0
 20
0
 30
0
  3
AIGNBL03010069
  0
POLYLINE
  8
LAYER_3
 40
0.1058
 41
0.1058
 66
1
 10
0
 20
0
 30
0
  0
VERTEX
  8
LAYER_3
 10
112.9349
 20
-53.448
  0
VERTEX
  8
LAYER_3
 10
129.0698
 20
-53.448
  0
SEQEND
  0
ENDBLK
  0
BLOCK
  8
LAYER_3
  2
AIGNBL0301006A
 70
64
 10
0
 20
0
 30
0
  3
AIGNBL0301006A
  0
POLYLINE
  8
LAYER_3
 40
0.1058
 41
0.1058
 66
1
 10
0
 20
0
 30
0
  0
VERTEX
  8
LAYER_3
 10
112.44
 20
-52.953
  0
VERTEX
  8
LAYER_3
 10
112.9349
 20
-53.448
  0
SEQEND
  0
ENDBLK
  0
BLOCK
  8
LAYER_3
  2
AIGNBL0301006B
 70
64
 10
0
 20
0
 30
0
  3
AIGNBL0301006B
  0
POLYLINE
  8
LAYER_3
 40
0.1058
 41
0.1058
 66
1
 10
0
 20
0
 30
0
  0
VERTEX
  8
LAYER_3
 10
129.0698
 20
-50.4784
  0
VERTEX
  8
LAYER_3
 10
104.5705
 20
-50.4784
  0
SEQEND
  0
ENDBLK
  0
BLOCK
  8
LAYER_3
  2
AIGNBL0301006C
 70
64
 10
0
 20
0
 30
0
  3
AIGNBL0301006C
  0
POLYLINE
  8
LAYER_3
 40
0.1058
 41
0.1058
 66
1
 10
0
 20
0
 30
0
  0
VERTEX
  8
LAYER_3
 10
104.5705
 20
-50.4784
  0
VERTEX
  8
LAYER_3
 10
104.5705
 20
-48.4986
  0
SEQEND
  0
ENDBLK
  0
BLOCK
  8
LAYER_3
  2
AIGNBL0301006D
 70
64
 10
0
 20
0
 30
0
  3
AIGNBL0301006D
  0
POLYLINE
  8
LAYER_3
 40
0.1058
 41
0.1058
 66
1
 10
0
 20
0
 30
0
  0
VERTEX
  8
LAYER_3
 10
129.0698
 20
-47.5087
  0
VERTEX
  8
LAYER_3
 10
105.5604
 20
-47.5087
  0
SEQEND
  0
ENDBLK
  0
BLOCK
  8
LAYER_3
  2
AIGNBL0301006E
 70
64
 10
0
 20
0
 30
0
  3
AIGNBL0301006E
  0
POLYLINE
  8
LAYER_3
 40
0.1058
 41
0.1058
 66
1
 10
0
 20
0
 30
0
  0
VERTEX
  8
LAYER_3
 10
105.5604
 20
-47.5087
 42
0.4142162843
  0
VERTEX
  8
LAYER_3
 10
104.5705
 20
-48.4986
  0
SEQEND
  0
ENDBLK
  0
BLOCK
  8
LAYER_3
  2
AIGNBL0301006F
 70
64
 10
0
 20
0
 30
0
  3
AIGNBL0301006F
  0
POLYLINE
  8
LAYER_3
 40
0.1058
 41
0.1058
 66
1
 10
0
 20
0
 30
0
  0
VERTEX
  8
LAYER_3
 10
129.0698
 20
-52.953
  0
VERTEX
  8
LAYER_3
 10
140.9482
 20
-52.953
  0
SEQEND
  0
ENDBLK
  0
BLOCK
  8
LAYER_3
  2
AIGNBL03010070
 70
64
 10
0
 20
0
 30
0
  3
AIGNBL03010070
  0
POLYLINE
  8
LAYER_3
 40
0.1058
 41
0.1058
 66
1
 10
0
 20
0
 30
0
  0
VERTEX
  8
LAYER_3
 10
145.2047
 20
-53.448
  0
VERTEX
  8
LAYER_3
 10
129.0698
 20
-53.448
  0
SEQEND
  0
ENDBLK
  0
BLOCK
  8
LAYER_3
  2
AIGNBL03010071
 70
64
 10
0
 20
0
 30
0
  3
AIGNBL03010071
  0
POLYLINE
  8
LAYER_3
 40
0.1058
 41
0.1058
 66
1
 10
0
 20
0
 30
0
  0
VERTEX
  8
LAYER_3
 10
140.9482
 20
-52.953
  0
VERTEX
  8
LAYER_3
 10
140.9482
 20
-48.0037
  0
SEQEND
  0
ENDBLK
  0
BLOCK
  8
LAYER_3
  2
AIGNBL03010072
 70
64
 10
0
 20
0
 30
0
  3
AIGNBL03010072
  0
POLYLINE
  8
LAYER_3
 40
0.1058
 41
0.1058
 66
1
 10
0
 20
0
 30
0
  0
VERTEX
  8
LAYER_3
 10
140.9482
 20
-52.953
  0
VERTEX
  8
LAYER_3
 10
141.4432
 20
-53.448
  0
SEQEND
  0
ENDBLK
  0
BLOCK
  8
LAYER_3
  2
AIGNBL03010073
 70
64
 10
0
 20
0
 30
0
  3
AIGNBL03010073
  0
INSERT
  8
LAYER_3
  2
AIGNBL03020074
 10
0
 20
0
 30
0
  0
INSERT
  8
LAYER_3
  2
AIGNBL03020075
 10
0
 20
0
 30
0
  0
ENDBLK
  0
BLOCK
  8
LAYER_3
  2
AIGNBL03010076
 70
64
 10
0
 20
0
 30
0
  3
AIGNBL03010076
  0
POLYLINE
  8
LAYER_3
 40
0.1058
 41
0.1058
 66
1
 10
0
 20
0
 30
0
  0
VERTEX
  8
LAYER_3
 10
152.5792
 20
-109.706
  0
VERTEX
  8
LAYER_3
 10
105.5604
 20
-109.706
  0
SEQEND
  0
ENDBLK
  0
BLOCK
  8
LAYER_3
  2
AIGNBL03010077
 70
64
 10
0
 20
0
 30
0
  3
AIGNBL03010077
  0
POLYLINE
  8
LAYER_3
 40
0.1058
 41
0.1058
 66
1
 10
0
 20
0
 30
0
  0
VERTEX
  8
LAYER_3
 10
105.5604
 20
-109.706
  0
VERTEX
  8
LAYER_3
 10
105.5604
 20
-112.6756
  0
SEQEND
  0
ENDBLK
  0
BLOCK
  8
LAYER_3
  2
AIGNBL03010078
 70
64
 10
0
 20
0
 30
0
  3
AIGNBL03010078
  0
POLYLINE
  8
LAYER_3
 40
0.1058
 41
0.1058
 66
1
 10
0
 20
0
 30
0
  0
VERTEX
  8
LAYER_3
 10
105.5604
 20
-112.6756
  0
VERTEX
  8
LAYER_3
 10
152.5792
 20
-112.6756
  0
SEQEND
  0
ENDBLK
  0
BLOCK
  8
LAYER_3
  2
AIGNBL03010079
 70
64
 10
0
 20
0
 30
0
  3
AIGNBL03010079
  0
POLYLINE
  8
LAYER_3
 40
0.1058
 41
0.1058
 66
1
 10
0
 20
0
 30
0
  0
VERTEX
  8
LAYER_3
 10
152.5792
 20
-112.6756
  0
VERTEX
  8
LAYER_3
 10
152.5792
 20
-109.706
  0
SEQEND
  0
ENDBLK
  0
BLOCK
  8
LAYER_3
  2
AIGNBL0301007A
 70
64
 10
0
 20
0
 30
0
  3
AIGNBL0301007A
  0
POLYLINE
  8
LAYER_3
 40
0.1058
 41
0.1058
 66
1
 10
0
 20
0
 30
0
  0
VERTEX
  8
LAYER_3
 10
146.64
 20
-109.706
  0
VERTEX
  8
LAYER_3
 10
146.64
 20
-112.6756
  0
SEQEND
  0
ENDBLK
  0
BLOCK
  8
LAYER_3
  2
AIGNBL0301007B
 70
64
 10
0
 20
0
 30
0
  3
AIGNBL0301007B
  0
POLYLINE
  8
LAYER_3
 40
0.1058
 41
0.1058
 66
1
 10
0
 20
0
 30
0
  0
VERTEX
  8
LAYER_3
 10
111.4996
 20
-109.706
  0
VERTEX
  8
LAYER_3
 10
111.4996
 20
-112.6756
  0
SEQEND
  0
ENDBLK
  0
BLOCK
  8
LAYER_3
  2
AIGNBL0301007C
 70
64
 10
0
 20
0
 30
0
  3
AIGNBL0301007C
  0
POLYLINE
  8
LAYER_3
  6
AIGENLINE003
 40
0.1058
 41
0.1058
 66
1
 10
0
 20
0
 30
0
 70
128
  0
VERTEX
  8
LAYER_3
 10
129.0698
 20
-106.7364
  0
VERTEX
  8
LAYER_3
 10
129.0698
 20
-115.6452
  0
SEQEND
  0
ENDBLK
  0
BLOCK
  8
LAYER_3
  2
AIGNBL0301007D
 70
64
 10
0
 20
0
 30
0
  3
AIGNBL0301007D
  0
POLYLINE
  8
LAYER_3
 40
0.1058
 41
0.1058
 66
1
 10
0
 20
0
 30
0
  0
VERTEX
  8
LAYER_3
 10
151.8368
 20
-157.8315
  0
VERTEX
  8
LAYER_3
 10
151.8368
 20
-160.8011
  0
SEQEND
  0
ENDBLK
  0
BLOCK
  8
LAYER_3
  2
AIGNBL0301007E
 70
64
 10
0
 20
0
 30
0
  3
AIGNBL0301007E
  0
POLYLINE
  8
LAYER_3
 40
0.1058
 41
0.1058
 66
1
 10
0
 20
0
 30
0
  0
VERTEX
  8
LAYER_3
 10
151.8368
 20
-160.8011
  0
VERTEX
  8
LAYER_3
 10
106.3028
 20
-160.8011
  0
SEQEND
  0
ENDBLK
  0
BLOCK
  8
LAYER_3
  2
AIGNBL0301007F
 70
64
 10
0
 20
0
 30
0
  3
AIGNBL0301007F
  0
POLYLINE
  8
LAYER_3
 40
0.1058
 41
0.1058
 66
1
 10
0
 20
0
 30
0
  0
VERTEX
  8
LAYER_3
 10
106.3028
 20
-157.8315
  0
VERTEX
  8
LAYER_3
 10
151.8368
 20
-157.8315
  0
SEQEND
  0
ENDBLK
  0
BLOCK
  8
LAYER_3
  2
AIGNBL03010080
 70
64
 10
0
 20
0
 30
0
  3
AIGNBL03010080
  0
POLYLINE
  8
LAYER_3
 40
0.1058
 41
0.1058
 66
1
 10
0
 20
0
 30
0
  0
VERTEX
  8
LAYER_3
 10
140.9482
 20
-157.8315
  0
VERTEX
  8
LAYER_3
 10
140.9482
 20
-160.8011
  0
SEQEND
  0
ENDBLK
  0
BLOCK
  8
LAYER_3
  2
AIGNBL03010081
 70
64
 10
0
 20
0
 30
0
  3
AIGNBL03010081
  0
INSERT
  8
LAYER_3
  2
AIGNBL03020082
 10
0
 20
0
 30
0
  0
ENDBLK
  0
BLOCK
  8
LAYER_3
  2
AIGNBL03010084
 70
64
 10
0
 20
0
 30
0
  3
AIGNBL03010084
  0
POLYLINE
  8
LAYER_3
 40
0.1058
 41
0.1058
 66
1
 10
0
 20
0
 30
0
  0
VERTEX
  8
LAYER_3
 10
106.3028
 20
-157.8315
  0
VERTEX
  8
LAYER_3
 10
106.3028
 20
-160.8011
  0
SEQEND
  0
ENDBLK
  0
BLOCK
  8
LAYER_3
  2
AIGNBL03010085
 70
64
 10
0
 20
0
 30
0
  3
AIGNBL03010085
  0
POLYLINE
  8
LAYER_3
 40
0.1058
 41
0.1058
 66
1
 10
0
 20
0
 30
0
  0
VERTEX
  8
LAYER_3
 10
117.1914
 20
-157.8315
  0
VERTEX
  8
LAYER_3
 10
117.1914
 20
-160.8011
  0
SEQEND
  0
ENDBLK
  0
BLOCK
  8
LAYER_6
  2
AIGNBL06010002
 70
64
 10
0
 20
0
 30
0
  3
AIGNBL06010002
  0
POLYLINE
  8
LAYER_6
 40
0.7056
 41
0.7056
 66
1
 10
0
 20
0
 30
0
 70
1
  0
VERTEX
  8
LAYER_6
 10
33.7873
 20
22.6587
  0
VERTEX
  8
LAYER_6
 10
230.7955
 20
22.6587
  0
VERTEX
  8
LAYER_6
 10
230.7955
 20
-259.334
  0
VERTEX
  8
LAYER_6
 10
33.7873
 20
-259.334
  0
SEQEND
  0
ENDBLK
  0
ENDSEC
  0
SECTION
  2
ENTITIES
  0
INSERT
  8
LAYER_1
  2
AIGNBL01010002
 10
0
 20
0
 30
0
  0
INSERT
  8
LAYER_3
  2
AIGNBL03010002
 10
0
 20
0
 30
0
  0
INSERT
  8
LAYER_3
  2
AIGNBL0301000B
 10
0
 20
0
 30
0
  0
INSERT
  8
LAYER_3
  2
AIGNBL03010014
 10
0
 20
0
 30
0
  0
INSERT
  8
LAYER_3
  2
AIGNBL0301001B
 10
0
 20
0
 30
0
  0
INSERT
  8
LAYER_3
  2
AIGNBL03010024
 10
0
 20
0
 30
0
  0
INSERT
  8
LAYER_3
  2
AIGNBL0301002D
 10
0
 20
0
 30
0
  0
INSERT
  8
LAYER_3
  2
AIGNBL03010034
 10
0
 20
0
 30
0
  0
INSERT
  8
LAYER_3
  2
AIGNBL03010035
 10
0
 20
0
 30
0
  0
INSERT
  8
LAYER_3
  2
AIGNBL03010036
 10
0
 20
0
 30
0
  0
INSERT
  8
LAYER_3
  2
AIGNBL03010037
 10
0
 20
0
 30
0
  0
INSERT
  8
LAYER_3
  2
AIGNBL03010038
 10
0
 20
0
 30
0
  0
INSERT
  8
LAYER_3
  2
AIGNBL03010039
 10
0
 20
0
 30
0
  0
INSERT
  8
LAYER_3
  2
AIGNBL0301003A
 10
0
 20
0
 30
0
  0
INSERT
  8
LAYER_3
  2
AIGNBL0301003B
 10
0
 20
0
 30
0
  0
INSERT
  8
LAYER_3
  2
AIGNBL0301003C
 10
0
 20
0
 30
0
  0
INSERT
  8
LAYER_3
  2
AIGNBL0301003D
 10
0
 20
0
 30
0
  0
INSERT
  8
LAYER_3
  2
AIGNBL0301003E
 10
0
 20
0
 30
0
  0
INSERT
  8
LAYER_3
  2
AIGNBL0301003F
 10
0
 20
0
 30
0
  0
INSERT
  8
LAYER_3
  2
AIGNBL03010040
 10
0
 20
0
 30
0
  0
INSERT
  8
LAYER_3
  2
AIGNBL03010041
 10
0
 20
0
 30
0
  0
INSERT
  8
LAYER_3
  2
AIGNBL03010042
 10
0
 20
0
 30
0
  0
INSERT
  8
LAYER_3
  2
AIGNBL03010043
 10
0
 20
0
 30
0
  0
INSERT
  8
LAYER_3
  2
AIGNBL03010048
 10
0
 20
0
 30
0
  0
INSERT
  8
LAYER_3
  2
AIGNBL0301004F
 10
0
 20
0
 30
0
  0
INSERT
  8
LAYER_3
  2
AIGNBL03010056
 10
0
 20
0
 30
0
  0
INSERT
  8
LAYER_3
  2
AIGNBL0301005F
 10
0
 20
0
 30
0
  0
INSERT
  8
LAYER_3
  2
AIGNBL03010068
 10
0
 20
0
 30
0
  0
INSERT
  8
LAYER_3
  2
AIGNBL03010069
 10
0
 20
0
 30
0
  0
INSERT
  8
LAYER_3
  2
AIGNBL0301006A
 10
0
 20
0
 30
0
  0
INSERT
  8
LAYER_3
  2
AIGNBL0301006B
 10
0
 20
0
 30
0
  0
INSERT
  8
LAYER_3
  2
AIGNBL0301006C
 10
0
 20
0
 30
0
  0
INSERT
  8
LAYER_3
  2
AIGNBL0301006D
 10
0
 20
0
 30
0
  0
INSERT
  8
LAYER_3
  2
AIGNBL0301006E
 10
0
 20
0
 30
0
  0
INSERT
  8
LAYER_3
  2
AIGNBL0301006F
 10
0
 20
0
 30
0
  0
INSERT
  8
LAYER_3
  2
AIGNBL03010070
 10
0
 20
0
 30
0
  0
INSERT
  8
LAYER_3
  2
AIGNBL03010071
 10
0
 20
0
 30
0
  0
INSERT
  8
LAYER_3
  2
AIGNBL03010072
 10
0
 20
0
 30
0
  0
INSERT
  8
LAYER_3
  2
AIGNBL03010073
 10
0
 20
0
 30
0
  0
INSERT
  8
LAYER_3
  2
AIGNBL03010076
 10
0
 20
0
 30
0
  0
INSERT
  8
LAYER_3
  2
AIGNBL03010077
 10
0
 20
0
 30
0
  0
INSERT
  8
LAYER_3
  2
AIGNBL03010078
 10
0
 20
0
 30
0
  0
INSERT
  8
LAYER_3
  2
AIGNBL03010079
 10
0
 20
0
 30
0
  0
INSERT
  8
LAYER_3
  2
AIGNBL0301007A
 10
0
 20
0
 30
0
  0
INSERT
  8
LAYER_3
  2
AIGNBL0301007B
 10
0
 20
0
 30
0
  0
INSERT
  8
LAYER_3
  2
AIGNBL0301007C
 10
0
 20
0
 30
0
  0
INSERT
  8
LAYER_3
  2
AIGNBL0301007D
 10
0
 20
0
 30
0
  0
INSERT
  8
LAYER_3
  2
AIGNBL0301007E
 10
0
 20
0
 30
0
  0
INSERT
  8
LAYER_3
  2
AIGNBL0301007F
 10
0
 20
0
 30
0
  0
INSERT
  8
LAYER_3
  2
AIGNBL03010080
 10
0
 20
0
 30
0
  0
INSERT
  8
LAYER_3
  2
AIGNBL03010081
 10
0
 20
0
 30
0
  0
INSERT
  8
LAYER_3
  2
AIGNBL03010084
 10
0
 20
0
 30
0
  0
INSERT
  8
LAYER_3
  2
AIGNBL03010085
 10
0
 20
0
 30
0
  0
INSERT
  8
LAYER_6
  2
AIGNBL06010002
 10
0
 20
0
 30
0
  0
POLYLINE
  8
LAYER_6
 40
0.3528
 41
0.3528
 66
1
 10
0
 20
0
 30
0
  0
VERTEX
  8
LAYER_6
 10
34.7876
 20
-258.3332
  0
VERTEX
  8
LAYER_6
 10
229.7955
 20
-258.3332
  0
VERTEX
  8
LAYER_6
 10
229.7955
 20
21.6583
  0
VERTEX
  8
LAYER_6
 10
34.7876
 20
21.6583
  0
VERTEX
  8
LAYER_6
 10
34.7876
 20
-258.3332
  0
SEQEND
  0
TEXT
  8
LAYER_6
 10
152.8106
 20
-248.7955
 11
152.8106
 21
-248.7955
 40
3.4801
 41
0.5
  1
●TEL 0120-65-1232●FAX 06-6532-1580
  0
TEXT
  8
LAYER_6
 10
152.8106
 20
-252.3388
 11
152.8106
 21
-252.3388
 40
3.4801
 41
0.5
  1
hits@hiratatile.co.jp
  0
TEXT
  8
LAYER_6
 10
37.8495
 20
-250.3797
 11
37.8495
 21
-250.3797
 40
3.277
 41
0.5
  1
仕様
  0
POLYLINE
  8
LAYER_6
 40
0.3528
 41
0.3528
 66
1
 10
0
 20
0
 30
0
  0
VERTEX
  8
LAYER_6
 10
229.7955
 20
-241.6001
  0
VERTEX
  8
LAYER_6
 10
34.7874
 20
-241.6001
  0
SEQEND
  0
POLYLINE
  8
LAYER_6
 40
0.3528
 41
0.3528
 66
1
 10
0
 20
0
 30
0
  0
VERTEX
  8
LAYER_6
 10
229.7955
 20
-223.3039
  0
VERTEX
  8
LAYER_6
 10
34.7874
 20
-223.3039
  0
SEQEND
  0
TEXT
  8
LAYER_6
 10
35.9444
 20
-225.7804
 11
35.9444
 21
-225.7804
 40
2.1846
 41
0.5
  1
品名
  0
TEXT
  8
LAYER_6
 10
48.8795
 20
-228.8727
 11
48.8795
 21
-228.8727
 40
4.2606
 41
0.5
  1
単水栓取付用アダプター（35mm用）
  0
TEXT
  8
LAYER_6
 10
48.4217
 20
-248.6883
 11
48.4217
 21
-248.6883
 40
3.6537
 41
0.5
  1
●AQ-LFK612-187 /AQ-E1700用 
  0
TEXT
  8
LAYER_6
 10
48.4217
 20
-253.4384
 11
48.4217
 21
-253.4384
 40
3.0964
 41
0.5
  1
●クロム／焼付塗装
  0
TEXT
  8
LAYER_6
 10
116.9486
 20
-225.7806
 11
116.9486
 21
-225.7806
 40
2.1846
 41
0.5
  1
品番
  0
TEXT
  8
LAYER_6
 10
122.9706
 20
-228.9267
 11
122.9706
 21
-228.9267
 40
5.3134
 41
0.5
  1
AZ24-3638CH（クロム）
  0
TEXT
  8
LAYER_6
 10
122.9706
 20
-233.9266
 11
122.9706
 21
-233.9266
 40
5.3134
 41
0.5
  1
AZ24-3638M4（マットホワイト）
  0
TEXT
  8
LAYER_6
 10
122.9706
 20
-238.9268
 11
122.9706
 21
-238.9268
 40
5.3134
 41
0.5
  1
AZ24-3638M5（マットブラック）
  0
TEXT
  8
LAYER_6
 10
38.2063
 20
-219.4552
 11
38.2063
 21
-219.4552
 40
3.6537
 41
0.5
  1
取り付け穴径35mmのボウルに対象水栓を取り付けるために使用
  0
ENDSEC
  0
EOF
