  0
SECTION
  2
HEADER
  9
$ACADVER
  1
AC1014
  9
$ACADMAINTVER
 70
       0
  9
$DWGCODEPAGE
  3
ANSI_932
  9
$INSBASE
 10
0.0
 20
0.0
 30
0.0
  9
$EXTMIN
 10
-1320.26831809
 20
-1842.08333333
 30
0.0
  9
$EXTMAX
 10
1320.00915904
 20
1841.91666667
 30
0.0
  9
$LIMMIN
 10
-420.0
 20
-594.0
  9
$LIMMAX
 10
420.0
 20
594.0
  9
$ORTHOMODE
 70
       0
  9
$REGENMODE
 70
       1
  9
$FILLMODE
 70
       1
  9
$QTEXTMODE
 70
       0
  9
$MIRRTEXT
 70
       1
  9
$DRAGMODE
 70
       2
  9
$LTSCALE
 40
4.0
  9
$OSMODE
 70
       0
  9
$ATTMODE
 70
       1
  9
$TEXTSIZE
 40
0.2
  9
$TRACEWID
 40
0.05
  9
$TEXTSTYLE
  7
STANDARD
  9
$CLAYER
  8
0
  9
$CELTYPE
  6
CONTINUOUS
  9
$CECOLOR
 62
     256
  9
$CELTSCALE
 40
1.0
  9
$DELOBJ
 70
       1
  9
$DISPSILH
 70
       0
  9
$DIMSCALE
 40
1.0
  9
$DIMASZ
 40
8.0
  9
$DIMEXO
 40
0.0625
  9
$DIMDLI
 40
0.38
  9
$DIMRND
 40
0.0
  9
$DIMDLE
 40
0.0
  9
$DIMEXE
 40
0.18
  9
$DIMTP
 40
0.0
  9
$DIMTM
 40
0.0
  9
$DIMTXT
 40
8.0
  9
$DIMCEN
 40
0.09
  9
$DIMTSZ
 40
0.0
  9
$DIMTOL
 70
       0
  9
$DIMLIM
 70
       0
  9
$DIMTIH
 70
       1
  9
$DIMTOH
 70
       1
  9
$DIMSE1
 70
       0
  9
$DIMSE2
 70
       0
  9
$DIMTAD
 70
       0
  9
$DIMZIN
 70
       0
  9
$DIMBLK
  1

  9
$DIMASO
 70
       1
  9
$DIMSHO
 70
       1
  9
$DIMPOST
  1

  9
$DIMAPOST
  1

  9
$DIMALT
 70
       0
  9
$DIMALTD
 70
       2
  9
$DIMALTF
 40
25.4
  9
$DIMLFAC
 40
1.0
  9
$DIMTOFL
 70
       0
  9
$DIMTVP
 40
0.0
  9
$DIMTIX
 70
       0
  9
$DIMSOXD
 70
       0
  9
$DIMSAH
 70
       0
  9
$DIMBLK1
  1

  9
$DIMBLK2
  1

  9
$DIMSTYLE
  2
STANDARD
  9
$DIMCLRD
 70
       0
  9
$DIMCLRE
 70
       0
  9
$DIMCLRT
 70
       0
  9
$DIMTFAC
 40
1.0
  9
$DIMGAP
 40
0.09
  9
$DIMJUST
 70
       0
  9
$DIMSD1
 70
       0
  9
$DIMSD2
 70
       0
  9
$DIMTOLJ
 70
       1
  9
$DIMTZIN
 70
       0
  9
$DIMALTZ
 70
       0
  9
$DIMALTTZ
 70
       0
  9
$DIMFIT
 70
       3
  9
$DIMUPT
 70
       0
  9
$DIMUNIT
 70
       2
  9
$DIMDEC
 70
       4
  9
$DIMTDEC
 70
       4
  9
$DIMALTU
 70
       2
  9
$DIMALTTD
 70
       2
  9
$DIMTXSTY
  7
STANDARD
  9
$DIMAUNIT
 70
       0
  9
$LUNITS
 70
       2
  9
$LUPREC
 70
       4
  9
$SKETCHINC
 40
0.1
  9
$FILLETRAD
 40
0.0
  9
$AUNITS
 70
       0
  9
$AUPREC
 70
       0
  9
$MENU
  1
acad
  9
$ELEVATION
 40
0.0
  9
$PELEVATION
 40
0.0
  9
$THICKNESS
 40
0.0
  9
$LIMCHECK
 70
       0
  9
$BLIPMODE
 70
       1
  9
$CHAMFERA
 40
0.0
  9
$CHAMFERB
 40
0.0
  9
$CHAMFERC
 40
0.0
  9
$CHAMFERD
 40
0.0
  9
$SKPOLY
 70
       0
  9
$TDCREATE
 40
0.000000000
  9
$TDUPDATE
 40
0.000000000
  9
$TDINDWG
 40
0.0000000000
  9
$TDUSRTIMER
 40
0.0000000000
  9
$USRTIMER
 70
       1
  9
$ANGBASE
 50
0.0
  9
$ANGDIR
 70
       0
  9
$PDMODE
 70
       0
  9
$PDSIZE
 40
1.0
  9
$PLINEWID
 40
0.0
  9
$COORDS
 70
       1
  9
$SPLFRAME
 70
       0
  9
$SPLINETYPE
 70
       6
  9
$SPLINESEGS
 70
       8
  9
$ATTDIA
 70
       0
  9
$ATTREQ
 70
       1
  9
$HANDLING
 70
       1
  9
$HANDSEED
  5
605
  9
$SURFTAB1
 70
       6
  9
$SURFTAB2
 70
       6
  9
$SURFTYPE
 70
       6
  9
$SURFU
 70
       6
  9
$SURFV
 70
       6
  9
$UCSNAME
  2

  9
$UCSORG
 10
0.0
 20
0.0
 30
0.0
  9
$UCSXDIR
 10
1.0
 20
0.0
 30
0.0
  9
$UCSYDIR
 10
0.0
 20
1.0
 30
0.0
  9
$PUCSNAME
  2

  9
$PUCSORG
 10
0.0
 20
0.0
 30
0.0
  9
$PUCSXDIR
 10
1.0
 20
0.0
 30
0.0
  9
$PUCSYDIR
 10
0.0
 20
1.0
 30
0.0
  9
$USERI1
 70
       0
  9
$USERI2
 70
       0
  9
$USERI3
 70
       0
  9
$USERI4
 70
       0
  9
$USERI5
 70
       0
  9
$USERR1
 40
0.0
  9
$USERR2
 40
0.0
  9
$USERR3
 40
0.0
  9
$USERR4
 40
0.0
  9
$USERR5
 40
0.0
  9
$WORLDVIEW
 70
       1
  9
$SHADEDGE
 70
       3
  9
$SHADEDIF
 70
      70
  9
$TILEMODE
 70
       1
  9
$MAXACTVP
 70
      16
  9
$PINSBASE
 10
0.0
 20
0.0
 30
0.0
  9
$PLIMCHECK
 70
       0
  9
$PEXTMIN
 10
1.00000000E+20
 20
1.00000000E+20
 30
1.00000000E+20
  9
$PEXTMAX
 10
-1.00000000E+20
 20
-1.00000000E+20
 30
-1.00000000E+20
  9
$PLIMMIN
 10
0.0
 20
0.0
  9
$PLIMMAX
 10
12.0
 20
9.0
  9
$UNITMODE
 70
       0
  9
$VISRETAIN
 70
       0
  9
$PLINEGEN
 70
       1
  9
$PSLTSCALE
 70
       0
  9
$TREEDEPTH
 70
    3020
  9
$PICKSTYLE
 70
       1
  9
$CMLSTYLE
  2
STANDARD
  9
$CMLJUST
 70
       0
  9
$CMLSCALE
 40
1.0
  9
$PROXYGRAPHICS
 70
       0
  9
$MEASUREMENT
 70
       0
  0
ENDSEC
  0
SECTION
  2
CLASSES
  0
CLASS
  1
LWPOLYLINE
  2
AcDbPolyline
  3
"AutoCAD"
 90
        0
280
       0
281
       1
  0
CLASS
  1
IMAGE
  2
AcDbRasterImage
  3
ISM
 90
      127
280
       0
281
       1
  0
CLASS
  1
OLE2FRAME
  2
AcDbOle2Frame
  3
""
 90
        0
280
       0
281
       1
  0
CLASS
  1
HATCH
  2
AcDbHatch
  3
"ACAD_SEDONA"
 90
        0
280
       0
281
       1
  0
CLASS
  1
DICTIONARYVAR
  2
AcDbDictionaryVar
  3
"AutoCAD"
 90
        0
280
       0
281
       0
  0
CLASS
  1
RASTERVARIABLES
  2
AcDbRasterVariables
  3
ISM
 90
        0
280
       0
281
       0
  0
CLASS
  1
IMAGEDEF
  2
AcDbRasterImageDef
  3
ISM
 90
        0
280
       0
281
       0
  0
CLASS
  1
IMAGEDEF_REACTOR
  2
AcDbRasterImageDefReactor
  3
ISM
 90
        1
280
       0
281
       0
  0
CLASS
  1
IDBUFFER
  2
AcDbIdBuffer
  3
"Acad"
 90
        0
280
       0
281
       0
  0
CLASS
  1
SPATIAL_FILTER
  2
AcDbSpatialFilter
  3
"Acad"
 90
        0
280
       0
281
       0
  0
CLASS
  1
XRECORD
  2
AcDbXrecord
  3
"<Built In>"
 90
        0
280
       0
281
       0
  0
CLASS
  1
SORTENTSTABLE
  2
AcDbSortentsTable
  3
"AutoCAD"
 90
        0
280
       0
281
       0
  0
CLASS
  1
LAYER_INDEX
  2
AcDbLayerIndex
  3
"Acad"
 90
        0
280
       0
281
       0
  0
CLASS
  1
SPATIAL_INDEX
  2
AcDbSpatialIndex
  3
"Acad"
 90
        0
280
       0
281
       0
  0
CLASS
  1
OBJECT_PTR
  2
CAseDLPNTableRecord
  3
"ASE-LPNTableRecord"
 90
        1
280
       0
281
       0
  0
CLASS
  1
LAYOUT
  2
AcDbLayout
  3
"AutoCAD 2000"
 90
        0
280
       0
281
       0
  0
CLASS
  1
PLOTSETTINGS
  2
AcDbPlotSettings
  3
"AutoCAD 2000"
 90
        0
280
       0
281
       0
  0
CLASS
  1
ACDBDICTIONARYWDFLT
  2
AcDbDictionaryWithDefault
  3
"AutoCAD 2000"
 90
        0
280
       0
281
       0
  0
CLASS
  1
ACDBPLACEHOLDER
  2
AcDbPlaceHolder
  3
"AutoCAD 2000"
 90
        0
280
       0
281
       0
  0
CLASS
  1
VBA_PROJECT
  2
AcDbVbaProject
  3
"acadvba"
 90
        0
280
       0
281
       0
  0
CLASS
  1
WIPEOUT
  2
AcDbWipeout
  3
WipeOut|AutoCAD Express Tool|expresstools@autodesk.com
 90
      127
280
       0
281
       1
  0
CLASS
  1
WIPEOUTVARIABLES
  2
AcDbWipeoutVariables
  3
WipeOut|AutoCAD Express Tool|expresstools@autodesk.com
 90
        0
280
       0
281
       0
  0
CLASS
  1
RTEXT
  2
RText
  3
RText|AutoCAD Express Tool|expresstools@autodesk.com
 90
        0
280
       0
281
       1
  0
CLASS
  1
ARCALIGNEDTEXT
  2
AcDbArcAlignedText
  3
ATEXT|AutoCAD Express Tool|expresstools@autodesk.com
 90
        0
280
       0
281
       1
  0
ENDSEC
  0
SECTION
  2
TABLES
  0
TABLE
  2
VPORT
  5
7
100
AcDbSymbolTable
 70
       1
  0
VPORT
  5
15
100
AcDbSymbolTableRecord
100
AcDbViewportTableRecord
  2
*ACTIVE
 70
       0
 10
0.0
 20
0.0
 11
1.0
 21
1.0
 12
0.0
 22
0.0
 13
0.0
 23
0.0
 14
1.0
 24
1.0
 15
0.0
 25
0.0
 16
0.0
 26
0.0
 36
1.0
 17
0.0
 27
0.0
 37
0.0
 40
1188.0
 41
0.70707071
 42
50.0
 43
0.0
 44
0.0
 50
0.0
 51
0.0
 71
       0
 72
     100
 73
       1
 74
       1
 75
       0
 76
       0
 77
       0
 78
       0
  0
ENDTAB
  0
TABLE
  2
LTYPE
  5
4
100
AcDbSymbolTable
 70
      30
  0
LTYPE
  5
11
100
AcDbSymbolTableRecord
100
AcDbLinetypeTableRecord
  2
BYBLOCK
 70
      64
  3

 72
      65
 73
       0
 40
0.0
  0
LTYPE
  5
12
100
AcDbSymbolTableRecord
100
AcDbLinetypeTableRecord
  2
BYLAYER
 70
      64
  3

 72
      65
 73
       0
 40
0.0
  0
LTYPE
  5
13
100
AcDbSymbolTableRecord
100
AcDbLinetypeTableRecord
  2
CONTINUOUS
 70
      64
  3
Solid line
 72
      65
 73
       0
 40
0.0
  0
LTYPE
  5
1D
100
AcDbSymbolTableRecord
100
AcDbLinetypeTableRecord
  2
HIDDENX2
 70
      64
  3
CADPAC LINETYPE
 72
      65
 73
       2
 40
14.00943396
 49
10.50707547
 74
       0
 49
-3.50235849
 74
       0
  0
LTYPE
  5
1E
100
AcDbSymbolTableRecord
100
AcDbLinetypeTableRecord
  2
HIDDEN
 70
      64
  3
CADPAC LINETYPE
 72
      65
 73
       2
 40
10.50707547
 49
7.00471698
 74
       0
 49
-3.50235849
 74
       0
  0
LTYPE
  5
1F
100
AcDbSymbolTableRecord
100
AcDbLinetypeTableRecord
  2
HIDDEN2
 70
      64
  3
CADPAC LINETYPE
 72
      65
 73
       2
 40
8.75589623
 49
5.25353774
 74
       0
 49
-3.50235849
 74
       0
  0
LTYPE
  5
20
100
AcDbSymbolTableRecord
100
AcDbLinetypeTableRecord
  2
DASHED
 70
      64
  3
CADPAC LINETYPE
 72
      65
 73
       2
 40
9.80660377
 49
7.00471698
 74
       0
 49
-2.80188679
 74
       0
  0
LTYPE
  5
21
100
AcDbSymbolTableRecord
100
AcDbLinetypeTableRecord
  2
DASHED2
 70
      64
  3
CADPAC LINETYPE
 72
      65
 73
       2
 40
6.30424528
 49
4.20283019
 74
       0
 49
-2.10141509
 74
       0
  0
LTYPE
  5
22
100
AcDbSymbolTableRecord
100
AcDbLinetypeTableRecord
  2
DASHEDX2
 70
      64
  3
CADPAC LINETYPE
 72
      65
 73
       2
 40
16.81132075
 49
14.00943396
 74
       0
 49
-2.80188679
 74
       0
  0
LTYPE
  5
23
100
AcDbSymbolTableRecord
100
AcDbLinetypeTableRecord
  2
DOTX2
 70
      64
  3
CADPAC LINETYPE
 72
      65
 73
       2
 40
6.12912736
 49
0.0
 74
       0
 49
-6.12912736
 74
       0
  0
LTYPE
  5
24
100
AcDbSymbolTableRecord
100
AcDbLinetypeTableRecord
  2
DOT
 70
      64
  3
CADPAC LINETYPE
 72
      65
 73
       2
 40
4.90330189
 49
0.0
 74
       0
 49
-4.90330189
 74
       0
  0
LTYPE
  5
25
100
AcDbSymbolTableRecord
100
AcDbLinetypeTableRecord
  2
DOT2
 70
      64
  3
CADPAC LINETYPE
 72
      65
 73
       2
 40
3.67747642
 49
0.0
 74
       0
 49
-3.67747642
 74
       0
  0
LTYPE
  5
26
100
AcDbSymbolTableRecord
100
AcDbLinetypeTableRecord
  2
CENTERX2
 70
      64
  3
CADPAC LINETYPE
 72
      65
 73
       4
 40
21.01415094
 49
8.75589623
 74
       0
 49
-4.37794811
 74
       0
 49
3.50235849
 74
       0
 49
-4.37794811
 74
       0
  0
LTYPE
  5
27
100
AcDbSymbolTableRecord
100
AcDbLinetypeTableRecord
  2
CENTER
 70
      64
  3
CADPAC LINETYPE
 72
      65
 73
       4
 40
16.11084906
 49
7.00471698
 74
       0
 49
-3.50235849
 74
       0
 49
2.10141509
 74
       0
 49
-3.50235849
 74
       0
  0
LTYPE
  5
28
100
AcDbSymbolTableRecord
100
AcDbLinetypeTableRecord
  2
CENTER2
 70
      64
  3
CADPAC LINETYPE
 72
      65
 73
       4
 40
11.20754717
 49
5.25353774
 74
       0
 49
-2.62676887
 74
       0
 49
0.7004717
 74
       0
 49
-2.62676887
 74
       0
  0
LTYPE
  5
29
100
AcDbSymbolTableRecord
100
AcDbLinetypeTableRecord
  2
DASHDOTX2
 70
      64
  3
CADPAC LINETYPE
 72
      65
 73
       4
 40
33.62264151
 49
16.81132075
 74
       0
 49
-5.60377358
 74
       0
 49
5.60377358
 74
       0
 49
-5.60377358
 74
       0
  0
LTYPE
  5
2A
100
AcDbSymbolTableRecord
100
AcDbLinetypeTableRecord
  2
DASHDOT
 70
      64
  3
CADPAC LINETYPE
 72
      65
 73
       4
 40
16.81132075
 49
8.40566038
 74
       0
 49
-2.80188679
 74
       0
 49
2.80188679
 74
       0
 49
-2.80188679
 74
       0
  0
LTYPE
  5
2B
100
AcDbSymbolTableRecord
100
AcDbLinetypeTableRecord
  2
DASHDOT2
 70
      64
  3
CADPAC LINETYPE
 72
      65
 73
       4
 40
10.78726415
 49
6.30424528
 74
       0
 49
-2.10141509
 74
       0
 49
0.28018868
 74
       0
 49
-2.10141509
 74
       0
  0
LTYPE
  5
2C
100
AcDbSymbolTableRecord
100
AcDbLinetypeTableRecord
  2
DIVIDEX2
 70
      64
  3
CADPAC LINETYPE
 72
      65
 73
       6
 40
44.83018868
 49
16.81132075
 74
       0
 49
-5.60377358
 74
       0
 49
5.60377358
 74
       0
 49
-5.60377358
 74
       0
 49
5.60377358
 74
       0
 49
-5.60377358
 74
       0
  0
LTYPE
  5
2D
100
AcDbSymbolTableRecord
100
AcDbLinetypeTableRecord
  2
DIVIDE
 70
      64
  3
CADPAC LINETYPE
 72
      65
 73
       6
 40
22.41509434
 49
8.40566038
 74
       0
 49
-2.80188679
 74
       0
 49
2.80188679
 74
       0
 49
-2.80188679
 74
       0
 49
2.80188679
 74
       0
 49
-2.80188679
 74
       0
  0
LTYPE
  5
2E
100
AcDbSymbolTableRecord
100
AcDbLinetypeTableRecord
  2
DIVIDE2
 70
      64
  3
CADPAC LINETYPE
 72
      65
 73
       6
 40
16.81132075
 49
6.30424528
 74
       0
 49
-2.10141509
 74
       0
 49
2.10141509
 74
       0
 49
-2.10141509
 74
       0
 49
2.10141509
 74
       0
 49
-2.10141509
 74
       0
  0
LTYPE
  5
2F
100
AcDbSymbolTableRecord
100
AcDbLinetypeTableRecord
  2
BORDERX2
 70
      64
  3
CADPAC LINETYPE
 72
      65
 73
       6
 40
30.64563679
 49
8.75589623
 74
       0
 49
-4.37794811
 74
       0
 49
8.75589623
 74
       0
 49
-4.37794811
 74
       0
 49
0.0
 74
       0
 49
-4.37794811
 74
       0
  0
LTYPE
  5
30
100
AcDbSymbolTableRecord
100
AcDbLinetypeTableRecord
  2
BORDER
 70
      64
  3
CADPAC LINETYPE
 72
      65
 73
       6
 40
24.51650943
 49
7.00471698
 74
       0
 49
-3.50235849
 74
       0
 49
7.00471698
 74
       0
 49
-3.50235849
 74
       0
 49
0.0
 74
       0
 49
-3.50235849
 74
       0
  0
LTYPE
  5
31
100
AcDbSymbolTableRecord
100
AcDbLinetypeTableRecord
  2
BORDER2
 70
      64
  3
CADPAC LINETYPE
 72
      65
 73
       6
 40
18.21226415
 49
5.60377358
 74
       0
 49
-3.50235849
 74
       0
 49
2.10141509
 74
       0
 49
-3.50235849
 74
       0
 49
0.0
 74
       0
 49
-3.50235849
 74
       0
  0
LTYPE
  5
32
100
AcDbSymbolTableRecord
100
AcDbLinetypeTableRecord
  2
PHANTOMX2
 70
      64
  3
CADPAC LINETYPE
 72
      65
 73
       6
 40
26.26768868
 49
8.75589623
 74
       0
 49
-3.50235849
 74
       0
 49
3.50235849
 74
       0
 49
-3.50235849
 74
       0
 49
3.50235849
 74
       0
 49
-3.50235849
 74
       0
  0
LTYPE
  5
33
100
AcDbSymbolTableRecord
100
AcDbLinetypeTableRecord
  2
PHANTOM
 70
      64
  3
CADPAC LINETYPE
 72
      65
 73
       6
 40
21.71462264
 49
7.00471698
 74
       0
 49
-3.50235849
 74
       0
 49
2.10141509
 74
       0
 49
-3.50235849
 74
       0
 49
2.10141509
 74
       0
 49
-3.50235849
 74
       0
  0
LTYPE
  5
34
100
AcDbSymbolTableRecord
100
AcDbLinetypeTableRecord
  2
PHANTOM2
 70
      64
  3
CADPAC LINETYPE
 72
      65
 73
       6
 40
18.5625
 49
5.25353774
 74
       0
 49
-3.50235849
 74
       0
 49
1.4009434
 74
       0
 49
-3.50235849
 74
       0
 49
1.4009434
 74
       0
 49
-3.50235849
 74
       0
  0
LTYPE
  5
35
100
AcDbSymbolTableRecord
100
AcDbLinetypeTableRecord
  2
ACAD_ISO06W100
 70
      64
  3
CADPAC LINETYPE
 72
      65
 73
       8
 40
37.125
 49
16.81132075
 74
       0
 49
-3.50235849
 74
       0
 49
2.10141509
 74
       0
 49
-3.50235849
 74
       0
 49
2.10141509
 74
       0
 49
-3.50235849
 74
       0
 49
2.10141509
 74
       0
 49
-3.50235849
 74
       0
  0
LTYPE
  5
36
100
AcDbSymbolTableRecord
100
AcDbLinetypeTableRecord
  2
ACAD_ISO13W100
 70
      64
  3
CADPAC LINETYPE
 72
      65
 73
       8
 40
28.01886792
 49
7.00471698
 74
       0
 49
-3.50235849
 74
       0
 49
7.00471698
 74
       0
 49
-3.50235849
 74
       0
 49
0.0
 74
       0
 49
-3.50235849
 74
       0
 49
0.0
 74
       0
 49
-3.50235849
 74
       0
  0
LTYPE
  5
37
100
AcDbSymbolTableRecord
100
AcDbLinetypeTableRecord
  2
ACAD_ISO14W100
 70
      64
  3
CADPAC LINETYPE
 72
      65
 73
       8
 40
21.01415094
 49
7.00471698
 74
       0
 49
-3.50235849
 74
       0
 49
0.0
 74
       0
 49
-3.50235849
 74
       0
 49
0.0
 74
       0
 49
-3.50235849
 74
       0
 49
0.0
 74
       0
 49
-3.50235849
 74
       0
  0
ENDTAB
  0
TABLE
  2
LAYER
  5
2
100
AcDbSymbolTable
 70
       7
  0
LAYER
  5
14
100
AcDbSymbolTableRecord
100
AcDbLayerTableRecord
  2
0
 70
       0
 62
       7
  6
CONTINUOUS
  0
LAYER
  5
38
100
AcDbSymbolTableRecord
100
AcDbLayerTableRecord
  2
LAYER0002
 70
       0
 62
       7
  6
CONTINUOUS
  0
LAYER
  5
39
100
AcDbSymbolTableRecord
100
AcDbLayerTableRecord
  2
LAYER0003
 70
       0
 62
       7
  6
CONTINUOUS
  0
LAYER
  5
3A
100
AcDbSymbolTableRecord
100
AcDbLayerTableRecord
  2
LAYER0005
 70
       0
 62
       7
  6
CONTINUOUS
  0
LAYER
  5
3B
100
AcDbSymbolTableRecord
100
AcDbLayerTableRecord
  2
LAYER0006
 70
       0
 62
       7
  6
CONTINUOUS
  0
LAYER
  5
3C
100
AcDbSymbolTableRecord
100
AcDbLayerTableRecord
  2
LAYER0240
 70
       0
 62
       7
  6
CONTINUOUS
  0
LAYER
  5
3D
100
AcDbSymbolTableRecord
100
AcDbLayerTableRecord
  2
ZUWAKU
 70
       0
 62
       7
  6
CONTINUOUS
  0
ENDTAB
  0
TABLE
  2
STYLE
  5
3
100
AcDbSymbolTable
 70
       2
  0
STYLE
  5
17
100
AcDbSymbolTableRecord
100
AcDbTextStyleTableRecord
  2
STANDARD
 70
       0
 40
13.6
 41
0.8
 50
0.0
 71
       0
 42
13.6
  3
txt.shx
  4
bigfont.shx
  0
STYLE
  5
3E
100
AcDbSymbolTableRecord
100
AcDbTextStyleTableRecord
  2
FDASTYLE1
 70
       4
 40
12.0
 41
0.8
 50
0.0
 71
       0
 42
12.0
  3
txt.shx
  4
bigfont.shx
  0
ENDTAB
  0
TABLE
  2
VIEW
  5
5
100
AcDbSymbolTable
 70
       1
  0
VIEW
  5
3F
100
AcDbSymbolTableRecord
100
AcDbViewTableRecord
  2
QQQQ
 70
       0
 40
1188.0
 10
0.0
 20
0.0
 41
840.0
 11
0.0
 21
0.0
 31
1.0
 12
100.0
 22
100.0
 32
0.0
 42
50.0
 43
0.0
 44
0.0
 50
0.0
 71
       0
  0
ENDTAB
  0
TABLE
  2
UCS
  5
6
100
AcDbSymbolTable
 70
       0
  0
ENDTAB
  0
TABLE
  2
APPID
  5
8
100
AcDbSymbolTable
 70
       1
  0
APPID
  5
16
100
AcDbSymbolTableRecord
100
AcDbRegAppTableRecord
  2
ACAD
 70
       0
  0
ENDTAB
  0
TABLE
  2
DIMSTYLE
  5
9
100
AcDbSymbolTable
 70
       1
  0
DIMSTYLE
105
18
100
AcDbSymbolTableRecord
100
AcDbDimStyleTableRecord
  2
STANDARD
 70
       0
  3

  4

  5

  6

  7

 40
1.0
 41
0.18
 42
0.0625
 43
0.38
 44
0.18
 45
0.0
 46
0.0
 47
0.0
 48
0.0
 71
       0
 72
       0
 73
       1
 74
       1
 75
       0
 76
       0
 77
       0
 78
       0
140
0.18
141
0.09
142
0.0
143
25.4
144
1.0
145
0.0
146
1.0
147
0.09
170
       0
171
       2
172
       0
173
       0
174
       0
175
       0
176
       0
177
       0
178
       0
270
       2
271
       4
272
       4
273
       2
274
       2
275
       0
280
       0
281
       0
282
       0
283
       1
284
       0
285
       0
286
       0
287
       3
288
       0
340
17
  0
ENDTAB
  0
TABLE
  2
BLOCK_RECORD
  5
1
100
AcDbSymbolTable
 70
      23
  0
BLOCK_RECORD
  5
A
100
AcDbSymbolTableRecord
100
AcDbBlockTableRecord
  2
*MODEL_SPACE
  0
BLOCK_RECORD
  5
B
100
AcDbSymbolTableRecord
100
AcDbBlockTableRecord
  2
*PAPER_SPACE
  0
BLOCK_RECORD
  5
40
100
AcDbSymbolTableRecord
100
AcDbBlockTableRecord
  2
DA_IMAGEDIMGROUP_1
  0
BLOCK_RECORD
  5
41
100
AcDbSymbolTableRecord
100
AcDbBlockTableRecord
  2
_OPEN30
  0
BLOCK_RECORD
  5
42
100
AcDbSymbolTableRecord
100
AcDbBlockTableRecord
  2
DA_IMAGEDIMGROUP_2
  0
BLOCK_RECORD
  5
43
100
AcDbSymbolTableRecord
100
AcDbBlockTableRecord
  2
DA_IMAGEDIMGROUP_3
  0
BLOCK_RECORD
  5
44
100
AcDbSymbolTableRecord
100
AcDbBlockTableRecord
  2
DA_IMAGEDIMGROUP_4
  0
BLOCK_RECORD
  5
45
100
AcDbSymbolTableRecord
100
AcDbBlockTableRecord
  2
DA_IMAGEDIMGROUP_5
  0
BLOCK_RECORD
  5
46
100
AcDbSymbolTableRecord
100
AcDbBlockTableRecord
  2
DA_IMAGEDIMGROUP_6
  0
BLOCK_RECORD
  5
47
100
AcDbSymbolTableRecord
100
AcDbBlockTableRecord
  2
DA_IMAGEDIMGROUP_7
  0
BLOCK_RECORD
  5
48
100
AcDbSymbolTableRecord
100
AcDbBlockTableRecord
  2
DA_IMAGEDIMGROUP_8
  0
BLOCK_RECORD
  5
49
100
AcDbSymbolTableRecord
100
AcDbBlockTableRecord
  2
DA_IMAGEDIMGROUP_9
  0
BLOCK_RECORD
  5
4A
100
AcDbSymbolTableRecord
100
AcDbBlockTableRecord
  2
DA_IMAGEDIMGROUP_10
  0
BLOCK_RECORD
  5
4B
100
AcDbSymbolTableRecord
100
AcDbBlockTableRecord
  2
DA_IMAGEDIMGROUP_11
  0
BLOCK_RECORD
  5
4C
100
AcDbSymbolTableRecord
100
AcDbBlockTableRecord
  2
DA_IMAGEDIMGROUP_12
  0
BLOCK_RECORD
  5
4D
100
AcDbSymbolTableRecord
100
AcDbBlockTableRecord
  2
DA_IMAGEDIMGROUP_13
  0
BLOCK_RECORD
  5
4E
100
AcDbSymbolTableRecord
100
AcDbBlockTableRecord
  2
DA_IMAGEDIMGROUP_14
  0
BLOCK_RECORD
  5
4F
100
AcDbSymbolTableRecord
100
AcDbBlockTableRecord
  2
DA_IMAGEDIMGROUP_15
  0
BLOCK_RECORD
  5
50
100
AcDbSymbolTableRecord
100
AcDbBlockTableRecord
  2
DA_IMAGEDIMGROUP_16
  0
BLOCK_RECORD
  5
51
100
AcDbSymbolTableRecord
100
AcDbBlockTableRecord
  2
DA_IMAGEDIMGROUP_17
  0
BLOCK_RECORD
  5
52
100
AcDbSymbolTableRecord
100
AcDbBlockTableRecord
  2
GROUP_1
  0
BLOCK_RECORD
  5
53
100
AcDbSymbolTableRecord
100
AcDbBlockTableRecord
  2
GROUP_2
  0
BLOCK_RECORD
  5
54
100
AcDbSymbolTableRecord
100
AcDbBlockTableRecord
  2
DA_IMAGEDIMGROUP_18
  0
BLOCK_RECORD
  5
55
100
AcDbSymbolTableRecord
100
AcDbBlockTableRecord
  2
DA_IMAGEDIMGROUP_19
  0
BLOCK_RECORD
  5
56
100
AcDbSymbolTableRecord
100
AcDbBlockTableRecord
  2
DA_IMAGEDIMGROUP_20
  0
ENDTAB
  0
ENDSEC
  0
SECTION
  2
BLOCKS
  0
BLOCK
  5
D
100
AcDbEntity
  8
0
100
AcDbBlockBegin
  2
*MODEL_SPACE
 70
       0
 10
0.0
 20
0.0
 30
0.0
  3
*MODEL_SPACE
  1

  0
ENDBLK
  5
E
100
AcDbEntity
  8
0
100
AcDbBlockEnd
  0
BLOCK
  5
F
100
AcDbEntity
 67
       1
  8
0
100
AcDbBlockBegin
  2
*PAPER_SPACE
 70
       0
 10
0.0
 20
0.0
 30
0.0
  3
*PAPER_SPACE
  1

  0
ENDBLK
  5
10
100
AcDbEntity
 67
       1
  8
0
100
AcDbBlockEnd
  0
BLOCK
  5
57
100
AcDbEntity
  8
0
100
AcDbBlockBegin
  2
DA_IMAGEDIMGROUP_1
 70
       0
 10
0.0
 20
0.0
 30
0.0
  3
DA_IMAGEDIMGROUP_1
  1

  0
LINE
  5
58
100
AcDbEntity
  8
LAYER0002
  6
CONTINUOUS
 62
       7
100
AcDbLine
 10
-244.77150323
 20
279.65779206
 30
0.0
 11
75.22849677
 21
279.65779206
 31
0.0
  0
INSERT
  5
59
100
AcDbEntity
  8
LAYER0002
  6
CONTINUOUS
 62
       7
100
AcDbBlockReference
  2
_OPEN30
 10
-244.77150323
 20
279.65779206
 30
0.0
 41
12.00001115
 42
11.9999571
 50
180.0
  0
INSERT
  5
5A
100
AcDbEntity
  8
LAYER0002
  6
CONTINUOUS
 62
       7
100
AcDbBlockReference
  2
_OPEN30
 10
75.22849677
 20
279.65779206
 30
0.0
 41
12.00001115
 42
11.9999571
 50
360.0
  0
LINE
  5
5B
100
AcDbEntity
  8
LAYER0002
  6
CONTINUOUS
 62
       7
100
AcDbLine
 10
-244.77150323
 20
344.57356191
 30
0.0
 11
-244.77150323
 21
275.65779206
 31
0.0
  0
LINE
  5
5C
100
AcDbEntity
  8
LAYER0002
  6
CONTINUOUS
 62
       7
100
AcDbLine
 10
75.22849677
 20
344.57356191
 30
0.0
 11
75.22849677
 21
275.65779206
 31
0.0
  0
TEXT
  5
5D
100
AcDbEntity
  8
LAYER0002
 62
       7
100
AcDbText
 10
-103.97150323
 20
283.65779206
 30
0.0
 40
16.0
  1
320
 41
0.8
 72
       5
 11
-65.57150323
 21
283.65779206
 31
0.0
100
AcDbText
  0
ENDBLK
  5
5E
100
AcDbEntity
  8
0
100
AcDbBlockEnd
  0
BLOCK
  5
5F
100
AcDbEntity
  8
0
100
AcDbBlockBegin
  2
_OPEN30
 70
       0
 10
0.0
 20
0.0
 30
0.0
  3
_OPEN30
  1

  0
LINE
  5
60
100
AcDbEntity
  8
0
  6
CONTINUOUS
 62
       0
100
AcDbLine
 10
0.0
 20
0.0
 30
0.0
 11
-0.96592583
 21
0.25881905
 31
0.0
  0
LINE
  5
61
100
AcDbEntity
  8
0
  6
CONTINUOUS
 62
       0
100
AcDbLine
 10
0.0
 20
0.0
 30
0.0
 11
-0.96592583
 21
-0.25881905
 31
0.0
  0
LINE
  5
62
100
AcDbEntity
  8
0
  6
CONTINUOUS
 62
       0
100
AcDbLine
 10
0.0
 20
0.0
 30
0.0
 11
-1.0
 21
0.0
 31
0.0
  0
ENDBLK
  5
63
100
AcDbEntity
  8
0
100
AcDbBlockEnd
  0
BLOCK
  5
64
100
AcDbEntity
  8
0
100
AcDbBlockBegin
  2
DA_IMAGEDIMGROUP_2
 70
       0
 10
0.0
 20
0.0
 30
0.0
  3
DA_IMAGEDIMGROUP_2
  1

  0
LINE
  5
65
100
AcDbEntity
  8
LAYER0002
  6
CONTINUOUS
 62
       7
100
AcDbLine
 10
74.22849677
 20
343.57356191
 30
0.0
 11
124.77460973
 21
343.57356191
 31
0.0
  0
LINE
  5
66
100
AcDbEntity
  8
LAYER0002
  6
CONTINUOUS
 62
       7
100
AcDbLine
 10
75.22849677
 20
463.57356191
 30
0.0
 11
124.77460973
 21
463.57356191
 31
0.0
  0
LINE
  5
67
100
AcDbEntity
  8
LAYER0002
  6
CONTINUOUS
 62
       7
100
AcDbLine
 10
120.77460973
 20
343.57356191
 30
0.0
 11
120.77460973
 21
463.57356191
 31
0.0
  0
INSERT
  5
68
100
AcDbEntity
  8
LAYER0002
  6
CONTINUOUS
 62
       7
100
AcDbBlockReference
  2
_OPEN30
 10
120.77460973
 20
343.57356191
 30
0.0
 41
12.00001115
 42
11.9999571
 50
270.0
  0
INSERT
  5
69
100
AcDbEntity
  8
LAYER0002
  6
CONTINUOUS
 62
       7
100
AcDbBlockReference
  2
_OPEN30
 10
120.77460973
 20
463.57356191
 30
0.0
 41
12.00001115
 42
11.9999571
 50
90.0
  0
TEXT
  5
6A
100
AcDbEntity
  8
LAYER0002
 62
       7
100
AcDbText
 10
116.77460973
 20
384.37356191
 30
0.0
 40
16.0
  1
120
 50
90.0
 41
0.8
 72
       5
 11
116.77460973
 21
422.77356191
 31
0.0
100
AcDbText
  0
ENDBLK
  5
6B
100
AcDbEntity
  8
0
100
AcDbBlockEnd
  0
BLOCK
  5
6C
100
AcDbEntity
  8
0
100
AcDbBlockBegin
  2
DA_IMAGEDIMGROUP_3
 70
       0
 10
0.0
 20
0.0
 30
0.0
  3
DA_IMAGEDIMGROUP_3
  1

  0
LINE
  5
6D
100
AcDbEntity
  8
LAYER0002
  6
CONTINUOUS
 62
       7
100
AcDbLine
 10
-246.12279533
 20
219.2908805
 30
0.0
 11
-171.12279533
 21
219.2908805
 31
0.0
  0
INSERT
  5
6E
100
AcDbEntity
  8
LAYER0002
  6
CONTINUOUS
 62
       7
100
AcDbBlockReference
  2
_OPEN30
 10
-246.12279533
 20
219.2908805
 30
0.0
 41
12.00001115
 42
11.9999571
 50
180.0
  0
INSERT
  5
6F
100
AcDbEntity
  8
LAYER0002
  6
CONTINUOUS
 62
       7
100
AcDbBlockReference
  2
_OPEN30
 10
-171.12279533
 20
219.2908805
 30
0.0
 41
12.00001115
 42
11.9999571
 50
360.0
  0
LINE
  5
70
100
AcDbEntity
  8
LAYER0002
  6
CONTINUOUS
 62
       7
100
AcDbLine
 10
-171.12279533
 20
219.2908805
 30
0.0
 11
-1.12279533
 21
219.2908805
 31
0.0
  0
INSERT
  5
71
100
AcDbEntity
  8
LAYER0002
  6
CONTINUOUS
 62
       7
100
AcDbBlockReference
  2
_OPEN30
 10
-171.12279533
 20
219.2908805
 30
0.0
 41
12.00001115
 42
11.9999571
 50
180.0
  0
INSERT
  5
72
100
AcDbEntity
  8
LAYER0002
  6
CONTINUOUS
 62
       7
100
AcDbBlockReference
  2
_OPEN30
 10
-1.12279533
 20
219.2908805
 30
0.0
 41
12.00001115
 42
11.9999571
 50
360.0
  0
LINE
  5
73
100
AcDbEntity
  8
LAYER0002
  6
CONTINUOUS
 62
       7
100
AcDbLine
 10
-1.12279533
 20
219.2908805
 30
0.0
 11
73.87720467
 21
219.2908805
 31
0.0
  0
INSERT
  5
74
100
AcDbEntity
  8
LAYER0002
  6
CONTINUOUS
 62
       7
100
AcDbBlockReference
  2
_OPEN30
 10
-1.12279533
 20
219.2908805
 30
0.0
 41
12.00001115
 42
11.9999571
 50
180.0
  0
INSERT
  5
75
100
AcDbEntity
  8
LAYER0002
  6
CONTINUOUS
 62
       7
100
AcDbBlockReference
  2
_OPEN30
 10
73.87720467
 20
219.2908805
 30
0.0
 41
12.00001115
 42
11.9999571
 50
360.0
  0
LINE
  5
76
100
AcDbEntity
  8
LAYER0002
  6
CONTINUOUS
 62
       7
100
AcDbLine
 10
-246.12279533
 20
165.44436421
 30
0.0
 11
-246.12279533
 21
223.2908805
 31
0.0
  0
LINE
  5
77
100
AcDbEntity
  8
LAYER0002
  6
CONTINUOUS
 62
       7
100
AcDbLine
 10
-171.12279533
 20
150.69436421
 30
0.0
 11
-171.12279533
 21
223.2908805
 31
0.0
  0
LINE
  5
78
100
AcDbEntity
  8
LAYER0002
  6
CONTINUOUS
 62
       7
100
AcDbLine
 10
-1.12279533
 20
150.69436421
 30
0.0
 11
-1.12279533
 21
223.2908805
 31
0.0
  0
LINE
  5
79
100
AcDbEntity
  8
LAYER0002
  6
CONTINUOUS
 62
       7
100
AcDbLine
 10
73.87720467
 20
165.44436421
 30
0.0
 11
73.87720467
 21
223.2908805
 31
0.0
  0
TEXT
  5
7A
100
AcDbEntity
  8
LAYER0002
 62
       7
100
AcDbText
 10
-221.42279533
 20
223.2908805
 30
0.0
 40
16.0
  1
75
 41
0.8
 72
       5
 11
-195.82279533
 21
223.2908805
 31
0.0
100
AcDbText
  0
TEXT
  5
7B
100
AcDbEntity
  8
LAYER0002
 62
       7
100
AcDbText
 10
-105.32279533
 20
223.2908805
 30
0.0
 40
16.0
  1
170
 41
0.8
 72
       5
 11
-66.92279533
 21
223.2908805
 31
0.0
100
AcDbText
  0
TEXT
  5
7C
100
AcDbEntity
  8
LAYER0002
 62
       7
100
AcDbText
 10
23.57720467
 20
223.2908805
 30
0.0
 40
16.0
  1
75
 41
0.8
 72
       5
 11
49.17720467
 21
223.2908805
 31
0.0
100
AcDbText
  0
ENDBLK
  5
7D
100
AcDbEntity
  8
0
100
AcDbBlockEnd
  0
BLOCK
  5
7E
100
AcDbEntity
  8
0
100
AcDbBlockBegin
  2
DA_IMAGEDIMGROUP_4
 70
       0
 10
0.0
 20
0.0
 30
0.0
  3
DA_IMAGEDIMGROUP_4
  1

  0
LINE
  5
7F
100
AcDbEntity
  8
LAYER0002
  6
CONTINUOUS
 62
       7
100
AcDbLine
 10
59.12720467
 20
125.44436421
 30
0.0
 11
118.175565
 21
125.44436421
 31
0.0
  0
LINE
  5
80
100
AcDbEntity
  8
LAYER0002
  6
CONTINUOUS
 62
       7
100
AcDbLine
 10
77.37720467
 20
90.44436421
 30
0.0
 11
118.175565
 21
90.44436421
 31
0.0
  0
LINE
  5
81
100
AcDbEntity
  8
LAYER0002
  6
CONTINUOUS
 62
       7
100
AcDbLine
 10
73.87720467
 20
165.44436421
 30
0.0
 11
118.175565
 21
165.44436421
 31
0.0
  0
LINE
  5
82
100
AcDbEntity
  8
LAYER0002
  6
CONTINUOUS
 62
       7
100
AcDbLine
 10
114.175565
 20
90.44436421
 30
0.0
 11
114.175565
 21
125.44436421
 31
0.0
  0
INSERT
  5
83
100
AcDbEntity
  8
LAYER0002
  6
CONTINUOUS
 62
       7
100
AcDbBlockReference
  2
_OPEN30
 10
114.175565
 20
90.44436421
 30
0.0
 41
12.00001115
 42
11.9999571
 50
270.0
  0
INSERT
  5
84
100
AcDbEntity
  8
LAYER0002
  6
CONTINUOUS
 62
       7
100
AcDbBlockReference
  2
_OPEN30
 10
114.175565
 20
125.44436421
 30
0.0
 41
12.00001115
 42
11.9999571
 50
90.0
  0
LINE
  5
85
100
AcDbEntity
  8
LAYER0002
  6
CONTINUOUS
 62
       7
100
AcDbLine
 10
114.175565
 20
125.44436421
 30
0.0
 11
114.175565
 21
165.44436421
 31
0.0
  0
INSERT
  5
86
100
AcDbEntity
  8
LAYER0002
  6
CONTINUOUS
 62
       7
100
AcDbBlockReference
  2
_OPEN30
 10
114.175565
 20
125.44436421
 30
0.0
 41
12.00001115
 42
11.9999571
 50
270.0
  0
INSERT
  5
87
100
AcDbEntity
  8
LAYER0002
  6
CONTINUOUS
 62
       7
100
AcDbBlockReference
  2
_OPEN30
 10
114.175565
 20
165.44436421
 30
0.0
 41
12.00001115
 42
11.9999571
 50
90.0
  0
TEXT
  5
88
100
AcDbEntity
  8
LAYER0002
 62
       7
100
AcDbText
 10
110.175565
 20
95.14436421
 30
0.0
 40
16.0
  1
35
 50
90.0
 41
0.8
 72
       5
 11
110.175565
 21
120.74436421
 31
0.0
100
AcDbText
  0
TEXT
  5
89
100
AcDbEntity
  8
LAYER0002
 62
       7
100
AcDbText
 10
110.175565
 20
132.64436421
 30
0.0
 40
16.0
  1
40
 50
90.0
 41
0.8
 72
       5
 11
110.175565
 21
158.24436421
 31
0.0
100
AcDbText
  0
ENDBLK
  5
8A
100
AcDbEntity
  8
0
100
AcDbBlockEnd
  0
BLOCK
  5
8B
100
AcDbEntity
  8
0
100
AcDbBlockBegin
  2
DA_IMAGEDIMGROUP_5
 70
       0
 10
0.0
 20
0.0
 30
0.0
  3
DA_IMAGEDIMGROUP_5
  1

  0
LINE
  5
8C
100
AcDbEntity
  8
0
  6
CONTINUOUS
 62
       7
100
AcDbLine
 10
73.87720467
 20
165.44436421
 30
0.0
 11
147.80760627
 21
165.44436421
 31
0.0
  0
LINE
  5
8D
100
AcDbEntity
  8
0
  6
CONTINUOUS
 62
       7
100
AcDbLine
 10
77.37720467
 20
90.44436421
 30
0.0
 11
147.80760627
 21
90.44436421
 31
0.0
  0
LINE
  5
8E
100
AcDbEntity
  8
0
  6
CONTINUOUS
 62
       7
100
AcDbLine
 10
143.80760627
 20
90.44436421
 30
0.0
 11
143.80760627
 21
165.44436421
 31
0.0
  0
INSERT
  5
8F
100
AcDbEntity
  8
0
  6
CONTINUOUS
 62
       7
100
AcDbBlockReference
  2
_OPEN30
 10
143.80760627
 20
90.44436421
 30
0.0
 41
12.00001115
 42
11.9999571
 50
270.0
  0
INSERT
  5
90
100
AcDbEntity
  8
0
  6
CONTINUOUS
 62
       7
100
AcDbBlockReference
  2
_OPEN30
 10
143.80760627
 20
165.44436421
 30
0.0
 41
12.00001115
 42
11.9999571
 50
90.0
  0
TEXT
  5
91
100
AcDbEntity
  8
0
 62
       7
100
AcDbText
 10
139.80760627
 20
115.14436421
 30
0.0
 40
16.0
  1
75
 50
90.0
 41
0.8
 72
       5
 11
139.80760627
 21
140.74436421
 31
0.0
100
AcDbText
  0
ENDBLK
  5
92
100
AcDbEntity
  8
0
100
AcDbBlockEnd
  0
BLOCK
  5
93
100
AcDbEntity
  8
0
100
AcDbBlockBegin
  2
DA_IMAGEDIMGROUP_6
 70
       0
 10
0.0
 20
0.0
 30
0.0
  3
DA_IMAGEDIMGROUP_6
  1

  0
LINE
  5
94
100
AcDbEntity
  8
0
  6
CONTINUOUS
 62
       7
100
AcDbLine
 10
-246.12279533
 20
27.79402516
 30
0.0
 11
-221.12279533
 21
27.79402516
 31
0.0
  0
LINE
  5
95
100
AcDbEntity
  8
0
  6
CONTINUOUS
 62
       7
100
AcDbLine
 10
48.87720467
 20
27.79402516
 30
0.0
 11
73.87720467
 21
27.79402516
 31
0.0
  0
LINE
  5
96
100
AcDbEntity
  8
0
  6
CONTINUOUS
 62
       7
100
AcDbLine
 10
-246.12279533
 20
86.94436421
 30
0.0
 11
-246.12279533
 21
23.79402516
 31
0.0
  0
LINE
  5
97
100
AcDbEntity
  8
0
  6
CONTINUOUS
 62
       7
100
AcDbLine
 10
-221.12279533
 20
115.19436421
 30
0.0
 11
-221.12279533
 21
23.79402516
 31
0.0
  0
LINE
  5
98
100
AcDbEntity
  8
0
  6
CONTINUOUS
 62
       7
100
AcDbLine
 10
-86.12279533
 20
95.19436421
 30
0.0
 11
-86.12279533
 21
23.79402516
 31
0.0
  0
LINE
  5
99
100
AcDbEntity
  8
0
  6
CONTINUOUS
 62
       7
100
AcDbLine
 10
48.87720467
 20
115.19436421
 30
0.0
 11
48.87720467
 21
23.79402516
 31
0.0
  0
LINE
  5
9A
100
AcDbEntity
  8
0
  6
CONTINUOUS
 62
       7
100
AcDbLine
 10
73.87720467
 20
86.94436421
 30
0.0
 11
73.87720467
 21
23.79402516
 31
0.0
  0
LINE
  5
9B
100
AcDbEntity
  8
0
  6
CONTINUOUS
 62
       7
100
AcDbLine
 10
-291.31391533
 20
27.79402516
 30
0.0
 11
-246.12279533
 21
27.79402516
 31
0.0
  0
INSERT
  5
9C
100
AcDbEntity
  8
0
  6
CONTINUOUS
 62
       7
100
AcDbBlockReference
  2
_OPEN30
 10
-246.12279533
 20
27.79402516
 30
0.0
 41
12.00001115
 42
11.9999571
 50
360.0
  0
LINE
  5
9D
100
AcDbEntity
  8
0
  6
CONTINUOUS
 62
       7
100
AcDbLine
 10
119.06832467
 20
27.79402516
 30
0.0
 11
73.87720467
 21
27.79402516
 31
0.0
  0
INSERT
  5
9E
100
AcDbEntity
  8
0
  6
CONTINUOUS
 62
       7
100
AcDbBlockReference
  2
_OPEN30
 10
73.87720467
 20
27.79402516
 30
0.0
 41
12.00001115
 42
11.9999571
 50
180.0
  0
LINE
  5
9F
100
AcDbEntity
  8
0
  6
CONTINUOUS
 62
       7
100
AcDbLine
 10
-221.12279533
 20
27.79402516
 30
0.0
 11
-86.12279533
 21
27.79402516
 31
0.0
  0
INSERT
  5
A0
100
AcDbEntity
  8
0
  6
CONTINUOUS
 62
       7
100
AcDbBlockReference
  2
_OPEN30
 10
-221.12279533
 20
27.79402516
 30
0.0
 41
12.00001115
 42
11.9999571
 50
180.0
  0
INSERT
  5
A1
100
AcDbEntity
  8
0
  6
CONTINUOUS
 62
       7
100
AcDbBlockReference
  2
_OPEN30
 10
-86.12279533
 20
27.79402516
 30
0.0
 41
12.00001115
 42
11.9999571
 50
360.0
  0
LINE
  5
A2
100
AcDbEntity
  8
0
  6
CONTINUOUS
 62
       7
100
AcDbLine
 10
-86.12279533
 20
27.79402516
 30
0.0
 11
48.87720467
 21
27.79402516
 31
0.0
  0
INSERT
  5
A3
100
AcDbEntity
  8
0
  6
CONTINUOUS
 62
       7
100
AcDbBlockReference
  2
_OPEN30
 10
-86.12279533
 20
27.79402516
 30
0.0
 41
12.00001115
 42
11.9999571
 50
180.0
  0
INSERT
  5
A4
100
AcDbEntity
  8
0
  6
CONTINUOUS
 62
       7
100
AcDbBlockReference
  2
_OPEN30
 10
48.87720467
 20
27.79402516
 30
0.0
 41
12.00001115
 42
11.9999571
 50
360.0
  0
TEXT
  5
A5
100
AcDbEntity
  8
0
 62
       7
100
AcDbText
 10
-287.31391533
 20
31.79402516
 30
0.0
 40
16.0
  1
25
 41
0.8
 72
       5
 11
-261.71391533
 21
31.79402516
 31
0.0
100
AcDbText
  0
TEXT
  5
A6
100
AcDbEntity
  8
0
 62
       7
100
AcDbText
 10
-172.82279533
 20
31.79402516
 30
0.0
 40
16.0
  1
135
 41
0.8
 72
       5
 11
-134.42279533
 21
31.79402516
 31
0.0
100
AcDbText
  0
TEXT
  5
A7
100
AcDbEntity
  8
0
 62
       7
100
AcDbText
 10
-37.82279533
 20
31.79402516
 30
0.0
 40
16.0
  1
135
 41
0.8
 72
       5
 11
0.57720467
 21
31.79402516
 31
0.0
100
AcDbText
  0
TEXT
  5
A8
100
AcDbEntity
  8
0
 62
       7
100
AcDbText
 10
89.46832467
 20
31.79402516
 30
0.0
 40
16.0
  1
25
 41
0.8
 72
       5
 11
115.06832467
 21
31.79402516
 31
0.0
100
AcDbText
  0
ENDBLK
  5
A9
100
AcDbEntity
  8
0
100
AcDbBlockEnd
  0
BLOCK
  5
AA
100
AcDbEntity
  8
0
100
AcDbBlockBegin
  2
DA_IMAGEDIMGROUP_7
 70
       0
 10
0.0
 20
0.0
 30
0.0
  3
DA_IMAGEDIMGROUP_7
  1

  0
LINE
  5
AB
100
AcDbEntity
  8
0
  6
CONTINUOUS
 62
       7
100
AcDbLine
 10
-301.82873221
 20
319.74617481
 30
0.0
 11
-229.22051965
 21
395.95357769
 31
0.0
  0
INSERT
  5
AC
100
AcDbEntity
  8
0
  6
CONTINUOUS
 62
       7
100
AcDbBlockReference
  2
_OPEN30
 10
-229.22051965
 20
395.95357769
 30
0.0
 41
12.00001115
 42
11.9999571
 50
46.38546093
  0
LINE
  5
AD
100
AcDbEntity
  8
0
  6
CONTINUOUS
 62
       7
100
AcDbLine
 10
-215.42445398
 20
410.43351456
 30
0.0
 11
-229.22051965
 21
395.95357769
 31
0.0
  0
TEXT
  5
AE
100
AcDbEntity
  8
0
 62
       7
100
AcDbText
 10
-301.96550645
 20
325.40137532
 30
0.0
 40
16.0
  1
2-φ10
 50
46.38546093
 41
0.8
 72
       5
 11
-257.8180963
 21
371.73717333
 31
0.0
100
AcDbText
  0
ENDBLK
  5
AF
100
AcDbEntity
  8
0
100
AcDbBlockEnd
  0
BLOCK
  5
B0
100
AcDbEntity
  8
0
100
AcDbBlockBegin
  2
DA_IMAGEDIMGROUP_8
 70
       0
 10
0.0
 20
0.0
 30
0.0
  3
DA_IMAGEDIMGROUP_8
  1

  0
LINE
  5
B1
100
AcDbEntity
  8
0
  6
CONTINUOUS
 62
       7
100
AcDbLine
 10
38.36128375
 20
427.62608124
 30
0.0
 11
17.09570979
 21
371.52104257
 31
0.0
  0
LINE
  5
B2
100
AcDbEntity
  8
0
  6
CONTINUOUS
 62
       7
100
AcDbLine
 10
-66.30359064
 20
315.17796964
 30
0.0
 11
-4.26008664
 21
315.17796964
 31
0.0
  0
LINE
  5
B3
100
AcDbEntity
  8
0
  6
CONTINUOUS
 62
       7
100
AcDbLine
 10
-4.26008664
 20
315.17796964
 30
0.0
 11
17.09570979
 21
371.52104257
 31
0.0
  0
INSERT
  5
B4
100
AcDbEntity
  8
0
  6
CONTINUOUS
 62
       7
100
AcDbBlockReference
  2
_OPEN30
 10
17.09570979
 20
371.52104257
 30
0.0
 41
12.00001115
 42
11.9999571
 50
69.24171639
  0
LINE
  5
B5
100
AcDbEntity
  8
0
  6
CONTINUOUS
 62
       7
100
AcDbLine
 10
45.4498084
 20
446.3277608
 30
0.0
 11
38.36128375
 21
427.62608124
 31
0.0
  0
INSERT
  5
B6
100
AcDbEntity
  8
0
  6
CONTINUOUS
 62
       7
100
AcDbBlockReference
  2
_OPEN30
 10
38.36128375
 20
427.62608124
 30
0.0
 41
12.00001115
 42
11.9999571
 50
249.24171639
  0
TEXT
  5
B7
100
AcDbEntity
  8
0
 62
       7
100
AcDbText
 10
-54.48183864
 20
319.17796964
 30
0.0
 40
16.0
  1
φ60
 41
0.8
 72
       5
 11
-16.08183864
 21
319.17796964
 31
0.0
100
AcDbText
  0
ENDBLK
  5
B8
100
AcDbEntity
  8
0
100
AcDbBlockEnd
  0
BLOCK
  5
B9
100
AcDbEntity
  8
0
100
AcDbBlockBegin
  2
DA_IMAGEDIMGROUP_9
 70
       0
 10
0.0
 20
0.0
 30
0.0
  3
DA_IMAGEDIMGROUP_9
  1

  0
LINE
  5
BA
100
AcDbEntity
  8
0
  6
CONTINUOUS
 62
       7
100
AcDbLine
 10
-119.80419091
 20
435.70242761
 30
0.0
 11
-151.73881555
 21
363.4446962
 31
0.0
  0
LINE
  5
BB
100
AcDbEntity
  8
0
  6
CONTINUOUS
 62
       7
100
AcDbLine
 10
-235.12094405
 20
315.16228751
 30
0.0
 11
-173.07744005
 21
315.16228751
 31
0.0
  0
LINE
  5
BC
100
AcDbEntity
  8
0
  6
CONTINUOUS
 62
       7
100
AcDbLine
 10
-173.07744005
 20
315.16228751
 30
0.0
 11
-151.73881555
 21
363.4446962
 31
0.0
  0
INSERT
  5
BD
100
AcDbEntity
  8
0
  6
CONTINUOUS
 62
       7
100
AcDbBlockReference
  2
_OPEN30
 10
-151.73881555
 20
363.4446962
 30
0.0
 41
12.00001115
 42
11.9999571
 50
66.15675552
  0
LINE
  5
BE
100
AcDbEntity
  8
0
  6
CONTINUOUS
 62
       7
100
AcDbLine
 10
-111.71947581
 20
453.99552417
 30
0.0
 11
-119.80419091
 21
435.70242761
 31
0.0
  0
INSERT
  5
BF
100
AcDbEntity
  8
0
  6
CONTINUOUS
 62
       7
100
AcDbBlockReference
  2
_OPEN30
 10
-119.80419091
 20
435.70242761
 30
0.0
 41
12.00001115
 42
11.9999571
 50
246.15675552
  0
TEXT
  5
C0
100
AcDbEntity
  8
0
 62
       7
100
AcDbText
 10
-223.29919205
 20
319.16228751
 30
0.0
 40
16.0
  1
φ79
 41
0.8
 72
       5
 11
-184.89919205
 21
319.16228751
 31
0.0
100
AcDbText
  0
ENDBLK
  5
C1
100
AcDbEntity
  8
0
100
AcDbBlockEnd
  0
BLOCK
  5
C2
100
AcDbEntity
  8
0
100
AcDbBlockBegin
  2
DA_IMAGEDIMGROUP_10
 70
       0
 10
0.0
 20
0.0
 30
0.0
  3
DA_IMAGEDIMGROUP_10
  1

  0
LINE
  5
C3
100
AcDbEntity
  8
0
  6
CONTINUOUS
 62
       7
100
AcDbLine
 10
-96.37279533
 20
105.44436421
 30
0.0
 11
-112.94496855
 21
105.44436421
 31
0.0
  0
LINE
  5
C4
100
AcDbEntity
  8
0
  6
CONTINUOUS
 62
       7
100
AcDbLine
 10
-108.94496855
 20
90.44436421
 30
0.0
 11
-108.94496855
 21
105.44436421
 31
0.0
  0
LINE
  5
C5
100
AcDbEntity
  8
0
  6
CONTINUOUS
 62
       7
100
AcDbLine
 10
-108.94496855
 20
140.44436421
 30
0.0
 11
-108.94496855
 21
165.44436421
 31
0.0
  0
LINE
  5
C6
100
AcDbEntity
  8
0
  6
CONTINUOUS
 62
       7
100
AcDbLine
 10
-108.94496855
 20
45.25324421
 30
0.0
 11
-108.94496855
 21
90.44436421
 31
0.0
  0
INSERT
  5
C7
100
AcDbEntity
  8
0
  6
CONTINUOUS
 62
       7
100
AcDbBlockReference
  2
_OPEN30
 10
-108.94496855
 20
90.44436421
 30
0.0
 41
12.00001115
 42
11.9999571
 50
90.0
  0
LINE
  5
C8
100
AcDbEntity
  8
0
  6
CONTINUOUS
 62
       7
100
AcDbLine
 10
-108.94496855
 20
210.63548421
 30
0.0
 11
-108.94496855
 21
165.44436421
 31
0.0
  0
INSERT
  5
C9
100
AcDbEntity
  8
0
  6
CONTINUOUS
 62
       7
100
AcDbBlockReference
  2
_OPEN30
 10
-108.94496855
 20
165.44436421
 30
0.0
 41
12.00001115
 42
11.9999571
 50
270.0
  0
LINE
  5
CA
100
AcDbEntity
  8
0
  6
CONTINUOUS
 62
       7
100
AcDbLine
 10
-108.94496855
 20
105.44436421
 30
0.0
 11
-108.94496855
 21
140.44436421
 31
0.0
  0
INSERT
  5
CB
100
AcDbEntity
  8
0
  6
CONTINUOUS
 62
       7
100
AcDbBlockReference
  2
_OPEN30
 10
-108.94496855
 20
105.44436421
 30
0.0
 41
12.00001115
 42
11.9999571
 50
270.0
  0
INSERT
  5
CC
100
AcDbEntity
  8
0
  6
CONTINUOUS
 62
       7
100
AcDbBlockReference
  2
_OPEN30
 10
-108.94496855
 20
140.44436421
 30
0.0
 41
12.00001115
 42
11.9999571
 50
90.0
  0
TEXT
  5
CD
100
AcDbEntity
  8
0
 62
       7
100
AcDbText
 10
-112.94496855
 20
49.25324421
 30
0.0
 40
16.0
  1
15
 50
90.0
 41
0.8
 72
       5
 11
-112.94496855
 21
74.85324421
 31
0.0
100
AcDbText
  0
TEXT
  5
CE
100
AcDbEntity
  8
0
 62
       7
100
AcDbText
 10
-112.94496855
 20
110.14436421
 30
0.0
 40
16.0
  1
35
 50
90.0
 41
0.8
 72
       5
 11
-112.94496855
 21
135.74436421
 31
0.0
100
AcDbText
  0
TEXT
  5
CF
100
AcDbEntity
  8
0
 62
       7
100
AcDbText
 10
-112.94496855
 20
181.03548421
 30
0.0
 40
16.0
  1
25
 50
90.0
 41
0.8
 72
       5
 11
-112.94496855
 21
206.63548421
 31
0.0
100
AcDbText
  0
ENDBLK
  5
D0
100
AcDbEntity
  8
0
100
AcDbBlockEnd
  0
BLOCK
  5
D1
100
AcDbEntity
  8
0
100
AcDbBlockBegin
  2
DA_IMAGEDIMGROUP_11
 70
       0
 10
0.0
 20
0.0
 30
0.0
  3
DA_IMAGEDIMGROUP_11
  1

  0
LINE
  5
D2
100
AcDbEntity
  8
0
  6
CONTINUOUS
 62
       7
100
AcDbLine
 10
-329.08123552
 20
194.95868872
 30
0.0
 11
-223.85532973
 21
127.2038402
 31
0.0
  0
INSERT
  5
D3
100
AcDbEntity
  8
0
  6
CONTINUOUS
 62
       7
100
AcDbBlockReference
  2
_OPEN30
 10
-223.85532973
 20
127.2038402
 30
0.0
 41
12.00001115
 42
11.9999571
 50
327.22255807
  0
LINE
  5
D4
100
AcDbEntity
  8
0
  6
CONTINUOUS
 62
       7
100
AcDbLine
 10
-207.03973341
 20
116.37629566
 30
0.0
 11
-223.85532973
 21
127.2038402
 31
0.0
  0
TEXT
  5
D5
100
AcDbEntity
  8
0
 62
       7
100
AcDbText
 10
-323.55260735
 20
196.15629907
 30
0.0
 40
16.0
  1
5-φ6.5
 50
-32.77744193
 41
0.8
 72
       5
 11
-258.98071751
 21
154.57852807
 31
0.0
100
AcDbText
  0
ENDBLK
  5
D6
100
AcDbEntity
  8
0
100
AcDbBlockEnd
  0
BLOCK
  5
D7
100
AcDbEntity
  8
0
100
AcDbBlockBegin
  2
DA_IMAGEDIMGROUP_12
 70
       0
 10
0.0
 20
0.0
 30
0.0
  3
DA_IMAGEDIMGROUP_12
  1

  0
LINE
  5
D8
100
AcDbEntity
  8
0
  6
CONTINUOUS
 62
       7
100
AcDbLine
 10
30.1395072
 20
-203.0002487
 30
0.0
 11
81.092955
 21
-203.0002487
 31
0.0
  0
LINE
  5
D9
100
AcDbEntity
  8
0
  6
CONTINUOUS
 62
       7
100
AcDbLine
 10
20.05733974
 20
-278.0002487
 30
0.0
 11
81.092955
 21
-278.0002487
 31
0.0
  0
LINE
  5
DA
100
AcDbEntity
  8
0
  6
CONTINUOUS
 62
       7
100
AcDbLine
 10
77.092955
 20
-278.0002487
 30
0.0
 11
77.092955
 21
-203.0002487
 31
0.0
  0
INSERT
  5
DB
100
AcDbEntity
  8
0
  6
CONTINUOUS
 62
       7
100
AcDbBlockReference
  2
_OPEN30
 10
77.092955
 20
-278.0002487
 30
0.0
 41
12.00001115
 42
11.9999571
 50
270.0
  0
INSERT
  5
DC
100
AcDbEntity
  8
0
  6
CONTINUOUS
 62
       7
100
AcDbBlockReference
  2
_OPEN30
 10
77.092955
 20
-203.0002487
 30
0.0
 41
12.00001115
 42
11.9999571
 50
90.0
  0
TEXT
  5
DD
100
AcDbEntity
  8
0
 62
       7
100
AcDbText
 10
73.092955
 20
-253.3002487
 30
0.0
 40
16.0
  1
75
 50
90.0
 41
0.8
 72
       5
 11
73.092955
 21
-227.7002487
 31
0.0
100
AcDbText
  0
ENDBLK
  5
DE
100
AcDbEntity
  8
0
100
AcDbBlockEnd
  0
BLOCK
  5
DF
100
AcDbEntity
  8
0
100
AcDbBlockBegin
  2
DA_IMAGEDIMGROUP_13
 70
       0
 10
0.0
 20
0.0
 30
0.0
  3
DA_IMAGEDIMGROUP_13
  1

  0
LINE
  5
E0
100
AcDbEntity
  8
0
  6
CONTINUOUS
 62
       7
100
AcDbLine
 10
30.1395072
 20
-203.0002487
 30
0.0
 11
81.092955
 21
-203.0002487
 31
0.0
  0
LINE
  5
E1
100
AcDbEntity
  8
0
  6
CONTINUOUS
 62
       7
100
AcDbLine
 10
32.05664135
 20
-113.0002487
 30
0.0
 11
81.092955
 21
-113.0002487
 31
0.0
  0
LINE
  5
E2
100
AcDbEntity
  8
0
  6
CONTINUOUS
 62
       7
100
AcDbLine
 10
77.092955
 20
-203.0002487
 30
0.0
 11
77.092955
 21
-113.0002487
 31
0.0
  0
INSERT
  5
E3
100
AcDbEntity
  8
0
  6
CONTINUOUS
 62
       7
100
AcDbBlockReference
  2
_OPEN30
 10
77.092955
 20
-203.0002487
 30
0.0
 41
12.00001115
 42
11.9999571
 50
270.0
  0
INSERT
  5
E4
100
AcDbEntity
  8
0
  6
CONTINUOUS
 62
       7
100
AcDbBlockReference
  2
_OPEN30
 10
77.092955
 20
-113.0002487
 30
0.0
 41
12.00001115
 42
11.9999571
 50
90.0
  0
TEXT
  5
E5
100
AcDbEntity
  8
0
 62
       7
100
AcDbText
 10
73.092955
 20
-170.8002487
 30
0.0
 40
16.0
  1
90
 50
90.0
 41
0.8
 72
       5
 11
73.092955
 21
-145.2002487
 31
0.0
100
AcDbText
  0
ENDBLK
  5
E6
100
AcDbEntity
  8
0
100
AcDbBlockEnd
  0
BLOCK
  5
E7
100
AcDbEntity
  8
0
100
AcDbBlockBegin
  2
DA_IMAGEDIMGROUP_14
 70
       0
 10
0.0
 20
0.0
 30
0.0
  3
DA_IMAGEDIMGROUP_14
  1

  0
LINE
  5
E8
100
AcDbEntity
  8
0
  6
CONTINUOUS
 62
       7
100
AcDbLine
 10
16.55733974
 20
-281.5002487
 30
0.0
 11
16.55733974
 21
-314.2677541
 31
0.0
  0
LINE
  5
E9
100
AcDbEntity
  8
0
  6
CONTINUOUS
 62
       7
100
AcDbLine
 10
-303.44266026
 20
-281.5002487
 30
0.0
 11
-303.44266026
 21
-314.2677541
 31
0.0
  0
LINE
  5
EA
100
AcDbEntity
  8
0
  6
CONTINUOUS
 62
       7
100
AcDbLine
 10
-303.44266026
 20
-310.2677541
 30
0.0
 11
16.55733974
 21
-310.2677541
 31
0.0
  0
INSERT
  5
EB
100
AcDbEntity
  8
0
  6
CONTINUOUS
 62
       7
100
AcDbBlockReference
  2
_OPEN30
 10
-303.44266026
 20
-310.2677541
 30
0.0
 41
12.00001115
 42
11.9999571
 50
180.0
  0
INSERT
  5
EC
100
AcDbEntity
  8
0
  6
CONTINUOUS
 62
       7
100
AcDbBlockReference
  2
_OPEN30
 10
16.55733974
 20
-310.2677541
 30
0.0
 41
12.00001115
 42
11.9999571
 50
360.0
  0
TEXT
  5
ED
100
AcDbEntity
  8
0
 62
       7
100
AcDbText
 10
-162.64266026
 20
-306.2677541
 30
0.0
 40
16.0
  1
320
 41
0.8
 72
       5
 11
-124.24266026
 21
-306.2677541
 31
0.0
100
AcDbText
  0
ENDBLK
  5
EE
100
AcDbEntity
  8
0
100
AcDbBlockEnd
  0
BLOCK
  5
EF
100
AcDbEntity
  8
0
100
AcDbBlockBegin
  2
DA_IMAGEDIMGROUP_15
 70
       0
 10
0.0
 20
0.0
 30
0.0
  3
DA_IMAGEDIMGROUP_15
  1

  0
LINE
  5
F0
100
AcDbEntity
  8
0
  6
CONTINUOUS
 62
       7
100
AcDbLine
 10
31.55526876
 20
-112.59826022
 30
0.0
 11
31.55526876
 21
-84.70443001
 31
0.0
  0
LINE
  5
F1
100
AcDbEntity
  8
0
  6
CONTINUOUS
 62
       7
100
AcDbLine
 10
-318.44196187
 20
-112.5002487
 30
0.0
 11
-318.44196187
 21
-84.70443001
 31
0.0
  0
LINE
  5
F2
100
AcDbEntity
  8
0
  6
CONTINUOUS
 62
       7
100
AcDbLine
 10
-318.44196187
 20
-88.70443001
 30
0.0
 11
31.55526876
 21
-88.70443001
 31
0.0
  0
INSERT
  5
F3
100
AcDbEntity
  8
0
  6
CONTINUOUS
 62
       7
100
AcDbBlockReference
  2
_OPEN30
 10
-318.44196187
 20
-88.70443001
 30
0.0
 41
12.00001115
 42
11.9999571
 50
180.0
  0
INSERT
  5
F4
100
AcDbEntity
  8
0
  6
CONTINUOUS
 62
       7
100
AcDbBlockReference
  2
_OPEN30
 10
31.55526876
 20
-88.70443001
 30
0.0
 41
12.00001115
 42
11.9999571
 50
360.0
  0
TEXT
  5
F5
100
AcDbEntity
  8
0
 62
       7
100
AcDbText
 10
-162.64334656
 20
-84.70443001
 30
0.0
 40
16.0
  1
350
 41
0.8
 72
       5
 11
-124.24334656
 21
-84.70443001
 31
0.0
100
AcDbText
  0
ENDBLK
  5
F6
100
AcDbEntity
  8
0
100
AcDbBlockEnd
  0
BLOCK
  5
F7
100
AcDbEntity
  8
0
100
AcDbBlockBegin
  2
DA_IMAGEDIMGROUP_16
 70
       0
 10
0.0
 20
0.0
 30
0.0
  3
DA_IMAGEDIMGROUP_16
  1

  0
LINE
  5
F8
100
AcDbEntity
  8
0
  6
CONTINUOUS
 62
       7
100
AcDbLine
 10
140.01807762
 20
-112.5002487
 30
0.0
 11
140.01807762
 21
-67.41655857
 31
0.0
  0
LINE
  5
F9
100
AcDbEntity
  8
0
  6
CONTINUOUS
 62
       7
100
AcDbLine
 10
140.01807762
 20
-71.41655857
 30
0.0
 11
320.01807762
 21
-71.41655857
 31
0.0
  0
INSERT
  5
FA
100
AcDbEntity
  8
0
  6
CONTINUOUS
 62
       7
100
AcDbBlockReference
  2
_OPEN30
 10
140.01807762
 20
-71.41655857
 30
0.0
 41
12.00001115
 42
11.9999571
 50
180.0
  0
INSERT
  5
FB
100
AcDbEntity
  8
0
  6
CONTINUOUS
 62
       7
100
AcDbBlockReference
  2
_OPEN30
 10
320.01807762
 20
-71.41655857
 30
0.0
 41
12.00001115
 42
11.9999571
 50
360.0
  0
TEXT
  5
FC
100
AcDbEntity
  8
0
 62
       7
100
AcDbText
 10
210.81807762
 20
-67.41655857
 30
0.0
 40
16.0
  1
180
 41
0.8
 72
       5
 11
249.21807762
 21
-67.41655857
 31
0.0
100
AcDbText
  0
ENDBLK
  5
FD
100
AcDbEntity
  8
0
100
AcDbBlockEnd
  0
BLOCK
  5
FE
100
AcDbEntity
  8
0
100
AcDbBlockBegin
  2
DA_IMAGEDIMGROUP_17
 70
       0
 10
0.0
 20
0.0
 30
0.0
  3
DA_IMAGEDIMGROUP_17
  1

  0
LINE
  5
FF
100
AcDbEntity
  8
0
  6
CONTINUOUS
 62
       7
100
AcDbLine
 10
200.01807762
 20
-200.5002487
 30
0.0
 11
200.01807762
 21
-159.68146196
 31
0.0
  0
LINE
  5
100
100
AcDbEntity
  8
0
  6
CONTINUOUS
 62
       7
100
AcDbLine
 10
200.01807762
 20
-163.68146196
 30
0.0
 11
320.01807762
 21
-163.68146196
 31
0.0
  0
INSERT
  5
101
100
AcDbEntity
  8
0
  6
CONTINUOUS
 62
       7
100
AcDbBlockReference
  2
_OPEN30
 10
200.01807762
 20
-163.68146196
 30
0.0
 41
12.00001115
 42
11.9999571
 50
180.0
  0
INSERT
  5
102
100
AcDbEntity
  8
0
  6
CONTINUOUS
 62
       7
100
AcDbBlockReference
  2
_OPEN30
 10
320.01807762
 20
-163.68146196
 30
0.0
 41
12.00001115
 42
11.9999571
 50
360.0
  0
TEXT
  5
103
100
AcDbEntity
  8
0
 62
       7
100
AcDbText
 10
240.81807762
 20
-159.68146196
 30
0.0
 40
16.0
  1
120
 41
0.8
 72
       5
 11
279.21807762
 21
-159.68146196
 31
0.0
100
AcDbText
  0
ENDBLK
  5
104
100
AcDbEntity
  8
0
100
AcDbBlockEnd
  0
BLOCK
  5
105
100
AcDbEntity
  8
0
100
AcDbBlockBegin
  2
GROUP_1
 70
       0
 10
0.0
 20
0.0
 30
0.0
  3
GROUP_1
  1

  0
LINE
  5
106
100
AcDbEntity
  8
0
  6
CONTINUOUS
 62
       7
100
AcDbLine
 10
140.01807762
 20
-121.066002
 30
0.0
 11
92.78718957
 21
-65.96329927
 31
0.0
  0
INSERT
  5
107
100
AcDbEntity
  8
0
  6
CONTINUOUS
 62
       7
100
AcDbBlockReference
  2
_OPEN30
 10
140.01807762
 20
-121.066002
 30
0.0
 41
12.00001115
 42
11.9999571
 50
310.60129465
  0
LINE
  5
108
100
AcDbEntity
  8
0
  6
CONTINUOUS
 62
       7
100
AcDbLine
 10
92.78718957
 20
-65.96329927
 30
0.0
 11
-9.61281043
 21
-65.96329927
 31
0.0
  0
TEXT
  5
109
100
AcDbEntity
  8
0
 62
       7
100
AcDbText
 10
-9.61281043
 20
-65.96329927
 30
0.0
 40
16.0
  1
RW104B/S
 41
0.8
 72
       5
 11
92.78718957
 21
-65.96329927
 31
0.0
100
AcDbText
  0
ENDBLK
  5
10A
100
AcDbEntity
  8
0
100
AcDbBlockEnd
  0
BLOCK
  5
10B
100
AcDbEntity
  8
0
100
AcDbBlockBegin
  2
GROUP_2
 70
       0
 10
0.0
 20
0.0
 30
0.0
  3
GROUP_2
  1

  0
LINE
  5
10C
100
AcDbEntity
  8
0
  6
CONTINUOUS
 62
       7
100
AcDbLine
 10
261.65649369
 20
-244.3774332
 30
0.0
 11
209.55819856
 21
-265.5602565
 31
0.0
  0
INSERT
  5
10D
100
AcDbEntity
  8
0
  6
CONTINUOUS
 62
       7
100
AcDbBlockReference
  2
_OPEN30
 10
261.65649369
 20
-244.3774332
 30
0.0
 41
12.00001115
 42
11.9999571
 50
22.12633481
  0
LINE
  5
10E
100
AcDbEntity
  8
0
  6
CONTINUOUS
 62
       7
100
AcDbLine
 10
209.55819856
 20
-265.5602565
 30
0.0
 11
132.75819856
 21
-265.5602565
 31
0.0
  0
TEXT
  5
10F
100
AcDbEntity
  8
0
 62
       7
100
AcDbText
 10
132.75819856
 20
-265.5602565
 30
0.0
 40
16.0
  1
BF-435
 41
0.8
 72
       5
 11
209.55819856
 21
-265.5602565
 31
0.0
100
AcDbText
  0
ENDBLK
  5
110
100
AcDbEntity
  8
0
100
AcDbBlockEnd
  0
BLOCK
  5
111
100
AcDbEntity
  8
0
100
AcDbBlockBegin
  2
DA_IMAGEDIMGROUP_18
 70
       0
 10
0.0
 20
0.0
 30
0.0
  3
DA_IMAGEDIMGROUP_18
  1

  0
LINE
  5
112
100
AcDbEntity
  8
0
  6
CONTINUOUS
 62
       7
100
AcDbLine
 10
-225.77150323
 20
414.53415042
 30
0.0
 11
-225.77150323
 21
497.33898206
 31
0.0
  0
LINE
  5
113
100
AcDbEntity
  8
0
  6
CONTINUOUS
 62
       7
100
AcDbLine
 10
-244.77150323
 20
463.57356191
 30
0.0
 11
-244.77150323
 21
497.33898206
 31
0.0
  0
LINE
  5
114
100
AcDbEntity
  8
0
  6
CONTINUOUS
 62
       7
100
AcDbLine
 10
-244.77150323
 20
493.33898206
 30
0.0
 11
-225.77150323
 21
493.33898206
 31
0.0
  0
LINE
  5
115
100
AcDbEntity
  8
0
  6
CONTINUOUS
 62
       7
100
AcDbLine
 10
-135.77150323
 20
450.05461501
 30
0.0
 11
-135.77150323
 21
497.33898206
 31
0.0
  0
LINE
  5
116
100
AcDbEntity
  8
0
  6
CONTINUOUS
 62
       7
100
AcDbLine
 10
-45.77150323
 20
414.53415042
 30
0.0
 11
-45.77150323
 21
497.33898206
 31
0.0
  0
LINE
  5
117
100
AcDbEntity
  8
0
  6
CONTINUOUS
 62
       7
100
AcDbLine
 10
27.72849677
 20
439.90591084
 30
0.0
 11
27.72849677
 21
497.33898206
 31
0.0
  0
LINE
  5
118
100
AcDbEntity
  8
0
  6
CONTINUOUS
 62
       7
100
AcDbLine
 10
75.22849677
 20
463.57356191
 30
0.0
 11
75.22849677
 21
497.33898206
 31
0.0
  0
LINE
  5
119
100
AcDbEntity
  8
0
  6
CONTINUOUS
 62
       7
100
AcDbLine
 10
27.72849677
 20
493.33898206
 30
0.0
 11
75.22849677
 21
493.33898206
 31
0.0
  0
LINE
  5
11A
100
AcDbEntity
  8
0
  6
CONTINUOUS
 62
       7
100
AcDbLine
 10
-289.96262323
 20
493.33898206
 30
0.0
 11
-244.77150323
 21
493.33898206
 31
0.0
  0
INSERT
  5
11B
100
AcDbEntity
  8
0
  6
CONTINUOUS
 62
       7
100
AcDbBlockReference
  2
_OPEN30
 10
-244.77150323
 20
493.33898206
 30
0.0
 41
12.00001115
 42
11.9999571
 50
360.0
  0
LINE
  5
11C
100
AcDbEntity
  8
0
  6
CONTINUOUS
 62
       7
100
AcDbLine
 10
146.01961677
 20
493.33898206
 30
0.0
 11
75.22849677
 21
493.33898206
 31
0.0
  0
INSERT
  5
11D
100
AcDbEntity
  8
0
  6
CONTINUOUS
 62
       7
100
AcDbBlockReference
  2
_OPEN30
 10
75.22849677
 20
493.33898206
 30
0.0
 41
12.00001115
 42
11.9999571
 50
180.0
  0
LINE
  5
11E
100
AcDbEntity
  8
0
  6
CONTINUOUS
 62
       7
100
AcDbLine
 10
-225.77150323
 20
493.33898206
 30
0.0
 11
-135.77150323
 21
493.33898206
 31
0.0
  0
INSERT
  5
11F
100
AcDbEntity
  8
0
  6
CONTINUOUS
 62
       7
100
AcDbBlockReference
  2
_OPEN30
 10
-225.77150323
 20
493.33898206
 30
0.0
 41
12.00001115
 42
11.9999571
 50
180.0
  0
INSERT
  5
120
100
AcDbEntity
  8
0
  6
CONTINUOUS
 62
       7
100
AcDbBlockReference
  2
_OPEN30
 10
-135.77150323
 20
493.33898206
 30
0.0
 41
12.00001115
 42
11.9999571
 50
360.0
  0
LINE
  5
121
100
AcDbEntity
  8
0
  6
CONTINUOUS
 62
       7
100
AcDbLine
 10
-135.77150323
 20
493.33898206
 30
0.0
 11
-45.77150323
 21
493.33898206
 31
0.0
  0
INSERT
  5
122
100
AcDbEntity
  8
0
  6
CONTINUOUS
 62
       7
100
AcDbBlockReference
  2
_OPEN30
 10
-135.77150323
 20
493.33898206
 30
0.0
 41
12.00001115
 42
11.9999571
 50
180.0
  0
INSERT
  5
123
100
AcDbEntity
  8
0
  6
CONTINUOUS
 62
       7
100
AcDbBlockReference
  2
_OPEN30
 10
-45.77150323
 20
493.33898206
 30
0.0
 41
12.00001115
 42
11.9999571
 50
360.0
  0
LINE
  5
124
100
AcDbEntity
  8
0
  6
CONTINUOUS
 62
       7
100
AcDbLine
 10
-45.77150323
 20
493.33898206
 30
0.0
 11
27.72849677
 21
493.33898206
 31
0.0
  0
INSERT
  5
125
100
AcDbEntity
  8
0
  6
CONTINUOUS
 62
       7
100
AcDbBlockReference
  2
_OPEN30
 10
-45.77150323
 20
493.33898206
 30
0.0
 41
12.00001115
 42
11.9999571
 50
180.0
  0
INSERT
  5
126
100
AcDbEntity
  8
0
  6
CONTINUOUS
 62
       7
100
AcDbBlockReference
  2
_OPEN30
 10
27.72849677
 20
493.33898206
 30
0.0
 41
12.00001115
 42
11.9999571
 50
360.0
  0
TEXT
  5
127
100
AcDbEntity
  8
0
 62
       7
100
AcDbText
 10
-285.96262323
 20
497.33898206
 30
0.0
 40
16.0
  1
19
 41
0.8
 72
       5
 11
-260.36262323
 21
497.33898206
 31
0.0
100
AcDbText
  0
TEXT
  5
128
100
AcDbEntity
  8
0
 62
       7
100
AcDbText
 10
-193.57150323
 20
497.33898206
 30
0.0
 40
16.0
  1
90
 41
0.8
 72
       5
 11
-167.97150323
 21
497.33898206
 31
0.0
100
AcDbText
  0
TEXT
  5
129
100
AcDbEntity
  8
0
 62
       7
100
AcDbText
 10
-103.57150323
 20
497.33898206
 30
0.0
 40
16.0
  1
90
 41
0.8
 72
       5
 11
-77.97150323
 21
497.33898206
 31
0.0
100
AcDbText
  0
TEXT
  5
12A
100
AcDbEntity
  8
0
 62
       7
100
AcDbText
 10
-34.62150323
 20
497.33898206
 30
0.0
 40
16.0
  1
73.5
 41
0.8
 72
       5
 11
16.57849677
 21
497.33898206
 31
0.0
100
AcDbText
  0
TEXT
  5
12B
100
AcDbEntity
  8
0
 62
       7
100
AcDbText
 10
90.81961677
 20
497.33898206
 30
0.0
 40
16.0
  1
47.5
 41
0.8
 72
       5
 11
142.01961677
 21
497.33898206
 31
0.0
100
AcDbText
  0
ENDBLK
  5
12C
100
AcDbEntity
  8
0
100
AcDbBlockEnd
  0
BLOCK
  5
12D
100
AcDbEntity
  8
0
100
AcDbBlockBegin
  2
DA_IMAGEDIMGROUP_19
 70
       0
 10
0.0
 20
0.0
 30
0.0
  3
DA_IMAGEDIMGROUP_19
  1

  0
LINE
  5
12E
100
AcDbEntity
  8
0
  6
CONTINUOUS
 62
       7
100
AcDbLine
 10
-239.81395039
 20
399.57356191
 30
0.0
 11
-279.13985946
 21
399.57356191
 31
0.0
  0
LINE
  5
12F
100
AcDbEntity
  8
0
  6
CONTINUOUS
 62
       7
100
AcDbLine
 10
-244.77150323
 20
463.57356191
 30
0.0
 11
-279.13985946
 21
463.57356191
 31
0.0
  0
LINE
  5
130
100
AcDbEntity
  8
0
  6
CONTINUOUS
 62
       7
100
AcDbLine
 10
-275.13985946
 20
399.57356191
 30
0.0
 11
-275.13985946
 21
463.57356191
 31
0.0
  0
INSERT
  5
131
100
AcDbEntity
  8
0
  6
CONTINUOUS
 62
       7
100
AcDbBlockReference
  2
_OPEN30
 10
-275.13985946
 20
399.57356191
 30
0.0
 41
12.00001115
 42
11.9999571
 50
270.0
  0
INSERT
  5
132
100
AcDbEntity
  8
0
  6
CONTINUOUS
 62
       7
100
AcDbBlockReference
  2
_OPEN30
 10
-275.13985946
 20
463.57356191
 30
0.0
 41
12.00001115
 42
11.9999571
 50
90.0
  0
TEXT
  5
133
100
AcDbEntity
  8
0
 62
       7
100
AcDbText
 10
-279.13985946
 20
418.77356191
 30
0.0
 40
16.0
  1
64
 50
90.0
 41
0.8
 72
       5
 11
-279.13985946
 21
444.37356191
 31
0.0
100
AcDbText
  0
ENDBLK
  5
134
100
AcDbEntity
  8
0
100
AcDbBlockEnd
  0
BLOCK
  5
135
100
AcDbEntity
  8
0
100
AcDbBlockBegin
  2
DA_IMAGEDIMGROUP_20
 70
       0
 10
0.0
 20
0.0
 30
0.0
  3
DA_IMAGEDIMGROUP_20
  1

  0
LINE
  5
136
100
AcDbEntity
  8
0
  6
CONTINUOUS
 62
       7
100
AcDbLine
 10
289.31962276
 20
120.48113208
 30
0.0
 11
291.31962276
 21
120.48113208
 31
0.0
  0
LINE
  5
137
100
AcDbEntity
  8
0
  6
CONTINUOUS
 62
       7
100
AcDbLine
 10
323.71074276
 20
120.48113208
 30
0.0
 11
291.31962276
 21
120.48113208
 31
0.0
  0
INSERT
  5
138
100
AcDbEntity
  8
0
  6
CONTINUOUS
 62
       7
100
AcDbBlockReference
  2
_OPEN30
 10
291.31962276
 20
120.48113208
 30
0.0
 41
12.00001115
 42
11.9999571
 50
180.0
  0
LINE
  5
139
100
AcDbEntity
  8
0
  6
CONTINUOUS
 62
       7
100
AcDbLine
 10
269.31962276
 20
120.48113208
 30
0.0
 11
289.31962276
 21
120.48113208
 31
0.0
  0
INSERT
  5
13A
100
AcDbEntity
  8
0
  6
CONTINUOUS
 62
       7
100
AcDbBlockReference
  2
_OPEN30
 10
289.31962276
 20
120.48113208
 30
0.0
 41
12.00001115
 42
11.9999571
 50
360.0
  0
TEXT
  5
13B
100
AcDbEntity
  8
0
 62
       7
100
AcDbText
 10
306.91074276
 20
124.48113208
 30
0.0
 40
16.0
  1
2
 41
0.8
 72
       5
 11
319.71074276
 21
124.48113208
 31
0.0
100
AcDbText
  0
ENDBLK
  5
13C
100
AcDbEntity
  8
0
100
AcDbBlockEnd
  0
ENDSEC
  0
SECTION
  2
ENTITIES
  0
LINE
  5
13D
100
AcDbEntity
  8
ZUWAKU
  6
CONTINUOUS
 62
       7
100
AcDbLine
 10
-226.63333333
 20
-554.31550651
 30
0.0
 11
-224.38333333
 21
-548.06550651
 31
0.0
  0
LINE
  5
13E
100
AcDbEntity
  8
ZUWAKU
  6
CONTINUOUS
 62
       7
100
AcDbLine
 10
-243.28333333
 20
-554.31550651
 30
0.0
 11
-239.78333333
 21
-544.81550651
 31
0.0
  0
LINE
  5
13F
100
AcDbEntity
  8
ZUWAKU
  6
CONTINUOUS
 62
       7
100
AcDbLine
 10
-246.53333333
 20
-541.31550651
 30
0.0
 11
-247.78333333
 21
-544.81550651
 31
0.0
  0
LINE
  5
140
100
AcDbEntity
  8
ZUWAKU
  6
CONTINUOUS
 62
       7
100
AcDbLine
 10
-235.03333333
 20
-554.31550651
 30
0.0
 11
-231.28333333
 21
-543.31550651
 31
0.0
  0
LINE
  5
141
100
AcDbEntity
  8
ZUWAKU
  6
CONTINUOUS
 62
       7
100
AcDbLine
 10
-182.58333333
 20
-554.31550651
 30
0.0
 11
-186.83333333
 21
-547.31550651
 31
0.0
  0
LINE
  5
142
100
AcDbEntity
  8
ZUWAKU
  6
CONTINUOUS
 62
       7
100
AcDbLine
 10
-246.53333333
 20
-541.31550651
 30
0.0
 11
-241.78333333
 21
-541.31550651
 31
0.0
  0
LINE
  5
143
100
AcDbEntity
  8
ZUWAKU
  6
CONTINUOUS
 62
       7
100
AcDbLine
 10
-221.13333333
 20
-539.06550651
 30
0.0
 11
-212.88333333
 21
-539.06550651
 31
0.0
  0
LINE
  5
144
100
AcDbEntity
  8
ZUWAKU
  6
CONTINUOUS
 62
       7
100
AcDbLine
 10
-203.38333333
 20
-538.31550651
 30
0.0
 11
-200.88333333
 21
-538.31550651
 31
0.0
  0
LINE
  5
145
100
AcDbEntity
  8
ZUWAKU
  6
CONTINUOUS
 62
       7
100
AcDbLine
 10
-219.38333333
 20
-534.56550651
 30
0.0
 11
-221.13333333
 21
-539.06550651
 31
0.0
  0
LINE
  5
146
100
AcDbEntity
  8
ZUWAKU
  6
CONTINUOUS
 62
       7
100
AcDbLine
 10
-211.38333333
 20
-534.56550651
 30
0.0
 11
-212.88333333
 21
-539.06550651
 31
0.0
  0
LINE
  5
147
100
AcDbEntity
  8
ZUWAKU
  6
CONTINUOUS
 62
       7
100
AcDbLine
 10
-243.28333333
 20
-554.31550651
 30
0.0
 11
-235.03333333
 21
-554.31550651
 31
0.0
  0
LINE
  5
148
100
AcDbEntity
  8
ZUWAKU
  6
CONTINUOUS
 62
       7
100
AcDbLine
 10
-230.53333333
 20
-534.56550651
 30
0.0
 11
-221.28333333
 21
-534.56550651
 31
0.0
  0
LINE
  5
149
100
AcDbEntity
  8
ZUWAKU
  6
CONTINUOUS
 62
       7
100
AcDbLine
 10
-189.75363077
 20
-539.06550651
 30
0.0
 11
-198.58333333
 21
-539.06550651
 31
0.0
  0
LINE
  5
14A
100
AcDbEntity
  8
ZUWAKU
  6
CONTINUOUS
 62
       7
100
AcDbLine
 10
-180.08333333
 20
-534.56550651
 30
0.0
 11
-197.08333333
 21
-534.56550651
 31
0.0
  0
LINE
  5
14B
100
AcDbEntity
  8
ZUWAKU
  6
CONTINUOUS
 62
       7
100
AcDbLine
 10
-247.78333333
 20
-544.81550651
 30
0.0
 11
-239.78333333
 21
-544.81550651
 31
0.0
  0
LINE
  5
14C
100
AcDbEntity
  8
ZUWAKU
  6
CONTINUOUS
 62
       7
100
AcDbLine
 10
-226.63333333
 20
-554.31550651
 30
0.0
 11
-213.38333333
 21
-554.31550651
 31
0.0
  0
LINE
  5
14D
100
AcDbEntity
  8
ZUWAKU
  6
CONTINUOUS
 62
       7
100
AcDbLine
 10
-224.38333333
 20
-548.06550651
 30
0.0
 11
-212.38333333
 21
-548.06550651
 31
0.0
  0
LINE
  5
14E
100
AcDbEntity
  8
ZUWAKU
  6
CONTINUOUS
 62
       7
100
AcDbLine
 10
-182.58333333
 20
-554.31550651
 30
0.0
 11
-188.83333333
 21
-554.31550651
 31
0.0
  0
LINE
  5
14F
100
AcDbEntity
  8
ZUWAKU
  6
CONTINUOUS
 62
       7
100
AcDbLine
 10
-198.58333333
 20
-539.06550651
 30
0.0
 11
-197.08333333
 21
-534.56550651
 31
0.0
  0
LINE
  5
150
100
AcDbEntity
  8
ZUWAKU
  6
CONTINUOUS
 62
       7
100
AcDbLine
 10
-285.53333333
 20
-534.56550651
 30
0.0
 11
-289.78333333
 21
-546.56550651
 31
0.0
  0
LINE
  5
151
100
AcDbEntity
  8
ZUWAKU
  6
CONTINUOUS
 62
       7
100
AcDbLine
 10
-289.78333333
 20
-546.56550651
 30
0.0
 11
-284.03333333
 21
-546.56550651
 31
0.0
  0
LINE
  5
152
100
AcDbEntity
  8
ZUWAKU
  6
CONTINUOUS
 62
       7
100
AcDbLine
 10
-284.03333333
 20
-546.56550651
 30
0.0
 11
-279.53333333
 21
-534.56550651
 31
0.0
  0
LINE
  5
153
100
AcDbEntity
  8
ZUWAKU
  6
CONTINUOUS
 62
       7
100
AcDbLine
 10
-279.53333333
 20
-534.56550651
 30
0.0
 11
-285.53333333
 21
-534.56550651
 31
0.0
  0
LINE
  5
154
100
AcDbEntity
  8
ZUWAKU
  6
CONTINUOUS
 62
       7
100
AcDbLine
 10
-209.38333333
 20
-546.56550651
 30
0.0
 11
-206.63333333
 21
-544.31550651
 31
0.0
  0
LINE
  5
155
100
AcDbEntity
  8
ZUWAKU
  6
CONTINUOUS
 62
       7
100
AcDbLine
 10
-206.63333333
 20
-544.31550651
 30
0.0
 11
-204.63333333
 21
-541.56550651
 31
0.0
  0
LINE
  5
156
100
AcDbEntity
  8
ZUWAKU
  6
CONTINUOUS
 62
       7
100
AcDbLine
 10
-204.63333333
 20
-541.56550651
 30
0.0
 11
-203.38333333
 21
-538.31550651
 31
0.0
  0
LINE
  5
157
100
AcDbEntity
  8
ZUWAKU
  6
CONTINUOUS
 62
       7
100
AcDbLine
 10
-264.98333333
 20
-534.56550651
 30
0.0
 11
-246.73333333
 21
-534.56550651
 31
0.0
  0
LINE
  5
158
100
AcDbEntity
  8
ZUWAKU
  6
CONTINUOUS
 62
       7
100
AcDbLine
 10
-246.73333333
 20
-534.56550651
 30
0.0
 11
-248.23333333
 21
-539.06550651
 31
0.0
  0
LINE
  5
159
100
AcDbEntity
  8
ZUWAKU
  6
CONTINUOUS
 62
       7
100
AcDbLine
 10
-246.73333333
 20
-534.56550651
 30
0.0
 11
-248.23333333
 21
-539.06550651
 31
0.0
  0
LINE
  5
15A
100
AcDbEntity
  8
ZUWAKU
  6
CONTINUOUS
 62
       7
100
AcDbLine
 10
-248.23333333
 20
-539.06550651
 30
0.0
 11
-266.48333333
 21
-539.06550651
 31
0.0
  0
LINE
  5
15B
100
AcDbEntity
  8
ZUWAKU
  6
CONTINUOUS
 62
       7
100
AcDbLine
 10
-266.48333333
 20
-539.06550651
 30
0.0
 11
-264.98333333
 21
-534.56550651
 31
0.0
  0
LINE
  5
15C
100
AcDbEntity
  8
ZUWAKU
  6
CONTINUOUS
 62
       7
100
AcDbLine
 10
-266.48333333
 20
-539.06550651
 30
0.0
 11
-264.98333333
 21
-534.56550651
 31
0.0
  0
LINE
  5
15D
100
AcDbEntity
  8
ZUWAKU
  6
CONTINUOUS
 62
       7
100
AcDbLine
 10
-246.73333333
 20
-534.56550651
 30
0.0
 11
-264.98333333
 21
-534.56550651
 31
0.0
  0
LINE
  5
15E
100
AcDbEntity
  8
ZUWAKU
  6
CONTINUOUS
 62
       7
100
AcDbLine
 10
-264.98333333
 20
-534.56550651
 30
0.0
 11
-266.48333333
 21
-539.06550651
 31
0.0
  0
LINE
  5
15F
100
AcDbEntity
  8
ZUWAKU
  6
CONTINUOUS
 62
       7
100
AcDbLine
 10
-266.48333333
 20
-539.06550651
 30
0.0
 11
-248.23333333
 21
-539.06550651
 31
0.0
  0
LINE
  5
160
100
AcDbEntity
  8
ZUWAKU
  6
CONTINUOUS
 62
       7
100
AcDbLine
 10
-257.23333333
 20
-553.81550651
 30
0.0
 11
-255.23333333
 21
-552.81550651
 31
0.0
  0
LINE
  5
161
100
AcDbEntity
  8
ZUWAKU
  6
CONTINUOUS
 62
       7
100
AcDbLine
 10
-255.23333333
 20
-552.81550651
 30
0.0
 11
-253.73333333
 21
-551.31550651
 31
0.0
  0
LINE
  5
162
100
AcDbEntity
  8
ZUWAKU
  6
CONTINUOUS
 62
       7
100
AcDbLine
 10
-253.73333333
 20
-551.31550651
 30
0.0
 11
-251.98333333
 21
-549.56550651
 31
0.0
  0
LINE
  5
163
100
AcDbEntity
  8
ZUWAKU
  6
CONTINUOUS
 62
       7
100
AcDbLine
 10
-251.98333333
 20
-549.56550651
 30
0.0
 11
-248.98333333
 21
-541.31550651
 31
0.0
  0
LINE
  5
164
100
AcDbEntity
  8
ZUWAKU
  6
CONTINUOUS
 62
       7
100
AcDbLine
 10
-248.98333333
 20
-541.31550651
 30
0.0
 11
-266.98333333
 21
-541.31550651
 31
0.0
  0
LINE
  5
165
100
AcDbEntity
  8
ZUWAKU
  6
CONTINUOUS
 62
       7
100
AcDbLine
 10
-266.98333333
 20
-541.31550651
 30
0.0
 11
-267.98333333
 21
-544.81550651
 31
0.0
  0
LINE
  5
166
100
AcDbEntity
  8
ZUWAKU
  6
CONTINUOUS
 62
       7
100
AcDbLine
 10
-267.98333333
 20
-544.81550651
 30
0.0
 11
-257.48333333
 21
-544.81550651
 31
0.0
  0
LINE
  5
167
100
AcDbEntity
  8
ZUWAKU
  6
CONTINUOUS
 62
       7
100
AcDbLine
 10
-257.48333333
 20
-544.81550651
 30
0.0
 11
-257.98333333
 21
-546.56550651
 31
0.0
  0
LINE
  5
168
100
AcDbEntity
  8
ZUWAKU
  6
CONTINUOUS
 62
       7
100
AcDbLine
 10
-257.98333333
 20
-546.56550651
 30
0.0
 11
-259.23333333
 21
-548.06550651
 31
0.0
  0
LINE
  5
169
100
AcDbEntity
  8
ZUWAKU
  6
CONTINUOUS
 62
       7
100
AcDbLine
 10
-259.23333333
 20
-548.06550651
 30
0.0
 11
-260.48333333
 21
-549.31550651
 31
0.0
  0
LINE
  5
16A
100
AcDbEntity
  8
ZUWAKU
  6
CONTINUOUS
 62
       7
100
AcDbLine
 10
-260.48333333
 20
-549.31550651
 30
0.0
 11
-262.23333333
 21
-550.56550651
 31
0.0
  0
LINE
  5
16B
100
AcDbEntity
  8
ZUWAKU
  6
CONTINUOUS
 62
       7
100
AcDbLine
 10
-262.23333333
 20
-550.56550651
 30
0.0
 11
-270.48333333
 21
-550.56550651
 31
0.0
  0
LINE
  5
16C
100
AcDbEntity
  8
ZUWAKU
  6
CONTINUOUS
 62
       7
100
AcDbLine
 10
-270.48333333
 20
-550.56550651
 30
0.0
 11
-271.98333333
 21
-554.31550651
 31
0.0
  0
LINE
  5
16D
100
AcDbEntity
  8
ZUWAKU
  6
CONTINUOUS
 62
       7
100
AcDbLine
 10
-288.03333333
 20
-554.31550651
 30
0.0
 11
-286.78333333
 21
-550.56550651
 31
0.0
  0
LINE
  5
16E
100
AcDbEntity
  8
ZUWAKU
  6
CONTINUOUS
 62
       7
100
AcDbLine
 10
-286.78333333
 20
-550.56550651
 30
0.0
 11
-284.53333333
 21
-550.56550651
 31
0.0
  0
LINE
  5
16F
100
AcDbEntity
  8
ZUWAKU
  6
CONTINUOUS
 62
       7
100
AcDbLine
 10
-284.53333333
 20
-550.56550651
 30
0.0
 11
-282.53333333
 21
-550.31550651
 31
0.0
  0
LINE
  5
170
100
AcDbEntity
  8
ZUWAKU
  6
CONTINUOUS
 62
       7
100
AcDbLine
 10
-282.53333333
 20
-550.31550651
 30
0.0
 11
-280.53333333
 21
-549.31550651
 31
0.0
  0
LINE
  5
171
100
AcDbEntity
  8
ZUWAKU
  6
CONTINUOUS
 62
       7
100
AcDbLine
 10
-280.53333333
 20
-549.31550651
 30
0.0
 11
-279.28333333
 21
-547.31550651
 31
0.0
  0
LINE
  5
172
100
AcDbEntity
  8
ZUWAKU
  6
CONTINUOUS
 62
       7
100
AcDbLine
 10
-279.28333333
 20
-547.31550651
 30
0.0
 11
-274.53333333
 21
-534.56550651
 31
0.0
  0
LINE
  5
173
100
AcDbEntity
  8
ZUWAKU
  6
CONTINUOUS
 62
       7
100
AcDbLine
 10
-274.53333333
 20
-534.56550651
 30
0.0
 11
-267.78333333
 21
-534.56550651
 31
0.0
  0
LINE
  5
174
100
AcDbEntity
  8
ZUWAKU
  6
CONTINUOUS
 62
       7
100
AcDbLine
 10
-267.78333333
 20
-534.56550651
 30
0.0
 11
-272.78333333
 21
-549.31550651
 31
0.0
  0
LINE
  5
175
100
AcDbEntity
  8
ZUWAKU
  6
CONTINUOUS
 62
       7
100
AcDbLine
 10
-272.78333333
 20
-549.31550651
 30
0.0
 11
-274.78333333
 21
-551.31550651
 31
0.0
  0
LINE
  5
176
100
AcDbEntity
  8
ZUWAKU
  6
CONTINUOUS
 62
       7
100
AcDbLine
 10
-274.78333333
 20
-551.31550651
 30
0.0
 11
-276.78333333
 21
-553.06550651
 31
0.0
  0
LINE
  5
177
100
AcDbEntity
  8
ZUWAKU
  6
CONTINUOUS
 62
       7
100
AcDbLine
 10
-276.78333333
 20
-553.06550651
 30
0.0
 11
-279.28333333
 21
-554.06550651
 31
0.0
  0
LINE
  5
178
100
AcDbEntity
  8
ZUWAKU
  6
CONTINUOUS
 62
       7
100
AcDbLine
 10
-221.28333333
 20
-534.56550651
 30
0.0
 11
-222.78333333
 21
-537.81550651
 31
0.0
  0
LINE
  5
179
100
AcDbEntity
  8
ZUWAKU
  6
CONTINUOUS
 62
       7
100
AcDbLine
 10
-222.78333333
 20
-537.81550651
 30
0.0
 11
-225.28333333
 21
-540.31550651
 31
0.0
  0
LINE
  5
17A
100
AcDbEntity
  8
ZUWAKU
  6
CONTINUOUS
 62
       7
100
AcDbLine
 10
-222.78333333
 20
-537.81550651
 30
0.0
 11
-225.28333333
 21
-540.31550651
 31
0.0
  0
LINE
  5
17B
100
AcDbEntity
  8
ZUWAKU
  6
CONTINUOUS
 62
       7
100
AcDbLine
 10
-225.28333333
 20
-540.31550651
 30
0.0
 11
-228.03333333
 21
-542.31550651
 31
0.0
  0
LINE
  5
17C
100
AcDbEntity
  8
ZUWAKU
  6
CONTINUOUS
 62
       7
100
AcDbLine
 10
-228.03333333
 20
-542.31550651
 30
0.0
 11
-231.28333333
 21
-543.31550651
 31
0.0
  0
LINE
  5
17D
100
AcDbEntity
  8
ZUWAKU
  6
CONTINUOUS
 62
       7
100
AcDbLine
 10
-228.03333333
 20
-542.31550651
 30
0.0
 11
-231.28333333
 21
-543.31550651
 31
0.0
  0
LINE
  5
17E
100
AcDbEntity
  8
ZUWAKU
  6
CONTINUOUS
 62
       7
100
AcDbLine
 10
-231.28333333
 20
-543.31550651
 30
0.0
 11
-235.03333333
 21
-554.31550651
 31
0.0
  0
LINE
  5
17F
100
AcDbEntity
  8
ZUWAKU
  6
CONTINUOUS
 62
       7
100
AcDbLine
 10
-235.03333333
 20
-554.31550651
 30
0.0
 11
-243.28333333
 21
-554.31550651
 31
0.0
  0
LINE
  5
180
100
AcDbEntity
  8
ZUWAKU
  6
CONTINUOUS
 62
       7
100
AcDbLine
 10
-235.03333333
 20
-554.31550651
 30
0.0
 11
-243.28333333
 21
-554.31550651
 31
0.0
  0
LINE
  5
181
100
AcDbEntity
  8
ZUWAKU
  6
CONTINUOUS
 62
       7
100
AcDbLine
 10
-240.18333333
 20
-544.81550651
 30
0.0
 11
-247.78333333
 21
-544.81550651
 31
0.0
  0
LINE
  5
182
100
AcDbEntity
  8
ZUWAKU
  6
CONTINUOUS
 62
       7
100
AcDbLine
 10
-247.78333333
 20
-544.81550651
 30
0.0
 11
-246.53333333
 21
-541.31550651
 31
0.0
  0
LINE
  5
183
100
AcDbEntity
  8
ZUWAKU
  6
CONTINUOUS
 62
       7
100
AcDbLine
 10
-243.28333333
 20
-554.31550651
 30
0.0
 11
-239.78333333
 21
-544.81550651
 31
0.0
  0
LINE
  5
184
100
AcDbEntity
  8
ZUWAKU
  6
CONTINUOUS
 62
       7
100
AcDbLine
 10
-243.28333333
 20
-554.31550651
 30
0.0
 11
-239.78333333
 21
-544.81550651
 31
0.0
  0
LINE
  5
185
100
AcDbEntity
  8
ZUWAKU
  6
CONTINUOUS
 62
       7
100
AcDbLine
 10
-246.53333333
 20
-541.31550651
 30
0.0
 11
-241.78333333
 21
-541.31550651
 31
0.0
  0
LINE
  5
186
100
AcDbEntity
  8
ZUWAKU
  6
CONTINUOUS
 62
       7
100
AcDbLine
 10
-246.53333333
 20
-541.31550651
 30
0.0
 11
-241.78333333
 21
-541.31550651
 31
0.0
  0
LINE
  5
187
100
AcDbEntity
  8
ZUWAKU
  6
CONTINUOUS
 62
       7
100
AcDbLine
 10
-241.78333333
 20
-541.31550651
 30
0.0
 11
-238.53333333
 21
-541.06550651
 31
0.0
  0
LINE
  5
188
100
AcDbEntity
  8
ZUWAKU
  6
CONTINUOUS
 62
       7
100
AcDbLine
 10
-241.78333333
 20
-541.31550651
 30
0.0
 11
-238.53333333
 21
-541.06550651
 31
0.0
  0
LINE
  5
189
100
AcDbEntity
  8
ZUWAKU
  6
CONTINUOUS
 62
       7
100
AcDbLine
 10
-238.53333333
 20
-541.06550651
 30
0.0
 11
-235.03333333
 21
-539.56550651
 31
0.0
  0
LINE
  5
18A
100
AcDbEntity
  8
ZUWAKU
  6
CONTINUOUS
 62
       7
100
AcDbLine
 10
-238.53333333
 20
-541.06550651
 30
0.0
 11
-235.03333333
 21
-539.56550651
 31
0.0
  0
LINE
  5
18B
100
AcDbEntity
  8
ZUWAKU
  6
CONTINUOUS
 62
       7
100
AcDbLine
 10
-235.03333333
 20
-539.56550651
 30
0.0
 11
-232.53333333
 21
-537.31550651
 31
0.0
  0
LINE
  5
18C
100
AcDbEntity
  8
ZUWAKU
  6
CONTINUOUS
 62
       7
100
AcDbLine
 10
-235.03333333
 20
-539.56550651
 30
0.0
 11
-232.53333333
 21
-537.31550651
 31
0.0
  0
LINE
  5
18D
100
AcDbEntity
  8
ZUWAKU
  6
CONTINUOUS
 62
       7
100
AcDbLine
 10
-279.53333333
 20
-534.56550651
 30
0.0
 11
-284.03333333
 21
-546.56550651
 31
0.0
  0
LINE
  5
18E
100
AcDbEntity
  8
ZUWAKU
  6
CONTINUOUS
 62
       7
100
AcDbLine
 10
-284.03333333
 20
-546.56550651
 30
0.0
 11
-289.78333333
 21
-546.56550651
 31
0.0
  0
LINE
  5
18F
100
AcDbEntity
  8
ZUWAKU
  6
CONTINUOUS
 62
       7
100
AcDbLine
 10
-284.03333333
 20
-546.56550651
 30
0.0
 11
-289.78333333
 21
-546.56550651
 31
0.0
  0
LINE
  5
190
100
AcDbEntity
  8
ZUWAKU
  6
CONTINUOUS
 62
       7
100
AcDbLine
 10
-289.78333333
 20
-546.56550651
 30
0.0
 11
-285.53333333
 21
-534.56550651
 31
0.0
  0
LINE
  5
191
100
AcDbEntity
  8
ZUWAKU
  6
CONTINUOUS
 62
       7
100
AcDbLine
 10
-285.53333333
 20
-534.56550651
 30
0.0
 11
-279.53333333
 21
-534.56550651
 31
0.0
  0
LINE
  5
192
100
AcDbEntity
  8
ZUWAKU
  6
CONTINUOUS
 62
       7
100
AcDbLine
 10
-285.53333333
 20
-534.56550651
 30
0.0
 11
-279.53333333
 21
-534.56550651
 31
0.0
  0
LINE
  5
193
100
AcDbEntity
  8
ZUWAKU
  6
CONTINUOUS
 62
       7
100
AcDbLine
 10
-197.08333333
 20
-534.56550651
 30
0.0
 11
-198.58333333
 21
-539.06550651
 31
0.0
  0
LINE
  5
194
100
AcDbEntity
  8
ZUWAKU
  6
CONTINUOUS
 62
       7
100
AcDbLine
 10
-198.58333333
 20
-539.06550651
 30
0.0
 11
-190.58333333
 21
-539.06550651
 31
0.0
  0
LINE
  5
195
100
AcDbEntity
  8
ZUWAKU
  6
CONTINUOUS
 62
       7
100
AcDbLine
 10
-198.58333333
 20
-539.06550651
 30
0.0
 11
-190.58333333
 21
-539.06550651
 31
0.0
  0
LINE
  5
196
100
AcDbEntity
  8
ZUWAKU
  6
CONTINUOUS
 62
       7
100
AcDbLine
 10
-204.08333333
 20
-550.31550651
 30
0.0
 11
-205.58333333
 21
-554.56550651
 31
0.0
  0
LINE
  5
197
100
AcDbEntity
  8
ZUWAKU
  6
CONTINUOUS
 62
       7
100
AcDbLine
 10
-204.08333333
 20
-550.31550651
 30
0.0
 11
-205.58333333
 21
-554.56550651
 31
0.0
  0
LINE
  5
198
100
AcDbEntity
  8
ZUWAKU
  6
CONTINUOUS
 62
       7
100
AcDbLine
 10
-205.58333333
 20
-554.56550651
 30
0.0
 11
-198.08333333
 21
-553.31550651
 31
0.0
  0
LINE
  5
199
100
AcDbEntity
  8
ZUWAKU
  6
CONTINUOUS
 62
       7
100
AcDbLine
 10
-198.08333333
 20
-553.31550651
 30
0.0
 11
-194.58333333
 21
-552.31550651
 31
0.0
  0
LINE
  5
19A
100
AcDbEntity
  8
ZUWAKU
  6
CONTINUOUS
 62
       7
100
AcDbLine
 10
-198.08333333
 20
-553.31550651
 30
0.0
 11
-194.58333333
 21
-552.31550651
 31
0.0
  0
LINE
  5
19B
100
AcDbEntity
  8
ZUWAKU
  6
CONTINUOUS
 62
       7
100
AcDbLine
 10
-190.83333333
 20
-551.06550651
 30
0.0
 11
-188.83333333
 21
-554.31550651
 31
0.0
  0
LINE
  5
19C
100
AcDbEntity
  8
ZUWAKU
  6
CONTINUOUS
 62
       7
100
AcDbLine
 10
-188.83333333
 20
-554.31550651
 30
0.0
 11
-182.58333333
 21
-554.31550651
 31
0.0
  0
LINE
  5
19D
100
AcDbEntity
  8
ZUWAKU
  6
CONTINUOUS
 62
       7
100
AcDbLine
 10
-188.83333333
 20
-554.31550651
 30
0.0
 11
-182.58333333
 21
-554.31550651
 31
0.0
  0
LINE
  5
19E
100
AcDbEntity
  8
ZUWAKU
  6
CONTINUOUS
 62
       7
100
AcDbLine
 10
-186.83333333
 20
-547.31550651
 30
0.0
 11
-184.58333333
 21
-544.31550651
 31
0.0
  0
LINE
  5
19F
100
AcDbEntity
  8
ZUWAKU
  6
CONTINUOUS
 62
       7
100
AcDbLine
 10
-184.58333333
 20
-544.31550651
 30
0.0
 11
-182.58333333
 21
-541.31550651
 31
0.0
  0
LINE
  5
1A0
100
AcDbEntity
  8
ZUWAKU
  6
CONTINUOUS
 62
       7
100
AcDbLine
 10
-182.58333333
 20
-541.31550651
 30
0.0
 11
-181.08333333
 21
-538.06550651
 31
0.0
  0
LINE
  5
1A1
100
AcDbEntity
  8
ZUWAKU
  6
CONTINUOUS
 62
       7
100
AcDbLine
 10
-181.08333333
 20
-538.06550651
 30
0.0
 11
-180.08333333
 21
-534.56550651
 31
0.0
  0
LINE
  5
1A2
100
AcDbEntity
  8
ZUWAKU
  6
CONTINUOUS
 62
       7
100
AcDbLine
 10
-181.08333333
 20
-538.06550651
 30
0.0
 11
-180.08333333
 21
-534.56550651
 31
0.0
  0
LINE
  5
1A3
100
AcDbEntity
  8
ZUWAKU
  6
CONTINUOUS
 62
       7
100
AcDbLine
 10
-180.08333333
 20
-534.56550651
 30
0.0
 11
-197.08333333
 21
-534.56550651
 31
0.0
  0
LINE
  5
1A4
100
AcDbEntity
  8
ZUWAKU
  6
CONTINUOUS
 62
       7
100
AcDbLine
 10
-195.33333333
 20
-547.06550651
 30
0.0
 11
-199.33333333
 21
-549.31550651
 31
0.0
  0
LINE
  5
1A5
100
AcDbEntity
  8
ZUWAKU
  6
CONTINUOUS
 62
       7
100
AcDbLine
 10
-194.58333333
 20
-552.31550651
 30
0.0
 11
-190.83333333
 21
-551.06550651
 31
0.0
  0
LINE
  5
1A6
100
AcDbEntity
  8
ZUWAKU
  6
CONTINUOUS
 62
       7
100
AcDbLine
 10
-194.58333333
 20
-552.31550651
 30
0.0
 11
-190.83333333
 21
-551.06550651
 31
0.0
  0
LINE
  5
1A7
100
AcDbEntity
  8
ZUWAKU
  6
CONTINUOUS
 62
       7
100
AcDbLine
 10
-182.58333333
 20
-554.31550651
 30
0.0
 11
-186.83333333
 21
-547.31550651
 31
0.0
  0
LINE
  5
1A8
100
AcDbEntity
  8
ZUWAKU
  6
CONTINUOUS
 62
       7
100
AcDbLine
 10
-182.58333333
 20
-554.31550651
 30
0.0
 11
-186.83333333
 21
-547.31550651
 31
0.0
  0
LINE
  5
1A9
100
AcDbEntity
  8
ZUWAKU
  6
CONTINUOUS
 62
       7
100
AcDbLine
 10
-192.08333333
 20
-543.31550651
 30
0.0
 11
-195.33333333
 21
-547.06550651
 31
0.0
  0
LINE
  5
1AA
100
AcDbEntity
  8
ZUWAKU
  6
CONTINUOUS
 62
       7
100
AcDbLine
 10
-192.08333333
 20
-543.31550651
 30
0.0
 11
-195.33333333
 21
-547.06550651
 31
0.0
  0
LINE
  5
1AB
100
AcDbEntity
  8
ZUWAKU
  6
CONTINUOUS
 62
       7
100
AcDbLine
 10
-241.78333333
 20
-541.31550651
 30
0.0
 11
-238.53333333
 21
-541.06550651
 31
0.0
  0
LINE
  5
1AC
100
AcDbEntity
  8
ZUWAKU
  6
CONTINUOUS
 62
       7
100
AcDbLine
 10
-238.53333333
 20
-541.06550651
 30
0.0
 11
-235.03333333
 21
-539.56550651
 31
0.0
  0
LINE
  5
1AD
100
AcDbEntity
  8
ZUWAKU
  6
CONTINUOUS
 62
       7
100
AcDbLine
 10
-235.03333333
 20
-539.56550651
 30
0.0
 11
-232.53333333
 21
-537.31550651
 31
0.0
  0
LINE
  5
1AE
100
AcDbEntity
  8
ZUWAKU
  6
CONTINUOUS
 62
       7
100
AcDbLine
 10
-232.53333333
 20
-537.31550651
 30
0.0
 11
-230.53333333
 21
-534.56550651
 31
0.0
  0
LINE
  5
1AF
100
AcDbEntity
  8
ZUWAKU
  6
CONTINUOUS
 62
       7
100
AcDbLine
 10
-213.38333333
 20
-554.31550651
 30
0.0
 11
-208.88333333
 21
-552.31550651
 31
0.0
  0
LINE
  5
1B0
100
AcDbEntity
  8
ZUWAKU
  6
CONTINUOUS
 62
       7
100
AcDbLine
 10
-208.88333333
 20
-552.31550651
 30
0.0
 11
-204.88333333
 21
-548.56550651
 31
0.0
  0
LINE
  5
1B1
100
AcDbEntity
  8
ZUWAKU
  6
CONTINUOUS
 62
       7
100
AcDbLine
 10
-204.88333333
 20
-548.56550651
 30
0.0
 11
-201.88333333
 21
-543.56550651
 31
0.0
  0
LINE
  5
1B2
100
AcDbEntity
  8
ZUWAKU
  6
CONTINUOUS
 62
       7
100
AcDbLine
 10
-201.88333333
 20
-543.56550651
 30
0.0
 11
-200.88333333
 21
-538.31550651
 31
0.0
  0
LINE
  5
1B3
100
AcDbEntity
  8
ZUWAKU
  6
CONTINUOUS
 62
       7
100
AcDbLine
 10
-204.08333333
 20
-550.31550651
 30
0.0
 11
-199.33333333
 21
-549.31550651
 31
0.0
  0
LINE
  5
1B4
100
AcDbEntity
  8
ZUWAKU
  6
CONTINUOUS
 62
       7
100
AcDbLine
 10
-199.33333333
 20
-549.31550651
 30
0.0
 11
-195.33333333
 21
-547.06550651
 31
0.0
  0
LINE
  5
1B5
100
AcDbEntity
  8
ZUWAKU
  6
CONTINUOUS
 62
       7
100
AcDbLine
 10
-195.33333333
 20
-547.06550651
 30
0.0
 11
-192.08333333
 21
-543.31550651
 31
0.0
  0
LINE
  5
1B6
100
AcDbEntity
  8
ZUWAKU
  6
CONTINUOUS
 62
       7
100
AcDbLine
 10
-231.28333333
 20
-543.31550651
 30
0.0
 11
-228.03333333
 21
-542.31550651
 31
0.0
  0
LINE
  5
1B7
100
AcDbEntity
  8
ZUWAKU
  6
CONTINUOUS
 62
       7
100
AcDbLine
 10
-228.03333333
 20
-542.31550651
 30
0.0
 11
-225.28333333
 21
-540.31550651
 31
0.0
  0
LINE
  5
1B8
100
AcDbEntity
  8
ZUWAKU
  6
CONTINUOUS
 62
       7
100
AcDbLine
 10
-225.28333333
 20
-540.31550651
 30
0.0
 11
-222.78333333
 21
-537.81550651
 31
0.0
  0
LINE
  5
1B9
100
AcDbEntity
  8
ZUWAKU
  6
CONTINUOUS
 62
       7
100
AcDbLine
 10
-222.78333333
 20
-537.81550651
 30
0.0
 11
-221.28333333
 21
-534.56550651
 31
0.0
  0
LINE
  5
1BA
100
AcDbEntity
  8
ZUWAKU
  6
CONTINUOUS
 62
       7
100
AcDbLine
 10
-186.83333333
 20
-547.31550651
 30
0.0
 11
-184.58333333
 21
-544.31550651
 31
0.0
  0
LINE
  5
1BB
100
AcDbEntity
  8
ZUWAKU
  6
CONTINUOUS
 62
       7
100
AcDbLine
 10
-184.58333333
 20
-544.31550651
 30
0.0
 11
-182.58333333
 21
-541.31550651
 31
0.0
  0
LINE
  5
1BC
100
AcDbEntity
  8
ZUWAKU
  6
CONTINUOUS
 62
       7
100
AcDbLine
 10
-182.58333333
 20
-541.31550651
 30
0.0
 11
-181.08333333
 21
-538.06550651
 31
0.0
  0
LINE
  5
1BD
100
AcDbEntity
  8
ZUWAKU
  6
CONTINUOUS
 62
       7
100
AcDbLine
 10
-181.08333333
 20
-538.06550651
 30
0.0
 11
-180.08333333
 21
-534.56550651
 31
0.0
  0
LINE
  5
1BE
100
AcDbEntity
  8
ZUWAKU
  6
CONTINUOUS
 62
       7
100
AcDbLine
 10
-198.08333333
 20
-553.31550651
 30
0.0
 11
-194.58333333
 21
-552.31550651
 31
0.0
  0
LINE
  5
1BF
100
AcDbEntity
  8
ZUWAKU
  6
CONTINUOUS
 62
       7
100
AcDbLine
 10
-194.58333333
 20
-552.31550651
 30
0.0
 11
-190.83333333
 21
-551.06550651
 31
0.0
  0
LINE
  5
1C0
100
AcDbEntity
  8
ZUWAKU
  6
CONTINUOUS
 62
       7
100
AcDbLine
 10
-204.63333333
 20
-541.56550651
 30
0.0
 11
-203.38333333
 21
-538.31550651
 31
0.0
  0
LINE
  5
1C1
100
AcDbEntity
  8
ZUWAKU
  6
CONTINUOUS
 62
       7
100
AcDbLine
 10
-203.38333333
 20
-538.31550651
 30
0.0
 11
-200.88333333
 21
-538.31550651
 31
0.0
  0
LINE
  5
1C2
100
AcDbEntity
  8
ZUWAKU
  6
CONTINUOUS
 62
       7
100
AcDbLine
 10
-203.38333333
 20
-538.31550651
 30
0.0
 11
-200.88333333
 21
-538.31550651
 31
0.0
  0
LINE
  5
1C3
100
AcDbEntity
  8
ZUWAKU
  6
CONTINUOUS
 62
       7
100
AcDbLine
 10
-200.88333333
 20
-538.31550651
 30
0.0
 11
-201.88333333
 21
-543.56550651
 31
0.0
  0
LINE
  5
1C4
100
AcDbEntity
  8
ZUWAKU
  6
CONTINUOUS
 62
       7
100
AcDbLine
 10
-201.88333333
 20
-543.56550651
 30
0.0
 11
-204.88333333
 21
-548.56550651
 31
0.0
  0
LINE
  5
1C5
100
AcDbEntity
  8
ZUWAKU
  6
CONTINUOUS
 62
       7
100
AcDbLine
 10
-201.88333333
 20
-543.56550651
 30
0.0
 11
-204.88333333
 21
-548.56550651
 31
0.0
  0
LINE
  5
1C6
100
AcDbEntity
  8
ZUWAKU
  6
CONTINUOUS
 62
       7
100
AcDbLine
 10
-204.88333333
 20
-548.56550651
 30
0.0
 11
-208.88333333
 21
-552.31550651
 31
0.0
  0
LINE
  5
1C7
100
AcDbEntity
  8
ZUWAKU
  6
CONTINUOUS
 62
       7
100
AcDbLine
 10
-213.88333333
 20
-554.31550651
 30
0.0
 11
-226.63333333
 21
-554.31550651
 31
0.0
  0
LINE
  5
1C8
100
AcDbEntity
  8
ZUWAKU
  6
CONTINUOUS
 62
       7
100
AcDbLine
 10
-226.63333333
 20
-554.31550651
 30
0.0
 11
-224.38333333
 21
-548.06550651
 31
0.0
  0
LINE
  5
1C9
100
AcDbEntity
  8
ZUWAKU
  6
CONTINUOUS
 62
       7
100
AcDbLine
 10
-226.63333333
 20
-554.31550651
 30
0.0
 11
-224.38333333
 21
-548.06550651
 31
0.0
  0
LINE
  5
1CA
100
AcDbEntity
  8
ZUWAKU
  6
CONTINUOUS
 62
       7
100
AcDbLine
 10
-206.63333333
 20
-544.31550651
 30
0.0
 11
-204.63333333
 21
-541.56550651
 31
0.0
  0
LINE
  5
1CB
100
AcDbEntity
  8
ZUWAKU
  6
CONTINUOUS
 62
       7
100
AcDbLine
 10
-224.38333333
 20
-548.06550651
 30
0.0
 11
-212.38333333
 21
-548.06550651
 31
0.0
  0
LINE
  5
1CC
100
AcDbEntity
  8
ZUWAKU
  6
CONTINUOUS
 62
       7
100
AcDbLine
 10
-224.38333333
 20
-548.06550651
 30
0.0
 11
-212.38333333
 21
-548.06550651
 31
0.0
  0
LINE
  5
1CD
100
AcDbEntity
  8
ZUWAKU
  6
CONTINUOUS
 62
       7
100
AcDbLine
 10
-212.38333333
 20
-548.06550651
 30
0.0
 11
-209.38333333
 21
-546.56550651
 31
0.0
  0
LINE
  5
1CE
100
AcDbEntity
  8
ZUWAKU
  6
CONTINUOUS
 62
       7
100
AcDbLine
 10
-212.38333333
 20
-548.06550651
 30
0.0
 11
-209.38333333
 21
-546.56550651
 31
0.0
  0
LINE
  5
1CF
100
AcDbEntity
  8
ZUWAKU
  6
CONTINUOUS
 62
       7
100
AcDbLine
 10
-209.38333333
 20
-546.56550651
 30
0.0
 11
-206.63333333
 21
-544.31550651
 31
0.0
  0
LINE
  5
1D0
100
AcDbEntity
  8
ZUWAKU
  6
CONTINUOUS
 62
       7
100
AcDbLine
 10
-248.98333333
 20
-541.31550651
 30
0.0
 11
-251.98333333
 21
-549.56550651
 31
0.0
  0
LINE
  5
1D1
100
AcDbEntity
  8
ZUWAKU
  6
CONTINUOUS
 62
       7
100
AcDbLine
 10
-251.98333333
 20
-549.56550651
 30
0.0
 11
-253.73333333
 21
-551.31550651
 31
0.0
  0
LINE
  5
1D2
100
AcDbEntity
  8
ZUWAKU
  6
CONTINUOUS
 62
       7
100
AcDbLine
 10
-251.98333333
 20
-549.56550651
 30
0.0
 11
-253.73333333
 21
-551.31550651
 31
0.0
  0
LINE
  5
1D3
100
AcDbEntity
  8
ZUWAKU
  6
CONTINUOUS
 62
       7
100
AcDbLine
 10
-253.73333333
 20
-551.31550651
 30
0.0
 11
-255.23333333
 21
-552.81550651
 31
0.0
  0
LINE
  5
1D4
100
AcDbEntity
  8
ZUWAKU
  6
CONTINUOUS
 62
       7
100
AcDbLine
 10
-255.23333333
 20
-552.81550651
 30
0.0
 11
-257.23333333
 21
-553.81550651
 31
0.0
  0
LINE
  5
1D5
100
AcDbEntity
  8
ZUWAKU
  6
CONTINUOUS
 62
       7
100
AcDbLine
 10
-255.23333333
 20
-552.81550651
 30
0.0
 11
-257.23333333
 21
-553.81550651
 31
0.0
  0
LINE
  5
1D6
100
AcDbEntity
  8
ZUWAKU
  6
CONTINUOUS
 62
       7
100
AcDbLine
 10
-257.23333333
 20
-553.81550651
 30
0.0
 11
-259.23333333
 21
-554.31550651
 31
0.0
  0
LINE
  5
1D7
100
AcDbEntity
  8
ZUWAKU
  6
CONTINUOUS
 62
       7
100
AcDbLine
 10
-259.23333333
 20
-554.31550651
 30
0.0
 11
-271.98333333
 21
-554.31550651
 31
0.0
  0
LINE
  5
1D8
100
AcDbEntity
  8
ZUWAKU
  6
CONTINUOUS
 62
       7
100
AcDbLine
 10
-259.23333333
 20
-554.31550651
 30
0.0
 11
-271.98333333
 21
-554.31550651
 31
0.0
  0
LINE
  5
1D9
100
AcDbEntity
  8
ZUWAKU
  6
CONTINUOUS
 62
       7
100
AcDbLine
 10
-271.98333333
 20
-554.31550651
 30
0.0
 11
-270.48333333
 21
-550.56550651
 31
0.0
  0
LINE
  5
1DA
100
AcDbEntity
  8
ZUWAKU
  6
CONTINUOUS
 62
       7
100
AcDbLine
 10
-270.48333333
 20
-550.56550651
 30
0.0
 11
-262.23333333
 21
-550.56550651
 31
0.0
  0
LINE
  5
1DB
100
AcDbEntity
  8
ZUWAKU
  6
CONTINUOUS
 62
       7
100
AcDbLine
 10
-270.48333333
 20
-550.56550651
 30
0.0
 11
-262.23333333
 21
-550.56550651
 31
0.0
  0
LINE
  5
1DC
100
AcDbEntity
  8
ZUWAKU
  6
CONTINUOUS
 62
       7
100
AcDbLine
 10
-257.48333333
 20
-544.81550651
 30
0.0
 11
-267.98333333
 21
-544.81550651
 31
0.0
  0
LINE
  5
1DD
100
AcDbEntity
  8
ZUWAKU
  6
CONTINUOUS
 62
       7
100
AcDbLine
 10
-267.98333333
 20
-544.81550651
 30
0.0
 11
-266.98333333
 21
-541.31550651
 31
0.0
  0
LINE
  5
1DE
100
AcDbEntity
  8
ZUWAKU
  6
CONTINUOUS
 62
       7
100
AcDbLine
 10
-267.98333333
 20
-544.81550651
 30
0.0
 11
-266.98333333
 21
-541.31550651
 31
0.0
  0
LINE
  5
1DF
100
AcDbEntity
  8
ZUWAKU
  6
CONTINUOUS
 62
       7
100
AcDbLine
 10
-262.23333333
 20
-550.56550651
 30
0.0
 11
-260.48333333
 21
-549.31550651
 31
0.0
  0
LINE
  5
1E0
100
AcDbEntity
  8
ZUWAKU
  6
CONTINUOUS
 62
       7
100
AcDbLine
 10
-262.23333333
 20
-550.56550651
 30
0.0
 11
-260.48333333
 21
-549.31550651
 31
0.0
  0
LINE
  5
1E1
100
AcDbEntity
  8
ZUWAKU
  6
CONTINUOUS
 62
       7
100
AcDbLine
 10
-260.48333333
 20
-549.31550651
 30
0.0
 11
-259.23333333
 21
-548.06550651
 31
0.0
  0
LINE
  5
1E2
100
AcDbEntity
  8
ZUWAKU
  6
CONTINUOUS
 62
       7
100
AcDbLine
 10
-260.48333333
 20
-549.31550651
 30
0.0
 11
-259.23333333
 21
-548.06550651
 31
0.0
  0
LINE
  5
1E3
100
AcDbEntity
  8
ZUWAKU
  6
CONTINUOUS
 62
       7
100
AcDbLine
 10
-259.23333333
 20
-548.06550651
 30
0.0
 11
-257.98333333
 21
-546.56550651
 31
0.0
  0
LINE
  5
1E4
100
AcDbEntity
  8
ZUWAKU
  6
CONTINUOUS
 62
       7
100
AcDbLine
 10
-259.23333333
 20
-548.06550651
 30
0.0
 11
-257.98333333
 21
-546.56550651
 31
0.0
  0
LINE
  5
1E5
100
AcDbEntity
  8
ZUWAKU
  6
CONTINUOUS
 62
       7
100
AcDbLine
 10
-257.98333333
 20
-546.56550651
 30
0.0
 11
-257.48333333
 21
-544.81550651
 31
0.0
  0
LINE
  5
1E6
100
AcDbEntity
  8
ZUWAKU
  6
CONTINUOUS
 62
       7
100
AcDbLine
 10
-257.98333333
 20
-546.56550651
 30
0.0
 11
-257.48333333
 21
-544.81550651
 31
0.0
  0
LINE
  5
1E7
100
AcDbEntity
  8
ZUWAKU
  6
CONTINUOUS
 62
       7
100
AcDbLine
 10
-273.73333333
 20
-534.56550651
 30
0.0
 11
-268.23531838
 21
-534.56550651
 31
0.0
  0
LINE
  5
1E8
100
AcDbEntity
  8
ZUWAKU
  6
CONTINUOUS
 62
       7
100
AcDbLine
 10
-272.78333333
 20
-549.31550651
 30
0.0
 11
-274.78333333
 21
-551.31550651
 31
0.0
  0
LINE
  5
1E9
100
AcDbEntity
  8
ZUWAKU
  6
CONTINUOUS
 62
       7
100
AcDbLine
 10
-274.78333333
 20
-551.31550651
 30
0.0
 11
-276.78333333
 21
-553.06550651
 31
0.0
  0
LINE
  5
1EA
100
AcDbEntity
  8
ZUWAKU
  6
CONTINUOUS
 62
       7
100
AcDbLine
 10
-274.78333333
 20
-551.31550651
 30
0.0
 11
-276.78333333
 21
-553.06550651
 31
0.0
  0
LINE
  5
1EB
100
AcDbEntity
  8
ZUWAKU
  6
CONTINUOUS
 62
       7
100
AcDbLine
 10
-276.78333333
 20
-553.06550651
 30
0.0
 11
-279.28333333
 21
-554.06550651
 31
0.0
  0
LINE
  5
1EC
100
AcDbEntity
  8
ZUWAKU
  6
CONTINUOUS
 62
       7
100
AcDbLine
 10
-279.28333333
 20
-554.06550651
 30
0.0
 11
-281.78333333
 21
-554.31550651
 31
0.0
  0
LINE
  5
1ED
100
AcDbEntity
  8
ZUWAKU
  6
CONTINUOUS
 62
       7
100
AcDbLine
 10
-281.78333333
 20
-554.31550651
 30
0.0
 11
-288.03333333
 21
-554.31550651
 31
0.0
  0
LINE
  5
1EE
100
AcDbEntity
  8
ZUWAKU
  6
CONTINUOUS
 62
       7
100
AcDbLine
 10
-288.03333333
 20
-554.31550651
 30
0.0
 11
-286.78333333
 21
-550.56550651
 31
0.0
  0
LINE
  5
1EF
100
AcDbEntity
  8
ZUWAKU
  6
CONTINUOUS
 62
       7
100
AcDbLine
 10
-288.03333333
 20
-554.31550651
 30
0.0
 11
-286.78333333
 21
-550.56550651
 31
0.0
  0
LINE
  5
1F0
100
AcDbEntity
  8
ZUWAKU
  6
CONTINUOUS
 62
       7
100
AcDbLine
 10
-279.28333333
 20
-547.31550651
 30
0.0
 11
-274.53333333
 21
-534.56550651
 31
0.0
  0
LINE
  5
1F1
100
AcDbEntity
  8
ZUWAKU
  6
CONTINUOUS
 62
       7
100
AcDbLine
 10
-286.78333333
 20
-550.56550651
 30
0.0
 11
-284.53333333
 21
-550.56550651
 31
0.0
  0
LINE
  5
1F2
100
AcDbEntity
  8
ZUWAKU
  6
CONTINUOUS
 62
       7
100
AcDbLine
 10
-286.78333333
 20
-550.56550651
 30
0.0
 11
-284.53333333
 21
-550.56550651
 31
0.0
  0
LINE
  5
1F3
100
AcDbEntity
  8
ZUWAKU
  6
CONTINUOUS
 62
       7
100
AcDbLine
 10
-280.53333333
 20
-549.31550651
 30
0.0
 11
-279.28333333
 21
-547.31550651
 31
0.0
  0
LINE
  5
1F4
100
AcDbEntity
  8
ZUWAKU
  6
CONTINUOUS
 62
       7
100
AcDbLine
 10
-282.53333333
 20
-550.31550651
 30
0.0
 11
-280.53333333
 21
-549.31550651
 31
0.0
  0
LINE
  5
1F5
100
AcDbEntity
  8
ZUWAKU
  6
CONTINUOUS
 62
       7
100
AcDbLine
 10
-284.53333333
 20
-550.56550651
 30
0.0
 11
-282.53333333
 21
-550.31550651
 31
0.0
  0
LINE
  5
1F6
100
AcDbEntity
  8
ZUWAKU
  6
CONTINUOUS
 62
       7
100
AcDbLine
 10
-284.53333333
 20
-550.56550651
 30
0.0
 11
-282.53333333
 21
-550.31550651
 31
0.0
  0
LINE
  5
1F7
100
AcDbEntity
  8
ZUWAKU
  6
CONTINUOUS
 62
       7
100
AcDbLine
 10
-219.38333333
 20
-534.56550651
 30
0.0
 11
-211.38333333
 21
-534.56550651
 31
0.0
  0
LINE
  5
1F8
100
AcDbEntity
  8
ZUWAKU
  6
CONTINUOUS
 62
       7
100
AcDbLine
 10
-211.38333333
 20
-534.56550651
 30
0.0
 11
-212.88333333
 21
-539.06550651
 31
0.0
  0
LINE
  5
1F9
100
AcDbEntity
  8
ZUWAKU
  6
CONTINUOUS
 62
       7
100
AcDbLine
 10
-211.38333333
 20
-534.56550651
 30
0.0
 11
-212.88333333
 21
-539.06550651
 31
0.0
  0
LINE
  5
1FA
100
AcDbEntity
  8
ZUWAKU
  6
CONTINUOUS
 62
       7
100
AcDbLine
 10
-213.28333333
 20
-539.06550651
 30
0.0
 11
-221.13333333
 21
-539.06550651
 31
0.0
  0
LINE
  5
1FB
100
AcDbEntity
  8
ZUWAKU
  6
CONTINUOUS
 62
       7
100
AcDbLine
 10
-189.75363077
 20
-539.03224862
 30
0.0
 11
-192.08333333
 21
-543.31550651
 31
0.0
  0
LINE
  5
1FC
100
AcDbEntity
  8
ZUWAKU
  6
CONTINUOUS
 62
       7
100
AcDbLine
 10
-182.83333333
 20
-534.56550651
 30
0.0
 11
-195.33333333
 21
-547.06550651
 31
0.0
  0
LINE
  5
1FD
100
AcDbEntity
  8
ZUWAKU
  6
CONTINUOUS
 62
       7
100
AcDbLine
 10
-195.33333333
 20
-547.06550651
 30
0.0
 11
-202.28333333
 21
-554.01550651
 31
0.0
  0
LINE
  5
1FE
100
AcDbEntity
  8
ZUWAKU
  6
CONTINUOUS
 62
       7
100
AcDbLine
 10
-183.96470418
 20
-534.56550651
 30
0.0
 11
-191.33039521
 21
-541.93119753
 31
0.0
  0
LINE
  5
1FF
100
AcDbEntity
  8
ZUWAKU
  6
CONTINUOUS
 62
       7
100
AcDbLine
 10
-197.91932385
 20
-548.52012617
 30
0.0
 11
-203.64097835
 21
-554.24178068
 31
0.0
  0
LINE
  5
200
100
AcDbEntity
  8
ZUWAKU
  6
CONTINUOUS
 62
       7
100
AcDbLine
 10
-185.09607503
 20
-534.56550651
 30
0.0
 11
-189.9811846
 21
-539.45061608
 31
0.0
  0
LINE
  5
201
100
AcDbEntity
  8
ZUWAKU
  6
CONTINUOUS
 62
       7
100
AcDbLine
 10
-199.98280615
 20
-549.45223763
 30
0.0
 11
-204.99862337
 21
-554.46805485
 31
0.0
  0
LINE
  5
202
100
AcDbEntity
  8
ZUWAKU
  6
CONTINUOUS
 62
       7
100
AcDbLine
 10
-186.22744588
 20
-534.56550651
 30
0.0
 11
-190.72744588
 21
-539.06550651
 31
0.0
  0
LINE
  5
203
100
AcDbEntity
  8
ZUWAKU
  6
CONTINUOUS
 62
       7
100
AcDbLine
 10
-201.4158759
 20
-549.75393652
 30
0.0
 11
-205.23199922
 21
-553.57005984
 31
0.0
  0
LINE
  5
204
100
AcDbEntity
  8
ZUWAKU
  6
CONTINUOUS
 62
       7
100
AcDbLine
 10
-187.35881673
 20
-534.56550651
 30
0.0
 11
-191.85881673
 21
-539.06550651
 31
0.0
  0
LINE
  5
205
100
AcDbEntity
  8
ZUWAKU
  6
CONTINUOUS
 62
       7
100
AcDbLine
 10
-202.84894564
 20
-550.05563541
 30
0.0
 11
-204.61488784
 21
-551.82157762
 31
0.0
  0
LINE
  5
206
100
AcDbEntity
  8
ZUWAKU
  6
CONTINUOUS
 62
       7
100
AcDbLine
 10
-188.49018758
 20
-534.56550651
 30
0.0
 11
-192.99018758
 21
-539.06550651
 31
0.0
  0
LINE
  5
207
100
AcDbEntity
  8
ZUWAKU
  6
CONTINUOUS
 62
       7
100
AcDbLine
 10
-189.62155843
 20
-534.56550651
 30
0.0
 11
-194.12155843
 21
-539.06550651
 31
0.0
  0
LINE
  5
208
100
AcDbEntity
  8
ZUWAKU
  6
CONTINUOUS
 62
       7
100
AcDbLine
 10
-190.75292928
 20
-534.56550651
 30
0.0
 11
-195.25292928
 21
-539.06550651
 31
0.0
  0
LINE
  5
209
100
AcDbEntity
  8
ZUWAKU
  6
CONTINUOUS
 62
       7
100
AcDbLine
 10
-191.88430013
 20
-534.56550651
 30
0.0
 11
-196.38430013
 21
-539.06550651
 31
0.0
  0
LINE
  5
20A
100
AcDbEntity
  8
ZUWAKU
  6
CONTINUOUS
 62
       7
100
AcDbLine
 10
-193.01567098
 20
-534.56550651
 30
0.0
 11
-197.51567098
 21
-539.06550651
 31
0.0
  0
LINE
  5
20B
100
AcDbEntity
  8
ZUWAKU
  6
CONTINUOUS
 62
       7
100
AcDbLine
 10
-194.14704183
 20
-534.56550651
 30
0.0
 11
-198.55147908
 21
-538.96994376
 31
0.0
  0
LINE
  5
20C
100
AcDbEntity
  8
ZUWAKU
  6
CONTINUOUS
 62
       7
100
AcDbLine
 10
-195.27841268
 20
-534.56550651
 30
0.0
 11
-197.98579366
 21
-537.27288748
 31
0.0
  0
LINE
  5
20D
100
AcDbEntity
  8
ZUWAKU
  6
CONTINUOUS
 62
       7
100
AcDbLine
 10
-196.40978353
 20
-534.56550651
 30
0.0
 11
-197.42010823
 21
-535.57583121
 31
0.0
  0
LINE
  5
20E
100
AcDbEntity
  8
ZUWAKU
  6
CONTINUOUS
 62
       7
100
AcDbLine
 10
-181.70196248
 20
-534.56550651
 30
0.0
 11
-200.92568831
 21
-553.78923234
 31
0.0
  0
LINE
  5
20F
100
AcDbEntity
  8
ZUWAKU
  6
CONTINUOUS
 62
       7
100
AcDbLine
 10
-180.57059163
 20
-534.56550651
 30
0.0
 11
-199.56804329
 21
-553.56295817
 31
0.0
  0
LINE
  5
210
100
AcDbEntity
  8
ZUWAKU
  6
CONTINUOUS
 62
       7
100
AcDbLine
 10
-180.34097835
 20
-535.46726408
 30
0.0
 11
-198.21039827
 21
-553.336684
 31
0.0
  0
LINE
  5
211
100
AcDbEntity
  8
ZUWAKU
  6
CONTINUOUS
 62
       7
100
AcDbLine
 10
-180.79352669
 20
-537.05118327
 30
0.0
 11
-196.64765657
 21
-552.90531315
 31
0.0
  0
LINE
  5
212
100
AcDbEntity
  8
ZUWAKU
  6
CONTINUOUS
 62
       7
100
AcDbLine
 10
-181.43206555
 20
-538.82109297
 30
0.0
 11
-195.06373738
 21
-552.45276481
 31
0.0
  0
LINE
  5
213
100
AcDbEntity
  8
ZUWAKU
  6
CONTINUOUS
 62
       7
100
AcDbLine
 10
-182.40181199
 20
-540.92221026
 30
0.0
 11
-193.40099568
 21
-551.92139396
 31
0.0
  0
LINE
  5
214
100
AcDbEntity
  8
ZUWAKU
  6
CONTINUOUS
 62
       7
100
AcDbLine
 10
-184.42252523
 20
-544.07429436
 30
0.0
 11
-191.70393941
 21
-551.35570853
 31
0.0
  0
LINE
  5
215
100
AcDbEntity
  8
ZUWAKU
  6
CONTINUOUS
 62
       7
100
AcDbLine
 10
-186.71963476
 20
-547.50277474
 30
0.0
 11
-190.62344122
 21
-551.40658119
 31
0.0
  0
LINE
  5
216
100
AcDbEntity
  8
ZUWAKU
  6
CONTINUOUS
 62
       7
100
AcDbLine
 10
-186.292228
 20
-548.20673882
 30
0.0
 11
-190.1924428
 21
-552.10695362
 31
0.0
  0
LINE
  5
217
100
AcDbEntity
  8
ZUWAKU
  6
CONTINUOUS
 62
       7
100
AcDbLine
 10
-185.86482123
 20
-548.91070291
 30
0.0
 11
-189.76144438
 21
-552.80732606
 31
0.0
  0
LINE
  5
218
100
AcDbEntity
  8
ZUWAKU
  6
CONTINUOUS
 62
       7
100
AcDbLine
 10
-185.43741447
 20
-549.61466699
 30
0.0
 11
-189.33044596
 21
-553.50769849
 31
0.0
  0
LINE
  5
219
100
AcDbEntity
  8
ZUWAKU
  6
CONTINUOUS
 62
       7
100
AcDbLine
 10
-185.0100077
 20
-550.31863108
 30
0.0
 11
-188.89944754
 21
-554.20807092
 31
0.0
  0
LINE
  5
21A
100
AcDbEntity
  8
ZUWAKU
  6
CONTINUOUS
 62
       7
100
AcDbLine
 10
-184.58260094
 20
-551.02259516
 30
0.0
 11
-187.87551228
 21
-554.31550651
 31
0.0
  0
LINE
  5
21B
100
AcDbEntity
  8
ZUWAKU
  6
CONTINUOUS
 62
       7
100
AcDbLine
 10
-184.15519417
 20
-551.72655925
 30
0.0
 11
-186.74414143
 21
-554.31550651
 31
0.0
  0
LINE
  5
21C
100
AcDbEntity
  8
ZUWAKU
  6
CONTINUOUS
 62
       7
100
AcDbLine
 10
-183.72778741
 20
-552.43052333
 30
0.0
 11
-185.61277058
 21
-554.31550651
 31
0.0
  0
LINE
  5
21D
100
AcDbEntity
  8
ZUWAKU
  6
CONTINUOUS
 62
       7
100
AcDbLine
 10
-183.30038064
 20
-553.13448741
 30
0.0
 11
-184.48139973
 21
-554.31550651
 31
0.0
  0
LINE
  5
21E
100
AcDbEntity
  8
ZUWAKU
  6
CONTINUOUS
 62
       7
100
AcDbLine
 10
-182.87297388
 20
-553.8384515
 30
0.0
 11
-183.35002889
 21
-554.31550651
 31
0.0
  0
LINE
  5
21F
100
AcDbEntity
  8
ZUWAKU
  6
CONTINUOUS
 62
       7
100
AcDbLine
 10
-214.00833333
 20
-534.56550651
 30
0.0
 11
-218.50833333
 21
-539.06550651
 31
0.0
  0
LINE
  5
220
100
AcDbEntity
  8
ZUWAKU
  6
CONTINUOUS
 62
       7
100
AcDbLine
 10
-215.13970418
 20
-534.56550651
 30
0.0
 11
-219.63970418
 21
-539.06550651
 31
0.0
  0
LINE
  5
221
100
AcDbEntity
  8
ZUWAKU
  6
CONTINUOUS
 62
       7
100
AcDbLine
 10
-216.27107503
 20
-534.56550651
 30
0.0
 11
-220.77107503
 21
-539.06550651
 31
0.0
  0
LINE
  5
222
100
AcDbEntity
  8
ZUWAKU
  6
CONTINUOUS
 62
       7
100
AcDbLine
 10
-217.40244588
 20
-534.56550651
 30
0.0
 11
-220.64389807
 21
-537.8069587
 31
0.0
  0
LINE
  5
223
100
AcDbEntity
  8
ZUWAKU
  6
CONTINUOUS
 62
       7
100
AcDbLine
 10
-218.53381673
 20
-534.56550651
 30
0.0
 11
-219.92393481
 21
-535.95562458
 31
0.0
  0
LINE
  5
224
100
AcDbEntity
  8
ZUWAKU
  6
CONTINUOUS
 62
       7
100
AcDbLine
 10
-212.87696248
 20
-534.56550651
 30
0.0
 11
-217.37696248
 21
-539.06550651
 31
0.0
  0
LINE
  5
225
100
AcDbEntity
  8
ZUWAKU
  6
CONTINUOUS
 62
       7
100
AcDbLine
 10
-211.74559163
 20
-534.56550651
 30
0.0
 11
-216.24559163
 21
-539.06550651
 31
0.0
  0
LINE
  5
226
100
AcDbEntity
  8
ZUWAKU
  6
CONTINUOUS
 62
       7
100
AcDbLine
 10
-211.76788961
 20
-535.71917533
 30
0.0
 11
-215.11422078
 21
-539.06550651
 31
0.0
  0
LINE
  5
227
100
AcDbEntity
  8
ZUWAKU
  6
CONTINUOUS
 62
       7
100
AcDbLine
 10
-212.33357503
 20
-537.41623161
 30
0.0
 11
-213.98284993
 21
-539.06550651
 31
0.0
  0
LINE
  5
228
100
AcDbEntity
  8
ZUWAKU
  6
CONTINUOUS
 62
       7
100
AcDbLine
 10
-212.85147908
 20
-539.06550651
 30
0.0
 11
-212.89926046
 21
-539.11328788
 31
0.0
  0
LINE
  5
229
100
AcDbEntity
  8
ZUWAKU
  6
CONTINUOUS
 62
       7
100
AcDbLine
 10
-215.50833333
 20
-548.06550651
 30
0.0
 11
-221.75833333
 21
-554.31550651
 31
0.0
  0
LINE
  5
22A
100
AcDbEntity
  8
ZUWAKU
  6
CONTINUOUS
 62
       7
100
AcDbLine
 10
-216.63970418
 20
-548.06550651
 30
0.0
 11
-222.88970418
 21
-554.31550651
 31
0.0
  0
LINE
  5
22B
100
AcDbEntity
  8
ZUWAKU
  6
CONTINUOUS
 62
       7
100
AcDbLine
 10
-217.77107503
 20
-548.06550651
 30
0.0
 11
-224.02107503
 21
-554.31550651
 31
0.0
  0
LINE
  5
22C
100
AcDbEntity
  8
ZUWAKU
  6
CONTINUOUS
 62
       7
100
AcDbLine
 10
-218.90244588
 20
-548.06550651
 30
0.0
 11
-225.15244588
 21
-554.31550651
 31
0.0
  0
LINE
  5
22D
100
AcDbEntity
  8
ZUWAKU
  6
CONTINUOUS
 62
       7
100
AcDbLine
 10
-220.03381673
 20
-548.06550651
 30
0.0
 11
-226.28381673
 21
-554.31550651
 31
0.0
  0
LINE
  5
22E
100
AcDbEntity
  8
ZUWAKU
  6
CONTINUOUS
 62
       7
100
AcDbLine
 10
-221.16518758
 20
-548.06550651
 30
0.0
 11
-226.19354032
 21
-553.09385924
 31
0.0
  0
LINE
  5
22F
100
AcDbEntity
  8
ZUWAKU
  6
CONTINUOUS
 62
       7
100
AcDbLine
 10
-222.29655843
 20
-548.06550651
 30
0.0
 11
-225.55714421
 21
-551.32609229
 31
0.0
  0
LINE
  5
230
100
AcDbEntity
  8
ZUWAKU
  6
CONTINUOUS
 62
       7
100
AcDbLine
 10
-223.42792928
 20
-548.06550651
 30
0.0
 11
-224.92074811
 21
-549.55832534
 31
0.0
  0
LINE
  5
231
100
AcDbEntity
  8
ZUWAKU
  6
CONTINUOUS
 62
       7
100
AcDbLine
 10
-214.37696248
 20
-548.06550651
 30
0.0
 11
-220.62696248
 21
-554.31550651
 31
0.0
  0
LINE
  5
232
100
AcDbEntity
  8
ZUWAKU
  6
CONTINUOUS
 62
       7
100
AcDbLine
 10
-213.24559163
 20
-548.06550651
 30
0.0
 11
-219.49559163
 21
-554.31550651
 31
0.0
  0
LINE
  5
233
100
AcDbEntity
  8
ZUWAKU
  6
CONTINUOUS
 62
       7
100
AcDbLine
 10
-202.36422078
 20
-538.31550651
 30
0.0
 11
-204.02027868
 21
-539.9715644
 31
0.0
  0
LINE
  5
234
100
AcDbEntity
  8
ZUWAKU
  6
CONTINUOUS
 62
       7
100
AcDbLine
 10
-211.84510823
 20
-547.79639396
 30
0.0
 11
-218.36422078
 21
-554.31550651
 31
0.0
  0
LINE
  5
235
100
AcDbEntity
  8
ZUWAKU
  6
CONTINUOUS
 62
       7
100
AcDbLine
 10
-201.23284993
 20
-538.31550651
 30
0.0
 11
-205.0346224
 21
-542.11727897
 31
0.0
  0
LINE
  5
236
100
AcDbEntity
  8
ZUWAKU
  6
CONTINUOUS
 62
       7
100
AcDbLine
 10
-209.58236653
 20
-546.66502311
 30
0.0
 11
-217.23284993
 21
-554.31550651
 31
0.0
  0
LINE
  5
237
100
AcDbEntity
  8
ZUWAKU
  6
CONTINUOUS
 62
       7
100
AcDbLine
 10
-201.06729904
 20
-539.28132646
 30
0.0
 11
-216.10147908
 21
-554.31550651
 31
0.0
  0
LINE
  5
238
100
AcDbEntity
  8
ZUWAKU
  6
CONTINUOUS
 62
       7
100
AcDbLine
 10
-201.33350394
 20
-540.67890222
 30
0.0
 11
-214.97010823
 21
-554.31550651
 31
0.0
  0
LINE
  5
239
100
AcDbEntity
  8
ZUWAKU
  6
CONTINUOUS
 62
       7
100
AcDbLine
 10
-201.59970885
 20
-542.07647797
 30
0.0
 11
-213.83873738
 21
-554.31550651
 31
0.0
  0
LINE
  5
23A
100
AcDbEntity
  8
ZUWAKU
  6
CONTINUOUS
 62
       7
100
AcDbLine
 10
-201.86591376
 20
-543.47405373
 30
0.0
 11
-212.16659309
 21
-553.77473307
 31
0.0
  0
LINE
  5
23B
100
AcDbEntity
  8
ZUWAKU
  6
CONTINUOUS
 62
       7
100
AcDbLine
 10
-203.46933981
 20
-546.20885063
 30
0.0
 11
-210.13012556
 21
-552.86963639
 31
0.0
  0
LINE
  5
23C
100
AcDbEntity
  8
ZUWAKU
  6
CONTINUOUS
 62
       7
100
AcDbLine
 10
-224.65833333
 20
-534.56550651
 30
0.0
 11
-242.62708333
 21
-552.53425651
 31
0.0
  0
LINE
  5
23D
100
AcDbEntity
  8
ZUWAKU
  6
CONTINUOUS
 62
       7
100
AcDbLine
 10
-225.78970418
 20
-534.56550651
 30
0.0
 11
-241.967117
 21
-550.74291933
 31
0.0
  0
LINE
  5
23E
100
AcDbEntity
  8
ZUWAKU
  6
CONTINUOUS
 62
       7
100
AcDbLine
 10
-226.92107503
 20
-534.56550651
 30
0.0
 11
-241.30715068
 21
-548.95158215
 31
0.0
  0
LINE
  5
23F
100
AcDbEntity
  8
ZUWAKU
  6
CONTINUOUS
 62
       7
100
AcDbLine
 10
-228.05244588
 20
-534.56550651
 30
0.0
 11
-240.64718435
 21
-547.16024497
 31
0.0
  0
LINE
  5
240
100
AcDbEntity
  8
ZUWAKU
  6
CONTINUOUS
 62
       7
100
AcDbLine
 10
-229.18381673
 20
-534.56550651
 30
0.0
 11
-239.98721802
 21
-545.36890779
 31
0.0
  0
LINE
  5
241
100
AcDbEntity
  8
ZUWAKU
  6
CONTINUOUS
 62
       7
100
AcDbLine
 10
-230.31518758
 20
-534.56550651
 30
0.0
 11
-231.11505533
 21
-535.36537426
 31
0.0
  0
LINE
  5
242
100
AcDbEntity
  8
ZUWAKU
  6
CONTINUOUS
 62
       7
100
AcDbLine
 10
-235.52657827
 20
-539.7768972
 30
0.0
 11
-240.56518758
 21
-544.81550651
 31
0.0
  0
LINE
  5
243
100
AcDbEntity
  8
ZUWAKU
  6
CONTINUOUS
 62
       7
100
AcDbLine
 10
-237.50647726
 20
-540.62542533
 30
0.0
 11
-241.69655843
 21
-544.81550651
 31
0.0
  0
LINE
  5
244
100
AcDbEntity
  8
ZUWAKU
  6
CONTINUOUS
 62
       7
100
AcDbLine
 10
-239.12331228
 20
-541.1108895
 30
0.0
 11
-242.82792928
 21
-544.81550651
 31
0.0
  0
LINE
  5
245
100
AcDbEntity
  8
ZUWAKU
  6
CONTINUOUS
 62
       7
100
AcDbLine
 10
-240.34896403
 20
-541.20517041
 30
0.0
 11
-243.95930013
 21
-544.81550651
 31
0.0
  0
LINE
  5
246
100
AcDbEntity
  8
ZUWAKU
  6
CONTINUOUS
 62
       7
100
AcDbLine
 10
-241.57461579
 20
-541.29945131
 30
0.0
 11
-245.09067098
 21
-544.81550651
 31
0.0
  0
LINE
  5
247
100
AcDbEntity
  8
ZUWAKU
  6
CONTINUOUS
 62
       7
100
AcDbLine
 10
-242.72204183
 20
-541.31550651
 30
0.0
 11
-246.22204183
 21
-544.81550651
 31
0.0
  0
LINE
  5
248
100
AcDbEntity
  8
ZUWAKU
  6
CONTINUOUS
 62
       7
100
AcDbLine
 10
-243.85341268
 20
-541.31550651
 30
0.0
 11
-247.35341268
 21
-544.81550651
 31
0.0
  0
LINE
  5
249
100
AcDbEntity
  8
ZUWAKU
  6
CONTINUOUS
 62
       7
100
AcDbLine
 10
-244.98478353
 20
-541.31550651
 30
0.0
 11
-247.39363878
 21
-543.72436175
 31
0.0
  0
LINE
  5
24A
100
AcDbEntity
  8
ZUWAKU
  6
CONTINUOUS
 62
       7
100
AcDbLine
 10
-246.11615438
 20
-541.31550651
 30
0.0
 11
-246.76509942
 21
-541.96445154
 31
0.0
  0
LINE
  5
24B
100
AcDbEntity
  8
ZUWAKU
  6
CONTINUOUS
 62
       7
100
AcDbLine
 10
-223.52696248
 20
-534.56550651
 30
0.0
 11
-243.28704966
 21
-554.32559369
 31
0.0
  0
LINE
  5
24C
100
AcDbEntity
  8
ZUWAKU
  6
CONTINUOUS
 62
       7
100
AcDbLine
 10
-222.39559163
 20
-534.56550651
 30
0.0
 11
-231.0843731
 21
-543.25428797
 31
0.0
  0
LINE
  5
24D
100
AcDbEntity
  8
ZUWAKU
  6
CONTINUOUS
 62
       7
100
AcDbLine
 10
-231.35457904
 20
-543.52449391
 30
0.0
 11
-242.14559163
 21
-554.31550651
 31
0.0
  0
LINE
  5
24E
100
AcDbEntity
  8
ZUWAKU
  6
CONTINUOUS
 62
       7
100
AcDbLine
 10
-221.26422078
 20
-534.56550651
 30
0.0
 11
-229.45017076
 21
-542.75145649
 31
0.0
  0
LINE
  5
24F
100
AcDbEntity
  8
ZUWAKU
  6
CONTINUOUS
 62
       7
100
AcDbLine
 10
-231.93977086
 20
-545.24105658
 30
0.0
 11
-241.01422078
 21
-554.31550651
 31
0.0
  0
LINE
  5
250
100
AcDbEntity
  8
ZUWAKU
  6
CONTINUOUS
 62
       7
100
AcDbLine
 10
-222.26946196
 20
-536.70211854
 30
0.0
 11
-227.48156087
 21
-541.91421744
 31
0.0
  0
LINE
  5
251
100
AcDbEntity
  8
ZUWAKU
  6
CONTINUOUS
 62
       7
100
AcDbLine
 10
-232.52496268
 20
-546.95761925
 30
0.0
 11
-239.88284993
 21
-554.31550651
 31
0.0
  0
LINE
  5
252
100
AcDbEntity
  8
ZUWAKU
  6
CONTINUOUS
 62
       7
100
AcDbLine
 10
-233.1101545
 20
-548.67418192
 30
0.0
 11
-238.75147908
 21
-554.31550651
 31
0.0
  0
LINE
  5
253
100
AcDbEntity
  8
ZUWAKU
  6
CONTINUOUS
 62
       7
100
AcDbLine
 10
-233.69534632
 20
-550.39074459
 30
0.0
 11
-237.62010823
 21
-554.31550651
 31
0.0
  0
LINE
  5
254
100
AcDbEntity
  8
ZUWAKU
  6
CONTINUOUS
 62
       7
100
AcDbLine
 10
-234.28053813
 20
-552.10730726
 30
0.0
 11
-236.48873738
 21
-554.31550651
 31
0.0
  0
LINE
  5
255
100
AcDbEntity
  8
ZUWAKU
  6
CONTINUOUS
 62
       7
100
AcDbLine
 10
-234.86572995
 20
-553.82386993
 30
0.0
 11
-235.35736653
 21
-554.31550651
 31
0.0
  0
LINE
  5
256
100
AcDbEntity
  8
ZUWAKU
  6
CONTINUOUS
 62
       7
100
AcDbLine
 10
-254.35833333
 20
-534.56550651
 30
0.0
 11
-258.85833333
 21
-539.06550651
 31
0.0
  0
LINE
  5
257
100
AcDbEntity
  8
ZUWAKU
  6
CONTINUOUS
 62
       7
100
AcDbLine
 10
-255.48970418
 20
-534.56550651
 30
0.0
 11
-259.98970418
 21
-539.06550651
 31
0.0
  0
LINE
  5
258
100
AcDbEntity
  8
ZUWAKU
  6
CONTINUOUS
 62
       7
100
AcDbLine
 10
-256.62107503
 20
-534.56550651
 30
0.0
 11
-261.12107503
 21
-539.06550651
 31
0.0
  0
LINE
  5
259
100
AcDbEntity
  8
ZUWAKU
  6
CONTINUOUS
 62
       7
100
AcDbLine
 10
-257.75244588
 20
-534.56550651
 30
0.0
 11
-262.25244588
 21
-539.06550651
 31
0.0
  0
LINE
  5
25A
100
AcDbEntity
  8
ZUWAKU
  6
CONTINUOUS
 62
       7
100
AcDbLine
 10
-258.88381673
 20
-534.56550651
 30
0.0
 11
-263.38381673
 21
-539.06550651
 31
0.0
  0
LINE
  5
25B
100
AcDbEntity
  8
ZUWAKU
  6
CONTINUOUS
 62
       7
100
AcDbLine
 10
-260.01518758
 20
-534.56550651
 30
0.0
 11
-264.51518758
 21
-539.06550651
 31
0.0
  0
LINE
  5
25C
100
AcDbEntity
  8
ZUWAKU
  6
CONTINUOUS
 62
       7
100
AcDbLine
 10
-261.14655843
 20
-534.56550651
 30
0.0
 11
-265.64655843
 21
-539.06550651
 31
0.0
  0
LINE
  5
25D
100
AcDbEntity
  8
ZUWAKU
  6
CONTINUOUS
 62
       7
100
AcDbLine
 10
-262.27792928
 20
-534.56550651
 30
0.0
 11
-266.33603536
 21
-538.62361258
 31
0.0
  0
LINE
  5
25E
100
AcDbEntity
  8
ZUWAKU
  6
CONTINUOUS
 62
       7
100
AcDbLine
 10
-263.40930013
 20
-534.56550651
 30
0.0
 11
-265.77034993
 21
-536.92655631
 31
0.0
  0
LINE
  5
25F
100
AcDbEntity
  8
ZUWAKU
  6
CONTINUOUS
 62
       7
100
AcDbLine
 10
-264.54067098
 20
-534.56550651
 30
0.0
 11
-265.20466451
 21
-535.22950003
 31
0.0
  0
LINE
  5
260
100
AcDbEntity
  8
ZUWAKU
  6
CONTINUOUS
 62
       7
100
AcDbLine
 10
-253.22696248
 20
-534.56550651
 30
0.0
 11
-257.72696248
 21
-539.06550651
 31
0.0
  0
LINE
  5
261
100
AcDbEntity
  8
ZUWAKU
  6
CONTINUOUS
 62
       7
100
AcDbLine
 10
-252.09559163
 20
-534.56550651
 30
0.0
 11
-256.59559163
 21
-539.06550651
 31
0.0
  0
LINE
  5
262
100
AcDbEntity
  8
ZUWAKU
  6
CONTINUOUS
 62
       7
100
AcDbLine
 10
-250.96422078
 20
-534.56550651
 30
0.0
 11
-255.46422078
 21
-539.06550651
 31
0.0
  0
LINE
  5
263
100
AcDbEntity
  8
ZUWAKU
  6
CONTINUOUS
 62
       7
100
AcDbLine
 10
-249.83284993
 20
-534.56550651
 30
0.0
 11
-254.33284993
 21
-539.06550651
 31
0.0
  0
LINE
  5
264
100
AcDbEntity
  8
ZUWAKU
  6
CONTINUOUS
 62
       7
100
AcDbLine
 10
-248.70147908
 20
-534.56550651
 30
0.0
 11
-253.20147908
 21
-539.06550651
 31
0.0
  0
LINE
  5
265
100
AcDbEntity
  8
ZUWAKU
  6
CONTINUOUS
 62
       7
100
AcDbLine
 10
-247.57010823
 20
-534.56550651
 30
0.0
 11
-252.07010823
 21
-539.06550651
 31
0.0
  0
LINE
  5
266
100
AcDbEntity
  8
ZUWAKU
  6
CONTINUOUS
 62
       7
100
AcDbLine
 10
-246.88063131
 20
-535.00740043
 30
0.0
 11
-250.93873738
 21
-539.06550651
 31
0.0
  0
LINE
  5
267
100
AcDbEntity
  8
ZUWAKU
  6
CONTINUOUS
 62
       7
100
AcDbLine
 10
-247.44631673
 20
-536.70445671
 30
0.0
 11
-249.80736653
 21
-539.06550651
 31
0.0
  0
LINE
  5
268
100
AcDbEntity
  8
ZUWAKU
  6
CONTINUOUS
 62
       7
100
AcDbLine
 10
-248.01200216
 20
-538.40151298
 30
0.0
 11
-248.67599568
 21
-539.06550651
 31
0.0
  0
LINE
  5
269
100
AcDbEntity
  8
ZUWAKU
  6
CONTINUOUS
 62
       7
100
AcDbLine
 10
-253.98333333
 20
-541.31550651
 30
0.0
 11
-257.48333333
 21
-544.81550651
 31
0.0
  0
LINE
  5
26A
100
AcDbEntity
  8
ZUWAKU
  6
CONTINUOUS
 62
       7
100
AcDbLine
 10
-263.23333333
 20
-550.56550651
 30
0.0
 11
-266.98333333
 21
-554.31550651
 31
0.0
  0
LINE
  5
26B
100
AcDbEntity
  8
ZUWAKU
  6
CONTINUOUS
 62
       7
100
AcDbLine
 10
-255.11470418
 20
-541.31550651
 30
0.0
 11
-258.61470418
 21
-544.81550651
 31
0.0
  0
LINE
  5
26C
100
AcDbEntity
  8
ZUWAKU
  6
CONTINUOUS
 62
       7
100
AcDbLine
 10
-264.36470418
 20
-550.56550651
 30
0.0
 11
-268.11470418
 21
-554.31550651
 31
0.0
  0
LINE
  5
26D
100
AcDbEntity
  8
ZUWAKU
  6
CONTINUOUS
 62
       7
100
AcDbLine
 10
-256.24607503
 20
-541.31550651
 30
0.0
 11
-259.74607503
 21
-544.81550651
 31
0.0
  0
LINE
  5
26E
100
AcDbEntity
  8
ZUWAKU
  6
CONTINUOUS
 62
       7
100
AcDbLine
 10
-265.49607503
 20
-550.56550651
 30
0.0
 11
-269.24607503
 21
-554.31550651
 31
0.0
  0
LINE
  5
26F
100
AcDbEntity
  8
ZUWAKU
  6
CONTINUOUS
 62
       7
100
AcDbLine
 10
-257.37744588
 20
-541.31550651
 30
0.0
 11
-260.87744588
 21
-544.81550651
 31
0.0
  0
LINE
  5
270
100
AcDbEntity
  8
ZUWAKU
  6
CONTINUOUS
 62
       7
100
AcDbLine
 10
-266.62744588
 20
-550.56550651
 30
0.0
 11
-270.37744588
 21
-554.31550651
 31
0.0
  0
LINE
  5
271
100
AcDbEntity
  8
ZUWAKU
  6
CONTINUOUS
 62
       7
100
AcDbLine
 10
-258.50881673
 20
-541.31550651
 30
0.0
 11
-262.00881673
 21
-544.81550651
 31
0.0
  0
LINE
  5
272
100
AcDbEntity
  8
ZUWAKU
  6
CONTINUOUS
 62
       7
100
AcDbLine
 10
-267.75881673
 20
-550.56550651
 30
0.0
 11
-271.50881673
 21
-554.31550651
 31
0.0
  0
LINE
  5
273
100
AcDbEntity
  8
ZUWAKU
  6
CONTINUOUS
 62
       7
100
AcDbLine
 10
-259.64018758
 20
-541.31550651
 30
0.0
 11
-263.14018758
 21
-544.81550651
 31
0.0
  0
LINE
  5
274
100
AcDbEntity
  8
ZUWAKU
  6
CONTINUOUS
 62
       7
100
AcDbLine
 10
-268.89018758
 20
-550.56550651
 30
0.0
 11
-271.5454305
 21
-553.22074943
 31
0.0
  0
LINE
  5
275
100
AcDbEntity
  8
ZUWAKU
  6
CONTINUOUS
 62
       7
100
AcDbLine
 10
-260.77155843
 20
-541.31550651
 30
0.0
 11
-264.27155843
 21
-544.81550651
 31
0.0
  0
LINE
  5
276
100
AcDbEntity
  8
ZUWAKU
  6
CONTINUOUS
 62
       7
100
AcDbLine
 10
-270.02155843
 20
-550.56550651
 30
0.0
 11
-270.79118327
 21
-551.33513134
 31
0.0
  0
LINE
  5
277
100
AcDbEntity
  8
ZUWAKU
  6
CONTINUOUS
 62
       7
100
AcDbLine
 10
-261.90292928
 20
-541.31550651
 30
0.0
 11
-265.40292928
 21
-544.81550651
 31
0.0
  0
LINE
  5
278
100
AcDbEntity
  8
ZUWAKU
  6
CONTINUOUS
 62
       7
100
AcDbLine
 10
-263.03430013
 20
-541.31550651
 30
0.0
 11
-266.53430013
 21
-544.81550651
 31
0.0
  0
LINE
  5
279
100
AcDbEntity
  8
ZUWAKU
  6
CONTINUOUS
 62
       7
100
AcDbLine
 10
-264.16567098
 20
-541.31550651
 30
0.0
 11
-267.66567098
 21
-544.81550651
 31
0.0
  0
LINE
  5
27A
100
AcDbEntity
  8
ZUWAKU
  6
CONTINUOUS
 62
       7
100
AcDbLine
 10
-265.29704183
 20
-541.31550651
 30
0.0
 11
-267.65784993
 21
-543.67631461
 31
0.0
  0
LINE
  5
27B
100
AcDbEntity
  8
ZUWAKU
  6
CONTINUOUS
 62
       7
100
AcDbLine
 10
-266.42841268
 20
-541.31550651
 30
0.0
 11
-267.20530159
 21
-542.09239542
 31
0.0
  0
LINE
  5
27C
100
AcDbEntity
  8
ZUWAKU
  6
CONTINUOUS
 62
       7
100
AcDbLine
 10
-252.85196248
 20
-541.31550651
 30
0.0
 11
-257.93588167
 21
-546.3994257
 31
0.0
  0
LINE
  5
27D
100
AcDbEntity
  8
ZUWAKU
  6
CONTINUOUS
 62
       7
100
AcDbLine
 10
-261.77353536
 20
-550.23707938
 30
0.0
 11
-265.85196248
 21
-554.31550651
 31
0.0
  0
LINE
  5
27E
100
AcDbEntity
  8
ZUWAKU
  6
CONTINUOUS
 62
       7
100
AcDbLine
 10
-251.72059163
 20
-541.31550651
 30
0.0
 11
-264.72059163
 21
-554.31550651
 31
0.0
  0
LINE
  5
27F
100
AcDbEntity
  8
ZUWAKU
  6
CONTINUOUS
 62
       7
100
AcDbLine
 10
-250.58922078
 20
-541.31550651
 30
0.0
 11
-263.58922078
 21
-554.31550651
 31
0.0
  0
LINE
  5
280
100
AcDbEntity
  8
ZUWAKU
  6
CONTINUOUS
 62
       7
100
AcDbLine
 10
-249.45784993
 20
-541.31550651
 30
0.0
 11
-262.45784993
 21
-554.31550651
 31
0.0
  0
LINE
  5
281
100
AcDbEntity
  8
ZUWAKU
  6
CONTINUOUS
 62
       7
100
AcDbLine
 10
-249.35867862
 20
-542.34770604
 30
0.0
 11
-261.32647908
 21
-554.31550651
 31
0.0
  0
LINE
  5
282
100
AcDbEntity
  8
ZUWAKU
  6
CONTINUOUS
 62
       7
100
AcDbLine
 10
-250.00517625
 20
-544.12557452
 30
0.0
 11
-260.19510823
 21
-554.31550651
 31
0.0
  0
LINE
  5
283
100
AcDbEntity
  8
ZUWAKU
  6
CONTINUOUS
 62
       7
100
AcDbLine
 10
-250.65167388
 20
-545.903443
 30
0.0
 11
-259.0072054
 21
-554.25897453
 31
0.0
  0
LINE
  5
284
100
AcDbEntity
  8
ZUWAKU
  6
CONTINUOUS
 62
       7
100
AcDbLine
 10
-251.2981715
 20
-547.68131148
 30
0.0
 11
-257.49871093
 21
-553.88185091
 31
0.0
  0
LINE
  5
285
100
AcDbEntity
  8
ZUWAKU
  6
CONTINUOUS
 62
       7
100
AcDbLine
 10
-251.94466913
 20
-549.45917996
 30
0.0
 11
-255.36865804
 21
-552.88316886
 31
0.0
  0
LINE
  5
286
100
AcDbEntity
  8
ZUWAKU
  6
CONTINUOUS
 62
       7
100
AcDbLine
 10
-268.03333333
 20
-534.56550651
 30
0.0
 11
-278.39270833
 21
-544.92488151
 31
0.0
  0
LINE
  5
287
100
AcDbEntity
  8
ZUWAKU
  6
CONTINUOUS
 62
       7
100
AcDbLine
 10
-283.96190476
 20
-550.49407794
 30
0.0
 11
-287.78333333
 21
-554.31550651
 31
0.0
  0
LINE
  5
288
100
AcDbEntity
  8
ZUWAKU
  6
CONTINUOUS
 62
       7
100
AcDbLine
 10
-269.16470418
 20
-534.56550651
 30
0.0
 11
-277.72095689
 21
-543.12175922
 31
0.0
  0
LINE
  5
289
100
AcDbEntity
  8
ZUWAKU
  6
CONTINUOUS
 62
       7
100
AcDbLine
 10
-285.16470418
 20
-550.56550651
 30
0.0
 11
-287.59264791
 21
-552.99345023
 31
0.0
  0
LINE
  5
28A
100
AcDbEntity
  8
ZUWAKU
  6
CONTINUOUS
 62
       7
100
AcDbLine
 10
-270.29607503
 20
-534.56550651
 30
0.0
 11
-277.04920545
 21
-541.31863692
 31
0.0
  0
LINE
  5
28B
100
AcDbEntity
  8
ZUWAKU
  6
CONTINUOUS
 62
       7
100
AcDbLine
 10
-286.29607503
 20
-550.56550651
 30
0.0
 11
-287.02696248
 21
-551.29639396
 31
0.0
  0
LINE
  5
28C
100
AcDbEntity
  8
ZUWAKU
  6
CONTINUOUS
 62
       7
100
AcDbLine
 10
-271.42744588
 20
-534.56550651
 30
0.0
 11
-276.37745401
 21
-539.51551463
 31
0.0
  0
LINE
  5
28D
100
AcDbEntity
  8
ZUWAKU
  6
CONTINUOUS
 62
       7
100
AcDbLine
 10
-272.55881673
 20
-534.56550651
 30
0.0
 11
-275.70570256
 21
-537.71239234
 31
0.0
  0
LINE
  5
28E
100
AcDbEntity
  8
ZUWAKU
  6
CONTINUOUS
 62
       7
100
AcDbLine
 10
-273.69018758
 20
-534.56550651
 30
0.0
 11
-275.03395112
 21
-535.90927005
 31
0.0
  0
LINE
  5
28F
100
AcDbEntity
  8
ZUWAKU
  6
CONTINUOUS
 62
       7
100
AcDbLine
 10
-268.23531838
 20
-535.89886241
 30
0.0
 11
-279.06445978
 21
-546.7280038
 31
0.0
  0
LINE
  5
290
100
AcDbEntity
  8
ZUWAKU
  6
CONTINUOUS
 62
       7
100
AcDbLine
 10
-282.6689095
 20
-550.33245353
 30
0.0
 11
-286.65196248
 21
-554.31550651
 31
0.0
  0
LINE
  5
291
100
AcDbEntity
  8
ZUWAKU
  6
CONTINUOUS
 62
       7
100
AcDbLine
 10
-268.81550856
 20
-537.61042344
 30
0.0
 11
-280.50784993
 21
-549.30276481
 31
0.0
  0
LINE
  5
292
100
AcDbEntity
  8
ZUWAKU
  6
CONTINUOUS
 62
       7
100
AcDbLine
 10
-280.5545695
 20
-549.34948437
 30
0.0
 11
-285.52059163
 21
-554.31550651
 31
0.0
  0
LINE
  5
293
100
AcDbEntity
  8
ZUWAKU
  6
CONTINUOUS
 62
       7
100
AcDbLine
 10
-269.39569874
 20
-539.32198447
 30
0.0
 11
-284.38922078
 21
-554.31550651
 31
0.0
  0
LINE
  5
294
100
AcDbEntity
  8
ZUWAKU
  6
CONTINUOUS
 62
       7
100
AcDbLine
 10
-269.97588892
 20
-541.0335455
 30
0.0
 11
-283.25784993
 21
-554.31550651
 31
0.0
  0
LINE
  5
295
100
AcDbEntity
  8
ZUWAKU
  6
CONTINUOUS
 62
       7
100
AcDbLine
 10
-270.5560791
 20
-542.74510653
 30
0.0
 11
-282.12647908
 21
-554.31550651
 31
0.0
  0
LINE
  5
296
100
AcDbEntity
  8
ZUWAKU
  6
CONTINUOUS
 62
       7
100
AcDbLine
 10
-271.13626928
 20
-544.45666756
 30
0.0
 11
-280.90752767
 21
-554.22792594
 31
0.0
  0
LINE
  5
297
100
AcDbEntity
  8
ZUWAKU
  6
CONTINUOUS
 62
       7
100
AcDbLine
 10
-271.71645946
 20
-546.16822859
 30
0.0
 11
-279.65044895
 21
-554.10221807
 31
0.0
  0
LINE
  5
298
100
AcDbEntity
  8
ZUWAKU
  6
CONTINUOUS
 62
       7
100
AcDbLine
 10
-272.29664964
 20
-547.87978961
 30
0.0
 11
-277.94838867
 21
-553.53152864
 31
0.0
  0
LINE
  5
299
100
AcDbEntity
  8
ZUWAKU
  6
CONTINUOUS
 62
       7
100
AcDbLine
 10
-280.05833333
 20
-535.96550651
 30
0.0
 11
-289.30349462
 21
-545.2106678
 31
0.0
  0
LINE
  5
29A
100
AcDbEntity
  8
ZUWAKU
  6
CONTINUOUS
 62
       7
100
AcDbLine
 10
-279.78970418
 20
-534.56550651
 30
0.0
 11
-288.68306545
 21
-543.45886777
 31
0.0
  0
LINE
  5
29B
100
AcDbEntity
  8
ZUWAKU
  6
CONTINUOUS
 62
       7
100
AcDbLine
 10
-280.92107503
 20
-534.56550651
 30
0.0
 11
-288.06263627
 21
-541.70706775
 31
0.0
  0
LINE
  5
29C
100
AcDbEntity
  8
ZUWAKU
  6
CONTINUOUS
 62
       7
100
AcDbLine
 10
-282.05244588
 20
-534.56550651
 30
0.0
 11
-287.4422071
 21
-539.95526772
 31
0.0
  0
LINE
  5
29D
100
AcDbEntity
  8
ZUWAKU
  6
CONTINUOUS
 62
       7
100
AcDbLine
 10
-283.18381673
 20
-534.56550651
 30
0.0
 11
-286.82177792
 21
-538.2034677
 31
0.0
  0
LINE
  5
29E
100
AcDbEntity
  8
ZUWAKU
  6
CONTINUOUS
 62
       7
100
AcDbLine
 10
-284.31518758
 20
-534.56550651
 30
0.0
 11
-286.20134874
 21
-536.45166767
 31
0.0
  0
LINE
  5
29F
100
AcDbEntity
  8
ZUWAKU
  6
CONTINUOUS
 62
       7
100
AcDbLine
 10
-285.44655843
 20
-534.56550651
 30
0.0
 11
-285.58091957
 21
-534.69986764
 31
0.0
  0
LINE
  5
2A0
100
AcDbEntity
  8
ZUWAKU
  6
CONTINUOUS
 62
       7
100
AcDbLine
 10
-280.73715584
 20
-537.77569987
 30
0.0
 11
-289.52696248
 21
-546.56550651
 31
0.0
  0
LINE
  5
2A1
100
AcDbEntity
  8
ZUWAKU
  6
CONTINUOUS
 62
       7
100
AcDbLine
 10
-281.41597835
 20
-539.58589323
 30
0.0
 11
-288.39559163
 21
-546.56550651
 31
0.0
  0
LINE
  5
2A2
100
AcDbEntity
  8
ZUWAKU
  6
CONTINUOUS
 62
       7
100
AcDbLine
 10
-282.09480086
 20
-541.39608659
 30
0.0
 11
-287.26422078
 21
-546.56550651
 31
0.0
  0
LINE
  5
2A3
100
AcDbEntity
  8
ZUWAKU
  6
CONTINUOUS
 62
       7
100
AcDbLine
 10
-282.77362337
 20
-543.20627995
 30
0.0
 11
-286.13284993
 21
-546.56550651
 31
0.0
  0
LINE
  5
2A4
100
AcDbEntity
  8
ZUWAKU
  6
CONTINUOUS
 62
       7
100
AcDbLine
 10
-283.45244588
 20
-545.01647331
 30
0.0
 11
-285.00147908
 21
-546.56550651
 31
0.0
  0
LINE
  5
2A5
100
AcDbEntity
  8
ZUWAKU
  6
CONTINUOUS
 62
       7
100
AcDbLine
 10
-365.33333333
 20
533.55994495
 30
0.0
 11
377.41666667
 21
533.55994495
 31
0.0
  0
LINE
  5
2A6
100
AcDbEntity
  8
ZUWAKU
  6
CONTINUOUS
 62
       7
100
AcDbLine
 10
124.91666667
 20
573.18449349
 30
0.0
 11
377.41666667
 21
573.18449349
 31
0.0
  0
LINE
  5
2A7
100
AcDbEntity
  8
ZUWAKU
  6
CONTINUOUS
 62
       7
100
AcDbLine
 10
124.91666667
 20
573.18449349
 30
0.0
 11
124.91666667
 21
533.55994495
 31
0.0
  0
LINE
  5
2A8
100
AcDbEntity
  8
ZUWAKU
  6
CONTINUOUS
 62
       7
100
AcDbLine
 10
377.41666667
 20
573.18449349
 30
0.0
 11
377.41666667
 21
533.55994495
 31
0.0
  0
LINE
  5
2A9
100
AcDbEntity
  8
ZUWAKU
  6
CONTINUOUS
 62
       7
100
AcDbLine
 10
-364.33333333
 20
-564.56550651
 30
0.0
 11
373.41666667
 21
-564.56550651
 31
0.0
  0
LINE
  5
2AA
100
AcDbEntity
  8
ZUWAKU
  6
CONTINUOUS
 62
       7
100
AcDbLine
 10
-364.33333333
 20
-516.31550651
 30
0.0
 11
373.41666667
 21
-516.31550651
 31
0.0
  0
LINE
  5
2AB
100
AcDbEntity
  8
ZUWAKU
  6
CONTINUOUS
 62
       7
100
AcDbLine
 10
123.91666667
 20
-564.56550651
 30
0.0
 11
123.91666667
 21
-516.31550651
 31
0.0
  0
LINE
  5
2AC
100
AcDbEntity
  8
ZUWAKU
  6
CONTINUOUS
 62
       7
100
AcDbLine
 10
103.91666667
 20
-564.56550651
 30
0.0
 11
103.91666667
 21
-516.31550651
 31
0.0
  0
LINE
  5
2AD
100
AcDbEntity
  8
ZUWAKU
  6
CONTINUOUS
 62
       7
100
AcDbLine
 10
-146.33333333
 20
-564.56550651
 30
0.0
 11
-146.33333333
 21
-516.31550651
 31
0.0
  0
LINE
  5
2AE
100
AcDbEntity
  8
ZUWAKU
  6
CONTINUOUS
 62
       7
100
AcDbLine
 10
-166.33333333
 20
-564.56550651
 30
0.0
 11
-166.33333333
 21
-516.31550651
 31
0.0
  0
LINE
  5
2AF
100
AcDbEntity
  8
ZUWAKU
  6
CONTINUOUS
 62
       7
100
AcDbLine
 10
-323.08333333
 20
556.68449349
 30
0.0
 11
-326.47350725
 21
562.68249349
 31
0.0
  0
LINE
  5
2B0
100
AcDbEntity
  8
ZUWAKU
  6
CONTINUOUS
 62
       7
100
AcDbLine
 10
-339.98555663
 20
567.93449349
 30
0.0
 11
-339.56888997
 21
569.18449349
 31
0.0
  0
LINE
  5
2B1
100
AcDbEntity
  8
ZUWAKU
  6
CONTINUOUS
 62
       7
100
AcDbLine
 10
-308.12452409
 20
558.16389811
 30
0.0
 11
-308.57933333
 21
557.93649349
 31
0.0
  0
LINE
  5
2B2
100
AcDbEntity
  8
ZUWAKU
  6
CONTINUOUS
 62
       7
100
AcDbLine
 10
-307.83333333
 20
556.68449349
 30
0.0
 11
-305.73333333
 21
558.78449349
 31
0.0
  0
LINE
  5
2B3
100
AcDbEntity
  8
ZUWAKU
  6
CONTINUOUS
 62
       7
100
AcDbLine
 10
-306.08333333
 20
556.68449349
 30
0.0
 11
-305.73333333
 21
558.78449349
 31
0.0
  0
LINE
  5
2B4
100
AcDbEntity
  8
ZUWAKU
  6
CONTINUOUS
 62
       7
100
AcDbLine
 10
-296.83333333
 20
558.43449349
 30
0.0
 11
-296.83333333
 21
557.93649349
 31
0.0
  0
LINE
  5
2B5
100
AcDbEntity
  8
ZUWAKU
  6
CONTINUOUS
 62
       7
100
AcDbLine
 10
-285.77325115
 20
556.68449349
 30
0.0
 11
-290.33333333
 21
556.68449349
 31
0.0
  0
LINE
  5
2B6
100
AcDbEntity
  8
ZUWAKU
  6
CONTINUOUS
 62
       7
100
AcDbLine
 10
-292.79720343
 20
558.46610716
 30
0.0
 11
-294.83333333
 21
556.68449349
 31
0.0
  0
LINE
  5
2B7
100
AcDbEntity
  8
ZUWAKU
  6
CONTINUOUS
 62
       7
100
AcDbLine
 10
-278.35034132
 20
556.68449349
 30
0.0
 11
-283.58333333
 21
556.68449349
 31
0.0
  0
LINE
  5
2B8
100
AcDbEntity
  8
ZUWAKU
  6
CONTINUOUS
 62
       7
100
AcDbLine
 10
-330.48883333
 20
557.93649349
 30
0.0
 11
-326.73958333
 21
567.93449349
 31
0.0
  0
LINE
  5
2B9
100
AcDbEntity
  8
ZUWAKU
  6
CONTINUOUS
 62
       7
100
AcDbLine
 10
-326.90244675
 20
563.93449349
 30
0.0
 11
-321.05062195
 21
563.93449349
 31
0.0
  0
LINE
  5
2BA
100
AcDbEntity
  8
ZUWAKU
  6
CONTINUOUS
 62
       7
100
AcDbLine
 10
-289.24242424
 20
559.68449349
 30
0.0
 11
-290.08333333
 21
559.68449349
 31
0.0
  0
LINE
  5
2BB
100
AcDbEntity
  8
ZUWAKU
  6
CONTINUOUS
 62
       7
100
AcDbLine
 10
-290.08333333
 20
559.68449349
 30
0.0
 11
-290.90978977
 21
559.68449349
 31
0.0
  0
LINE
  5
2BC
100
AcDbEntity
  8
ZUWAKU
  6
CONTINUOUS
 62
       7
100
AcDbLine
 10
-298.22231254
 20
556.68449349
 30
0.0
 11
-294.83333333
 21
556.68449349
 31
0.0
  0
CIRCLE
  5
2BD
100
AcDbEntity
  8
ZUWAKU
  6
CONTINUOUS
 62
       7
100
AcDbCircle
 10
-303.71563429
 20
563.68449349
 30
0.0
 40
0.75730096
  0
LINE
  5
2BE
100
AcDbEntity
  8
ZUWAKU
  6
CONTINUOUS
 62
       7
100
AcDbLine
 10
-329.55208333
 20
567.93449349
 30
0.0
 11
-326.73958333
 21
567.93449349
 31
0.0
  0
LINE
  5
2BF
100
AcDbEntity
  8
ZUWAKU
  6
CONTINUOUS
 62
       7
100
AcDbLine
 10
-325.40244675
 20
567.93449349
 30
0.0
 11
-321.05062195
 21
567.93449349
 31
0.0
  0
LINE
  5
2C0
100
AcDbEntity
  8
ZUWAKU
  6
CONTINUOUS
 62
       7
100
AcDbLine
 10
-333.83333333
 20
556.68449349
 30
0.0
 11
-333.36383333
 21
557.93649349
 31
0.0
  0
LINE
  5
2C1
100
AcDbEntity
  8
ZUWAKU
  6
CONTINUOUS
 62
       7
100
AcDbLine
 10
-329.55208333
 20
567.93449349
 30
0.0
 11
-329.08333333
 21
569.18449349
 31
0.0
  0
LINE
  5
2C2
100
AcDbEntity
  8
ZUWAKU
  6
CONTINUOUS
 62
       7
100
AcDbLine
 10
-330.17768721
 20
567.93449349
 30
0.0
 11
-329.70893721
 21
569.18449349
 31
0.0
  0
LINE
  5
2C3
100
AcDbEntity
  8
ZUWAKU
  6
CONTINUOUS
 62
       7
100
AcDbLine
 10
-321.05062195
 20
569.18449349
 30
0.0
 11
-329.08333333
 21
569.18449349
 31
0.0
  0
LINE
  5
2C4
100
AcDbEntity
  8
ZUWAKU
  6
CONTINUOUS
 62
       7
100
AcDbLine
 10
-329.70893721
 20
569.18449349
 30
0.0
 11
-330.89657474
 21
569.18449349
 31
0.0
  0
LINE
  5
2C5
100
AcDbEntity
  8
ZUWAKU
  6
CONTINUOUS
 62
       7
100
AcDbLine
 10
-331.36532474
 20
567.93449349
 30
0.0
 11
-330.17768721
 21
567.93449349
 31
0.0
  0
LINE
  5
2C6
100
AcDbEntity
  8
ZUWAKU
  6
CONTINUOUS
 62
       7
100
AcDbLine
 10
-331.82073451
 20
567.93449349
 30
0.0
 11
-331.35198451
 21
569.18449349
 31
0.0
  0
LINE
  5
2C7
100
AcDbEntity
  8
ZUWAKU
  6
CONTINUOUS
 62
       7
100
AcDbLine
 10
-331.35198451
 20
569.18449349
 30
0.0
 11
-332.34750273
 21
569.18449349
 31
0.0
  0
LINE
  5
2C8
100
AcDbEntity
  8
ZUWAKU
  6
CONTINUOUS
 62
       7
100
AcDbLine
 10
-332.81625273
 20
567.93449349
 30
0.0
 11
-331.82073451
 21
567.93449349
 31
0.0
  0
LINE
  5
2C9
100
AcDbEntity
  8
ZUWAKU
  6
CONTINUOUS
 62
       7
100
AcDbLine
 10
-332.81625273
 20
567.93449349
 30
0.0
 11
-332.34750273
 21
569.18449349
 31
0.0
  0
LINE
  5
2CA
100
AcDbEntity
  8
ZUWAKU
  6
CONTINUOUS
 62
       7
100
AcDbLine
 10
-333.19745006
 20
569.18449349
 30
0.0
 11
-334.17298253
 21
569.18449349
 31
0.0
  0
LINE
  5
2CB
100
AcDbEntity
  8
ZUWAKU
  6
CONTINUOUS
 62
       7
100
AcDbLine
 10
-334.64173253
 20
567.93449349
 30
0.0
 11
-333.66620006
 21
567.93449349
 31
0.0
  0
LINE
  5
2CC
100
AcDbEntity
  8
ZUWAKU
  6
CONTINUOUS
 62
       7
100
AcDbLine
 10
-334.64173253
 20
567.93449349
 30
0.0
 11
-334.17298253
 21
569.18449349
 31
0.0
  0
LINE
  5
2CD
100
AcDbEntity
  8
ZUWAKU
  6
CONTINUOUS
 62
       7
100
AcDbLine
 10
-331.36532474
 20
567.93449349
 30
0.0
 11
-330.89657474
 21
569.18449349
 31
0.0
  0
LINE
  5
2CE
100
AcDbEntity
  8
ZUWAKU
  6
CONTINUOUS
 62
       7
100
AcDbLine
 10
-333.66620006
 20
567.93449349
 30
0.0
 11
-333.19745006
 21
569.18449349
 31
0.0
  0
LINE
  5
2CF
100
AcDbEntity
  8
ZUWAKU
  6
CONTINUOUS
 62
       7
100
AcDbLine
 10
-335.3723914
 20
567.93449349
 30
0.0
 11
-334.9036414
 21
569.18449349
 31
0.0
  0
LINE
  5
2D0
100
AcDbEntity
  8
ZUWAKU
  6
CONTINUOUS
 62
       7
100
AcDbLine
 10
-334.9036414
 20
569.18449349
 30
0.0
 11
-335.80561593
 21
569.18449349
 31
0.0
  0
LINE
  5
2D1
100
AcDbEntity
  8
ZUWAKU
  6
CONTINUOUS
 62
       7
100
AcDbLine
 10
-336.27436593
 20
567.93449349
 30
0.0
 11
-335.3723914
 21
567.93449349
 31
0.0
  0
LINE
  5
2D2
100
AcDbEntity
  8
ZUWAKU
  6
CONTINUOUS
 62
       7
100
AcDbLine
 10
-336.27436593
 20
567.93449349
 30
0.0
 11
-335.80561593
 21
569.18449349
 31
0.0
  0
LINE
  5
2D3
100
AcDbEntity
  8
ZUWAKU
  6
CONTINUOUS
 62
       7
100
AcDbLine
 10
-337.03790347
 20
567.93449349
 30
0.0
 11
-336.56915347
 21
569.18449349
 31
0.0
  0
LINE
  5
2D4
100
AcDbEntity
  8
ZUWAKU
  6
CONTINUOUS
 62
       7
100
AcDbLine
 10
-336.56915347
 20
569.18449349
 30
0.0
 11
-337.37123681
 21
569.18449349
 31
0.0
  0
LINE
  5
2D5
100
AcDbEntity
  8
ZUWAKU
  6
CONTINUOUS
 62
       7
100
AcDbLine
 10
-337.78790347
 20
567.93449349
 30
0.0
 11
-337.03790347
 21
567.93449349
 31
0.0
  0
LINE
  5
2D6
100
AcDbEntity
  8
ZUWAKU
  6
CONTINUOUS
 62
       7
100
AcDbLine
 10
-337.78790347
 20
567.93449349
 30
0.0
 11
-337.37123681
 21
569.18449349
 31
0.0
  0
LINE
  5
2D7
100
AcDbEntity
  8
ZUWAKU
  6
CONTINUOUS
 62
       7
100
AcDbLine
 10
-338.58659354
 20
567.93449349
 30
0.0
 11
-338.16992688
 21
569.18449349
 31
0.0
  0
LINE
  5
2D8
100
AcDbEntity
  8
ZUWAKU
  6
CONTINUOUS
 62
       7
100
AcDbLine
 10
-339.23555663
 20
567.93449349
 30
0.0
 11
-338.81888997
 21
569.18449349
 31
0.0
  0
LINE
  5
2D9
100
AcDbEntity
  8
ZUWAKU
  6
CONTINUOUS
 62
       7
100
AcDbLine
 10
-340.44388997
 20
567.93449349
 30
0.0
 11
-340.0272233
 21
569.18449349
 31
0.0
  0
LINE
  5
2DA
100
AcDbEntity
  8
ZUWAKU
  6
CONTINUOUS
 62
       7
100
AcDbLine
 10
-341.23555663
 20
567.93449349
 30
0.0
 11
-340.81888997
 21
569.18449349
 31
0.0
  0
LINE
  5
2DB
100
AcDbEntity
  8
ZUWAKU
  6
CONTINUOUS
 62
       7
100
AcDbLine
 10
-341.44388997
 20
567.93449349
 30
0.0
 11
-341.0272233
 21
569.18449349
 31
0.0
  0
LINE
  5
2DC
100
AcDbEntity
  8
ZUWAKU
  6
CONTINUOUS
 62
       7
100
AcDbLine
 10
-338.16992688
 20
569.18449349
 30
0.0
 11
-338.81888997
 21
569.18449349
 31
0.0
  0
LINE
  5
2DD
100
AcDbEntity
  8
ZUWAKU
  6
CONTINUOUS
 62
       7
100
AcDbLine
 10
-339.23555663
 20
567.93449349
 30
0.0
 11
-338.58659354
 21
567.93449349
 31
0.0
  0
LINE
  5
2DE
100
AcDbEntity
  8
ZUWAKU
  6
CONTINUOUS
 62
       7
100
AcDbLine
 10
-339.56888997
 20
569.18449349
 30
0.0
 11
-340.0272233
 21
569.18449349
 31
0.0
  0
LINE
  5
2DF
100
AcDbEntity
  8
ZUWAKU
  6
CONTINUOUS
 62
       7
100
AcDbLine
 10
-340.81888997
 20
569.18449349
 30
0.0
 11
-341.0272233
 21
569.18449349
 31
0.0
  0
LINE
  5
2E0
100
AcDbEntity
  8
ZUWAKU
  6
CONTINUOUS
 62
       7
100
AcDbLine
 10
-340.44388997
 20
567.93449349
 30
0.0
 11
-339.98555663
 21
567.93449349
 31
0.0
  0
LINE
  5
2E1
100
AcDbEntity
  8
ZUWAKU
  6
CONTINUOUS
 62
       7
100
AcDbLine
 10
-341.23555663
 20
567.93449349
 30
0.0
 11
-341.44388997
 21
567.93449349
 31
0.0
  0
ELLIPSE
  5
2E2
100
AcDbEntity
  8
ZUWAKU
  6
CONTINUOUS
 62
       7
100
AcDbEllipse
 10
-307.45833333
 20
561.55064412
 30
0.0
 11
-51.125
 21
0.0
 31
0.0
210
0.0
220
0.0
230
1.0
 40
0.40365317
 41
0.0
 42
6.2831853071796004
  0
LINE
  5
2E3
100
AcDbEntity
  8
ZUWAKU
  6
CONTINUOUS
 62
       7
100
AcDbLine
 10
-348.58333333
 20
571.43449349
 30
0.0
 11
-348.58333333
 21
551.93449349
 31
0.0
  0
LINE
  5
2E4
100
AcDbEntity
  8
ZUWAKU
  6
CONTINUOUS
 62
       7
100
AcDbLine
 10
-266.08333333
 20
571.43449349
 30
0.0
 11
-266.08333333
 21
551.93449349
 31
0.0
  0
LINE
  5
2E5
100
AcDbEntity
  8
ZUWAKU
  6
CONTINUOUS
 62
       7
100
AcDbLine
 10
-348.58333333
 20
571.43449349
 30
0.0
 11
-266.08333333
 21
571.43449349
 31
0.0
  0
LINE
  5
2E6
100
AcDbEntity
  8
ZUWAKU
  6
CONTINUOUS
 62
       7
100
AcDbLine
 10
-348.58333333
 20
551.93449349
 30
0.0
 11
-266.08333333
 21
551.93449349
 31
0.0
  0
LINE
  5
2E7
100
AcDbEntity
  8
ZUWAKU
  6
CONTINUOUS
 62
       7
100
AcDbLine
 10
-312.55374047
 20
582.08466167
 30
0.0
 11
-323.20390865
 21
571.43449349
 31
0.0
  0
LINE
  5
2E8
100
AcDbEntity
  8
ZUWAKU
  6
CONTINUOUS
 62
       7
100
AcDbLine
 10
-313.73865987
 20
582.03111312
 30
0.0
 11
-324.3352795
 21
571.43449349
 31
0.0
  0
LINE
  5
2E9
100
AcDbEntity
  8
ZUWAKU
  6
CONTINUOUS
 62
       7
100
AcDbLine
 10
-314.93564135
 20
581.96550249
 30
0.0
 11
-325.46665035
 21
571.43449349
 31
0.0
  0
LINE
  5
2EA
100
AcDbEntity
  8
ZUWAKU
  6
CONTINUOUS
 62
       7
100
AcDbLine
 10
-316.14518339
 20
581.8873313
 30
0.0
 11
-326.5980212
 21
571.43449349
 31
0.0
  0
LINE
  5
2EB
100
AcDbEntity
  8
ZUWAKU
  6
CONTINUOUS
 62
       7
100
AcDbLine
 10
-317.36784267
 20
581.79604287
 30
0.0
 11
-327.72939205
 21
571.43449349
 31
0.0
  0
LINE
  5
2EC
100
AcDbEntity
  8
ZUWAKU
  6
CONTINUOUS
 62
       7
100
AcDbLine
 10
-318.60424305
 20
581.69101334
 30
0.0
 11
-328.8607629
 21
571.43449349
 31
0.0
  0
LINE
  5
2ED
100
AcDbEntity
  8
ZUWAKU
  6
CONTINUOUS
 62
       7
100
AcDbLine
 10
-319.85508637
 20
581.57154087
 30
0.0
 11
-329.99213375
 21
571.43449349
 31
0.0
  0
LINE
  5
2EE
100
AcDbEntity
  8
ZUWAKU
  6
CONTINUOUS
 62
       7
100
AcDbLine
 10
-321.12116577
 20
581.43683231
 30
0.0
 11
-331.1235046
 21
571.43449349
 31
0.0
  0
LINE
  5
2EF
100
AcDbEntity
  8
ZUWAKU
  6
CONTINUOUS
 62
       7
100
AcDbLine
 10
-322.40338218
 20
581.28598676
 30
0.0
 11
-332.25487545
 21
571.43449349
 31
0.0
  0
LINE
  5
2F0
100
AcDbEntity
  8
ZUWAKU
  6
CONTINUOUS
 62
       7
100
AcDbLine
 10
-323.70276485
 20
581.11797493
 30
0.0
 11
-333.3862463
 21
571.43449349
 31
0.0
  0
LINE
  5
2F1
100
AcDbEntity
  8
ZUWAKU
  6
CONTINUOUS
 62
       7
100
AcDbLine
 10
-325.02049755
 20
580.93161309
 30
0.0
 11
-334.51761715
 21
571.43449349
 31
0.0
  0
LINE
  5
2F2
100
AcDbEntity
  8
ZUWAKU
  6
CONTINUOUS
 62
       7
100
AcDbLine
 10
-326.35795193
 20
580.72552956
 30
0.0
 11
-335.648988
 21
571.43449349
 31
0.0
  0
LINE
  5
2F3
100
AcDbEntity
  8
ZUWAKU
  6
CONTINUOUS
 62
       7
100
AcDbLine
 10
-327.71673119
 20
580.49812115
 30
0.0
 11
-336.78035885
 21
571.43449349
 31
0.0
  0
LINE
  5
2F4
100
AcDbEntity
  8
ZUWAKU
  6
CONTINUOUS
 62
       7
100
AcDbLine
 10
-329.09872777
 20
580.24749542
 30
0.0
 11
-337.9117297
 21
571.43449349
 31
0.0
  0
LINE
  5
2F5
100
AcDbEntity
  8
ZUWAKU
  6
CONTINUOUS
 62
       7
100
AcDbLine
 10
-330.50620125
 20
579.97139279
 30
0.0
 11
-339.04310055
 21
571.43449349
 31
0.0
  0
LINE
  5
2F6
100
AcDbEntity
  8
ZUWAKU
  6
CONTINUOUS
 62
       7
100
AcDbLine
 10
-348.58333333
 20
561.89426071
 30
0.0
 11
-348.79310055
 21
561.68449349
 31
0.0
  0
LINE
  5
2F7
100
AcDbEntity
  8
ZUWAKU
  6
CONTINUOUS
 62
       7
100
AcDbLine
 10
-331.94188578
 20
579.66707911
 30
0.0
 11
-340.1744714
 21
571.43449349
 31
0.0
  0
LINE
  5
2F8
100
AcDbEntity
  8
ZUWAKU
  6
CONTINUOUS
 62
       7
100
AcDbLine
 10
-348.58333333
 20
563.02563156
 30
0.0
 11
-349.9244714
 21
561.68449349
 31
0.0
  0
LINE
  5
2F9
100
AcDbEntity
  8
ZUWAKU
  6
CONTINUOUS
 62
       7
100
AcDbLine
 10
-333.40914217
 20
579.33119357
 30
0.0
 11
-341.30584225
 21
571.43449349
 31
0.0
  0
LINE
  5
2FA
100
AcDbEntity
  8
ZUWAKU
  6
CONTINUOUS
 62
       7
100
AcDbLine
 10
-348.58333333
 20
564.15700241
 30
0.0
 11
-351.05584225
 21
561.68449349
 31
0.0
  0
LINE
  5
2FB
100
AcDbEntity
  8
ZUWAKU
  6
CONTINUOUS
 62
       7
100
AcDbLine
 10
-334.91217946
 20
578.95952713
 30
0.0
 11
-342.4372131
 21
571.43449349
 31
0.0
  0
LINE
  5
2FC
100
AcDbEntity
  8
ZUWAKU
  6
CONTINUOUS
 62
       7
100
AcDbLine
 10
-348.58333333
 20
565.28837326
 30
0.0
 11
-352.1872131
 21
561.68449349
 31
0.0
  0
LINE
  5
2FD
100
AcDbEntity
  8
ZUWAKU
  6
CONTINUOUS
 62
       7
100
AcDbLine
 10
-336.45638968
 20
578.54668776
 30
0.0
 11
-343.56858395
 21
571.43449349
 31
0.0
  0
LINE
  5
2FE
100
AcDbEntity
  8
ZUWAKU
  6
CONTINUOUS
 62
       7
100
AcDbLine
 10
-348.58333333
 20
566.41974411
 30
0.0
 11
-353.31858395
 21
561.68449349
 31
0.0
  0
LINE
  5
2FF
100
AcDbEntity
  8
ZUWAKU
  6
CONTINUOUS
 62
       7
100
AcDbLine
 10
-338.04887567
 20
578.08557262
 30
0.0
 11
-344.6999548
 21
571.43449349
 31
0.0
  0
LINE
  5
300
100
AcDbEntity
  8
ZUWAKU
  6
CONTINUOUS
 62
       7
100
AcDbLine
 10
-348.58333333
 20
567.55111496
 30
0.0
 11
-354.4499548
 21
561.68449349
 31
0.0
  0
LINE
  5
301
100
AcDbEntity
  8
ZUWAKU
  6
CONTINUOUS
 62
       7
100
AcDbLine
 10
-339.69932896
 20
577.56649017
 30
0.0
 11
-345.83132565
 21
571.43449349
 31
0.0
  0
LINE
  5
302
100
AcDbEntity
  8
ZUWAKU
  6
CONTINUOUS
 62
       7
100
AcDbLine
 10
-348.58333333
 20
568.68248581
 30
0.0
 11
-355.58132565
 21
561.68449349
 31
0.0
  0
LINE
  5
303
100
AcDbEntity
  8
ZUWAKU
  6
CONTINUOUS
 62
       7
100
AcDbLine
 10
-341.42159261
 20
576.97559738
 30
0.0
 11
-346.9626965
 21
571.43449349
 31
0.0
  0
LINE
  5
304
100
AcDbEntity
  8
ZUWAKU
  6
CONTINUOUS
 62
       7
100
AcDbLine
 10
-348.58333333
 20
569.81385666
 30
0.0
 11
-356.7126965
 21
561.68449349
 31
0.0
  0
LINE
  5
305
100
AcDbEntity
  8
ZUWAKU
  6
CONTINUOUS
 62
       7
100
AcDbLine
 10
-343.23670578
 20
576.29185506
 30
0.0
 11
-348.09406735
 21
571.43449349
 31
0.0
  0
LINE
  5
306
100
AcDbEntity
  8
ZUWAKU
  6
CONTINUOUS
 62
       7
100
AcDbLine
 10
-348.58333333
 20
570.9452275
 30
0.0
 11
-357.84406735
 21
561.68449349
 31
0.0
  0
LINE
  5
307
100
AcDbEntity
  8
ZUWAKU
  6
CONTINUOUS
 62
       7
100
AcDbLine
 10
-345.17963017
 20
575.48030152
 30
0.0
 11
-358.56558673
 21
562.09434496
 31
0.0
  0
LINE
  5
308
100
AcDbEntity
  8
ZUWAKU
  6
CONTINUOUS
 62
       7
100
AcDbLine
 10
-347.31724442
 20
574.47405812
 30
0.0
 11
-358.37368739
 21
563.41761515
 31
0.0
  0
LINE
  5
309
100
AcDbEntity
  8
ZUWAKU
  6
CONTINUOUS
 62
       7
100
AcDbLine
 10
-349.81606333
 20
573.10661006
 30
0.0
 11
-357.82058341
 21
565.10208998
 31
0.0
  0
LINE
  5
30A
100
AcDbEntity
  8
ZUWAKU
  6
CONTINUOUS
 62
       7
100
AcDbLine
 10
-353.71112702
 20
570.34291722
 30
0.0
 11
-355.87123463
 21
568.1828096
 31
0.0
  0
LINE
  5
30B
100
AcDbEntity
  8
ZUWAKU
  6
CONTINUOUS
 62
       7
100
AcDbLine
 10
-311.38043554
 20
582.12659575
 30
0.0
 11
-322.0725378
 21
571.43449349
 31
0.0
  0
LINE
  5
30C
100
AcDbEntity
  8
ZUWAKU
  6
CONTINUOUS
 62
       7
100
AcDbLine
 10
-310.21834213
 20
582.15731831
 30
0.0
 11
-320.94116695
 21
571.43449349
 31
0.0
  0
LINE
  5
30D
100
AcDbEntity
  8
ZUWAKU
  6
CONTINUOUS
 62
       7
100
AcDbLine
 10
-309.06709676
 20
582.17719283
 30
0.0
 11
-319.8097961
 21
571.43449349
 31
0.0
  0
LINE
  5
30E
100
AcDbEntity
  8
ZUWAKU
  6
CONTINUOUS
 62
       7
100
AcDbLine
 10
-307.92637104
 20
582.1865477
 30
0.0
 11
-318.67842525
 21
571.43449349
 31
0.0
  0
LINE
  5
30F
100
AcDbEntity
  8
ZUWAKU
  6
CONTINUOUS
 62
       7
100
AcDbLine
 10
-306.79586795
 20
582.18567994
 30
0.0
 11
-317.5470544
 21
571.43449349
 31
0.0
  0
LINE
  5
310
100
AcDbEntity
  8
ZUWAKU
  6
CONTINUOUS
 62
       7
100
AcDbLine
 10
-305.67531868
 20
582.17485836
 30
0.0
 11
-316.41568355
 21
571.43449349
 31
0.0
  0
LINE
  5
311
100
AcDbEntity
  8
ZUWAKU
  6
CONTINUOUS
 62
       7
100
AcDbLine
 10
-304.56447985
 20
582.15432634
 30
0.0
 11
-315.2843127
 21
571.43449349
 31
0.0
  0
LINE
  5
312
100
AcDbEntity
  8
ZUWAKU
  6
CONTINUOUS
 62
       7
100
AcDbLine
 10
-303.46313123
 20
582.12430411
 30
0.0
 11
-314.15294185
 21
571.43449349
 31
0.0
  0
LINE
  5
313
100
AcDbEntity
  8
ZUWAKU
  6
CONTINUOUS
 62
       7
100
AcDbLine
 10
-302.37107367
 20
582.08499082
 30
0.0
 11
-313.021571
 21
571.43449349
 31
0.0
  0
LINE
  5
314
100
AcDbEntity
  8
ZUWAKU
  6
CONTINUOUS
 62
       7
100
AcDbLine
 10
-301.28812739
 20
582.03656625
 30
0.0
 11
-311.89020015
 21
571.43449349
 31
0.0
  0
LINE
  5
315
100
AcDbEntity
  8
ZUWAKU
  6
CONTINUOUS
 62
       7
100
AcDbLine
 10
-300.21413044
 20
581.97919235
 30
0.0
 11
-310.7588293
 21
571.43449349
 31
0.0
  0
LINE
  5
316
100
AcDbEntity
  8
ZUWAKU
  6
CONTINUOUS
 62
       7
100
AcDbLine
 10
-299.14893742
 20
581.91301453
 30
0.0
 11
-309.62745845
 21
571.43449349
 31
0.0
  0
LINE
  5
317
100
AcDbEntity
  8
ZUWAKU
  6
CONTINUOUS
 62
       7
100
AcDbLine
 10
-298.09241829
 20
581.8381628
 30
0.0
 11
-308.4960876
 21
571.43449349
 31
0.0
  0
LINE
  5
318
100
AcDbEntity
  8
ZUWAKU
  6
CONTINUOUS
 62
       7
100
AcDbLine
 10
-297.04445746
 20
581.75475278
 30
0.0
 11
-307.36471675
 21
571.43449349
 31
0.0
  0
LINE
  5
319
100
AcDbEntity
  8
ZUWAKU
  6
CONTINUOUS
 62
       7
100
AcDbLine
 10
-296.00495291
 20
581.66288648
 30
0.0
 11
-306.2333459
 21
571.43449349
 31
0.0
  0
LINE
  5
31A
100
AcDbEntity
  8
ZUWAKU
  6
CONTINUOUS
 62
       7
100
AcDbLine
 10
-294.97381544
 20
581.5626531
 30
0.0
 11
-305.10197505
 21
571.43449349
 31
0.0
  0
LINE
  5
31B
100
AcDbEntity
  8
ZUWAKU
  6
CONTINUOUS
 62
       7
100
AcDbLine
 10
-293.95096809
 20
581.4541296
 30
0.0
 11
-303.9706042
 21
571.43449349
 31
0.0
  0
LINE
  5
31C
100
AcDbEntity
  8
ZUWAKU
  6
CONTINUOUS
 62
       7
100
AcDbLine
 10
-292.9363456
 20
581.33738125
 30
0.0
 11
-302.83923335
 21
571.43449349
 31
0.0
  0
LINE
  5
31D
100
AcDbEntity
  8
ZUWAKU
  6
CONTINUOUS
 62
       7
100
AcDbLine
 10
-291.92989395
 20
581.21246204
 30
0.0
 11
-301.7078625
 21
571.43449349
 31
0.0
  0
LINE
  5
31E
100
AcDbEntity
  8
ZUWAKU
  6
CONTINUOUS
 62
       7
100
AcDbLine
 10
-290.93157005
 20
581.07941509
 30
0.0
 11
-300.57649165
 21
571.43449349
 31
0.0
  0
LINE
  5
31F
100
AcDbEntity
  8
ZUWAKU
  6
CONTINUOUS
 62
       7
100
AcDbLine
 10
-289.94134145
 20
580.93827285
 30
0.0
 11
-299.4451208
 21
571.43449349
 31
0.0
  0
LINE
  5
320
100
AcDbEntity
  8
ZUWAKU
  6
CONTINUOUS
 62
       7
100
AcDbLine
 10
-288.95918608
 20
580.78905737
 30
0.0
 11
-298.31374995
 21
571.43449349
 31
0.0
  0
LINE
  5
321
100
AcDbEntity
  8
ZUWAKU
  6
CONTINUOUS
 62
       7
100
AcDbLine
 10
-287.98509218
 20
580.63178042
 30
0.0
 11
-297.1823791
 21
571.43449349
 31
0.0
  0
LINE
  5
322
100
AcDbEntity
  8
ZUWAKU
  6
CONTINUOUS
 62
       7
100
AcDbLine
 10
-287.01905818
 20
580.46644356
 30
0.0
 11
-296.05100825
 21
571.43449349
 31
0.0
  0
LINE
  5
323
100
AcDbEntity
  8
ZUWAKU
  6
CONTINUOUS
 62
       7
100
AcDbLine
 10
-286.06109273
 20
580.29303816
 30
0.0
 11
-294.9196374
 21
571.43449349
 31
0.0
  0
LINE
  5
324
100
AcDbEntity
  8
ZUWAKU
  6
CONTINUOUS
 62
       7
100
AcDbLine
 10
-285.1112147
 20
580.11154534
 30
0.0
 11
-293.78826655
 21
571.43449349
 31
0.0
  0
LINE
  5
325
100
AcDbEntity
  8
ZUWAKU
  6
CONTINUOUS
 62
       7
100
AcDbLine
 10
-284.16945334
 20
579.92193585
 30
0.0
 11
-292.6568957
 21
571.43449349
 31
0.0
  0
LINE
  5
326
100
AcDbEntity
  8
ZUWAKU
  6
CONTINUOUS
 62
       7
100
AcDbLine
 10
-283.23584846
 20
579.72416989
 30
0.0
 11
-291.52552485
 21
571.43449349
 31
0.0
  0
LINE
  5
327
100
AcDbEntity
  8
ZUWAKU
  6
CONTINUOUS
 62
       7
100
AcDbLine
 10
-282.31045068
 20
579.51819682
 30
0.0
 11
-290.394154
 21
571.43449349
 31
0.0
  0
LINE
  5
328
100
AcDbEntity
  8
ZUWAKU
  6
CONTINUOUS
 62
       7
100
AcDbLine
 10
-281.39332177
 20
579.30395487
 30
0.0
 11
-289.26278315
 21
571.43449349
 31
0.0
  0
LINE
  5
329
100
AcDbEntity
  8
ZUWAKU
  6
CONTINUOUS
 62
       7
100
AcDbLine
 10
-280.48453505
 20
579.08137074
 30
0.0
 11
-288.1314123
 21
571.43449349
 31
0.0
  0
LINE
  5
32A
100
AcDbEntity
  8
ZUWAKU
  6
CONTINUOUS
 62
       7
100
AcDbLine
 10
-279.58417591
 20
578.85035904
 30
0.0
 11
-287.00004145
 21
571.43449349
 31
0.0
  0
LINE
  5
32B
100
AcDbEntity
  8
ZUWAKU
  6
CONTINUOUS
 62
       7
100
AcDbLine
 10
-278.69234235
 20
578.61082175
 30
0.0
 11
-285.8686706
 21
571.43449349
 31
0.0
  0
LINE
  5
32C
100
AcDbEntity
  8
ZUWAKU
  6
CONTINUOUS
 62
       7
100
AcDbLine
 10
-277.80914573
 20
578.36264752
 30
0.0
 11
-284.73729975
 21
571.43449349
 31
0.0
  0
LINE
  5
32D
100
AcDbEntity
  8
ZUWAKU
  6
CONTINUOUS
 62
       7
100
AcDbLine
 10
-276.93471154
 20
578.10571085
 30
0.0
 11
-283.6059289
 21
571.43449349
 31
0.0
  0
LINE
  5
32E
100
AcDbEntity
  8
ZUWAKU
  6
CONTINUOUS
 62
       7
100
AcDbLine
 10
-276.06918037
 20
577.83987118
 30
0.0
 11
-282.47455805
 21
571.43449349
 31
0.0
  0
LINE
  5
32F
100
AcDbEntity
  8
ZUWAKU
  6
CONTINUOUS
 62
       7
100
AcDbLine
 10
-275.21270894
 20
577.56497175
 30
0.0
 11
-281.3431872
 21
571.43449349
 31
0.0
  0
LINE
  5
330
100
AcDbEntity
  8
ZUWAKU
  6
CONTINUOUS
 62
       7
100
AcDbLine
 10
-274.36547143
 20
577.28083842
 30
0.0
 11
-280.21181635
 21
571.43449349
 31
0.0
  0
LINE
  5
331
100
AcDbEntity
  8
ZUWAKU
  6
CONTINUOUS
 62
       7
100
AcDbLine
 10
-273.52766086
 20
576.98727814
 30
0.0
 11
-279.0804455
 21
571.43449349
 31
0.0
  0
LINE
  5
332
100
AcDbEntity
  8
ZUWAKU
  6
CONTINUOUS
 62
       7
100
AcDbLine
 10
-272.69949079
 20
576.68407735
 30
0.0
 11
-277.94907465
 21
571.43449349
 31
0.0
  0
LINE
  5
333
100
AcDbEntity
  8
ZUWAKU
  6
CONTINUOUS
 62
       7
100
AcDbLine
 10
-271.88119727
 20
576.37100003
 30
0.0
 11
-276.8177038
 21
571.43449349
 31
0.0
  0
LINE
  5
334
100
AcDbEntity
  8
ZUWAKU
  6
CONTINUOUS
 62
       7
100
AcDbLine
 10
-271.07304103
 20
576.04778541
 30
0.0
 11
-275.68633295
 21
571.43449349
 31
0.0
  0
LINE
  5
335
100
AcDbEntity
  8
ZUWAKU
  6
CONTINUOUS
 62
       7
100
AcDbLine
 10
-270.27531013
 20
575.71414547
 30
0.0
 11
-274.5549621
 21
571.43449349
 31
0.0
  0
LINE
  5
336
100
AcDbEntity
  8
ZUWAKU
  6
CONTINUOUS
 62
       7
100
AcDbLine
 10
-269.48832295
 20
575.3697618
 30
0.0
 11
-273.42359125
 21
571.43449349
 31
0.0
  0
LINE
  5
337
100
AcDbEntity
  8
ZUWAKU
  6
CONTINUOUS
 62
       7
100
AcDbLine
 10
-268.71243177
 20
575.01428213
 30
0.0
 11
-272.2922204
 21
571.43449349
 31
0.0
  0
LINE
  5
338
100
AcDbEntity
  8
ZUWAKU
  6
CONTINUOUS
 62
       7
100
AcDbLine
 10
-267.94802692
 20
574.64731612
 30
0.0
 11
-271.16084955
 21
571.43449349
 31
0.0
  0
LINE
  5
339
100
AcDbEntity
  8
ZUWAKU
  6
CONTINUOUS
 62
       7
100
AcDbLine
 10
-267.19554171
 20
574.26843048
 30
0.0
 11
-270.0294787
 21
571.43449349
 31
0.0
  0
LINE
  5
33A
100
AcDbEntity
  8
ZUWAKU
  6
CONTINUOUS
 62
       7
100
AcDbLine
 10
-266.45545828
 20
573.87714307
 30
0.0
 11
-268.89810785
 21
571.43449349
 31
0.0
  0
LINE
  5
33B
100
AcDbEntity
  8
ZUWAKU
  6
CONTINUOUS
 62
       7
100
AcDbLine
 10
-265.72831457
 20
573.47291592
 30
0.0
 11
-267.766737
 21
571.43449349
 31
0.0
  0
LINE
  5
33C
100
AcDbEntity
  8
ZUWAKU
  6
CONTINUOUS
 62
       7
100
AcDbLine
 10
-265.01471278
 20
573.05514686
 30
0.0
 11
-266.63536615
 21
571.43449349
 31
0.0
  0
LINE
  5
33D
100
AcDbEntity
  8
ZUWAKU
  6
CONTINUOUS
 62
       7
100
AcDbLine
 10
-264.31532954
 20
572.62315926
 30
0.0
 11
-266.08333333
 21
570.85515546
 31
0.0
  0
LINE
  5
33E
100
AcDbEntity
  8
ZUWAKU
  6
CONTINUOUS
 62
       7
100
AcDbLine
 10
-263.63092837
 20
572.17618957
 30
0.0
 11
-266.08333333
 21
569.72378461
 31
0.0
  0
LINE
  5
33F
100
AcDbEntity
  8
ZUWAKU
  6
CONTINUOUS
 62
       7
100
AcDbLine
 10
-262.96237516
 20
571.71337194
 30
0.0
 11
-266.08333333
 21
568.59241376
 31
0.0
  0
LINE
  5
340
100
AcDbEntity
  8
ZUWAKU
  6
CONTINUOUS
 62
       7
100
AcDbLine
 10
-262.31065729
 20
571.23371895
 30
0.0
 11
-266.08333333
 21
567.46104291
 31
0.0
  0
LINE
  5
341
100
AcDbEntity
  8
ZUWAKU
  6
CONTINUOUS
 62
       7
100
AcDbLine
 10
-261.67690795
 20
570.73609745
 30
0.0
 11
-266.08333333
 21
566.32967206
 31
0.0
  0
LINE
  5
342
100
AcDbEntity
  8
ZUWAKU
  6
CONTINUOUS
 62
       7
100
AcDbLine
 10
-261.06243702
 20
570.21919753
 30
0.0
 11
-266.08333333
 21
565.19830121
 31
0.0
  0
LINE
  5
343
100
AcDbEntity
  8
ZUWAKU
  6
CONTINUOUS
 62
       7
100
AcDbLine
 10
-260.46877128
 20
569.68149242
 30
0.0
 11
-266.08333333
 21
564.06693036
 31
0.0
  0
LINE
  5
344
100
AcDbEntity
  8
ZUWAKU
  6
CONTINUOUS
 62
       7
100
AcDbLine
 10
-259.89770721
 20
569.12118564
 30
0.0
 11
-266.08333333
 21
562.93555951
 31
0.0
  0
LINE
  5
345
100
AcDbEntity
  8
ZUWAKU
  6
CONTINUOUS
 62
       7
100
AcDbLine
 10
-259.3513819
 20
568.5361401
 30
0.0
 11
-266.08333333
 21
561.80418866
 31
0.0
  0
LINE
  5
346
100
AcDbEntity
  8
ZUWAKU
  6
CONTINUOUS
 62
       7
100
AcDbLine
 10
-258.83237016
 20
567.92378099
 30
0.0
 11
-265.07165765
 21
561.68449349
 31
0.0
  0
LINE
  5
347
100
AcDbEntity
  8
ZUWAKU
  6
CONTINUOUS
 62
       7
100
AcDbLine
 10
-258.34382079
 20
567.28095951
 30
0.0
 11
-263.9402868
 21
561.68449349
 31
0.0
  0
LINE
  5
348
100
AcDbEntity
  8
ZUWAKU
  6
CONTINUOUS
 62
       7
100
AcDbLine
 10
-257.88965333
 20
566.60375612
 30
0.0
 11
-262.80891596
 21
561.68449349
 31
0.0
  0
LINE
  5
349
100
AcDbEntity
  8
ZUWAKU
  6
CONTINUOUS
 62
       7
100
AcDbLine
 10
-257.47485177
 20
565.88718683
 30
0.0
 11
-261.67754511
 21
561.68449349
 31
0.0
  0
LINE
  5
34A
100
AcDbEntity
  8
ZUWAKU
  6
CONTINUOUS
 62
       7
100
AcDbLine
 10
-257.10592118
 20
565.12474657
 30
0.0
 11
-260.54617426
 21
561.68449349
 31
0.0
  0
LINE
  5
34B
100
AcDbEntity
  8
ZUWAKU
  6
CONTINUOUS
 62
       7
100
AcDbLine
 10
-256.79163389
 20
564.30766301
 30
0.0
 11
-259.41480341
 21
561.68449349
 31
0.0
  0
LINE
  5
34C
100
AcDbEntity
  8
ZUWAKU
  6
CONTINUOUS
 62
       7
100
AcDbLine
 10
-256.5443279
 20
563.42359814
 30
0.0
 11
-258.28343256
 21
561.68449349
 31
0.0
  0
LINE
  5
34D
100
AcDbEntity
  8
ZUWAKU
  6
CONTINUOUS
 62
       7
100
AcDbLine
 10
-256.38236013
 20
562.45419507
 30
0.0
 11
-257.15206171
 21
561.68449349
 31
0.0
  0
LINE
  5
34E
100
AcDbEntity
  8
ZUWAKU
  6
CONTINUOUS
 62
       7
100
AcDbLine
 10
-291.57890983
 20
551.93449349
 30
0.0
 11
-302.50233543
 21
541.01106789
 31
0.0
  0
LINE
  5
34F
100
AcDbEntity
  8
ZUWAKU
  6
CONTINUOUS
 62
       7
100
AcDbLine
 10
-292.71028068
 20
551.93449349
 30
0.0
 11
-303.67429374
 21
540.97048043
 31
0.0
  0
LINE
  5
350
100
AcDbEntity
  8
ZUWAKU
  6
CONTINUOUS
 62
       7
100
AcDbLine
 10
-293.84165153
 20
551.93449349
 30
0.0
 11
-304.8350855
 21
540.94105952
 31
0.0
  0
LINE
  5
351
100
AcDbEntity
  8
ZUWAKU
  6
CONTINUOUS
 62
       7
100
AcDbLine
 10
-294.97302238
 20
551.93449349
 30
0.0
 11
-305.98506983
 21
540.92244604
 31
0.0
  0
LINE
  5
352
100
AcDbEntity
  8
ZUWAKU
  6
CONTINUOUS
 62
       7
100
AcDbLine
 10
-296.10439323
 20
551.93449349
 30
0.0
 11
-307.12457121
 21
540.91431551
 31
0.0
  0
LINE
  5
353
100
AcDbEntity
  8
ZUWAKU
  6
CONTINUOUS
 62
       7
100
AcDbLine
 10
-297.23576408
 20
551.93449349
 30
0.0
 11
-308.25388317
 21
540.91637439
 31
0.0
  0
LINE
  5
354
100
AcDbEntity
  8
ZUWAKU
  6
CONTINUOUS
 62
       7
100
AcDbLine
 10
-298.36713493
 20
551.93449349
 30
0.0
 11
-309.3732714
 21
540.92835702
 31
0.0
  0
LINE
  5
355
100
AcDbEntity
  8
ZUWAKU
  6
CONTINUOUS
 62
       7
100
AcDbLine
 10
-299.49850578
 20
551.93449349
 30
0.0
 11
-310.4829764
 21
540.95002287
 31
0.0
  0
LINE
  5
356
100
AcDbEntity
  8
ZUWAKU
  6
CONTINUOUS
 62
       7
100
AcDbLine
 10
-300.62987663
 20
551.93449349
 30
0.0
 11
-311.58321581
 21
540.9811543
 31
0.0
  0
LINE
  5
357
100
AcDbEntity
  8
ZUWAKU
  6
CONTINUOUS
 62
       7
100
AcDbLine
 10
-301.76124748
 20
551.93449349
 30
0.0
 11
-312.67418641
 21
541.02155455
 31
0.0
  0
LINE
  5
358
100
AcDbEntity
  8
ZUWAKU
  6
CONTINUOUS
 62
       7
100
AcDbLine
 10
-302.89261833
 20
551.93449349
 30
0.0
 11
-313.7560658
 21
541.07104602
 31
0.0
  0
LINE
  5
359
100
AcDbEntity
  8
ZUWAKU
  6
CONTINUOUS
 62
       7
100
AcDbLine
 10
-304.02398918
 20
551.93449349
 30
0.0
 11
-314.82901389
 21
541.12946877
 31
0.0
  0
LINE
  5
35A
100
AcDbEntity
  8
ZUWAKU
  6
CONTINUOUS
 62
       7
100
AcDbLine
 10
-305.15536003
 20
551.93449349
 30
0.0
 11
-315.89317424
 21
541.19667928
 31
0.0
  0
LINE
  5
35B
100
AcDbEntity
  8
ZUWAKU
  6
CONTINUOUS
 62
       7
100
AcDbLine
 10
-306.28673088
 20
551.93449349
 30
0.0
 11
-316.94867509
 21
541.27254928
 31
0.0
  0
LINE
  5
35C
100
AcDbEntity
  8
ZUWAKU
  6
CONTINUOUS
 62
       7
100
AcDbLine
 10
-307.41810173
 20
551.93449349
 30
0.0
 11
-317.9956304
 21
541.35696482
 31
0.0
  0
LINE
  5
35D
100
AcDbEntity
  8
ZUWAKU
  6
CONTINUOUS
 62
       7
100
AcDbLine
 10
-308.54947258
 20
551.93449349
 30
0.0
 11
-319.03414065
 21
541.44982542
 31
0.0
  0
LINE
  5
35E
100
AcDbEntity
  8
ZUWAKU
  6
CONTINUOUS
 62
       7
100
AcDbLine
 10
-309.68084343
 20
551.93449349
 30
0.0
 11
-320.06429355
 21
541.55104337
 31
0.0
  0
LINE
  5
35F
100
AcDbEntity
  8
ZUWAKU
  6
CONTINUOUS
 62
       7
100
AcDbLine
 10
-310.81221428
 20
551.93449349
 30
0.0
 11
-321.08616465
 21
541.66054312
 31
0.0
  0
LINE
  5
360
100
AcDbEntity
  8
ZUWAKU
  6
CONTINUOUS
 62
       7
100
AcDbLine
 10
-311.94358513
 20
551.93449349
 30
0.0
 11
-322.09981786
 21
541.77826076
 31
0.0
  0
LINE
  5
361
100
AcDbEntity
  8
ZUWAKU
  6
CONTINUOUS
 62
       7
100
AcDbLine
 10
-313.07495598
 20
551.93449349
 30
0.0
 11
-323.10530589
 21
541.90414358
 31
0.0
  0
LINE
  5
362
100
AcDbEntity
  8
ZUWAKU
  6
CONTINUOUS
 62
       7
100
AcDbLine
 10
-314.20632683
 20
551.93449349
 30
0.0
 11
-324.10267056
 21
542.03814976
 31
0.0
  0
LINE
  5
363
100
AcDbEntity
  8
ZUWAKU
  6
CONTINUOUS
 62
       7
100
AcDbLine
 10
-315.33769767
 20
551.93449349
 30
0.0
 11
-325.09194308
 21
542.18024808
 31
0.0
  0
LINE
  5
364
100
AcDbEntity
  8
ZUWAKU
  6
CONTINUOUS
 62
       7
100
AcDbLine
 10
-316.46906852
 20
551.93449349
 30
0.0
 11
-326.0731443
 21
542.33041772
 31
0.0
  0
LINE
  5
365
100
AcDbEntity
  8
ZUWAKU
  6
CONTINUOUS
 62
       7
100
AcDbLine
 10
-317.60043937
 20
551.93449349
 30
0.0
 11
-327.04628476
 21
542.4886481
 31
0.0
  0
LINE
  5
366
100
AcDbEntity
  8
ZUWAKU
  6
CONTINUOUS
 62
       7
100
AcDbLine
 10
-318.73181022
 20
551.93449349
 30
0.0
 11
-328.01136483
 21
542.65493889
 31
0.0
  0
LINE
  5
367
100
AcDbEntity
  8
ZUWAKU
  6
CONTINUOUS
 62
       7
100
AcDbLine
 10
-319.86318107
 20
551.93449349
 30
0.0
 11
-328.96837466
 21
542.82929991
 31
0.0
  0
LINE
  5
368
100
AcDbEntity
  8
ZUWAKU
  6
CONTINUOUS
 62
       7
100
AcDbLine
 10
-320.99455192
 20
551.93449349
 30
0.0
 11
-329.91729415
 21
543.01175127
 31
0.0
  0
LINE
  5
369
100
AcDbEntity
  8
ZUWAKU
  6
CONTINUOUS
 62
       7
100
AcDbLine
 10
-322.12592277
 20
551.93449349
 30
0.0
 11
-330.85809281
 21
543.20232345
 31
0.0
  0
LINE
  5
36A
100
AcDbEntity
  8
ZUWAKU
  6
CONTINUOUS
 62
       7
100
AcDbLine
 10
-323.25729362
 20
551.93449349
 30
0.0
 11
-331.79072958
 21
543.40105754
 31
0.0
  0
LINE
  5
36B
100
AcDbEntity
  8
ZUWAKU
  6
CONTINUOUS
 62
       7
100
AcDbLine
 10
-324.38866447
 20
551.93449349
 30
0.0
 11
-332.71515253
 21
543.60800544
 31
0.0
  0
LINE
  5
36C
100
AcDbEntity
  8
ZUWAKU
  6
CONTINUOUS
 62
       7
100
AcDbLine
 10
-325.52003532
 20
551.93449349
 30
0.0
 11
-333.63129854
 21
543.82323028
 31
0.0
  0
LINE
  5
36D
100
AcDbEntity
  8
ZUWAKU
  6
CONTINUOUS
 62
       7
100
AcDbLine
 10
-326.65140617
 20
551.93449349
 30
0.0
 11
-334.5390929
 21
544.04680677
 31
0.0
  0
LINE
  5
36E
100
AcDbEntity
  8
ZUWAKU
  6
CONTINUOUS
 62
       7
100
AcDbLine
 10
-327.78277702
 20
551.93449349
 30
0.0
 11
-335.43844876
 21
544.27882176
 31
0.0
  0
LINE
  5
36F
100
AcDbEntity
  8
ZUWAKU
  6
CONTINUOUS
 62
       7
100
AcDbLine
 10
-328.91414787
 20
551.93449349
 30
0.0
 11
-336.32926657
 21
544.5193748
 31
0.0
  0
LINE
  5
370
100
AcDbEntity
  8
ZUWAKU
  6
CONTINUOUS
 62
       7
100
AcDbLine
 10
-330.04551872
 20
551.93449349
 30
0.0
 11
-337.21143335
 21
544.76857886
 31
0.0
  0
LINE
  5
371
100
AcDbEntity
  8
ZUWAKU
  6
CONTINUOUS
 62
       7
100
AcDbLine
 10
-331.17688957
 20
551.93449349
 30
0.0
 11
-338.08482187
 21
545.02656119
 31
0.0
  0
LINE
  5
372
100
AcDbEntity
  8
ZUWAKU
  6
CONTINUOUS
 62
       7
100
AcDbLine
 10
-332.30826042
 20
551.93449349
 30
0.0
 11
-338.94928971
 21
545.29346421
 31
0.0
  0
LINE
  5
373
100
AcDbEntity
  8
ZUWAKU
  6
CONTINUOUS
 62
       7
100
AcDbLine
 10
-333.43963127
 20
551.93449349
 30
0.0
 11
-339.80467812
 21
545.56944664
 31
0.0
  0
LINE
  5
374
100
AcDbEntity
  8
ZUWAKU
  6
CONTINUOUS
 62
       7
100
AcDbLine
 10
-334.57100212
 20
551.93449349
 30
0.0
 11
-340.6508108
 21
545.85468482
 31
0.0
  0
LINE
  5
375
100
AcDbEntity
  8
ZUWAKU
  6
CONTINUOUS
 62
       7
100
AcDbLine
 10
-335.70237297
 20
551.93449349
 30
0.0
 11
-341.48749238
 21
546.14937409
 31
0.0
  0
LINE
  5
376
100
AcDbEntity
  8
ZUWAKU
  6
CONTINUOUS
 62
       7
100
AcDbLine
 10
-336.83374382
 20
551.93449349
 30
0.0
 11
-342.31450673
 21
546.45373058
 31
0.0
  0
LINE
  5
377
100
AcDbEntity
  8
ZUWAKU
  6
CONTINUOUS
 62
       7
100
AcDbLine
 10
-337.96511467
 20
551.93449349
 30
0.0
 11
-343.13161504
 21
546.76799313
 31
0.0
  0
LINE
  5
378
100
AcDbEntity
  8
ZUWAKU
  6
CONTINUOUS
 62
       7
100
AcDbLine
 10
-339.09648552
 20
551.93449349
 30
0.0
 11
-343.93855345
 21
547.09242556
 31
0.0
  0
LINE
  5
379
100
AcDbEntity
  8
ZUWAKU
  6
CONTINUOUS
 62
       7
100
AcDbLine
 10
-340.22785637
 20
551.93449349
 30
0.0
 11
-344.73503052
 21
547.42731935
 31
0.0
  0
LINE
  5
37A
100
AcDbEntity
  8
ZUWAKU
  6
CONTINUOUS
 62
       7
100
AcDbLine
 10
-341.35922722
 20
551.93449349
 30
0.0
 11
-345.52072402
 21
547.7729967
 31
0.0
  0
LINE
  5
37B
100
AcDbEntity
  8
ZUWAKU
  6
CONTINUOUS
 62
       7
100
AcDbLine
 10
-342.49059807
 20
551.93449349
 30
0.0
 11
-346.29527741
 21
548.12981415
 31
0.0
  0
LINE
  5
37C
100
AcDbEntity
  8
ZUWAKU
  6
CONTINUOUS
 62
       7
100
AcDbLine
 10
-343.62196892
 20
551.93449349
 30
0.0
 11
-347.05829556
 21
548.49816685
 31
0.0
  0
LINE
  5
37D
100
AcDbEntity
  8
ZUWAKU
  6
CONTINUOUS
 62
       7
100
AcDbLine
 10
-344.75333977
 20
551.93449349
 30
0.0
 11
-347.8093397
 21
548.87849356
 31
0.0
  0
LINE
  5
37E
100
AcDbEntity
  8
ZUWAKU
  6
CONTINUOUS
 62
       7
100
AcDbLine
 10
-345.88471062
 20
551.93449349
 30
0.0
 11
-348.54792148
 21
549.27128263
 31
0.0
  0
LINE
  5
37F
100
AcDbEntity
  8
ZUWAKU
  6
CONTINUOUS
 62
       7
100
AcDbLine
 10
-347.01608147
 20
551.93449349
 30
0.0
 11
-349.27349582
 21
549.67707915
 31
0.0
  0
LINE
  5
380
100
AcDbEntity
  8
ZUWAKU
  6
CONTINUOUS
 62
       7
100
AcDbLine
 10
-348.14745232
 20
551.93449349
 30
0.0
 11
-349.98545229
 21
550.09649352
 31
0.0
  0
LINE
  5
381
100
AcDbEntity
  8
ZUWAKU
  6
CONTINUOUS
 62
       7
100
AcDbLine
 10
-348.58333333
 20
552.62998333
 30
0.0
 11
-350.68310469
 21
550.53021197
 31
0.0
  0
LINE
  5
382
100
AcDbEntity
  8
ZUWAKU
  6
CONTINUOUS
 62
       7
100
AcDbLine
 10
-348.58333333
 20
553.76135418
 30
0.0
 11
-351.36567824
 21
550.97900927
 31
0.0
  0
LINE
  5
383
100
AcDbEntity
  8
ZUWAKU
  6
CONTINUOUS
 62
       7
100
AcDbLine
 10
-348.58333333
 20
554.89272503
 30
0.0
 11
-352.03229378
 21
551.44376458
 31
0.0
  0
LINE
  5
384
100
AcDbEntity
  8
ZUWAKU
  6
CONTINUOUS
 62
       7
100
AcDbLine
 10
-348.58333333
 20
556.02409588
 30
0.0
 11
-352.68194805
 21
551.92548117
 31
0.0
  0
LINE
  5
385
100
AcDbEntity
  8
ZUWAKU
  6
CONTINUOUS
 62
       7
100
AcDbLine
 10
-348.58333333
 20
557.15546673
 30
0.0
 11
-353.31348873
 21
552.42531134
 31
0.0
  0
LINE
  5
386
100
AcDbEntity
  8
ZUWAKU
  6
CONTINUOUS
 62
       7
100
AcDbLine
 10
-348.58333333
 20
558.28683758
 30
0.0
 11
-353.92558256
 21
552.94458836
 31
0.0
  0
LINE
  5
387
100
AcDbEntity
  8
ZUWAKU
  6
CONTINUOUS
 62
       7
100
AcDbLine
 10
-348.58333333
 20
559.41820843
 30
0.0
 11
-354.51667392
 21
553.48486784
 31
0.0
  0
LINE
  5
388
100
AcDbEntity
  8
ZUWAKU
  6
CONTINUOUS
 62
       7
100
AcDbLine
 10
-348.58333333
 20
560.54957928
 30
0.0
 11
-355.08493015
 21
554.04798246
 31
0.0
  0
LINE
  5
389
100
AcDbEntity
  8
ZUWAKU
  6
CONTINUOUS
 62
       7
100
AcDbLine
 10
-348.57978997
 20
561.68449349
 30
0.0
 11
-355.62816806
 21
554.6361154
 31
0.0
  0
LINE
  5
38A
100
AcDbEntity
  8
ZUWAKU
  6
CONTINUOUS
 62
       7
100
AcDbLine
 10
-349.71116082
 20
561.68449349
 30
0.0
 11
-356.14375297
 21
555.25190134
 31
0.0
  0
LINE
  5
38B
100
AcDbEntity
  8
ZUWAKU
  6
CONTINUOUS
 62
       7
100
AcDbLine
 10
-350.84253167
 20
561.68449349
 30
0.0
 11
-356.62845664
 21
555.89856853
 31
0.0
  0
LINE
  5
38C
100
AcDbEntity
  8
ZUWAKU
  6
CONTINUOUS
 62
       7
100
AcDbLine
 10
-351.97390252
 20
561.68449349
 30
0.0
 11
-357.07825131
 21
556.5801447
 31
0.0
  0
LINE
  5
38D
100
AcDbEntity
  8
ZUWAKU
  6
CONTINUOUS
 62
       7
100
AcDbLine
 10
-353.10527337
 20
561.68449349
 30
0.0
 11
-357.488001
 21
557.30176587
 31
0.0
  0
LINE
  5
38E
100
AcDbEntity
  8
ZUWAKU
  6
CONTINUOUS
 62
       7
100
AcDbLine
 10
-354.23664422
 20
561.68449349
 30
0.0
 11
-357.85097888
 21
558.07015884
 31
0.0
  0
LINE
  5
38F
100
AcDbEntity
  8
ZUWAKU
  6
CONTINUOUS
 62
       7
100
AcDbLine
 10
-355.36801507
 20
561.68449349
 30
0.0
 11
-358.15807343
 21
558.89443513
 31
0.0
  0
LINE
  5
390
100
AcDbEntity
  8
ZUWAKU
  6
CONTINUOUS
 62
       7
100
AcDbLine
 10
-356.49938592
 20
561.68449349
 30
0.0
 11
-358.39639514
 21
559.78748427
 31
0.0
  0
LINE
  5
391
100
AcDbEntity
  8
ZUWAKU
  6
CONTINUOUS
 62
       7
100
AcDbLine
 10
-357.63075677
 20
561.68449349
 30
0.0
 11
-358.54661374
 21
560.76863652
 31
0.0
  0
LINE
  5
392
100
AcDbEntity
  8
ZUWAKU
  6
CONTINUOUS
 62
       7
100
AcDbLine
 10
-290.44753898
 20
551.93449349
 30
0.0
 11
-301.31881255
 21
541.06321992
 31
0.0
  0
LINE
  5
393
100
AcDbEntity
  8
ZUWAKU
  6
CONTINUOUS
 62
       7
100
AcDbLine
 10
-289.31616813
 20
551.93449349
 30
0.0
 11
-300.12328306
 21
541.12737856
 31
0.0
  0
LINE
  5
394
100
AcDbEntity
  8
ZUWAKU
  6
CONTINUOUS
 62
       7
100
AcDbLine
 10
-288.18479728
 20
551.93449349
 30
0.0
 11
-298.91525486
 21
541.20403591
 31
0.0
  0
LINE
  5
395
100
AcDbEntity
  8
ZUWAKU
  6
CONTINUOUS
 62
       7
100
AcDbLine
 10
-287.05342643
 20
551.93449349
 30
0.0
 11
-297.6941786
 21
541.29374132
 31
0.0
  0
LINE
  5
396
100
AcDbEntity
  8
ZUWAKU
  6
CONTINUOUS
 62
       7
100
AcDbLine
 10
-285.92205558
 20
551.93449349
 30
0.0
 11
-296.45943889
 21
541.39711018
 31
0.0
  0
LINE
  5
397
100
AcDbEntity
  8
ZUWAKU
  6
CONTINUOUS
 62
       7
100
AcDbLine
 10
-284.79068473
 20
551.93449349
 30
0.0
 11
-295.21034374
 21
541.51483448
 31
0.0
  0
LINE
  5
398
100
AcDbEntity
  8
ZUWAKU
  6
CONTINUOUS
 62
       7
100
AcDbLine
 10
-283.65931388
 20
551.93449349
 30
0.0
 11
-293.94611161
 21
541.64769576
 31
0.0
  0
LINE
  5
399
100
AcDbEntity
  8
ZUWAKU
  6
CONTINUOUS
 62
       7
100
AcDbLine
 10
-282.52794303
 20
551.93449349
 30
0.0
 11
-292.66585532
 21
541.7965812
 31
0.0
  0
LINE
  5
39A
100
AcDbEntity
  8
ZUWAKU
  6
CONTINUOUS
 62
       7
100
AcDbLine
 10
-281.39657218
 20
551.93449349
 30
0.0
 11
-291.36856202
 21
541.96250365
 31
0.0
  0
LINE
  5
39B
100
AcDbEntity
  8
ZUWAKU
  6
CONTINUOUS
 62
       7
100
AcDbLine
 10
-280.26520133
 20
551.93449349
 30
0.0
 11
-290.05306782
 21
542.146627
 31
0.0
  0
LINE
  5
39C
100
AcDbEntity
  8
ZUWAKU
  6
CONTINUOUS
 62
       7
100
AcDbLine
 10
-279.13383048
 20
551.93449349
 30
0.0
 11
-288.71802533
 21
542.35029864
 31
0.0
  0
LINE
  5
39D
100
AcDbEntity
  8
ZUWAKU
  6
CONTINUOUS
 62
       7
100
AcDbLine
 10
-278.00245963
 20
551.93449349
 30
0.0
 11
-287.36186144
 21
542.57509168
 31
0.0
  0
LINE
  5
39E
100
AcDbEntity
  8
ZUWAKU
  6
CONTINUOUS
 62
       7
100
AcDbLine
 10
-276.87108878
 20
551.93449349
 30
0.0
 11
-285.98272152
 21
542.82286075
 31
0.0
  0
LINE
  5
39F
100
AcDbEntity
  8
ZUWAKU
  6
CONTINUOUS
 62
       7
100
AcDbLine
 10
-265.98971793
 20
561.68449349
 30
0.0
 11
-266.08333333
 21
561.59087809
 31
0.0
  0
LINE
  5
3A0
100
AcDbEntity
  8
ZUWAKU
  6
CONTINUOUS
 62
       7
100
AcDbLine
 10
-275.73971793
 20
551.93449349
 30
0.0
 11
-284.57839437
 21
543.09581705
 31
0.0
  0
LINE
  5
3A1
100
AcDbEntity
  8
ZUWAKU
  6
CONTINUOUS
 62
       7
100
AcDbLine
 10
-264.85834708
 20
561.68449349
 30
0.0
 11
-266.08333333
 21
560.45950724
 31
0.0
  0
LINE
  5
3A2
100
AcDbEntity
  8
ZUWAKU
  6
CONTINUOUS
 62
       7
100
AcDbLine
 10
-274.60834708
 20
551.93449349
 30
0.0
 11
-283.14620884
 21
543.39663173
 31
0.0
  0
LINE
  5
3A3
100
AcDbEntity
  8
ZUWAKU
  6
CONTINUOUS
 62
       7
100
AcDbLine
 10
-263.72697623
 20
561.68449349
 30
0.0
 11
-266.08333333
 21
559.32813639
 31
0.0
  0
LINE
  5
3A4
100
AcDbEntity
  8
ZUWAKU
  6
CONTINUOUS
 62
       7
100
AcDbLine
 10
-273.47697623
 20
551.93449349
 30
0.0
 11
-281.68288818
 21
543.72858154
 31
0.0
  0
LINE
  5
3A5
100
AcDbEntity
  8
ZUWAKU
  6
CONTINUOUS
 62
       7
100
AcDbLine
 10
-262.59560538
 20
561.68449349
 30
0.0
 11
-266.08333333
 21
558.19676554
 31
0.0
  0
LINE
  5
3A6
100
AcDbEntity
  8
ZUWAKU
  6
CONTINUOUS
 62
       7
100
AcDbLine
 10
-272.34560538
 20
551.93449349
 30
0.0
 11
-280.18433842
 21
544.09576045
 31
0.0
  0
LINE
  5
3A7
100
AcDbEntity
  8
ZUWAKU
  6
CONTINUOUS
 62
       7
100
AcDbLine
 10
-261.46423453
 20
561.68449349
 30
0.0
 11
-266.08333333
 21
557.06539469
 31
0.0
  0
LINE
  5
3A8
100
AcDbEntity
  8
ZUWAKU
  6
CONTINUOUS
 62
       7
100
AcDbLine
 10
-271.21423453
 20
551.93449349
 30
0.0
 11
-278.64533024
 21
544.50339778
 31
0.0
  0
LINE
  5
3A9
100
AcDbEntity
  8
ZUWAKU
  6
CONTINUOUS
 62
       7
100
AcDbLine
 10
-260.33286368
 20
561.68449349
 30
0.0
 11
-266.08333333
 21
555.93402384
 31
0.0
  0
LINE
  5
3AA
100
AcDbEntity
  8
ZUWAKU
  6
CONTINUOUS
 62
       7
100
AcDbLine
 10
-270.08286368
 20
551.93449349
 30
0.0
 11
-277.05900008
 21
544.95835709
 31
0.0
  0
LINE
  5
3AB
100
AcDbEntity
  8
ZUWAKU
  6
CONTINUOUS
 62
       7
100
AcDbLine
 10
-259.20149283
 20
561.68449349
 30
0.0
 11
-266.08333333
 21
554.80265299
 31
0.0
  0
LINE
  5
3AC
100
AcDbEntity
  8
ZUWAKU
  6
CONTINUOUS
 62
       7
100
AcDbLine
 10
-268.95149283
 20
551.93449349
 30
0.0
 11
-275.41602626
 21
545.46996006
 31
0.0
  0
LINE
  5
3AD
100
AcDbEntity
  8
ZUWAKU
  6
CONTINUOUS
 62
       7
100
AcDbLine
 10
-258.07012198
 20
561.68449349
 30
0.0
 11
-266.08333333
 21
553.67128214
 31
0.0
  0
LINE
  5
3AE
100
AcDbEntity
  8
ZUWAKU
  6
CONTINUOUS
 62
       7
100
AcDbLine
 10
-267.82012198
 20
551.93449349
 30
0.0
 11
-273.70317525
 21
546.05144022
 31
0.0
  0
LINE
  5
3AF
100
AcDbEntity
  8
ZUWAKU
  6
CONTINUOUS
 62
       7
100
AcDbLine
 10
-256.93875113
 20
561.68449349
 30
0.0
 11
-266.08333333
 21
552.53991129
 31
0.0
  0
LINE
  5
3B0
100
AcDbEntity
  8
ZUWAKU
  6
CONTINUOUS
 62
       7
100
AcDbLine
 10
-266.68875113
 20
551.93449349
 30
0.0
 11
-271.90050402
 21
546.7227406
 31
0.0
  0
LINE
  5
3B1
100
AcDbEntity
  8
ZUWAKU
  6
CONTINUOUS
 62
       7
100
AcDbLine
 10
-256.34302435
 20
561.14884942
 30
0.0
 11
-269.97528629
 21
547.51658748
 31
0.0
  0
LINE
  5
3B2
100
AcDbEntity
  8
ZUWAKU
  6
CONTINUOUS
 62
       7
100
AcDbLine
 10
-256.50638547
 20
559.85411745
 30
0.0
 11
-267.86621025
 21
548.49429267
 31
0.0
  0
LINE
  5
3B3
100
AcDbEntity
  8
ZUWAKU
  6
CONTINUOUS
 62
       7
100
AcDbLine
 10
-256.99980227
 20
558.2293298
 30
0.0
 11
-265.42707853
 21
549.80205355
 31
0.0
  0
LINE
  5
3B4
100
AcDbEntity
  8
ZUWAKU
  6
CONTINUOUS
 62
       7
100
AcDbLine
 10
-258.52603755
 20
555.57172368
 30
0.0
 11
-261.95512833
 21
552.14263289
 31
0.0
  0
ARC
  5
3B5
100
AcDbEntity
  8
ZUWAKU
  6
CONTINUOUS
 62
       7
100
AcDbCircle
 10
-321.05062195
 20
565.93449349
 30
0.0
 40
2.0
100
AcDbArc
 50
270.0
 51
450.0
  0
LINE
  5
3B6
100
AcDbEntity
  8
ZUWAKU
  6
CONTINUOUS
 62
       7
100
AcDbLine
 10
-333.36383333
 20
557.93649349
 30
0.0
 11
-330.48883333
 21
557.93649349
 31
0.0
  0
LINE
  5
3B7
100
AcDbEntity
  8
ZUWAKU
  6
CONTINUOUS
 62
       7
100
AcDbLine
 10
-333.83333333
 20
556.68449349
 30
0.0
 11
-329.62119675
 21
556.68449349
 31
0.0
  0
LINE
  5
3B8
100
AcDbEntity
  8
ZUWAKU
  6
CONTINUOUS
 62
       7
100
AcDbLine
 10
-329.62119675
 20
556.68449349
 30
0.0
 11
-327.37194675
 21
562.68249349
 31
0.0
  0
LINE
  5
3B9
100
AcDbEntity
  8
ZUWAKU
  6
CONTINUOUS
 62
       7
100
AcDbLine
 10
-326.90244675
 20
563.93449349
 30
0.0
 11
-325.40244675
 21
567.93449349
 31
0.0
  0
LINE
  5
3BA
100
AcDbEntity
  8
ZUWAKU
  6
CONTINUOUS
 62
       7
100
AcDbLine
 10
-327.37194675
 20
562.68249349
 30
0.0
 11
-326.47350725
 21
562.68249349
 31
0.0
  0
LINE
  5
3BB
100
AcDbEntity
  8
ZUWAKU
  6
CONTINUOUS
 62
       7
100
AcDbLine
 10
-325.03535718
 20
562.68249349
 30
0.0
 11
-321.05062195
 21
562.68249349
 31
0.0
  0
LINE
  5
3BC
100
AcDbEntity
  8
ZUWAKU
  6
CONTINUOUS
 62
       7
100
AcDbLine
 10
-322.35283545
 20
557.93649349
 30
0.0
 11
-325.03535718
 21
562.68249349
 31
0.0
  0
ARC
  5
3BD
100
AcDbEntity
  8
ZUWAKU
  6
CONTINUOUS
 62
       7
100
AcDbCircle
 10
-321.05062195
 20
565.93449349
 30
0.0
 40
3.25
100
AcDbArc
 50
270.0
 51
450.0
  0
ELLIPSE
  5
3BE
100
AcDbEntity
  8
ZUWAKU
  6
CONTINUOUS
 62
       7
100
AcDbEllipse
 10
-316.90979559
 20
559.50273314
 30
0.0
 11
-0.3292746530997306
 21
-0.6036701973492882
 31
0.0
210
0.0
220
0.0
230
1.0
 40
0.75209874
 41
0.0
 42
6.2831853071796004
  0
LINE
  5
3BF
100
AcDbEntity
  8
ZUWAKU
  6
CONTINUOUS
 62
       7
100
AcDbLine
 10
-323.08333333
 20
556.68449349
 30
0.0
 11
-318.58333333
 21
556.68449349
 31
0.0
  0
ELLIPSE
  5
3C0
100
AcDbEntity
  8
ZUWAKU
  6
CONTINUOUS
 62
       7
100
AcDbEllipse
 10
-316.90979559
 20
559.50273314
 30
0.0
 11
-1.0519956968041697
 21
-1.928658777473629
 31
0.0
210
0.0
220
0.0
230
1.0
 40
0.75209874
 41
1.1633802511780491
 42
5.8601607076995617
  0
LINE
  5
3C1
100
AcDbEntity
  8
ZUWAKU
  6
CONTINUOUS
 62
       7
100
AcDbLine
 10
-322.35283545
 20
557.93649349
 30
0.0
 11
-318.65842947
 21
557.93649349
 31
0.0
  0
ARC
  5
3C2
100
AcDbEntity
  8
ZUWAKU
  6
CONTINUOUS
 62
       7
100
AcDbCircle
 10
-319.03085096
 20
560.74436361
 30
0.0
 40
2.83246048
100
AcDbArc
 50
277.55531967
 51
282.61004677
  0
ARC
  5
3C3
100
AcDbEntity
  8
ZUWAKU
  6
CONTINUOUS
 62
       7
100
AcDbCircle
 10
-319.03085096
 20
560.74436361
 30
0.0
 40
4.08446048
100
AcDbArc
 50
276.29029269
 51
293.79815684
  0
ARC
  5
3C4
100
AcDbEntity
  8
ZUWAKU
  6
CONTINUOUS
 62
       7
100
AcDbCircle
 10
-319.03085096
 20
560.74436361
 30
0.0
 40
4.08446048
100
AcDbArc
 50
316.57125834
 51
318.01426788
  0
ARC
  5
3C5
100
AcDbEntity
  8
ZUWAKU
  6
CONTINUOUS
 62
       7
100
AcDbCircle
 10
-316.09719212
 20
559.39910945
 30
0.0
 40
2.71547536
100
AcDbArc
 50
209.3318227
 51
211.50126528
  0
ARC
  5
3C6
100
AcDbEntity
  8
ZUWAKU
  6
CONTINUOUS
 62
       7
100
AcDbCircle
 10
-316.09719212
 20
559.39910945
 30
0.0
 40
2.71547536
100
AcDbArc
 50
241.74457829
 51
270.0
  0
ELLIPSE
  5
3C7
100
AcDbEntity
  8
ZUWAKU
  6
CONTINUOUS
 62
       7
100
AcDbEllipse
 10
-310.51647571
 20
561.18387177
 30
0.0
 11
-0.5481721846488767
 21
-1.1306051308384895
 31
0.0
210
0.0
220
0.0
230
1.0
 40
0.44219156
 41
0.0
 42
6.2831853071796004
  0
ARC
  5
3C8
100
AcDbEntity
  8
ZUWAKU
  6
CONTINUOUS
 62
       7
100
AcDbCircle
 10
-309.36355616
 20
561.51470042
 30
0.0
 40
4.85642735
100
AcDbArc
 50
241.28311564
 51
264.0434522
  0
LINE
  5
3C9
100
AcDbEntity
  8
ZUWAKU
  6
CONTINUOUS
 62
       7
100
AcDbLine
 10
-316.09719212
 20
556.68449349
 30
0.0
 11
-313.27980439
 21
556.68449349
 31
0.0
  0
ARC
  5
3CA
100
AcDbEntity
  8
ZUWAKU
  6
CONTINUOUS
 62
       7
100
AcDbCircle
 10
-309.36355616
 20
561.51470042
 30
0.0
 40
3.60442735
100
AcDbArc
 50
251.08708107
 51
263.08482824
  0
ARC
  5
3CB
100
AcDbEntity
  8
ZUWAKU
  6
CONTINUOUS
 62
       7
100
AcDbCircle
 10
-314.3425283
 20
562.10885939
 30
0.0
 40
4.27548835
100
AcDbArc
 50
282.60950936
 51
291.93126974
  0
ELLIPSE
  5
3CC
100
AcDbEntity
  8
ZUWAKU
  6
CONTINUOUS
 62
       7
100
AcDbEllipse
 10
-310.51647571
 20
561.18387177
 30
0.0
 11
-1.7513488327440427
 21
-3.6121569675352703
 31
0.0
210
0.0
220
0.0
230
1.0
 40
0.44219156
 41
1.1621663820477937
 42
5.8906096214263028
  0
LINE
  5
3CD
100
AcDbEntity
  8
ZUWAKU
  6
CONTINUOUS
 62
       7
100
AcDbLine
 10
-316.06459358
 20
557.93649349
 30
0.0
 11
-313.40916691
 21
557.93649349
 31
0.0
  0
ARC
  5
3CE
100
AcDbEntity
  8
ZUWAKU
  6
CONTINUOUS
 62
       7
100
AcDbCircle
 10
-314.3425283
 20
562.10885939
 30
0.0
 40
5.52748835
100
AcDbArc
 50
313.58286141
 51
326.24939265
  0
ARC
  5
3CF
100
AcDbEntity
  8
ZUWAKU
  6
CONTINUOUS
 62
       7
100
AcDbCircle
 10
-314.3425283
 20
562.10885939
 30
0.0
 40
5.52748835
100
AcDbArc
 50
281.08479974
 51
298.5950739
  0
LINE
  5
3D0
100
AcDbEntity
  8
ZUWAKU
  6
CONTINUOUS
 62
       7
100
AcDbLine
 10
-309.86752804
 20
556.68449349
 30
0.0
 11
-307.83333333
 21
556.68449349
 31
0.0
  0
LINE
  5
3D1
100
AcDbEntity
  8
ZUWAKU
  6
CONTINUOUS
 62
       7
100
AcDbLine
 10
-308.12452409
 20
558.16389811
 30
0.0
 11
-304.72260344
 21
561.56581876
 31
0.0
  0
LINE
  5
3D2
100
AcDbEntity
  8
ZUWAKU
  6
CONTINUOUS
 62
       7
100
AcDbLine
 10
-304.60539689
 20
557.93649349
 30
0.0
 11
-304.05533922
 21
561.23683946
 31
0.0
  0
LINE
  5
3D3
100
AcDbEntity
  8
ZUWAKU
  6
CONTINUOUS
 62
       7
100
AcDbLine
 10
-309.79752818
 20
557.93649349
 30
0.0
 11
-308.57933333
 21
557.93649349
 31
0.0
  0
ARC
  5
3D4
100
AcDbEntity
  8
ZUWAKU
  6
CONTINUOUS
 62
       7
100
AcDbCircle
 10
-304.43852632
 20
561.30070397
 30
0.0
 40
0.38856874
100
AcDbArc
 50
350.53767779
 51
496.97750576
  0
ELLIPSE
  5
3D5
100
AcDbEntity
  8
ZUWAKU
  6
CONTINUOUS
 62
       7
100
AcDbEllipse
 10
-299.13393264
 20
559.03641881
 30
0.0
 11
-0.3647265199069238
 21
-0.6142762440537126
 31
0.0
210
0.0
220
0.0
230
1.0
 40
0.58819821
 41
0.0
 42
6.2831853071796004
  0
LINE
  5
3D6
100
AcDbEntity
  8
ZUWAKU
  6
CONTINUOUS
 62
       7
100
AcDbLine
 10
-303.28519702
 20
557.93649349
 30
0.0
 11
-301.20143731
 21
558.93735445
 31
0.0
  0
LINE
  5
3D7
100
AcDbEntity
  8
ZUWAKU
  6
CONTINUOUS
 62
       7
100
AcDbLine
 10
-303.08333333
 20
556.68449349
 30
0.0
 11
-301.33873567
 21
557.45754642
 31
0.0
  0
LINE
  5
3D8
100
AcDbEntity
  8
ZUWAKU
  6
CONTINUOUS
 62
       7
100
AcDbLine
 10
-304.60539689
 20
557.93649349
 30
0.0
 11
-303.28519702
 21
557.93649349
 31
0.0
  0
LINE
  5
3D9
100
AcDbEntity
  8
ZUWAKU
  6
CONTINUOUS
 62
       7
100
AcDbLine
 10
-298.80583684
 20
557.24856698
 30
0.0
 11
-298.22231254
 21
556.68449349
 31
0.0
  0
LINE
  5
3DA
100
AcDbEntity
  8
ZUWAKU
  6
CONTINUOUS
 62
       7
100
AcDbLine
 10
-296.83333333
 20
557.93649349
 30
0.0
 11
-295.07448436
 21
557.93649349
 31
0.0
  0
LINE
  5
3DB
100
AcDbEntity
  8
ZUWAKU
  6
CONTINUOUS
 62
       7
100
AcDbLine
 10
-291.07677008
 20
561.43449349
 30
0.0
 11
-295.07448436
 21
557.93649349
 31
0.0
  0
ELLIPSE
  5
3DC
100
AcDbEntity
  8
ZUWAKU
  6
CONTINUOUS
 62
       7
100
AcDbEllipse
 10
-299.39482252
 20
558.88848267
 30
0.0
 11
-1.5887408375478458
 21
-1.9683311589067216
 31
0.0
210
0.0
220
0.0
230
1.0
 40
0.63020876
 41
2.7713952963881394
 42
5.1608192210644281
  0
ELLIPSE
  5
3DD
100
AcDbEntity
  8
ZUWAKU
  6
CONTINUOUS
 62
       7
100
AcDbEllipse
 10
-299.39482252
 20
558.88848267
 30
0.0
 11
-1.5887408375478458
 21
-1.9683311589067216
 31
0.0
210
0.0
220
0.0
230
1.0
 40
0.63020876
 41
5.8878630804447258
 42
7.4876029260781616
  0
LINE
  5
3DE
100
AcDbEntity
  8
ZUWAKU
  6
CONTINUOUS
 62
       7
100
AcDbLine
 10
-297.1624925
 20
561.19287686
 30
0.0
 11
-295.83028484
 21
561.19287686
 31
0.0
  0
LINE
  5
3DF
100
AcDbEntity
  8
ZUWAKU
  6
CONTINUOUS
 62
       7
100
AcDbLine
 10
-297.46491185
 20
560.36122364
 30
0.0
 11
-297.1624925
 21
561.19287686
 31
0.0
  0
LINE
  5
3E0
100
AcDbEntity
  8
ZUWAKU
  6
CONTINUOUS
 62
       7
100
AcDbLine
 10
-296.83333333
 20
558.43449349
 30
0.0
 11
-295.83028484
 21
561.19287686
 31
0.0
  0
LINE
  5
3E1
100
AcDbEntity
  8
ZUWAKU
  6
CONTINUOUS
 62
       7
100
AcDbLine
 10
-293.43074113
 20
556.72387848
 30
0.0
 11
-292.79720343
 21
558.46610716
 31
0.0
  0
LINE
  5
3E2
100
AcDbEntity
  8
ZUWAKU
  6
CONTINUOUS
 62
       7
100
AcDbLine
 10
-290.90978977
 20
559.68449349
 30
0.0
 11
-292.00069886
 21
556.68449349
 31
0.0
  0
LINE
  5
3E3
100
AcDbEntity
  8
ZUWAKU
  6
CONTINUOUS
 62
       7
100
AcDbLine
 10
-290.33333333
 20
556.68449349
 30
0.0
 11
-289.24242424
 21
559.68449349
 31
0.0
  0
LINE
  5
3E4
100
AcDbEntity
  8
ZUWAKU
  6
CONTINUOUS
 62
       7
100
AcDbLine
 10
-287.41849458
 20
560.63780008
 30
0.0
 11
-288.40078788
 21
557.93649349
 31
0.0
  0
LINE
  5
3E5
100
AcDbEntity
  8
ZUWAKU
  6
CONTINUOUS
 62
       7
100
AcDbLine
 10
-287.8341607
 20
561.43449349
 30
0.0
 11
-287.41849458
 21
560.63780008
 31
0.0
  0
LINE
  5
3E6
100
AcDbEntity
  8
ZUWAKU
  6
CONTINUOUS
 62
       7
100
AcDbLine
 10
-290.5769386
 20
560.69088823
 30
0.0
 11
-290.33100142
 21
561.43449349
 31
0.0
  0
LINE
  5
3E7
100
AcDbEntity
  8
ZUWAKU
  6
CONTINUOUS
 62
       7
100
AcDbLine
 10
-290.5769386
 20
560.69088823
 30
0.0
 11
-289.24514425
 21
561.43449349
 31
0.0
  0
LINE
  5
3E8
100
AcDbEntity
  8
ZUWAKU
  6
CONTINUOUS
 62
       7
100
AcDbLine
 10
-287.8341607
 20
561.43449349
 30
0.0
 11
-289.24514425
 21
561.43449349
 31
0.0
  0
LINE
  5
3E9
100
AcDbEntity
  8
ZUWAKU
  6
CONTINUOUS
 62
       7
100
AcDbLine
 10
-290.33100142
 20
561.43449349
 30
0.0
 11
-291.07677008
 21
561.43449349
 31
0.0
  0
ELLIPSE
  5
3EA
100
AcDbEntity
  8
ZUWAKU
  6
CONTINUOUS
 62
       7
100
AcDbEllipse
 10
-276.67680358
 20
559.50273314
 30
0.0
 11
-0.3292746530997306
 21
-0.6036701973492882
 31
0.0
210
0.0
220
0.0
230
1.0
 40
0.75209874
 41
0.0
 42
6.2831853071796004
  0
ELLIPSE
  5
3EB
100
AcDbEntity
  8
ZUWAKU
  6
CONTINUOUS
 62
       7
100
AcDbEllipse
 10
-276.67680358
 20
559.50273314
 30
0.0
 11
-1.0519956968041697
 21
-1.928658777473629
 31
0.0
210
0.0
220
0.0
230
1.0
 40
0.75209874
 41
1.1633802511780491
 42
5.8601607076995617
  0
ARC
  5
3EC
100
AcDbEntity
  8
ZUWAKU
  6
CONTINUOUS
 62
       7
100
AcDbCircle
 10
-278.79785894
 20
560.74436361
 30
0.0
 40
2.83246048
100
AcDbArc
 50
277.55531967
 51
282.61004677
  0
ARC
  5
3ED
100
AcDbEntity
  8
ZUWAKU
  6
CONTINUOUS
 62
       7
100
AcDbCircle
 10
-278.79785894
 20
560.74436361
 30
0.0
 40
4.08446048
100
AcDbArc
 50
276.29029269
 51
293.79815684
  0
ARC
  5
3EE
100
AcDbEntity
  8
ZUWAKU
  6
CONTINUOUS
 62
       7
100
AcDbCircle
 10
-278.79785894
 20
560.74436361
 30
0.0
 40
4.08446048
100
AcDbArc
 50
316.57125834
 51
318.01426788
  0
ARC
  5
3EF
100
AcDbEntity
  8
ZUWAKU
  6
CONTINUOUS
 62
       7
100
AcDbCircle
 10
-275.86420011
 20
559.39910945
 30
0.0
 40
2.71547536
100
AcDbArc
 50
209.3318227
 51
211.50126528
  0
ARC
  5
3F0
100
AcDbEntity
  8
ZUWAKU
  6
CONTINUOUS
 62
       7
100
AcDbCircle
 10
-275.86420011
 20
559.39910945
 30
0.0
 40
2.71547536
100
AcDbArc
 50
241.74457829
 51
270.0
  0
LINE
  5
3F1
100
AcDbEntity
  8
ZUWAKU
  6
CONTINUOUS
 62
       7
100
AcDbLine
 10
-282.77414111
 20
557.93649349
 30
0.0
 11
-278.42543746
 21
557.93649349
 31
0.0
  0
LINE
  5
3F2
100
AcDbEntity
  8
ZUWAKU
  6
CONTINUOUS
 62
       7
100
AcDbLine
 10
-275.86420011
 20
556.68449349
 30
0.0
 11
-273.456703
 21
556.68449349
 31
0.0
  0
LINE
  5
3F3
100
AcDbEntity
  8
ZUWAKU
  6
CONTINUOUS
 62
       7
100
AcDbLine
 10
-275.83160157
 20
557.93649349
 30
0.0
 11
-273.1761749
 21
557.93649349
 31
0.0
  0
LINE
  5
3F4
100
AcDbEntity
  8
ZUWAKU
  6
CONTINUOUS
 62
       7
100
AcDbLine
 10
-306.08333333
 20
556.68449349
 30
0.0
 11
-303.08333333
 21
556.68449349
 31
0.0
  0
LINE
  5
3F5
100
AcDbEntity
  8
ZUWAKU
  6
CONTINUOUS
 62
       7
100
AcDbLine
 10
-293.43074113
 20
556.72387848
 30
0.0
 11
-292.00069886
 21
556.68449349
 31
0.0
  0
LINE
  5
3F6
100
AcDbEntity
  8
ZUWAKU
  6
CONTINUOUS
 62
       7
100
AcDbLine
 10
-288.40078788
 20
557.93649349
 30
0.0
 11
-286.08897621
 21
557.93649349
 31
0.0
  0
LINE
  5
3F7
100
AcDbEntity
  8
ZUWAKU
  6
CONTINUOUS
 62
       7
100
AcDbLine
 10
-281.82265126
 20
559.73887235
 30
0.0
 11
-280.88871665
 21
560.49380283
 31
0.0
  0
ARC
  5
3F8
100
AcDbEntity
  8
ZUWAKU
  6
CONTINUOUS
 62
       7
100
AcDbCircle
 10
-282.77414111
 20
559.09649349
 30
0.0
 40
1.16
100
AcDbArc
 50
34.07537472
 51
270.0
  0
ARC
  5
3F9
100
AcDbEntity
  8
ZUWAKU
  6
CONTINUOUS
 62
       7
100
AcDbCircle
 10
-282.77414111
 20
559.09649349
 30
0.0
 40
2.34676347
100
AcDbArc
 50
36.54256145
 51
190.98612084
  0
LINE
  5
3FA
100
AcDbEntity
  8
ZUWAKU
  6
CONTINUOUS
 62
       7
100
AcDbLine
 10
-285.77325115
 20
556.68449349
 30
0.0
 11
-284.58454917
 21
557.55919872
 31
0.0
  0
LINE
  5
3FB
100
AcDbEntity
  8
ZUWAKU
  6
CONTINUOUS
 62
       7
100
AcDbLine
 10
-285.09280342
 20
558.6695263
 30
0.0
 11
-286.08897621
 21
557.93649349
 31
0.0
  0
LINE
  5
3FC
100
AcDbEntity
  8
ZUWAKU
  6
CONTINUOUS
 62
       7
100
AcDbLine
 10
-284.58454917
 20
557.55919872
 30
0.0
 11
-283.58333333
 21
556.68449349
 31
0.0
  0
LINE
  5
3FD
100
AcDbEntity
  8
ZUWAKU
  6
CONTINUOUS
 62
       7
100
AcDbLine
 10
-273.1761749
 20
557.93649349
 30
0.0
 11
-273.456703
 21
556.68449349
 31
0.0
  0
LINE
  5
3FE
100
AcDbEntity
  8
ZUWAKU
  6
CONTINUOUS
 62
       7
100
AcDbLine
 10
-339.66263997
 20
568.90324349
 30
0.0
 11
-340.35013997
 21
568.21574349
 31
0.0
  0
LINE
  5
3FF
100
AcDbEntity
  8
ZUWAKU
  6
CONTINUOUS
 62
       7
100
AcDbLine
 10
-338.21601944
 20
569.04621581
 30
0.0
 11
-339.18946407
 21
568.07277117
 31
0.0
  0
LINE
  5
400
100
AcDbEntity
  8
ZUWAKU
  6
CONTINUOUS
 62
       7
100
AcDbLine
 10
-336.57852847
 20
569.15949349
 30
0.0
 11
-337.78009097
 21
567.95793099
 31
0.0
  0
LINE
  5
401
100
AcDbEntity
  8
ZUWAKU
  6
CONTINUOUS
 62
       7
100
AcDbLine
 10
-334.96400366
 20
569.18449349
 30
0.0
 11
-336.21400366
 21
567.93449349
 31
0.0
  0
LINE
  5
402
100
AcDbEntity
  8
ZUWAKU
  6
CONTINUOUS
 62
       7
100
AcDbLine
 10
-333.29459129
 20
569.18449349
 30
0.0
 11
-334.54459129
 21
567.93449349
 31
0.0
  0
LINE
  5
403
100
AcDbEntity
  8
ZUWAKU
  6
CONTINUOUS
 62
       7
100
AcDbLine
 10
-331.45911862
 20
569.18449349
 30
0.0
 11
-332.70911862
 21
567.93449349
 31
0.0
  0
LINE
  5
404
100
AcDbEntity
  8
ZUWAKU
  6
CONTINUOUS
 62
       7
100
AcDbLine
 10
-329.91213098
 20
569.18449349
 30
0.0
 11
-331.16213098
 21
567.93449349
 31
0.0
  0
LINE
  5
405
100
AcDbEntity
  8
ZUWAKU
  6
CONTINUOUS
 62
       7
100
AcDbLine
 10
-329.47965759
 20
557.06193125
 30
0.0
 11
-329.85709535
 21
556.68449349
 31
0.0
  0
LINE
  5
406
100
AcDbEntity
  8
ZUWAKU
  6
CONTINUOUS
 62
       7
100
AcDbLine
 10
-328.80083508
 20
558.87212461
 30
0.0
 11
-330.9884662
 21
556.68449349
 31
0.0
  0
LINE
  5
407
100
AcDbEntity
  8
ZUWAKU
  6
CONTINUOUS
 62
       7
100
AcDbLine
 10
-328.12201257
 20
560.68231797
 30
0.0
 11
-330.26143111
 21
558.54289943
 31
0.0
  0
LINE
  5
408
100
AcDbEntity
  8
ZUWAKU
  6
CONTINUOUS
 62
       7
100
AcDbLine
 10
-330.86783705
 20
557.93649349
 30
0.0
 11
-332.11983705
 21
556.68449349
 31
0.0
  0
LINE
  5
409
100
AcDbEntity
  8
ZUWAKU
  6
CONTINUOUS
 62
       7
100
AcDbLine
 10
-327.44319006
 20
562.49251133
 30
0.0
 11
-329.5826086
 21
560.35309279
 31
0.0
  0
LINE
  5
40A
100
AcDbEntity
  8
ZUWAKU
  6
CONTINUOUS
 62
       7
100
AcDbLine
 10
-331.9992079
 20
557.93649349
 30
0.0
 11
-333.2512079
 21
556.68449349
 31
0.0
  0
LINE
  5
40B
100
AcDbEntity
  8
ZUWAKU
  6
CONTINUOUS
 62
       7
100
AcDbLine
 10
-333.13057875
 20
557.93649349
 30
0.0
 11
-333.50378609
 21
557.56328615
 31
0.0
  0
LINE
  5
40C
100
AcDbEntity
  8
ZUWAKU
  6
CONTINUOUS
 62
       7
100
AcDbLine
 10
-325.2766913
 20
569.18449349
 30
0.0
 11
-326.86731856
 21
567.59386623
 31
0.0
  0
LINE
  5
40D
100
AcDbEntity
  8
ZUWAKU
  6
CONTINUOUS
 62
       7
100
AcDbLine
 10
-326.40806215
 20
569.18449349
 30
0.0
 11
-327.65806215
 21
567.93449349
 31
0.0
  0
LINE
  5
40E
100
AcDbEntity
  8
ZUWAKU
  6
CONTINUOUS
 62
       7
100
AcDbLine
 10
-327.539433
 20
569.18449349
 30
0.0
 11
-328.789433
 21
567.93449349
 31
0.0
  0
LINE
  5
40F
100
AcDbEntity
  8
ZUWAKU
  6
CONTINUOUS
 62
       7
100
AcDbLine
 10
-328.67080385
 20
569.18449349
 30
0.0
 11
-329.33085103
 21
568.52444631
 31
0.0
  0
LINE
  5
410
100
AcDbEntity
  8
ZUWAKU
  6
CONTINUOUS
 62
       7
100
AcDbLine
 10
-317.19974495
 20
561.42224794
 30
0.0
 11
-318.39650495
 21
560.22548794
 31
0.0
  0
LINE
  5
411
100
AcDbEntity
  8
ZUWAKU
  6
CONTINUOUS
 62
       7
100
AcDbLine
 10
-315.9949289
 20
561.49569314
 30
0.0
 11
-318.69157107
 21
558.79905097
 31
0.0
  0
LINE
  5
412
100
AcDbEntity
  8
ZUWAKU
  6
CONTINUOUS
 62
       7
100
AcDbLine
 10
-315.12074204
 20
560.1071383
 30
0.0
 11
-318.53815171
 21
556.68972863
 31
0.0
  0
LINE
  5
413
100
AcDbEntity
  8
ZUWAKU
  6
CONTINUOUS
 62
       7
100
AcDbLine
 10
-323.0139496
 20
569.18449349
 30
0.0
 11
-324.2639496
 21
567.93449349
 31
0.0
  0
LINE
  5
414
100
AcDbEntity
  8
ZUWAKU
  6
CONTINUOUS
 62
       7
100
AcDbLine
 10
-326.08554504
 20
566.11289805
 30
0.0
 11
-328.22496358
 21
563.97347951
 31
0.0
  0
LINE
  5
415
100
AcDbEntity
  8
ZUWAKU
  6
CONTINUOUS
 62
       7
100
AcDbLine
 10
-321.88257875
 20
569.18449349
 30
0.0
 11
-323.13257875
 21
567.93449349
 31
0.0
  0
LINE
  5
416
100
AcDbEntity
  8
ZUWAKU
  6
CONTINUOUS
 62
       7
100
AcDbLine
 10
-326.76436755
 20
564.30270469
 30
0.0
 11
-328.90378609
 21
562.16328615
 31
0.0
  0
LINE
  5
417
100
AcDbEntity
  8
ZUWAKU
  6
CONTINUOUS
 62
       7
100
AcDbLine
 10
-320.76388182
 20
569.17181956
 30
0.0
 11
-322.0012079
 21
567.93449349
 31
0.0
  0
LINE
  5
418
100
AcDbEntity
  8
ZUWAKU
  6
CONTINUOUS
 62
       7
100
AcDbLine
 10
-326.0012079
 20
563.93449349
 30
0.0
 11
-327.2532079
 21
562.68249349
 31
0.0
  0
LINE
  5
419
100
AcDbEntity
  8
ZUWAKU
  6
CONTINUOUS
 62
       7
100
AcDbLine
 10
-319.8498115
 20
568.95451903
 30
0.0
 11
-320.87735642
 21
567.92697412
 31
0.0
  0
LINE
  5
41A
100
AcDbEntity
  8
ZUWAKU
  6
CONTINUOUS
 62
       7
100
AcDbLine
 10
-324.86983705
 20
563.93449349
 30
0.0
 11
-326.34651523
 21
562.45781531
 31
0.0
  0
LINE
  5
41B
100
AcDbEntity
  8
ZUWAKU
  6
CONTINUOUS
 62
       7
100
AcDbLine
 10
-319.12232763
 20
568.55063206
 30
0.0
 11
-320.02278696
 21
567.65017273
 31
0.0
  0
LINE
  5
41C
100
AcDbEntity
  8
ZUWAKU
  6
CONTINUOUS
 62
       7
100
AcDbLine
 10
-318.54148657
 20
568.00010227
 30
0.0
 11
-319.43214069
 21
567.10944814
 31
0.0
  0
LINE
  5
41D
100
AcDbEntity
  8
ZUWAKU
  6
CONTINUOUS
 62
       7
100
AcDbLine
 10
-318.10419789
 20
567.3060201
 30
0.0
 11
-319.08847134
 21
566.32174665
 31
0.0
  0
LINE
  5
41E
100
AcDbEntity
  8
ZUWAKU
  6
CONTINUOUS
 62
       7
100
AcDbLine
 10
-317.83999541
 20
566.43885173
 30
0.0
 11
-319.28635768
 21
564.99248946
 31
0.0
  0
LINE
  5
41F
100
AcDbEntity
  8
ZUWAKU
  6
CONTINUOUS
 62
       7
100
AcDbLine
 10
-324.14532045
 20
569.18449349
 30
0.0
 11
-325.39532045
 21
567.93449349
 31
0.0
  0
LINE
  5
420
100
AcDbEntity
  8
ZUWAKU
  6
CONTINUOUS
 62
       7
100
AcDbLine
 10
-325.40672253
 20
567.92309141
 30
0.0
 11
-327.54614107
 21
565.78367287
 31
0.0
  0
LINE
  5
421
100
AcDbEntity
  8
ZUWAKU
  6
CONTINUOUS
 62
       7
100
AcDbLine
 10
-322.60709535
 20
563.93449349
 30
0.0
 11
-323.85909535
 21
562.68249349
 31
0.0
  0
LINE
  5
422
100
AcDbEntity
  8
ZUWAKU
  6
CONTINUOUS
 62
       7
100
AcDbLine
 10
-324.61059597
 20
561.93099287
 30
0.0
 11
-325.52941406
 21
561.01217478
 31
0.0
  0
LINE
  5
423
100
AcDbEntity
  8
ZUWAKU
  6
CONTINUOUS
 62
       7
100
AcDbLine
 10
-323.7384662
 20
563.93449349
 30
0.0
 11
-324.9904662
 21
562.68249349
 31
0.0
  0
LINE
  5
424
100
AcDbEntity
  8
ZUWAKU
  6
CONTINUOUS
 62
       7
100
AcDbLine
 10
-325.01914655
 20
562.65381314
 30
0.0
 11
-325.93796465
 21
561.73499504
 31
0.0
  0
LINE
  5
425
100
AcDbEntity
  8
ZUWAKU
  6
CONTINUOUS
 62
       7
100
AcDbLine
 10
-321.4757245
 20
563.93449349
 30
0.0
 11
-322.7277245
 21
562.68249349
 31
0.0
  0
LINE
  5
426
100
AcDbEntity
  8
ZUWAKU
  6
CONTINUOUS
 62
       7
100
AcDbLine
 10
-324.20204538
 20
561.20817261
 30
0.0
 11
-325.12086348
 21
560.28935451
 31
0.0
  0
LINE
  5
427
100
AcDbEntity
  8
ZUWAKU
  6
CONTINUOUS
 62
       7
100
AcDbLine
 10
-320.10861791
 20
564.17022923
 30
0.0
 11
-321.59635365
 21
562.68249349
 31
0.0
  0
LINE
  5
428
100
AcDbEntity
  8
ZUWAKU
  6
CONTINUOUS
 62
       7
100
AcDbLine
 10
-323.7934948
 20
560.48535234
 30
0.0
 11
-324.71231289
 21
559.56653425
 31
0.0
  0
LINE
  5
429
100
AcDbEntity
  8
ZUWAKU
  6
CONTINUOUS
 62
       7
100
AcDbLine
 10
-317.86713584
 20
565.28034045
 30
0.0
 11
-320.3964689
 21
562.75100738
 31
0.0
  0
LINE
  5
42A
100
AcDbEntity
  8
ZUWAKU
  6
CONTINUOUS
 62
       7
100
AcDbLine
 10
-323.38494421
 20
559.76253208
 30
0.0
 11
-324.30376231
 21
558.84371398
 31
0.0
  0
LINE
  5
42B
100
AcDbEntity
  8
ZUWAKU
  6
CONTINUOUS
 62
       7
100
AcDbLine
 10
-322.97639363
 20
559.03971181
 30
0.0
 11
-323.89521172
 21
558.12089372
 31
0.0
  0
LINE
  5
42C
100
AcDbEntity
  8
ZUWAKU
  6
CONTINUOUS
 62
       7
100
AcDbLine
 10
-322.56784304
 20
558.31689155
 30
0.0
 11
-323.48666114
 21
557.39807345
 31
0.0
  0
LINE
  5
42D
100
AcDbEntity
  8
ZUWAKU
  6
CONTINUOUS
 62
       7
100
AcDbLine
 10
-321.81687025
 20
557.93649349
 30
0.0
 11
-323.06887025
 21
556.68449349
 31
0.0
  0
LINE
  5
42E
100
AcDbEntity
  8
ZUWAKU
  6
CONTINUOUS
 62
       7
100
AcDbLine
 10
-320.6854994
 20
557.93649349
 30
0.0
 11
-321.9374994
 21
556.68449349
 31
0.0
  0
LINE
  5
42F
100
AcDbEntity
  8
ZUWAKU
  6
CONTINUOUS
 62
       7
100
AcDbLine
 10
-319.55412855
 20
557.93649349
 30
0.0
 11
-320.80612855
 21
556.68449349
 31
0.0
  0
LINE
  5
430
100
AcDbEntity
  8
ZUWAKU
  6
CONTINUOUS
 62
       7
100
AcDbLine
 10
-315.38070748
 20
560.97854371
 30
0.0
 11
-316.4175411
 21
559.94171009
 31
0.0
  0
LINE
  5
431
100
AcDbEntity
  8
ZUWAKU
  6
CONTINUOUS
 62
       7
100
AcDbLine
 10
-317.35920892
 20
559.00004227
 30
0.0
 11
-319.6747577
 21
556.68449349
 31
0.0
  0
LINE
  5
432
100
AcDbEntity
  8
ZUWAKU
  6
CONTINUOUS
 62
       7
100
AcDbLine
 10
-309.2217022
 20
564.87480729
 30
0.0
 11
-312.09037846
 21
562.00613103
 31
0.0
  0
LINE
  5
433
100
AcDbEntity
  8
ZUWAKU
  6
CONTINUOUS
 62
       7
100
AcDbLine
 10
-315.56778902
 20
558.52872047
 30
0.0
 11
-317.18532537
 21
556.91118412
 31
0.0
  0
LINE
  5
434
100
AcDbEntity
  8
ZUWAKU
  6
CONTINUOUS
 62
       7
100
AcDbLine
 10
-308.44443929
 20
564.52069935
 30
0.0
 11
-312.73584783
 21
560.22929081
 31
0.0
  0
LINE
  5
435
100
AcDbEntity
  8
ZUWAKU
  6
CONTINUOUS
 62
       7
100
AcDbLine
 10
-315.02864515
 20
557.93649349
 30
0.0
 11
-316.27563516
 21
556.68950348
 31
0.0
  0
LINE
  5
436
100
AcDbEntity
  8
ZUWAKU
  6
CONTINUOUS
 62
       7
100
AcDbLine
 10
-313.8972743
 20
557.93649349
 30
0.0
 11
-315.1492743
 21
556.68449349
 31
0.0
  0
LINE
  5
437
100
AcDbEntity
  8
ZUWAKU
  6
CONTINUOUS
 62
       7
100
AcDbLine
 10
-308.16274206
 20
563.67102573
 30
0.0
 11
-309.79180484
 21
562.04196295
 31
0.0
  0
LINE
  5
438
100
AcDbEntity
  8
ZUWAKU
  6
CONTINUOUS
 62
       7
100
AcDbLine
 10
-311.25668873
 20
560.57707906
 30
0.0
 11
-312.88575151
 21
558.94801628
 31
0.0
  0
LINE
  5
439
100
AcDbEntity
  8
ZUWAKU
  6
CONTINUOUS
 62
       7
100
AcDbLine
 10
-308.22781216
 20
562.47458478
 30
0.0
 11
-314.01790345
 21
556.68449349
 31
0.0
  0
LINE
  5
43A
100
AcDbEntity
  8
ZUWAKU
  6
CONTINUOUS
 62
       7
100
AcDbLine
 10
-308.71918385
 20
560.85184224
 30
0.0
 11
-312.75753477
 21
556.81349132
 31
0.0
  0
LINE
  5
43B
100
AcDbEntity
  8
ZUWAKU
  6
CONTINUOUS
 62
       7
100
AcDbLine
 10
-304.49028867
 20
561.68580957
 30
0.0
 11
-309.49160475
 21
556.68449349
 31
0.0
  0
LINE
  5
43C
100
AcDbEntity
  8
ZUWAKU
  6
CONTINUOUS
 62
       7
100
AcDbLine
 10
-304.10452339
 20
564.33431656
 30
0.0
 11
-304.36545736
 21
564.07338259
 31
0.0
  0
LINE
  5
43D
100
AcDbEntity
  8
ZUWAKU
  6
CONTINUOUS
 62
       7
100
AcDbLine
 10
-310.38176202
 20
558.05707792
 30
0.0
 11
-311.35394985
 21
557.08489009
 31
0.0
  0
LINE
  5
43E
100
AcDbEntity
  8
ZUWAKU
  6
CONTINUOUS
 62
       7
100
AcDbLine
 10
-303.13582021
 20
564.17164888
 30
0.0
 11
-304.20278968
 21
563.10467941
 31
0.0
  0
LINE
  5
43F
100
AcDbEntity
  8
ZUWAKU
  6
CONTINUOUS
 62
       7
100
AcDbLine
 10
-309.3709756
 20
557.93649349
 30
0.0
 11
-310.51155848
 21
556.79591061
 31
0.0
  0
LINE
  5
440
100
AcDbEntity
  8
ZUWAKU
  6
CONTINUOUS
 62
       7
100
AcDbLine
 10
-298.30996309
 20
561.07791005
 30
0.0
 11
-302.40105254
 21
556.9868206
 31
0.0
  0
LINE
  5
441
100
AcDbEntity
  8
ZUWAKU
  6
CONTINUOUS
 62
       7
100
AcDbLine
 10
-303.71412135
 20
557.93649349
 30
0.0
 11
-304.96612135
 21
556.68449349
 31
0.0
  0
LINE
  5
442
100
AcDbEntity
  8
ZUWAKU
  6
CONTINUOUS
 62
       7
100
AcDbLine
 10
-304.55737782
 20
558.22460787
 30
0.0
 11
-306.0974922
 21
556.68449349
 31
0.0
  0
LINE
  5
443
100
AcDbEntity
  8
ZUWAKU
  6
CONTINUOUS
 62
       7
100
AcDbLine
 10
-304.33110365
 20
559.58225289
 30
0.0
 11
-305.85422739
 21
558.05912915
 31
0.0
  0
LINE
  5
444
100
AcDbEntity
  8
ZUWAKU
  6
CONTINUOUS
 62
       7
100
AcDbLine
 10
-308.3602339
 20
556.68449349
 30
0.0
 11
-304.10482948
 21
560.93989791
 31
0.0
  0
LINE
  5
445
100
AcDbEntity
  8
ZUWAKU
  6
CONTINUOUS
 62
       7
100
AcDbLine
 10
-295.93225459
 20
561.19287686
 30
0.0
 11
-300.43310784
 21
556.69202361
 31
0.0
  0
LINE
  5
446
100
AcDbEntity
  8
ZUWAKU
  6
CONTINUOUS
 62
       7
100
AcDbLine
 10
-296.41851404
 20
559.57524656
 30
0.0
 11
-298.7750013
 21
557.21875929
 31
0.0
  0
LINE
  5
447
100
AcDbEntity
  8
ZUWAKU
  6
CONTINUOUS
 62
       7
100
AcDbLine
 10
-296.83333333
 20
558.02905641
 30
0.0
 11
-298.17789625
 21
556.68449349
 31
0.0
  0
LINE
  5
448
100
AcDbEntity
  8
ZUWAKU
  6
CONTINUOUS
 62
       7
100
AcDbLine
 10
-295.7945254
 20
557.93649349
 30
0.0
 11
-297.0465254
 21
556.68449349
 31
0.0
  0
LINE
  5
449
100
AcDbEntity
  8
ZUWAKU
  6
CONTINUOUS
 62
       7
100
AcDbLine
 10
-291.78384588
 20
560.81580217
 30
0.0
 11
-295.91515455
 21
556.68449349
 31
0.0
  0
LINE
  5
44A
100
AcDbEntity
  8
ZUWAKU
  6
CONTINUOUS
 62
       7
100
AcDbLine
 10
-300.01524591
 20
560.50399808
 30
0.0
 11
-300.65826233
 21
559.86098166
 31
0.0
  0
LINE
  5
44B
100
AcDbEntity
  8
ZUWAKU
  6
CONTINUOUS
 62
       7
100
AcDbLine
 10
-301.93351963
 20
558.58572436
 30
0.0
 11
-303.8347505
 21
556.68449349
 31
0.0
  0
LINE
  5
44C
100
AcDbEntity
  8
ZUWAKU
  6
CONTINUOUS
 62
       7
100
AcDbLine
 10
-299.63332868
 20
558.62317361
 30
0.0
 11
-301.15695103
 21
557.09955127
 31
0.0
  0
LINE
  5
44D
100
AcDbEntity
  8
ZUWAKU
  6
CONTINUOUS
 62
       7
100
AcDbLine
 10
-297.06362544
 20
561.19287686
 30
0.0
 11
-297.21898796
 21
561.03751433
 31
0.0
  0
LINE
  5
44E
100
AcDbEntity
  8
ZUWAKU
  6
CONTINUOUS
 62
       7
100
AcDbLine
 10
-297.61011156
 20
560.64639074
 30
0.0
 11
-298.68573847
 21
559.57076382
 31
0.0
  0
POINT
  5
44F
100
AcDbEntity
  8
ZUWAKU
  6
CONTINUOUS
 62
       7
100
AcDbPoint
 10
251.16666667
 20
553.37221922
 30
0.0
  0
POINT
  5
450
100
AcDbEntity
  8
ZUWAKU
  6
CONTINUOUS
 62
       7
100
AcDbPoint
 10
-59.69437984
 20
553.37221922
 30
0.0
  0
POINT
  5
451
100
AcDbEntity
  8
ZUWAKU
  6
CONTINUOUS
 62
       7
100
AcDbPoint
 10
248.66666667
 20
-540.44050651
 30
0.0
  0
POINT
  5
452
100
AcDbEntity
  8
ZUWAKU
  6
CONTINUOUS
 62
       7
100
AcDbPoint
 10
-21.20833333
 20
-540.44050651
 30
0.0
  0
LINE
  5
453
100
AcDbEntity
  8
ZUWAKU
  6
CONTINUOUS
 62
       7
100
AcDbLine
 10
-420.08333333
 20
613.91666667
 30
0.0
 11
-420.08333333
 21
593.91666667
 31
0.0
  0
LINE
  5
454
100
AcDbEntity
  8
ZUWAKU
  6
CONTINUOUS
 62
       7
100
AcDbLine
 10
-420.08333333
 20
593.91666667
 30
0.0
 11
-440.08333333
 21
593.91666667
 31
0.0
  0
LINE
  5
455
100
AcDbEntity
  8
ZUWAKU
  6
CONTINUOUS
 62
       7
100
AcDbLine
 10
419.91666667
 20
593.91666667
 30
0.0
 11
439.91666667
 21
593.91666667
 31
0.0
  0
LINE
  5
456
100
AcDbEntity
  8
ZUWAKU
  6
CONTINUOUS
 62
       7
100
AcDbLine
 10
419.91666667
 20
593.91666667
 30
0.0
 11
419.91666667
 21
613.91666667
 31
0.0
  0
LINE
  5
457
100
AcDbEntity
  8
ZUWAKU
  6
CONTINUOUS
 62
       7
100
AcDbLine
 10
419.91666667
 20
-614.08333333
 30
0.0
 11
419.91666667
 21
-594.08333333
 31
0.0
  0
LINE
  5
458
100
AcDbEntity
  8
ZUWAKU
  6
CONTINUOUS
 62
       7
100
AcDbLine
 10
419.91666667
 20
-594.08333333
 30
0.0
 11
439.91666667
 21
-594.08333333
 31
0.0
  0
LINE
  5
459
100
AcDbEntity
  8
ZUWAKU
  6
CONTINUOUS
 62
       7
100
AcDbLine
 10
-440.17582571
 20
-594.08333333
 30
0.0
 11
-420.08333333
 21
-594.08333333
 31
0.0
  0
LINE
  5
45A
100
AcDbEntity
  8
ZUWAKU
  6
CONTINUOUS
 62
       7
100
AcDbLine
 10
-420.08333333
 20
-594.22137594
 30
0.0
 11
-420.08333333
 21
-614.08311946
 31
0.0
  0
LINE
  5
45B
100
AcDbEntity
  8
ZUWAKU
  6
CONTINUOUS
 62
       7
100
AcDbLine
 10
-282.18149084
 20
561.3671904
 30
0.0
 11
-286.86418775
 21
556.68449349
 31
0.0
  0
LINE
  5
45C
100
AcDbEntity
  8
ZUWAKU
  6
CONTINUOUS
 62
       7
100
AcDbLine
 10
-273.18282034
 20
557.90683482
 30
0.0
 11
-274.40516167
 21
556.68449349
 31
0.0
  0
LINE
  5
45D
100
AcDbEntity
  8
ZUWAKU
  6
CONTINUOUS
 62
       7
100
AcDbLine
 10
-274.29847925
 20
557.93649349
 30
0.0
 11
-275.55047925
 21
556.68449349
 31
0.0
  0
LINE
  5
45E
100
AcDbEntity
  8
ZUWAKU
  6
CONTINUOUS
 62
       7
100
AcDbLine
 10
-275.44690537
 20
561.31355078
 30
0.0
 11
-276.60979955
 21
560.15065659
 31
0.0
  0
LINE
  5
45F
100
AcDbEntity
  8
ZUWAKU
  6
CONTINUOUS
 62
       7
100
AcDbLine
 10
-274.98388772
 20
560.63125085
 30
0.0
 11
-276.13720609
 21
559.47793247
 31
0.0
  0
LINE
  5
460
100
AcDbEntity
  8
ZUWAKU
  6
CONTINUOUS
 62
       7
100
AcDbLine
 10
-276.76256121
 20
558.85257735
 30
0.0
 11
-278.93064507
 21
556.68449349
 31
0.0
  0
LINE
  5
461
100
AcDbEntity
  8
ZUWAKU
  6
CONTINUOUS
 62
       7
100
AcDbLine
 10
-276.29097179
 20
561.58690847
 30
0.0
 11
-278.42829539
 21
559.44958487
 31
0.0
  0
LINE
  5
462
100
AcDbEntity
  8
ZUWAKU
  6
CONTINUOUS
 62
       7
100
AcDbLine
 10
-279.94138677
 20
557.93649349
 30
0.0
 11
-281.19338677
 21
556.68449349
 31
0.0
  0
LINE
  5
463
100
AcDbEntity
  8
ZUWAKU
  6
CONTINUOUS
 62
       7
100
AcDbLine
 10
-277.21093244
 20
559.54952371
 30
0.0
 11
-278.37382662
 21
558.38662952
 31
0.0
  0
LINE
  5
464
100
AcDbEntity
  8
ZUWAKU
  6
CONTINUOUS
 62
       7
100
AcDbLine
 10
-278.82396265
 20
557.93649349
 30
0.0
 11
-280.07596265
 21
556.68449349
 31
0.0
  0
LINE
  5
465
100
AcDbEntity
  8
ZUWAKU
  6
CONTINUOUS
 62
       7
100
AcDbLine
 10
-274.92174744
 20
559.57596701
 30
0.0
 11
-277.68260282
 21
556.81511162
 31
0.0
  0
LINE
  5
466
100
AcDbEntity
  8
ZUWAKU
  6
CONTINUOUS
 62
       7
100
AcDbLine
 10
-275.41590337
 20
557.93649349
 30
0.0
 11
-276.57427863
 21
556.77811824
 31
0.0
  0
LINE
  5
467
100
AcDbEntity
  8
ZUWAKU
  6
CONTINUOUS
 62
       7
100
AcDbLine
 10
-281.08670435
 20
557.93649349
 30
0.0
 11
-282.33870435
 21
556.68449349
 31
0.0
  0
LINE
  5
468
100
AcDbEntity
  8
ZUWAKU
  6
CONTINUOUS
 62
       7
100
AcDbLine
 10
-282.20412847
 20
557.93649349
 30
0.0
 11
-283.45612847
 21
556.68449349
 31
0.0
  0
LINE
  5
469
100
AcDbEntity
  8
ZUWAKU
  6
CONTINUOUS
 62
       7
100
AcDbLine
 10
-281.41296668
 20
560.99039699
 30
0.0
 11
-282.26471576
 21
560.1386479
 31
0.0
  0
LINE
  5
46A
100
AcDbEntity
  8
ZUWAKU
  6
CONTINUOUS
 62
       7
100
AcDbLine
 10
-283.24817007
 20
558.03776947
 30
0.0
 11
-284.12672004
 21
557.1592195
 31
0.0
  0
LINE
  5
46B
100
AcDbEntity
  8
ZUWAKU
  6
CONTINUOUS
 62
       7
100
AcDbLine
 10
-283.81629552
 20
558.58706814
 30
0.0
 11
-285.56738031
 21
556.83598336
 31
0.0
  0
LINE
  5
46C
100
AcDbEntity
  8
ZUWAKU
  6
CONTINUOUS
 62
       7
100
AcDbLine
 10
-283.27745757
 20
561.38864779
 30
0.0
 11
-285.06629541
 21
559.59980995
 31
0.0
  0
LINE
  5
46D
100
AcDbEntity
  8
ZUWAKU
  6
CONTINUOUS
 62
       7
100
AcDbLine
 10
-286.72961187
 20
557.93649349
 30
0.0
 11
-287.98161187
 21
556.68449349
 31
0.0
  0
LINE
  5
46E
100
AcDbEntity
  8
ZUWAKU
  6
CONTINUOUS
 62
       7
100
AcDbLine
 10
-287.87492945
 20
557.93649349
 30
0.0
 11
-289.12692945
 21
556.68449349
 31
0.0
  0
LINE
  5
46F
100
AcDbEntity
  8
ZUWAKU
  6
CONTINUOUS
 62
       7
100
AcDbLine
 10
-288.06275034
 20
558.86609672
 30
0.0
 11
-290.24435357
 21
556.68449349
 31
0.0
  0
LINE
  5
470
100
AcDbEntity
  8
ZUWAKU
  6
CONTINUOUS
 62
       7
100
AcDbLine
 10
-287.42462143
 20
560.64954322
 30
0.0
 11
-289.72971172
 21
558.34445292
 31
0.0
  0
LINE
  5
471
100
AcDbEntity
  8
ZUWAKU
  6
CONTINUOUS
 62
       7
100
AcDbLine
 10
-287.81252001
 20
561.39301549
 30
0.0
 11
-289.521042
 21
559.68449349
 31
0.0
  0
LINE
  5
472
100
AcDbEntity
  8
ZUWAKU
  6
CONTINUOUS
 62
       7
100
AcDbLine
 10
-291.70335992
 20
557.50217557
 30
0.0
 11
-292.521042
 21
556.68449349
 31
0.0
  0
LINE
  5
473
100
AcDbEntity
  8
ZUWAKU
  6
CONTINUOUS
 62
       7
100
AcDbLine
 10
-288.90241285
 20
561.43449349
 30
0.0
 11
-290.65241285
 21
559.68449349
 31
0.0
  0
LINE
  5
474
100
AcDbEntity
  8
ZUWAKU
  6
CONTINUOUS
 62
       7
100
AcDbLine
 10
-291.05686229
 20
559.28004405
 30
0.0
 11
-293.32657728
 21
557.01032907
 31
0.0
  0
LINE
  5
475
100
AcDbEntity
  8
ZUWAKU
  6
CONTINUOUS
 62
       7
100
AcDbLine
 10
-290.47788021
 20
560.99039699
 30
0.0
 11
-294.43693629
 21
557.0313409
 31
0.0
  0
LINE
  5
476
100
AcDbEntity
  8
ZUWAKU
  6
CONTINUOUS
 62
       7
100
AcDbLine
 10
397.91666667
 20
-221.56550651
 30
0.0
 11
419.91666667
 21
-221.56550651
 31
0.0
  0
LINE
  5
477
100
AcDbEntity
  8
ZUWAKU
  6
CONTINUOUS
 62
       7
100
AcDbLine
 10
397.91666667
 20
-201.56550651
 30
0.0
 11
419.91666667
 21
-201.56550651
 31
0.0
  0
LINE
  5
478
100
AcDbEntity
  8
ZUWAKU
  6
CONTINUOUS
 62
       7
100
AcDbLine
 10
419.91666667
 20
-201.56550651
 30
0.0
 11
419.91666667
 21
-221.56550651
 31
0.0
  0
LINE
  5
479
100
AcDbEntity
  8
ZUWAKU
  6
CONTINUOUS
 62
       7
100
AcDbLine
 10
397.91666667
 20
-201.56550651
 30
0.0
 11
397.91666667
 21
-221.56550651
 31
0.0
  0
LINE
  5
47A
100
AcDbEntity
  8
ZUWAKU
  6
CONTINUOUS
 62
       7
100
AcDbLine
 10
419.91666667
 20
-221.49586723
 30
0.0
 11
419.84702739
 21
-221.56550651
 31
0.0
  0
LINE
  5
47B
100
AcDbEntity
  8
ZUWAKU
  6
CONTINUOUS
 62
       7
100
AcDbLine
 10
408.17821938
 20
-201.56550651
 30
0.0
 11
397.91666667
 21
-211.82705922
 31
0.0
  0
LINE
  5
47C
100
AcDbEntity
  8
ZUWAKU
  6
CONTINUOUS
 62
       7
100
AcDbLine
 10
407.04684853
 20
-201.56550651
 30
0.0
 11
397.91666667
 21
-210.69568837
 31
0.0
  0
LINE
  5
47D
100
AcDbEntity
  8
ZUWAKU
  6
CONTINUOUS
 62
       7
100
AcDbLine
 10
405.91547768
 20
-201.56550651
 30
0.0
 11
397.91666667
 21
-209.56431752
 31
0.0
  0
LINE
  5
47E
100
AcDbEntity
  8
ZUWAKU
  6
CONTINUOUS
 62
       7
100
AcDbLine
 10
404.78410683
 20
-201.56550651
 30
0.0
 11
397.91666667
 21
-208.43294667
 31
0.0
  0
LINE
  5
47F
100
AcDbEntity
  8
ZUWAKU
  6
CONTINUOUS
 62
       7
100
AcDbLine
 10
403.65273598
 20
-201.56550651
 30
0.0
 11
397.91666667
 21
-207.30157582
 31
0.0
  0
LINE
  5
480
100
AcDbEntity
  8
ZUWAKU
  6
CONTINUOUS
 62
       7
100
AcDbLine
 10
402.52136513
 20
-201.56550651
 30
0.0
 11
397.91666667
 21
-206.17020497
 31
0.0
  0
LINE
  5
481
100
AcDbEntity
  8
ZUWAKU
  6
CONTINUOUS
 62
       7
100
AcDbLine
 10
401.38999428
 20
-201.56550651
 30
0.0
 11
397.91666667
 21
-205.03883412
 31
0.0
  0
LINE
  5
482
100
AcDbEntity
  8
ZUWAKU
  6
CONTINUOUS
 62
       7
100
AcDbLine
 10
400.25862343
 20
-201.56550651
 30
0.0
 11
397.91666667
 21
-203.90746327
 31
0.0
  0
LINE
  5
483
100
AcDbEntity
  8
ZUWAKU
  6
CONTINUOUS
 62
       7
100
AcDbLine
 10
399.12725258
 20
-201.56550651
 30
0.0
 11
397.91666667
 21
-202.77609242
 31
0.0
  0
LINE
  5
484
100
AcDbEntity
  8
ZUWAKU
  6
CONTINUOUS
 62
       7
100
AcDbLine
 10
409.30959023
 20
-201.56550651
 30
0.0
 11
397.91666667
 21
-212.95843007
 31
0.0
  0
LINE
  5
485
100
AcDbEntity
  8
ZUWAKU
  6
CONTINUOUS
 62
       7
100
AcDbLine
 10
410.44096108
 20
-201.56550651
 30
0.0
 11
397.91666667
 21
-214.08980092
 31
0.0
  0
LINE
  5
486
100
AcDbEntity
  8
ZUWAKU
  6
CONTINUOUS
 62
       7
100
AcDbLine
 10
411.57233193
 20
-201.56550651
 30
0.0
 11
397.91666667
 21
-215.22117177
 31
0.0
  0
LINE
  5
487
100
AcDbEntity
  8
ZUWAKU
  6
CONTINUOUS
 62
       7
100
AcDbLine
 10
412.70370278
 20
-201.56550651
 30
0.0
 11
397.91666667
 21
-216.35254262
 31
0.0
  0
LINE
  5
488
100
AcDbEntity
  8
ZUWAKU
  6
CONTINUOUS
 62
       7
100
AcDbLine
 10
413.83507362
 20
-201.56550651
 30
0.0
 11
397.91666667
 21
-217.48391347
 31
0.0
  0
LINE
  5
489
100
AcDbEntity
  8
ZUWAKU
  6
CONTINUOUS
 62
       7
100
AcDbLine
 10
414.96644447
 20
-201.56550651
 30
0.0
 11
397.91666667
 21
-218.61528432
 31
0.0
  0
LINE
  5
48A
100
AcDbEntity
  8
ZUWAKU
  6
CONTINUOUS
 62
       7
100
AcDbLine
 10
416.09781532
 20
-201.56550651
 30
0.0
 11
397.91666667
 21
-219.74665517
 31
0.0
  0
LINE
  5
48B
100
AcDbEntity
  8
ZUWAKU
  6
CONTINUOUS
 62
       7
100
AcDbLine
 10
417.22918617
 20
-201.56550651
 30
0.0
 11
397.91666667
 21
-220.87802602
 31
0.0
  0
LINE
  5
48C
100
AcDbEntity
  8
ZUWAKU
  6
CONTINUOUS
 62
       7
100
AcDbLine
 10
418.36055702
 20
-201.56550651
 30
0.0
 11
398.36055702
 21
-221.56550651
 31
0.0
  0
LINE
  5
48D
100
AcDbEntity
  8
ZUWAKU
  6
CONTINUOUS
 62
       7
100
AcDbLine
 10
419.49192787
 20
-201.56550651
 30
0.0
 11
399.49192787
 21
-221.56550651
 31
0.0
  0
LINE
  5
48E
100
AcDbEntity
  8
ZUWAKU
  6
CONTINUOUS
 62
       7
100
AcDbLine
 10
419.91666667
 20
-202.27213857
 30
0.0
 11
400.62329872
 21
-221.56550651
 31
0.0
  0
LINE
  5
48F
100
AcDbEntity
  8
ZUWAKU
  6
CONTINUOUS
 62
       7
100
AcDbLine
 10
419.91666667
 20
-203.40350942
 30
0.0
 11
401.75466957
 21
-221.56550651
 31
0.0
  0
LINE
  5
490
100
AcDbEntity
  8
ZUWAKU
  6
CONTINUOUS
 62
       7
100
AcDbLine
 10
419.91666667
 20
-204.53488027
 30
0.0
 11
402.88604042
 21
-221.56550651
 31
0.0
  0
LINE
  5
491
100
AcDbEntity
  8
ZUWAKU
  6
CONTINUOUS
 62
       7
100
AcDbLine
 10
419.91666667
 20
-205.66625112
 30
0.0
 11
404.01741127
 21
-221.56550651
 31
0.0
  0
LINE
  5
492
100
AcDbEntity
  8
ZUWAKU
  6
CONTINUOUS
 62
       7
100
AcDbLine
 10
419.91666667
 20
-206.79762197
 30
0.0
 11
405.14878212
 21
-221.56550651
 31
0.0
  0
LINE
  5
493
100
AcDbEntity
  8
ZUWAKU
  6
CONTINUOUS
 62
       7
100
AcDbLine
 10
419.91666667
 20
-207.92899282
 30
0.0
 11
406.28015297
 21
-221.56550651
 31
0.0
  0
LINE
  5
494
100
AcDbEntity
  8
ZUWAKU
  6
CONTINUOUS
 62
       7
100
AcDbLine
 10
419.91666667
 20
-209.06036367
 30
0.0
 11
407.41152382
 21
-221.56550651
 31
0.0
  0
LINE
  5
495
100
AcDbEntity
  8
ZUWAKU
  6
CONTINUOUS
 62
       7
100
AcDbLine
 10
419.91666667
 20
-210.19173452
 30
0.0
 11
408.54289467
 21
-221.56550651
 31
0.0
  0
LINE
  5
496
100
AcDbEntity
  8
ZUWAKU
  6
CONTINUOUS
 62
       7
100
AcDbLine
 10
419.91666667
 20
-211.32310537
 30
0.0
 11
409.67426552
 21
-221.56550651
 31
0.0
  0
LINE
  5
497
100
AcDbEntity
  8
ZUWAKU
  6
CONTINUOUS
 62
       7
100
AcDbLine
 10
419.91666667
 20
-212.45447621
 30
0.0
 11
410.80563637
 21
-221.56550651
 31
0.0
  0
LINE
  5
498
100
AcDbEntity
  8
ZUWAKU
  6
CONTINUOUS
 62
       7
100
AcDbLine
 10
419.91666667
 20
-213.58584706
 30
0.0
 11
411.93700722
 21
-221.56550651
 31
0.0
  0
LINE
  5
499
100
AcDbEntity
  8
ZUWAKU
  6
CONTINUOUS
 62
       7
100
AcDbLine
 10
419.91666667
 20
-214.71721791
 30
0.0
 11
413.06837807
 21
-221.56550651
 31
0.0
  0
LINE
  5
49A
100
AcDbEntity
  8
ZUWAKU
  6
CONTINUOUS
 62
       7
100
AcDbLine
 10
419.91666667
 20
-215.84858876
 30
0.0
 11
414.19974892
 21
-221.56550651
 31
0.0
  0
LINE
  5
49B
100
AcDbEntity
  8
ZUWAKU
  6
CONTINUOUS
 62
       7
100
AcDbLine
 10
419.91666667
 20
-216.97995961
 30
0.0
 11
415.33111977
 21
-221.56550651
 31
0.0
  0
LINE
  5
49C
100
AcDbEntity
  8
ZUWAKU
  6
CONTINUOUS
 62
       7
100
AcDbLine
 10
419.91666667
 20
-218.11133046
 30
0.0
 11
416.46249062
 21
-221.56550651
 31
0.0
  0
LINE
  5
49D
100
AcDbEntity
  8
ZUWAKU
  6
CONTINUOUS
 62
       7
100
AcDbLine
 10
419.91666667
 20
-219.24270131
 30
0.0
 11
417.59386147
 21
-221.56550651
 31
0.0
  0
LINE
  5
49E
100
AcDbEntity
  8
ZUWAKU
  6
CONTINUOUS
 62
       7
100
AcDbLine
 10
419.91666667
 20
-220.37407216
 30
0.0
 11
418.72523232
 21
-221.56550651
 31
0.0
  0
LINE
  5
49F
100
AcDbEntity
  8
ZUWAKU
  6
CONTINUOUS
 62
       7
100
AcDbLine
 10
419.91666667
 20
-221.50544301
 30
0.0
 11
419.85660317
 21
-221.56550651
 31
0.0
  0
LINE
  5
4A0
100
AcDbEntity
  8
ZUWAKU
  6
CONTINUOUS
 62
       7
100
AcDbLine
 10
-364.33333333
 20
-509.56550651
 30
0.0
 11
-364.33333333
 21
-329.56550651
 31
0.0
  0
LINE
  5
4A1
100
AcDbEntity
  8
ZUWAKU
  6
CONTINUOUS
 62
       7
100
AcDbLine
 10
-336.58333333
 20
-509.56550651
 30
0.0
 11
-336.58333333
 21
-329.56550651
 31
0.0
  0
LINE
  5
4A2
100
AcDbEntity
  8
ZUWAKU
  6
CONTINUOUS
 62
       7
100
AcDbLine
 10
-150.33333333
 20
-509.56550651
 30
0.0
 11
-150.33333333
 21
-329.56550651
 31
0.0
  0
LINE
  5
4A3
100
AcDbEntity
  8
ZUWAKU
  6
CONTINUOUS
 62
       7
100
AcDbLine
 10
62.16666667
 20
-509.56550651
 30
0.0
 11
62.16666667
 21
-329.56550651
 31
0.0
  0
LINE
  5
4A4
100
AcDbEntity
  8
ZUWAKU
  6
CONTINUOUS
 62
       7
100
AcDbLine
 10
106.66666667
 20
-509.56550651
 30
0.0
 11
106.66666667
 21
-329.56550651
 31
0.0
  0
POINT
  5
4A5
100
AcDbEntity
  8
ZUWAKU
  6
CONTINUOUS
 62
       7
100
AcDbPoint
 10
84.41666667
 20
-479.56550651
 30
0.0
  0
POINT
  5
4A6
100
AcDbEntity
  8
ZUWAKU
  6
CONTINUOUS
 62
       7
100
AcDbPoint
 10
-332.58333333
 20
-479.56550651
 30
0.0
  0
POINT
  5
4A7
100
AcDbEntity
  8
ZUWAKU
  6
CONTINUOUS
 62
       7
100
AcDbPoint
 10
-146.33333333
 20
-479.56550651
 30
0.0
  0
POINT
  5
4A8
100
AcDbEntity
  8
ZUWAKU
  6
CONTINUOUS
 62
       7
100
AcDbPoint
 10
110.66666667
 20
-479.56550651
 30
0.0
  0
POINT
  5
4A9
100
AcDbEntity
  8
ZUWAKU
  6
CONTINUOUS
 62
       7
100
AcDbPoint
 10
84.41666667
 20
-459.56550651
 30
0.0
  0
POINT
  5
4AA
100
AcDbEntity
  8
ZUWAKU
  6
CONTINUOUS
 62
       7
100
AcDbPoint
 10
-332.58333333
 20
-459.56550651
 30
0.0
  0
POINT
  5
4AB
100
AcDbEntity
  8
ZUWAKU
  6
CONTINUOUS
 62
       7
100
AcDbPoint
 10
-146.33333333
 20
-459.56550651
 30
0.0
  0
POINT
  5
4AC
100
AcDbEntity
  8
ZUWAKU
  6
CONTINUOUS
 62
       7
100
AcDbPoint
 10
110.66666667
 20
-459.56550651
 30
0.0
  0
POINT
  5
4AD
100
AcDbEntity
  8
ZUWAKU
  6
CONTINUOUS
 62
       7
100
AcDbPoint
 10
84.41666667
 20
-439.56550651
 30
0.0
  0
POINT
  5
4AE
100
AcDbEntity
  8
ZUWAKU
  6
CONTINUOUS
 62
       7
100
AcDbPoint
 10
-332.58333333
 20
-439.56550651
 30
0.0
  0
POINT
  5
4AF
100
AcDbEntity
  8
ZUWAKU
  6
CONTINUOUS
 62
       7
100
AcDbPoint
 10
-146.33333333
 20
-439.56550651
 30
0.0
  0
POINT
  5
4B0
100
AcDbEntity
  8
ZUWAKU
  6
CONTINUOUS
 62
       7
100
AcDbPoint
 10
110.66666667
 20
-439.56550651
 30
0.0
  0
POINT
  5
4B1
100
AcDbEntity
  8
ZUWAKU
  6
CONTINUOUS
 62
       7
100
AcDbPoint
 10
84.41666667
 20
-419.56550651
 30
0.0
  0
POINT
  5
4B2
100
AcDbEntity
  8
ZUWAKU
  6
CONTINUOUS
 62
       7
100
AcDbPoint
 10
-332.58333333
 20
-419.56550651
 30
0.0
  0
POINT
  5
4B3
100
AcDbEntity
  8
ZUWAKU
  6
CONTINUOUS
 62
       7
100
AcDbPoint
 10
-146.33333333
 20
-419.56550651
 30
0.0
  0
POINT
  5
4B4
100
AcDbEntity
  8
ZUWAKU
  6
CONTINUOUS
 62
       7
100
AcDbPoint
 10
110.66666667
 20
-419.56550651
 30
0.0
  0
POINT
  5
4B5
100
AcDbEntity
  8
ZUWAKU
  6
CONTINUOUS
 62
       7
100
AcDbPoint
 10
84.41666667
 20
-399.56550651
 30
0.0
  0
POINT
  5
4B6
100
AcDbEntity
  8
ZUWAKU
  6
CONTINUOUS
 62
       7
100
AcDbPoint
 10
-332.58333333
 20
-399.56550651
 30
0.0
  0
POINT
  5
4B7
100
AcDbEntity
  8
ZUWAKU
  6
CONTINUOUS
 62
       7
100
AcDbPoint
 10
-146.33333333
 20
-399.56550651
 30
0.0
  0
POINT
  5
4B8
100
AcDbEntity
  8
ZUWAKU
  6
CONTINUOUS
 62
       7
100
AcDbPoint
 10
110.66666667
 20
-399.56550651
 30
0.0
  0
POINT
  5
4B9
100
AcDbEntity
  8
ZUWAKU
  6
CONTINUOUS
 62
       7
100
AcDbPoint
 10
84.41666667
 20
-379.56550651
 30
0.0
  0
POINT
  5
4BA
100
AcDbEntity
  8
ZUWAKU
  6
CONTINUOUS
 62
       7
100
AcDbPoint
 10
-332.58333333
 20
-379.56550651
 30
0.0
  0
POINT
  5
4BB
100
AcDbEntity
  8
ZUWAKU
  6
CONTINUOUS
 62
       7
100
AcDbPoint
 10
-146.33333333
 20
-379.56550651
 30
0.0
  0
POINT
  5
4BC
100
AcDbEntity
  8
ZUWAKU
  6
CONTINUOUS
 62
       7
100
AcDbPoint
 10
110.66666667
 20
-379.56550651
 30
0.0
  0
POINT
  5
4BD
100
AcDbEntity
  8
ZUWAKU
  6
CONTINUOUS
 62
       7
100
AcDbPoint
 10
84.41666667
 20
-359.56550651
 30
0.0
  0
POINT
  5
4BE
100
AcDbEntity
  8
ZUWAKU
  6
CONTINUOUS
 62
       7
100
AcDbPoint
 10
-332.58333333
 20
-359.56550651
 30
0.0
  0
POINT
  5
4BF
100
AcDbEntity
  8
ZUWAKU
  6
CONTINUOUS
 62
       7
100
AcDbPoint
 10
-146.33333333
 20
-359.56550651
 30
0.0
  0
POINT
  5
4C0
100
AcDbEntity
  8
ZUWAKU
  6
CONTINUOUS
 62
       7
100
AcDbPoint
 10
110.66666667
 20
-359.56550651
 30
0.0
  0
LINE
  5
4C1
100
AcDbEntity
  8
ZUWAKU
  6
CONTINUOUS
 62
       7
100
AcDbLine
 10
-364.33333333
 20
-509.56550651
 30
0.0
 11
373.41666667
 21
-509.56550651
 31
0.0
  0
LINE
  5
4C2
100
AcDbEntity
  8
ZUWAKU
  6
CONTINUOUS
 62
       7
100
AcDbLine
 10
373.41666667
 20
-509.56550651
 30
0.0
 11
373.41666667
 21
-329.56550651
 31
0.0
  0
LINE
  5
4C3
100
AcDbEntity
  8
ZUWAKU
  6
CONTINUOUS
 62
       7
100
AcDbLine
 10
-364.33333333
 20
-489.56550651
 30
0.0
 11
373.41666667
 21
-489.56550651
 31
0.0
  0
LINE
  5
4C4
100
AcDbEntity
  8
ZUWAKU
  6
CONTINUOUS
 62
       7
100
AcDbLine
 10
-364.33333333
 20
-469.56550651
 30
0.0
 11
373.41666667
 21
-469.56550651
 31
0.0
  0
LINE
  5
4C5
100
AcDbEntity
  8
ZUWAKU
  6
CONTINUOUS
 62
       7
100
AcDbLine
 10
-364.33333333
 20
-449.56550651
 30
0.0
 11
373.41666667
 21
-449.56550651
 31
0.0
  0
LINE
  5
4C6
100
AcDbEntity
  8
ZUWAKU
  6
CONTINUOUS
 62
       7
100
AcDbLine
 10
-364.33333333
 20
-429.56550651
 30
0.0
 11
373.41666667
 21
-429.56550651
 31
0.0
  0
LINE
  5
4C7
100
AcDbEntity
  8
ZUWAKU
  6
CONTINUOUS
 62
       7
100
AcDbLine
 10
-364.33333333
 20
-409.56550651
 30
0.0
 11
373.41666667
 21
-409.56550651
 31
0.0
  0
LINE
  5
4C8
100
AcDbEntity
  8
ZUWAKU
  6
CONTINUOUS
 62
       7
100
AcDbLine
 10
-364.33333333
 20
-389.56550651
 30
0.0
 11
373.41666667
 21
-389.56550651
 31
0.0
  0
LINE
  5
4C9
100
AcDbEntity
  8
ZUWAKU
  6
CONTINUOUS
 62
       7
100
AcDbLine
 10
-364.33333333
 20
-369.56550651
 30
0.0
 11
373.41666667
 21
-369.56550651
 31
0.0
  0
LINE
  5
4CA
100
AcDbEntity
  8
ZUWAKU
  6
CONTINUOUS
 62
       7
100
AcDbLine
 10
-364.33333333
 20
-349.56550651
 30
0.0
 11
373.41666667
 21
-349.56550651
 31
0.0
  0
POINT
  5
4CB
100
AcDbEntity
  8
ZUWAKU
  6
CONTINUOUS
 62
       7
100
AcDbPoint
 10
84.41666667
 20
-339.56550651
 30
0.0
  0
POINT
  5
4CC
100
AcDbEntity
  8
ZUWAKU
  6
CONTINUOUS
 62
       7
100
AcDbPoint
 10
-332.58333333
 20
-339.56550651
 30
0.0
  0
POINT
  5
4CD
100
AcDbEntity
  8
ZUWAKU
  6
CONTINUOUS
 62
       7
100
AcDbPoint
 10
-146.33333333
 20
-339.56550651
 30
0.0
  0
POINT
  5
4CE
100
AcDbEntity
  8
ZUWAKU
  6
CONTINUOUS
 62
       7
100
AcDbPoint
 10
110.66666667
 20
-339.56550651
 30
0.0
  0
LINE
  5
4CF
100
AcDbEntity
  8
ZUWAKU
  6
CONTINUOUS
 62
       7
100
AcDbLine
 10
-364.33333333
 20
-329.56550651
 30
0.0
 11
373.41666667
 21
-329.56550651
 31
0.0
  0
TEXT
  5
4D0
100
AcDbEntity
  8
ZUWAKU
 62
       7
100
AcDbText
 10
-336.28808396
 20
-554.31550651
 30
0.0
 40
13.6
  1
株式会社
 41
0.6667
 72
       5
 11
-292.76808396
 21
-554.31550651
 31
0.0
100
AcDbText
  0
TEXT
  5
4D1
100
AcDbEntity
  8
ZUWAKU
 62
       7
100
AcDbText
 10
296.64772743
 20
-586.58931801
 30
0.0
 40
16.0
  1
120224
 41
0.8
 72
       5
 11
373.44772743
 21
-586.58931801
 31
0.0
100
AcDbText
  0
TEXT
  5
4D2
100
AcDbEntity
  8
ZUWAKU
 62
       7
100
AcDbText
 10
-156.33531207
 20
-519.7469428
 30
0.0
 40
9.996
  1
品 名
 41
0.8
  7
FDASTYLE1
100
AcDbText
  0
TEXT
  5
4D3
100
AcDbEntity
  8
ZUWAKU
 62
       7
100
AcDbText
 10
113.67364143
 20
-519.81732868
 30
0.0
 40
9.996
  1
品　番
 41
0.8
  7
FDASTYLE1
100
AcDbText
  0
TEXT
  5
4D4
100
AcDbEntity
  8
ZUWAKU
 62
       7
100
AcDbText
 10
397.94563399
 20
-224.32664249
 30
0.0
 40
16.0
  1
洗面台
 50
-90.0
 41
0.75
 72
       5
 11
397.94563399
 21
-262.72664249
 31
0.0
100
AcDbText
  0
TEXT
  5
4D5
100
AcDbEntity
  8
ZUWAKU
 62
       7
100
AcDbText
 10
-357.48631866
 20
-487.40564011
 30
0.0
 40
16.0
  1
1
 41
0.8
 72
       5
 11
-344.68631866
 21
-487.40564011
 31
0.0
100
AcDbText
  0
TEXT
  5
4D6
100
AcDbEntity
  8
ZUWAKU
 62
       7
100
AcDbText
 10
-357.48631866
 20
-467.40564011
 30
0.0
 40
16.0
  1
2
 41
0.8
 72
       5
 11
-344.68631866
 21
-467.40564011
 31
0.0
100
AcDbText
  0
TEXT
  5
4D7
100
AcDbEntity
  8
ZUWAKU
 62
       7
100
AcDbText
 10
-357.48631866
 20
-447.40564011
 30
0.0
 40
16.0
  1
3
 41
0.8
 72
       5
 11
-344.68631866
 21
-447.40564011
 31
0.0
100
AcDbText
  0
TEXT
  5
4D8
100
AcDbEntity
  8
ZUWAKU
 62
       7
100
AcDbText
 10
-357.48631866
 20
-427.40564011
 30
0.0
 40
16.0
  1
4
 41
0.8
 72
       5
 11
-344.68631866
 21
-427.40564011
 31
0.0
100
AcDbText
  0
TEXT
  5
4D9
100
AcDbEntity
  8
ZUWAKU
 62
       7
100
AcDbText
 10
-357.48631866
 20
-407.40564011
 30
0.0
 40
16.0
  1
5
 41
0.8
 72
       5
 11
-344.68631866
 21
-407.40564011
 31
0.0
100
AcDbText
  0
TEXT
  5
4DA
100
AcDbEntity
  8
ZUWAKU
 62
       7
100
AcDbText
 10
-357.48631866
 20
-387.40564011
 30
0.0
 40
16.0
  1
6
 41
0.8
 72
       5
 11
-344.68631866
 21
-387.40564011
 31
0.0
100
AcDbText
  0
TEXT
  5
4DB
100
AcDbEntity
  8
ZUWAKU
 62
       7
100
AcDbText
 10
-357.48631866
 20
-367.40564011
 30
0.0
 40
16.0
  1
7
 41
0.8
 72
       5
 11
-344.68631866
 21
-367.40564011
 31
0.0
100
AcDbText
  0
TEXT
  5
4DC
100
AcDbEntity
  8
ZUWAKU
 62
       7
100
AcDbText
 10
207.40507146
 20
-507.32670553
 30
0.0
 40
16.0
  1
摘要・仕上
 41
0.7143
 72
       5
 11
271.40507146
 21
-507.32670553
 31
0.0
100
AcDbText
  0
TEXT
  5
4DD
100
AcDbEntity
  8
ZUWAKU
 62
       7
100
AcDbText
 10
64.86251184
 20
-507.32670553
 30
0.0
 40
16.0
  1
個　数
 41
0.75
 72
       5
 11
103.26251184
 21
-507.32670553
 31
0.0
100
AcDbText
  0
TEXT
  5
4DE
100
AcDbEntity
  8
ZUWAKU
 62
       7
100
AcDbText
 10
-69.52112537
 20
-507.32670553
 30
0.0
 40
16.0
  1
材　　質
 41
0.6667
 72
       5
 11
-18.32112537
 21
-507.32670553
 31
0.0
100
AcDbText
  0
TEXT
  5
4DF
100
AcDbEntity
  8
ZUWAKU
 62
       7
100
AcDbText
 10
-275.5908044
 20
-507.32670553
 30
0.0
 40
16.0
  1
部　品　名
 41
0.7143
 72
       5
 11
-211.5908044
 21
-507.32670553
 31
0.0
100
AcDbText
  0
TEXT
  5
4E0
100
AcDbEntity
  8
ZUWAKU
 62
       7
100
AcDbText
 10
-363.75925753
 20
-507.32670553
 30
0.0
 40
16.0
  1
部番
 41
0.6667
 72
       5
 11
-338.15925753
 21
-507.32670553
 31
0.0
100
AcDbText
  0
TEXT
  5
4E1
100
AcDbEntity
  8
ZUWAKU
 62
       7
100
AcDbText
 10
-357.48631866
 20
-347.40564011
 30
0.0
 40
16.0
  1
8
 41
0.8
 72
       5
 11
-344.68631866
 21
-347.40564011
 31
0.0
100
AcDbText
  0
TEXT
  5
4E2
100
AcDbEntity
  8
LAYER0240
 62
       7
100
AcDbText
 10
216.66666667
 20
-548.44050651
 30
0.0
 40
16.0
  1
BF-435
 41
0.8
 72
       5
 11
293.46666667
 21
-548.44050651
 31
0.0
100
AcDbText
  0
TEXT
  5
4E3
100
AcDbEntity
  8
LAYER0240
 62
       7
100
AcDbText
 10
216.66666667
 20
544.95678085
 30
0.0
 40
16.0
  1
BF-435
 41
0.8
 72
       5
 11
293.46666667
 21
544.95678085
 31
0.0
100
AcDbText
  0
TEXT
  5
4E4
100
AcDbEntity
  8
LAYER0240
 62
       7
100
AcDbText
 10
-332.58333333
 20
-487.56550651
 30
0.0
 40
16.0
  1
ブラケット本体
 41
0.7
 72
       5
 11
-242.98333333
 21
-487.56550651
 31
0.0
100
AcDbText
  0
TEXT
  5
4E5
100
AcDbEntity
  8
LAYER0240
 62
       7
100
AcDbText
 10
-146.33333333
 20
-487.56550651
 30
0.0
 40
16.0
  1
SUS430
 41
0.8
 72
       5
 11
-69.53333333
 21
-487.56550651
 31
0.0
100
AcDbText
  0
TEXT
  5
4E6
100
AcDbEntity
  8
LAYER0240
 62
       7
100
AcDbText
 10
78.01666667
 20
-487.56550651
 30
0.0
 40
16.0
  1
１
 41
0.8
 72
       5
 11
90.81666667
 21
-487.56550651
 31
0.0
100
AcDbText
  0
TEXT
  5
4E7
100
AcDbEntity
  8
LAYER0240
 62
       7
100
AcDbText
 10
-66.00833333
 20
-548.44050651
 30
0.0
 40
16.0
  1
固定ブラケット
 41
0.7
 72
       5
 11
23.59166667
 21
-548.44050651
 31
0.0
100
AcDbText
  0
TEXT
  5
4E8
100
AcDbEntity
  8
LAYER0240
 62
       7
100
AcDbText
 10
-105.09662315
 20
547.18145308
 30
0.0
 40
16.0
  1
固定ブラケット
 41
0.7
 72
       5
 11
-15.49662315
 21
547.18145308
 31
0.0
100
AcDbText
  0
TEXT
  5
4E9
100
AcDbEntity
  8
LAYER0240
 62
       7
100
AcDbText
 10
-332.58333333
 20
-467.56550651
 30
0.0
 40
16.0
  1
取付ネジ　4.5X45
 41
0.7857
 72
       5
 11
-191.78333333
 21
-467.56550651
 31
0.0
100
AcDbText
  0
TEXT
  5
4EA
100
AcDbEntity
  8
LAYER0240
 62
       7
100
AcDbText
 10
-146.33333333
 20
-467.56550651
 30
0.0
 40
16.0
  1
SUS304
 41
0.8
 72
       5
 11
-69.53333333
 21
-467.56550651
 31
0.0
100
AcDbText
  0
TEXT
  5
4EB
100
AcDbEntity
  8
LAYER0240
 62
       7
100
AcDbText
 10
78.01666667
 20
-467.56550651
 30
0.0
 40
16.0
  1
5
 41
0.8
 72
       5
 11
90.81666667
 21
-467.56550651
 31
0.0
100
AcDbText
  0
TEXT
  5
4EC
100
AcDbEntity
  8
LAYER0240
 62
       7
100
AcDbText
 10
-332.58333333
 20
-447.56550651
 30
0.0
 40
16.0
  1
化粧キャップ用座金
 41
0.6923
 72
       5
 11
-217.38333333
 21
-447.56550651
 31
0.0
100
AcDbText
  0
TEXT
  5
4ED
100
AcDbEntity
  8
LAYER0240
 62
       7
100
AcDbText
 10
-146.33333333
 20
-447.56550651
 30
0.0
 40
16.0
  1
樹脂　ホワイト
 41
0.7
 72
       5
 11
-56.73333333
 21
-447.56550651
 31
0.0
100
AcDbText
  0
TEXT
  5
4EE
100
AcDbEntity
  8
LAYER0240
 62
       7
100
AcDbText
 10
78.01666667
 20
-447.56550651
 30
0.0
 40
16.0
  1
5
 41
0.8
 72
       5
 11
90.81666667
 21
-447.56550651
 31
0.0
100
AcDbText
  0
TEXT
  5
4EF
100
AcDbEntity
  8
LAYER0240
 62
       7
100
AcDbText
 10
-332.58333333
 20
-427.56550651
 30
0.0
 40
16.0
  1
化粧キャップ
 41
0.6667
 72
       5
 11
-255.78333333
 21
-427.56550651
 31
0.0
100
AcDbText
  0
TEXT
  5
4F0
100
AcDbEntity
  8
LAYER0240
 62
       7
100
AcDbText
 10
-146.33333333
 20
-427.56550651
 30
0.0
 40
16.0
  1
樹脂　ホワイト
 41
0.7
 72
       5
 11
-56.73333333
 21
-427.56550651
 31
0.0
100
AcDbText
  0
TEXT
  5
4F1
100
AcDbEntity
  8
LAYER0240
 62
       7
100
AcDbText
 10
78.01666667
 20
-427.56550651
 30
0.0
 40
16.0
  1
5
 41
0.8
 72
       5
 11
90.81666667
 21
-427.56550651
 31
0.0
100
AcDbText
  0
TEXT
  5
4F2
100
AcDbEntity
  8
LAYER0240
 62
       7
100
AcDbText
 10
-332.58333333
 20
-387.56550651
 30
0.0
 40
16.0
  1
防水テープ
 41
0.7143
 72
       5
 11
-268.58333333
 21
-387.56550651
 31
0.0
100
AcDbText
  0
TEXT
  5
4F3
100
AcDbEntity
  8
LAYER0240
 62
       7
100
AcDbText
 10
-146.33333333
 20
-387.56550651
 30
0.0
 40
16.0
  1
-
 41
0.8
 72
       5
 11
-133.53333333
 21
-387.56550651
 31
0.0
100
AcDbText
  0
TEXT
  5
4F4
100
AcDbEntity
  8
LAYER0240
 62
       7
100
AcDbText
 10
78.01666667
 20
-387.56550651
 30
0.0
 40
16.0
  1
１
 41
0.8
 72
       5
 11
90.81666667
 21
-387.56550651
 31
0.0
100
AcDbText
  0
TEXT
  5
4F5
100
AcDbEntity
  8
LAYER0240
 62
       7
100
AcDbText
 10
-332.58333333
 20
-407.56550651
 30
0.0
 40
16.0
  1
固定金具セット
 41
0.7
 72
       5
 11
-242.98333333
 21
-407.56550651
 31
0.0
100
AcDbText
  0
TEXT
  5
4F6
100
AcDbEntity
  8
LAYER0240
 62
       7
100
AcDbText
 10
-146.33333333
 20
-407.56550651
 30
0.0
 40
16.0
  1
-
 41
0.8
 72
       5
 11
-133.53333333
 21
-407.56550651
 31
0.0
100
AcDbText
  0
TEXT
  5
4F7
100
AcDbEntity
  8
LAYER0240
 62
       7
100
AcDbText
 10
62.01666667
 20
-407.56550651
 30
0.0
 40
16.0
  1
1セット
 41
0.6
 72
       5
 11
106.81666667
 21
-407.56550651
 31
0.0
100
AcDbText
  0
TEXT
  5
4F8
100
AcDbEntity
  8
LAYER0240
 62
       7
100
AcDbText
 10
110.66666667
 20
-467.56550651
 30
0.0
 40
16.0
  1
+ナベタ ッピンネジ
 41
0.6923
 72
       5
 11
225.86666667
 21
-467.56550651
 31
0.0
100
AcDbText
  0
TEXT
  5
4F9
100
AcDbEntity
  8
LAYER0240
 62
       7
100
AcDbText
 10
110.66666667
 20
-487.56550651
 30
0.0
 40
16.0
  1
粉体塗装仕上　色；ホワイト
 41
0.6842
 72
       5
 11
277.06666667
 21
-487.56550651
 31
0.0
100
AcDbText
  0
CIRCLE
  5
4FA
100
AcDbEntity
  8
LAYER0002
  6
CONTINUOUS
 62
       7
100
AcDbCircle
 10
-221.12279533
 20
125.44436421
 30
0.0
 40
3.25
  0
CIRCLE
  5
4FB
100
AcDbEntity
  8
LAYER0002
  6
CONTINUOUS
 62
       7
100
AcDbCircle
 10
48.87720467
 20
125.44436421
 30
0.0
 40
3.25
  0
ARC
  5
4FC
100
AcDbEntity
  8
LAYER0002
  6
CONTINUOUS
 62
       7
100
AcDbCircle
 10
-239.77150323
 20
348.57356191
 30
0.0
 40
5.0
100
AcDbArc
 50
180.0
 51
270.0
  0
ARC
  5
4FD
100
AcDbEntity
  8
LAYER0002
  6
CONTINUOUS
 62
       7
100
AcDbCircle
 10
70.22849677
 20
348.57356191
 30
0.0
 40
5.0
100
AcDbArc
 50
270.0
 51
360.0
  0
ARC
  5
4FE
100
AcDbEntity
  8
LAYER0002
  6
CONTINUOUS
 62
       7
100
AcDbCircle
 10
310.95846497
 20
-275.0002487
 30
0.0
 40
3.0
100
AcDbArc
 50
235.19150185
 51
270.0
  0
LINE
  5
4FF
100
AcDbEntity
  8
LAYER0002
  6
CONTINUOUS
 62
       7
100
AcDbLine
 10
205.01807762
 20
-205.0002487
 30
0.0
 11
309.24595891
 21
-277.46344235
 31
0.0
  0
ARC
  5
500
100
AcDbEntity
  8
LAYER0002
  6
CONTINUOUS
 62
       7
100
AcDbCircle
 10
-242.12279533
 20
161.44436421
 30
0.0
 40
2.0
100
AcDbArc
 50
90.0
 51
180.0
  0
ARC
  5
501
100
AcDbEntity
  8
LAYER0002
  6
CONTINUOUS
 62
       7
100
AcDbCircle
 10
69.87720467
 20
161.44436421
 30
0.0
 40
2.0
100
AcDbArc
 50
0.0
 51
90.0
  0
ARC
  5
502
100
AcDbEntity
  8
LAYER0002
  6
CONTINUOUS
 62
       7
100
AcDbCircle
 10
-240.77150323
 20
459.57356191
 30
0.0
 40
2.0
100
AcDbArc
 50
90.0
 51
180.0
  0
ARC
  5
503
100
AcDbEntity
  8
LAYER0002
  6
CONTINUOUS
 62
       7
100
AcDbCircle
 10
71.22849677
 20
459.57356191
 30
0.0
 40
2.0
100
AcDbArc
 50
0.0
 51
90.0
  0
CIRCLE
  5
504
100
AcDbEntity
  8
LAYER0002
  6
CONTINUOUS
 62
       7
100
AcDbCircle
 10
-135.77150323
 20
399.57356191
 30
0.0
 40
39.5
  0
LINE
  5
505
100
AcDbEntity
  8
LAYER0002
  6
CONTINUOUS
 62
       7
100
AcDbLine
 10
20.87720467
 20
459.07356191
 30
0.0
 11
73.22849677
 21
459.07356191
 31
0.0
  0
LINE
  5
506
100
AcDbEntity
  8
LAYER0002
  6
CONTINUOUS
 62
       7
100
AcDbLine
 10
-242.77150323
 20
459.07356191
 30
0.0
 11
-193.12279533
 21
459.07356191
 31
0.0
  0
LINE
  5
507
100
AcDbEntity
  8
LAYER0002
  6
CONTINUOUS
 62
       7
100
AcDbLine
 10
24.37720467
 20
461.57356191
 30
0.0
 11
71.22849677
 21
461.57356191
 31
0.0
  0
LINE
  5
508
100
AcDbEntity
  8
LAYER0002
  6
CONTINUOUS
 62
       7
100
AcDbLine
 10
-242.77150323
 20
459.07356191
 30
0.0
 11
-242.77150323
 21
459.57356191
 31
0.0
  0
LINE
  5
509
100
AcDbEntity
  8
LAYER0002
  6
CONTINUOUS
 62
       7
100
AcDbLine
 10
23.87720467
 20
462.07356191
 30
0.0
 11
24.37720467
 21
461.57356191
 31
0.0
  0
LINE
  5
50A
100
AcDbEntity
  8
LAYER0002
  6
CONTINUOUS
 62
       7
100
AcDbLine
 10
-196.12279533
 20
462.07356191
 30
0.0
 11
-196.62279533
 21
461.57356191
 31
0.0
  0
LINE
  5
50B
100
AcDbEntity
  8
LAYER0002
  6
CONTINUOUS
 62
       7
100
AcDbLine
 10
-196.12279533
 20
463.07356191
 30
0.0
 11
-196.62279533
 21
463.57356191
 31
0.0
  0
LINE
  5
50C
100
AcDbEntity
  8
LAYER0002
  6
CONTINUOUS
 62
       7
100
AcDbLine
 10
-192.62279533
 20
463.57356191
 30
0.0
 11
-193.12279533
 21
463.07356191
 31
0.0
  0
LINE
  5
50D
100
AcDbEntity
  8
LAYER0002
  6
CONTINUOUS
 62
       7
100
AcDbLine
 10
-192.62279533
 20
463.57356191
 30
0.0
 11
20.37720467
 21
463.57356191
 31
0.0
  0
LINE
  5
50E
100
AcDbEntity
  8
LAYER0002
  6
CONTINUOUS
 62
       7
100
AcDbLine
 10
-193.12279533
 20
459.07356191
 30
0.0
 11
-193.12279533
 21
463.07356191
 31
0.0
  0
LINE
  5
50F
100
AcDbEntity
  8
LAYER0002
  6
CONTINUOUS
 62
       7
100
AcDbLine
 10
-196.12279533
 20
462.07356191
 30
0.0
 11
-196.12279533
 21
463.07356191
 31
0.0
  0
LINE
  5
510
100
AcDbEntity
  8
LAYER0002
  6
CONTINUOUS
 62
       7
100
AcDbLine
 10
73.22849677
 20
459.07356191
 30
0.0
 11
73.22849677
 21
459.57356191
 31
0.0
  0
LINE
  5
511
100
AcDbEntity
  8
LAYER0002
  6
CONTINUOUS
 62
       7
100
AcDbLine
 10
20.87720467
 20
463.07356191
 30
0.0
 11
20.37720467
 21
463.57356191
 31
0.0
  0
LINE
  5
512
100
AcDbEntity
  8
LAYER0002
  6
CONTINUOUS
 62
       7
100
AcDbLine
 10
24.37720467
 20
463.57356191
 30
0.0
 11
23.87720467
 21
463.07356191
 31
0.0
  0
LINE
  5
513
100
AcDbEntity
  8
LAYER0002
  6
CONTINUOUS
 62
       7
100
AcDbLine
 10
24.37720467
 20
463.57356191
 30
0.0
 11
71.22849677
 21
463.57356191
 31
0.0
  0
LINE
  5
514
100
AcDbEntity
  8
LAYER0002
  6
CONTINUOUS
 62
       7
100
AcDbLine
 10
23.87720467
 20
462.07356191
 30
0.0
 11
23.87720467
 21
463.07356191
 31
0.0
  0
LINE
  5
515
100
AcDbEntity
  8
LAYER0002
  6
CONTINUOUS
 62
       7
100
AcDbLine
 10
20.87720467
 20
459.07356191
 30
0.0
 11
20.87720467
 21
463.07356191
 31
0.0
  0
CIRCLE
  5
516
100
AcDbEntity
  8
LAYER0002
  6
CONTINUOUS
 62
       7
100
AcDbCircle
 10
-171.12279533
 20
140.44436421
 30
0.0
 40
3.25
  0
CIRCLE
  5
517
100
AcDbEntity
  8
LAYER0002
  6
CONTINUOUS
 62
       7
100
AcDbCircle
 10
-1.12279533
 20
140.44436421
 30
0.0
 40
3.25
  0
LINE
  5
518
100
AcDbEntity
  8
LAYER0002
  6
CONTINUOUS
 62
       7
100
AcDbLine
 10
-199.12279533
 20
90.44436421
 30
0.0
 11
-245.62279533
 21
90.44436421
 31
0.0
  0
ARC
  5
519
100
AcDbEntity
  8
LAYER0002
  6
CONTINUOUS
 62
       7
100
AcDbCircle
 10
-199.12279533
 20
93.44436421
 30
0.0
 40
3.0
100
AcDbArc
 50
270.0
 51
360.0
  0
ARC
  5
51A
100
AcDbEntity
  8
LAYER0002
  6
CONTINUOUS
 62
       7
100
AcDbCircle
 10
-190.12279533
 20
93.44436421
 30
0.0
 40
3.0
100
AcDbArc
 50
180.0
 51
270.0
  0
LINE
  5
51B
100
AcDbEntity
  8
LAYER0002
  6
CONTINUOUS
 62
       7
100
AcDbLine
 10
-196.12279533
 20
93.44436421
 30
0.0
 11
-196.12279533
 21
163.44436421
 31
0.0
  0
LINE
  5
51C
100
AcDbEntity
  8
LAYER0002
  6
CONTINUOUS
 62
       7
100
AcDbLine
 10
-193.12279533
 20
93.44436421
 30
0.0
 11
-193.12279533
 21
163.44436421
 31
0.0
  0
ARC
  5
51D
100
AcDbEntity
  8
LAYER0002
  6
CONTINUOUS
 62
       7
100
AcDbCircle
 10
17.87720467
 20
93.44436421
 30
0.0
 40
3.0
100
AcDbArc
 50
270.0
 51
360.0
  0
ARC
  5
51E
100
AcDbEntity
  8
LAYER0002
  6
CONTINUOUS
 62
       7
100
AcDbCircle
 10
26.87720467
 20
93.44436421
 30
0.0
 40
3.0
100
AcDbArc
 50
180.0
 51
270.0
  0
LINE
  5
51F
100
AcDbEntity
  8
LAYER0002
  6
CONTINUOUS
 62
       7
100
AcDbLine
 10
17.87720467
 20
90.44436421
 30
0.0
 11
-190.12279533
 21
90.44436421
 31
0.0
  0
LINE
  5
520
100
AcDbEntity
  8
LAYER0002
  6
CONTINUOUS
 62
       7
100
AcDbLine
 10
20.87720467
 20
93.44436421
 30
0.0
 11
20.87720467
 21
163.44436421
 31
0.0
  0
LINE
  5
521
100
AcDbEntity
  8
LAYER0002
  6
CONTINUOUS
 62
       7
100
AcDbLine
 10
23.87720467
 20
93.44436421
 30
0.0
 11
23.87720467
 21
163.44436421
 31
0.0
  0
LINE
  5
522
100
AcDbEntity
  8
LAYER0002
  6
CONTINUOUS
 62
       7
100
AcDbLine
 10
319.51807762
 20
-203.0002487
 30
0.0
 11
320.01807762
 21
-203.5002487
 31
0.0
  0
ARC
  5
523
100
AcDbEntity
  8
LAYER0002
  6
CONTINUOUS
 62
       7
100
AcDbCircle
 10
-240.77150323
 20
459.57356191
 30
0.0
 40
4.0
100
AcDbArc
 50
90.0
 51
180.0
  0
LINE
  5
524
100
AcDbEntity
  8
LAYER0002
  6
CONTINUOUS
 62
       7
100
AcDbLine
 10
-240.77150323
 20
461.57356191
 30
0.0
 11
-196.62279533
 21
461.57356191
 31
0.0
  0
LINE
  5
525
100
AcDbEntity
  8
LAYER0002
  6
CONTINUOUS
 62
       7
100
AcDbLine
 10
-240.77150323
 20
463.57356191
 30
0.0
 11
-196.62279533
 21
463.57356191
 31
0.0
  0
ARC
  5
526
100
AcDbEntity
  8
LAYER0002
  6
CONTINUOUS
 62
       7
100
AcDbCircle
 10
71.22849677
 20
459.57356191
 30
0.0
 40
4.0
100
AcDbArc
 50
0.0
 51
90.0
  0
CIRCLE
  5
527
100
AcDbEntity
  8
LAYER0002
  6
CONTINUOUS
 62
       7
100
AcDbCircle
 10
-86.12279533
 20
105.44436421
 30
0.0
 40
3.25
  0
LINE
  5
528
100
AcDbEntity
  8
LAYER0002
  6
CONTINUOUS
 62
       7
100
AcDbLine
 10
310.95846497
 20
-278.0002487
 30
0.0
 11
319.51807762
 21
-278.0002487
 31
0.0
  0
LINE
  5
529
100
AcDbEntity
  8
LAYER0002
  6
CONTINUOUS
 62
       7
100
AcDbLine
 10
200.51807762
 20
-205.0002487
 30
0.0
 11
200.01807762
 21
-204.5002487
 31
0.0
  0
ARC
  5
52A
100
AcDbEntity
  8
LAYER0002
  6
CONTINUOUS
 62
       7
100
AcDbCircle
 10
-242.12279533
 20
161.44436421
 30
0.0
 40
4.0
100
AcDbArc
 50
90.0
 51
180.0
  0
LINE
  5
52B
100
AcDbEntity
  8
LAYER0002
  6
CONTINUOUS
 62
       7
100
AcDbLine
 10
-246.12279533
 20
90.94436421
 30
0.0
 11
-246.12279533
 21
161.44436421
 31
0.0
  0
LINE
  5
52C
100
AcDbEntity
  8
LAYER0002
  6
CONTINUOUS
 62
       7
100
AcDbLine
 10
73.37720467
 20
90.44436421
 30
0.0
 11
26.87720467
 21
90.44436421
 31
0.0
  0
LINE
  5
52D
100
AcDbEntity
  8
LAYER0002
  6
CONTINUOUS
 62
       7
100
AcDbLine
 10
-244.12279533
 20
90.94436421
 30
0.0
 11
-244.12279533
 21
161.44436421
 31
0.0
  0
LINE
  5
52E
100
AcDbEntity
  8
LAYER0002
  6
CONTINUOUS
 62
       7
100
AcDbLine
 10
-246.12279533
 20
90.94436421
 30
0.0
 11
-245.62279533
 21
90.44436421
 31
0.0
  0
LINE
  5
52F
100
AcDbEntity
  8
LAYER0002
  6
CONTINUOUS
 62
       7
100
AcDbLine
 10
-244.62279533
 20
90.44436421
 30
0.0
 11
-244.12279533
 21
90.94436421
 31
0.0
  0
LINE
  5
530
100
AcDbEntity
  8
LAYER0002
  6
CONTINUOUS
 62
       7
100
AcDbLine
 10
72.37720467
 20
90.44436421
 30
0.0
 11
71.87720467
 21
90.94436421
 31
0.0
  0
LINE
  5
531
100
AcDbEntity
  8
LAYER0002
  6
CONTINUOUS
 62
       7
100
AcDbLine
 10
73.87720467
 20
90.94436421
 30
0.0
 11
73.37720467
 21
90.44436421
 31
0.0
  0
ARC
  5
532
100
AcDbEntity
  8
LAYER0002
  6
CONTINUOUS
 62
       7
100
AcDbCircle
 10
69.87720467
 20
161.44436421
 30
0.0
 40
4.0
100
AcDbArc
 50
0.0
 51
90.0
  0
LINE
  5
533
100
AcDbEntity
  8
LAYER0002
  6
CONTINUOUS
 62
       7
100
AcDbLine
 10
71.87720467
 20
90.94436421
 30
0.0
 11
71.87720467
 21
161.44436421
 31
0.0
  0
LINE
  5
534
100
AcDbEntity
  8
LAYER0002
  6
CONTINUOUS
 62
       7
100
AcDbLine
 10
320.01807762
 20
-277.5002487
 30
0.0
 11
319.51807762
 21
-278.0002487
 31
0.0
  0
LINE
  5
535
100
AcDbEntity
  8
LAYER0002
  6
CONTINUOUS
 62
       7
100
AcDbLine
 10
200.51807762
 20
-203.0002487
 30
0.0
 11
200.01807762
 21
-203.5002487
 31
0.0
  0
LINE
  5
536
100
AcDbEntity
  8
LAYER0002
  6
CONTINUOUS
 62
       7
100
AcDbLine
 10
320.01807762
 20
-277.5002487
 30
0.0
 11
320.01807762
 21
-203.5002487
 31
0.0
  0
LINE
  5
537
100
AcDbEntity
  8
LAYER0002
  6
CONTINUOUS
 62
       7
100
AcDbLine
 10
200.01807762
 20
-204.5002487
 30
0.0
 11
200.01807762
 21
-203.5002487
 31
0.0
  0
LINE
  5
538
100
AcDbEntity
  8
LAYER0002
  6
CONTINUOUS
 62
       7
100
AcDbLine
 10
200.51807762
 20
-205.0002487
 30
0.0
 11
205.01807762
 21
-205.0002487
 31
0.0
  0
LINE
  5
539
100
AcDbEntity
  8
LAYER0002
  6
CONTINUOUS
 62
       7
100
AcDbLine
 10
200.51807762
 20
-203.0002487
 30
0.0
 11
319.51807762
 21
-203.0002487
 31
0.0
  0
LINE
  5
53A
100
AcDbEntity
  8
LAYER0002
  6
CONTINUOUS
 62
       7
100
AcDbLine
 10
-242.12279533
 20
163.44436421
 30
0.0
 11
69.87720467
 21
163.44436421
 31
0.0
  0
LINE
  5
53B
100
AcDbEntity
  8
LAYER0002
  6
CONTINUOUS
 62
       7
100
AcDbLine
 10
73.87720467
 20
90.94436421
 30
0.0
 11
73.87720467
 21
161.44436421
 31
0.0
  0
LINE
  5
53C
100
AcDbEntity
  8
LAYER0002
  6
CONTINUOUS
 62
       7
100
AcDbLine
 10
-242.12279533
 20
165.44436421
 30
0.0
 11
69.87720467
 21
165.44436421
 31
0.0
  0
CIRCLE
  5
53D
100
AcDbEntity
  8
LAYER0002
  6
CONTINUOUS
 62
       7
100
AcDbCircle
 10
-45.77150323
 20
399.57356191
 30
0.0
 40
5.0
  0
CIRCLE
  5
53E
100
AcDbEntity
  8
LAYER0002
  6
CONTINUOUS
 62
       7
100
AcDbCircle
 10
-225.77150323
 20
399.57356191
 30
0.0
 40
5.0
  0
CIRCLE
  5
53F
100
AcDbEntity
  8
LAYER0002
  6
CONTINUOUS
 62
       7
100
AcDbCircle
 10
27.72849677
 20
399.57356191
 30
0.0
 40
30.0
  0
LINE
  5
540
100
AcDbEntity
  8
LAYER0002
  6
CONTINUOUS
 62
       7
100
AcDbLine
 10
-239.77150323
 20
343.57356191
 30
0.0
 11
70.22849677
 21
343.57356191
 31
0.0
  0
LINE
  5
541
100
AcDbEntity
  8
LAYER0002
  6
CONTINUOUS
 62
       7
100
AcDbLine
 10
75.22849677
 20
348.57356191
 30
0.0
 11
75.22849677
 21
459.57356191
 31
0.0
  0
LINE
  5
542
100
AcDbEntity
  8
LAYER0002
  6
CONTINUOUS
 62
       7
100
AcDbLine
 10
-244.77150323
 20
348.57356191
 30
0.0
 11
-244.77150323
 21
459.57356191
 31
0.0
  0
CIRCLE
  5
543
100
AcDbEntity
  8
LAYER0002
  6
CONTINUOUS
 62
       7
100
AcDbCircle
 10
-278.44266026
 20
-243.0002487
 30
0.0
 40
3.25
  0
CIRCLE
  5
544
100
AcDbEntity
  8
LAYER0002
  6
CONTINUOUS
 62
       7
100
AcDbCircle
 10
-8.44266026
 20
-243.0002487
 30
0.0
 40
3.25
  0
ARC
  5
545
100
AcDbEntity
  8
LAYER0002
  6
CONTINUOUS
 62
       7
100
AcDbCircle
 10
-299.44266026
 20
-207.0002487
 30
0.0
 40
2.0
100
AcDbArc
 50
90.0
 51
180.0
  0
ARC
  5
546
100
AcDbEntity
  8
LAYER0002
  6
CONTINUOUS
 62
       7
100
AcDbCircle
 10
12.55733974
 20
-207.0002487
 30
0.0
 40
2.0
100
AcDbArc
 50
0.0
 51
90.0
  0
CIRCLE
  5
547
100
AcDbEntity
  8
LAYER0002
  6
CONTINUOUS
 62
       7
100
AcDbCircle
 10
-228.44266026
 20
-228.0002487
 30
0.0
 40
3.25
  0
CIRCLE
  5
548
100
AcDbEntity
  8
LAYER0002
  6
CONTINUOUS
 62
       7
100
AcDbCircle
 10
-58.44266026
 20
-228.0002487
 30
0.0
 40
3.25
  0
LINE
  5
549
100
AcDbEntity
  8
LAYER0002
  6
CONTINUOUS
 62
       7
100
AcDbLine
 10
-256.44266026
 20
-278.0002487
 30
0.0
 11
-302.94266026
 21
-278.0002487
 31
0.0
  0
ARC
  5
54A
100
AcDbEntity
  8
LAYER0002
  6
CONTINUOUS
 62
       7
100
AcDbCircle
 10
-256.44266026
 20
-275.0002487
 30
0.0
 40
3.0
100
AcDbArc
 50
270.0
 51
360.0
  0
ARC
  5
54B
100
AcDbEntity
  8
LAYER0002
  6
CONTINUOUS
 62
       7
100
AcDbCircle
 10
-247.44266026
 20
-275.0002487
 30
0.0
 40
3.0
100
AcDbArc
 50
180.0
 51
270.0
  0
LINE
  5
54C
100
AcDbEntity
  8
LAYER0002
  6
CONTINUOUS
 62
       7
100
AcDbLine
 10
-253.44266026
 20
-275.0002487
 30
0.0
 11
-253.44266026
 21
-205.0002487
 31
0.0
  0
LINE
  5
54D
100
AcDbEntity
  8
LAYER0002
  6
CONTINUOUS
 62
       7
100
AcDbLine
 10
-250.44266026
 20
-275.0002487
 30
0.0
 11
-250.44266026
 21
-205.0002487
 31
0.0
  0
ARC
  5
54E
100
AcDbEntity
  8
LAYER0002
  6
CONTINUOUS
 62
       7
100
AcDbCircle
 10
-39.44266026
 20
-275.0002487
 30
0.0
 40
3.0
100
AcDbArc
 50
270.0
 51
360.0
  0
ARC
  5
54F
100
AcDbEntity
  8
LAYER0002
  6
CONTINUOUS
 62
       7
100
AcDbCircle
 10
-30.44266026
 20
-275.0002487
 30
0.0
 40
3.0
100
AcDbArc
 50
180.0
 51
270.0
  0
LINE
  5
550
100
AcDbEntity
  8
LAYER0002
  6
CONTINUOUS
 62
       7
100
AcDbLine
 10
-36.44266026
 20
-275.0002487
 30
0.0
 11
-36.44266026
 21
-205.0002487
 31
0.0
  0
LINE
  5
551
100
AcDbEntity
  8
LAYER0002
  6
CONTINUOUS
 62
       7
100
AcDbLine
 10
-33.44266026
 20
-275.0002487
 30
0.0
 11
-33.44266026
 21
-205.0002487
 31
0.0
  0
CIRCLE
  5
552
100
AcDbEntity
  8
LAYER0002
  6
CONTINUOUS
 62
       7
100
AcDbCircle
 10
-143.44266026
 20
-263.0002487
 30
0.0
 40
3.25
  0
ARC
  5
553
100
AcDbEntity
  8
LAYER0002
  6
CONTINUOUS
 62
       7
100
AcDbCircle
 10
-299.44266026
 20
-207.0002487
 30
0.0
 40
4.0
100
AcDbArc
 50
90.0
 51
180.0
  0
LINE
  5
554
100
AcDbEntity
  8
LAYER0002
  6
CONTINUOUS
 62
       7
100
AcDbLine
 10
-303.44266026
 20
-277.5002487
 30
0.0
 11
-303.44266026
 21
-207.0002487
 31
0.0
  0
LINE
  5
555
100
AcDbEntity
  8
LAYER0002
  6
CONTINUOUS
 62
       7
100
AcDbLine
 10
16.05733974
 20
-278.0002487
 30
0.0
 11
-30.44266026
 21
-278.0002487
 31
0.0
  0
LINE
  5
556
100
AcDbEntity
  8
LAYER0002
  6
CONTINUOUS
 62
       7
100
AcDbLine
 10
-301.44266026
 20
-277.5002487
 30
0.0
 11
-301.44266026
 21
-207.0002487
 31
0.0
  0
LINE
  5
557
100
AcDbEntity
  8
LAYER0002
  6
CONTINUOUS
 62
       7
100
AcDbLine
 10
-303.44266026
 20
-277.5002487
 30
0.0
 11
-302.94266026
 21
-278.0002487
 31
0.0
  0
LINE
  5
558
100
AcDbEntity
  8
LAYER0002
  6
CONTINUOUS
 62
       7
100
AcDbLine
 10
-301.94266026
 20
-278.0002487
 30
0.0
 11
-301.44266026
 21
-277.5002487
 31
0.0
  0
LINE
  5
559
100
AcDbEntity
  8
LAYER0002
  6
CONTINUOUS
 62
       7
100
AcDbLine
 10
15.05733974
 20
-278.0002487
 30
0.0
 11
14.55733974
 21
-277.5002487
 31
0.0
  0
LINE
  5
55A
100
AcDbEntity
  8
LAYER0002
  6
CONTINUOUS
 62
       7
100
AcDbLine
 10
16.55733974
 20
-277.5002487
 30
0.0
 11
16.05733974
 21
-278.0002487
 31
0.0
  0
ARC
  5
55B
100
AcDbEntity
  8
LAYER0002
  6
CONTINUOUS
 62
       7
100
AcDbCircle
 10
12.55733974
 20
-207.0002487
 30
0.0
 40
4.0
100
AcDbArc
 50
0.0
 51
90.0
  0
LINE
  5
55C
100
AcDbEntity
  8
LAYER0002
  6
CONTINUOUS
 62
       7
100
AcDbLine
 10
14.55733974
 20
-277.5002487
 30
0.0
 11
14.55733974
 21
-207.0002487
 31
0.0
  0
LINE
  5
55D
100
AcDbEntity
  8
LAYER0002
  6
CONTINUOUS
 62
       7
100
AcDbLine
 10
-299.44266026
 20
-205.0002487
 30
0.0
 11
12.55733974
 21
-205.0002487
 31
0.0
  0
LINE
  5
55E
100
AcDbEntity
  8
LAYER0002
  6
CONTINUOUS
 62
       7
100
AcDbLine
 10
16.55733974
 20
-277.5002487
 30
0.0
 11
16.55733974
 21
-207.0002487
 31
0.0
  0
LINE
  5
55F
100
AcDbEntity
  8
LAYER0002
  6
CONTINUOUS
 62
       7
100
AcDbLine
 10
-299.44266026
 20
-203.0002487
 30
0.0
 11
12.55733974
 21
-203.0002487
 31
0.0
  0
ARC
  5
560
100
AcDbEntity
  8
LAYER0002
  6
CONTINUOUS
 62
       7
100
AcDbCircle
 10
282.26001011
 20
92.94436421
 30
0.0
 40
3.0
100
AcDbArc
 50
235.19150185
 51
270.0
  0
LINE
  5
561
100
AcDbEntity
  8
LAYER0002
  6
CONTINUOUS
 62
       7
100
AcDbLine
 10
176.31962276
 20
162.94436421
 30
0.0
 11
280.54750405
 21
90.48117056
 31
0.0
  0
LINE
  5
562
100
AcDbEntity
  8
LAYER0002
  6
CONTINUOUS
 62
       7
100
AcDbLine
 10
290.81962276
 20
164.94436421
 30
0.0
 11
291.31962276
 21
164.44436421
 31
0.0
  0
LINE
  5
563
100
AcDbEntity
  8
LAYER0002
  6
CONTINUOUS
 62
       7
100
AcDbLine
 10
282.26001011
 20
89.94436421
 30
0.0
 11
290.81962276
 21
89.94436421
 31
0.0
  0
LINE
  5
564
100
AcDbEntity
  8
LAYER0002
  6
CONTINUOUS
 62
       7
100
AcDbLine
 10
171.81962276
 20
162.94436421
 30
0.0
 11
171.31962276
 21
163.44436421
 31
0.0
  0
LINE
  5
565
100
AcDbEntity
  8
LAYER0002
  6
CONTINUOUS
 62
       7
100
AcDbLine
 10
291.31962276
 20
90.44436421
 30
0.0
 11
290.81962276
 21
89.94436421
 31
0.0
  0
LINE
  5
566
100
AcDbEntity
  8
LAYER0002
  6
CONTINUOUS
 62
       7
100
AcDbLine
 10
171.81962276
 20
164.94436421
 30
0.0
 11
171.31962276
 21
164.44436421
 31
0.0
  0
LINE
  5
567
100
AcDbEntity
  8
LAYER0002
  6
CONTINUOUS
 62
       7
100
AcDbLine
 10
291.31962276
 20
90.44436421
 30
0.0
 11
291.31962276
 21
164.44436421
 31
0.0
  0
LINE
  5
568
100
AcDbEntity
  8
LAYER0002
  6
CONTINUOUS
 62
       7
100
AcDbLine
 10
171.31962276
 20
163.44436421
 30
0.0
 11
171.31962276
 21
164.44436421
 31
0.0
  0
LINE
  5
569
100
AcDbEntity
  8
LAYER0002
  6
CONTINUOUS
 62
       7
100
AcDbLine
 10
171.81962276
 20
162.94436421
 30
0.0
 11
176.31962276
 21
162.94436421
 31
0.0
  0
LINE
  5
56A
100
AcDbEntity
  8
LAYER0002
  6
CONTINUOUS
 62
       7
100
AcDbLine
 10
171.81962276
 20
164.94436421
 30
0.0
 11
290.81962276
 21
164.94436421
 31
0.0
  0
LINE
  5
56B
100
AcDbEntity
  8
LAYER0002
  6
CONTINUOUS
 62
       7
100
AcDbLine
 10
-39.44266026
 20
-278.0002487
 30
0.0
 11
-181.94335865
 21
-278.0002487
 31
0.0
  0
LINE
  5
56C
100
AcDbEntity
  8
LAYER0002
  6
CONTINUOUS
 62
       7
100
AcDbLine
 10
-206.94335865
 20
-278.0002487
 30
0.0
 11
-247.44266026
 21
-278.0002487
 31
0.0
  0
LINE
  5
56D
100
AcDbEntity
  8
0
  6
DASHED2
 62
       7
100
AcDbLine
 10
75.22849677
 20
349.07356191
 30
0.0
 11
74.72849677
 21
348.57356191
 31
0.0
  0
LINE
  5
56E
100
AcDbEntity
  8
0
  6
DASHED2
 62
       7
100
AcDbLine
 10
-244.27150323
 20
348.57356191
 30
0.0
 11
-243.27150323
 21
348.57356191
 31
0.0
  0
LINE
  5
56F
100
AcDbEntity
  8
0
  6
DASHED2
 62
       7
100
AcDbLine
 10
318.51807762
 20
-203.0002487
 30
0.0
 11
318.01807762
 21
-203.5002487
 31
0.0
  0
LINE
  5
570
100
AcDbEntity
  8
0
  6
DASHED2
 62
       7
100
AcDbLine
 10
318.01807762
 20
-277.5002487
 30
0.0
 11
318.51807762
 21
-278.0002487
 31
0.0
  0
LINE
  5
571
100
AcDbEntity
  8
0
  6
DASHED2
 62
       7
100
AcDbLine
 10
-242.77150323
 20
349.07356191
 30
0.0
 11
-243.27150323
 21
348.57356191
 31
0.0
  0
LINE
  5
572
100
AcDbEntity
  8
0
  6
DASHED2
 62
       7
100
AcDbLine
 10
-244.27150323
 20
348.57356191
 30
0.0
 11
-244.77150323
 21
349.07356191
 31
0.0
  0
LINE
  5
573
100
AcDbEntity
  8
0
  6
DASHED2
 62
       7
100
AcDbLine
 10
73.72849677
 20
348.57356191
 30
0.0
 11
74.72849677
 21
348.57356191
 31
0.0
  0
LINE
  5
574
100
AcDbEntity
  8
0
  6
DASHED2
 62
       7
100
AcDbLine
 10
205.01807762
 20
-205.0002487
 30
0.0
 11
316.01807762
 21
-205.0002487
 31
0.0
  0
ARC
  5
575
100
AcDbEntity
  8
0
  6
DASHED2
 62
       7
100
AcDbCircle
 10
316.01807762
 20
-207.0002487
 30
0.0
 40
2.0
100
AcDbArc
 50
0.0
 51
90.0
  0
LINE
  5
576
100
AcDbEntity
  8
0
  6
DASHED2
 62
       7
100
AcDbLine
 10
-193.12279533
 20
461.57356191
 30
0.0
 11
20.87720467
 21
461.57356191
 31
0.0
  0
LINE
  5
577
100
AcDbEntity
  8
0
  6
DASHED2
 62
       7
100
AcDbLine
 10
73.22849677
 20
349.07356191
 30
0.0
 11
73.72849677
 21
348.57356191
 31
0.0
  0
LINE
  5
578
100
AcDbEntity
  8
0
  6
DASHED2
 62
       7
100
AcDbLine
 10
73.22849677
 20
349.07356191
 30
0.0
 11
73.22849677
 21
459.07356191
 31
0.0
  0
LINE
  5
579
100
AcDbEntity
  8
0
  6
DASHED2
 62
       7
100
AcDbLine
 10
-242.77150323
 20
349.07356191
 30
0.0
 11
-242.77150323
 21
459.07356191
 31
0.0
  0
LINE
  5
57A
100
AcDbEntity
  8
0
  6
DASHED2
 62
       7
100
AcDbLine
 10
318.01807762
 20
-277.5002487
 30
0.0
 11
318.01807762
 21
-203.5002487
 31
0.0
  0
LINE
  5
57B
100
AcDbEntity
  8
0
  6
DASHED2
 62
       7
100
AcDbLine
 10
289.81962276
 20
164.94436421
 30
0.0
 11
289.31962276
 21
164.44436421
 31
0.0
  0
LINE
  5
57C
100
AcDbEntity
  8
0
  6
DASHED2
 62
       7
100
AcDbLine
 10
289.31962276
 20
90.44436421
 30
0.0
 11
289.81962276
 21
89.94436421
 31
0.0
  0
LINE
  5
57D
100
AcDbEntity
  8
0
  6
DASHED2
 62
       7
100
AcDbLine
 10
176.31962276
 20
162.94436421
 30
0.0
 11
287.31962276
 21
162.94436421
 31
0.0
  0
ARC
  5
57E
100
AcDbEntity
  8
0
  6
DASHED2
 62
       7
100
AcDbCircle
 10
287.31962276
 20
160.94436421
 30
0.0
 40
2.0
100
AcDbArc
 50
0.0
 51
90.0
  0
LINE
  5
57F
100
AcDbEntity
  8
0
  6
DASHED2
 62
       7
100
AcDbLine
 10
289.31962276
 20
90.44436421
 30
0.0
 11
289.31962276
 21
164.44436421
 31
0.0
  0
POINT
  5
580
100
AcDbEntity
  8
0
  6
CONTINUOUS
 62
       7
100
AcDbPoint
 10
-315.94196246
 20
-203.0002487
 30
0.0
  0
POINT
  5
581
100
AcDbEntity
  8
0
  6
CONTINUOUS
 62
       7
100
AcDbPoint
 10
29.05391213
 20
-203.0002487
 30
0.0
  0
LINE
  5
582
100
AcDbEntity
  8
0
  6
CONTINUOUS
 62
       7
100
AcDbLine
 10
194.12672928
 20
-202.02822977
 30
0.0
 11
140.80735539
 21
-143.8606482
 31
0.0
  0
ARC
  5
583
100
AcDbEntity
  8
0
  6
CONTINUOUS
 62
       7
100
AcDbCircle
 10
143.01807762
 20
-141.83266714
 30
0.0
 40
3.0
100
AcDbArc
 50
180.0
 51
222.5313635
  0
ARC
  5
584
100
AcDbEntity
  8
0
  6
CONTINUOUS
 62
       7
100
AcDbCircle
 10
143.51807762
 20
-116.5002487
 30
0.0
 40
3.5
100
AcDbArc
 50
90.0
 51
180.0
  0
ARC
  5
585
100
AcDbEntity
  8
0
  6
CONTINUOUS
 62
       7
100
AcDbCircle
 10
196.33745151
 20
-200.0002487
 30
0.0
 40
3.0
100
AcDbArc
 50
222.5313635
 51
270.0
  0
LINE
  5
586
100
AcDbEntity
  8
0
  6
CONTINUOUS
 62
       7
100
AcDbLine
 10
140.01807762
 20
-116.5002487
 30
0.0
 11
140.01807762
 21
-141.83266714
 31
0.0
  0
POINT
  5
587
100
AcDbEntity
  8
0
  6
CONTINUOUS
 62
       7
100
AcDbPoint
 10
195.01773144
 20
-203.0002487
 30
0.0
  0
LINE
  5
588
100
AcDbEntity
  8
0
  6
CONTINUOUS
 62
       7
100
AcDbLine
 10
317.01807762
 20
-113.0002487
 30
0.0
 11
143.51807762
 21
-113.0002487
 31
0.0
  0
ARC
  5
589
100
AcDbEntity
  8
0
  6
CONTINUOUS
 62
       7
100
AcDbCircle
 10
317.01807762
 20
-116.0002487
 30
0.0
 40
3.0
100
AcDbArc
 50
0.0
 51
90.0
  0
LINE
  5
58A
100
AcDbEntity
  8
0
  6
CONTINUOUS
 62
       7
100
AcDbLine
 10
320.01807762
 20
-116.0002487
 30
0.0
 11
320.01807762
 21
-200.0002487
 31
0.0
  0
ARC
  5
58B
100
AcDbEntity
  8
0
  6
CONTINUOUS
 62
       7
100
AcDbCircle
 10
317.01807762
 20
-200.0002487
 30
0.0
 40
3.0
100
AcDbArc
 50
270.0
 51
360.0
  0
LINE
  5
58C
100
AcDbEntity
  8
0
  6
CONTINUOUS
 62
       7
100
AcDbLine
 10
317.01807762
 20
-203.0002487
 30
0.0
 11
196.33745151
 21
-203.0002487
 31
0.0
  0
LINE
  5
58D
100
AcDbEntity
  8
LAYER0003
  6
CENTER
 62
       7
100
AcDbLine
 10
-214.87279533
 20
125.44436421
 30
0.0
 11
-227.37279533
 21
125.44436421
 31
0.0
  0
LINE
  5
58E
100
AcDbEntity
  8
LAYER0003
  6
CENTER
 62
       7
100
AcDbLine
 10
-221.12279533
 20
119.19436421
 30
0.0
 11
-221.12279533
 21
131.69436421
 31
0.0
  0
LINE
  5
58F
100
AcDbEntity
  8
LAYER0003
  6
CENTER
 62
       7
100
AcDbLine
 10
48.87720467
 20
119.19436421
 30
0.0
 11
48.87720467
 21
131.69436421
 31
0.0
  0
LINE
  5
590
100
AcDbEntity
  8
LAYER0003
  6
CENTER
 62
       7
100
AcDbLine
 10
42.62720467
 20
125.44436421
 30
0.0
 11
55.12720467
 21
125.44436421
 31
0.0
  0
LINE
  5
591
100
AcDbEntity
  8
LAYER0003
  6
CENTER
 62
       7
100
AcDbLine
 10
-86.12279533
 20
99.19436421
 30
0.0
 11
-86.12279533
 21
111.69436421
 31
0.0
  0
LINE
  5
592
100
AcDbEntity
  8
LAYER0003
  6
CENTER
 62
       7
100
AcDbLine
 10
-92.37279533
 20
105.44436421
 30
0.0
 11
-79.87279533
 21
105.44436421
 31
0.0
  0
LINE
  5
593
100
AcDbEntity
  8
LAYER0003
  6
CENTER
 62
       7
100
AcDbLine
 10
-171.12279533
 20
134.19436421
 30
0.0
 11
-171.12279533
 21
146.69436421
 31
0.0
  0
LINE
  5
594
100
AcDbEntity
  8
LAYER0003
  6
CENTER
 62
       7
100
AcDbLine
 10
-1.12279533
 20
134.19436421
 30
0.0
 11
-1.12279533
 21
146.69436421
 31
0.0
  0
LINE
  5
595
100
AcDbEntity
  8
LAYER0003
  6
CENTER
 62
       7
100
AcDbLine
 10
-86.12279533
 20
481.11377487
 30
0.0
 11
-86.12279533
 21
452.97418604
 31
0.0
  0
LINE
  5
596
100
AcDbEntity
  8
LAYER0003
  6
CENTER
 62
       7
100
AcDbLine
 10
-219.77150323
 20
481.11377487
 30
0.0
 11
-219.77150323
 21
452.97418604
 31
0.0
  0
LINE
  5
597
100
AcDbEntity
  8
LAYER0003
  6
CENTER
 62
       7
100
AcDbLine
 10
-171.12279533
 20
481.11377487
 30
0.0
 11
-171.12279533
 21
452.97418604
 31
0.0
  0
LINE
  5
598
100
AcDbEntity
  8
LAYER0003
  6
CENTER
 62
       7
100
AcDbLine
 10
-1.12279533
 20
481.11377487
 30
0.0
 11
-1.12279533
 21
452.97418604
 31
0.0
  0
LINE
  5
599
100
AcDbEntity
  8
LAYER0003
  6
CENTER
 62
       7
100
AcDbLine
 10
-177.37279533
 20
140.44436421
 30
0.0
 11
5.12720467
 21
140.44436421
 31
0.0
  0
LINE
  5
59A
100
AcDbEntity
  8
LAYER0003
  6
CENTER
 62
       7
100
AcDbLine
 10
50.22849677
 20
481.11377487
 30
0.0
 11
50.22849677
 21
452.97418604
 31
0.0
  0
LINE
  5
59B
100
AcDbEntity
  8
LAYER0003
  6
CENTER
 62
       7
100
AcDbLine
 10
-272.19266026
 20
-243.0002487
 30
0.0
 11
-284.69266026
 21
-243.0002487
 31
0.0
  0
LINE
  5
59C
100
AcDbEntity
  8
LAYER0003
  6
CENTER
 62
       7
100
AcDbLine
 10
-278.44266026
 20
-249.2502487
 30
0.0
 11
-278.44266026
 21
-236.7502487
 31
0.0
  0
LINE
  5
59D
100
AcDbEntity
  8
LAYER0003
  6
CENTER
 62
       7
100
AcDbLine
 10
-8.44266026
 20
-249.2502487
 30
0.0
 11
-8.44266026
 21
-236.7502487
 31
0.0
  0
LINE
  5
59E
100
AcDbEntity
  8
LAYER0003
  6
CENTER
 62
       7
100
AcDbLine
 10
-14.69266026
 20
-243.0002487
 30
0.0
 11
-2.19266026
 21
-243.0002487
 31
0.0
  0
LINE
  5
59F
100
AcDbEntity
  8
LAYER0003
  6
CENTER
 62
       7
100
AcDbLine
 10
-149.69266026
 20
-263.0002487
 30
0.0
 11
-137.19266026
 21
-263.0002487
 31
0.0
  0
LINE
  5
5A0
100
AcDbEntity
  8
LAYER0003
  6
CENTER
 62
       7
100
AcDbLine
 10
-228.44266026
 20
-234.2502487
 30
0.0
 11
-228.44266026
 21
-221.7502487
 31
0.0
  0
LINE
  5
5A1
100
AcDbEntity
  8
LAYER0003
  6
CENTER
 62
       7
100
AcDbLine
 10
-58.44266026
 20
-234.2502487
 30
0.0
 11
-58.44266026
 21
-221.7502487
 31
0.0
  0
LINE
  5
5A2
100
AcDbEntity
  8
LAYER0003
  6
CENTER
 62
       7
100
AcDbLine
 10
-234.69266026
 20
-228.0002487
 30
0.0
 11
-220.11153639
 21
-228.0002487
 31
0.0
  0
LINE
  5
5A3
100
AcDbEntity
  8
LAYER0003
  6
CENTER
 62
       7
100
AcDbLine
 10
-67.27525252
 20
-228.0002487
 30
0.0
 11
-52.19266026
 21
-228.0002487
 31
0.0
  0
LINE
  5
5A4
100
AcDbEntity
  8
LAYER0003
  6
CENTER
 62
       7
100
AcDbLine
 10
304.31603774
 20
-228.0002487
 30
0.0
 11
332.95754717
 21
-228.0002487
 31
0.0
  0
LINE
  5
5A5
100
AcDbEntity
  8
LAYER0003
  6
CENTER
 62
       7
100
AcDbLine
 10
304.31603774
 20
-243.0002487
 30
0.0
 11
332.95754717
 21
-243.0002487
 31
0.0
  0
LINE
  5
5A6
100
AcDbEntity
  8
LAYER0003
  6
CENTER
 62
       7
100
AcDbLine
 10
304.31603774
 20
-263.0002487
 30
0.0
 11
332.95754717
 21
-263.0002487
 31
0.0
  0
CIRCLE
  5
5A7
100
AcDbEntity
  8
LAYER0240
  6
CONTINUOUS
 62
       7
100
AcDbCircle
 10
117.06666667
 20
-459.56550651
 30
0.0
 40
6.17150816
  0
LINE
  5
5A8
100
AcDbEntity
  8
LAYER0240
  6
CENTER
 62
       7
100
AcDbLine
 10
-364.33333333
 20
-2.2840248
 30
0.0
 11
373.41666667
 21
-2.2840248
 31
0.0
  0
INSERT
  5
5A9
100
AcDbEntity
  8
LAYER0002
  6
CONTINUOUS
100
AcDbBlockReference
  2
DA_IMAGEDIMGROUP_1
 10
0.0
 20
0.0
 30
0.0
  0
INSERT
  5
5AA
100
AcDbEntity
  8
LAYER0002
  6
CONTINUOUS
100
AcDbBlockReference
  2
DA_IMAGEDIMGROUP_2
 10
0.0
 20
0.0
 30
0.0
  0
INSERT
  5
5AB
100
AcDbEntity
  8
LAYER0002
  6
CONTINUOUS
100
AcDbBlockReference
  2
DA_IMAGEDIMGROUP_3
 10
0.0
 20
0.0
 30
0.0
  0
INSERT
  5
5AC
100
AcDbEntity
  8
LAYER0002
  6
CONTINUOUS
100
AcDbBlockReference
  2
DA_IMAGEDIMGROUP_4
 10
0.0
 20
0.0
 30
0.0
  0
LINE
  5
5AD
100
AcDbEntity
  8
0
  6
CENTER
 62
       7
100
AcDbLine
 10
27.72849677
 20
435.90591084
 30
0.0
 11
27.72849677
 21
362.55845799
 31
0.0
  0
LINE
  5
5AE
100
AcDbEntity
  8
0
  6
CENTER
 62
       7
100
AcDbLine
 10
-135.77150323
 20
446.05461501
 30
0.0
 11
-135.77150323
 21
354.25497276
 31
0.0
  0
LINE
  5
5AF
100
AcDbEntity
  8
0
  6
CENTER
 62
       7
100
AcDbLine
 10
-45.77150323
 20
410.53415042
 30
0.0
 11
-45.77150323
 21
388.39152314
 31
0.0
  0
LINE
  5
5B0
100
AcDbEntity
  8
0
  6
CENTER
 62
       7
100
AcDbLine
 10
-225.77150323
 20
410.53415042
 30
0.0
 11
-225.77150323
 21
388.39152314
 31
0.0
  0
LINE
  5
5B1
100
AcDbEntity
  8
0
  6
CENTER
 62
       7
100
AcDbLine
 10
-235.81395039
 20
399.57356191
 30
0.0
 11
65.41804154
 21
399.57356191
 31
0.0
  0
LINE
  5
5B2
100
AcDbEntity
  8
0
  6
DIVIDE
 62
       7
100
AcDbLine
 10
320.01807762
 20
-22.0488149
 30
0.0
 11
320.01807762
 21
-311.39695254
 31
0.0
  0
LINE
  5
5B3
100
AcDbEntity
  8
0
  6
CONTINUOUS
 62
       7
100
AcDbLine
 10
-336.2907758
 20
-49.18913098
 30
0.0
 11
-78.84645356
 21
-49.18913098
 31
0.0
  0
ARC
  5
5B4
100
AcDbEntity
  8
0
  6
CONTINUOUS
 62
       7
100
AcDbCircle
 10
-200.69335865
 20
-287.20715475
 30
0.0
 40
8.88504585
100
AcDbArc
 50
225.29722549
 51
314.70277451
  0
ARC
  5
5B5
100
AcDbEntity
  8
0
  6
CONTINUOUS
 62
       7
100
AcDbCircle
 10
-188.19335865
 20
-287.20715474
 30
0.0
 40
8.88504585
100
AcDbArc
 50
225.2972255
 51
314.7027745
  0
ARC
  5
5B6
100
AcDbEntity
  8
0
  6
CONTINUOUS
 62
       7
100
AcDbCircle
 10
-200.69335865
 20
-299.83752128
 30
0.0
 40
8.88504585
100
AcDbArc
 50
45.29722549
 51
134.70277451
  0
LINE
  5
5B7
100
AcDbEntity
  8
0
  6
CONTINUOUS
 62
       7
100
AcDbLine
 10
302.69756955
 20
-44.25885396
 30
0.0
 11
302.69756955
 21
-24.25885396
 31
0.0
  0
LINE
  5
5B8
100
AcDbEntity
  8
0
  6
CONTINUOUS
 62
       7
100
AcDbLine
 10
302.69756955
 20
-44.25885396
 30
0.0
 11
320.01807762
 21
-34.25885396
 31
0.0
  0
LINE
  5
5B9
100
AcDbEntity
  8
0
  6
CONTINUOUS
 62
       7
100
AcDbLine
 10
320.01807762
 20
-34.25885396
 30
0.0
 11
302.69756955
 21
-24.25885396
 31
0.0
  0
LINE
  5
5BA
100
AcDbEntity
  8
0
  6
DASHED2
 62
       7
100
AcDbLine
 10
-218.44825704
 20
-205.0002487
 30
0.0
 11
-218.44825704
 21
-204.14590492
 31
0.0
  0
LINE
  5
5BB
100
AcDbEntity
  8
0
  6
DASHED2
 62
       7
100
AcDbLine
 10
-170.44825704
 20
-205.0002487
 30
0.0
 11
-170.44825704
 21
-204.14590492
 31
0.0
  0
LINE
  5
5BC
100
AcDbEntity
  8
0
  6
DASHED2
 62
       7
100
AcDbLine
 10
-206.94335865
 20
-278.0002487
 30
0.0
 11
-181.94335865
 21
-278.0002487
 31
0.0
  0
INSERT
  5
5BD
100
AcDbEntity
  8
0
  6
CONTINUOUS
100
AcDbBlockReference
  2
DA_IMAGEDIMGROUP_5
 10
0.0
 20
0.0
 30
0.0
  0
INSERT
  5
5BE
100
AcDbEntity
  8
0
  6
CONTINUOUS
100
AcDbBlockReference
  2
DA_IMAGEDIMGROUP_6
 10
0.0
 20
0.0
 30
0.0
  0
INSERT
  5
5BF
100
AcDbEntity
  8
0
  6
CONTINUOUS
100
AcDbBlockReference
  2
DA_IMAGEDIMGROUP_7
 10
0.0
 20
0.0
 30
0.0
  0
INSERT
  5
5C0
100
AcDbEntity
  8
0
  6
CONTINUOUS
100
AcDbBlockReference
  2
DA_IMAGEDIMGROUP_8
 10
0.0
 20
0.0
 30
0.0
  0
INSERT
  5
5C1
100
AcDbEntity
  8
0
  6
CONTINUOUS
100
AcDbBlockReference
  2
DA_IMAGEDIMGROUP_9
 10
0.0
 20
0.0
 30
0.0
  0
INSERT
  5
5C2
100
AcDbEntity
  8
0
  6
CONTINUOUS
100
AcDbBlockReference
  2
DA_IMAGEDIMGROUP_10
 10
0.0
 20
0.0
 30
0.0
  0
INSERT
  5
5C3
100
AcDbEntity
  8
0
  6
CONTINUOUS
100
AcDbBlockReference
  2
DA_IMAGEDIMGROUP_11
 10
0.0
 20
0.0
 30
0.0
  0
INSERT
  5
5C4
100
AcDbEntity
  8
0
  6
CONTINUOUS
100
AcDbBlockReference
  2
DA_IMAGEDIMGROUP_12
 10
0.0
 20
0.0
 30
0.0
  0
INSERT
  5
5C5
100
AcDbEntity
  8
0
  6
CONTINUOUS
100
AcDbBlockReference
  2
DA_IMAGEDIMGROUP_13
 10
0.0
 20
0.0
 30
0.0
  0
INSERT
  5
5C6
100
AcDbEntity
  8
0
  6
CONTINUOUS
100
AcDbBlockReference
  2
DA_IMAGEDIMGROUP_14
 10
0.0
 20
0.0
 30
0.0
  0
INSERT
  5
5C7
100
AcDbEntity
  8
0
  6
CONTINUOUS
100
AcDbBlockReference
  2
DA_IMAGEDIMGROUP_15
 10
0.0
 20
0.0
 30
0.0
  0
INSERT
  5
5C8
100
AcDbEntity
  8
0
  6
CONTINUOUS
100
AcDbBlockReference
  2
DA_IMAGEDIMGROUP_16
 10
0.0
 20
0.0
 30
0.0
  0
INSERT
  5
5C9
100
AcDbEntity
  8
0
  6
CONTINUOUS
100
AcDbBlockReference
  2
DA_IMAGEDIMGROUP_17
 10
0.0
 20
0.0
 30
0.0
  0
INSERT
  5
5CA
100
AcDbEntity
  8
0
  6
CONTINUOUS
100
AcDbBlockReference
  2
GROUP_1
 10
0.0
 20
0.0
 30
0.0
  0
INSERT
  5
5CB
100
AcDbEntity
  8
0
  6
CONTINUOUS
100
AcDbBlockReference
  2
GROUP_2
 10
0.0
 20
0.0
 30
0.0
  0
INSERT
  5
5CC
100
AcDbEntity
  8
0
  6
CONTINUOUS
100
AcDbBlockReference
  2
DA_IMAGEDIMGROUP_18
 10
0.0
 20
0.0
 30
0.0
  0
INSERT
  5
5CD
100
AcDbEntity
  8
0
  6
CONTINUOUS
100
AcDbBlockReference
  2
DA_IMAGEDIMGROUP_19
 10
0.0
 20
0.0
 30
0.0
  0
INSERT
  5
5CE
100
AcDbEntity
  8
0
  6
CONTINUOUS
100
AcDbBlockReference
  2
DA_IMAGEDIMGROUP_20
 10
0.0
 20
0.0
 30
0.0
  0
LINE
  5
5CF
100
AcDbEntity
  8
LAYER0005
  6
CONTINUOUS
 62
       7
100
AcDbLine
 10
-318.44049928
 20
-116.60142165
 30
0.0
 11
-316.02621057
 21
-200.08696837
 31
0.0
  0
LINE
  5
5D0
100
AcDbEntity
  8
LAYER0005
  6
CONTINUOUS
 62
       7
100
AcDbLine
 10
-306.35157698
 20
-113.0002487
 30
0.0
 11
-314.94196187
 21
-113.0002487
 31
0.0
  0
ARC
  5
5D1
100
AcDbEntity
  8
LAYER0005
  6
CONTINUOUS
 62
       7
100
AcDbCircle
 10
-314.94196187
 20
-116.5002487
 30
0.0
 40
3.5
100
AcDbArc
 50
90.0
 51
181.65645453
  0
ARC
  5
5D2
100
AcDbEntity
  8
LAYER0005
  6
CONTINUOUS
 62
       7
100
AcDbCircle
 10
-313.02746422
 20
-200.0002487
 30
0.0
 40
3.0
100
AcDbArc
 50
181.65645453
 51
270.0
  0
LINE
  5
5D3
100
AcDbEntity
  8
LAYER0005
  6
CONTINUOUS
 62
       7
100
AcDbLine
 10
28.05664135
 20
-113.0002487
 30
0.0
 11
-306.35157698
 21
-113.0002487
 31
0.0
  0
LINE
  5
5D4
100
AcDbEntity
  8
LAYER0005
  6
CONTINUOUS
 62
       7
100
AcDbLine
 10
31.55526876
 20
-116.5982602
 30
0.0
 11
29.13816831
 21
-200.08986734
 31
0.0
  0
ARC
  5
5D5
100
AcDbEntity
  8
LAYER0005
  6
CONTINUOUS
 62
       7
100
AcDbCircle
 10
28.05664135
 20
-116.5002487
 30
0.0
 40
3.5
100
AcDbArc
 50
358.39532012
 51
450.0
  0
ARC
  5
5D6
100
AcDbEntity
  8
LAYER0005
  6
CONTINUOUS
 62
       7
100
AcDbCircle
 10
26.1395072
 20
-200.0002487
 30
0.0
 40
3.0
100
AcDbArc
 50
270.0
 51
358.39532012
  0
LINE
  5
5D7
100
AcDbEntity
  8
LAYER0005
  6
CONTINUOUS
 62
       7
100
AcDbLine
 10
26.1395072
 20
-203.0002487
 30
0.0
 11
-313.02746422
 21
-203.0002487
 31
0.0
  0
LINE
  5
5D8
100
AcDbEntity
  8
LAYER0005
  6
CONTINUOUS
 62
       7
100
AcDbLine
 10
-206.94335865
 20
-293.52233801
 30
0.0
 11
-206.94335865
 21
-232.26440555
 31
0.0
  0
LINE
  5
5D9
100
AcDbEntity
  8
LAYER0005
  6
CONTINUOUS
 62
       7
100
AcDbLine
 10
-181.94335865
 20
-232.26440555
 30
0.0
 11
-181.94335865
 21
-293.52233801
 31
0.0
  0
LINE
  5
5DA
100
AcDbEntity
  8
LAYER0005
  6
CONTINUOUS
 62
       7
100
AcDbLine
 10
-183.21825704
 20
-206.64590492
 30
0.0
 11
-183.21825704
 21
-211.49090492
 31
0.0
  0
LINE
  5
5DB
100
AcDbEntity
  8
LAYER0005
  6
CONTINUOUS
 62
       7
100
AcDbLine
 10
-185.73025704
 20
-206.64590492
 30
0.0
 11
-185.73025704
 21
-211.49090492
 31
0.0
  0
ARC
  5
5DC
100
AcDbEntity
  8
LAYER0005
  6
CONTINUOUS
 62
       7
100
AcDbCircle
 10
-178.83325704
 20
-203.74190492
 30
0.0
 40
8.904
100
AcDbArc
 50
240.496
 51
270.0
  0
LINE
  5
5DD
100
AcDbEntity
  8
LAYER0005
  6
CONTINUOUS
 62
       7
100
AcDbLine
 10
-183.21825704
 20
-211.49090492
 30
0.0
 11
-185.73025704
 21
-211.49090492
 31
0.0
  0
ARC
  5
5DE
100
AcDbEntity
  8
LAYER0005
  6
CONTINUOUS
 62
       7
100
AcDbCircle
 10
-194.44825704
 20
-179.15990492
 30
0.0
 40
33.486
100
AcDbArc
 50
270.0
 51
285.09
  0
LINE
  5
5DF
100
AcDbEntity
  8
LAYER0005
  6
CONTINUOUS
 62
       7
100
AcDbLine
 10
-212.44825704
 20
-212.64590492
 30
0.0
 11
-176.44825704
 21
-212.64590492
 31
0.0
  0
LINE
  5
5E0
100
AcDbEntity
  8
LAYER0005
  6
CONTINUOUS
 62
       7
100
AcDbLine
 10
-217.44825704
 20
-206.64590492
 30
0.0
 11
-171.44825704
 21
-206.64590492
 31
0.0
  0
LINE
  5
5E1
100
AcDbEntity
  8
LAYER0005
  6
CONTINUOUS
 62
       7
100
AcDbLine
 10
-176.44825704
 20
-212.64590492
 30
0.0
 11
-174.44825704
 21
-211.49090492
 31
0.0
  0
LINE
  5
5E2
100
AcDbEntity
  8
LAYER0005
  6
CONTINUOUS
 62
       7
100
AcDbLine
 10
-174.44825704
 20
-211.49090492
 30
0.0
 11
-174.44825704
 21
-207.64590492
 31
0.0
  0
ARC
  5
5E3
100
AcDbEntity
  8
LAYER0005
  6
CONTINUOUS
 62
       7
100
AcDbCircle
 10
-173.44825704
 20
-207.64590492
 30
0.0
 40
1.0
100
AcDbArc
 50
90.0
 51
180.0
  0
LINE
  5
5E4
100
AcDbEntity
  8
LAYER0005
  6
CONTINUOUS
 62
       7
100
AcDbLine
 10
-170.44825704
 20
-205.64590492
 30
0.0
 11
-170.44825704
 21
-205.0002487
 31
0.0
  0
ARC
  5
5E5
100
AcDbEntity
  8
LAYER0005
  6
CONTINUOUS
 62
       7
100
AcDbCircle
 10
-171.44825704
 20
-205.64590492
 30
0.0
 40
1.0
100
AcDbArc
 50
270.0
 51
360.0
  0
ELLIPSE
  5
5E6
100
AcDbEntity
  8
LAYER0005
  6
CONTINUOUS
 62
       7
100
AcDbEllipse
 10
-194.44825704
 20
-226.76440555
 30
0.0
 11
8.1278841035018559
 21
0.0
 31
0.0
210
0.0
220
0.0
230
1.0
 40
0.676683
 41
4.7123889803853665
 42
7.853981633973806
  0
ARC
  5
5E7
100
AcDbEntity
  8
LAYER0005
  6
CONTINUOUS
 62
       7
100
AcDbCircle
 10
-182.54547904
 20
-226.76440555
 30
0.0
 40
7.847222
100
AcDbArc
 50
315.501953
 51
404.498047
  0
ELLIPSE
  5
5E8
100
AcDbEntity
  8
LAYER0005
  6
CONTINUOUS
 62
       7
100
AcDbEllipse
 10
-178.85980004
 20
-226.76440555
 30
0.0
 11
0.0
 21
5.5000000000009095
 31
0.0
210
0.0
220
0.0
230
1.0
 40
0.738899
 41
0.0
 42
6.2831853071796004
  0
LINE
  5
5E9
100
AcDbEntity
  8
LAYER0005
  6
CONTINUOUS
 62
       7
100
AcDbLine
 10
-179.46425704
 20
-221.26440555
 30
0.0
 11
-179.46425704
 21
-212.64590492
 31
0.0
  0
LINE
  5
5EA
100
AcDbEntity
  8
LAYER0005
  6
CONTINUOUS
 62
       7
100
AcDbLine
 10
-178.44825704
 20
-212.64590492
 30
0.0
 11
-178.44825704
 21
-221.26440555
 31
0.0
  0
LINE
  5
5EB
100
AcDbEntity
  8
LAYER0005
  6
CONTINUOUS
 62
       7
100
AcDbLine
 10
-210.44825704
 20
-212.64590492
 30
0.0
 11
-210.44825704
 21
-221.26440555
 31
0.0
  0
LINE
  5
5EC
100
AcDbEntity
  8
LAYER0005
  6
CONTINUOUS
 62
       7
100
AcDbLine
 10
-209.43225704
 20
-221.26440555
 30
0.0
 11
-209.43225704
 21
-212.64590492
 31
0.0
  0
LINE
  5
5ED
100
AcDbEntity
  8
LAYER0005
  6
CONTINUOUS
 62
       7
100
AcDbLine
 10
-176.94825713
 20
-232.26440555
 30
0.0
 11
-211.94825704
 21
-232.26440555
 31
0.0
  0
LINE
  5
5EE
100
AcDbEntity
  8
LAYER0005
  6
CONTINUOUS
 62
       7
100
AcDbLine
 10
-211.94825704
 20
-221.26440555
 30
0.0
 11
-176.94825713
 21
-221.26440555
 31
0.0
  0
ELLIPSE
  5
5EF
100
AcDbEntity
  8
LAYER0005
  6
CONTINUOUS
 62
       7
100
AcDbEllipse
 10
-210.03671404
 20
-226.76440555
 30
0.0
 11
0.0
 21
5.5000000000009095
 31
0.0
210
0.0
220
0.0
230
1.0
 40
0.738899
 41
0.0
 42
6.2831853071796004
  0
ARC
  5
5F0
100
AcDbEntity
  8
LAYER0005
  6
CONTINUOUS
 62
       7
100
AcDbCircle
 10
-206.35103504
 20
-226.76440555
 30
0.0
 40
7.847222
100
AcDbArc
 50
135.501953
 51
224.498047
  0
ELLIPSE
  5
5F1
100
AcDbEntity
  8
LAYER0005
  6
CONTINUOUS
 62
       7
100
AcDbEllipse
 10
-194.44825704
 20
-226.76440555
 30
0.0
 11
-8.1278841034873039
 21
0.0
 31
0.0
210
0.0
220
0.0
230
1.0
 40
0.676683
 41
4.7123889803853665
 42
7.853981633973806
  0
ARC
  5
5F2
100
AcDbEntity
  8
LAYER0005
  6
CONTINUOUS
 62
       7
100
AcDbCircle
 10
-217.44825704
 20
-205.64590492
 30
0.0
 40
1.0
100
AcDbArc
 50
180.0
 51
270.0
  0
LINE
  5
5F3
100
AcDbEntity
  8
LAYER0005
  6
CONTINUOUS
 62
       7
100
AcDbLine
 10
-218.44825704
 20
-205.64590492
 30
0.0
 11
-218.44825704
 21
-205.0002487
 31
0.0
  0
ARC
  5
5F4
100
AcDbEntity
  8
LAYER0005
  6
CONTINUOUS
 62
       7
100
AcDbCircle
 10
-215.44825704
 20
-207.64590492
 30
0.0
 40
1.0
100
AcDbArc
 50
0.0
 51
90.0
  0
LINE
  5
5F5
100
AcDbEntity
  8
LAYER0005
  6
CONTINUOUS
 62
       7
100
AcDbLine
 10
-214.44825704
 20
-211.49090492
 30
0.0
 11
-214.44825704
 21
-207.64590492
 31
0.0
  0
LINE
  5
5F6
100
AcDbEntity
  8
LAYER0005
  6
CONTINUOUS
 62
       7
100
AcDbLine
 10
-212.44825704
 20
-212.64590492
 30
0.0
 11
-214.44825704
 21
-211.49090492
 31
0.0
  0
ARC
  5
5F7
100
AcDbEntity
  8
LAYER0005
  6
CONTINUOUS
 62
       7
100
AcDbCircle
 10
-194.44825704
 20
-179.15990492
 30
0.0
 40
33.486
100
AcDbArc
 50
254.91
 51
270.0
  0
LINE
  5
5F8
100
AcDbEntity
  8
LAYER0005
  6
CONTINUOUS
 62
       7
100
AcDbLine
 10
-205.67825704
 20
-211.49090492
 30
0.0
 11
-203.16625704
 21
-211.49090492
 31
0.0
  0
ARC
  5
5F9
100
AcDbEntity
  8
LAYER0005
  6
CONTINUOUS
 62
       7
100
AcDbCircle
 10
-210.06325704
 20
-203.74190492
 30
0.0
 40
8.904
100
AcDbArc
 50
270.0
 51
299.504
  0
LINE
  5
5FA
100
AcDbEntity
  8
LAYER0005
  6
CONTINUOUS
 62
       7
100
AcDbLine
 10
-203.16625704
 20
-206.64590492
 30
0.0
 11
-203.16625704
 21
-211.49090492
 31
0.0
  0
LINE
  5
5FB
100
AcDbEntity
  8
LAYER0005
  6
CONTINUOUS
 62
       7
100
AcDbLine
 10
-205.67825704
 20
-206.64590492
 30
0.0
 11
-205.67825704
 21
-211.49090492
 31
0.0
  0
LINE
  5
5FC
100
AcDbEntity
  8
LAYER0005
  6
DASHED2
 62
       7
100
AcDbLine
 10
-168.44825704
 20
-204.14590492
 30
0.0
 11
-220.44825704
 21
-204.14590492
 31
0.0
  0
LINE
  5
5FD
100
AcDbEntity
  8
LAYER0005
  6
DASHED2
 62
       7
100
AcDbLine
 10
-168.44825704
 20
-203.14590492
 30
0.0
 11
-220.44825704
 21
-203.14590492
 31
0.0
  0
LINE
  5
5FE
100
AcDbEntity
  8
LAYER0005
  6
DASHED2
 62
       7
100
AcDbLine
 10
-168.44825704
 20
-204.14590492
 30
0.0
 11
-168.44825704
 21
-203.14590492
 31
0.0
  0
LINE
  5
5FF
100
AcDbEntity
  8
LAYER0005
  6
DASHED2
 62
       7
100
AcDbLine
 10
-218.44825704
 20
-204.64590492
 30
0.0
 11
-170.44825704
 21
-204.64590492
 31
0.0
  0
LINE
  5
600
100
AcDbEntity
  8
LAYER0005
  6
DASHED2
 62
       7
100
AcDbLine
 10
-220.44825704
 20
-204.14590492
 30
0.0
 11
-220.44825704
 21
-203.14590492
 31
0.0
  0
LINE
  5
601
100
AcDbEntity
  8
LAYER0005
  6
CENTER
 62
       7
100
AcDbLine
 10
-194.44335865
 20
-180.7716244
 30
0.0
 11
-194.44335865
 21
-301.9626595
 31
0.0
  0
LINE
  5
602
100
AcDbEntity
  8
LAYER0006
  6
CENTER
 62
       7
100
AcDbLine
 10
-143.44266026
 20
-286.73130084
 30
0.0
 11
-143.44266026
 21
-100.03260244
 31
0.0
  0
TEXT
  5
603
100
AcDbEntity
  8
0
 62
       7
100
AcDbText
 10
-331.74434104
 20
-47.41011065
 30
0.0
 40
16.0
  1
※別売のRW104B/Sを装着した状態。
 41
0.7407
 72
       5
 11
-75.74434104
 21
-47.41011065
 31
0.0
100
AcDbText
  0
TEXT
  5
604
100
AcDbEntity
  8
0
 62
       7
100
AcDbText
 10
249.88643828
 20
-41.98709148
 30
0.0
 40
16.0
  1
W.L.
 41
0.8
 72
       5
 11
301.08643828
 21
-41.98709148
 31
0.0
100
AcDbText
  0
ENDSEC
  0
SECTION
  2
OBJECTS
  0
DICTIONARY
  5
19
100
AcDbDictionary
  3
ACAD_GROUP
350
1A
  3
ACAD_MLINESTYLE
350
1B
  0
DICTIONARY
  5
1A
102
{ACAD_REACTORS
330
19
102
}
100
AcDbDictionary
  0
DICTIONARY
  5
1B
102
{ACAD_REACTORS
330
19
102
}
100
AcDbDictionary
  3
STANDARD
350
1C
  0
MLINESTYLE
  5
1C
102
{ACAD_REACTORS
330
1B
102
}
100
AcDbMlineStyle
  2
STANDARD
 70
       0
  3

 62
       0
 51
90.0
 52
90.0
 71
       2
 49
0.5
 62
     256
  6
BYLAYER
 49
-0.5
 62
     256
  6
BYLAYER
  0
ENDSEC
  0
EOF
