  0
SECTION
  2
HEADER
  9
$ACADVER
  1
AC1009
  9
$INSBASE
 10
0.0
 20
0.0
 30
0.0
  9
$EXTMIN
 10
-4.7012099999999988
 20
-21.071000000000002
 30
0.0
  9
$EXTMAX
 10
205.30099999999999
 20
275.93099999999998
 30
0.0
  9
$LIMMIN
 10
0.0
 20
0.0
  9
$LIMMAX
 10
12.0
 20
9.0
  9
$ORTHOMODE
 70
     0
  9
$REGENMODE
 70
     1
  9
$FILLMODE
 70
     1
  9
$QTEXTMODE
 70
     0
  9
$MIRRTEXT
 70
     1
  9
$DRAGMODE
 70
     2
  9
$LTSCALE
 40
1.0
  9
$OSMODE
 70
    37
  9
$ATTMODE
 70
     1
  9
$TEXTSIZE
 40
0.0
  9
$TRACEWID
 40
0.05
  9
$TEXTSTYLE
  7
STANDARD
  9
$CLAYER
  8
0
  9
$CELTYPE
  6
CONTINUOUS
  9
$CECOLOR
 62
   256
  9
$DIMSCALE
 40
1.0
  9
$DIMASZ
 40
0.18
  9
$DIMEXO
 40
0.0625
  9
$DIMDLI
 40
0.38
  9
$DIMRND
 40
0.0
  9
$DIMDLE
 40
0.0
  9
$DIMEXE
 40
0.18
  9
$DIMTP
 40
0.0
  9
$DIMTM
 40
0.0
  9
$DIMTXT
 40
0.18
  9
$DIMCEN
 40
0.09
  9
$DIMTSZ
 40
0.0
  9
$DIMTOL
 70
     0
  9
$DIMLIM
 70
     0
  9
$DIMTIH
 70
     1
  9
$DIMTOH
 70
     1
  9
$DIMSE1
 70
     0
  9
$DIMSE2
 70
     0
  9
$DIMTAD
 70
     0
  9
$DIMZIN
 70
     0
  9
$DIMBLK
  1

  9
$DIMASO
 70
     1
  9
$DIMSHO
 70
     1
  9
$DIMPOST
  1

  9
$DIMAPOST
  1

  9
$DIMALT
 70
     0
  9
$DIMALTD
 70
     2
  9
$DIMALTF
 40
25.399999999999999
  9
$DIMLFAC
 40
1.0
  9
$DIMTOFL
 70
     0
  9
$DIMTVP
 40
0.0
  9
$DIMTIX
 70
     0
  9
$DIMSOXD
 70
     0
  9
$DIMSAH
 70
     0
  9
$DIMBLK1
  1

  9
$DIMBLK2
  1

  9
$DIMSTYLE
  2
STANDARD
  9
$DIMCLRD
 70
     0
  9
$DIMCLRE
 70
     0
  9
$DIMCLRT
 70
     0
  9
$DIMTFAC
 40
1.0
  9
$DIMGAP
 40
0.09
  9
$LUNITS
 70
     2
  9
$LUPREC
 70
     4
  9
$SKETCHINC
 40
0.1
  9
$FILLETRAD
 40
0.0
  9
$AUNITS
 70
     0
  9
$AUPREC
 70
     0
  9
$MENU
  1
.
  9
$ELEVATION
 40
0.0
  9
$PELEVATION
 40
0.0
  9
$THICKNESS
 40
0.0
  9
$LIMCHECK
 70
     0
  9
$BLIPMODE
 70
     0
  9
$CHAMFERA
 40
0.0
  9
$CHAMFERB
 40
0.0
  9
$SKPOLY
 70
     0
  9
$TDCREATE
 40
2444972.375
  9
$TDUPDATE
 40
2457663.2479795949
  9
$TDINDWG
 40
0.0000300116
  9
$TDUSRTIMER
 40
0.0000300116
  9
$USRTIMER
 70
     1
  9
$ANGBASE
 50
0.0
  9
$ANGDIR
 70
     0
  9
$PDMODE
 70
     0
  9
$PDSIZE
 40
0.0
  9
$PLINEWID
 40
0.0
  9
$COORDS
 70
     1
  9
$SPLFRAME
 70
     0
  9
$SPLINETYPE
 70
     6
  9
$SPLINESEGS
 70
     8
  9
$ATTDIA
 70
     1
  9
$ATTREQ
 70
     1
  9
$HANDLING
 70
     1
  9
$HANDSEED
  5
44B
  9
$SURFTAB1
 70
     6
  9
$SURFTAB2
 70
     6
  9
$SURFTYPE
 70
     6
  9
$SURFU
 70
     6
  9
$SURFV
 70
     6
  9
$UCSNAME
  2

  9
$UCSORG
 10
0.0
 20
0.0
 30
0.0
  9
$UCSXDIR
 10
1.0
 20
0.0
 30
0.0
  9
$UCSYDIR
 10
0.0
 20
1.0
 30
0.0
  9
$PUCSNAME
  2

  9
$PUCSORG
 10
0.0
 20
0.0
 30
0.0
  9
$PUCSXDIR
 10
1.0
 20
0.0
 30
0.0
  9
$PUCSYDIR
 10
0.0
 20
1.0
 30
0.0
  9
$USERI1
 70
     0
  9
$USERI2
 70
     0
  9
$USERI3
 70
     0
  9
$USERI4
 70
     0
  9
$USERI5
 70
     0
  9
$USERR1
 40
0.0
  9
$USERR2
 40
0.0
  9
$USERR3
 40
0.0
  9
$USERR4
 40
0.0
  9
$USERR5
 40
0.0
  9
$WORLDVIEW
 70
     1
  9
$SHADEDGE
 70
     3
  9
$SHADEDIF
 70
    70
  9
$TILEMODE
 70
     1
  9
$MAXACTVP
 70
    48
  9
$PLIMCHECK
 70
     0
  9
$PEXTMIN
 10
1.0000000000000000E+020
 20
1.0000000000000000E+020
 30
1.0000000000000000E+020
  9
$PEXTMAX
 10
-1.0000000000000000E+020
 20
-1.0000000000000000E+020
 30
-1.0000000000000000E+020
  9
$PLIMMIN
 10
0.0
 20
0.0
  9
$PLIMMAX
 10
12.0
 20
9.0
  9
$UNITMODE
 70
     0
  9
$VISRETAIN
 70
     1
  9
$PLINEGEN
 70
     0
  9
$PSLTSCALE
 70
     1
  0
ENDSEC
  0
SECTION
  2
TABLES
  0
TABLE
  2
VPORT
 70
     1
  0
VPORT
  2
*ACTIVE
 70
     0
 10
0.0
 20
0.0
 11
1.0
 21
1.0
 12
173.05850873675899
 22
127.42999999999989
 13
0.0
 23
0.0
 14
1.0
 24
1.0
 15
0.0
 25
0.0
 16
0.0
 26
0.0
 36
1.0
 17
0.0
 27
0.0
 37
0.0
 40
289.64129411868203
 41
2.1063583815028899
 42
50.0
 43
0.0
 44
0.0
 50
0.0
 51
0.0
 71
     0
 72
   100
 73
     1
 74
     1
 75
     0
 76
     0
 77
     0
 78
     0
  0
ENDTAB
  0
TABLE
  2
LTYPE
 70
     2
  0
LTYPE
  2
CONTINUOUS
 70
     0
  3
Solid line
 72
    65
 73
     0
 40
0.0
  0
LTYPE
  2
AIGENLINE001
 70
     0
  3
generate AI->DXF Converter
 72
    65
 73
     4
 40
5.8561449999999988
 49
3.5278
 49
-0.776115
 49
0.776115
 49
-0.776115
  0
ENDTAB
  0
TABLE
  2
LAYER
 70
     2
  0
LAYER
  2
0
 70
     0
 62
     7
  6
CONTINUOUS
  0
LAYER
  2
_________2
 70
     0
 62
     7
  6
CONTINUOUS
  0
ENDTAB
  0
TABLE
  2
STYLE
 70
     1
  0
STYLE
  2
STANDARD
 70
     0
 40
0.0
 41
0.0
 50
0.0
 71
     0
 42
0.0
  3
TXT
  4
EXTFONT.SHX
  0
ENDTAB
  0
TABLE
  2
VIEW
 70
     0
  0
ENDTAB
  0
TABLE
  2
UCS
 70
     0
  0
ENDTAB
  0
TABLE
  2
APPID
 70
     3
  0
APPID
  2
ACAD
 70
     0
  0
APPID
  2
ACAD_NAV_VCDISPLAY
 70
     0
  0
APPID
  2
ACAD_MLEADERVER
 70
     0
  0
ENDTAB
  0
TABLE
  2
DIMSTYLE
 70
     1
  0
DIMSTYLE
  2
STANDARD
 70
     0
  3

  4

  5

  6

  7

 40
1.0
 41
0.18
 42
0.0625
 43
0.38
 44
0.18
 45
0.0
 46
0.0
 47
0.0
 48
0.0
140
0.18
141
0.09
142
0.0
143
25.399999999999999
144
1.0
145
0.0
146
1.0
147
0.09
 71
     0
 72
     0
 73
     1
 74
     1
 75
     0
 76
     0
 77
     0
 78
     0
170
     0
171
     2
172
     0
173
     0
174
     0
175
     0
176
     0
177
     0
178
     0
  0
ENDTAB
  0
ENDSEC
  0
SECTION
  2
BLOCKS
  0
BLOCK
  8
0
  2
$MODEL_SPACE
 70
     0
 10
0.0
 20
0.0
 30
0.0
  3
$MODEL_SPACE
  1

  0
ENDBLK
  5
1A
  8
0
  0
BLOCK
 67
     1
  8
0
  2
$PAPER_SPACE
 70
     0
 10
0.0
 20
0.0
 30
0.0
  3
$PAPER_SPACE
  1

  0
ENDBLK
  5
17
 67
     1
  8
0
  0
ENDSEC
  0
SECTION
  2
ENTITIES
  0
TEXT
  5
22
  8
0
 62
     7
 10
20.139500000000002
 20
38.674199999999999
 30
0.0
 40
3.9357000000000002
  1
※カラー：クロム
 41
0.5
  0
TEXT
  5
23
  8
0
 62
     7
 10
144.99240624999999
 20
172.06700000000001
 30
0.0
 40
3.0922499999999991
  1
20
 41
0.5
 72
     1
 11
146.15199999999999
 21
172.06700000000001
 31
0.0
  0
TEXT
  5
24
  8
0
 62
     7
 10
77.280600000000007
 20
187.28899999999999
 30
0.0
 40
3.0922499999999991
  1
268
 41
0.5
 72
     1
 11
79.342100000000002
 21
187.28899999999999
 31
0.0
  0
TEXT
  5
25
  8
0
 62
     7
 10
28.682200000000002
 20
168.49299999999999
 30
0.0
 40
3.0923400000000001
  1
両面鏡（片面は拡大鏡）
 41
0.5
  0
TEXT
  5
26
  8
0
 62
     7
 10
28.682200000000002
 20
164.62799999999999
 30
0.0
 40
3.0923400000000001
  1
鏡回転　360%%d
 41
0.5
  0
TEXT
  5
27
  8
0
 62
     7
 10
85.847867923891414
 20
140.87076792389141
 30
0.0
 40
3.0922499999999991
  1
%%c240
 50
45.0
 41
0.5
 72
     1
 11
87.761099999999999
 21
142.78399999999999
 31
0.0
  0
TEXT
  5
28
  8
0
 62
     7
 10
85.977332041895252
 20
124.9756797264467
 30
0.0
 40
3.0922499999999991
  1
%%c220
 50
2.06128
 41
0.5
 72
     1
 11
88.681299999999979
 21
125.07299999999999
 31
0.0
  0
TEXT
  5
29
  8
0
 62
     7
 10
169.10400000000001
 20
115.97450000000001
 30
0.0
 40
3.0922499999999991
  1
363
 50
90.0
 41
0.5
 72
     1
 11
169.10400000000001
 21
118.036
 31
0.0
  0
TEXT
  5
2A
  8
0
 62
     7
 10
36.8354
 20
100.97450000000001
 30
0.0
 40
3.0922499999999991
  1
243
 50
90.0
 41
0.5
 72
     1
 11
36.8354
 21
103.036
 31
0.0
  0
TEXT
  5
2B
  8
0
 62
     7
 10
112.6014375
 20
86.714299999999994
 30
0.0
 40
3.0922499999999991
  1
BROT
 41
0.5
 72
     1
 11
115.43600000000001
 21
86.714299999999994
 31
0.0
  0
TEXT
  5
2C
  8
0
 62
     7
 10
76.894068750000002
 20
59.1813
 30
0.0
 40
3.0922499999999991
  1
%%c120
 41
0.5
 72
     1
 11
79.342100000000002
 21
59.1813
 31
0.0
  0
LINE
  5
2D
  8
0
 62
     7
 10
105.937
 20
86.014200000000002
 30
0.0
 11
124.934
 21
86.014200000000002
 31
0.0
  0
LINE
  5
2E
  8
0
 62
     7
 10
142.50999999999999
 20
102.928
 30
0.0
 11
143.42500000000001
 21
104.514
 31
0.0
  0
LINE
  5
2F
  8
0
 62
     7
 10
143.42500000000001
 20
104.514
 30
0.0
 11
141.84
 21
103.599
 31
0.0
  0
LINE
  5
30
  8
0
 62
     7
 10
141.84
 20
103.599
 30
0.0
 11
142.50999999999999
 21
102.928
 31
0.0
  0
LINE
  5
31
  8
0
 62
     7
 10
124.934
 20
86.014200000000002
 30
0.0
 11
143.41399999999999
 21
104.495
 31
0.0
  0
LINE
  5
32
  8
0
 62
     7
 10
45.841900000000003
 20
210.37700000000001
 30
0.0
 11
45.841900000000003
 21
185.887
 31
0.0
  0
LINE
  5
33
  8
0
 62
     7
 10
143.67599999999999
 20
172.06399999999999
 30
0.0
 11
143.67599999999999
 21
163.821
 31
0.0
  0
LINE
  5
34
  8
0
 62
     7
 10
148.62899999999999
 20
172.06399999999999
 30
0.0
 11
148.62899999999999
 21
163.821
 31
0.0
  0
LINE
  5
35
  8
0
 62
     7
 10
145.44499999999999
 20
171.827
 30
0.0
 11
143.67599999999999
 21
171.35299999999989
 31
0.0
  0
LINE
  5
36
  8
0
 62
     7
 10
143.67599999999999
 20
171.35299999999989
 30
0.0
 11
145.44499999999999
 21
170.87899999999999
 31
0.0
  0
LINE
  5
37
  8
0
 62
     7
 10
145.44499999999999
 20
170.87899999999999
 30
0.0
 11
145.44499999999999
 21
171.827
 31
0.0
  0
LINE
  5
38
  8
0
 62
     7
 10
146.86099999999999
 20
170.89099999999999
 30
0.0
 11
148.62899999999999
 21
171.364
 31
0.0
  0
LINE
  5
39
  8
0
 62
     7
 10
148.62899999999999
 20
171.364
 30
0.0
 11
146.86099999999999
 21
171.83799999999999
 31
0.0
  0
LINE
  5
3A
  8
0
 62
     7
 10
146.86099999999999
 20
171.83799999999999
 30
0.0
 11
146.86099999999999
 21
170.89099999999999
 31
0.0
  0
LINE
  5
3B
  8
0
 62
     7
 10
143.697
 20
171.35900000000001
 30
0.0
 11
148.607
 21
171.35900000000001
 31
0.0
  0
LINE
  5
3C
  8
0
 62
     7
 10
112.842
 20
210.37700000000001
 30
0.0
 11
112.842
 21
185.887
 31
0.0
  0
LINE
  5
3D
  8
0
 62
     7
 10
47.610700000000001
 20
187.05000000000001
 30
0.0
 11
45.841900000000003
 21
186.57599999999999
 31
0.0
  0
LINE
  5
3E
  8
0
 62
     7
 10
45.841900000000003
 20
186.57599999999999
 30
0.0
 11
47.610700000000001
 21
186.102
 31
0.0
  0
LINE
  5
3F
  8
0
 62
     7
 10
47.610700000000001
 20
186.102
 30
0.0
 11
47.610700000000001
 21
187.05000000000001
 31
0.0
  0
LINE
  5
40
  8
0
 62
     7
 10
111.074
 20
186.114
 30
0.0
 11
112.842
 21
186.58699999999999
 31
0.0
  0
LINE
  5
41
  8
0
 62
     7
 10
112.842
 20
186.58699999999999
 30
0.0
 11
111.074
 21
187.06100000000001
 31
0.0
  0
LINE
  5
42
  8
0
 62
     7
 10
111.074
 20
187.06100000000001
 30
0.0
 11
111.074
 21
186.114
 31
0.0
  0
LINE
  5
43
  8
0
 62
     7
 10
45.863300000000002
 20
186.58199999999999
 30
0.0
 11
112.821
 21
186.58199999999999
 31
0.0
  0
LINE
  5
44
  8
0
 62
     7
 10
71.902900000000002
 20
152.70099999999999
 30
0.0
 11
61.502099999999999
 21
163.102
 31
0.0
  0
LINE
  5
45
  8
0
 62
     7
 10
28.682200000000002
 20
163.102
 30
0.0
 11
61.502099999999999
 21
163.102
 31
0.0
  0
LINE
  5
46
  8
0
 62
     7
 10
94.342299999999994
 20
71.960599999999999
 30
0.0
 11
94.342299999999994
 21
57.77879999999999
 31
0.0
  0
LINE
  5
47
  8
0
 62
     7
 10
149.226
 20
163.411
 30
0.0
 11
170.517
 21
163.411
 31
0.0
  0
LINE
  5
48
  8
0
 62
     7
 10
161.876
 20
72.660600000000002
 30
0.0
 11
170.517
 21
72.660600000000002
 31
0.0
  0
LINE
  5
49
  8
0
 62
     7
 10
169.34399999999999
 20
74.429299999999998
 30
0.0
 11
169.81700000000001
 21
72.660600000000002
 31
0.0
  0
LINE
  5
4A
  8
0
 62
     7
 10
169.81700000000001
 20
72.660600000000002
 30
0.0
 11
170.291
 21
74.429299999999998
 31
0.0
  0
LINE
  5
4B
  8
0
 62
     7
 10
170.291
 20
74.429299999999998
 30
0.0
 11
169.34399999999999
 21
74.429299999999998
 31
0.0
  0
LINE
  5
4C
  8
0
 62
     7
 10
170.28
 20
161.643
 30
0.0
 11
169.80600000000001
 21
163.411
 31
0.0
  0
LINE
  5
4D
  8
0
 62
     7
 10
169.80600000000001
 20
163.411
 30
0.0
 11
169.33199999999999
 21
161.643
 31
0.0
  0
LINE
  5
4E
  8
0
 62
     7
 10
169.33199999999999
 20
161.643
 30
0.0
 11
170.28
 21
161.643
 31
0.0
  0
LINE
  5
4F
  8
0
 62
     7
 10
169.81200000000001
 20
72.682000000000002
 30
0.0
 11
169.81200000000001
 21
163.38999999999999
 31
0.0
  0
LINE
  5
50
  8
0
 62
     7
 10
36.148800000000001
 20
133.411
 30
0.0
 11
43.312499999999993
 21
133.411
 31
0.0
  0
LINE
  5
51
  8
0
 62
     7
 10
36.148800000000001
 20
72.660600000000002
 30
0.0
 11
63.642000000000003
 21
72.660600000000002
 31
0.0
  0
LINE
  5
52
  8
0
 62
     7
 10
64.341999999999999
 20
71.960599999999999
 30
0.0
 11
64.341999999999999
 21
57.660600000000002
 31
0.0
  0
LINE
  5
53
  8
0
 62
     7
 10
59.068300000000001
 20
113.76000000000001
 30
0.0
 11
58.1524
 21
112.17400000000001
 31
0.0
  0
LINE
  5
54
  8
0
 62
     7
 10
58.1524
 20
112.17400000000001
 30
0.0
 11
59.738199999999992
 21
113.09
 31
0.0
  0
LINE
  5
55
  8
0
 62
     7
 10
59.738199999999992
 20
113.09
 30
0.0
 11
59.068300000000001
 21
113.76000000000001
 31
0.0
  0
LINE
  5
56
  8
0
 62
     7
 10
99.663600000000017
 20
153.01599999999999
 30
0.0
 11
100.578
 21
154.601
 31
0.0
  0
LINE
  5
57
  8
0
 62
     7
 10
100.578
 20
154.601
 30
0.0
 11
98.993200000000016
 21
153.68600000000001
 31
0.0
  0
LINE
  5
58
  8
0
 62
     7
 10
98.993200000000016
 20
153.68600000000001
 30
0.0
 11
99.663600000000017
 21
153.01599999999999
 31
0.0
  0
LINE
  5
59
  8
0
 62
     7
 10
58.163600000000002
 20
112.193
 30
0.0
 11
100.578
 21
154.601
 31
0.0
  0
LINE
  5
5A
  8
0
 62
     7
 10
89.014799999999994
 20
103.598
 30
0.0
 11
87.429299999999984
 21
104.514
 31
0.0
  0
LINE
  5
5B
  8
0
 62
     7
 10
87.429299999999984
 20
104.514
 30
0.0
 11
88.344999999999999
 21
102.928
 31
0.0
  0
LINE
  5
5C
  8
0
 62
     7
 10
88.344999999999999
 20
102.928
 30
0.0
 11
89.014799999999994
 21
103.598
 31
0.0
  0
LINE
  5
5D
  8
0
 62
     7
 10
87.448599999999999
 20
104.503
 30
0.0
 11
105.937
 21
86.014200000000002
 31
0.0
  0
LINE
  5
5E
  8
0
 62
     7
 10
61.478499999999997
 20
151.93700000000001
 30
0.0
 11
59.892699999999998
 21
152.852
 31
0.0
  0
LINE
  5
5F
  8
0
 62
     7
 10
59.892699999999998
 20
152.852
 30
0.0
 11
60.808599999999998
 21
151.267
 31
0.0
  0
LINE
  5
60
  8
0
 62
     7
 10
60.808599999999998
 20
151.267
 30
0.0
 11
61.478499999999997
 21
151.93700000000001
 31
0.0
  0
LINE
  5
61
  8
0
 62
     7
 10
97.206599999999995
 20
114.88500000000001
 30
0.0
 11
98.791300000000007
 21
113.97
 31
0.0
  0
LINE
  5
62
  8
0
 62
     7
 10
98.791300000000007
 20
113.97
 30
0.0
 11
97.876300000000001
 21
115.55500000000001
 31
0.0
  0
LINE
  5
63
  8
0
 62
     7
 10
97.876300000000001
 20
115.55500000000001
 30
0.0
 11
97.206599999999995
 21
114.88500000000001
 31
0.0
  0
LINE
  5
64
  8
0
 62
     7
 10
59.911999999999999
 20
152.84100000000001
 30
0.0
 11
98.772700000000015
 21
113.98099999999999
 31
0.0
  0
LINE
  5
65
  8
0
 62
     7
 10
37.075099999999999
 20
74.429299999999998
 30
0.0
 11
37.5488
 21
72.660600000000002
 31
0.0
  0
LINE
  5
66
  8
0
 62
     7
 10
37.5488
 20
72.660600000000002
 30
0.0
 11
38.022599999999997
 21
74.429299999999998
 31
0.0
  0
LINE
  5
67
  8
0
 62
     7
 10
38.022599999999997
 20
74.429299999999998
 30
0.0
 11
37.075099999999999
 21
74.429299999999998
 31
0.0
  0
LINE
  5
68
  8
0
 62
     7
 10
38.01080000000001
 20
131.643
 30
0.0
 11
37.537500000000001
 21
133.411
 31
0.0
  0
LINE
  5
69
  8
0
 62
     7
 10
37.537500000000001
 20
133.411
 30
0.0
 11
37.063400000000001
 21
131.643
 31
0.0
  0
LINE
  5
6A
  8
0
 62
     7
 10
37.063400000000001
 20
131.643
 30
0.0
 11
38.01080000000001
 21
131.643
 31
0.0
  0
LINE
  5
6B
  8
0
 62
     7
 10
37.542999999999999
 20
72.682000000000002
 30
0.0
 11
37.542999999999999
 21
133.38900000000001
 31
0.0
  0
LINE
  5
6C
  8
0
 62
     7
 10
66.110799999999998
 20
58.941499999999991
 30
0.0
 11
64.341999999999999
 21
58.46779999999999
 31
0.0
  0
LINE
  5
6D
  8
0
 62
     7
 10
64.341999999999999
 20
58.46779999999999
 30
0.0
 11
66.110799999999998
 21
57.994100000000003
 31
0.0
  0
LINE
  5
6E
  8
0
 62
     7
 10
66.110799999999998
 20
57.994100000000003
 30
0.0
 11
66.110799999999998
 21
58.941499999999991
 31
0.0
  0
LINE
  5
6F
  8
0
 62
     7
 10
92.574299999999994
 20
58.005800000000001
 30
0.0
 11
94.342299999999994
 21
58.479100000000003
 31
0.0
  0
LINE
  5
70
  8
0
 62
     7
 10
94.342299999999994
 20
58.479100000000003
 30
0.0
 11
92.574299999999994
 21
58.953200000000002
 31
0.0
  0
LINE
  5
71
  8
0
 62
     7
 10
92.574299999999994
 20
58.953200000000002
 30
0.0
 11
92.574299999999994
 21
58.005800000000001
 31
0.0
  0
LINE
  5
72
  8
0
 62
     7
 10
64.363399999999999
 20
58.473599999999998
 30
0.0
 11
94.320899999999995
 21
58.473599999999998
 31
0.0
  0
LINE
  5
73
  8
0
 62
     7
 10
143.74299999999999
 20
103.661
 30
0.0
 11
143.42500000000001
 21
103.661
 31
0.0
  0
LINE
  5
74
  8
0
 62
     7
 10
143.42500000000001
 20
107.196
 30
0.0
 11
143.42500000000001
 21
103.661
 31
0.0
  0
LINE
  5
75
  8
0
 62
     7
 10
143.67500000000001
 20
107.196
 30
0.0
 11
143.42500000000001
 21
107.196
 31
0.0
  0
LINE
  5
76
  8
0
 62
     7
 10
77.632300000000001
 20
105.23099999999999
 30
0.0
 11
77.605199999999996
 21
104.721
 31
0.0
  0
LINE
  5
77
  8
0
 62
     7
 10
77.605199999999996
 20
104.721
 30
0.0
 11
77.659099999999995
 21
104.718
 31
0.0
  0
ARC
  5
78
  8
0
 62
     7
 10
77.729363000000006
 20
106.035956
 30
0.0
 40
1.320039999999999
 50
266.95078000000001
 51
271.12405200000001
  0
ARC
  5
79
  8
0
 62
     7
 10
77.748170000000002
 20
105.177386
 30
0.0
 40
0.461271
 50
270.88038399999999
 51
283.65518400000002
  0
ARC
  5
7A
  8
0
 62
     7
 10
77.805226000000005
 20
104.91901
 30
0.0
 40
0.196807
 50
285.272426
 51
323.71325000000002
  0
ARC
  5
7B
  8
0
 62
     7
 10
77.787944999999993
 20
104.929951
 30
0.0
 40
0.217217
 50
324.08465799999999
 51
349.36909000000003
  0
ARC
  5
7C
  8
0
 62
     7
 10
77.639772999999991
 20
104.966973
 30
0.0
 40
0.369785
 50
347.96644500000002
 51
357.36689799999999
  0
ARC
  5
7D
  8
0
 62
     7
 10
77.612193000000005
 20
104.971485
 30
0.0
 40
0.397557
 50
356.89994200000001
 51
14.1
  0
ARC
  5
7E
  8
0
 62
     7
 10
77.80374599999999
 20
105.01247600000001
 30
0.0
 40
0.201908
 50
16.060862
 51
43.121971999999992
  0
ARC
  5
7F
  8
0
 62
     7
 10
77.809370999999999
 20
105.012349
 30
0.0
 40
0.197928
 50
44.262135000000001
 51
70.908527000000007
  0
ARC
  5
80
  8
0
 62
     7
 10
77.726478999999983
 20
104.80314799999999
 30
0.0
 40
0.4228500000000001
 50
69.565857999999992
 51
89.040631999999988
  0
LINE
  5
81
  8
0
 62
     7
 10
77.733599999999996
 20
105.226
 30
0.0
 11
77.632300000000001
 21
105.23099999999999
 31
0.0
  0
LINE
  5
82
  8
0
 62
     7
 10
77.602000000000004
 20
104.65900000000001
 30
0.0
 11
77.584599999999995
 21
104.333
 31
0.0
  0
ARC
  5
83
  8
0
 62
     7
 10
78.484277000000006
 20
104.285014
 30
0.0
 40
0.9009780000000001
 50
176.97115299999999
 51
182.177077
  0
ARC
  5
84
  8
0
 62
     7
 10
77.696123999999983
 20
104.25169699999999
 30
0.0
 40
0.112178
 50
180.464415
 51
200.32640499999999
  0
ARC
  5
85
  8
0
 62
     7
 10
77.667618000000004
 20
104.24937199999999
 30
0.0
 40
0.084992
 50
205.539108
 51
246.56972999999999
  0
ARC
  5
86
  8
0
 62
     7
 10
77.687352000000004
 20
104.277447
 30
0.0
 40
0.118801
 50
243.219246
 51
259.30656800000003
  0
ARC
  5
87
  8
0
 62
     7
 10
77.769067000000007
 20
104.664186
 30
0.0
 40
0.514058
 50
258.35525200000001
 51
268.230797
  0
LINE
  5
88
  8
0
 62
     7
 10
77.753200000000007
 20
104.15000000000001
 30
0.0
 11
77.751499999999993
 21
104.11799999999999
 31
0.0
  0
LINE
  5
89
  8
0
 62
     7
 10
77.751499999999993
 20
104.11799999999999
 30
0.0
 11
77.094999999999999
 21
104.15300000000001
 31
0.0
  0
LINE
  5
8A
  8
0
 62
     7
 10
77.094999999999999
 20
104.15300000000001
 30
0.0
 11
77.096599999999995
 21
104.185
 31
0.0
  0
ARC
  5
8B
  8
0
 62
     7
 10
77.140390999999994
 20
104.429125
 30
0.0
 40
0.247862
 50
259.81377700000002
 51
288.28826400000003
  0
ARC
  5
8C
  8
0
 62
     7
 10
77.178803000000002
 20
104.29122099999999
 30
0.0
 40
0.105091
 50
291.99917299999998
 51
324.80100399999998
  0
ARC
  5
8D
  8
0
 62
     7
 10
77.205763000000005
 20
104.264506
 30
0.0
 40
0.067953
 50
330.11191000000002
 51
350.12717099999998
  0
ARC
  5
8E
  8
0
 62
     7
 10
76.777152000000001
 20
104.357866
 30
0.0
 40
0.506561
 50
348.03578700000003
 51
358.936984
  0
LINE
  5
8F
  8
0
 62
     7
 10
77.283600000000007
 20
104.348
 30
0.0
 11
77.323899999999995
 21
105.105
 31
0.0
  0
ARC
  5
90
  8
0
 62
     7
 10
76.433511999999993
 20
105.154121
 30
0.0
 40
0.8917559999999999
 50
356.86554699999999
 51
2.009077
  0
ARC
  5
91
  8
0
 62
     7
 10
77.206824999999995
 20
105.184788
 30
0.0
 40
0.117897
 50
0.289685
 51
20.072095999999998
  0
ARC
  5
92
  8
0
 62
     7
 10
77.241164999999995
 20
105.189554
 30
0.0
 40
0.084324
 50
25.044701
 51
66.58886600000001
  0
ARC
  5
93
  8
0
 62
     7
 10
77.222994
 20
105.16296699999999
 30
0.0
 40
0.116103
 50
63.571305000000002
 51
78.378810999999999
  0
ARC
  5
94
  8
0
 62
     7
 10
77.145033999999995
 20
104.816529
 30
0.0
 40
0.4711899999999999
 50
77.579228999999998
 51
88.752030000000019
  0
LINE
  5
95
  8
0
 62
     7
 10
77.155299999999997
 20
105.288
 30
0.0
 11
77.156999999999996
 21
105.31999999999999
 31
0.0
  0
LINE
  5
96
  8
0
 62
     7
 10
77.156999999999996
 20
105.31999999999999
 30
0.0
 11
77.753
 21
105.288
 31
0.0
  0
ARC
  5
97
  8
0
 62
     7
 10
77.595794999999995
 20
102.310304
 30
0.0
 40
2.9817949999999991
 50
84.123841000000013
 51
86.977412999999999
  0
ARC
  5
98
  8
0
 62
     7
 10
77.797422999999995
 20
104.19286099999999
 30
0.0
 40
1.088516
 50
74.297387999999984
 51
84.536236999999986
  0
ARC
  5
99
  8
0
 62
     7
 10
77.975814
 20
104.88996899999999
 30
0.0
 40
0.369533
 50
39.150095
 51
71.670731000000004
  0
ARC
  5
9A
  8
0
 62
     7
 10
78.039023
 20
104.951077
 30
0.0
 40
0.282033
 50
356.7670700000001
 51
37.630009000000001
  0
ARC
  5
9B
  8
0
 62
     7
 10
78.043464
 20
104.95172599999999
 30
0.0
 40
0.277636
 50
306.11110100000002
 51
356.5814759999999
  0
ARC
  5
9C
  8
0
 62
     7
 10
78.015681999999998
 20
104.988139
 30
0.0
 40
0.323428
 50
285.50828799999999
 51
306.28557799999999
  0
ARC
  5
9D
  8
0
 62
     7
 10
77.919319999999999
 20
105.26816599999999
 30
0.0
 40
0.619286
 50
279.374413
 51
287.17207000000002
  0
LINE
  5
9E
  8
0
 62
     7
 10
78.020200000000003
 20
104.657
 30
0.0
 11
78.307699999999997
 21
104.246
 31
0.0
  0
ARC
  5
9F
  8
0
 62
     7
 10
79.103810999999993
 20
104.808181
 30
0.0
 40
0.974721
 50
215.237202
 51
222.80162999999999
  0
ARC
  5
A0
  8
0
 62
     7
 10
78.490605000000002
 20
104.278527
 30
0.0
 40
0.167291
 50
232.449759
 51
265.34058800000003
  0
LINE
  5
A1
  8
0
 62
     7
 10
78.477000000000004
 20
104.11199999999999
 30
0.0
 11
78.475300000000004
 21
104.08
 31
0.0
  0
LINE
  5
A2
  8
0
 62
     7
 10
78.475300000000004
 20
104.08
 30
0.0
 11
78.071399999999997
 21
104.101
 31
0.0
  0
LINE
  5
A3
  8
0
 62
     7
 10
78.071399999999997
 20
104.101
 30
0.0
 11
77.686199999999999
 21
104.655
 31
0.0
  0
LINE
  5
A4
  8
0
 62
     7
 10
77.686199999999999
 20
104.655
 30
0.0
 11
77.602000000000004
 21
104.65900000000001
 31
0.0
  0
LINE
  5
A5
  8
0
 62
     7
 10
76.896699999999996
 20
104.20699999999999
 30
0.0
 11
76.893600000000006
 21
104.175
 31
0.0
  0
LINE
  5
A6
  8
0
 62
     7
 10
76.893600000000006
 20
104.175
 30
0.0
 11
76.224900000000005
 21
104.238
 31
0.0
  0
LINE
  5
A7
  8
0
 62
     7
 10
76.224900000000005
 20
104.238
 30
0.0
 11
76.227900000000005
 21
104.26900000000001
 31
0.0
  0
LINE
  5
A8
  8
0
 62
     7
 10
76.227900000000005
 20
104.26900000000001
 30
0.0
 11
76.270399999999995
 21
104.265
 31
0.0
  0
ARC
  5
A9
  8
0
 62
     7
 10
76.298284999999993
 20
104.438547
 30
0.0
 40
0.175335
 50
260.85490099999998
 51
291.208147
  0
ARC
  5
AA
  8
0
 62
     7
 10
76.332886000000002
 20
104.34867800000001
 30
0.0
 40
0.079036
 50
291.39128299999999
 51
332.871466
  0
ARC
  5
AB
  8
0
 62
     7
 10
76.34863
 20
104.345152
 30
0.0
 40
0.063545
 50
329.22545300000002
 51
350.05835100000002
  0
ARC
  5
AC
  8
0
 62
     7
 10
75.855519999999984
 20
104.459073
 30
0.0
 40
0.569562
 50
347.33346499999999
 51
356.04431799999998
  0
LINE
  5
AD
  8
0
 62
     7
 10
76.423699999999997
 20
104.42
 30
0.0
 11
76.495699999999999
 21
105.185
 31
0.0
  0
ARC
  5
AE
  8
0
 62
     7
 10
75.561003999999997
 20
105.271131
 30
0.0
 40
0.9387209999999999
 50
354.710846
 51
359.76169599999997
  0
ARC
  5
AF
  8
0
 62
     7
 10
76.410084999999995
 20
105.27029
 30
0.0
 40
0.089684
 50
358.04233500000009
 51
17.265364000000002
  0
ARC
  5
B0
  8
0
 62
     7
 10
76.435028000000003
 20
105.275036
 30
0.0
 40
0.064521
 50
19.816075000000001
 51
40.543779999999991
  0
ARC
  5
B1
  8
0
 62
     7
 10
76.394879000000003
 20
105.240784
 30
0.0
 40
0.117295
 50
40.509613999999999
 51
57.739431999999979
  0
ARC
  5
B2
  8
0
 62
     7
 10
76.391587000000001
 20
105.238766
 30
0.0
 40
0.120771
 50
56.929710999999998
 51
71.539103999999995
  0
ARC
  5
B3
  8
0
 62
     7
 10
76.355219999999989
 20
105.131095
 30
0.0
 40
0.234417
 50
71.441249999999997
 51
85.461035999999993
  0
LINE
  5
B4
  8
0
 62
     7
 10
76.373800000000003
 20
105.36499999999999
 30
0.0
 11
76.331199999999995
 21
105.369
 31
0.0
  0
LINE
  5
B5
  8
0
 62
     7
 10
76.331199999999995
 20
105.369
 30
0.0
 11
76.334199999999996
 21
105.401
 31
0.0
  0
LINE
  5
B6
  8
0
 62
     7
 10
76.334199999999996
 20
105.401
 30
0.0
 11
77.003
 21
105.33799999999999
 31
0.0
  0
LINE
  5
B7
  8
0
 62
     7
 10
77.003
 20
105.33799999999999
 30
0.0
 11
77.000100000000003
 21
105.306
 31
0.0
  0
LINE
  5
B8
  8
0
 62
     7
 10
77.000100000000003
 20
105.306
 30
0.0
 11
76.957499999999996
 21
105.31
 31
0.0
  0
ARC
  5
B9
  8
0
 62
     7
 10
76.934271999999993
 20
105.08541
 30
0.0
 40
0.22545
 50
84.074565000000007
 51
107.56063
  0
ARC
  5
BA
  8
0
 62
     7
 10
76.895952000000008
 20
105.223821
 30
0.0
 40
0.082094
 50
111.210885
 51
151.65176
  0
ARC
  5
BB
  8
0
 62
     7
 10
76.878299999999996
 20
105.230288
 30
0.0
 40
0.063545
 50
149.22543300000001
 51
170.05833100000001
  0
ARC
  5
BC
  8
0
 62
     7
 10
77.371409999999997
 20
105.11636799999999
 30
0.0
 40
0.569562
 50
167.33344500000001
 51
176.044298
  0
LINE
  5
BD
  8
0
 62
     7
 10
76.803200000000004
 20
105.15600000000001
 30
0.0
 11
76.731200000000001
 21
104.39100000000001
 31
0.0
  0
ARC
  5
BE
  8
0
 62
     7
 10
77.633566000000002
 20
104.30725700000001
 30
0.0
 40
0.9062269999999999
 50
174.707795
 51
179.84351899999999
  0
ARC
  5
BF
  8
0
 62
     7
 10
76.821781999999999
 20
104.306758
 30
0.0
 40
0.094486
 50
178.19657900000001
 51
197.60069100000001
  0
ARC
  5
C0
  8
0
 62
     7
 10
76.791531000000006
 20
104.30038999999999
 30
0.0
 40
0.0638
 50
200.365431
 51
220.916078
  0
ARC
  5
C1
  8
0
 62
     7
 10
76.834764000000007
 20
104.337957
 30
0.0
 40
0.121074
 50
220.95018400000001
 51
237.83219700000001
  0
ARC
  5
C2
  8
0
 62
     7
 10
76.835991000000007
 20
104.335151
 30
0.0
 40
0.119379
 50
236.61670899999999
 51
252.120644
  0
ARC
  5
C3
  8
0
 62
     7
 10
76.873238999999984
 20
104.450536
 30
0.0
 40
0.240628
 50
252.11480399999999
 51
265.46005300000002
  0
LINE
  5
C4
  8
0
 62
     7
 10
76.854200000000006
 20
104.211
 30
0.0
 11
76.896699999999996
 21
104.20699999999999
 31
0.0
  0
ARC
  5
C5
  8
0
 62
     7
 10
75.437543000000005
 20
105.163049
 30
0.0
 40
0.30713
 50
82.844311000000005
 51
144.35324800000001
  0
ARC
  5
C6
  8
0
 62
     7
 10
75.562612000000001
 20
105.06023399999999
 30
0.0
 40
0.468804
 50
143.050175
 51
160.25982999999999
  0
ARC
  5
C7
  8
0
 62
     7
 10
75.929318000000009
 20
104.907239
 30
0.0
 40
0.8658689999999999
 50
158.92647299999999
 51
166.00758999999999
  0
ARC
  5
C8
  8
0
 62
     7
 10
76.386069999999989
 20
104.793325
 30
0.0
 40
1.3366119999999999
 50
166.00356600000001
 51
172.405765
  0
ARC
  5
C9
  8
0
 62
     7
 10
76.296334000000002
 20
104.80030499999999
 30
0.0
 40
1.24675
 50
172.17872
 51
182.02449200000001
  0
ARC
  5
CA
  8
0
 62
     7
 10
75.665056000000007
 20
104.785555
 30
0.0
 40
0.6153920000000001
 50
182.72833299999999
 51
199.74072899999999
  0
ARC
  5
CB
  8
0
 62
     7
 10
75.450879999999984
 20
104.717811
 30
0.0
 40
0.391016
 50
200.99791400000001
 51
210.97161500000001
  0
ARC
  5
CC
  8
0
 62
     7
 10
75.349769999999992
 20
104.661168
 30
0.0
 40
0.275194
 50
211.69306599999999
 51
264.92413399999998
  0
ARC
  5
CD
  8
0
 62
     7
 10
75.372437000000005
 20
104.69466799999999
 30
0.0
 40
0.311187
 50
261.31028700000002
 51
292.76561299999997
  0
ARC
  5
CE
  8
0
 62
     7
 10
75.371589999999983
 20
104.66146000000001
 30
0.0
 40
0.281225
 50
295.54391600000002
 51
318.02485200000001
  0
ARC
  5
CF
  8
0
 62
     7
 10
75.258174999999994
 20
104.77067
 30
0.0
 40
0.4386140000000001
 50
317.32761099999999
 51
331.95909399999999
  0
ARC
  5
D0
  8
0
 62
     7
 10
75.116174999999984
 20
104.85572000000001
 30
0.0
 40
0.603984
 50
331.170593
 51
346.25871899999999
  0
ARC
  5
D1
  8
0
 62
     7
 10
74.519306999999998
 20
105.028419
 30
0.0
 40
1.225066999999999
 50
345.04368199999999
 51
352.60526900000002
  0
ARC
  5
D2
  8
0
 62
     7
 10
74.13860600000001
 20
105.091182
 30
0.0
 40
1.6107340000000001
 50
352.13418400000012
 51
0.760159
  0
ARC
  5
D3
  8
0
 62
     7
 10
75.212110999999993
 20
105.094025
 30
0.0
 40
0.5374060000000001
 50
1.975647999999999
 51
13.641664
  0
ARC
  5
D4
  8
0
 62
     7
 10
75.271394000000001
 20
105.10060300000001
 30
0.0
 40
0.4783050000000001
 50
14.550819000000001
 51
30.370271999999989
  0
ARC
  5
D5
  8
0
 62
     7
 10
75.471558000000002
 20
105.20925099999999
 30
0.0
 40
0.250789
 50
32.075127000000002
 51
48.766271999999987
  0
ARC
  5
D6
  8
0
 62
     7
 10
75.441583999999992
 20
105.168561
 30
0.0
 40
0.301175
 50
49.580277999999993
 51
83.476364000000004
  0
ARC
  5
D7
  8
0
 62
     7
 10
75.381457999999995
 20
104.65178899999999
 30
0.0
 40
0.8768409999999999
 50
65.139054999999985
 51
84.072339999999997
  0
ARC
  5
D8
  8
0
 62
     7
 10
75.477532999999994
 20
104.901393
 30
0.0
 40
0.6102350000000002
 50
40.146856999999997
 51
63.470708000000002
  0
ARC
  5
D9
  8
0
 62
     7
 10
75.492316000000002
 20
104.918312
 30
0.0
 40
0.588036
 50
352.3214680000001
 51
39.815495000000013
  0
ARC
  5
DA
  8
0
 62
     7
 10
75.470028999999997
 20
104.924564
 30
0.0
 40
0.6109670000000002
 50
312.17844300000002
 51
352.01962700000001
  0
ARC
  5
DB
  8
0
 62
     7
 10
75.467437000000004
 20
104.933272
 30
0.0
 40
0.619173
 50
271.44663100000002
 51
311.81520399999999
  0
ARC
  5
DC
  8
0
 62
     7
 10
75.446545999999998
 20
105.205918
 30
0.0
 40
0.892369
 50
261.81929600000001
 51
272.34565500000002
  0
ARC
  5
DD
  8
0
 62
     7
 10
75.443044999999984
 20
105.23031899999999
 30
0.0
 40
0.91605
 50
243.76108099999999
 51
262.253176
  0
ARC
  5
DE
  8
0
 62
     7
 10
75.323836999999997
 20
104.94849499999999
 30
0.0
 40
0.6108170000000001
 50
213.96989500000001
 51
242.10296099999999
  0
ARC
  5
DF
  8
0
 62
     7
 10
75.316199999999995
 20
104.93838599999999
 30
0.0
 40
0.598849
 50
171.74190100000001
 51
213.57607899999999
  0
ARC
  5
E0
  8
0
 62
     7
 10
75.304108999999997
 20
104.941892
 30
0.0
 40
0.586383
 50
124.09551
 51
171.91130000000001
  0
ARC
  5
E1
  8
0
 62
     7
 10
75.339455000000001
 20
104.879801
 30
0.0
 40
0.6576390000000001
 50
78.371566999999999
 51
123.613151
  0
LINE
  5
E2
  8
0
 62
     7
 10
73.781499999999994
 20
105.72799999999999
 30
0.0
 11
73.6845
 21
105.226
 31
0.0
  0
LINE
  5
E3
  8
0
 62
     7
 10
73.6845
 20
105.226
 30
0.0
 11
73.7376
 21
105.215
 31
0.0
  0
ARC
  5
E4
  8
0
 62
     7
 10
73.979122000000004
 20
106.46793599999999
 30
0.0
 40
1.2757540000000001
 50
259.08560199999999
 51
263.47963099999998
  0
ARC
  5
E5
  8
0
 62
     7
 10
73.889393999999996
 20
105.655396
 30
0.0
 40
0.458291
 50
263.089358
 51
275.75105300000001
  0
ARC
  5
E6
  8
0
 62
     7
 10
73.908893000000006
 20
105.39655
 30
0.0
 40
0.198901
 50
277.63430699999998
 51
315.69995
  0
ARC
  5
E7
  8
0
 62
     7
 10
73.897378000000003
 20
105.405922
 30
0.0
 40
0.213693
 50
316.05781400000001
 51
342.06637899999998
  0
ARC
  5
E8
  8
0
 62
     7
 10
73.745530000000002
 20
105.46682699999999
 30
0.0
 40
0.377082
 50
340.36602299999998
 51
349.40681499999999
  0
ARC
  5
E9
  8
0
 62
     7
 10
73.731886000000003
 20
105.472658
 30
0.0
 40
0.391579
 50
348.935158
 51
6.6080160000000001
  0
ARC
  5
EA
  8
0
 62
     7
 10
73.922429000000008
 20
105.487949
 30
0.0
 40
0.200656
 50
8.5320440000000008
 51
35.289113
  0
ARC
  5
EB
  8
0
 62
     7
 10
73.927762999999999
 20
105.48786800000001
 30
0.0
 40
0.196374
 50
36.207521999999997
 51
63.094020999999998
  0
ARC
  5
EC
  8
0
 62
     7
 10
73.814256999999998
 20
105.285802
 30
0.0
 40
0.4280420000000001
 50
61.785043000000002
 51
81.021843999999973
  0
LINE
  5
ED
  8
0
 62
     7
 10
73.881100000000004
 20
105.709
 30
0.0
 11
73.781499999999994
 21
105.72799999999999
 31
0.0
  0
LINE
  5
EE
  8
0
 62
     7
 10
73.673000000000002
 20
105.16500000000001
 30
0.0
 11
73.611099999999993
 21
104.84399999999999
 31
0.0
  0
ARC
  5
EF
  8
0
 62
     7
 10
74.482093999999989
 20
104.673393
 30
0.0
 40
0.88749
 50
168.924903
 51
174.14705699999999
  0
ARC
  5
F0
  8
0
 62
     7
 10
73.711050999999998
 20
104.748988
 30
0.0
 40
0.11281
 50
172.40674000000001
 51
192.62581399999999
  0
ARC
  5
F1
  8
0
 62
     7
 10
73.680878000000007
 20
104.749272
 30
0.0
 40
0.083712
 50
197.33465899999999
 51
239.05421200000001
  0
ARC
  5
F2
  8
0
 62
     7
 10
73.702656999999988
 20
104.770044
 30
0.0
 40
0.11301
 50
234.996015
 51
251.052415
  0
ARC
  5
F3
  8
0
 62
     7
 10
73.833131000000009
 20
105.122156
 30
0.0
 40
0.4884920000000001
 50
249.98831899999999
 51
260.56710800000002
  0
LINE
  5
F4
  8
0
 62
     7
 10
73.753100000000003
 20
104.64
 30
0.0
 11
73.747200000000007
 21
104.60899999999999
 31
0.0
  0
LINE
  5
F5
  8
0
 62
     7
 10
73.747200000000007
 20
104.60899999999999
 30
0.0
 11
73.101600000000005
 21
104.73399999999999
 31
0.0
  0
LINE
  5
F6
  8
0
 62
     7
 10
73.101600000000005
 20
104.73399999999999
 30
0.0
 11
73.107500000000002
 21
104.765
 31
0.0
  0
ARC
  5
F7
  8
0
 62
     7
 10
73.238383999999996
 20
105.442486
 30
0.0
 40
0.690377
 50
259.06772799999999
 51
265.67331799999999
  0
ARC
  5
F8
  8
0
 62
     7
 10
73.198988
 20
104.896399
 30
0.0
 40
0.142887
 50
264.90568999999999
 51
282.15271000000001
  0
ARC
  5
F9
  8
0
 62
     7
 10
73.204525000000004
 20
104.85682199999999
 30
0.0
 40
0.103072
 50
283.77560999999997
 51
317.12165099999999
  0
ARC
  5
FA
  8
0
 62
     7
 10
73.221811000000002
 20
104.831046
 30
0.0
 40
0.073213
 50
322.70667400000002
 51
342.08058700000009
  0
ARC
  5
FB
  8
0
 62
     7
 10
72.810412999999997
 20
104.981148
 30
0.0
 40
0.5110960000000001
 50
340.259545
 51
350.98520600000001
  0
LINE
  5
FC
  8
0
 62
     7
 10
73.315200000000004
 20
104.901
 30
0.0
 11
73.4589
 21
105.645
 31
0.0
  0
ARC
  5
FD
  8
0
 62
     7
 10
72.574100000000001
 20
105.815066
 30
0.0
 40
0.900914
 50
349.13256000000001
 51
354.28289000000001
  0
ARC
  5
FE
  8
0
 62
     7
 10
73.356702999999996
 20
105.74021
 30
0.0
 40
0.1148
 50
352.54720200000003
 51
12.345694
  0
ARC
  5
FF
  8
0
 62
     7
 10
73.387784999999994
 20
105.73943800000001
 30
0.0
 40
0.084925
 50
17.344750000000001
 51
58.636473000000002
  0
ARC
  5
100
  8
0
 62
     7
 10
73.369051999999996
 20
105.720922
 30
0.0
 40
0.110668
 50
55.342424999999999
 51
70.814510999999996
  0
ARC
  5
101
  8
0
 62
     7
 10
73.23299200000001
 20
105.35778999999999
 30
0.0
 40
0.498429
 50
69.760540000000006
 51
80.346361999999985
  0
LINE
  5
102
  8
0
 62
     7
 10
73.316599999999994
 20
105.849
 30
0.0
 11
73.322800000000001
 21
105.88
 31
0.0
  0
LINE
  5
103
  8
0
 62
     7
 10
73.322800000000001
 20
105.88
 30
0.0
 11
73.908799999999999
 21
105.767
 31
0.0
  0
ARC
  5
104
  8
0
 62
     7
 10
73.335977
 20
102.79061
 30
0.0
 40
3.031172999999999
 50
76.300343999999996
 51
79.107077000000004
  0
ARC
  5
105
  8
0
 62
     7
 10
73.804358999999991
 20
104.684967
 30
0.0
 40
1.0798000000000001
 50
66.313859999999991
 51
76.640587999999994
  0
ARC
  5
106
  8
0
 62
     7
 10
74.076554999999999
 20
105.343823
 30
0.0
 40
0.367422
 50
31.221934000000001
 51
63.909620999999987
  0
ARC
  5
107
  8
0
 62
     7
 10
74.14710500000001
 20
105.39455
 30
0.0
 40
0.280877
 50
348.79547300000002
 51
29.832514
  0
ARC
  5
108
  8
0
 62
     7
 10
74.150136000000003
 20
105.394587
 30
0.0
 40
0.277912
 50
298.26083599999998
 51
348.66656899999998
  0
ARC
  5
109
  8
0
 62
     7
 10
74.127996999999993
 20
105.434247
 30
0.0
 40
0.323327
 50
277.62581
 51
298.38869599999998
  0
ARC
  5
10A
  8
0
 62
     7
 10
74.067937000000001
 20
105.74359
 30
0.0
 40
0.6381720000000001
 50
271.71848799999998
 51
279.28510799999998
  0
LINE
  5
10B
  8
0
 62
     7
 10
74.087100000000007
 20
105.10599999999999
 30
0.0
 11
74.315299999999993
 21
104.65900000000001
 31
0.0
  0
ARC
  5
10C
  8
0
 62
     7
 10
75.183416000000008
 20
105.10887099999999
 30
0.0
 40
0.977645
 50
207.3829540000001
 51
214.938737
  0
ARC
  5
10D
  8
0
 62
     7
 10
74.500940999999997
 20
104.665053
 30
0.0
 40
0.166213
 50
224.296695
 51
257.45262700000001
  0
LINE
  5
10E
  8
0
 62
     7
 10
74.464799999999997
 20
104.503
 30
0.0
 11
74.458799999999997
 21
104.47199999999999
 31
0.0
  0
LINE
  5
10F
  8
0
 62
     7
 10
74.458799999999997
 20
104.47199999999999
 30
0.0
 11
74.061599999999984
 21
104.548
 31
0.0
  0
LINE
  5
110
  8
0
 62
     7
 10
74.061599999999984
 20
104.548
 30
0.0
 11
73.755799999999994
 21
105.149
 31
0.0
  0
LINE
  5
111
  8
0
 62
     7
 10
73.755799999999994
 20
105.149
 30
0.0
 11
73.673000000000002
 21
105.16500000000001
 31
0.0
  0
LINE
  5
112
  8
0
 62
     7
 10
72.913200000000003
 20
104.81399999999999
 30
0.0
 11
72.905900000000003
 21
104.783
 31
0.0
  0
LINE
  5
113
  8
0
 62
     7
 10
72.905900000000003
 20
104.783
 30
0.0
 11
72.251999999999995
 21
104.937
 31
0.0
  0
LINE
  5
114
  8
0
 62
     7
 10
72.251999999999995
 20
104.937
 30
0.0
 11
72.259399999999999
 21
104.968
 31
0.0
  0
LINE
  5
115
  8
0
 62
     7
 10
72.259399999999999
 20
104.968
 30
0.0
 11
72.301000000000002
 21
104.958
 31
0.0
  0
ARC
  5
116
  8
0
 62
     7
 10
72.354000999999997
 20
105.169972
 30
0.0
 40
0.218597
 50
255.95566299999999
 51
280.168678
  0
ARC
  5
117
  8
0
 62
     7
 10
72.374369999999985
 20
105.031521
 30
0.0
 40
0.078848
 50
283.36350499999998
 51
325.18391800000001
  0
ARC
  5
118
  8
0
 62
     7
 10
72.387152
 20
105.027473
 30
0.0
 40
0.066162
 50
321.74001900000002
 51
342.22143900000009
  0
ARC
  5
119
  8
0
 62
     7
 10
71.906753000000009
 20
105.209896
 30
0.0
 40
0.57995
 50
339.55038200000001
 51
348.01967000000008
  0
LINE
  5
11A
  8
0
 62
     7
 10
72.474100000000007
 20
105.09
 30
0.0
 11
72.650499999999994
 21
105.837
 31
0.0
  0
ARC
  5
11B
  8
0
 62
     7
 10
71.768946999999997
 20
106.047832
 30
0.0
 40
0.9062709999999999
 50
346.57674200000002
 51
351.75241499999998
  0
ARC
  5
11C
  8
0
 62
     7
 10
72.573894999999993
 20
105.93414199999999
 30
0.0
 40
0.093386
 50
349.938177
 51
8.9838149999999999
  0
ARC
  5
11D
  8
0
 62
     7
 10
72.602891999999997
 20
105.93504299999999
 30
0.0
 40
0.064707
 50
12.206493
 51
32.890265999999997
  0
ARC
  5
11E
  8
0
 62
     7
 10
72.555689999999998
 20
105.904658
 30
0.0
 40
0.120844
 50
32.834899999999998
 51
49.546853999999989
  0
ARC
  5
11F
  8
0
 62
     7
 10
72.55296899999999
 20
105.901268
 30
0.0
 40
0.125188
 50
49.605795000000001
 51
63.985843000000003
  0
ARC
  5
120
  8
0
 62
     7
 10
72.503915000000006
 20
105.802209
 30
0.0
 40
0.235727
 50
63.830924000000003
 51
77.604931000000008
  0
LINE
  5
121
  8
0
 62
     7
 10
72.554500000000004
 20
106.032
 30
0.0
 11
72.513000000000005
 21
106.042
 31
0.0
  0
LINE
  5
122
  8
0
 62
     7
 10
72.513000000000005
 20
106.042
 30
0.0
 11
72.520200000000003
 21
106.07299999999999
 31
0.0
  0
LINE
  5
123
  8
0
 62
     7
 10
72.520200000000003
 20
106.07299999999999
 30
0.0
 11
73.173900000000003
 21
105.919
 31
0.0
  0
LINE
  5
124
  8
0
 62
     7
 10
73.173900000000003
 20
105.919
 30
0.0
 11
73.166700000000006
 21
105.88800000000001
 31
0.0
  0
LINE
  5
125
  8
0
 62
     7
 10
73.166700000000006
 20
105.88800000000001
 30
0.0
 11
73.125200000000007
 21
105.898
 31
0.0
  0
ARC
  5
126
  8
0
 62
     7
 10
73.071678000000006
 20
105.673839
 30
0.0
 40
0.230206
 50
76.556457999999992
 51
99.575108999999998
  0
ARC
  5
127
  8
0
 62
     7
 10
73.052498
 20
105.82086
 30
0.0
 40
0.08223
 50
103.44018800000001
 51
143.74668
  0
ARC
  5
128
  8
0
 62
     7
 10
73.036283999999995
 20
105.829302
 30
0.0
 40
0.064223
 50
141.265173
 51
161.79562100000001
  0
ARC
  5
129
  8
0
 62
     7
 10
73.498294999999999
 20
105.65149700000001
 30
0.0
 40
0.5591960000000001
 50
159.27731299999999
 51
168.13424000000001
  0
LINE
  5
12A
  8
0
 62
     7
 10
72.951000000000008
 20
105.76600000000001
 30
0.0
 11
72.774699999999996
 21
105.01900000000001
 31
0.0
  0
ARC
  5
12B
  8
0
 62
     7
 10
73.667066000000005
 20
104.809954
 30
0.0
 40
0.9164629999999998
 50
166.84401299999999
 51
171.924103
  0
ARC
  5
12C
  8
0
 62
     7
 10
72.848239000000007
 20
104.92292399999999
 30
0.0
 40
0.089941
 50
169.89592300000001
 51
190.02558999999999
  0
ARC
  5
12D
  8
0
 62
     7
 10
72.824487000000005
 20
104.921688
 30
0.0
 40
0.066401
 50
192.54413
 51
212.61772999999999
  0
ARC
  5
12E
  8
0
 62
     7
 10
72.871478999999994
 20
104.952218
 30
0.0
 40
0.12244
 50
212.79789500000001
 51
229.557726
  0
ARC
  5
12F
  8
0
 62
     7
 10
72.873277999999985
 20
104.954466
 30
0.0
 40
0.125318
 50
229.5985
 51
244.27218999999999
  0
ARC
  5
130
  8
0
 62
     7
 10
72.923360000000002
 20
105.057222
 30
0.0
 40
0.239627
 50
244.150013
 51
257.57699300000002
  0
LINE
  5
131
  8
0
 62
     7
 10
72.871799999999993
 20
104.82299999999999
 30
0.0
 11
72.913200000000003
 21
104.81399999999999
 31
0.0
  0
LINE
  5
132
  8
0
 62
     7
 10
71.328100000000006
 20
105.598
 30
0.0
 11
71.876199999999983
 21
106.241
 31
0.0
  0
LINE
  5
133
  8
0
 62
     7
 10
71.876199999999983
 20
106.241
 30
0.0
 11
72.378799999999998
 21
106.09699999999999
 31
0.0
  0
LINE
  5
134
  8
0
 62
     7
 10
72.378799999999998
 20
106.09699999999999
 30
0.0
 11
72.370000000000005
 21
106.066
 31
0.0
  0
LINE
  5
135
  8
0
 62
     7
 10
72.370000000000005
 20
106.066
 30
0.0
 11
72.329899999999995
 21
106.078
 31
0.0
  0
ARC
  5
136
  8
0
 62
     7
 10
72.264121000000003
 20
105.853071
 30
0.0
 40
0.233938
 50
73.671154000000001
 51
96.518514999999994
  0
ARC
  5
137
  8
0
 62
     7
 10
72.254385999999997
 20
106.003317
 30
0.0
 40
0.083884
 50
101.569075
 51
140.29755599999999
  0
ARC
  5
138
  8
0
 62
     7
 10
72.237881000000002
 20
106.01465899999999
 30
0.0
 40
0.063966
 50
138.66976500000001
 51
159.22190900000001
  0
ARC
  5
139
  8
0
 62
     7
 10
72.700624000000005
 20
105.811334
 30
0.0
 40
0.569333
 50
156.61020500000001
 51
165.248267
  0
LINE
  5
13A
  8
0
 62
     7
 10
72.150099999999995
 20
105.956
 30
0.0
 11
71.936999999999983
 21
105.217
 31
0.0
  0
ARC
  5
13B
  8
0
 62
     7
 10
72.803491000000008
 20
104.966375
 30
0.0
 40
0.9019299999999999
 50
163.89049399999999
 51
169.10836
  0
ARC
  5
13C
  8
0
 62
     7
 10
72.007256999999996
 20
105.116507
 30
0.0
 40
0.091721
 50
167.21986699999999
 51
186.54714699999991
  0
ARC
  5
13D
  8
0
 62
     7
 10
71.976872
 20
105.115292
 30
0.0
 40
0.061438
 50
188.653075
 51
209.96804599999999
  0
ARC
  5
13E
  8
0
 62
     7
 10
72.026899
 20
105.143899
 30
0.0
 40
0.119066
 50
209.868505
 51
227.26928599999999
  0
ARC
  5
13F
  8
0
 62
     7
 10
72.033062999999999
 20
105.149316
 30
0.0
 40
0.12723
 50
226.88543300000001
 51
241.49168
  0
ARC
  5
140
  8
0
 62
     7
 10
72.088513000000006
 20
105.24981099999999
 30
0.0
 40
0.242007
 50
241.311498
 51
254.61582999999999
  0
LINE
  5
141
  8
0
 62
     7
 10
72.024299999999997
 20
105.01600000000001
 30
0.0
 11
72.064400000000006
 21
105.005
 31
0.0
  0
LINE
  5
142
  8
0
 62
     7
 10
72.064400000000006
 20
105.005
 30
0.0
 11
72.055700000000002
 21
104.974
 31
0.0
  0
LINE
  5
143
  8
0
 62
     7
 10
72.055700000000002
 20
104.974
 30
0.0
 11
71.411100000000005
 21
105.16
 31
0.0
  0
LINE
  5
144
  8
0
 62
     7
 10
71.411100000000005
 20
105.16
 30
0.0
 11
71.419899999999984
 21
105.19
 31
0.0
  0
LINE
  5
145
  8
0
 62
     7
 10
71.419899999999984
 20
105.19
 30
0.0
 11
71.459999999999994
 21
105.179
 31
0.0
  0
ARC
  5
146
  8
0
 62
     7
 10
71.52572099999999
 20
105.402992
 30
0.0
 40
0.233352
 50
253.64210800000001
 51
276.54759999999999
  0
ARC
  5
147
  8
0
 62
     7
 10
71.535043999999999
 20
105.253226
 30
0.0
 40
0.083865
 50
281.89484499999998
 51
320.99763999999999
  0
ARC
  5
148
  8
0
 62
     7
 10
71.549145999999993
 20
105.24467300000001
 30
0.0
 40
0.067559
 50
319.10662500000001
 51
339.26118400000001
  0
ARC
  5
149
  8
0
 62
     7
 10
71.081100000000006
 20
105.448111
 30
0.0
 40
0.5778369999999999
 50
336.82952799999998
 51
345.36113899999998
  0
LINE
  5
14A
  8
0
 62
     7
 10
71.640199999999993
 20
105.30200000000001
 30
0.0
 11
71.879800000000003
 21
106.134
 31
0.0
  0
LINE
  5
14B
  8
0
 62
     7
 10
71.879800000000003
 20
106.134
 30
0.0
 11
71.111500000000007
 21
105.246
 31
0.0
  0
LINE
  5
14C
  8
0
 62
     7
 10
71.111500000000007
 20
105.246
 30
0.0
 11
71.089699999999993
 21
105.252
 31
0.0
  0
LINE
  5
14D
  8
0
 62
     7
 10
71.089699999999993
 20
105.252
 30
0.0
 11
70.901700000000005
 21
106.407
 31
0.0
  0
LINE
  5
14E
  8
0
 62
     7
 10
70.901700000000005
 20
106.407
 30
0.0
 11
70.673999999999992
 21
105.617
 31
0.0
  0
ARC
  5
14F
  8
0
 62
     7
 10
71.791657000000001
 20
105.295244
 30
0.0
 40
1.1630409999999991
 50
163.941621
 51
169.161112
  0
ARC
  5
150
  8
0
 62
     7
 10
70.770401000000007
 20
105.51364599999999
 30
0.0
 40
0.121037
 50
179.85571399999989
 51
222.66842800000001
  0
ARC
  5
151
  8
0
 62
     7
 10
70.770865000000001
 20
105.507971
 30
0.0
 40
0.117618
 50
220.48194100000001
 51
235.546637
  0
ARC
  5
152
  8
0
 62
     7
 10
70.864362999999983
 20
105.64656100000001
 30
0.0
 40
0.2847949999999999
 50
235.80979199999999
 51
256.52940599999999
  0
LINE
  5
153
  8
0
 62
     7
 10
70.798000000000002
 20
105.37
 30
0.0
 11
70.789199999999994
 21
105.339
 31
0.0
  0
LINE
  5
154
  8
0
 62
     7
 10
70.789199999999994
 20
105.339
 30
0.0
 11
70.366900000000001
 21
105.461
 31
0.0
  0
LINE
  5
155
  8
0
 62
     7
 10
70.366900000000001
 20
105.461
 30
0.0
 11
70.375600000000006
 21
105.492
 31
0.0
  0
LINE
  5
156
  8
0
 62
     7
 10
70.375600000000006
 20
105.492
 30
0.0
 11
70.388400000000004
 21
105.488
 31
0.0
  0
ARC
  5
157
  8
0
 62
     7
 10
70.454987000000003
 20
105.69579
 30
0.0
 40
0.218421
 50
252.24948000000001
 51
273.50050900000002
  0
ARC
  5
158
  8
0
 62
     7
 10
70.462772000000001
 20
105.614631
 30
0.0
 40
0.136966
 50
272.32273400000003
 51
300.30498699999998
  0
ARC
  5
159
  8
0
 62
     7
 10
70.451561999999996
 20
105.61247899999999
 30
0.0
 40
0.141176
 50
304.67793399999999
 51
333.164064
  0
ARC
  5
15A
  8
0
 62
     7
 10
70.357039999999984
 20
105.64434799999999
 30
0.0
 40
0.240327
 50
336.55936500000001
 51
346.85127
  0
ARC
  5
15B
  8
0
 62
     7
 10
69.077270999999996
 20
106.05710999999999
 30
0.0
 40
1.5843189999999989
 50
342.84032200000001
 51
344.46579700000001
  0
LINE
  5
15C
  8
0
 62
     7
 10
70.603700000000003
 20
105.633
 30
0.0
 11
70.808199999999999
 21
106.343
 31
0.0
  0
ARC
  5
15D
  8
0
 62
     7
 10
69.926401999999996
 20
106.59697799999999
 30
0.0
 40
0.9176719999999999
 50
343.92287599999997
 51
348.99255299999999
  0
ARC
  5
15E
  8
0
 62
     7
 10
70.740251999999998
 20
106.441728
 30
0.0
 40
0.089203
 50
347.06559600000003
 51
6.6491749999999996
  0
ARC
  5
15F
  8
0
 62
     7
 10
70.765636000000001
 20
106.440765
 30
0.0
 40
0.06422
 50
10.127101
 51
30.727201000000012
  0
ARC
  5
160
  8
0
 62
     7
 10
70.718722999999983
 20
106.413236
 30
0.0
 40
0.118613
 50
30.579307
 51
47.708342000000009
  0
ARC
  5
161
  8
0
 62
     7
 10
70.712787000000006
 20
106.41124000000001
 30
0.0
 40
0.124121
 50
46.301158000000001
 51
60.711872999999997
  0
ARC
  5
162
  8
0
 62
     7
 10
70.66363299999999
 20
106.323714
 30
0.0
 40
0.224505
 50
60.698493999999997
 51
75.37102800000001
  0
LINE
  5
163
  8
0
 62
     7
 10
70.720299999999995
 20
106.541
 30
0.0
 11
70.681200000000004
 21
106.55200000000001
 31
0.0
  0
LINE
  5
164
  8
0
 62
     7
 10
70.681200000000004
 20
106.55200000000001
 30
0.0
 11
70.689999999999984
 21
106.583
 31
0.0
  0
LINE
  5
165
  8
0
 62
     7
 10
70.689999999999984
 20
106.583
 30
0.0
 11
71.194400000000002
 21
106.438
 31
0.0
  0
LINE
  5
166
  8
0
 62
     7
 10
71.194400000000002
 20
106.438
 30
0.0
 11
71.328100000000006
 21
105.598
 31
0.0
  0
LINE
  5
167
  8
0
 62
     7
 10
87.340400000000002
 20
106.389
 30
0.0
 11
87.4238
 21
106.084
 31
0.0
  0
LINE
  5
168
  8
0
 62
     7
 10
87.4238
 20
106.084
 30
0.0
 11
87.390699999999995
 21
106.07599999999999
 31
0.0
  0
ARC
  5
169
  8
0
 62
     7
 10
86.590658999999988
 20
105.59988199999999
 30
0.0
 40
0.9307770000000001
 50
30.730157999999999
 51
35.736758000000002
  0
ARC
  5
16A
  8
0
 62
     7
 10
87.070351999999986
 20
105.947203
 30
0.0
 40
0.338554
 50
35.440108000000009
 51
50.696309999999997
  0
ARC
  5
16B
  8
0
 62
     7
 10
87.139642000000009
 20
106.01571199999999
 30
0.0
 40
0.241867
 50
53.118206000000008
 51
83.510223999999994
  0
ARC
  5
16C
  8
0
 62
     7
 10
87.149337000000017
 20
106.129452
 30
0.0
 40
0.127801
 50
82.065260999999992
 51
96.298365000000004
  0
ARC
  5
16D
  8
0
 62
     7
 10
87.183455000000009
 20
105.76854
 30
0.0
 40
0.490311
 50
95.634347000000005
 51
106.861907
  0
LINE
  5
16E
  8
0
 62
     7
 10
87.041200000000003
 20
106.238
 30
0.0
 11
86.948899999999995
 21
106.21299999999999
 31
0.0
  0
LINE
  5
16F
  8
0
 62
     7
 10
86.948899999999995
 20
106.21299999999999
 30
0.0
 11
87.186300000000003
 21
105.343
 31
0.0
  0
ARC
  5
170
  8
0
 62
     7
 10
88.089293999999995
 20
105.59221599999999
 30
0.0
 40
0.936669
 50
195.40383399999999
 51
200.40984299999991
  0
ARC
  5
171
  8
0
 62
     7
 10
87.298181999999997
 20
105.295114
 30
0.0
 40
0.091648
 50
198.80642900000001
 51
218.27633599999999
  0
ARC
  5
172
  8
0
 62
     7
 10
87.276985999999994
 20
105.283867
 30
0.0
 40
0.068178
 50
221.89354700000001
 51
242.06193500000001
  0
ARC
  5
173
  8
0
 62
     7
 10
87.302420999999995
 20
105.331569
 30
0.0
 40
0.122237
 50
242.00472400000001
 51
258.43343700000003
  0
ARC
  5
174
  8
0
 62
     7
 10
87.304707999999991
 20
105.435182
 30
0.0
 40
0.22497
 50
263.15923400000003
 51
285.79251599999998
  0
LINE
  5
175
  8
0
 62
     7
 10
87.365899999999996
 20
105.21899999999999
 30
0.0
 11
87.406599999999997
 21
105.23
 31
0.0
  0
LINE
  5
176
  8
0
 62
     7
 10
87.406599999999997
 20
105.23
 30
0.0
 11
87.415499999999994
 21
105.199
 31
0.0
  0
LINE
  5
177
  8
0
 62
     7
 10
87.415499999999994
 20
105.199
 30
0.0
 11
86.766699999999986
 21
105.02200000000001
 31
0.0
  0
LINE
  5
178
  8
0
 62
     7
 10
86.766699999999986
 20
105.02200000000001
 30
0.0
 11
86.757999999999996
 21
105.053
 31
0.0
  0
LINE
  5
179
  8
0
 62
     7
 10
86.757999999999996
 20
105.053
 30
0.0
 11
86.798999999999992
 21
105.06399999999999
 31
0.0
  0
ARC
  5
17A
  8
0
 62
     7
 10
86.745142000000001
 20
105.272553
 30
0.0
 40
0.215721
 50
284.46869700000002
 51
309.04595399999999
  0
ARC
  5
17B
  8
0
 62
     7
 10
86.826616999999999
 20
105.166493
 30
0.0
 40
0.082102
 50
311.51398999999998
 51
351.93164300000001
  0
ARC
  5
17C
  8
0
 62
     7
 10
86.845151999999985
 20
105.166172
 30
0.0
 40
0.063746
 50
349.878331
 51
10.632035999999999
  0
ARC
  5
17D
  8
0
 62
     7
 10
86.355778999999984
 20
105.101388
 30
0.0
 40
0.5573060000000001
 50
7.8944769999999993
 51
16.798929000000001
  0
LINE
  5
17E
  8
0
 62
     7
 10
86.889300000000006
 20
105.262
 30
0.0
 11
86.651899999999998
 21
106.13200000000001
 31
0.0
  0
LINE
  5
17F
  8
0
 62
     7
 10
86.651899999999998
 20
106.13200000000001
 30
0.0
 11
86.562399999999997
 21
106.107
 31
0.0
  0
ARC
  5
180
  8
0
 62
     7
 10
86.689699999999988
 20
105.63988999999999
 30
0.0
 40
0.4840170000000001
 50
105.25333999999999
 51
120.90165500000001
  0
ARC
  5
181
  8
0
 62
     7
 10
86.541033999999996
 20
105.904692
 30
0.0
 40
0.180651
 50
123.57647
 51
144.72626500000001
  0
ARC
  5
182
  8
0
 62
     7
 10
86.631101999999998
 20
105.846784
 30
0.0
 40
0.287662
 50
145.66979799999999
 51
179.99836499999989
  0
ARC
  5
183
  8
0
 62
     7
 10
86.777023999999983
 20
105.83525
 30
0.0
 40
0.4337380000000001
 50
178.47504900000001
 51
186.00093899999999
  0
LINE
  5
184
  8
0
 62
     7
 10
86.345699999999994
 20
105.79000000000001
 30
0.0
 11
86.310900000000004
 21
105.78
 31
0.0
  0
LINE
  5
185
  8
0
 62
     7
 10
86.310900000000004
 20
105.78
 30
0.0
 11
86.227500000000006
 21
106.08499999999999
 31
0.0
  0
LINE
  5
186
  8
0
 62
     7
 10
86.227500000000006
 20
106.08499999999999
 30
0.0
 11
87.340400000000002
 21
106.389
 31
0.0
  0
ARC
  5
187
  8
0
 62
     7
 10
85.253881000000007
 20
105.511813
 30
0.0
 40
0.306739
 50
102.514473
 51
164.01408799999999
  0
ARC
  5
188
  8
0
 62
     7
 10
85.409109000000001
 20
105.456345
 30
0.0
 40
0.471359
 50
162.728838
 51
179.864285
  0
ARC
  5
189
  8
0
 62
     7
 10
85.943630999999996
 20
105.43745699999999
 30
0.0
 40
1.0060789999999999
 50
178.86066199999999
 51
193.46439100000001
  0
ARC
  5
18A
  8
0
 62
     7
 10
86.183003999999997
 20
105.458556
 30
0.0
 40
1.2442839999999991
 50
191.84251800000001
 51
201.71602200000001
  0
ARC
  5
18B
  8
0
 62
     7
 10
85.59535799999999
 20
105.232544
 30
0.0
 40
0.6147630000000001
 50
202.41142400000001
 51
219.432402
  0
ARC
  5
18C
  8
0
 62
     7
 10
85.417034999999998
 20
105.09723
 30
0.0
 40
0.391181
 50
220.714406
 51
230.678707
  0
ARC
  5
18D
  8
0
 62
     7
 10
85.340972999999991
 20
105.00966099999999
 30
0.0
 40
0.27526
 50
231.376465
 51
284.59060499999998
  0
ARC
  5
18E
  8
0
 62
     7
 10
85.345105000000004
 20
105.060227
 30
0.0
 40
0.323587
 50
281.62569500000001
 51
311.81865699999997
  0
ARC
  5
18F
  8
0
 62
     7
 10
85.359980000000007
 20
105.01803099999999
 30
0.0
 40
0.282737
 50
315.27584900000011
 51
337.31711799999999
  0
ARC
  5
190
  8
0
 62
     7
 10
85.218894999999975
 20
105.081982
 30
0.0
 40
0.437595
 50
336.71511800000002
 51
351.618786
  0
ARC
  5
191
  8
0
 62
     7
 10
85.057601000000005
 20
105.113353
 30
0.0
 40
0.6017859999999999
 50
350.90220799999997
 51
6.0389039999999987
  0
ARC
  5
192
  8
0
 62
     7
 10
84.408822000000001
 20
105.072163
 30
0.0
 40
1.251595999999999
 50
4.7894220000000001
 51
12.193985
  0
ARC
  5
193
  8
0
 62
     7
 10
84.060036999999994
 20
105.00758999999999
 30
0.0
 40
1.6061849999999991
 50
11.817456
 51
20.368742000000001
  0
ARC
  5
194
  8
0
 62
     7
 10
85.061755000000005
 20
105.368358
 30
0.0
 40
0.5416340000000001
 50
21.474131
 51
33.319422000000003
  0
ARC
  5
195
  8
0
 62
     7
 10
85.118587000000005
 20
105.397328
 30
0.0
 40
0.478282
 50
34.159209999999987
 51
50.00163100000001
  0
ARC
  5
196
  8
0
 62
     7
 10
85.272182999999984
 20
105.568164
 30
0.0
 40
0.248809
 50
51.811174999999999
 51
68.648640999999998
  0
ARC
  5
197
  8
0
 62
     7
 10
85.256706999999992
 20
105.521987
 30
0.0
 40
0.297461
 50
69.110545999999985
 51
103.47050299999999
  0
ARC
  5
198
  8
0
 62
     7
 10
85.373474999999999
 20
105.01302099999999
 30
0.0
 40
0.8751100000000001
 50
84.540379999999999
 51
103.78049
  0
ARC
  5
199
  8
0
 62
     7
 10
85.380368000000004
 20
105.2794659999999
 30
0.0
 40
0.6094990000000001
 50
59.837643000000007
 51
82.802087000000014
  0
ARC
  5
19A
  8
0
 62
     7
 10
85.389741000000001
 20
105.30055400000001
 30
0.0
 40
0.586562
 50
11.946023
 51
59.594197000000001
  0
ARC
  5
19B
  8
0
 62
     7
 10
85.368472999999994
 20
105.29772199999999
 30
0.0
 40
0.607958
 50
331.74642
 51
11.792222000000001
  0
ARC
  5
19C
  8
0
 62
     7
 10
85.359929000000008
 20
105.305205
 30
0.0
 40
0.6190310000000001
 50
291.14980100000002
 51
331.51063599999998
  0
ARC
  5
19D
  8
0
 62
     7
 10
85.247725000000003
 20
105.55668900000001
 30
0.0
 40
0.8941670000000001
 50
281.53351199999997
 51
292.041066
  0
ARC
  5
19E
  8
0
 62
     7
 10
85.236440000000002
 20
105.58466199999999
 30
0.0
 40
0.9238479999999999
 50
263.54701799999998
 51
281.87241599999999
  0
ARC
  5
19F
  8
0
 62
     7
 10
85.219290000000001
 20
105.270832
 30
0.0
 40
0.610351
 50
233.67235199999999
 51
261.83548000000002
  0
ARC
  5
1A0
  8
0
 62
     7
 10
85.218551000000005
 20
105.26128300000001
 30
0.0
 40
0.6022410000000001
 50
191.60291199999989
 51
233.19080500000001
  0
ARC
  5
1A1
  8
0
 62
     7
 10
85.205888000000002
 20
105.257499
 30
0.0
 40
0.5890770000000001
 50
143.902761
 51
191.49006299999999
  0
ARC
  5
1A2
  8
0
 62
     7
 10
85.257650999999996
 20
105.211392
 30
0.0
 40
0.6581010000000001
 50
98.091390000000004
 51
143.31431699999999
  0
LINE
  5
1A3
  8
0
 62
     7
 10
83.315299999999979
 20
105.458
 30
0.0
 11
83.390100000000004
 21
104.952
 31
0.0
  0
LINE
  5
1A4
  8
0
 62
     7
 10
83.390100000000004
 20
104.952
 30
0.0
 11
83.4435
 21
104.95999999999999
 31
0.0
  0
ARC
  5
1A5
  8
0
 62
     7
 10
83.253782999999999
 20
106.243751
 30
0.0
 40
1.298057999999999
 50
278.403976
 51
282.64770499999997
  0
ARC
  5
1A6
  8
0
 62
     7
 10
83.438467999999986
 20
105.432418
 30
0.0
 40
0.4659810000000001
 50
282.33326199999999
 51
294.95184999999998
  0
ARC
  5
1A7
  8
0
 62
     7
 10
83.542608000000001
 20
105.18961
 30
0.0
 40
0.202063
 50
297.223547
 51
334.71122100000002
  0
ARC
  5
1A8
  8
0
 62
     7
 10
83.532638000000006
 20
105.192055
 30
0.0
 40
0.212132
 50
335.26459
 51
0.783148
  0
ARC
  5
1A9
  8
0
 62
     7
 10
83.369439999999997
 20
105.19983999999999
 30
0.0
 40
0.375342
 50
359.25428099999999
 51
8.6979019999999991
  0
ARC
  5
1AA
  8
0
 62
     7
 10
83.343716000000001
 20
105.197613
 30
0.0
 40
0.4011110000000001
 50
8.4566590000000001
 51
25.98220700000001
  0
ARC
  5
1AB
  8
0
 62
     7
 10
83.527492000000009
 20
105.278789
 30
0.0
 40
0.200488
 50
28.137243000000002
 51
54.469676
  0
ARC
  5
1AC
  8
0
 62
     7
 10
83.532277000000008
 20
105.27664300000001
 30
0.0
 40
0.19952
 50
55.946297999999999
 51
82.393485999999996
  0
ARC
  5
1AD
  8
0
 62
     7
 10
83.492453999999995
 20
105.050449
 30
0.0
 40
0.4291
 50
81.120762999999997
 51
100.318918
  0
LINE
  5
1AE
  8
0
 62
     7
 10
83.415599999999984
 20
105.473
 30
0.0
 11
83.315299999999979
 21
105.458
 31
0.0
  0
LINE
  5
1AF
  8
0
 62
     7
 10
83.399100000000004
 20
104.89100000000001
 30
0.0
 11
83.446600000000004
 21
104.56699999999999
 31
0.0
  0
ARC
  5
1B0
  8
0
 62
     7
 10
84.329335
 20
104.69816400000001
 30
0.0
 40
0.8923950000000001
 50
188.43686199999999
 51
193.626048
  0
ARC
  5
1B1
  8
0
 62
     7
 10
83.572788000000017
 20
104.511239
 30
0.0
 40
0.113157
 50
191.887148
 51
212.08516900000001
  0
ARC
  5
1B2
  8
0
 62
     7
 10
83.543568999999991
 20
104.500094
 30
0.0
 40
0.082705
 50
216.29926499999999
 51
258.35021699999999
  0
ARC
  5
1B3
  8
0
 62
     7
 10
83.564291999999995
 20
104.576694
 30
0.0
 40
0.161983
 50
256.64211499999999
 51
272.88362499999999
  0
ARC
  5
1B4
  8
0
 62
     7
 10
83.550553000000008
 20
105.039852
 30
0.0
 40
0.62532
 50
272.00586700000002
 51
278.977869
  0
LINE
  5
1B5
  8
0
 62
     7
 10
83.648099999999999
 20
104.422
 30
0.0
 11
83.652999999999992
 21
104.39
 31
0.0
  0
LINE
  5
1B6
  8
0
 62
     7
 10
83.652999999999992
 20
104.39
 30
0.0
 11
83.002499999999998
 21
104.295
 31
0.0
  0
LINE
  5
1B7
  8
0
 62
     7
 10
83.002499999999998
 20
104.295
 30
0.0
 11
82.997699999999995
 21
104.32599999999999
 31
0.0
  0
ARC
  5
1B8
  8
0
 62
     7
 10
82.907427999999996
 20
104.96369300000001
 30
0.0
 40
0.6439770000000001
 50
278.05799000000002
 51
285.04584
  0
ARC
  5
1B9
  8
0
 62
     7
 10
83.039886999999993
 20
104.479979
 30
0.0
 40
0.142479
 50
284.10107599999992
 51
301.73612800000001
  0
ARC
  5
1BA
  8
0
 62
     7
 10
83.059425000000005
 20
104.445234
 30
0.0
 40
0.102665
 50
302.66209800000001
 51
336.27955300000002
  0
ARC
  5
1BB
  8
0
 62
     7
 10
83.090519
 20
104.42526599999999
 30
0.0
 40
0.066417
 50
341.26544999999999
 51
1.203479
  0
ARC
  5
1BC
  8
0
 62
     7
 10
82.656401999999986
 20
104.432378
 30
0.0
 40
0.500552
 50
359.34558299999998
 51
10.486392
  0
LINE
  5
1BD
  8
0
 62
     7
 10
83.148600000000016
 20
104.523
 30
0.0
 11
83.037999999999997
 21
105.273
 31
0.0
  0
ARC
  5
1BE
  8
0
 62
     7
 10
82.144262999999995
 20
105.14105499999999
 30
0.0
 40
0.9034499999999999
 50
8.4066429999999972
 51
13.604952000000001
  0
ARC
  5
1BF
  8
0
 62
     7
 10
82.913776999999996
 20
105.330658
 30
0.0
 40
0.110977
 50
11.914952
 51
31.860700000000008
  0
ARC
  5
1C0
  8
0
 62
     7
 10
82.940091000000024
 20
105.338078
 30
0.0
 40
0.08505
 50
36.979636999999997
 51
78.027194999999992
  0
ARC
  5
1C1
  8
0
 62
     7
 10
82.928835000000007
 20
105.322946
 30
0.0
 40
0.10249
 50
73.621603000000007
 51
89.537182999999999
  0
ARC
  5
1C2
  8
0
 62
     7
 10
82.918247999999977
 20
104.94757199999999
 30
0.0
 40
0.4779970000000001
 50
88.631687000000014
 51
99.851321999999996
  0
LINE
  5
1C3
  8
0
 62
     7
 10
82.836499999999987
 20
105.419
 30
0.0
 11
82.831999999999994
 21
105.45
 31
0.0
  0
LINE
  5
1C4
  8
0
 62
     7
 10
82.831999999999994
 20
105.45
 30
0.0
 11
83.422499999999985
 21
105.53700000000001
 31
0.0
  0
ARC
  5
1C5
  8
0
 62
     7
 10
83.873998999999998
 20
102.471833
 30
0.0
 40
3.0982780000000001
 50
95.634295999999992
 51
98.37965100000001
  0
ARC
  5
1C6
  8
0
 62
     7
 10
83.680879000000004
 20
104.494069
 30
0.0
 40
1.0668699999999991
 50
85.537268000000012
 51
95.975510000000014
  0
ARC
  5
1C7
  8
0
 62
     7
 10
83.723343999999983
 20
105.198629
 30
0.0
 40
0.361358
 50
50.321528999999991
 51
83.557158000000001
  0
ARC
  5
1C8
  8
0
 62
     7
 10
83.768865000000005
 20
105.263426
 30
0.0
 40
0.282493
 50
8.2166230000000002
 51
49.03627199999999
  0
ARC
  5
1C9
  8
0
 62
     7
 10
83.773716000000007
 20
105.264713
 30
0.0
 40
0.27751
 50
317.56293699999998
 51
8.0968389999999992
  0
ARC
  5
1CA
  8
0
 62
     7
 10
83.736671000000001
 20
105.298919
 30
0.0
 40
0.327931
 50
296.78892500000001
 51
317.519611
  0
ARC
  5
1CB
  8
0
 62
     7
 10
83.588339999999988
 20
105.551936
 30
0.0
 40
0.6209180000000001
 50
290.85285499999998
 51
298.48475500000001
  0
LINE
  5
1CC
  8
0
 62
     7
 10
83.809399999999997
 20
104.97199999999999
 30
0.0
 11
84.172500000000014
 21
104.626
 31
0.0
  0
ARC
  5
1CD
  8
0
 62
     7
 10
84.840565999999995
 20
105.333208
 30
0.0
 40
0.9730159999999999
 50
226.63763499999999
 51
234.22249600000001
  0
ARC
  5
1CE
  8
0
 62
     7
 10
84.344841999999986
 20
104.69131299999999
 30
0.0
 40
0.164644
 50
243.62603200000001
 51
277.17618299999998
  0
LINE
  5
1CF
  8
0
 62
     7
 10
84.365399999999994
 20
104.52800000000001
 30
0.0
 11
84.369899999999987
 21
104.496
 31
0.0
  0
LINE
  5
1D0
  8
0
 62
     7
 10
84.369899999999987
 20
104.496
 30
0.0
 11
83.969599999999986
 21
104.437
 31
0.0
  0
LINE
  5
1D1
  8
0
 62
     7
 10
83.969599999999986
 20
104.437
 30
0.0
 11
83.482399999999998
 21
104.90300000000001
 31
0.0
  0
LINE
  5
1D2
  8
0
 62
     7
 10
83.482399999999998
 20
104.90300000000001
 30
0.0
 11
83.399100000000004
 21
104.89100000000001
 31
0.0
  0
LINE
  5
1D3
  8
0
 62
     7
 10
81.820199999999986
 20
104.756
 30
0.0
 11
81.853600000000014
 21
104.383
 31
0.0
  0
LINE
  5
1D4
  8
0
 62
     7
 10
81.853600000000014
 20
104.383
 30
0.0
 11
81.856700000000004
 21
104.34
 31
0.0
  0
ARC
  5
1D5
  8
0
 62
     7
 10
81.963444999999993
 20
104.349497
 30
0.0
 40
0.107174
 50
184.97690700000001
 51
225.790852
  0
ARC
  5
1D6
  8
0
 62
     7
 10
81.946875000000006
 20
104.351263
 30
0.0
 40
0.097768
 50
233.496464
 51
282.45017899999999
  0
ARC
  5
1D7
  8
0
 62
     7
 10
81.939778000000004
 20
104.582683
 30
0.0
 40
0.328101
 50
274.92615799999999
 51
300.11114500000002
  0
ARC
  5
1D8
  8
0
 62
     7
 10
81.986483000000007
 20
104.497426
 30
0.0
 40
0.23093
 50
300.69908700000002
 51
333.94968799999998
  0
ARC
  5
1D9
  8
0
 62
     7
 10
81.969098999999986
 20
104.50211299999999
 30
0.0
 40
0.248629
 50
334.73852599999998
 51
6.0466040000000003
  0
ARC
  5
1DA
  8
0
 62
     7
 10
81.936846000000003
 20
104.50292899999999
 30
0.0
 40
0.280649
 50
5.1871859999999987
 51
36.683169999999997
  0
ARC
  5
1DB
  8
0
 62
     7
 10
81.982230000000001
 20
104.529881
 30
0.0
 40
0.228219
 50
38.063690000000001
 51
75.527253999999985
  0
ARC
  5
1DC
  8
0
 62
     7
 10
81.965549999999993
 20
104.46227399999999
 30
0.0
 40
0.29785
 50
75.670608000000001
 51
84.690273999999988
  0
ARC
  5
1DD
  8
0
 62
     7
 10
81.917997999999997
 20
103.963899
 30
0.0
 40
0.798487
 50
84.602142999999998
 51
97.038313000000002
  0
ARC
  5
1DE
  8
0
 62
     7
 10
81.726386000000005
 20
105.83710000000001
 30
0.0
 40
1.0176700000000001
 50
274.93638600000003
 51
279.882541
  0
ARC
  5
1DF
  8
0
 62
     7
 10
81.836099999999988
 20
105.23270599999999
 30
0.0
 40
0.403437
 50
279.26408099999998
 51
295.4228930000001
  0
ARC
  5
1E0
  8
0
 62
     7
 10
81.897739999999985
 20
105.076414
 30
0.0
 40
0.236095
 50
298.19654400000002
 51
328.90020800000002
  0
ARC
  5
1E1
  8
0
 62
     7
 10
81.926691000000005
 20
105.05171799999999
 30
0.0
 40
0.198645
 50
330.68661600000007
 51
9.4535219999999995
  0
ARC
  5
1E2
  8
0
 62
     7
 10
81.870805999999988
 20
105.062697
 30
0.0
 40
0.252761
 50
4.9132400000000001
 51
35.001559
  0
ARC
  5
1E3
  8
0
 62
     7
 10
81.919284000000005
 20
105.076375
 30
0.0
 40
0.205875
 50
39.627059000000003
 51
74.244132999999991
  0
ARC
  5
1E4
  8
0
 62
     7
 10
81.909607999999992
 20
105.057625
 30
0.0
 40
0.226588
 50
73.176806000000013
 51
83.70885899999999
  0
ARC
  5
1E5
  8
0
 62
     7
 10
81.870908999999983
 20
104.743318
 30
0.0
 40
0.5432570000000001
 50
83.284390000000016
 51
91.811451000000005
  0
ARC
  5
1E6
  8
0
 62
     7
 10
81.884187999999995
 20
104.115694
 30
0.0
 40
1.1710059999999991
 50
91.490107999999992
 51
95.450479999999985
  0
LINE
  5
1E7
  8
0
 62
     7
 10
81.772999999999996
 20
105.28100000000001
 30
0.0
 11
81.813999999999993
 21
104.82299999999999
 31
0.0
  0
ARC
  5
1E8
  8
0
 62
     7
 10
82.020564000000007
 20
103.65035899999999
 30
0.0
 40
1.1886139999999989
 50
73.370529000000005
 51
83.270617999999999
  0
ARC
  5
1E9
  8
0
 62
     7
 10
82.257177999999996
 20
104.47891
 30
0.0
 40
0.3271679999999999
 50
59.395535999999993
 51
71.549243999999973
  0
ARC
  5
1EA
  8
0
 62
     7
 10
82.283785999999992
 20
104.534204
 30
0.0
 40
0.266081
 50
7.2052630000000004
 51
58.265183
  0
ARC
  5
1EB
  8
0
 62
     7
 10
82.280403000000007
 20
104.54653999999999
 30
0.0
 40
0.268189
 50
309.58592399999998
 51
4.4989910000000002
  0
ARC
  5
1EC
  8
0
 62
     7
 10
82.160348999999997
 20
104.67478199999999
 30
0.0
 40
0.4436550000000001
 50
293.54655200000002
 51
310.98107199999998
  0
ARC
  5
1ED
  8
0
 62
     7
 10
82.033687
 20
104.947715
 30
0.0
 40
0.7444970000000001
 50
278.46049900000003
 51
294.09148800000003
  0
ARC
  5
1EE
  8
0
 62
     7
 10
81.934661000000006
 20
105.460852
 30
0.0
 40
1.2668189999999999
 50
275.04927900000001
 51
279.47600299999999
  0
LINE
  5
1EF
  8
0
 62
     7
 10
82.046199999999999
 20
104.199
 30
0.0
 11
81.396100000000004
 21
104.14
 31
0.0
  0
LINE
  5
1F0
  8
0
 62
     7
 10
81.396100000000004
 20
104.14
 30
0.0
 11
81.393299999999996
 21
104.172
 31
0.0
  0
ARC
  5
1F1
  8
0
 62
     7
 10
81.340321000000003
 20
104.795068
 30
0.0
 40
0.6252390000000001
 50
274.86134800000002
 51
282.47854799999999
  0
ARC
  5
1F2
  8
0
 62
     7
 10
81.449485999999993
 20
104.31059
 30
0.0
 40
0.128633
 50
281.63097499999998
 51
299.16068300000001
  0
ARC
  5
1F3
  8
0
 62
     7
 10
81.459862999999999
 20
104.28873299999999
 30
0.0
 40
0.104502
 50
300.03151400000007
 51
332.80902700000001
  0
ARC
  5
1F4
  8
0
 62
     7
 10
81.490307999999999
 20
104.26643199999999
 30
0.0
 40
0.067491
 50
337.844921
 51
358.12510300000002
  0
ARC
  5
1F5
  8
0
 62
     7
 10
81.051524999999998
 20
104.29908
 30
0.0
 40
0.507437
 50
356.06120099999998
 51
6.955016999999998
  0
LINE
  5
1F6
  8
0
 62
     7
 10
81.555199999999999
 20
104.361
 30
0.0
 11
81.487399999999994
 21
105.11499999999999
 31
0.0
  0
ARC
  5
1F7
  8
0
 62
     7
 10
80.627909000000017
 20
105.041269
 30
0.0
 40
0.8626370000000001
 50
4.9265629999999989
 51
10.253061000000001
  0
ARC
  5
1F8
  8
0
 62
     7
 10
81.362293999999991
 20
105.177829
 30
0.0
 40
0.11573
 50
8.4399740000000012
 51
28.569765
  0
ARC
  5
1F9
  8
0
 62
     7
 10
81.393376000000004
 20
105.187003
 30
0.0
 40
0.08432
 50
33.200308
 51
74.647656999999995
  0
ARC
  5
1FA
  8
0
 62
     7
 10
81.379700999999997
 20
105.158975
 30
0.0
 40
0.115113
 50
71.77644699999999
 51
86.741558999999995
  0
ARC
  5
1FB
  8
0
 62
     7
 10
81.35148199999999
 20
104.795266
 30
0.0
 40
0.4798960000000001
 50
85.846017000000003
 51
96.827460000000016
  0
LINE
  5
1FC
  8
0
 62
     7
 10
81.294399999999996
 20
105.27200000000001
 30
0.0
 11
81.291700000000006
 21
105.304
 31
0.0
  0
LINE
  5
1FD
  8
0
 62
     7
 10
81.291700000000006
 20
105.304
 30
0.0
 11
81.904899999999998
 21
105.35899999999999
 31
0.0
  0
ARC
  5
1FE
  8
0
 62
     7
 10
82.109921
 20
103.042889
 30
0.0
 40
2.325088
 50
91.895572999999999
 51
95.058600999999996
  0
ARC
  5
1FF
  8
0
 62
     7
 10
82.065496999999993
 20
104.408244
 30
0.0
 40
0.9590110000000001
 50
84.932888000000005
 51
91.941207999999975
  0
ARC
  5
200
  8
0
 62
     7
 10
82.118729999999999
 20
104.991412
 30
0.0
 40
0.373423
 50
74.353009
 51
85.165864999999997
  0
ARC
  5
201
  8
0
 62
     7
 10
82.126646999999991
 20
105.02337799999999
 30
0.0
 40
0.340508
 50
43.548777000000001
 51
74.185004000000006
  0
ARC
  5
202
  8
0
 62
     7
 10
82.171447999999984
 20
105.078497
 30
0.0
 40
0.270214
 50
7.1022240000000014
 51
41.622677000000003
  0
ARC
  5
203
  8
0
 62
     7
 10
82.237106999999995
 20
105.094325
 30
0.0
 40
0.203244
 50
317.18201399999998
 51
4.9622190000000002
  0
ARC
  5
204
  8
0
 62
     7
 10
82.217542000000009
 20
105.100494
 30
0.0
 40
0.221961
 50
308.961431
 51
319.44713200000001
  0
ARC
  5
205
  8
0
 62
     7
 10
82.120457000000002
 20
105.21897300000001
 30
0.0
 40
0.375135
 50
298.74687499999999
 51
309.11286999999999
  0
ARC
  5
206
  8
0
 62
     7
 10
81.941486999999995
 20
105.54756999999999
 30
0.0
 40
0.749308
 50
286.9425930000001
 51
298.66097000000002
  0
LINE
  5
207
  8
0
 62
     7
 10
79.904700000000005
 20
104.098
 30
0.0
 11
78.779499999999999
 21
104.098
 31
0.0
  0
LINE
  5
208
  8
0
 62
     7
 10
78.779499999999999
 20
104.098
 30
0.0
 11
78.779499999999999
 21
105.223
 31
0.0
  0
LINE
  5
209
  8
0
 62
     7
 10
78.779499999999999
 20
105.223
 30
0.0
 11
79.904700000000005
 21
105.223
 31
0.0
  0
LINE
  5
20A
  8
0
 62
     7
 10
79.904700000000005
 20
105.223
 30
0.0
 11
79.904700000000005
 21
104.098
 31
0.0
  0
ARC
  5
20B
  8
0
 62
     7
 10
88.795231999999984
 20
106.275936
 30
0.0
 40
0.330255
 50
220.51638
 51
306.27948099999998
  0
ARC
  5
20C
  8
0
 62
     7
 10
88.776514000000006
 20
106.260571
 30
0.0
 40
0.329833
 50
310.48365100000001
 51
36.302084000000001
  0
ARC
  5
20D
  8
0
 62
     7
 10
88.791261999999989
 20
106.241291
 30
0.0
 40
0.330255
 50
40.516359999999999
 51
126.279461
  0
ARC
  5
20E
  8
0
 62
     7
 10
88.811024000000003
 20
106.256534
 30
0.0
 40
0.330604
 50
130.60775599999999
 51
216.17797899999999
  0
ARC
  5
20F
  8
0
 62
     7
 10
88.757209000000003
 20
106.27629
 30
0.0
 40
0.7790600000000002
 50
291.30461200000002
 51
17.080435999999999
  0
ARC
  5
210
  8
0
 62
     7
 10
88.775453999999996
 20
106.221478
 30
0.0
 40
0.7798600000000001
 50
21.327423
 51
107.04030400000001
  0
ARC
  5
211
  8
0
 62
     7
 10
79.330627000000007
 20
133.628716
 30
0.0
 40
29.96789600000001
 50
270.02191499999998
 51
289.07644399999998
  0
LINE
  5
212
  8
0
 62
     7
 10
89.124999999999986
 20
105.307
 30
0.0
 11
89.039599999999993
 21
105.551
 31
0.0
  0
LINE
  5
213
  8
0
 62
     7
 10
88.548999999999978
 20
106.961
 30
0.0
 11
88.467000000000013
 21
107.196
 31
0.0
  0
ARC
  5
214
  8
0
 62
     7
 10
79.377059000000003
 20
133.339665
 30
0.0
 40
27.678974
 50
269.92761200000001
 51
289.17205000000013
  0
ARC
  5
215
  8
0
 62
     7
 10
69.888799000000006
 20
106.27628799999999
 30
0.0
 40
0.330459
 50
233.77598299999991
 51
319.43324699999999
  0
ARC
  5
216
  8
0
 62
     7
 10
69.908074999999997
 20
106.260723
 30
0.0
 40
0.330221
 50
143.780045
 51
229.47787700000001
  0
ARC
  5
217
  8
0
 62
     7
 10
69.892783999999992
 20
106.24086200000001
 30
0.0
 40
0.330571
 50
53.771357000000002
 51
139.432782
  0
ARC
  5
218
  8
0
 62
     7
 10
69.873669999999976
 20
106.256615
 30
0.0
 40
0.330089
 50
323.73920199999998
 51
49.475064000000003
  0
ARC
  5
219
  8
0
 62
     7
 10
69.926962000000003
 20
106.276208
 30
0.0
 40
0.7789220000000001
 50
162.910067
 51
248.70488499999999
  0
ARC
  5
21A
  8
0
 62
     7
 10
69.908376000000004
 20
106.222447
 30
0.0
 40
0.779033
 50
72.915075000000002
 51
158.72526199999999
  0
ARC
  5
21B
  8
0
 62
     7
 10
79.353539999999995
 20
133.62768399999999
 30
0.0
 40
29.966864000000001
 50
250.92324500000001
 51
269.97810600000003
  0
LINE
  5
21C
  8
0
 62
     7
 10
69.559299999999993
 20
105.307
 30
0.0
 11
69.644400000000005
 21
105.551
 31
0.0
  0
LINE
  5
21D
  8
0
 62
     7
 10
70.135000000000005
 20
106.961
 30
0.0
 11
70.216999999999999
 21
107.196
 31
0.0
  0
ARC
  5
21E
  8
0
 62
     7
 10
79.30762
 20
133.34371899999999
 30
0.0
 40
27.683028000000011
 50
250.82939099999999
 51
270.07134100000002
  0
ARC
  5
21F
  8
0
 62
     7
 10
148.15689
 20
103.92993300000001
 30
0.0
 40
0.519573
 50
272.093661
 51
357.86687599999999
  0
ARC
  5
220
  8
0
 62
     7
 10
144.19507200000001
 20
103.92993300000001
 30
0.0
 40
0.519573
 50
182.1331439999999
 51
267.90635900000001
  0
ARC
  5
221
  8
0
 62
     7
 10
148.15689
 20
162.89164299999999
 30
0.0
 40
0.519573
 50
2.133124
 51
87.906339000000017
  0
ARC
  5
222
  8
0
 62
     7
 10
144.19507200000001
 20
162.89164299999999
 30
0.0
 40
0.519573
 50
92.093641000000005
 51
177.86685600000001
  0
ARC
  5
223
  8
0
 62
     7
 10
146.17113900000001
 20
133.42479700000001
 30
0.0
 40
2.0139049999999989
 50
270.12796300000002
 51
308.550546
  0
ARC
  5
224
  8
0
 62
     7
 10
146.18229600000001
 20
133.43022500000001
 30
0.0
 40
2.0193389999999991
 50
231.51885899999999
 51
269.81105400000001
  0
LINE
  5
225
  8
0
 62
     7
 10
145.55099999999999
 20
132.328
 30
0.0
 11
144.92599999999999
 21
133.411
 31
0.0
  0
LINE
  5
226
  8
0
 62
     7
 10
144.92599999999999
 20
133.411
 30
0.0
 11
145.55099999999999
 21
134.49299999999999
 31
0.0
  0
LINE
  5
227
  8
0
 62
     7
 10
145.55099999999999
 20
134.49299999999999
 30
0.0
 11
146.80099999999999
 21
134.49299999999999
 31
0.0
  0
LINE
  5
228
  8
0
 62
     7
 10
146.80099999999999
 20
134.49299999999999
 30
0.0
 11
147.42599999999999
 21
133.411
 31
0.0
  0
LINE
  5
229
  8
0
 62
     7
 10
147.42599999999999
 20
133.411
 30
0.0
 11
146.80099999999999
 21
132.328
 31
0.0
  0
LINE
  5
22A
  8
0
 62
     7
 10
146.80099999999999
 20
132.328
 30
0.0
 11
145.55099999999999
 21
132.328
 31
0.0
  0
ARC
  5
22B
  8
0
 62
     7
 10
146.13767300000001
 20
133.449467
 30
0.0
 40
1.0391449999999991
 50
272.093661
 51
357.86687599999999
  0
ARC
  5
22C
  8
0
 62
     7
 10
146.21426600000001
 20
133.44941800000001
 30
0.0
 40
1.0391209999999991
 50
182.13050699999999
 51
267.86952200000002
  0
ARC
  5
22D
  8
0
 62
     7
 10
146.21461500000001
 20
133.37216699999999
 30
0.0
 40
1.0394699999999999
 50
92.149011000000002
 51
177.870699
  0
ARC
  5
22E
  8
0
 62
     7
 10
146.17580899999999
 20
133.410616
 30
0.0
 40
1.000289999999999
 50
0.009877
 51
90.009846999999993
  0
ARC
  5
22F
  8
0
 62
     7
 10
146.175636
 20
133.410788
 30
0.0
 40
1.249889
 50
270.00002000000001
 51
359.99999000000003
  0
ARC
  5
230
  8
0
 62
     7
 10
146.175636
 20
133.410788
 30
0.0
 40
1.249887999999999
 50
179.99996999999999
 51
270.00002000000001
  0
ARC
  5
231
  8
0
 62
     7
 10
146.17580899999999
 20
133.41095999999999
 30
0.0
 40
1.2500610000000001
 50
90.007894999999991
 51
180.00790499999999
  0
ARC
  5
232
  8
0
 62
     7
 10
146.17546400000001
 20
133.41095999999999
 30
0.0
 40
1.2500610000000001
 50
359.99211500000013
 51
89.992084999999989
  0
LINE
  5
233
  8
0
 62
     7
 10
144.67599999999999
 20
135.161
 30
0.0
 11
147.67599999999999
 21
135.161
 31
0.0
  0
LINE
  5
234
  8
0
 62
     7
 10
147.42599999999999
 20
135.161
 30
0.0
 11
147.42599999999999
 21
131.84999999999999
 31
0.0
  0
LINE
  5
235
  8
0
 62
     7
 10
144.92599999999999
 20
135.161
 30
0.0
 11
144.92599999999999
 21
131.84999999999999
 31
0.0
  0
LINE
  5
236
  8
0
 62
     7
 10
147.67599999999999
 20
135.161
 30
0.0
 11
147.67599999999999
 21
102.786
 31
0.0
  0
LINE
  5
237
  8
0
 62
     7
 10
144.67599999999999
 20
135.161
 30
0.0
 11
144.67599999999999
 21
102.786
 31
0.0
  0
LINE
  5
238
  8
0
 62
     7
 10
144.17599999999999
 20
103.411
 30
0.0
 11
144.67500000000001
 21
103.411
 31
0.0
  0
LINE
  5
239
  8
0
 62
     7
 10
147.67599999999999
 20
103.411
 30
0.0
 11
148.17599999999999
 21
103.411
 31
0.0
  0
ARC
  5
23A
  8
0
 62
     7
 10
146.118471
 20
102.842928
 30
0.0
 40
1.558219
 50
272.1024680000001
 51
357.89754199999999
  0
ARC
  5
23B
  8
0
 62
     7
 10
146.232812
 20
102.842938
 30
0.0
 40
1.5582279999999999
 50
182.10281000000001
 51
267.89722
  0
LINE
  5
23C
  8
0
 62
     7
 10
144.17599999999999
 20
163.411
 30
0.0
 11
148.17599999999999
 21
163.411
 31
0.0
  0
LINE
  5
23D
  8
0
 62
     7
 10
148.67599999999999
 20
162.911
 30
0.0
 11
148.67599999999999
 21
103.911
 31
0.0
  0
LINE
  5
23E
  8
0
 62
     7
 10
143.67599999999999
 20
162.911
 30
0.0
 11
143.67599999999999
 21
103.911
 31
0.0
  0
ARC
  5
23F
  8
0
 62
     7
 10
148.80047400000001
 20
84.269326000000007
 30
0.0
 40
0.5165810000000001
 50
9.4773830000000014
 51
88.433445999999989
  0
ARC
  5
240
  8
0
 62
     7
 10
158.377016
 20
73.41023100000001
 30
0.0
 40
2.7986610000000001
 50
0.00808
 51
22.210948000000009
  0
ARC
  5
241
  8
0
 62
     7
 10
159.11836700000001
 20
73.679247000000004
 30
0.0
 40
2.010869
 50
23.099668999999999
 51
42.103939999999987
  0
ARC
  5
242
  8
0
 62
     7
 10
159.63971599999999
 20
74.118305000000007
 30
0.0
 40
1.3298989999999991
 50
43.129466000000001
 51
66.150886999999997
  0
ARC
  5
243
  8
0
 62
     7
 10
159.79584199999999
 20
74.413122999999985
 30
0.0
 40
0.9974069999999999
 50
67.506206000000006
 51
89.699348999999998
  0
LINE
  5
244
  8
0
 62
     7
 10
161.17599999999999
 20
73.410600000000002
 30
0.0
 11
161.17599999999999
 21
72.660600000000002
 31
0.0
  0
ARC
  5
245
  8
0
 62
     7
 10
159.93455
 20
75.922786000000002
 30
0.0
 40
0.5123450000000001
 50
200.669972
 51
269.02012100000002
  0
ARC
  5
246
  8
0
 62
     7
 10
158.37117799999999
 20
75.348089000000002
 30
0.0
 40
1.1533379999999991
 50
19.967376999999999
 51
60.477978999999998
  0
ARC
  5
247
  8
0
 62
     7
 10
158.558212
 20
75.618545999999995
 30
0.0
 40
0.8263580000000002
 50
62.522474000000003
 51
73.441248000000002
  0
ARC
  5
248
  8
0
 62
     7
 10
237.38247799999999
 20
96.419647999999995
 30
0.0
 40
88.895056999999994
 50
187.80055200000001
 51
188.30895100000001
  0
ARC
  5
249
  8
0
 62
     7
 10
173.31325100000001
 20
87.07759200000001
 30
0.0
 40
24.148326999999998
 50
188.34377799999999
 51
190.96491800000001
  0
ARC
  5
24A
  8
0
 62
     7
 10
160.680419
 20
84.681835000000007
 30
0.0
 40
11.290545
 50
191.222917
 51
196.41933399999999
  0
ARC
  5
24B
  8
0
 62
     7
 10
156.18104
 20
83.39819399999999
 30
0.0
 40
6.6119399999999988
 50
196.770498
 51
207.21346
  0
ARC
  5
24C
  8
0
 62
     7
 10
154.67291299999999
 20
82.690220999999994
 30
0.0
 40
4.9473529999999988
 50
207.90914699999999
 51
233.88586100000001
  0
ARC
  5
24D
  8
0
 62
     7
 10
155.83144999999999
 20
84.177514000000002
 30
0.0
 40
6.8319489999999998
 50
233.388431
 51
243.365846
  0
ARC
  5
24E
  8
0
 62
     7
 10
157.488066
 20
87.318170999999978
 30
0.0
 40
10.382244999999999
 50
242.96355700000001
 51
250.73296300000001
  0
ARC
  5
24F
  8
0
 62
     7
 10
159.438841
 20
92.542566000000008
 30
0.0
 40
15.958159999999999
 50
250.310688
 51
254.22710000000001
  0
ARC
  5
250
  8
0
 62
     7
 10
161.21627699999999
 20
98.674019999999999
 30
0.0
 40
22.341939
 50
254.11471
 51
257.27493199999998
  0
ARC
  5
251
  8
0
 62
     7
 10
163.84750700000001
 20
110.142241
 30
0.0
 40
34.108094000000001
 50
257.20696600000002
 51
261.47914199999991
  0
LINE
  5
252
  8
0
 62
     7
 10
146.17599999999999
 20
84.785700000000006
 30
0.0
 11
148.815
 21
84.785700000000006
 31
0.0
  0
LINE
  5
253
  8
0
 62
     7
 10
146.17599999999999
 20
75.410499999999999
 30
0.0
 11
159.92599999999999
 21
75.410499999999999
 31
0.0
  0
LINE
  5
254
  8
0
 62
     7
 10
146.17599999999999
 20
72.660600000000002
 30
0.0
 11
161.17599999999999
 21
72.660600000000002
 31
0.0
  0
ARC
  5
255
  8
0
 62
     7
 10
148.68039999999999
 20
97.285612000000015
 30
0.0
 40
0.6902390000000001
 50
355.56468999999998
 51
0.001722
  0
ARC
  5
256
  8
0
 62
     7
 10
148.591645
 20
97.256629000000004
 30
0.0
 40
0.779533
 50
2.132318999999999
 51
87.893984000000003
  0
ARC
  5
257
  8
0
 62
     7
 10
147.92575600000001
 20
99.035408000000004
 30
0.0
 40
0.5002310000000002
 50
0.00001
 51
89.999980000000008
  0
ARC
  5
258
  8
0
 62
     7
 10
147.92575600000001
 20
99.035752999999985
 30
0.0
 40
0.5002310000000002
 50
270.00002000000001
 51
359.99999000000003
  0
LINE
  5
259
  8
0
 62
     7
 10
148.92599999999999
 20
91.035499999999999
 30
0.0
 11
149.369
 21
97.232200000000006
 31
0.0
  0
LINE
  5
25A
  8
0
 62
     7
 10
146.17599999999999
 20
87.035399999999996
 30
0.0
 11
148.67599999999999
 21
87.035399999999996
 31
0.0
  0
LINE
  5
25B
  8
0
 62
     7
 10
146.17599999999999
 20
91.035499999999999
 30
0.0
 11
148.92599999999999
 21
91.035499999999999
 31
0.0
  0
LINE
  5
25C
  8
0
 62
     7
 10
146.17599999999999
 20
98.035600000000002
 30
0.0
 11
148.67599999999999
 21
98.035600000000002
 31
0.0
  0
LINE
  5
25D
  8
0
 62
     7
 10
146.17599999999999
 20
98.535499999999999
 30
0.0
 11
148.42599999999999
 21
98.535499999999999
 31
0.0
  0
LINE
  5
25E
  8
0
 62
     7
 10
148.67599999999999
 20
87.035399999999996
 30
0.0
 11
148.67599999999999
 21
84.785700000000006
 31
0.0
  0
LINE
  5
25F
  8
0
 62
     7
 10
148.42599999999999
 20
91.035499999999999
 30
0.0
 11
148.42599999999999
 21
87.035399999999996
 31
0.0
  0
LINE
  5
260
  8
0
 62
     7
 10
148.42599999999999
 20
98.540700000000001
 30
0.0
 11
148.42599999999999
 21
98.040499999999994
 31
0.0
  0
LINE
  5
261
  8
0
 62
     7
 10
146.17599999999999
 20
99.535600000000017
 30
0.0
 11
147.92599999999999
 21
99.535600000000017
 31
0.0
  0
ARC
  5
262
  8
0
 62
     7
 10
143.55059
 20
84.270379000000005
 30
0.0
 40
0.515523
 50
91.546531000000002
 51
170.62159299999999
  0
ARC
  5
263
  8
0
 62
     7
 10
133.9718
 20
73.410239000000004
 30
0.0
 40
2.796203999999999
 50
157.76865699999999
 51
179.99205699999999
  0
ARC
  5
264
  8
0
 62
     7
 10
133.233307
 20
73.678425000000004
 30
0.0
 40
2.0113819999999989
 50
137.87769499999999
 51
156.88109499999999
  0
ARC
  5
265
  8
0
 62
     7
 10
132.71210500000001
 20
74.117850000000004
 30
0.0
 40
1.330279999999999
 50
113.837723
 51
136.85902300000001
  0
ARC
  5
266
  8
0
 62
     7
 10
132.55622500000001
 20
74.412334000000001
 30
0.0
 40
0.9981969999999998
 50
90.306392000000017
 51
112.4848379999999
  0
LINE
  5
267
  8
0
 62
     7
 10
131.17599999999999
 20
73.410600000000002
 30
0.0
 11
131.17599999999999
 21
72.660600000000002
 31
0.0
  0
ARC
  5
268
  8
0
 62
     7
 10
132.416382
 20
75.924268999999995
 30
0.0
 40
0.513833
 50
271.01510000000002
 51
339.21594099999999
  0
ARC
  5
269
  8
0
 62
     7
 10
133.98122699999999
 20
75.347934999999993
 30
0.0
 40
1.153807
 50
119.547631
 51
160.032928
  0
ARC
  5
26A
  8
0
 62
     7
 10
133.79351800000001
 20
75.617588999999995
 30
0.0
 40
0.82721
 50
106.524421
 51
117.44719600000001
  0
ARC
  5
26B
  8
0
 62
     7
 10
55.275877000000001
 20
96.377497000000005
 30
0.0
 40
88.585779000000002
 50
351.68940700000002
 51
352.19958200000002
  0
ARC
  5
26C
  8
0
 62
     7
 10
119.078985
 20
87.071440999999993
 30
0.0
 40
24.107576000000002
 50
349.031228
 51
351.656812
  0
ARC
  5
26D
  8
0
 62
     7
 10
131.68632400000001
 20
84.678774000000004
 30
0.0
 40
11.275409
 50
343.57423699999998
 51
348.77769999999998
  0
ARC
  5
26E
  8
0
 62
     7
 10
136.17044000000001
 20
83.398747000000014
 30
0.0
 40
6.612467999999998
 50
332.78352899999999
 51
343.22589900000003
  0
ARC
  5
26F
  8
0
 62
     7
 10
137.67847399999999
 20
82.690774999999988
 30
0.0
 40
4.9479689999999996
 50
306.11303600000002
 51
332.08738399999999
  0
ARC
  5
270
  8
0
 62
     7
 10
136.518822
 20
84.179839999999999
 30
0.0
 40
6.834649999999999
 50
296.63583999999997
 51
306.60937899999999
  0
ARC
  5
271
  8
0
 62
     7
 10
134.86165199999999
 20
87.322579000000005
 30
0.0
 40
10.387053999999999
 50
289.26925799999998
 51
297.03495199999998
  0
ARC
  5
272
  8
0
 62
     7
 10
132.910673
 20
92.548783999999998
 30
0.0
 40
15.964745000000001
 50
285.77449100000001
 51
289.68914000000001
  0
ARC
  5
273
  8
0
 62
     7
 10
131.135222
 20
98.674036999999998
 30
0.0
 40
22.342017999999999
 50
282.72577899999999
 51
285.88585599999999
  0
ARC
  5
274
  8
0
 62
     7
 10
128.504515
 20
110.13898500000001
 30
0.0
 40
34.104863999999999
 50
278.52159
 51
282.79386799999997
  0
LINE
  5
275
  8
0
 62
     7
 10
146.17599999999999
 20
84.785700000000006
 30
0.0
 11
143.53700000000001
 21
84.785700000000006
 31
0.0
  0
LINE
  5
276
  8
0
 62
     7
 10
146.17599999999999
 20
75.410499999999999
 30
0.0
 11
132.42500000000001
 21
75.410499999999999
 31
0.0
  0
LINE
  5
277
  8
0
 62
     7
 10
146.17599999999999
 20
72.660600000000002
 30
0.0
 11
131.17599999999999
 21
72.660600000000002
 31
0.0
  0
ARC
  5
278
  8
0
 62
     7
 10
143.67155600000001
 20
97.285612000000015
 30
0.0
 40
0.690233
 50
179.99823799999999
 51
184.43535
  0
ARC
  5
279
  8
0
 62
     7
 10
143.76029500000001
 20
97.256676999999996
 30
0.0
 40
0.779509
 50
92.155118999999999
 51
177.87117599999999
  0
ARC
  5
27A
  8
0
 62
     7
 10
144.444875
 20
99.016765000000007
 30
0.0
 40
0.5192350000000001
 50
92.136610000000005
 51
177.94233500000001
  0
ARC
  5
27B
  8
0
 62
     7
 10
144.444875
 20
99.054396000000011
 30
0.0
 40
0.5192350000000001
 50
182.05766499999999
 51
267.86338999999998
  0
LINE
  5
27C
  8
0
 62
     7
 10
143.42599999999999
 20
91.035499999999999
 30
0.0
 11
142.983
 21
97.232200000000006
 31
0.0
  0
LINE
  5
27D
  8
0
 62
     7
 10
146.17599999999999
 20
87.035399999999996
 30
0.0
 11
143.67599999999999
 21
87.035399999999996
 31
0.0
  0
LINE
  5
27E
  8
0
 62
     7
 10
146.17599999999999
 20
91.035499999999999
 30
0.0
 11
143.42599999999999
 21
91.035499999999999
 31
0.0
  0
LINE
  5
27F
  8
0
 62
     7
 10
146.17599999999999
 20
98.035600000000002
 30
0.0
 11
143.67599999999999
 21
98.035600000000002
 31
0.0
  0
LINE
  5
280
  8
0
 62
     7
 10
146.17599999999999
 20
98.535499999999999
 30
0.0
 11
143.92599999999999
 21
98.535499999999999
 31
0.0
  0
LINE
  5
281
  8
0
 62
     7
 10
143.67599999999999
 20
87.035399999999996
 30
0.0
 11
143.67599999999999
 21
84.785700000000006
 31
0.0
  0
LINE
  5
282
  8
0
 62
     7
 10
143.92599999999999
 20
91.035499999999999
 30
0.0
 11
143.92599999999999
 21
87.035399999999996
 31
0.0
  0
LINE
  5
283
  8
0
 62
     7
 10
143.92599999999999
 20
98.540700000000001
 30
0.0
 11
143.92599999999999
 21
98.040499999999994
 31
0.0
  0
LINE
  5
284
  8
0
 62
     7
 10
147.92599999999999
 20
100.286
 30
0.0
 11
147.92599999999999
 21
99.535600000000017
 31
0.0
  0
LINE
  5
285
  8
0
 62
     7
 10
147.92599999999999
 20
100.286
 30
0.0
 11
146.79300000000001
 21
101.41800000000001
 31
0.0
  0
LINE
  5
286
  8
0
 62
     7
 10
144.42599999999999
 20
100.286
 30
0.0
 11
145.559
 21
101.41800000000001
 31
0.0
  0
LINE
  5
287
  8
0
 62
     7
 10
144.42599999999999
 20
100.286
 30
0.0
 11
144.42599999999999
 21
99.535600000000017
 31
0.0
  0
LINE
  5
288
  8
0
 62
     7
 10
146.17599999999999
 20
99.535600000000017
 30
0.0
 11
144.42599999999999
 21
99.535600000000017
 31
0.0
  0
LINE
  5
289
  8
0
  6
AIGENLINE001
 62
     7
 10
139.15700000000001
 20
133.411
 30
0.0
 11
153.19499999999999
 21
133.411
 31
0.0
  0
LINE
  5
28A
  8
0
  6
AIGENLINE001
 62
     7
 10
146.17599999999999
 20
168.16300000000001
 30
0.0
 11
146.17599999999999
 21
67.256600000000006
 31
0.0
  0
ARC
  5
28B
  8
0
 62
     7
 10
81.351120999999978
 20
101.08789299999999
 30
0.0
 40
0.259053
 50
94.771480999999994
 51
178.14532399999999
  0
ARC
  5
28C
  8
0
 62
     7
 10
81.966481000000002
 20
84.268819999999991
 30
0.0
 40
0.517099
 50
9.5246220000000008
 51
88.386206999999985
  0
ARC
  5
28D
  8
0
 62
     7
 10
91.546087999999997
 20
73.410238000000007
 30
0.0
 40
2.7962090000000002
 50
0.007943
 51
22.231304000000002
  0
ARC
  5
28E
  8
0
 62
     7
 10
92.284586000000004
 20
73.678425000000004
 30
0.0
 40
2.0113819999999989
 50
23.118884999999999
 51
42.122284999999998
  0
ARC
  5
28F
  8
0
 62
     7
 10
92.805788000000007
 20
74.117850000000004
 30
0.0
 40
1.330279999999999
 50
43.140957
 51
66.162256999999997
  0
ARC
  5
290
  8
0
 62
     7
 10
92.961667999999989
 20
74.412334000000001
 30
0.0
 40
0.9981969999999998
 50
67.515141999999983
 51
89.693588000000005
  0
LINE
  5
291
  8
0
 62
     7
 10
94.342299999999994
 20
73.410600000000002
 30
0.0
 11
94.342299999999994
 21
72.660600000000002
 31
0.0
  0
ARC
  5
292
  8
0
 62
     7
 10
93.101511000000002
 20
75.924268999999995
 30
0.0
 40
0.513833
 50
200.78407899999999
 51
268.9849200000001
  0
ARC
  5
293
  8
0
 62
     7
 10
91.536665999999997
 20
75.347934999999993
 30
0.0
 40
1.153807
 50
19.967051999999999
 51
60.452348999999991
  0
ARC
  5
294
  8
0
 62
     7
 10
91.724374999999995
 20
75.617588999999995
 30
0.0
 40
0.82721
 50
62.552783999999988
 51
73.47555899999999
  0
ARC
  5
295
  8
0
 62
     7
 10
169.69288599999999
 20
96.292501000000001
 30
0.0
 40
88.029682999999991
 50
187.794184
 51
188.30757600000001
  0
ARC
  5
296
  8
0
 62
     7
 10
106.455642
 20
87.07210400000001
 30
0.0
 40
24.123783
 50
188.33915499999989
 51
190.96293600000001
  0
ARC
  5
297
  8
0
 62
     7
 10
93.838187000000005
 20
84.679377000000002
 30
0.0
 40
11.281669000000001
 50
191.21913499999999
 51
196.41960499999999
  0
ARC
  5
298
  8
0
 62
     7
 10
89.344404999999995
 20
83.396839999999997
 30
0.0
 40
6.6087429999999987
 50
196.766592
 51
207.21451400000001
  0
ARC
  5
299
  8
0
 62
     7
 10
87.839322999999993
 20
82.690301000000005
 30
0.0
 40
4.9475189999999998
 50
207.90917099999999
 51
233.88478900000001
  0
ARC
  5
29A
  8
0
 62
     7
 10
88.998940000000005
 20
84.179441999999995
 30
0.0
 40
6.8342429999999981
 50
233.38964300000001
 51
243.36354600000001
  0
ARC
  5
29B
  8
0
 62
     7
 10
90.655197999999999
 20
87.320013000000003
 30
0.0
 40
10.384302999999999
 50
242.96367499999999
 51
250.73129299999999
  0
ARC
  5
29C
  8
0
 62
     7
 10
92.607176999999993
 20
92.548783999999998
 30
0.0
 40
15.964745000000001
 50
250.31088
 51
254.22552899999999
  0
ARC
  5
29D
  8
0
 62
     7
 10
94.382627999999997
 20
98.674036999999998
 30
0.0
 40
22.342017999999999
 50
254.11416399999999
 51
257.27424100000002
  0
ARC
  5
29E
  8
0
 62
     7
 10
97.013431000000026
 20
110.13996
 30
0.0
 40
34.105837000000001
 50
257.20635700000003
 51
261.47858400000001
  0
LINE
  5
29F
  8
0
 62
     7
 10
79.342100000000002
 20
84.785700000000006
 30
0.0
 11
81.981000000000009
 21
84.785700000000006
 31
0.0
  0
LINE
  5
2A0
  8
0
 62
     7
 10
79.342100000000002
 20
75.410499999999999
 30
0.0
 11
93.092399999999998
 21
75.410499999999999
 31
0.0
  0
LINE
  5
2A1
  8
0
 62
     7
 10
79.342100000000002
 20
72.660600000000002
 30
0.0
 11
94.342299999999994
 21
72.660600000000002
 31
0.0
  0
ARC
  5
2A2
  8
0
 62
     7
 10
81.846502999999984
 20
97.285612000000015
 30
0.0
 40
0.6902390000000001
 50
355.56468999999998
 51
0.001722
  0
ARC
  5
2A3
  8
0
 62
     7
 10
81.758151999999995
 20
97.257044999999991
 30
0.0
 40
0.7791140000000001
 50
2.102806999999999
 51
87.897182999999998
  0
ARC
  5
2A4
  8
0
 62
     7
 10
81.072863999999996
 20
99.016425999999996
 30
0.0
 40
0.519573
 50
2.093650999999999
 51
87.866866000000016
  0
ARC
  5
2A5
  8
0
 62
     7
 10
81.072863999999996
 20
99.054733999999996
 30
0.0
 40
0.519573
 50
272.13313399999998
 51
357.90634899999998
  0
LINE
  5
2A6
  8
0
 62
     7
 10
82.092299999999994
 20
91.035499999999999
 30
0.0
 11
82.534700000000001
 21
97.232200000000006
 31
0.0
  0
LINE
  5
2A7
  8
0
 62
     7
 10
79.342100000000002
 20
87.035399999999996
 30
0.0
 11
81.842200000000005
 21
87.035399999999996
 31
0.0
  0
LINE
  5
2A8
  8
0
 62
     7
 10
79.342100000000002
 20
91.035499999999999
 30
0.0
 11
82.092299999999994
 21
91.035499999999999
 31
0.0
  0
LINE
  5
2A9
  8
0
 62
     7
 10
79.342100000000002
 20
98.035600000000002
 30
0.0
 11
81.842200000000005
 21
98.035600000000002
 31
0.0
  0
LINE
  5
2AA
  8
0
 62
     7
 10
79.342100000000002
 20
98.535499999999999
 30
0.0
 11
81.592099999999988
 21
98.535499999999999
 31
0.0
  0
LINE
  5
2AB
  8
0
 62
     7
 10
81.842200000000005
 20
87.035399999999996
 30
0.0
 11
81.842200000000005
 21
84.785700000000006
 31
0.0
  0
LINE
  5
2AC
  8
0
 62
     7
 10
81.592099999999988
 20
91.035499999999999
 30
0.0
 11
81.592099999999988
 21
87.035399999999996
 31
0.0
  0
LINE
  5
2AD
  8
0
 62
     7
 10
81.592099999999988
 20
98.540700000000001
 30
0.0
 11
81.592099999999988
 21
98.040499999999994
 31
0.0
  0
LINE
  5
2AE
  8
0
 62
     7
 10
81.092200000000005
 20
101.096
 30
0.0
 11
81.092200000000005
 21
99.535600000000017
 31
0.0
  0
LINE
  5
2AF
  8
0
 62
     7
 10
79.342100000000002
 20
99.535600000000017
 30
0.0
 11
81.092200000000005
 21
99.535600000000017
 31
0.0
  0
ARC
  5
2B0
  8
0
 62
     7
 10
77.333043000000004
 20
101.08771
 30
0.0
 40
0.259235
 50
1.893783999999999
 51
85.230881999999994
  0
ARC
  5
2B1
  8
0
 62
     7
 10
76.717414000000005
 20
84.269336999999993
 30
0.0
 40
0.516575
 50
91.585144999999997
 51
170.52372199999999
  0
ARC
  5
2B2
  8
0
 62
     7
 10
67.137559999999993
 20
73.409554
 30
0.0
 40
2.7955160000000001
 50
157.29590999999999
 51
179.97801000000001
  0
ARC
  5
2B3
  8
0
 62
     7
 10
66.379223999999994
 20
73.690690000000004
 30
0.0
 40
1.9877130000000001
 50
137.18741399999999
 51
156.33470700000001
  0
ARC
  5
2B4
  8
0
 62
     7
 10
65.866947999999994
 20
74.132696999999993
 30
0.0
 40
1.311745999999999
 50
112.879257
 51
136.143587
  0
ARC
  5
2B5
  8
0
 62
     7
 10
65.721468000000002
 20
74.416999000000004
 30
0.0
 40
0.9935270000000001
 50
90.258226000000008
 51
111.52386300000001
  0
LINE
  5
2B6
  8
0
 62
     7
 10
64.341999999999999
 20
73.410600000000002
 30
0.0
 11
64.341999999999999
 21
72.660600000000002
 31
0.0
  0
ARC
  5
2B7
  8
0
 62
     7
 10
65.582999999999998
 20
75.923527000000007
 30
0.0
 40
0.513088
 50
270.99749800000001
 51
339.27297600000003
  0
ARC
  5
2B8
  8
0
 62
     7
 10
67.148798999999997
 20
75.346581999999984
 30
0.0
 40
1.1556500000000001
 50
119.57281
 51
159.99476999999999
  0
ARC
  5
2B9
  8
0
 62
     7
 10
66.959737000000004
 20
75.618068000000008
 30
0.0
 40
0.8267839999999999
 50
106.541561
 51
117.4623439999999
  0
ARC
  5
2BA
  8
0
 62
     7
 10
-11.008546000000001
 20
96.292501000000001
 30
0.0
 40
88.029682999999991
 50
351.69244400000002
 51
352.20583599999998
  0
ARC
  5
2BB
  8
0
 62
     7
 10
52.215984999999989
 20
87.074500999999998
 30
0.0
 40
24.136709
 50
349.03723400000001
 51
351.65961399999998
  0
ARC
  5
2BC
  8
0
 62
     7
 10
64.841864000000001
 20
84.680606000000012
 30
0.0
 40
11.286104999999999
 50
343.58055000000002
 51
348.77899400000001
  0
ARC
  5
2BD
  8
0
 62
     7
 10
69.337294999999997
 20
83.398094
 30
0.0
 40
6.6116060000000001
 50
332.78604899999999
 51
343.229557
  0
ARC
  5
2BE
  8
0
 62
     7
 10
70.845360999999997
 20
82.690078
 30
0.0
 40
4.9470539999999996
 50
306.11222900000001
 51
332.09091599999999
  0
ARC
  5
2BF
  8
0
 62
     7
 10
69.685224000000005
 20
84.179687000000015
 30
0.0
 40
6.8344610000000001
 50
296.63554599999998
 51
306.60939999999999
  0
ARC
  5
2C0
  8
0
 62
     7
 10
68.028345999999999
 20
87.321759999999998
 30
0.0
 40
10.386139
 50
289.26851599999998
 51
297.03500400000001
  0
ARC
  5
2C1
  8
0
 62
     7
 10
66.077050999999997
 20
92.548781999999974
 30
0.0
 40
15.964705
 50
285.77400899999998
 51
289.68876
  0
ARC
  5
2C2
  8
0
 62
     7
 10
64.300864000000004
 20
98.67698
 30
0.0
 40
22.345011
 50
282.72551099999998
 51
285.88525800000002
  0
ARC
  5
2C3
  8
0
 62
     7
 10
61.670665
 20
110.140291
 30
0.0
 40
34.106149000000009
 50
278.521186
 51
282.79346299999997
  0
LINE
  5
2C4
  8
0
 62
     7
 10
79.342100000000002
 20
84.785700000000006
 30
0.0
 11
76.703100000000006
 21
84.785700000000006
 31
0.0
  0
LINE
  5
2C5
  8
0
 62
     7
 10
79.342100000000002
 20
75.410499999999999
 30
0.0
 11
65.591899999999995
 21
75.410499999999999
 31
0.0
  0
LINE
  5
2C6
  8
0
 62
     7
 10
79.342100000000002
 20
72.660600000000002
 30
0.0
 11
64.341999999999999
 21
72.660600000000002
 31
0.0
  0
ARC
  5
2C7
  8
0
 62
     7
 10
76.781567999999993
 20
97.281394999999989
 30
0.0
 40
0.633983
 50
179.617006
 51
184.44744
  0
ARC
  5
2C8
  8
0
 62
     7
 10
76.926189000000008
 20
97.257044999999991
 30
0.0
 40
0.7791140000000001
 50
92.102779999999996
 51
177.89718999999999
  0
ARC
  5
2C9
  8
0
 62
     7
 10
77.592223000000004
 20
99.035494000000014
 30
0.0
 40
0.500145
 50
90.009867000000014
 51
180.00987699999999
  0
ARC
  5
2CA
  8
0
 62
     7
 10
77.592223000000004
 20
99.035666000000006
 30
0.0
 40
0.500145
 50
179.990104
 51
269.99015299999991
  0
LINE
  5
2CB
  8
0
 62
     7
 10
76.591999999999999
 20
91.035499999999999
 30
0.0
 11
76.149500000000003
 21
97.232200000000006
 31
0.0
  0
LINE
  5
2CC
  8
0
 62
     7
 10
79.342100000000002
 20
87.035399999999996
 30
0.0
 11
76.841999999999999
 21
87.035399999999996
 31
0.0
  0
LINE
  5
2CD
  8
0
 62
     7
 10
79.342100000000002
 20
91.035499999999999
 30
0.0
 11
76.591999999999999
 21
91.035499999999999
 31
0.0
  0
LINE
  5
2CE
  8
0
 62
     7
 10
79.342100000000002
 20
98.035600000000002
 30
0.0
 11
76.841999999999999
 21
98.035600000000002
 31
0.0
  0
LINE
  5
2CF
  8
0
 62
     7
 10
79.342100000000002
 20
98.535499999999999
 30
0.0
 11
77.092100000000002
 21
98.535499999999999
 31
0.0
  0
LINE
  5
2D0
  8
0
 62
     7
 10
76.841999999999999
 20
87.035399999999996
 30
0.0
 11
76.841999999999999
 21
84.785700000000006
 31
0.0
  0
LINE
  5
2D1
  8
0
 62
     7
 10
77.092100000000002
 20
91.035499999999999
 30
0.0
 11
77.092100000000002
 21
87.035399999999996
 31
0.0
  0
LINE
  5
2D2
  8
0
 62
     7
 10
77.092100000000002
 20
98.540700000000001
 30
0.0
 11
77.092100000000002
 21
98.040499999999994
 31
0.0
  0
LINE
  5
2D3
  8
0
 62
     7
 10
77.592100000000002
 20
101.096
 30
0.0
 11
77.592100000000002
 21
99.535600000000017
 31
0.0
  0
LINE
  5
2D4
  8
0
 62
     7
 10
79.342100000000002
 20
99.535600000000017
 30
0.0
 11
77.592100000000002
 21
99.535600000000017
 31
0.0
  0
ARC
  5
2D5
  8
0
 62
     7
 10
79.340997999999999
 20
102.449754
 30
0.0
 40
2.1641129999999991
 50
270.028772
 51
291.53419600000001
  0
ARC
  5
2D6
  8
0
 62
     7
 10
79.568918999999994
 20
101.81074
 30
0.0
 40
1.486213999999999
 50
292.40327300000001
 51
313.712985
  0
ARC
  5
2D7
  8
0
 62
     7
 10
79.954814999999996
 20
101.37392699999999
 30
0.0
 40
0.9041
 50
315.16614800000002
 51
342.12113399999998
  0
ARC
  5
2D8
  8
0
 62
     7
 10
80.154491000000007
 20
101.286581
 30
0.0
 40
0.687598
 50
343.94014900000002
 51
359.931445
  0
LINE
  5
2D9
  8
0
 62
     7
 10
79.342100000000002
 20
101.286
 30
0.0
 11
80.842100000000002
 21
101.286
 31
0.0
  0
ARC
  5
2DA
  8
0
 62
     7
 10
79.343174000000005
 20
102.449349
 30
0.0
 40
2.1637080000000002
 50
248.46378300000001
 51
269.97114599999998
  0
ARC
  5
2DB
  8
0
 62
     7
 10
79.115366000000009
 20
101.810924
 30
0.0
 40
1.486397999999999
 50
226.28989300000001
 51
247.598175
  0
ARC
  5
2DC
  8
0
 62
     7
 10
78.729669000000001
 20
101.374183
 30
0.0
 40
0.904474
 50
197.88830999999999
 51
224.83319800000001
  0
ARC
  5
2DD
  8
0
 62
     7
 10
78.529865999999998
 20
101.286627
 30
0.0
 40
0.687786
 50
180.07234199999999
 51
196.05929699999999
  0
LINE
  5
2DE
  8
0
 62
     7
 10
79.342100000000002
 20
101.286
 30
0.0
 11
77.842100000000002
 21
101.286
 31
0.0
  0
ARC
  5
2DF
  8
0
 62
     7
 10
48.206167000000001
 20
133.41317599999999
 30
0.0
 40
2.364231999999999
 50
172.483294
 51
180.04953800000001
  0
ARC
  5
2E0
  8
0
 62
     7
 10
47.100871999999988
 20
133.547493
 30
0.0
 40
1.250915999999999
 50
160.66384400000001
 51
171.95995199999999
  0
ARC
  5
2E1
  8
0
 62
     7
 10
46.586421999999999
 20
133.72155000000001
 30
0.0
 40
0.7078800000000001
 50
136.814481
 51
160.17002600000001
  0
ARC
  5
2E2
  8
0
 62
     7
 10
46.481034999999999
 20
133.79549800000001
 30
0.0
 40
0.580715
 50
108.91142000000001
 51
135.01806099999999
  0
ARC
  5
2E3
  8
0
 62
     7
 10
46.617699999999992
 20
133.43423000000001
 30
0.0
 40
0.966854
 50
95.729690999999988
 51
109.634331
  0
ARC
  5
2E4
  8
0
 62
     7
 10
46.749437
 20
132.44221200000001
 30
0.0
 40
1.967328
 50
92.103980000000035
 51
96.662876999999995
  0
ARC
  5
2E5
  8
0
 62
     7
 10
46.832189999999997
 20
130.232495
 30
0.0
 40
4.1785940000000004
 50
89.867097000000001
 51
92.125512999999984
  0
ARC
  5
2E6
  8
0
 62
     7
 10
48.207572999999996
 20
133.409085
 30
0.0
 40
2.3656380000000001
 50
179.95038199999999
 51
187.51446999999999
  0
ARC
  5
2E7
  8
0
 62
     7
 10
47.101044000000002
 20
133.274586
 30
0.0
 40
1.251074
 50
188.034931
 51
199.332976
  0
ARC
  5
2E8
  8
0
 62
     7
 10
46.586531000000001
 20
133.10052400000001
 30
0.0
 40
0.7079750000000001
 50
199.82555199999999
 51
223.18094199999999
  0
ARC
  5
2E9
  8
0
 62
     7
 10
46.48095399999999
 20
133.026466
 30
0.0
 40
0.580598
 50
224.981537
 51
251.092972
  0
ARC
  5
2EA
  8
0
 62
     7
 10
46.617553000000001
 20
133.387381
 30
0.0
 40
0.9663809999999999
 50
250.36489700000001
 51
264.27622300000002
  0
ARC
  5
2EB
  8
0
 62
     7
 10
46.749873000000001
 20
134.387317
 30
0.0
 40
1.9747859999999999
 50
263.34967799999998
 51
267.89132599999999
  0
ARC
  5
2EC
  8
0
 62
     7
 10
46.832312000000002
 20
136.61242100000001
 30
0.0
 40
4.2014170000000002
 50
267.88436799999999
 51
270.13051100000001
  0
ARC
  5
2ED
  8
0
 62
     7
 10
82.871482999999998
 20
133.25659400000001
 30
0.0
 40
34.120758000000002
 50
184.18659099999991
 51
185.68589700000001
  0
ARC
  5
2EE
  8
0
 62
     7
 10
47.572569000000001
 20
131.93009900000001
 30
0.0
 40
0.5195610000000001
 50
272.1304970000001
 51
357.86951299999998
  0
LINE
  5
2EF
  8
0
 62
     7
 10
47.277999999999999
 20
131.411
 30
0.0
 11
47.591900000000003
 21
131.411
 31
0.0
  0
ARC
  5
2F0
  8
0
 62
     7
 10
79.603254000000007
 20
133.399642
 30
0.0
 40
32.386340000000011
 50
183.52059
 51
185.73122499999999
  0
LINE
  5
2F1
  8
0
 62
     7
 10
48.091799999999999
 20
135.161
 30
0.0
 11
48.841799999999999
 21
135.161
 31
0.0
  0
LINE
  5
2F2
  8
0
 62
     7
 10
46.841900000000003
 20
132.411
 30
0.0
 11
46.841900000000003
 21
134.411
 31
0.0
  0
LINE
  5
2F3
  8
0
 62
     7
 10
47.841799999999999
 20
132.161
 30
0.0
 11
47.841799999999999
 21
134.661
 31
0.0
  0
LINE
  5
2F4
  8
0
 62
     7
 10
48.091799999999999
 20
131.911
 30
0.0
 11
48.091799999999999
 21
135.161
 31
0.0
  0
LINE
  5
2F5
  8
0
 62
     7
 10
48.091799999999999
 20
132.161
 30
0.0
 11
47.841799999999999
 21
132.161
 31
0.0
  0
LINE
  5
2F6
  8
0
 62
     7
 10
47.841799999999999
 20
132.411
 30
0.0
 11
46.841900000000003
 21
132.411
 31
0.0
  0
LINE
  5
2F7
  8
0
 62
     7
 10
48.091799999999999
 20
134.661
 30
0.0
 11
47.841799999999999
 21
134.661
 31
0.0
  0
LINE
  5
2F8
  8
0
 62
     7
 10
47.841799999999999
 20
134.411
 30
0.0
 11
46.841900000000003
 21
134.411
 31
0.0
  0
LINE
  5
2F9
  8
0
 62
     7
 10
49.367499999999993
 20
132.161
 30
0.0
 11
48.841799999999999
 21
132.161
 31
0.0
  0
LINE
  5
2FA
  8
0
 62
     7
 10
47.841799999999999
 20
133.411
 30
0.0
 11
46.841900000000003
 21
133.411
 31
0.0
  0
LINE
  5
2FB
  8
0
 62
     7
 10
49.341799999999999
 20
134.661
 30
0.0
 11
48.841799999999999
 21
134.661
 31
0.0
  0
LINE
  5
2FC
  8
0
 62
     7
 10
48.841799999999999
 20
130.76599999999999
 30
0.0
 11
48.841799999999999
 21
135.161
 31
0.0
  0
ARC
  5
2FD
  8
0
 62
     7
 10
110.46960199999999
 20
133.41255799999999
 30
0.0
 40
2.3724579999999991
 50
359.96558199999998
 51
7.5055319999999996
  0
ARC
  5
2FE
  8
0
 62
     7
 10
111.58452800000001
 20
133.547732
 30
0.0
 40
1.2494819999999991
 50
8.0382750000000005
 51
19.347626000000002
  0
ARC
  5
2FF
  8
0
 62
     7
 10
112.09791800000001
 20
133.721701
 30
0.0
 40
0.707475
 50
19.828778
 51
43.199520999999997
  0
ARC
  5
300
  8
0
 62
     7
 10
112.202766
 20
133.79522399999999
 30
0.0
 40
0.580998
 50
44.992305000000002
 51
71.090621999999996
  0
ARC
  5
301
  8
0
 62
     7
 10
112.066209
 20
133.43434199999999
 30
0.0
 40
0.966736
 50
70.365459000000001
 51
84.273371999999995
  0
ARC
  5
302
  8
0
 62
     7
 10
111.934358
 20
132.44145900000001
 30
0.0
 40
1.968081999999999
 50
83.338194000000016
 51
87.895814000000016
  0
ARC
  5
303
  8
0
 62
     7
 10
111.851632
 20
130.23207400000001
 30
0.0
 40
4.1790149999999988
 50
87.874576000000005
 51
90.132837999999992
  0
ARC
  5
304
  8
0
 62
     7
 10
110.468193
 20
133.40970300000001
 30
0.0
 40
2.3738669999999988
 50
352.49669899999998
 51
0.034505
  0
ARC
  5
305
  8
0
 62
     7
 10
111.584355
 20
133.274348
 30
0.0
 40
1.249641
 50
340.65555699999999
 51
351.96684199999999
  0
ARC
  5
306
  8
0
 62
     7
 10
112.09781
 20
133.10037299999999
 30
0.0
 40
0.7075700000000001
 50
316.80505599999998
 51
340.17564399999998
  0
ARC
  5
307
  8
0
 62
     7
 10
112.20284599999999
 20
133.02673999999999
 30
0.0
 40
0.5808810000000002
 50
288.90498600000001
 51
315.00809700000002
  0
ARC
  5
308
  8
0
 62
     7
 10
112.066356
 20
133.387269
 30
0.0
 40
0.9662639999999999
 50
275.72071399999999
 51
289.63531399999999
  0
ARC
  5
309
  8
0
 62
     7
 10
111.933922
 20
134.38807299999999
 30
0.0
 40
1.975543
 50
272.10888
 51
276.64925299999999
  0
ARC
  5
30A
  8
0
 62
     7
 10
111.85151
 20
136.61284499999999
 30
0.0
 40
4.201840999999999
 50
269.869553
 51
272.115543
  0
ARC
  5
30B
  8
0
 62
     7
 10
74.779031000000003
 20
133.35941800000001
 30
0.0
 40
35.159171999999998
 50
354.31421499999999
 51
355.76928599999991
  0
ARC
  5
30C
  8
0
 62
     7
 10
111.111581
 20
131.93043800000001
 30
0.0
 40
0.519898
 50
182.16647599999999
 51
267.87302699999998
  0
LINE
  5
30D
  8
0
 62
     7
 10
111.40600000000001
 20
131.411
 30
0.0
 11
111.092
 21
131.411
 31
0.0
  0
ARC
  5
30E
  8
0
 62
     7
 10
78.847234999999984
 20
133.41403199999999
 30
0.0
 40
32.620117999999998
 50
354.284603
 51
356.47936800000002
  0
ARC
  5
30F
  8
0
 62
     7
 10
78.420741000000007
 20
134.37038799999999
 30
0.0
 40
33.152200000000001
 50
275.03371200000009
 51
352.71319099999999
  0
ARC
  5
310
  8
0
 62
     7
 10
80.272303000000008
 20
134.379817
 30
0.0
 40
33.162371999999998
 50
187.301005
 51
264.95245999999997
  0
ARC
  5
311
  8
0
 62
     7
 10
78.43838199999999
 20
134.42879600000001
 30
0.0
 40
31.655934999999999
 50
271.63589200000001
 51
351.731154
  0
ARC
  5
312
  8
0
 62
     7
 10
80.281734999999983
 20
134.46956499999999
 30
0.0
 40
31.69773300000001
 50
188.332358
 51
268.30128000000002
  0
ARC
  5
313
  8
0
 62
     7
 10
79.342078999999998
 20
133.41079300000001
 30
0.0
 40
30.000086
 50
270.00002000000001
 51
359.99999000000003
  0
ARC
  5
314
  8
0
 62
     7
 10
79.341993000000002
 20
133.41086899999999
 30
0.0
 40
30.000162
 50
180.00017399999999
 51
270.00018399999999
  0
ARC
  5
315
  8
0
 62
     7
 10
79.342089000000001
 20
133.41078300000001
 30
0.0
 40
30.00025900000001
 50
90.0
 51
179.99996999999999
  0
ARC
  5
316
  8
0
 62
     7
 10
79.341993000000002
 20
133.41086899999999
 30
0.0
 40
30.000171999999999
 50
359.99984499999999
 51
89.99981600000001
  0
ARC
  5
317
  8
0
 62
     7
 10
79.341734999999986
 20
133.410448
 30
0.0
 40
27.499964000000009
 50
270.00073800000001
 51
0.000708
  0
ARC
  5
318
  8
0
 62
     7
 10
79.342166000000006
 20
133.410697
 30
0.0
 40
27.500212999999999
 50
179.99979099999999
 51
269.99984000000001
  0
ARC
  5
319
  8
0
 62
     7
 10
79.342174999999983
 20
133.41086899999999
 30
0.0
 40
27.500222999999998
 50
90.000179000000017
 51
180.00018899999989
  0
ARC
  5
31A
  8
0
 62
     7
 10
79.341734999999986
 20
133.41112799999999
 30
0.0
 40
27.499964000000009
 50
359.99929200000003
 51
89.999262000000002
  0
ARC
  5
31B
  8
0
 62
     7
 10
108.822639
 20
209.79714999999999
 30
0.0
 40
0.519898
 50
272.12699300000003
 51
357.83354300000002
  0
ARC
  5
31C
  8
0
 62
     7
 10
108.84202000000001
 20
213.777536
 30
0.0
 40
0.500145
 50
0.009877
 51
90.009846999999993
  0
ARC
  5
31D
  8
0
 62
     7
 10
49.86119999999999
 20
209.796986
 30
0.0
 40
0.5197350000000001
 50
182.14904100000001
 51
267.87072899999998
  0
ARC
  5
31E
  8
0
 62
     7
 10
49.841889999999999
 20
213.77762200000001
 30
0.0
 40
0.5000590000000001
 50
90.0
 51
179.99996999999999
  0
ARC
  5
31F
  8
0
 62
     7
 10
79.738117000000003
 20
211.306059
 30
0.0
 40
15.476609
 50
91.466296999999997
 51
168.930679
  0
ARC
  5
320
  8
0
 62
     7
 10
78.927837999999994
 20
211.28429499999999
 30
0.0
 40
15.498842
 50
11.135211
 51
88.468429999999984
  0
ARC
  5
321
  8
0
 62
     7
 10
78.945074000000005
 20
212.25046699999999
 30
0.0
 40
15.47804
 50
271.46980000000002
 51
348.92577999999997
  0
ARC
  5
322
  8
0
 62
     7
 10
79.756322999999995
 20
212.270647
 30
0.0
 40
15.498665000000001
 50
191.13534200000001
 51
268.46845999999999
  0
ARC
  5
323
  8
0
 62
     7
 10
79.693753999999998
 20
211.352014
 30
0.0
 40
14.180059
 50
91.421090000000007
 51
168.09304499999999
  0
ARC
  5
324
  8
0
 62
     7
 10
78.974879000000001
 20
211.333765
 30
0.0
 40
14.198695000000001
 50
11.966341
 51
88.518049000000005
  0
ARC
  5
325
  8
0
 62
     7
 10
78.990324999999999
 20
212.202742
 30
0.0
 40
14.179698
 50
271.42150400000008
 51
348.09496899999999
  0
ARC
  5
326
  8
0
 62
     7
 10
79.709275000000005
 20
212.22197399999999
 30
0.0
 40
14.199315
 50
191.968391
 51
268.518191
  0
ARC
  5
327
  8
0
 62
     7
 10
79.351644999999991
 20
211.751048
 30
0.0
 40
3.2766489999999999
 50
90.167175
 51
129.546967
  0
ARC
  5
328
  8
0
 62
     7
 10
79.332657999999995
 20
211.751082
 30
0.0
 40
3.276613999999999
 50
50.666168999999996
 51
89.835153999999989
  0
ARC
  5
329
  8
0
 62
     7
 10
79.342368999999991
 20
211.77897200000001
 30
0.0
 40
3.2513640000000001
 50
269.99498399999999
 51
302.19354199999998
  0
ARC
  5
32A
  8
0
 62
     7
 10
79.349992
 20
211.80796900000001
 30
0.0
 40
3.2803699999999991
 50
237.952663
 51
269.86188499999997
  0
LINE
  5
32B
  8
0
 62
     7
 10
110.592
 20
135.161
 30
0.0
 11
109.842
 21
135.161
 31
0.0
  0
LINE
  5
32C
  8
0
 62
     7
 10
111.842
 20
132.411
 30
0.0
 11
111.842
 21
134.411
 31
0.0
  0
LINE
  5
32D
  8
0
 62
     7
 10
110.842
 20
132.161
 30
0.0
 11
110.842
 21
134.661
 31
0.0
  0
LINE
  5
32E
  8
0
 62
     7
 10
110.592
 20
131.911
 30
0.0
 11
110.592
 21
135.161
 31
0.0
  0
LINE
  5
32F
  8
0
 62
     7
 10
110.592
 20
132.161
 30
0.0
 11
110.842
 21
132.161
 31
0.0
  0
LINE
  5
330
  8
0
 62
     7
 10
110.842
 20
132.411
 30
0.0
 11
111.842
 21
132.411
 31
0.0
  0
LINE
  5
331
  8
0
 62
     7
 10
110.592
 20
134.661
 30
0.0
 11
110.842
 21
134.661
 31
0.0
  0
LINE
  5
332
  8
0
 62
     7
 10
110.842
 20
134.411
 30
0.0
 11
111.842
 21
134.411
 31
0.0
  0
LINE
  5
333
  8
0
 62
     7
 10
109.31699999999999
 20
132.161
 30
0.0
 11
109.842
 21
132.161
 31
0.0
  0
LINE
  5
334
  8
0
 62
     7
 10
110.842
 20
133.411
 30
0.0
 11
111.842
 21
133.411
 31
0.0
  0
LINE
  5
335
  8
0
 62
     7
 10
109.342
 20
134.661
 30
0.0
 11
109.842
 21
134.661
 31
0.0
  0
LINE
  5
336
  8
0
 62
     7
 10
109.842
 20
130.76599999999999
 30
0.0
 11
109.842
 21
135.161
 31
0.0
  0
ARC
  5
337
  8
0
 62
     7
 10
111.842028
 20
211.777646
 30
0.0
 40
1.000032
 50
269.99508500000002
 51
359.99505499999998
  0
ARC
  5
338
  8
0
 62
     7
 10
111.841942
 20
211.777559
 30
0.0
 40
1.0001180000000001
 50
0.00001
 51
89.999980000000008
  0
LINE
  5
339
  8
0
 62
     7
 10
110.592
 20
210.52799999999999
 30
0.0
 11
109.842
 21
210.27799999999999
 31
0.0
  0
LINE
  5
33A
  8
0
 62
     7
 10
110.592
 20
213.02799999999999
 30
0.0
 11
109.842
 21
213.27799999999999
 31
0.0
  0
LINE
  5
33B
  8
0
 62
     7
 10
111.842
 20
210.77799999999999
 30
0.0
 11
111.842
 21
212.77799999999999
 31
0.0
  0
LINE
  5
33C
  8
0
 62
     7
 10
110.842
 20
210.77799999999999
 30
0.0
 11
110.842
 21
212.77799999999999
 31
0.0
  0
LINE
  5
33D
  8
0
 62
     7
 10
110.592
 20
210.52799999999999
 30
0.0
 11
110.592
 21
213.02799999999999
 31
0.0
  0
LINE
  5
33E
  8
0
 62
     7
 10
110.592
 20
210.77799999999999
 30
0.0
 11
111.842
 21
210.77799999999999
 31
0.0
  0
LINE
  5
33F
  8
0
 62
     7
 10
110.592
 20
212.77799999999999
 30
0.0
 11
111.842
 21
212.77799999999999
 31
0.0
  0
LINE
  5
340
  8
0
 62
     7
 10
109.342
 20
210.52799999999999
 30
0.0
 11
109.842
 21
210.52799999999999
 31
0.0
  0
LINE
  5
341
  8
0
 62
     7
 10
110.842
 20
211.27799999999999
 30
0.0
 11
111.842
 21
211.27799999999999
 31
0.0
  0
LINE
  5
342
  8
0
 62
     7
 10
110.842
 20
212.27799999999999
 30
0.0
 11
111.842
 21
212.27799999999999
 31
0.0
  0
LINE
  5
343
  8
0
 62
     7
 10
109.342
 20
213.02799999999999
 30
0.0
 11
109.842
 21
213.02799999999999
 31
0.0
  0
LINE
  5
344
  8
0
 62
     7
 10
109.842
 20
210.27799999999999
 30
0.0
 11
109.842
 21
213.27799999999999
 31
0.0
  0
ARC
  5
345
  8
0
 62
     7
 10
46.841881000000001
 20
211.777559
 30
0.0
 40
0.9999450000000001
 50
179.99996999999999
 51
270.00002000000001
  0
ARC
  5
346
  8
0
 62
     7
 10
46.841968000000001
 20
211.77764500000001
 30
0.0
 40
1.000032
 50
90.004935000000003
 51
180.00494499999999
  0
LINE
  5
347
  8
0
  6
AIGENLINE001
 62
     7
 10
44.012599999999992
 20
133.411
 30
0.0
 11
114.67100000000001
 21
133.411
 31
0.0
  0
LINE
  5
348
  8
0
  6
AIGENLINE001
 62
     7
 10
44.012599999999992
 20
211.77799999999999
 30
0.0
 11
114.67100000000001
 21
211.77799999999999
 31
0.0
  0
LINE
  5
349
  8
0
  6
AIGENLINE001
 62
     7
 10
79.342100000000002
 20
168.16300000000001
 30
0.0
 11
79.342100000000002
 21
67.956699999999998
 31
0.0
  0
LINE
  5
34A
  8
0
  6
AIGENLINE001
 62
     7
 10
79.342100000000002
 20
230.65100000000001
 30
0.0
 11
79.342100000000002
 21
192.904
 31
0.0
  0
LINE
  5
34B
  8
0
 62
     7
 10
48.091900000000003
 20
210.52799999999999
 30
0.0
 11
48.841900000000003
 21
210.27799999999999
 31
0.0
  0
LINE
  5
34C
  8
0
 62
     7
 10
48.091900000000003
 20
213.02799999999999
 30
0.0
 11
48.841900000000003
 21
213.27799999999999
 31
0.0
  0
LINE
  5
34D
  8
0
 62
     7
 10
46.841900000000003
 20
210.77799999999999
 30
0.0
 11
46.841900000000003
 21
212.77799999999999
 31
0.0
  0
LINE
  5
34E
  8
0
 62
     7
 10
47.841999999999999
 20
210.77799999999999
 30
0.0
 11
47.841999999999999
 21
212.77799999999999
 31
0.0
  0
LINE
  5
34F
  8
0
 62
     7
 10
48.091900000000003
 20
210.52799999999999
 30
0.0
 11
48.091900000000003
 21
213.02799999999999
 31
0.0
  0
LINE
  5
350
  8
0
 62
     7
 10
48.091900000000003
 20
210.77799999999999
 30
0.0
 11
46.841900000000003
 21
210.77799999999999
 31
0.0
  0
LINE
  5
351
  8
0
 62
     7
 10
48.091900000000003
 20
212.77799999999999
 30
0.0
 11
46.841900000000003
 21
212.77799999999999
 31
0.0
  0
LINE
  5
352
  8
0
 62
     7
 10
49.341999999999999
 20
210.52799999999999
 30
0.0
 11
48.841900000000003
 21
210.52799999999999
 31
0.0
  0
LINE
  5
353
  8
0
 62
     7
 10
47.841799999999999
 20
211.27799999999999
 30
0.0
 11
46.841900000000003
 21
211.27799999999999
 31
0.0
  0
LINE
  5
354
  8
0
 62
     7
 10
47.841799999999999
 20
212.27799999999999
 30
0.0
 11
46.841900000000003
 21
212.27799999999999
 31
0.0
  0
LINE
  5
355
  8
0
 62
     7
 10
49.341999999999999
 20
213.02799999999999
 30
0.0
 11
48.841900000000003
 21
213.02799999999999
 31
0.0
  0
LINE
  5
356
  8
0
 62
     7
 10
48.841900000000003
 20
210.27799999999999
 30
0.0
 11
48.841900000000003
 21
213.27799999999999
 31
0.0
  0
LINE
  5
357
  8
0
 62
     7
 10
49.341999999999999
 20
209.77799999999999
 30
0.0
 11
49.341999999999999
 21
213.77799999999999
 31
0.0
  0
LINE
  5
358
  8
0
 62
     7
 10
109.342
 20
209.77799999999999
 30
0.0
 11
109.342
 21
213.77799999999999
 31
0.0
  0
LINE
  5
359
  8
0
 62
     7
 10
89.535700000000006
 20
209.02799999999999
 30
0.0
 11
89.535700000000006
 21
209.27799999999999
 31
0.0
  0
LINE
  5
35A
  8
0
 62
     7
 10
69.153499999999994
 20
209.02799999999999
 30
0.0
 11
69.153499999999994
 21
209.27799999999999
 31
0.0
  0
LINE
  5
35B
  8
0
 62
     7
 10
69.153499999999994
 20
209.02799999999999
 30
0.0
 11
89.535700000000006
 21
209.02799999999999
 31
0.0
  0
LINE
  5
35C
  8
0
 62
     7
 10
49.841900000000003
 20
209.27799999999999
 30
0.0
 11
108.842
 21
209.27799999999999
 31
0.0
  0
LINE
  5
35D
  8
0
 62
     7
 10
49.841900000000003
 20
214.27799999999999
 30
0.0
 11
108.842
 21
214.27799999999999
 31
0.0
  0
TEXT
  5
35E
  8
_________2
 62
     7
 10
39.364090666666669
 20
13.603400000000001
 30
0.0
 40
3.6545800000000002
  1
篠崎
 41
0.5
 72
     1
 11
41.313200000000002
 21
13.603400000000001
 31
0.0
  0
TEXT
  5
35F
  8
_________2
 62
     7
 10
24.586400000000001
 20
0.707627
 30
0.0
 40
3.9357000000000002
  1
拡大鏡：1.73倍
 41
0.5
  0
TEXT
  5
360
  8
_________2
 62
     7
 10
109.179
 20
24.226099999999999
 30
0.0
 40
3.9357000000000002
  1
イマジン24　拡大鏡（スタンドタイプ）
 41
0.5
  0
LINE
  5
361
  8
_________2
 62
     7
 10
205.30099999999999
 20
127.411
 30
0.0
 11
183.55099999999999
 21
127.411
 31
0.0
  0
LINE
  5
362
  8
_________2
 62
     7
 10
100.3
 20
-4.0910799999999998
 30
0.0
 11
100.3
 21
-21.071000000000002
 31
0.0
  0
LINE
  5
363
  8
_________2
 62
     7
 10
100.3
 20
275.93099999999998
 30
0.0
 11
100.3
 21
258.911
 31
0.0
  0
LINE
  5
364
  8
_________2
 62
     7
 10
17.049199999999999
 20
127.411
 30
0.0
 11
-4.7012099999999988
 21
127.411
 31
0.0
  0
LINE
  5
365
  8
_________2
 62
     7
 10
76.740700000000004
 20
29.8047
 30
0.0
 11
74.554400000000001
 21
29.8047
 31
0.0
  0
LINE
  5
366
  8
_________2
 62
     7
 10
77.2333
 20
29.8047
 30
0.0
 11
76.981099999999984
 21
29.8047
 31
0.0
  0
LINE
  5
367
  8
_________2
 62
     7
 10
77.725999999999999
 20
29.8047
 30
0.0
 11
80.650899999999993
 21
29.8047
 31
0.0
  0
LINE
  5
368
  8
_________2
 62
     7
 10
77.2333
 20
29.8047
 30
0.0
 11
77.485500000000002
 21
29.8047
 31
0.0
  0
LINE
  5
369
  8
_________2
 62
     7
 10
70.837100000000007
 20
29.8047
 30
0.0
 11
68.650199999999998
 21
29.8047
 31
0.0
  0
LINE
  5
36A
  8
_________2
 62
     7
 10
71.329099999999997
 20
29.8047
 30
0.0
 11
71.077600000000004
 21
29.8047
 31
0.0
  0
LINE
  5
36B
  8
_________2
 62
     7
 10
71.329099999999997
 20
30.2974
 30
0.0
 11
71.329099999999997
 21
32.484400000000001
 31
0.0
  0
LINE
  5
36C
  8
_________2
 62
     7
 10
71.329099999999997
 20
29.8047
 30
0.0
 11
71.329099999999997
 21
30.057300000000001
 31
0.0
  0
LINE
  5
36D
  8
_________2
 62
     7
 10
71.821700000000007
 20
29.8047
 30
0.0
 11
74.008700000000005
 21
29.8047
 31
0.0
  0
LINE
  5
36E
  8
_________2
 62
     7
 10
71.329099999999997
 20
29.8047
 30
0.0
 11
71.581299999999985
 21
29.8047
 31
0.0
  0
LINE
  5
36F
  8
_________2
 62
     7
 10
71.329099999999997
 20
29.312799999999999
 30
0.0
 11
71.329099999999997
 21
27.126200000000001
 31
0.0
  0
LINE
  5
370
  8
_________2
 62
     7
 10
71.329099999999997
 20
29.8047
 30
0.0
 11
71.329099999999997
 21
29.5532
 31
0.0
  0
LINE
  5
371
  8
_________2
 62
     7
 10
75.040199999999999
 20
28.5852
 30
0.0
 11
80.218199999999996
 21
27.720400000000001
 31
0.0
  0
LINE
  5
372
  8
_________2
 62
     7
 10
75.040199999999999
 20
31.024699999999999
 30
0.0
 11
80.218199999999996
 21
31.8901
 31
0.0
  0
LINE
  5
373
  8
_________2
 62
     7
 10
80.218199999999996
 20
27.720400000000001
 30
0.0
 11
80.218199999999996
 21
31.8901
 31
0.0
  0
LINE
  5
374
  8
_________2
 62
     7
 10
75.040199999999999
 20
28.5852
 30
0.0
 11
75.040199999999999
 21
31.024699999999999
 31
0.0
  0
ARC
  5
375
  8
_________2
 62
     7
 10
71.282501999999994
 20
29.757801000000001
 30
0.0
 40
1.267714
 50
2.1220840000000001
 51
87.894083999999992
  0
ARC
  5
376
  8
_________2
 62
     7
 10
71.375640000000004
 20
29.758545999999999
 30
0.0
 40
1.2669680000000001
 50
92.105782999999988
 51
177.91037
  0
ARC
  5
377
  8
_________2
 62
     7
 10
71.376013999999998
 20
29.851671
 30
0.0
 40
1.2673680000000001
 50
182.12203600000001
 51
267.877993
  0
ARC
  5
378
  8
_________2
 62
     7
 10
71.282195999999999
 20
29.852347999999999
 30
0.0
 40
1.2680439999999991
 50
272.11916400000001
 51
357.84848499999998
  0
ARC
  5
379
  8
_________2
 62
     7
 10
71.248716999999985
 20
29.724731999999999
 30
0.0
 40
2.1668310000000002
 50
2.1161439999999989
 51
87.874379000000005
  0
ARC
  5
37A
  8
_________2
 62
     7
 10
71.408756000000011
 20
29.726146
 30
0.0
 40
2.165392999999999
 50
92.108508999999998
 51
177.91986499999999
  0
ARC
  5
37B
  8
_________2
 62
     7
 10
71.409094999999994
 20
29.884751999999999
 30
0.0
 40
2.1657829999999998
 50
182.117133
 51
267.88289700000001
  0
ARC
  5
37C
  8
_________2
 62
     7
 10
71.249115000000003
 20
29.885429999999999
 30
0.0
 40
2.1664590000000001
 50
272.11546800000002
 51
357.86560400000002
  0
TEXT
  5
37D
  8
_________2
 62
     7
 10
104.605
 20
1.6794899999999999
 30
0.0
 40
3.0923400000000001
  1
図番
 41
0.5
  0
LINE
  5
37E
  8
_________2
 62
     7
 10
103.55
 20
5.9087199999999989
 30
0.0
 11
183.55099999999999
 21
5.9087199999999989
 31
0.0
  0
TEXT
  5
37F
  8
_________2
 62
     7
 10
104.605
 20
11.6793
 30
0.0
 40
3.0923400000000001
  1
品番
 41
0.5
  0
TEXT
  5
380
  8
_________2
 62
     7
 10
104.605
 20
31.8184
 30
0.0
 40
3.0923400000000001
  1
名称
 41
0.5
  0
TEXT
  5
381
  8
_________2
 62
     7
 10
91.844758333333345
 20
26.822299999999998
 30
0.0
 40
3.6545800000000002
  1
mm
 41
0.5
 72
     1
 11
93.367500000000007
 21
26.822299999999998
 31
0.0
  0
TEXT
  5
382
  8
_________2
 62
     7
 10
85.642899999999983
 20
31.8184
 30
0.0
 40
3.0923400000000001
  1
単位
 41
0.5
  0
TEXT
  5
383
  8
_________2
 62
     7
 10
85.642899999999983
 20
19.410799999999998
 30
0.0
 40
3.0923400000000001
  1
尺度
 41
0.5
  0
TEXT
  5
384
  8
_________2
 62
     7
 10
90.548458666666676
 20
13.2182
 30
0.0
 40
3.6545800000000002
  1
1 ： 4
 41
0.5
 72
     1
 11
93.959400000000016
 21
13.2182
 31
0.0
  0
TEXT
  5
385
  8
_________2
 62
     7
 10
134.20271249999999
 20
9.1082000000000001
 30
0.0
 40
3.9357000000000002
  1
BR24209-3X
 41
0.5
 72
     1
 11
143.55000000000001
 21
9.1082000000000001
 31
0.0
  0
TEXT
  5
386
  8
_________2
 62
     7
 10
134.20271249999999
 20
-0.8926299999999999
 30
0.0
 40
3.9357000000000002
  1
BR24209-3X
 41
0.5
 72
     1
 11
143.55000000000001
 21
-0.8926299999999999
 31
0.0
  0
TEXT
  5
387
  8
_________2
 62
     7
 10
20.790090666666671
 20
13.603400000000001
 30
0.0
 40
3.6545800000000002
  1
菅原
 41
0.5
 72
     1
 11
22.7392
 21
13.603400000000001
 31
0.0
  0
TEXT
  5
388
  8
_________2
 62
     7
 10
67.785399999999996
 20
13.2182
 30
0.0
 40
3.6545800000000002
  1
16.07.26
 41
0.5
  0
TEXT
  5
389
  8
_________2
 62
     7
 10
66.592699999999994
 20
19.410799999999998
 30
0.0
 40
3.0923400000000001
  1
日付
 41
0.5
  0
TEXT
  5
38A
  8
_________2
 62
     7
 10
29.638999999999999
 20
19.410799999999998
 30
0.0
 40
3.0923400000000001
  1
検図
 41
0.5
  0
TEXT
  5
38B
  8
_________2
 62
     7
 10
18.020700000000001
 20
5.21143
 30
0.0
 40
3.0923400000000001
  1
備考
 41
0.5
  0
TEXT
  5
38C
  8
_________2
 62
     7
 10
18.020700000000001
 20
19.410799999999998
 30
0.0
 40
3.0923400000000001
  1
製図
 41
0.5
  0
TEXT
  5
38D
  8
_________2
 62
     7
 10
23.788165333333339
 20
27.936800000000002
 30
0.0
 40
4.4979399999999989
  1
セラトレーディング株式会社
 41
0.5
 72
     1
 11
41.180199999999999
 21
27.936800000000002
 31
0.0
  0
LINE
  5
38E
  8
_________2
 62
     7
 10
183.55099999999999
 20
-4.0910799999999998
 30
0.0
 11
17.049199999999999
 21
-4.0910799999999998
 31
0.0
  0
LINE
  5
38F
  8
_________2
 62
     7
 10
17.049199999999999
 20
-4.0910799999999998
 30
0.0
 11
17.049199999999999
 21
258.911
 31
0.0
  0
LINE
  5
390
  8
_________2
 62
     7
 10
17.049199999999999
 20
258.911
 30
0.0
 11
183.55099999999999
 21
258.911
 31
0.0
  0
LINE
  5
391
  8
_________2
 62
     7
 10
183.55099999999999
 20
258.911
 30
0.0
 11
183.55099999999999
 21
-4.0910799999999998
 31
0.0
  0
LINE
  5
392
  8
_________2
 62
     7
 10
65.549599999999998
 20
9.4092999999999982
 30
0.0
 11
65.549599999999998
 21
35.909100000000002
 31
0.0
  0
LINE
  5
393
  8
_________2
 62
     7
 10
84.549400000000006
 20
9.4092999999999982
 30
0.0
 11
84.549400000000006
 21
35.909100000000002
 31
0.0
  0
LINE
  5
394
  8
_________2
 62
     7
 10
103.55
 20
-4.0910799999999998
 30
0.0
 11
103.55
 21
35.909100000000002
 31
0.0
  0
LINE
  5
395
  8
_________2
 62
     7
 10
28.548999999999999
 20
9.4092999999999982
 30
0.0
 11
28.548999999999999
 21
23.409199999999998
 31
0.0
  0
LINE
  5
396
  8
_________2
 62
     7
 10
17.049199999999999
 20
9.4092999999999982
 30
0.0
 11
103.55
 21
9.4092999999999982
 31
0.0
  0
LINE
  5
397
  8
_________2
 62
     7
 10
17.049199999999999
 20
23.409199999999998
 30
0.0
 11
103.55
 21
23.409199999999998
 31
0.0
  0
LINE
  5
398
  8
_________2
 62
     7
 10
103.55
 20
15.9085
 30
0.0
 11
183.55099999999999
 21
15.9085
 31
0.0
  0
LINE
  5
399
  8
_________2
 62
     7
 10
17.049199999999999
 20
35.909100000000002
 30
0.0
 11
183.55099999999999
 21
35.909100000000002
 31
0.0
  0
ENDSEC
  0
EOF
