  0
SECTION
  2
HEADER
  9
$ACADVER
  1
AC1009
  9
$LUNITS
 70
2
  9
$LUPREC
 70
4
  9
$LTSCALE
 40
1.0
  9
$EXTMIN
 10
0
 20
0
 30
0
  9
$EXTMAX
 10
302.9996
 20
425.9997
 30
0
  0
ENDSEC
  0
SECTION
  2
TABLES
  0
TABLE
  2
LTYPE
 70
256
  0
ENDTAB
  0
TABLE
  2
LAYER
 70
1
  0
LAYER
  2
LAYER_1
 70
64
 62
7
  6
CONTINUOUS
  0
ENDTAB
  0
TABLE
  2
STYLE
 70
6
  0
STYLE
  2
STANDARD
 70
0
 40
0
 50
0
 71
0
 41
0
 42
0
  3
TXT
  4
BIGFONT
  0
ENDTAB
  0
ENDSEC
  0
SECTION
  2
BLOCKS
  0
BLOCK
  8
LAYER_1
  2
AIGNBL01040012
 70
64
 10
0
 20
0
 30
0
  3
AIGNBL01040012
  0
POLYLINE
  8
LAYER_1
 40
0.05
 41
0.05
 66
1
 10
0
 20
0
 30
0
 70
1
  0
VERTEX
  8
LAYER_1
 10
188.1618
 20
36.2982
  0
VERTEX
  8
LAYER_1
 10
187.4077
 20
34.4709
  0
VERTEX
  8
LAYER_1
 10
186.4393
 20
34.4709
  0
VERTEX
  8
LAYER_1
 10
188.906
 20
40.2787
  0
VERTEX
  8
LAYER_1
 10
190.0366
 20
40.2787
  0
VERTEX
  8
LAYER_1
 10
192.5143
 20
34.4709
  0
VERTEX
  8
LAYER_1
 10
191.5115
 20
34.4709
  0
VERTEX
  8
LAYER_1
 10
190.7363
 20
36.2982
  0
SEQEND
  0
POLYLINE
  8
LAYER_1
 40
0.05
 41
0.05
 66
1
 10
0
 20
0
 30
0
 70
1
  0
VERTEX
  8
LAYER_1
 10
190.5424
 20
36.8825
  0
VERTEX
  8
LAYER_1
 10
189.8317
 20
38.5561
 42
-0.0252121931
  0
VERTEX
  8
LAYER_1
 10
189.4544
 20
39.6152
  0
VERTEX
  8
LAYER_1
 10
189.4331
 20
39.6152
 42
-0.01979858601
  0
VERTEX
  8
LAYER_1
 10
189.0665
 20
38.563
  0
VERTEX
  8
LAYER_1
 10
188.3561
 20
36.8825
  0
SEQEND
  0
ENDBLK
  0
BLOCK
  8
LAYER_1
  2
AIGNBL01040013
 70
64
 10
0
 20
0
 30
0
  3
AIGNBL01040013
  0
POLYLINE
  8
LAYER_1
 40
0.05
 41
0.05
 66
1
 10
0
 20
0
 30
0
 70
1
  0
VERTEX
  8
LAYER_1
 10
199.2464
 20
33.6172
 42
-0.01511615515
  0
VERTEX
  8
LAYER_1
 10
196.4672
 20
34.2897
 42
0.08508767786
  0
VERTEX
  8
LAYER_1
 10
196.0249
 20
34.3759
 42
-0.07480007531
  0
VERTEX
  8
LAYER_1
 10
194.7986
 20
34.5934
 42
-0.07803401708
  0
VERTEX
  8
LAYER_1
 10
193.8919
 20
35.0726
 42
-0.08253816187
  0
VERTEX
  8
LAYER_1
 10
193.2796
 20
35.7221
 42
-0.0851833679
  0
VERTEX
  8
LAYER_1
 10
192.9201
 20
36.5374
 42
-0.06334354481
  0
VERTEX
  8
LAYER_1
 10
192.8265
 20
37.3131
 42
-0.08542845362
  0
VERTEX
  8
LAYER_1
 10
193.008
 20
38.3977
 42
-0.202394645
  0
VERTEX
  8
LAYER_1
 10
194.5197
 20
40.0219
 42
-0.07335058282
  0
VERTEX
  8
LAYER_1
 10
195.5432
 20
40.3246
 42
-0.03729418479
  0
VERTEX
  8
LAYER_1
 10
196.2089
 20
40.3731
 42
-0.07558653402
  0
VERTEX
  8
LAYER_1
 10
197.4353
 20
40.1933
 42
-0.07835633417
  0
VERTEX
  8
LAYER_1
 10
198.3206
 20
39.7536
 42
-0.1260287891
  0
VERTEX
  8
LAYER_1
 10
199.186
 20
38.7164
 42
-0.07823840187
  0
VERTEX
  8
LAYER_1
 10
199.4334
 20
37.8653
 42
-0.03297580944
  0
VERTEX
  8
LAYER_1
 10
199.4614
 20
37.4344
 42
-0.08288588676
  0
VERTEX
  8
LAYER_1
 10
199.2888
 20
36.3612
 42
-0.0868359805
  0
VERTEX
  8
LAYER_1
 10
198.8453
 20
35.5662
 42
-0.08482255437
  0
VERTEX
  8
LAYER_1
 10
198.1786
 20
34.9884
 42
-0.07066629397
  0
VERTEX
  8
LAYER_1
 10
197.3936
 20
34.6515
  0
VERTEX
  8
LAYER_1
 10
197.3936
 20
34.617
 42
0.01474109512
  0
VERTEX
  8
LAYER_1
 10
199.5162
 20
34.2463
  0
SEQEND
  0
POLYLINE
  8
LAYER_1
 40
0.05
 41
0.05
 66
1
 10
0
 20
0
 30
0
 70
1
  0
VERTEX
  8
LAYER_1
 10
198.4713
 20
37.4013
 42
0.09294884278
  0
VERTEX
  8
LAYER_1
 10
198.2914
 20
38.3627
 42
0.09187354063
  0
VERTEX
  8
LAYER_1
 10
197.8463
 20
39.0785
 42
0.1947353543
  0
VERTEX
  8
LAYER_1
 10
196.3872
 20
39.7534
 42
0.01946754028
  0
VERTEX
  8
LAYER_1
 10
196.1758
 20
39.7612
 42
0.09477948532
  0
VERTEX
  8
LAYER_1
 10
195.1955
 20
39.5821
 42
0.2441057995
  0
VERTEX
  8
LAYER_1
 10
193.9117
 20
38.051
 42
0.06415171844
  0
VERTEX
  8
LAYER_1
 10
193.828
 20
37.3324
 42
0.09462237015
  0
VERTEX
  8
LAYER_1
 10
193.9969
 20
36.3943
 42
0.0941967925
  0
VERTEX
  8
LAYER_1
 10
194.4454
 20
35.6772
 42
0.1408148608
  0
VERTEX
  8
LAYER_1
 10
195.4625
 20
35.0719
 42
0.06670015515
  0
VERTEX
  8
LAYER_1
 10
196.1331
 20
34.9863
 42
0.09216419086
  0
VERTEX
  8
LAYER_1
 10
197.0752
 20
35.1547
 42
0.242005286
  0
VERTEX
  8
LAYER_1
 10
198.3764
 20
36.6574
 42
0.06604593337
  0
SEQEND
  0
ENDBLK
  0
BLOCK
  8
LAYER_1
  2
AIGNBL01040014
 70
64
 10
0
 20
0
 30
0
  3
AIGNBL01040014
  0
POLYLINE
  8
LAYER_1
 40
0.05
 41
0.05
 66
1
 10
0
 20
0
 30
0
 70
1
  0
VERTEX
  8
LAYER_1
 10
201.5088
 20
40.2787
  0
VERTEX
  8
LAYER_1
 10
201.5088
 20
36.8405
 42
0.09352737738
  0
VERTEX
  8
LAYER_1
 10
201.6695
 20
35.9153
 42
0.1122486996
  0
VERTEX
  8
LAYER_1
 10
202.0486
 20
35.3705
 42
0.1179458884
  0
VERTEX
  8
LAYER_1
 10
202.6436
 20
35.0563
 42
0.0680002154
  0
VERTEX
  8
LAYER_1
 10
203.1997
 20
34.9863
 42
0.1038303664
  0
VERTEX
  8
LAYER_1
 10
204.0866
 20
35.1577
 42
0.1169393673
  0
VERTEX
  8
LAYER_1
 10
204.5956
 20
35.5529
 42
0.1129410044
  0
VERTEX
  8
LAYER_1
 10
204.8956
 20
36.1924
 42
0.06115980262
  0
VERTEX
  8
LAYER_1
 10
204.9663
 20
36.8405
  0
VERTEX
  8
LAYER_1
 10
204.9663
 20
40.2787
  0
VERTEX
  8
LAYER_1
 10
205.914
 20
40.2787
  0
VERTEX
  8
LAYER_1
 10
205.914
 20
36.8921
 42
-0.08655069185
  0
VERTEX
  8
LAYER_1
 10
205.7422
 20
35.8382
 42
-0.09649661255
  0
VERTEX
  8
LAYER_1
 10
205.3252
 20
35.15
 42
-0.1004131106
  0
VERTEX
  8
LAYER_1
 10
204.6445
 20
34.6615
 42
-0.08189443621
  0
VERTEX
  8
LAYER_1
 10
203.7025
 20
34.4066
 42
-0.02973141099
  0
VERTEX
  8
LAYER_1
 10
203.1673
 20
34.3759
 42
-0.07964784669
  0
VERTEX
  8
LAYER_1
 10
202.0167
 20
34.5473
 42
-0.09129651749
  0
VERTEX
  8
LAYER_1
 10
201.3065
 20
34.9416
 42
-0.150799352
  0
VERTEX
  8
LAYER_1
 10
200.6833
 20
35.9276
 42
-0.07483297072
  0
VERTEX
  8
LAYER_1
 10
200.5607
 20
36.8577
  0
VERTEX
  8
LAYER_1
 10
200.5607
 20
40.2787
  0
SEQEND
  0
ENDBLK
  0
BLOCK
  8
LAYER_1
  2
AIGNBL01040015
 70
64
 10
0
 20
0
 30
0
  3
AIGNBL01040015
  0
POLYLINE
  8
LAYER_1
 40
0.05
 41
0.05
 66
1
 10
0
 20
0
 30
0
 70
1
  0
VERTEX
  8
LAYER_1
 10
208.6074
 20
36.2982
  0
VERTEX
  8
LAYER_1
 10
207.8529
 20
34.4709
  0
VERTEX
  8
LAYER_1
 10
206.8845
 20
34.4709
  0
VERTEX
  8
LAYER_1
 10
209.3505
 20
40.2787
  0
VERTEX
  8
LAYER_1
 10
210.4812
 20
40.2787
  0
VERTEX
  8
LAYER_1
 10
212.9589
 20
34.4709
  0
VERTEX
  8
LAYER_1
 10
211.9571
 20
34.4709
  0
VERTEX
  8
LAYER_1
 10
211.1819
 20
36.2982
  0
SEQEND
  0
POLYLINE
  8
LAYER_1
 40
0.05
 41
0.05
 66
1
 10
0
 20
0
 30
0
 70
1
  0
VERTEX
  8
LAYER_1
 10
210.9876
 20
36.8825
  0
VERTEX
  8
LAYER_1
 10
210.2762
 20
38.5561
 42
-0.02427488458
  0
VERTEX
  8
LAYER_1
 10
209.899
 20
39.6152
  0
VERTEX
  8
LAYER_1
 10
209.8776
 20
39.6152
 42
-0.0201534181
  0
VERTEX
  8
LAYER_1
 10
209.5118
 20
38.563
  0
VERTEX
  8
LAYER_1
 10
208.8007
 20
36.8825
  0
SEQEND
  0
ENDBLK
  0
BLOCK
  8
LAYER_1
  2
AIGNBL01040016
 70
64
 10
0
 20
0
 30
0
  3
AIGNBL01040016
  0
POLYLINE
  8
LAYER_1
 40
0.05
 41
0.05
 66
1
 10
0
 20
0
 30
0
 70
1
  0
VERTEX
  8
LAYER_1
 10
214.5636
 20
40.2091
 42
-0.0337229386
  0
VERTEX
  8
LAYER_1
 10
216.3634
 20
40.3221
 42
-0.06717150192
  0
VERTEX
  8
LAYER_1
 10
217.7212
 20
40.1557
 42
-0.08060255406
  0
VERTEX
  8
LAYER_1
 10
218.3987
 20
39.8398
 42
-0.1248706964
  0
VERTEX
  8
LAYER_1
 10
218.8811
 20
39.2932
 42
-0.1169646178
  0
VERTEX
  8
LAYER_1
 10
219.0337
 20
38.6358
 42
-0.00183441576
  0
VERTEX
  8
LAYER_1
 10
219.0337
 20
38.6237
 42
-0.1180641879
  0
VERTEX
  8
LAYER_1
 10
218.8587
 20
37.8525
 42
-0.1036471676
  0
VERTEX
  8
LAYER_1
 10
218.4738
 20
37.3841
 42
-0.09997740243
  0
VERTEX
  8
LAYER_1
 10
217.679
 20
36.954
 42
-0.06912129152
  0
VERTEX
  8
LAYER_1
 10
216.5723
 20
36.7549
 42
-0.0147615364
  0
VERTEX
  8
LAYER_1
 10
216.2548
 20
36.7461
 42
-0.05252457235
  0
VERTEX
  8
LAYER_1
 10
215.5014
 20
36.7971
  0
VERTEX
  8
LAYER_1
 10
215.5014
 20
34.4709
  0
VERTEX
  8
LAYER_1
 10
214.5636
 20
34.4709
  0
SEQEND
  0
POLYLINE
  8
LAYER_1
 40
0.05
 41
0.05
 66
1
 10
0
 20
0
 30
0
 70
1
  0
VERTEX
  8
LAYER_1
 10
215.5014
 20
37.4096
 42
0.05317186326
  0
VERTEX
  8
LAYER_1
 10
216.2762
 20
37.349
 42
0.08788956177
  0
VERTEX
  8
LAYER_1
 10
217.3136
 20
37.5155
 42
0.1189092167
  0
VERTEX
  8
LAYER_1
 10
217.8526
 20
37.8818
 42
0.1837788025
  0
VERTEX
  8
LAYER_1
 10
218.0976
 20
38.5892
 42
0.1524675076
  0
VERTEX
  8
LAYER_1
 10
217.9266
 20
39.1687
 42
0.1368008988
  0
VERTEX
  8
LAYER_1
 10
217.4795
 20
39.5274
 42
0.05022340939
  0
VERTEX
  8
LAYER_1
 10
217.1276
 20
39.6481
 42
0.0609315191
  0
VERTEX
  8
LAYER_1
 10
216.3851
 20
39.7268
 42
0.04673530274
  0
VERTEX
  8
LAYER_1
 10
215.5014
 20
39.6661
  0
SEQEND
  0
ENDBLK
  0
BLOCK
  8
LAYER_1
  2
AIGNBL01040017
 70
64
 10
0
 20
0
 30
0
  3
AIGNBL01040017
  0
POLYLINE
  8
LAYER_1
 40
0.05
 41
0.05
 66
1
 10
0
 20
0
 30
0
 70
1
  0
VERTEX
  8
LAYER_1
 10
221.4273
 20
39.8129
 42
-0.2456127984
  0
VERTEX
  8
LAYER_1
 10
221.2654
 20
39.4793
 42
-0.1752889855
  0
VERTEX
  8
LAYER_1
 10
220.823
 20
39.3478
 42
-0.1918100975
  0
VERTEX
  8
LAYER_1
 10
220.3762
 20
39.5161
 42
-0.1947981421
  0
VERTEX
  8
LAYER_1
 10
220.2518
 20
39.8129
 42
-0.2325373791
  0
VERTEX
  8
LAYER_1
 10
220.4237
 20
40.1538
 42
-0.1734732649
  0
VERTEX
  8
LAYER_1
 10
220.8444
 20
40.2863
 42
-0.1899395031
  0
VERTEX
  8
LAYER_1
 10
221.3009
 20
40.1208
 42
-0.1983354365
  0
SEQEND
  0
POLYLINE
  8
LAYER_1
 40
0.05
 41
0.05
 66
1
 10
0
 20
0
 30
0
 70
1
  0
VERTEX
  8
LAYER_1
 10
220.37
 20
34.4709
  0
VERTEX
  8
LAYER_1
 10
220.37
 20
38.6409
  0
VERTEX
  8
LAYER_1
 10
221.3178
 20
38.6409
  0
VERTEX
  8
LAYER_1
 10
221.3178
 20
34.4709
  0
SEQEND
  0
ENDBLK
  0
BLOCK
  8
LAYER_1
  2
AIGNBL01040018
 70
64
 10
0
 20
0
 30
0
  3
AIGNBL01040018
  0
POLYLINE
  8
LAYER_1
 40
0.05
 41
0.05
 66
1
 10
0
 20
0
 30
0
 70
1
  0
VERTEX
  8
LAYER_1
 10
224.2044
 20
36.2982
  0
VERTEX
  8
LAYER_1
 10
223.4513
 20
34.4709
  0
VERTEX
  8
LAYER_1
 10
222.4812
 20
34.4709
  0
VERTEX
  8
LAYER_1
 10
224.9482
 20
40.2787
  0
VERTEX
  8
LAYER_1
 10
226.0799
 20
40.2787
  0
VERTEX
  8
LAYER_1
 10
228.5573
 20
34.4709
  0
VERTEX
  8
LAYER_1
 10
227.5551
 20
34.4709
  0
VERTEX
  8
LAYER_1
 10
226.78
 20
36.2982
  0
SEQEND
  0
POLYLINE
  8
LAYER_1
 40
0.05
 41
0.05
 66
1
 10
0
 20
0
 30
0
 70
1
  0
VERTEX
  8
LAYER_1
 10
226.5857
 20
36.8825
  0
VERTEX
  8
LAYER_1
 10
225.8746
 20
38.5561
 42
-0.02593297858
  0
VERTEX
  8
LAYER_1
 10
225.4987
 20
39.6152
  0
VERTEX
  8
LAYER_1
 10
225.4756
 20
39.6152
 42
-0.01993945184
  0
VERTEX
  8
LAYER_1
 10
225.1101
 20
38.563
  0
VERTEX
  8
LAYER_1
 10
224.3994
 20
36.8825
  0
SEQEND
  0
ENDBLK
  0
BLOCK
  8
LAYER_1
  2
AIGNBL01030011
 70
64
 10
0
 20
0
 30
0
  3
AIGNBL01030011
  0
INSERT
  8
LAYER_1
  2
AIGNBL01040012
 10
0
 20
0
 30
0
  0
INSERT
  8
LAYER_1
  2
AIGNBL01040013
 10
0
 20
0
 30
0
  0
INSERT
  8
LAYER_1
  2
AIGNBL01040014
 10
0
 20
0
 30
0
  0
INSERT
  8
LAYER_1
  2
AIGNBL01040015
 10
0
 20
0
 30
0
  0
INSERT
  8
LAYER_1
  2
AIGNBL01040016
 10
0
 20
0
 30
0
  0
INSERT
  8
LAYER_1
  2
AIGNBL01040017
 10
0
 20
0
 30
0
  0
INSERT
  8
LAYER_1
  2
AIGNBL01040018
 10
0
 20
0
 30
0
  0
ENDBLK
  0
BLOCK
  8
LAYER_1
  2
AIGNBL0103001A
 70
64
 10
0
 20
0
 30
0
  3
AIGNBL0103001A
  0
POLYLINE
  8
LAYER_1
 40
0.05
 41
0.05
 66
1
 10
0
 20
0
 30
0
 70
1
  0
VERTEX
  8
LAYER_1
 10
186.6088
 20
31.5419
  0
VERTEX
  8
LAYER_1
 10
187.4621
 20
31.5419
  0
VERTEX
  8
LAYER_1
 10
187.4621
 20
31.3972
  0
VERTEX
  8
LAYER_1
 10
186.4468
 20
31.3972
  0
VERTEX
  8
LAYER_1
 10
186.4468
 20
32.9902
  0
VERTEX
  8
LAYER_1
 10
187.4349
 20
32.9902
  0
VERTEX
  8
LAYER_1
 10
187.4349
 20
32.8462
  0
VERTEX
  8
LAYER_1
 10
186.6088
 20
32.8462
  0
VERTEX
  8
LAYER_1
 10
186.6088
 20
32.2998
  0
VERTEX
  8
LAYER_1
 10
187.3808
 20
32.2998
  0
VERTEX
  8
LAYER_1
 10
187.3808
 20
32.1558
  0
VERTEX
  8
LAYER_1
 10
186.6088
 20
32.1558
  0
SEQEND
  0
ENDBLK
  0
BLOCK
  8
LAYER_1
  2
AIGNBL0103001B
 70
64
 10
0
 20
0
 30
0
  3
AIGNBL0103001B
  0
POLYLINE
  8
LAYER_1
 40
0.05
 41
0.05
 66
1
 10
0
 20
0
 30
0
 70
1
  0
VERTEX
  8
LAYER_1
 10
189.2195
 20
31.6336
  0
VERTEX
  8
LAYER_1
 10
189.2239
 20
31.6336
  0
VERTEX
  8
LAYER_1
 10
189.2239
 20
32.9902
  0
VERTEX
  8
LAYER_1
 10
189.3859
 20
32.9902
  0
VERTEX
  8
LAYER_1
 10
189.3859
 20
31.3972
  0
VERTEX
  8
LAYER_1
 10
189.184
 20
31.3972
  0
VERTEX
  8
LAYER_1
 10
188.2569
 20
32.7677
  0
VERTEX
  8
LAYER_1
 10
188.2514
 20
32.7677
  0
VERTEX
  8
LAYER_1
 10
188.2514
 20
31.3972
  0
VERTEX
  8
LAYER_1
 10
188.0902
 20
31.3972
  0
VERTEX
  8
LAYER_1
 10
188.0902
 20
32.9902
  0
VERTEX
  8
LAYER_1
 10
188.2924
 20
32.9902
  0
SEQEND
  0
ENDBLK
  0
BLOCK
  8
LAYER_1
  2
AIGNBL0103001C
 70
64
 10
0
 20
0
 30
0
  3
AIGNBL0103001C
  0
POLYLINE
  8
LAYER_1
 40
0.05
 41
0.05
 66
1
 10
0
 20
0
 30
0
 70
1
  0
VERTEX
  8
LAYER_1
 10
190.1152
 20
31.7238
 42
0.1541262994
  0
VERTEX
  8
LAYER_1
 10
190.1992
 20
31.5647
 42
0.1944006435
  0
VERTEX
  8
LAYER_1
 10
190.3743
 20
31.5006
 42
0.1377215696
  0
VERTEX
  8
LAYER_1
 10
190.5117
 20
31.5309
 42
0.1253172165
  0
VERTEX
  8
LAYER_1
 10
190.5982
 20
31.6136
 42
0.09395510689
  0
VERTEX
  8
LAYER_1
 10
190.643
 20
31.7314
  0
VERTEX
  8
LAYER_1
 10
190.6557
 20
31.8692
  0
VERTEX
  8
LAYER_1
 10
190.6557
 20
32.9902
  0
VERTEX
  8
LAYER_1
 10
190.8176
 20
32.9902
  0
VERTEX
  8
LAYER_1
 10
190.8176
 20
31.8561
  0
VERTEX
  8
LAYER_1
 10
190.8001
 20
31.6901
 42
-0.0985358001
  0
VERTEX
  8
LAYER_1
 10
190.7363
 20
31.5274
 42
-0.1159216461
  0
VERTEX
  8
LAYER_1
 10
190.6058
 20
31.4048
 42
-0.130390731
  0
VERTEX
  8
LAYER_1
 10
190.3915
 20
31.3566
 42
-0.1749239512
  0
VERTEX
  8
LAYER_1
 10
190.1069
 20
31.4489
 42
-0.1760989268
  0
VERTEX
  8
LAYER_1
 10
189.9643
 20
31.6832
  0
SEQEND
  0
ENDBLK
  0
BLOCK
  8
LAYER_1
  2
AIGNBL0103001D
 70
64
 10
0
 20
0
 30
0
  3
AIGNBL0103001D
  0
POLYLINE
  8
LAYER_1
 40
0.05
 41
0.05
 66
1
 10
0
 20
0
 30
0
 70
1
  0
VERTEX
  8
LAYER_1
 10
193.1131
 20
32.1937
 42
-0.09995304247
  0
VERTEX
  8
LAYER_1
 10
193.0497
 20
31.8589
 42
-0.09877054803
  0
VERTEX
  8
LAYER_1
 10
192.8761
 20
31.5943
 42
-0.09628404905
  0
VERTEX
  8
LAYER_1
 10
192.6125
 20
31.42
 42
-0.09878021502
  0
VERTEX
  8
LAYER_1
 10
192.2825
 20
31.3566
 42
-0.09961120919
  0
VERTEX
  8
LAYER_1
 10
191.9531
 20
31.42
 42
-0.09929172255
  0
VERTEX
  8
LAYER_1
 10
191.6896
 20
31.5943
 42
-0.09842413213
  0
VERTEX
  8
LAYER_1
 10
191.5149
 20
31.8589
 42
-0.09812895876
  0
VERTEX
  8
LAYER_1
 10
191.4522
 20
32.1937
 42
-0.09917477792
  0
VERTEX
  8
LAYER_1
 10
191.5149
 20
32.5293
 42
-0.09913975967
  0
VERTEX
  8
LAYER_1
 10
191.6896
 20
32.7939
 42
-0.09998775454
  0
VERTEX
  8
LAYER_1
 10
191.9531
 20
32.9682
 42
-0.0987416262
  0
VERTEX
  8
LAYER_1
 10
192.2825
 20
33.0316
 42
-0.09926562475
  0
VERTEX
  8
LAYER_1
 10
192.6125
 20
32.9682
 42
-0.09796597525
  0
VERTEX
  8
LAYER_1
 10
192.8761
 20
32.7939
 42
-0.09795425382
  0
VERTEX
  8
LAYER_1
 10
193.0497
 20
32.5293
 42
-0.09905015664
  0
SEQEND
  0
POLYLINE
  8
LAYER_1
 40
0.05
 41
0.05
 66
1
 10
0
 20
0
 30
0
 70
1
  0
VERTEX
  8
LAYER_1
 10
192.9419
 20
32.193
 42
0.08594279373
  0
VERTEX
  8
LAYER_1
 10
192.8974
 20
32.4583
 42
0.09669672023
  0
VERTEX
  8
LAYER_1
 10
192.7665
 20
32.6788
 42
0.104906235
  0
VERTEX
  8
LAYER_1
 10
192.5584
 20
32.8304
 42
0.1085169089
  0
VERTEX
  8
LAYER_1
 10
192.2825
 20
32.8876
 42
0.1106917346
  0
VERTEX
  8
LAYER_1
 10
192.0069
 20
32.8304
 42
0.1066475845
  0
VERTEX
  8
LAYER_1
 10
191.7991
 20
32.6788
 42
0.0991709836
  0
VERTEX
  8
LAYER_1
 10
191.6682
 20
32.4583
 42
0.08485064843
  0
VERTEX
  8
LAYER_1
 10
191.6231
 20
32.193
 42
0.08603051087
  0
VERTEX
  8
LAYER_1
 10
191.6682
 20
31.9278
 42
0.1002093741
  0
VERTEX
  8
LAYER_1
 10
191.7991
 20
31.7073
 42
0.1005084906
  0
VERTEX
  8
LAYER_1
 10
192.0069
 20
31.5571
 42
0.1087184549
  0
VERTEX
  8
LAYER_1
 10
192.2825
 20
31.5006
 42
0.1106703841
  0
VERTEX
  8
LAYER_1
 10
192.5584
 20
31.5571
 42
0.1023036151
  0
VERTEX
  8
LAYER_1
 10
192.7665
 20
31.7073
 42
0.09479161826
  0
VERTEX
  8
LAYER_1
 10
192.8974
 20
31.9278
 42
0.08519180204
  0
SEQEND
  0
ENDBLK
  0
BLOCK
  8
LAYER_1
  2
AIGNBL0103001E
 70
64
 10
0
 20
0
 30
0
  3
AIGNBL0103001E
  0
POLYLINE
  8
LAYER_1
 40
0.05
 41
0.05
 66
1
 10
0
 20
0
 30
0
 70
1
  0
VERTEX
  8
LAYER_1
 10
194.3079
 20
31.3972
  0
VERTEX
  8
LAYER_1
 10
194.1463
 20
31.3972
  0
VERTEX
  8
LAYER_1
 10
194.1463
 20
32.0842
  0
VERTEX
  8
LAYER_1
 10
193.5496
 20
32.9902
  0
VERTEX
  8
LAYER_1
 10
193.7522
 20
32.9902
  0
VERTEX
  8
LAYER_1
 10
194.2321
 20
32.2192
  0
VERTEX
  8
LAYER_1
 10
194.7154
 20
32.9902
  0
VERTEX
  8
LAYER_1
 10
194.9039
 20
32.9902
  0
VERTEX
  8
LAYER_1
 10
194.3079
 20
32.0842
  0
SEQEND
  0
ENDBLK
  0
BLOCK
  8
LAYER_1
  2
AIGNBL0103001F
 70
64
 10
0
 20
0
 30
0
  3
AIGNBL0103001F
  0
POLYLINE
  8
LAYER_1
 40
0.05
 41
0.05
 66
1
 10
0
 20
0
 30
0
 70
1
  0
VERTEX
  8
LAYER_1
 10
196.2998
 20
32.9902
  0
VERTEX
  8
LAYER_1
 10
196.7742
 20
32.9902
  0
VERTEX
  8
LAYER_1
 10
196.9568
 20
32.9716
 42
-0.09149099756
  0
VERTEX
  8
LAYER_1
 10
197.1218
 20
32.9062
 42
-0.1161660507
  0
VERTEX
  8
LAYER_1
 10
197.2417
 20
32.7815
 42
-0.1279046505
  0
VERTEX
  8
LAYER_1
 10
197.2875
 20
32.5837
 42
-0.1791464288
  0
VERTEX
  8
LAYER_1
 10
197.2104
 20
32.3639
 42
-0.1715864208
  0
VERTEX
  8
LAYER_1
 10
197.0047
 20
32.2413
  0
VERTEX
  8
LAYER_1
 10
197.0047
 20
32.2371
 42
-0.1703753954
  0
VERTEX
  8
LAYER_1
 10
197.262
 20
32.1166
 42
-0.2046234028
  0
VERTEX
  8
LAYER_1
 10
197.364
 20
31.8382
 42
-0.1244332296
  0
VERTEX
  8
LAYER_1
 10
197.322
 20
31.6577
 42
-0.1190291419
  0
VERTEX
  8
LAYER_1
 10
197.2045
 20
31.5178
 42
-0.0903240807
  0
VERTEX
  8
LAYER_1
 10
197.0181
 20
31.4289
 42
-0.06756603603
  0
VERTEX
  8
LAYER_1
 10
196.7715
 20
31.3972
  0
VERTEX
  8
LAYER_1
 10
196.2998
 20
31.3972
  0
SEQEND
  0
POLYLINE
  8
LAYER_1
 40
0.05
 41
0.05
 66
1
 10
0
 20
0
 30
0
 70
1
  0
VERTEX
  8
LAYER_1
 10
196.4617
 20
32.2929
  0
VERTEX
  8
LAYER_1
 10
196.788
 20
32.2929
  0
VERTEX
  8
LAYER_1
 10
196.9065
 20
32.3067
 42
0.08842948985
  0
VERTEX
  8
LAYER_1
 10
197.015
 20
32.3522
 42
0.120839462
  0
VERTEX
  8
LAYER_1
 10
197.0949
 20
32.4397
 42
0.1234884913
  0
VERTEX
  8
LAYER_1
 10
197.1253
 20
32.572
 42
0.1429700321
  0
VERTEX
  8
LAYER_1
 10
197.0949
 20
32.7015
 42
0.1153731971
  0
VERTEX
  8
LAYER_1
 10
197.0133
 20
32.7884
 42
0.08680590019
  0
VERTEX
  8
LAYER_1
 10
196.8917
 20
32.8366
  0
VERTEX
  8
LAYER_1
 10
196.7429
 20
32.8511
  0
VERTEX
  8
LAYER_1
 10
196.4617
 20
32.8511
  0
SEQEND
  0
POLYLINE
  8
LAYER_1
 40
0.05
 41
0.05
 66
1
 10
0
 20
0
 30
0
 70
1
  0
VERTEX
  8
LAYER_1
 10
196.4617
 20
31.5371
  0
VERTEX
  8
LAYER_1
 10
196.7635
 20
31.5371
  0
VERTEX
  8
LAYER_1
 10
196.931
 20
31.5536
 42
0.0840361525
  0
VERTEX
  8
LAYER_1
 10
197.0708
 20
31.6074
 42
0.117523007
  0
VERTEX
  8
LAYER_1
 10
197.1659
 20
31.7045
 42
0.1321221887
  0
VERTEX
  8
LAYER_1
 10
197.2017
 20
31.8478
 42
0.2443970773
  0
VERTEX
  8
LAYER_1
 10
197.0949
 20
32.0828
 42
0.1590065208
  0
VERTEX
  8
LAYER_1
 10
196.7928
 20
32.16
  0
VERTEX
  8
LAYER_1
 10
196.4617
 20
32.16
  0
SEQEND
  0
ENDBLK
  0
BLOCK
  8
LAYER_1
  2
AIGNBL01030020
 70
64
 10
0
 20
0
 30
0
  3
AIGNBL01030020
  0
POLYLINE
  8
LAYER_1
 40
0.05
 41
0.05
 66
1
 10
0
 20
0
 30
0
 70
1
  0
VERTEX
  8
LAYER_1
 10
198.0303
 20
31.3972
  0
VERTEX
  8
LAYER_1
 10
197.8522
 20
31.3972
  0
VERTEX
  8
LAYER_1
 10
198.5412
 20
32.9902
  0
VERTEX
  8
LAYER_1
 10
198.699
 20
32.9902
  0
VERTEX
  8
LAYER_1
 10
199.3828
 20
31.3972
  0
VERTEX
  8
LAYER_1
 10
199.2027
 20
31.3972
  0
VERTEX
  8
LAYER_1
 10
199.027
 20
31.8155
  0
VERTEX
  8
LAYER_1
 10
198.2032
 20
31.8155
  0
SEQEND
  0
POLYLINE
  8
LAYER_1
 40
0.05
 41
0.05
 66
1
 10
0
 20
0
 30
0
 70
1
  0
VERTEX
  8
LAYER_1
 10
198.2639
 20
31.9643
  0
VERTEX
  8
LAYER_1
 10
198.9663
 20
31.9643
  0
VERTEX
  8
LAYER_1
 10
198.6153
 20
32.8111
  0
SEQEND
  0
ENDBLK
  0
BLOCK
  8
LAYER_1
  2
AIGNBL01030021
 70
64
 10
0
 20
0
 30
0
  3
AIGNBL01030021
  0
POLYLINE
  8
LAYER_1
 40
0.05
 41
0.05
 66
1
 10
0
 20
0
 30
0
 70
1
  0
VERTEX
  8
LAYER_1
 10
200.4388
 20
31.3972
  0
VERTEX
  8
LAYER_1
 10
200.2765
 20
31.3972
  0
VERTEX
  8
LAYER_1
 10
200.2765
 20
32.8462
  0
VERTEX
  8
LAYER_1
 10
199.7425
 20
32.8462
  0
VERTEX
  8
LAYER_1
 10
199.7425
 20
32.9902
  0
VERTEX
  8
LAYER_1
 10
200.9714
 20
32.9902
  0
VERTEX
  8
LAYER_1
 10
200.9714
 20
32.8462
  0
VERTEX
  8
LAYER_1
 10
200.4388
 20
32.8462
  0
SEQEND
  0
ENDBLK
  0
BLOCK
  8
LAYER_1
  2
AIGNBL01030022
 70
64
 10
0
 20
0
 30
0
  3
AIGNBL01030022
  0
POLYLINE
  8
LAYER_1
 40
0.05
 41
0.05
 66
1
 10
0
 20
0
 30
0
 70
1
  0
VERTEX
  8
LAYER_1
 10
201.5209
 20
32.9902
  0
VERTEX
  8
LAYER_1
 10
201.6824
 20
32.9902
  0
VERTEX
  8
LAYER_1
 10
201.6824
 20
32.2998
  0
VERTEX
  8
LAYER_1
 10
202.5516
 20
32.2998
  0
VERTEX
  8
LAYER_1
 10
202.5516
 20
32.9902
  0
VERTEX
  8
LAYER_1
 10
202.7136
 20
32.9902
  0
VERTEX
  8
LAYER_1
 10
202.7136
 20
31.3972
  0
VERTEX
  8
LAYER_1
 10
202.5516
 20
31.3972
  0
VERTEX
  8
LAYER_1
 10
202.5516
 20
32.1517
  0
VERTEX
  8
LAYER_1
 10
201.6824
 20
32.1517
  0
VERTEX
  8
LAYER_1
 10
201.6824
 20
31.3972
  0
VERTEX
  8
LAYER_1
 10
201.5209
 20
31.3972
  0
SEQEND
  0
ENDBLK
  0
BLOCK
  8
LAYER_1
  2
AIGNBL01030023
 70
64
 10
0
 20
0
 30
0
  3
AIGNBL01030023
  0
POLYLINE
  8
LAYER_1
 40
0.05
 41
0.05
 66
1
 10
0
 20
0
 30
0
 70
1
  0
VERTEX
  8
LAYER_1
 10
203.6089
 20
31.3972
  0
VERTEX
  8
LAYER_1
 10
203.4467
 20
31.3972
  0
VERTEX
  8
LAYER_1
 10
203.4467
 20
32.9902
  0
VERTEX
  8
LAYER_1
 10
203.9155
 20
32.9902
 42
-0.06066911876
  0
VERTEX
  8
LAYER_1
 10
204.1322
 20
32.9682
 42
-0.09995159951
  0
VERTEX
  8
LAYER_1
 10
204.3059
 20
32.8951
 42
-0.1299930973
  0
VERTEX
  8
LAYER_1
 10
204.4192
 20
32.7629
 42
-0.1126524822
  0
VERTEX
  8
LAYER_1
 10
204.4595
 20
32.5651
 42
-0.1056073151
  0
VERTEX
  8
LAYER_1
 10
204.4285
 20
32.4053
 42
-0.09399241868
  0
VERTEX
  8
LAYER_1
 10
204.3431
 20
32.2805
 42
-0.09148909796
  0
VERTEX
  8
LAYER_1
 10
204.2146
 20
32.1965
 42
-0.0767576436
  0
VERTEX
  8
LAYER_1
 10
204.0527
 20
32.1558
  0
VERTEX
  8
LAYER_1
 10
204.5184
 20
31.3972
  0
VERTEX
  8
LAYER_1
 10
204.3203
 20
31.3972
  0
VERTEX
  8
LAYER_1
 10
203.8794
 20
32.1421
  0
VERTEX
  8
LAYER_1
 10
203.6089
 20
32.1421
  0
SEQEND
  0
POLYLINE
  8
LAYER_1
 40
0.05
 41
0.05
 66
1
 10
0
 20
0
 30
0
 70
1
  0
VERTEX
  8
LAYER_1
 10
203.6089
 20
32.2819
  0
VERTEX
  8
LAYER_1
 10
203.8904
 20
32.2819
 42
0.1461368459
  0
VERTEX
  8
LAYER_1
 10
204.1922
 20
32.3522
 42
0.2609235552
  0
VERTEX
  8
LAYER_1
 10
204.298
 20
32.5651
 42
0.1393363969
  0
VERTEX
  8
LAYER_1
 10
204.2683
 20
32.6974
 42
0.1273858496
  0
VERTEX
  8
LAYER_1
 10
204.1874
 20
32.7856
 42
0.09508134199
  0
VERTEX
  8
LAYER_1
 10
204.0616
 20
32.8352
  0
VERTEX
  8
LAYER_1
 10
203.8973
 20
32.8511
  0
VERTEX
  8
LAYER_1
 10
203.6089
 20
32.8511
  0
SEQEND
  0
ENDBLK
  0
BLOCK
  8
LAYER_1
  2
AIGNBL01030024
 70
64
 10
0
 20
0
 30
0
  3
AIGNBL01030024
  0
POLYLINE
  8
LAYER_1
 40
0.05
 41
0.05
 66
1
 10
0
 20
0
 30
0
 70
1
  0
VERTEX
  8
LAYER_1
 10
206.6809
 20
32.1937
 42
-0.09766011381
  0
VERTEX
  8
LAYER_1
 10
206.6182
 20
31.8589
 42
-0.09919284878
  0
VERTEX
  8
LAYER_1
 10
206.4432
 20
31.5943
 42
-0.09927456735
  0
VERTEX
  8
LAYER_1
 10
206.1804
 20
31.42
 42
-0.09891142118
  0
VERTEX
  8
LAYER_1
 10
205.8503
 20
31.3566
 42
-0.09975014214
  0
VERTEX
  8
LAYER_1
 10
205.5206
 20
31.42
 42
-0.09900610129
  0
VERTEX
  8
LAYER_1
 10
205.2574
 20
31.5943
 42
-0.09934846563
  0
VERTEX
  8
LAYER_1
 10
205.0831
 20
31.8589
 42
-0.09745306198
  0
VERTEX
  8
LAYER_1
 10
205.0204
 20
32.1937
 42
-0.0984523054
  0
VERTEX
  8
LAYER_1
 10
205.0831
 20
32.5293
 42
-0.09992691429
  0
VERTEX
  8
LAYER_1
 10
205.2574
 20
32.7939
 42
-0.0982976065
  0
VERTEX
  8
LAYER_1
 10
205.5206
 20
32.9682
 42
-0.0987846059
  0
VERTEX
  8
LAYER_1
 10
205.8503
 20
33.0316
 42
-0.09940202975
  0
VERTEX
  8
LAYER_1
 10
206.1804
 20
32.9682
 42
-0.1001667942
  0
VERTEX
  8
LAYER_1
 10
206.4432
 20
32.7939
 42
-0.09832543732
  0
VERTEX
  8
LAYER_1
 10
206.6182
 20
32.5293
 42
-0.09683692051
  0
SEQEND
  0
POLYLINE
  8
LAYER_1
 40
0.05
 41
0.05
 66
1
 10
0
 20
0
 30
0
 70
1
  0
VERTEX
  8
LAYER_1
 10
206.5097
 20
32.193
 42
0.08769980823
  0
VERTEX
  8
LAYER_1
 10
206.4646
 20
32.4583
 42
0.09998649981
  0
VERTEX
  8
LAYER_1
 10
206.334
 20
32.6788
 42
0.1043687526
  0
VERTEX
  8
LAYER_1
 10
206.1263
 20
32.8304
 42
0.1084314942
  0
VERTEX
  8
LAYER_1
 10
205.8503
 20
32.8876
 42
0.1106147182
  0
VERTEX
  8
LAYER_1
 10
205.5747
 20
32.8304
 42
0.1068798402
  0
VERTEX
  8
LAYER_1
 10
205.3663
 20
32.6788
 42
0.09694774979
  0
VERTEX
  8
LAYER_1
 10
205.2357
 20
32.4583
 42
0.0846925851
  0
VERTEX
  8
LAYER_1
 10
205.1909
 20
32.193
 42
0.08621583874
  0
VERTEX
  8
LAYER_1
 10
205.2357
 20
31.9278
 42
0.09801998234
  0
VERTEX
  8
LAYER_1
 10
205.3663
 20
31.7073
 42
0.1003461121
  0
VERTEX
  8
LAYER_1
 10
205.5747
 20
31.5571
 42
0.1086754191
  0
VERTEX
  8
LAYER_1
 10
205.8503
 20
31.5006
 42
0.1105598463
  0
VERTEX
  8
LAYER_1
 10
206.1263
 20
31.5571
 42
0.1018385555
  0
VERTEX
  8
LAYER_1
 10
206.334
 20
31.7073
 42
0.09944245511
  0
VERTEX
  8
LAYER_1
 10
206.4646
 20
31.9278
 42
0.08672139302
  0
SEQEND
  0
ENDBLK
  0
BLOCK
  8
LAYER_1
  2
AIGNBL01030025
 70
64
 10
0
 20
0
 30
0
  3
AIGNBL01030025
  0
POLYLINE
  8
LAYER_1
 40
0.05
 41
0.05
 66
1
 10
0
 20
0
 30
0
 70
1
  0
VERTEX
  8
LAYER_1
 10
208.9044
 20
32.1937
 42
-0.1006758747
  0
VERTEX
  8
LAYER_1
 10
208.841
 20
31.8589
 42
-0.09989242595
  0
VERTEX
  8
LAYER_1
 10
208.6674
 20
31.5943
 42
-0.09784806531
  0
VERTEX
  8
LAYER_1
 10
208.4038
 20
31.42
 42
-0.09894327545
  0
VERTEX
  8
LAYER_1
 10
208.0738
 20
31.3566
 42
-0.09986466406
  0
VERTEX
  8
LAYER_1
 10
207.7444
 20
31.42
 42
-0.1000592518
  0
VERTEX
  8
LAYER_1
 10
207.4809
 20
31.5943
 42
-0.09790531107
  0
VERTEX
  8
LAYER_1
 10
207.3062
 20
31.8589
 42
-0.09812895876
  0
VERTEX
  8
LAYER_1
 10
207.2435
 20
32.1937
 42
-0.09917477792
  0
VERTEX
  8
LAYER_1
 10
207.3062
 20
32.5293
 42
-0.09847433184
  0
VERTEX
  8
LAYER_1
 10
207.4809
 20
32.7939
 42
-0.09923447691
  0
VERTEX
  8
LAYER_1
 10
207.7444
 20
32.9682
 42
-0.09891612187
  0
VERTEX
  8
LAYER_1
 10
208.0738
 20
33.0316
 42
-0.09942799664
  0
VERTEX
  8
LAYER_1
 10
208.4038
 20
32.9682
 42
-0.09843860012
  0
VERTEX
  8
LAYER_1
 10
208.6674
 20
32.7939
 42
-0.09914456925
  0
VERTEX
  8
LAYER_1
 10
208.841
 20
32.5293
 42
-0.09965032528
  0
SEQEND
  0
POLYLINE
  8
LAYER_1
 40
0.05
 41
0.05
 66
1
 10
0
 20
0
 30
0
 70
1
  0
VERTEX
  8
LAYER_1
 10
208.7332
 20
32.193
 42
0.08594279373
  0
VERTEX
  8
LAYER_1
 10
208.6887
 20
32.4583
 42
0.09669672023
  0
VERTEX
  8
LAYER_1
 10
208.5578
 20
32.6788
 42
0.104906235
  0
VERTEX
  8
LAYER_1
 10
208.3497
 20
32.8304
 42
0.1086365864
  0
VERTEX
  8
LAYER_1
 10
208.0738
 20
32.8876
 42
0.1103838916
  0
VERTEX
  8
LAYER_1
 10
207.7982
 20
32.8304
 42
0.1062645758
  0
VERTEX
  8
LAYER_1
 10
207.5904
 20
32.6788
 42
0.1003307055
  0
VERTEX
  8
LAYER_1
 10
207.4599
 20
32.4583
 42
0.08566957267
  0
VERTEX
  8
LAYER_1
 10
207.4147
 20
32.193
 42
0.08741228692
  0
VERTEX
  8
LAYER_1
 10
207.4599
 20
31.9278
 42
0.1011442312
  0
VERTEX
  8
LAYER_1
 10
207.5904
 20
31.7073
 42
0.09999686415
  0
VERTEX
  8
LAYER_1
 10
207.7982
 20
31.5571
 42
0.1085463596
  0
VERTEX
  8
LAYER_1
 10
208.0738
 20
31.5006
 42
0.1107527855
  0
VERTEX
  8
LAYER_1
 10
208.3497
 20
31.5571
 42
0.1023036151
  0
VERTEX
  8
LAYER_1
 10
208.5578
 20
31.7073
 42
0.09479161826
  0
VERTEX
  8
LAYER_1
 10
208.6887
 20
31.9278
 42
0.08519180204
  0
SEQEND
  0
ENDBLK
  0
BLOCK
  8
LAYER_1
  2
AIGNBL01030026
 70
64
 10
0
 20
0
 30
0
  3
AIGNBL01030026
  0
POLYLINE
  8
LAYER_1
 40
0.05
 41
0.05
 66
1
 10
0
 20
0
 30
0
 70
1
  0
VERTEX
  8
LAYER_1
 10
210.34
 20
31.6715
  0
VERTEX
  8
LAYER_1
 10
210.3427
 20
31.6715
  0
VERTEX
  8
LAYER_1
 10
210.8753
 20
32.9902
  0
VERTEX
  8
LAYER_1
 10
211.1237
 20
32.9902
  0
VERTEX
  8
LAYER_1
 10
211.1237
 20
31.3972
  0
VERTEX
  8
LAYER_1
 10
210.9611
 20
31.3972
  0
VERTEX
  8
LAYER_1
 10
210.9611
 20
32.7815
  0
VERTEX
  8
LAYER_1
 10
210.9566
 20
32.7815
  0
VERTEX
  8
LAYER_1
 10
210.381
 20
31.3972
  0
VERTEX
  8
LAYER_1
 10
210.2952
 20
31.3972
  0
VERTEX
  8
LAYER_1
 10
209.7188
 20
32.7815
  0
VERTEX
  8
LAYER_1
 10
209.7147
 20
32.7815
  0
VERTEX
  8
LAYER_1
 10
209.7147
 20
31.3972
  0
VERTEX
  8
LAYER_1
 10
209.5524
 20
31.3972
  0
VERTEX
  8
LAYER_1
 10
209.5524
 20
32.9902
  0
VERTEX
  8
LAYER_1
 10
209.8001
 20
32.9902
  0
SEQEND
  0
ENDBLK
  0
BLOCK
  8
LAYER_1
  2
AIGNBL01030027
 70
64
 10
0
 20
0
 30
0
  3
AIGNBL01030027
  0
POLYLINE
  8
LAYER_1
 40
0.05
 41
0.05
 66
1
 10
0
 20
0
 30
0
 70
1
  0
VERTEX
  8
LAYER_1
 10
212.8917
 20
31.5419
  0
VERTEX
  8
LAYER_1
 10
213.7451
 20
31.5419
  0
VERTEX
  8
LAYER_1
 10
213.7451
 20
31.3972
  0
VERTEX
  8
LAYER_1
 10
212.7298
 20
31.3972
  0
VERTEX
  8
LAYER_1
 10
212.7298
 20
32.9902
  0
VERTEX
  8
LAYER_1
 10
213.7179
 20
32.9902
  0
VERTEX
  8
LAYER_1
 10
213.7179
 20
32.8462
  0
VERTEX
  8
LAYER_1
 10
212.8917
 20
32.8462
  0
VERTEX
  8
LAYER_1
 10
212.8917
 20
32.2998
  0
VERTEX
  8
LAYER_1
 10
213.6638
 20
32.2998
  0
VERTEX
  8
LAYER_1
 10
213.6638
 20
32.1558
  0
VERTEX
  8
LAYER_1
 10
212.8917
 20
32.1558
  0
SEQEND
  0
ENDBLK
  0
BLOCK
  8
LAYER_1
  2
AIGNBL01030028
 70
64
 10
0
 20
0
 30
0
  3
AIGNBL01030028
  0
POLYLINE
  8
LAYER_1
 40
0.05
 41
0.05
 66
1
 10
0
 20
0
 30
0
 70
1
  0
VERTEX
  8
LAYER_1
 10
214.8944
 20
32.3474
  0
VERTEX
  8
LAYER_1
 10
215.3295
 20
32.9902
  0
VERTEX
  8
LAYER_1
 10
215.5224
 20
32.9902
  0
VERTEX
  8
LAYER_1
 10
214.9943
 20
32.2323
  0
VERTEX
  8
LAYER_1
 10
215.5793
 20
31.3972
  0
VERTEX
  8
LAYER_1
 10
215.3767
 20
31.3972
  0
VERTEX
  8
LAYER_1
 10
214.8899
 20
32.1152
  0
VERTEX
  8
LAYER_1
 10
214.4066
 20
31.3972
  0
VERTEX
  8
LAYER_1
 10
214.2036
 20
31.3972
  0
VERTEX
  8
LAYER_1
 10
214.789
 20
32.2344
  0
VERTEX
  8
LAYER_1
 10
214.2557
 20
32.9902
  0
VERTEX
  8
LAYER_1
 10
214.4586
 20
32.9902
  0
SEQEND
  0
ENDBLK
  0
BLOCK
  8
LAYER_1
  2
AIGNBL01030029
 70
64
 10
0
 20
0
 30
0
  3
AIGNBL01030029
  0
POLYLINE
  8
LAYER_1
 40
0.05
 41
0.05
 66
1
 10
0
 20
0
 30
0
 70
1
  0
VERTEX
  8
LAYER_1
 10
216.1439
 20
32.9902
  0
VERTEX
  8
LAYER_1
 10
216.5945
 20
32.9902
 42
-0.0691754704
  0
VERTEX
  8
LAYER_1
 10
216.815
 20
32.9647
 42
-0.102941833
  0
VERTEX
  8
LAYER_1
 10
216.9845
 20
32.8855
 42
-0.1236034878
  0
VERTEX
  8
LAYER_1
 10
217.0937
 20
32.7532
 42
-0.1076956505
  0
VERTEX
  8
LAYER_1
 10
217.1316
 20
32.5658
 42
-0.1206859882
  0
VERTEX
  8
LAYER_1
 10
217.0927
 20
32.3777
 42
-0.1199070901
  0
VERTEX
  8
LAYER_1
 10
216.9824
 20
32.2447
 42
-0.09050759759
  0
VERTEX
  8
LAYER_1
 10
216.8112
 20
32.1648
 42
-0.0624003382
  0
VERTEX
  8
LAYER_1
 10
216.5897
 20
32.1379
  0
VERTEX
  8
LAYER_1
 10
216.3058
 20
32.1379
  0
VERTEX
  8
LAYER_1
 10
216.3058
 20
31.3972
  0
VERTEX
  8
LAYER_1
 10
216.1439
 20
31.3972
  0
SEQEND
  0
POLYLINE
  8
LAYER_1
 40
0.05
 41
0.05
 66
1
 10
0
 20
0
 30
0
 70
1
  0
VERTEX
  8
LAYER_1
 10
216.3058
 20
32.275
  0
VERTEX
  8
LAYER_1
 10
216.5801
 20
32.275
 42
0.1607680339
  0
VERTEX
  8
LAYER_1
 10
216.8708
 20
32.3494
 42
0.2495820316
  0
VERTEX
  8
LAYER_1
 10
216.97
 20
32.5658
 42
0.2534255779
  0
VERTEX
  8
LAYER_1
 10
216.8677
 20
32.7828
 42
0.1486796804
  0
VERTEX
  8
LAYER_1
 10
216.5801
 20
32.8511
  0
VERTEX
  8
LAYER_1
 10
216.3058
 20
32.8511
  0
SEQEND
  0
ENDBLK
  0
BLOCK
  8
LAYER_1
  2
AIGNBL0103002A
 70
64
 10
0
 20
0
 30
0
  3
AIGNBL0103002A
  0
POLYLINE
  8
LAYER_1
 40
0.05
 41
0.05
 66
1
 10
0
 20
0
 30
0
 70
1
  0
VERTEX
  8
LAYER_1
 10
217.9216
 20
31.5419
  0
VERTEX
  8
LAYER_1
 10
218.7749
 20
31.5419
  0
VERTEX
  8
LAYER_1
 10
218.7749
 20
31.3972
  0
VERTEX
  8
LAYER_1
 10
217.7597
 20
31.3972
  0
VERTEX
  8
LAYER_1
 10
217.7597
 20
32.9902
  0
VERTEX
  8
LAYER_1
 10
218.7477
 20
32.9902
  0
VERTEX
  8
LAYER_1
 10
218.7477
 20
32.8462
  0
VERTEX
  8
LAYER_1
 10
217.9216
 20
32.8462
  0
VERTEX
  8
LAYER_1
 10
217.9216
 20
32.2998
  0
VERTEX
  8
LAYER_1
 10
218.6936
 20
32.2998
  0
VERTEX
  8
LAYER_1
 10
218.6936
 20
32.1558
  0
VERTEX
  8
LAYER_1
 10
217.9216
 20
32.1558
  0
SEQEND
  0
ENDBLK
  0
BLOCK
  8
LAYER_1
  2
AIGNBL0103002B
 70
64
 10
0
 20
0
 30
0
  3
AIGNBL0103002B
  0
POLYLINE
  8
LAYER_1
 40
0.05
 41
0.05
 66
1
 10
0
 20
0
 30
0
 70
1
  0
VERTEX
  8
LAYER_1
 10
219.5645
 20
31.3972
  0
VERTEX
  8
LAYER_1
 10
219.4023
 20
31.3972
  0
VERTEX
  8
LAYER_1
 10
219.4023
 20
32.9902
  0
VERTEX
  8
LAYER_1
 10
219.8712
 20
32.9902
 42
-0.06051589446
  0
VERTEX
  8
LAYER_1
 10
220.0879
 20
32.9682
 42
-0.1000721241
  0
VERTEX
  8
LAYER_1
 10
220.2615
 20
32.8951
 42
-0.1269320179
  0
VERTEX
  8
LAYER_1
 10
220.3752
 20
32.7629
 42
-0.1110038898
  0
VERTEX
  8
LAYER_1
 10
220.4151
 20
32.5658
 42
-0.1038388446
  0
VERTEX
  8
LAYER_1
 10
220.3841
 20
32.4053
 42
-0.09892509868
  0
VERTEX
  8
LAYER_1
 10
220.2987
 20
32.2805
 42
-0.09391939989
  0
VERTEX
  8
LAYER_1
 10
220.1702
 20
32.1965
 42
-0.07690440524
  0
VERTEX
  8
LAYER_1
 10
220.0079
 20
32.1558
  0
VERTEX
  8
LAYER_1
 10
220.4741
 20
31.3972
  0
VERTEX
  8
LAYER_1
 10
220.276
 20
31.3972
  0
VERTEX
  8
LAYER_1
 10
219.835
 20
32.1421
  0
VERTEX
  8
LAYER_1
 10
219.5645
 20
32.1421
  0
SEQEND
  0
POLYLINE
  8
LAYER_1
 40
0.05
 41
0.05
 66
1
 10
0
 20
0
 30
0
 70
1
  0
VERTEX
  8
LAYER_1
 10
219.5645
 20
32.2819
  0
VERTEX
  8
LAYER_1
 10
219.846
 20
32.2819
 42
0.1464479863
  0
VERTEX
  8
LAYER_1
 10
220.1478
 20
32.3522
 42
0.2612989562
  0
VERTEX
  8
LAYER_1
 10
220.2536
 20
32.5658
 42
0.1333740999
  0
VERTEX
  8
LAYER_1
 10
220.2243
 20
32.6981
 42
0.1165419042
  0
VERTEX
  8
LAYER_1
 10
220.143
 20
32.7863
 42
0.09183286793
  0
VERTEX
  8
LAYER_1
 10
220.0172
 20
32.8352
  0
VERTEX
  8
LAYER_1
 10
219.8529
 20
32.8511
  0
VERTEX
  8
LAYER_1
 10
219.5645
 20
32.8511
  0
SEQEND
  0
ENDBLK
  0
BLOCK
  8
LAYER_1
  2
AIGNBL0103002C
 70
64
 10
0
 20
0
 30
0
  3
AIGNBL0103002C
  0
POLYLINE
  8
LAYER_1
 40
0.05
 41
0.05
 66
1
 10
0
 20
0
 30
0
 70
1
  0
VERTEX
  8
LAYER_1
 10
221.223
 20
31.3972
  0
VERTEX
  8
LAYER_1
 10
221.0618
 20
31.3972
  0
VERTEX
  8
LAYER_1
 10
221.0618
 20
32.9902
  0
VERTEX
  8
LAYER_1
 10
221.223
 20
32.9902
  0
SEQEND
  0
ENDBLK
  0
BLOCK
  8
LAYER_1
  2
AIGNBL0103002D
 70
64
 10
0
 20
0
 30
0
  3
AIGNBL0103002D
  0
POLYLINE
  8
LAYER_1
 40
0.05
 41
0.05
 66
1
 10
0
 20
0
 30
0
 70
1
  0
VERTEX
  8
LAYER_1
 10
222.1191
 20
31.5419
  0
VERTEX
  8
LAYER_1
 10
222.9717
 20
31.5419
  0
VERTEX
  8
LAYER_1
 10
222.9717
 20
31.3972
  0
VERTEX
  8
LAYER_1
 10
221.9568
 20
31.3972
  0
VERTEX
  8
LAYER_1
 10
221.9568
 20
32.9902
  0
VERTEX
  8
LAYER_1
 10
222.9452
 20
32.9902
  0
VERTEX
  8
LAYER_1
 10
222.9452
 20
32.8462
  0
VERTEX
  8
LAYER_1
 10
222.1191
 20
32.8462
  0
VERTEX
  8
LAYER_1
 10
222.1191
 20
32.2998
  0
VERTEX
  8
LAYER_1
 10
222.8908
 20
32.2998
  0
VERTEX
  8
LAYER_1
 10
222.8908
 20
32.1558
  0
VERTEX
  8
LAYER_1
 10
222.1191
 20
32.1558
  0
SEQEND
  0
ENDBLK
  0
BLOCK
  8
LAYER_1
  2
AIGNBL0103002E
 70
64
 10
0
 20
0
 30
0
  3
AIGNBL0103002E
  0
POLYLINE
  8
LAYER_1
 40
0.05
 41
0.05
 66
1
 10
0
 20
0
 30
0
 70
1
  0
VERTEX
  8
LAYER_1
 10
224.7298
 20
31.6336
  0
VERTEX
  8
LAYER_1
 10
224.7339
 20
31.6336
  0
VERTEX
  8
LAYER_1
 10
224.7339
 20
32.9902
  0
VERTEX
  8
LAYER_1
 10
224.8962
 20
32.9902
  0
VERTEX
  8
LAYER_1
 10
224.8962
 20
31.3972
  0
VERTEX
  8
LAYER_1
 10
224.6936
 20
31.3972
  0
VERTEX
  8
LAYER_1
 10
223.7665
 20
32.7677
  0
VERTEX
  8
LAYER_1
 10
223.7617
 20
32.7677
  0
VERTEX
  8
LAYER_1
 10
223.7617
 20
31.3972
  0
VERTEX
  8
LAYER_1
 10
223.5998
 20
31.3972
  0
VERTEX
  8
LAYER_1
 10
223.5998
 20
32.9902
  0
VERTEX
  8
LAYER_1
 10
223.8027
 20
32.9902
  0
SEQEND
  0
ENDBLK
  0
BLOCK
  8
LAYER_1
  2
AIGNBL0103002F
 70
64
 10
0
 20
0
 30
0
  3
AIGNBL0103002F
  0
POLYLINE
  8
LAYER_1
 40
0.05
 41
0.05
 66
1
 10
0
 20
0
 30
0
 70
1
  0
VERTEX
  8
LAYER_1
 10
226.9715
 20
31.6556
  0
VERTEX
  8
LAYER_1
 10
226.873
 20
31.5412
 42
-0.0594515839
  0
VERTEX
  8
LAYER_1
 10
226.7403
 20
31.4461
 42
-0.0608425684
  0
VERTEX
  8
LAYER_1
 10
226.5733
 20
31.3807
 42
-0.06071577326
  0
VERTEX
  8
LAYER_1
 10
226.3748
 20
31.3566
 42
-0.09925590931
  0
VERTEX
  8
LAYER_1
 10
226.0417
 20
31.42
 42
-0.1019674319
  0
VERTEX
  8
LAYER_1
 10
225.7785
 20
31.5943
 42
-0.1013472051
  0
VERTEX
  8
LAYER_1
 10
225.6066
 20
31.8589
 42
-0.09836348789
  0
VERTEX
  8
LAYER_1
 10
225.5442
 20
32.1944
 42
-0.1006378372
  0
VERTEX
  8
LAYER_1
 10
225.6076
 20
32.5293
 42
-0.0986135991
  0
VERTEX
  8
LAYER_1
 10
225.7812
 20
32.7939
 42
-0.09784806531
  0
VERTEX
  8
LAYER_1
 10
226.0448
 20
32.9682
 42
-0.09868805195
  0
VERTEX
  8
LAYER_1
 10
226.3748
 20
33.0316
  0
VERTEX
  8
LAYER_1
 10
226.5467
 20
33.013
  0
VERTEX
  8
LAYER_1
 10
226.7055
 20
32.9613
  0
VERTEX
  8
LAYER_1
 10
226.8406
 20
32.8814
 42
-0.08202930821
  0
VERTEX
  8
LAYER_1
 10
226.9422
 20
32.7766
  0
VERTEX
  8
LAYER_1
 10
226.8072
 20
32.6774
  0
VERTEX
  8
LAYER_1
 10
226.7403
 20
32.7546
  0
VERTEX
  8
LAYER_1
 10
226.6425
 20
32.8221
  0
VERTEX
  8
LAYER_1
 10
226.5199
 20
32.8697
  0
VERTEX
  8
LAYER_1
 10
226.3769
 20
32.8876
 42
0.1086830867
  0
VERTEX
  8
LAYER_1
 10
226.0989
 20
32.8311
 42
0.1033898285
  0
VERTEX
  8
LAYER_1
 10
225.8908
 20
32.6795
 42
0.09584999148
  0
VERTEX
  8
LAYER_1
 10
225.7599
 20
32.459
 42
0.08491467955
  0
VERTEX
  8
LAYER_1
 10
225.7154
 20
32.1944
 42
0.09038942465
  0
VERTEX
  8
LAYER_1
 10
225.7616
 20
31.9298
 42
0.09839112204
  0
VERTEX
  8
LAYER_1
 10
225.8932
 20
31.7087
 42
0.1053069792
  0
VERTEX
  8
LAYER_1
 10
226.1016
 20
31.5571
 42
0.1089780197
  0
VERTEX
  8
LAYER_1
 10
226.3769
 20
31.5006
 42
0.1095371994
  0
VERTEX
  8
LAYER_1
 10
226.6377
 20
31.5571
 42
0.1384175185
  0
VERTEX
  8
LAYER_1
 10
226.8447
 20
31.7369
  0
SEQEND
  0
ENDBLK
  0
BLOCK
  8
LAYER_1
  2
AIGNBL01030030
 70
64
 10
0
 20
0
 30
0
  3
AIGNBL01030030
  0
POLYLINE
  8
LAYER_1
 40
0.05
 41
0.05
 66
1
 10
0
 20
0
 30
0
 70
1
  0
VERTEX
  8
LAYER_1
 10
227.7225
 20
31.5419
  0
VERTEX
  8
LAYER_1
 10
228.5759
 20
31.5419
  0
VERTEX
  8
LAYER_1
 10
228.5759
 20
31.3972
  0
VERTEX
  8
LAYER_1
 10
227.5606
 20
31.3972
  0
VERTEX
  8
LAYER_1
 10
227.5606
 20
32.9902
  0
VERTEX
  8
LAYER_1
 10
228.5487
 20
32.9902
  0
VERTEX
  8
LAYER_1
 10
228.5487
 20
32.8462
  0
VERTEX
  8
LAYER_1
 10
227.7225
 20
32.8462
  0
VERTEX
  8
LAYER_1
 10
227.7225
 20
32.2998
  0
VERTEX
  8
LAYER_1
 10
228.4946
 20
32.2998
  0
VERTEX
  8
LAYER_1
 10
228.4946
 20
32.1558
  0
VERTEX
  8
LAYER_1
 10
227.7225
 20
32.1558
  0
SEQEND
  0
ENDBLK
  0
BLOCK
  8
LAYER_1
  2
AIGNBL01020003
 70
64
 10
0
 20
0
 30
0
  3
AIGNBL01020003
  0
POLYLINE
  8
LAYER_1
 40
0.05
 41
0.05
 66
1
 10
0
 20
0
 30
0
 70
1
  0
VERTEX
  8
LAYER_1
 10
281.4447
 20
399.202
  0
VERTEX
  8
LAYER_1
 10
280.7336
 20
399.202
  0
VERTEX
  8
LAYER_1
 10
278.4588
 20
396.9561
  0
VERTEX
  8
LAYER_1
 10
278.4588
 20
399.202
  0
VERTEX
  8
LAYER_1
 10
277.8683
 20
399.202
  0
VERTEX
  8
LAYER_1
 10
277.8683
 20
394.8307
  0
VERTEX
  8
LAYER_1
 10
278.4588
 20
394.8307
  0
VERTEX
  8
LAYER_1
 10
278.4588
 20
396.2647
  0
VERTEX
  8
LAYER_1
 10
279.1702
 20
396.9675
  0
VERTEX
  8
LAYER_1
 10
280.8669
 20
394.8307
  0
VERTEX
  8
LAYER_1
 10
281.578
 20
394.8307
  0
VERTEX
  8
LAYER_1
 10
279.5771
 20
397.3675
  0
SEQEND
  0
POLYLINE
  8
LAYER_1
 40
0.05
 41
0.05
 66
1
 10
0
 20
0
 30
0
  0
VERTEX
  8
LAYER_1
 10
286.9461
 20
397.2533
  0
VERTEX
  8
LAYER_1
 10
286.2602
 20
397.3618
 42
-0.06913007455
  0
VERTEX
  8
LAYER_1
 10
285.8361
 20
397.4842
 42
-0.1734388811
  0
VERTEX
  8
LAYER_1
 10
285.5032
 20
397.7972
 42
-0.1087484145
  0
VERTEX
  8
LAYER_1
 10
285.4472
 20
398.0875
 42
-0.2779971125
  0
VERTEX
  8
LAYER_1
 10
285.8222
 20
398.6976
 42
-0.1278420901
  0
VERTEX
  8
LAYER_1
 10
286.4175
 20
398.8412
 42
-0.006492643815
  0
VERTEX
  8
LAYER_1
 10
286.4635
 20
398.8418
 42
-0.1388619967
  0
VERTEX
  8
LAYER_1
 10
287.0944
 20
398.6808
 42
-0.1580474478
  0
VERTEX
  8
LAYER_1
 10
287.4068
 20
398.2923
 42
-0.06125421761
  0
VERTEX
  8
LAYER_1
 10
287.4736
 20
398.0303
  0
VERTEX
  8
LAYER_1
 10
288.0772
 20
398.0303
 42
0.1331872531
  0
VERTEX
  8
LAYER_1
 10
287.8666
 20
398.6848
 42
0.1320588866
  0
VERTEX
  8
LAYER_1
 10
287.4036
 20
399.0778
 42
0.1048501502
  0
VERTEX
  8
LAYER_1
 10
286.6572
 20
399.259
 42
0.01703281728
  0
VERTEX
  8
LAYER_1
 10
286.47
 20
399.2647
 42
0.1021277535
  0
VERTEX
  8
LAYER_1
 10
285.5606
 20
399.0879
 42
0.1198283036
  0
VERTEX
  8
LAYER_1
 10
285.0422
 20
398.6906
 42
0.1653837996
  0
VERTEX
  8
LAYER_1
 10
284.8246
 20
398.0417
 42
0.1470911156
  0
VERTEX
  8
LAYER_1
 10
284.9954
 20
397.4354
 42
0.1360793618
  0
VERTEX
  8
LAYER_1
 10
285.4501
 20
397.0547
 42
0.07792477994
  0
VERTEX
  8
LAYER_1
 10
286.1141
 20
396.8535
  0
VERTEX
  8
LAYER_1
 10
286.7939
 20
396.7448
 42
-0.06878601885
  0
VERTEX
  8
LAYER_1
 10
287.2039
 20
396.6325
 42
-0.169483501
  0
VERTEX
  8
LAYER_1
 10
287.5553
 20
396.3174
 42
-0.1164325627
  0
VERTEX
  8
LAYER_1
 10
287.6193
 20
396.0132
 42
-0.1724125422
  0
VERTEX
  8
LAYER_1
 10
287.4518
 20
395.503
 42
-0.1584721802
  0
VERTEX
  8
LAYER_1
 10
287.0141
 20
395.2393
 42
-0.07245656248
  0
VERTEX
  8
LAYER_1
 10
286.47
 20
395.1731
 42
-0.1216647888
  0
VERTEX
  8
LAYER_1
 10
285.7498
 20
395.3361
 42
-0.2350944637
  0
VERTEX
  8
LAYER_1
 10
285.2563
 20
396.059
  0
VERTEX
  8
LAYER_1
 10
284.6403
 20
396.059
 42
0.1333559319
  0
VERTEX
  8
LAYER_1
 10
284.8578
 20
395.4123
 42
0.1212214038
  0
VERTEX
  8
LAYER_1
 10
285.3332
 20
394.9923
 42
0.09874754593
  0
VERTEX
  8
LAYER_1
 10
286.0821
 20
394.7665
 42
0.02987283731
  0
VERTEX
  8
LAYER_1
 10
286.4573
 20
394.7446
 42
0.09226156506
  0
VERTEX
  8
LAYER_1
 10
287.4377
 20
394.9101
 42
0.1223159491
  0
VERTEX
  8
LAYER_1
 10
287.9708
 20
395.2915
 42
0.1355315453
  0
VERTEX
  8
LAYER_1
 10
288.2073
 20
395.8417
 42
0.03705162074
  0
VERTEX
  8
LAYER_1
 10
288.2232
 20
396.059
 42
0.1440889385
  0
VERTEX
  8
LAYER_1
 10
288.0549
 20
396.6914
 42
0.136499685
  0
VERTEX
  8
LAYER_1
 10
287.6338
 20
397.0479
 42
0.08070480146
  0
VERTEX
  8
LAYER_1
 10
286.9461
 20
397.2533
  0
SEQEND
  0
POLYLINE
  8
LAYER_1
 40
0.05
 41
0.05
 66
1
 10
0
 20
0
 30
0
 70
1
  0
VERTEX
  8
LAYER_1
 10
268.4977
 20
397.122
  0
VERTEX
  8
LAYER_1
 10
268.4977
 20
398.7677
  0
VERTEX
  8
LAYER_1
 10
269.6411
 20
398.7677
 42
-0.1360765863
  0
VERTEX
  8
LAYER_1
 10
270.2862
 20
398.6047
 42
-0.2642099653
  0
VERTEX
  8
LAYER_1
 10
270.6129
 20
397.9676
 42
-0.1653001469
  0
VERTEX
  8
LAYER_1
 10
270.4481
 20
397.4363
 42
-0.1616872832
  0
VERTEX
  8
LAYER_1
 10
270.0351
 20
397.176
 42
-0.07199661025
  0
VERTEX
  8
LAYER_1
 10
269.6156
 20
397.122
  0
SEQEND
  0
POLYLINE
  8
LAYER_1
 40
0.05
 41
0.05
 66
1
 10
0
 20
0
 30
0
 70
1
  0
VERTEX
  8
LAYER_1
 10
270.194
 20
396.7675
 42
0.1221867852
  0
VERTEX
  8
LAYER_1
 10
270.8819
 20
397.1005
 42
0.2053827054
  0
VERTEX
  8
LAYER_1
 10
271.2335
 20
397.8794
 42
0.0156744566
  0
VERTEX
  8
LAYER_1
 10
271.2362
 20
397.9733
 42
0.13949242
  0
VERTEX
  8
LAYER_1
 10
271.0669
 20
398.6063
 42
0.1368697471
  0
VERTEX
  8
LAYER_1
 10
270.6251
 20
398.9983
 42
0.003703867914
  0
VERTEX
  8
LAYER_1
 10
270.6071
 20
399.0075
 42
0.1052672577
  0
VERTEX
  8
LAYER_1
 10
269.7493
 20
399.2008
 42
0.007901396217
  0
VERTEX
  8
LAYER_1
 10
269.6666
 20
399.202
  0
VERTEX
  8
LAYER_1
 10
267.9068
 20
399.202
  0
VERTEX
  8
LAYER_1
 10
267.9068
 20
394.8307
  0
VERTEX
  8
LAYER_1
 10
268.4977
 20
394.8307
  0
VERTEX
  8
LAYER_1
 10
268.4977
 20
396.6821
  0
VERTEX
  8
LAYER_1
 10
269.5777
 20
396.6821
  0
VERTEX
  8
LAYER_1
 10
270.5812
 20
394.8307
  0
VERTEX
  8
LAYER_1
 10
271.2675
 20
394.8307
  0
VERTEX
  8
LAYER_1
 10
270.194
 20
396.7561
  0
SEQEND
  0
POLYLINE
  8
LAYER_1
 40
0.05
 41
0.05
 66
1
 10
0
 20
0
 30
0
 70
1
  0
VERTEX
  8
LAYER_1
 10
282.6515
 20
394.8307
  0
VERTEX
  8
LAYER_1
 10
283.2427
 20
394.8307
  0
VERTEX
  8
LAYER_1
 10
283.2427
 20
399.202
  0
VERTEX
  8
LAYER_1
 10
282.6515
 20
399.202
  0
SEQEND
  0
POLYLINE
  8
LAYER_1
 40
0.05
 41
0.05
 66
1
 10
0
 20
0
 30
0
  0
VERTEX
  8
LAYER_1
 10
274.4628
 20
395.1676
 42
-0.1201036245
  0
VERTEX
  8
LAYER_1
 10
273.709
 20
395.3422
 42
-0.1833995402
  0
VERTEX
  8
LAYER_1
 10
273.0692
 20
396.0826
 42
-0.09346695174
  0
VERTEX
  8
LAYER_1
 10
272.9139
 20
396.9133
 42
-0.006607646183
  0
VERTEX
  8
LAYER_1
 10
272.9129
 20
396.9964
 42
-0.09451233088
  0
VERTEX
  8
LAYER_1
 10
273.081
 20
397.9512
 42
-0.1136920143
  0
VERTEX
  8
LAYER_1
 10
273.4694
 20
398.5022
 42
-0.1233838019
  0
VERTEX
  8
LAYER_1
 10
274.058
 20
398.797
 42
-0.0578588559
  0
VERTEX
  8
LAYER_1
 10
274.4628
 20
398.8418
 42
-0.1204247159
  0
VERTEX
  8
LAYER_1
 10
275.2239
 20
398.6646
 42
-0.1821183244
  0
VERTEX
  8
LAYER_1
 10
275.8732
 20
397.916
 42
-0.09404686693
  0
VERTEX
  8
LAYER_1
 10
276.0314
 20
397.0798
 42
-0.006701039944
  0
VERTEX
  8
LAYER_1
 10
276.0324
 20
396.9964
 42
-0.09787375833
  0
VERTEX
  8
LAYER_1
 10
275.8612
 20
396.0703
 42
-0.1143705115
  0
VERTEX
  8
LAYER_1
 10
275.4521
 20
395.506
 42
-0.1174818689
  0
VERTEX
  8
LAYER_1
 10
274.871
 20
395.2148
 42
-0.05993966148
  0
VERTEX
  8
LAYER_1
 10
274.4628
 20
395.1676
  0
SEQEND
  0
POLYLINE
  8
LAYER_1
 40
0.05
 41
0.05
 66
1
 10
0
 20
0
 30
0
  0
VERTEX
  8
LAYER_1
 10
274.4628
 20
399.2647
 42
0.09380817421
  0
VERTEX
  8
LAYER_1
 10
273.54
 20
399.0955
 42
0.1009713649
  0
VERTEX
  8
LAYER_1
 10
272.888
 20
398.6671
 42
0.09914018748
  0
VERTEX
  8
LAYER_1
 10
272.478
 20
398.0427
 42
0.08801165144
  0
VERTEX
  8
LAYER_1
 10
272.295
 20
397.1816
 42
0.01380030723
  0
VERTEX
  8
LAYER_1
 10
272.2904
 20
397.0021
 42
0.08978712934
  0
VERTEX
  8
LAYER_1
 10
272.4619
 20
395.9903
 42
0.09632916679
  0
VERTEX
  8
LAYER_1
 10
272.8568
 20
395.3573
 42
0.1028034786
  0
VERTEX
  8
LAYER_1
 10
273.4764
 20
394.9289
 42
0.09013977037
  0
VERTEX
  8
LAYER_1
 10
274.2964
 20
394.7436
 42
0.01466939489
  0
VERTEX
  8
LAYER_1
 10
274.4628
 20
394.739
 42
0.09305512057
  0
VERTEX
  8
LAYER_1
 10
275.4034
 20
394.9093
 42
0.1015182123
  0
VERTEX
  8
LAYER_1
 10
276.0596
 20
395.3389
 42
0.09957407106
  0
VERTEX
  8
LAYER_1
 10
276.4688
 20
395.9637
 42
0.08770168348
  0
VERTEX
  8
LAYER_1
 10
276.6504
 20
396.8232
 42
0.01369252336
  0
VERTEX
  8
LAYER_1
 10
276.6549
 20
397.0021
 42
0.09193683062
  0
VERTEX
  8
LAYER_1
 10
276.4786
 20
398.0161
 42
0.09687042249
  0
VERTEX
  8
LAYER_1
 10
276.0753
 20
398.6488
 42
0.1014738264
  0
VERTEX
  8
LAYER_1
 10
275.448
 20
399.0759
 42
0.0914088598
  0
VERTEX
  8
LAYER_1
 10
274.6004
 20
399.2615
 42
0.01213375877
  0
VERTEX
  8
LAYER_1
 10
274.4628
 20
399.2647
  0
SEQEND
  0
POLYLINE
  8
LAYER_1
 40
0.05
 41
0.05
 66
1
 10
0
 20
0
 30
0
  0
VERTEX
  8
LAYER_1
 10
264.87
 20
395.2589
  0
VERTEX
  8
LAYER_1
 10
263.6883
 20
395.2589
  0
VERTEX
  8
LAYER_1
 10
263.6883
 20
396.9219
  0
VERTEX
  8
LAYER_1
 10
264.8193
 20
396.9219
 42
-0.05275806413
  0
VERTEX
  8
LAYER_1
 10
265.3631
 20
396.8743
 42
-0.1430657129
  0
VERTEX
  8
LAYER_1
 10
265.8747
 20
396.6211
 42
-0.1770511011
  0
VERTEX
  8
LAYER_1
 10
266.0421
 20
396.2122
 42
-0.02176307697
  0
VERTEX
  8
LAYER_1
 10
266.0451
 20
396.1334
 42
-0.1635613937
  0
VERTEX
  8
LAYER_1
 10
265.8826
 20
395.5937
 42
-0.1608951105
  0
VERTEX
  8
LAYER_1
 10
265.4704
 20
395.3331
 42
-0.07830107821
  0
VERTEX
  8
LAYER_1
 10
264.87
 20
395.2589
  0
SEQEND
  0
POLYLINE
  8
LAYER_1
 40
0.05
 41
0.05
 66
1
 10
0
 20
0
 30
0
 70
1
  0
VERTEX
  8
LAYER_1
 10
263.6883
 20
398.7732
  0
VERTEX
  8
LAYER_1
 10
264.9785
 20
398.7732
 42
-0.1381658882
  0
VERTEX
  8
LAYER_1
 10
265.6305
 20
398.6135
 42
-0.2604385785
  0
VERTEX
  8
LAYER_1
 10
265.8928
 20
398.0875
 42
-0.1867763055
  0
VERTEX
  8
LAYER_1
 10
265.7286
 20
397.6258
 42
-0.1639635045
  0
VERTEX
  8
LAYER_1
 10
265.2849
 20
397.3987
 42
-0.05311995908
  0
VERTEX
  8
LAYER_1
 10
264.902
 20
397.3618
  0
VERTEX
  8
LAYER_1
 10
263.6883
 20
397.3618
  0
SEQEND
  0
POLYLINE
  8
LAYER_1
 40
0.05
 41
0.05
 66
1
 10
0
 20
0
 30
0
  0
VERTEX
  8
LAYER_1
 10
265.6196
 20
397.1506
  0
VERTEX
  8
LAYER_1
 10
265.6196
 20
397.1618
 42
0.1370906713
  0
VERTEX
  8
LAYER_1
 10
266.2447
 20
397.464
 42
0.211814873
  0
VERTEX
  8
LAYER_1
 10
266.5095
 20
398.139
 42
0.1581789908
  0
VERTEX
  8
LAYER_1
 10
266.3379
 20
398.6906
 42
0.1384100717
  0
VERTEX
  8
LAYER_1
 10
265.8798
 20
399.0414
 42
0.1013642858
  0
VERTEX
  8
LAYER_1
 10
265.0873
 20
399.201
 42
0.006975573638
  0
VERTEX
  8
LAYER_1
 10
265.0098
 20
399.202
  0
VERTEX
  8
LAYER_1
 10
263.0975
 20
399.202
  0
VERTEX
  8
LAYER_1
 10
263.0975
 20
394.8307
  0
VERTEX
  8
LAYER_1
 10
264.8638
 20
394.8307
 42
0.08698062885
  0
VERTEX
  8
LAYER_1
 10
265.9157
 20
394.9927
 42
0.127478928
  0
VERTEX
  8
LAYER_1
 10
266.4309
 20
395.3556
 42
0.1417718506
  0
VERTEX
  8
LAYER_1
 10
266.6495
 20
395.9017
 42
0.03046965801
  0
VERTEX
  8
LAYER_1
 10
266.6614
 20
396.0988
 42
0.2294859749
  0
VERTEX
  8
LAYER_1
 10
266.2775
 20
396.8706
 42
0.1215377782
  0
VERTEX
  8
LAYER_1
 10
265.7042
 20
397.1355
 42
0.01431458495
  0
VERTEX
  8
LAYER_1
 10
265.6196
 20
397.1506
  0
SEQEND
  0
POLYLINE
  8
LAYER_1
 40
0.05
 41
0.05
 66
1
 10
0
 20
0
 30
0
  0
VERTEX
  8
LAYER_1
 10
255.3804
 20
385.2545
 42
-0.05827443014
  0
VERTEX
  8
LAYER_1
 10
254.1479
 20
384.4566
 42
-0.04511033051
  0
VERTEX
  8
LAYER_1
 10
252.4536
 20
383.791
 42
-0.03375494188
  0
VERTEX
  8
LAYER_1
 10
250.0651
 20
383.2464
 42
-0.01171791942
  0
VERTEX
  8
LAYER_1
 10
248.4852
 20
383.0206
 42
-0.008881956716
  0
VERTEX
  8
LAYER_1
 10
245.7221
 20
382.746
  0
VERTEX
  8
LAYER_1
 10
245.0589
 20
382.6871
 42
-0.02249235624
  0
VERTEX
  8
LAYER_1
 10
243.5011
 20
382.6168
 42
-0.03690341499
  0
VERTEX
  8
LAYER_1
 10
240.9484
 20
382.8048
 42
-0.03162874393
  0
VERTEX
  8
LAYER_1
 10
238.8643
 20
383.251
 42
-0.03174840645
  0
VERTEX
  8
LAYER_1
 10
236.8991
 20
383.9417
 42
-0.03205987389
  0
VERTEX
  8
LAYER_1
 10
235.075
 20
384.8589
 42
-0.03263071339
  0
VERTEX
  8
LAYER_1
 10
233.4137
 20
385.9847
 42
-0.03349006318
  0
VERTEX
  8
LAYER_1
 10
231.9374
 20
387.3011
 42
-0.03461650268
  0
VERTEX
  8
LAYER_1
 10
230.6679
 20
388.7905
 42
-0.03592435912
  0
VERTEX
  8
LAYER_1
 10
229.6272
 20
390.4347
 42
-0.0372535027
  0
VERTEX
  8
LAYER_1
 10
228.8372
 20
392.2161
 42
-0.05786282603
  0
VERTEX
  8
LAYER_1
 10
228.1704
 20
395.1059
 42
-0.02752751718
  0
VERTEX
  8
LAYER_1
 10
228.1263
 20
395.9021
 42
-0.05697968256
  0
VERTEX
  8
LAYER_1
 10
228.3139
 20
397.5309
 42
-0.04620439223
  0
VERTEX
  8
LAYER_1
 10
228.7934
 20
398.9776
 42
-0.04246009244
  0
VERTEX
  8
LAYER_1
 10
229.6503
 20
400.5657
 42
-0.03656192005
  0
VERTEX
  8
LAYER_1
 10
231.0249
 20
402.3772
 42
-0.0137605088
  0
VERTEX
  8
LAYER_1
 10
231.9381
 20
403.3714
 42
-0.01455498674
  0
VERTEX
  8
LAYER_1
 10
233.9454
 20
405.3134
  0
VERTEX
  8
LAYER_1
 10
235.0031
 20
406.3294
 42
-0.01776002607
  0
VERTEX
  8
LAYER_1
 10
236.6495
 20
407.8699
 42
-0.03948681369
  0
VERTEX
  8
LAYER_1
 10
238.2811
 20
409.079
 42
-0.0470648882
  0
VERTEX
  8
LAYER_1
 10
239.7518
 20
409.7982
 42
-0.04933993414
  0
VERTEX
  8
LAYER_1
 10
241.3242
 20
410.2137
 42
-0.01788807199
  0
VERTEX
  8
LAYER_1
 10
241.9794
 20
410.2964
 42
-0.02276715341
  0
VERTEX
  8
LAYER_1
 10
243.5366
 20
410.3667
 42
-0.03690759004
  0
VERTEX
  8
LAYER_1
 10
246.0891
 20
410.1787
 42
-0.03163073628
  0
VERTEX
  8
LAYER_1
 10
248.1732
 20
409.7324
 42
-0.03174900391
  0
VERTEX
  8
LAYER_1
 10
250.1383
 20
409.0417
 42
-0.03205930382
  0
VERTEX
  8
LAYER_1
 10
251.9625
 20
408.1245
 42
-0.03262928322
  0
VERTEX
  8
LAYER_1
 10
253.6237
 20
406.9987
 42
-0.03348814572
  0
VERTEX
  8
LAYER_1
 10
255.1001
 20
405.6821
 42
-0.03461452889
  0
VERTEX
  8
LAYER_1
 10
256.3696
 20
404.1927
 42
-0.03592280444
  0
VERTEX
  8
LAYER_1
 10
257.4104
 20
402.5484
 42
-0.03725284676
  0
VERTEX
  8
LAYER_1
 10
258.2004
 20
400.7671
 42
-0.05786411175
  0
VERTEX
  8
LAYER_1
 10
258.8672
 20
397.8772
 42
-0.02775302652
  0
VERTEX
  8
LAYER_1
 10
259.0164
 20
395.1976
 42
-0.03274993766
  0
VERTEX
  8
LAYER_1
 10
258.8392
 20
392.4209
 42
-0.03404497385
  0
VERTEX
  8
LAYER_1
 10
258.3978
 20
390.2396
 42
-0.04007547318
  0
VERTEX
  8
LAYER_1
 10
257.7085
 20
388.3565
 42
-0.04417216634
  0
VERTEX
  8
LAYER_1
 10
256.8318
 20
386.8365
 42
-0.04721463467
  0
VERTEX
  8
LAYER_1
 10
255.7875
 20
385.6196
 42
-0.01700971296
  0
VERTEX
  8
LAYER_1
 10
255.3804
 20
385.2545
  0
SEQEND
  0
POLYLINE
  8
LAYER_1
 40
0.05
 41
0.05
 66
1
 10
0
 20
0
 30
0
  0
VERTEX
  8
LAYER_1
 10
259.2455
 20
397.9111
 42
0.06045643612
  0
VERTEX
  8
LAYER_1
 10
258.5237
 20
400.9642
 42
0.03722199802
  0
VERTEX
  8
LAYER_1
 10
257.7003
 20
402.7738
 42
0.03634309149
  0
VERTEX
  8
LAYER_1
 10
256.6084
 20
404.4632
 42
0.03543677134
  0
VERTEX
  8
LAYER_1
 10
255.2613
 20
406.0088
 42
0.02593575174
  0
VERTEX
  8
LAYER_1
 10
254.0916
 20
407.0594
 42
0.03741535603
  0
VERTEX
  8
LAYER_1
 10
252.1441
 20
408.4051
 42
0.03497465995
  0
VERTEX
  8
LAYER_1
 10
250.0937
 20
409.4216
 42
0.03420811546
  0
VERTEX
  8
LAYER_1
 10
247.9069
 20
410.152
 42
0.03380635492
  0
VERTEX
  8
LAYER_1
 10
245.6182
 20
410.5843
 42
0.02985151976
  0
VERTEX
  8
LAYER_1
 10
243.5366
 20
410.7084
 42
0.02227717322
  0
VERTEX
  8
LAYER_1
 10
241.9411
 20
410.6364
 42
0.04964862375
  0
VERTEX
  8
LAYER_1
 10
240.1381
 20
410.2951
 42
0.04680569772
  0
VERTEX
  8
LAYER_1
 10
238.6567
 20
409.697
 42
0.04565220968
  0
VERTEX
  8
LAYER_1
 10
237.103
 20
408.7023
 42
0.01709579716
  0
VERTEX
  8
LAYER_1
 10
236.2716
 20
408.018
 42
0.01469603663
  0
VERTEX
  8
LAYER_1
 10
234.7271
 20
406.5643
  0
VERTEX
  8
LAYER_1
 10
233.6715
 20
405.5498
 42
0.01406740362
  0
VERTEX
  8
LAYER_1
 10
231.6911
 20
403.6365
 42
0.02972210799
  0
VERTEX
  8
LAYER_1
 10
229.9381
 20
401.6189
 42
0.03716251792
  0
VERTEX
  8
LAYER_1
 10
228.8278
 20
399.9061
 42
0.04424038633
  0
VERTEX
  8
LAYER_1
 10
228.1344
 20
398.2988
 42
0.04915627538
  0
VERTEX
  8
LAYER_1
 10
227.7963
 20
396.7593
 42
0.02875165725
  0
VERTEX
  8
LAYER_1
 10
227.747
 20
395.9052
 42
0.02747074167
  0
VERTEX
  8
LAYER_1
 10
227.7935
 20
395.072
 42
0.06042905997
  0
VERTEX
  8
LAYER_1
 10
228.5151
 20
392.0182
 42
0.03722706254
  0
VERTEX
  8
LAYER_1
 10
229.3383
 20
390.2086
 42
0.03636218909
  0
VERTEX
  8
LAYER_1
 10
230.4299
 20
388.5194
 42
0.03546648319
  0
VERTEX
  8
LAYER_1
 10
231.7766
 20
386.9744
 42
0.02596272846
  0
VERTEX
  8
LAYER_1
 10
232.946
 20
385.9244
 42
0.03741517953
  0
VERTEX
  8
LAYER_1
 10
234.8935
 20
384.5786
 42
0.03497862242
  0
VERTEX
  8
LAYER_1
 10
236.9438
 20
383.5619
 42
0.03421380376
  0
VERTEX
  8
LAYER_1
 10
239.1306
 20
382.8314
 42
0.03381123406
  0
VERTEX
  8
LAYER_1
 10
241.4194
 20
382.3992
 42
0.02985309434
  0
VERTEX
  8
LAYER_1
 10
243.5011
 20
382.275
 42
0.02243337254
  0
VERTEX
  8
LAYER_1
 10
245.0972
 20
382.347
  0
VERTEX
  8
LAYER_1
 10
245.7573
 20
382.4059
 42
0.01209709131
  0
VERTEX
  8
LAYER_1
 10
248.9111
 20
382.7291
 42
0.02667465712
  0
VERTEX
  8
LAYER_1
 10
251.7524
 20
383.2418
 42
0.03717421193
  0
VERTEX
  8
LAYER_1
 10
253.7402
 20
383.8847
 42
0.04664398126
  0
VERTEX
  8
LAYER_1
 10
255.1255
 20
384.6195
 42
0.02643428168
  0
VERTEX
  8
LAYER_1
 10
255.6395
 20
385.0041
 42
0.05228234641
  0
VERTEX
  8
LAYER_1
 10
256.886
 20
386.2922
 42
0.04478755371
  0
VERTEX
  8
LAYER_1
 10
257.8141
 20
387.7223
 42
0.04104964052
  0
VERTEX
  8
LAYER_1
 10
258.5523
 20
389.4392
 42
0.02613567289
  0
VERTEX
  8
LAYER_1
 10
258.952
 20
390.8559
 42
0.03626730167
  0
VERTEX
  8
LAYER_1
 10
259.3309
 20
393.3504
 42
0.02074344722
  0
VERTEX
  8
LAYER_1
 10
259.4029
 20
395.1428
 42
0.02791368813
  0
VERTEX
  8
LAYER_1
 10
259.2455
 20
397.9111
  0
SEQEND
  0
POLYLINE
  8
LAYER_1
 40
0.05
 41
0.05
 66
1
 10
0
 20
0
 30
0
 70
1
  0
VERTEX
  8
LAYER_1
 10
254.576
 20
396.3896
 42
-0.04032753284
  0
VERTEX
  8
LAYER_1
 10
254.3894
 20
394.0192
 42
-0.04012161219
  0
VERTEX
  8
LAYER_1
 10
253.9339
 20
392.1785
 42
-0.04238898037
  0
VERTEX
  8
LAYER_1
 10
253.2811
 20
390.6796
 42
-0.04766533917
  0
VERTEX
  8
LAYER_1
 10
252.4137
 20
389.3941
 42
-0.05216108607
  0
VERTEX
  8
LAYER_1
 10
251.34
 20
388.3427
 42
-0.06132027517
  0
VERTEX
  8
LAYER_1
 10
250.0904
 20
387.5944
 42
-0.04372997586
  0
VERTEX
  8
LAYER_1
 10
248.3291
 20
386.9731
 42
-0.03008929619
  0
VERTEX
  8
LAYER_1
 10
245.7612
 20
386.4505
 42
-0.008990725474
  0
VERTEX
  8
LAYER_1
 10
243.3454
 20
386.1318
  0
VERTEX
  8
LAYER_1
 10
243.1324
 20
386.1061
 42
-0.04222384689
  0
VERTEX
  8
LAYER_1
 10
240.9096
 20
386.0163
 42
-0.04179218311
  0
VERTEX
  8
LAYER_1
 10
238.9868
 20
386.267
 42
-0.001444224648
  0
VERTEX
  8
LAYER_1
 10
238.9246
 20
386.2808
 42
-0.08082836933
  0
VERTEX
  8
LAYER_1
 10
235.3868
 20
387.7048
 42
-0.1843096854
  0
VERTEX
  8
LAYER_1
 10
230.087
 20
394.5527
 42
-0.03418230846
  0
VERTEX
  8
LAYER_1
 10
229.7476
 20
396.0937
 42
-0.03659004632
  0
VERTEX
  8
LAYER_1
 10
229.6769
 20
397.039
 42
-0.06060583724
  0
VERTEX
  8
LAYER_1
 10
229.863
 20
398.5607
 42
-0.04987526961
  0
VERTEX
  8
LAYER_1
 10
230.3464
 20
399.9184
 42
-0.0463619724
  0
VERTEX
  8
LAYER_1
 10
231.2391
 20
401.435
 42
-0.03788267814
  0
VERTEX
  8
LAYER_1
 10
232.6393
 20
403.112
 42
-0.02443806133
  0
VERTEX
  8
LAYER_1
 10
234.5073
 20
404.8754
  0
VERTEX
  8
LAYER_1
 10
235.432
 20
405.7079
 42
-0.02104820943
  0
VERTEX
  8
LAYER_1
 10
236.928
 20
407.0131
 42
-0.0463007719
  0
VERTEX
  8
LAYER_1
 10
238.3581
 20
407.955
 42
-0.05408370526
  0
VERTEX
  8
LAYER_1
 10
239.6891
 20
408.4714
 42
-0.04458532955
  0
VERTEX
  8
LAYER_1
 10
240.9228
 20
408.6836
 42
-0.02156597693
  0
VERTEX
  8
LAYER_1
 10
242.0982
 20
408.7341
 42
-0.05799360853
  0
VERTEX
  8
LAYER_1
 10
245.1855
 20
408.3751
 42
-0.03911379441
  0
VERTEX
  8
LAYER_1
 10
247.144
 20
407.7466
 42
-0.04175291897
  0
VERTEX
  8
LAYER_1
 10
249.0576
 20
406.7687
 42
-0.04248080691
  0
VERTEX
  8
LAYER_1
 10
250.749
 20
405.506
 42
-0.04121647155
  0
VERTEX
  8
LAYER_1
 10
252.096
 20
404.0933
 42
-0.04015516692
  0
VERTEX
  8
LAYER_1
 10
253.1138
 20
402.5994
 42
-0.04205147242
  0
VERTEX
  8
LAYER_1
 10
253.8716
 20
400.9592
 42
-0.05016671586
  0
VERTEX
  8
LAYER_1
 10
254.3838
 20
398.9341
 42
-0.03627503264
  0
VERTEX
  8
LAYER_1
 10
254.576
 20
396.3903
  0
SEQEND
  0
POLYLINE
  8
LAYER_1
 40
0.05
 41
0.05
 66
1
 10
0
 20
0
 30
0
  0
VERTEX
  8
LAYER_1
 10
242.0982
 20
409.1633
 42
0.02054480718
  0
VERTEX
  8
LAYER_1
 10
240.8794
 20
409.1115
 42
0.05546189218
  0
VERTEX
  8
LAYER_1
 10
239.2409
 20
408.7902
 42
0.05251280522
  0
VERTEX
  8
LAYER_1
 10
237.8623
 20
408.1842
 42
0.04491440627
  0
VERTEX
  8
LAYER_1
 10
236.4245
 20
407.1817
 42
0.01589170313
  0
VERTEX
  8
LAYER_1
 10
235.0943
 20
406.0088
  0
VERTEX
  8
LAYER_1
 10
235.0516
 20
405.9704
  0
VERTEX
  8
LAYER_1
 10
234.1752
 20
405.1837
 42
0.0293495002
  0
VERTEX
  8
LAYER_1
 10
231.878
 20
402.9614
 42
0.03631513803
  0
VERTEX
  8
LAYER_1
 10
230.5921
 20
401.3103
 42
0.04483757134
  0
VERTEX
  8
LAYER_1
 10
229.767
 20
399.7758
 42
0.04994149557
  0
VERTEX
  8
LAYER_1
 10
229.3255
 20
398.3399
 42
0.04854188454
  0
VERTEX
  8
LAYER_1
 10
229.1984
 20
397.0412
 42
0.03715510951
  0
VERTEX
  8
LAYER_1
 10
229.2739
 20
396.0361
 42
0.06322709892
  0
VERTEX
  8
LAYER_1
 10
230.0921
 20
393.1338
 42
0.05619979524
  0
VERTEX
  8
LAYER_1
 10
231.441
 20
390.7396
 42
0.07329388279
  0
VERTEX
  8
LAYER_1
 10
233.9888
 20
388.1195
 42
0.07435656706
  0
VERTEX
  8
LAYER_1
 10
237.2245
 20
386.3329
 42
0.03356134389
  0
VERTEX
  8
LAYER_1
 10
238.8095
 20
385.8634
 42
0.04386441913
  0
VERTEX
  8
LAYER_1
 10
240.8889
 20
385.5883
 42
0.01154452605
  0
VERTEX
  8
LAYER_1
 10
241.4922
 20
385.5744
 42
0.03056722751
  0
VERTEX
  8
LAYER_1
 10
243.1958
 20
385.68
  0
VERTEX
  8
LAYER_1
 10
243.4036
 20
385.706
 42
0.01280223546
  0
VERTEX
  8
LAYER_1
 10
246.2314
 20
386.0896
 42
0.02992648603
  0
VERTEX
  8
LAYER_1
 10
248.8513
 20
386.672
 42
0.04180868802
  0
VERTEX
  8
LAYER_1
 10
250.5737
 20
387.3405
 42
0.04904239712
  0
VERTEX
  8
LAYER_1
 10
251.6556
 20
388.0202
 42
0.05429271357
  0
VERTEX
  8
LAYER_1
 10
252.8247
 20
389.1727
 42
0.04834550018
  0
VERTEX
  8
LAYER_1
 10
253.7261
 20
390.5238
 42
0.04348634732
  0
VERTEX
  8
LAYER_1
 10
254.402
 20
392.0928
 42
0.03859414124
  0
VERTEX
  8
LAYER_1
 10
254.8436
 20
393.8579
 42
0.03692242887
  0
VERTEX
  8
LAYER_1
 10
255.0473
 20
395.9664
 42
0.006640100582
  0
VERTEX
  8
LAYER_1
 10
255.0528
 20
396.393
 42
0.03635952888
  0
VERTEX
  8
LAYER_1
 10
254.8626
 20
398.9493
 42
0.0005512043621
  0
VERTEX
  8
LAYER_1
 10
254.8565
 20
398.9906
 42
0.06575546924
  0
VERTEX
  8
LAYER_1
 10
254.077
 20
401.7168
 42
0.04170143468
  0
VERTEX
  8
LAYER_1
 10
253.1905
 20
403.3677
 42
0.0398725754
  0
VERTEX
  8
LAYER_1
 10
252.0445
 20
404.8585
 42
0.0383116389
  0
VERTEX
  8
LAYER_1
 10
250.6679
 20
406.1659
 42
0.03721932665
  0
VERTEX
  8
LAYER_1
 10
249.0898
 20
407.2669
 42
0.03665710312
  0
VERTEX
  8
LAYER_1
 10
247.3392
 20
408.1382
 42
0.05502209764
  0
VERTEX
  8
LAYER_1
 10
244.4533
 20
408.9641
 42
0.04240805629
  0
VERTEX
  8
LAYER_1
 10
242.0982
 20
409.1633
  0
SEQEND
  0
POLYLINE
  8
LAYER_1
 40
0.05
 41
0.05
 66
1
 10
0
 20
0
 30
0
  0
VERTEX
  8
LAYER_1
 10
250.1163
 20
397.8038
 42
-0.04622281258
  0
VERTEX
  8
LAYER_1
 10
249.9379
 20
395.8631
 42
-0.04705775267
  0
VERTEX
  8
LAYER_1
 10
249.4872
 20
394.2945
 42
-0.05162027971
  0
VERTEX
  8
LAYER_1
 10
248.813
 20
393.0029
 42
-0.0545594093
  0
VERTEX
  8
LAYER_1
 10
247.9423
 20
391.963
 42
-0.03373583354
  0
VERTEX
  8
LAYER_1
 10
247.3086
 20
391.4342
 42
-0.06243616234
  0
VERTEX
  8
LAYER_1
 10
245.9572
 20
390.7079
 42
-0.02017897561
  0
VERTEX
  8
LAYER_1
 10
245.0848
 20
390.3946
 42
-0.01606019147
  0
VERTEX
  8
LAYER_1
 10
243.9868
 20
390.0879
 42
-0.01916045493
  0
VERTEX
  8
LAYER_1
 10
241.1942
 20
389.5228
 42
-0.04918783806
  0
VERTEX
  8
LAYER_1
 10
239.3557
 20
389.3775
 42
-0.04720000725
  0
VERTEX
  8
LAYER_1
 10
238.0726
 20
389.532
 42
-0.08100706076
  0
VERTEX
  8
LAYER_1
 10
235.8108
 20
390.4427
 42
-0.04850340653
  0
VERTEX
  8
LAYER_1
 10
234.5173
 20
391.4051
 42
-0.04464584876
  0
VERTEX
  8
LAYER_1
 10
233.3732
 20
392.641
 42
-0.04134609408
  0
VERTEX
  8
LAYER_1
 10
232.4185
 20
394.1081
 42
-0.06489896365
  0
VERTEX
  8
LAYER_1
 10
231.3894
 20
396.7914
 42
-0.007408240633
  0
VERTEX
  8
LAYER_1
 10
231.3237
 20
397.0881
 42
-0.05044871394
  0
VERTEX
  8
LAYER_1
 10
231.2103
 20
398.1862
 42
-0.06591018749
  0
VERTEX
  8
LAYER_1
 10
231.396
 20
399.5785
 42
-0.05740584793
  0
VERTEX
  8
LAYER_1
 10
231.9255
 20
400.9105
 42
-0.04923584891
  0
VERTEX
  8
LAYER_1
 10
232.8358
 20
402.2774
 42
-0.04002711752
  0
VERTEX
  8
LAYER_1
 10
234.164
 20
403.6736
 42
-0.0175241318
  0
VERTEX
  8
LAYER_1
 10
235.0637
 20
404.4341
  0
VERTEX
  8
LAYER_1
 10
235.7906
 20
405.0252
 42
-0.02483419191
  0
VERTEX
  8
LAYER_1
 10
237.0742
 20
406.0286
 42
-0.05459521348
  0
VERTEX
  8
LAYER_1
 10
238.3236
 20
406.7174
 42
-0.07759522182
  0
VERTEX
  8
LAYER_1
 10
239.8686
 20
407.0721
 42
-0.01858809044
  0
VERTEX
  8
LAYER_1
 10
240.6571
 20
407.1018
 42
-0.06661855202
  0
VERTEX
  8
LAYER_1
 10
243.3127
 20
406.7468
 42
-0.06097388439
  0
VERTEX
  8
LAYER_1
 10
245.5198
 20
405.8424
 42
-0.04116897752
  0
VERTEX
  8
LAYER_1
 10
246.8123
 20
404.9694
 42
-0.04221209418
  0
VERTEX
  8
LAYER_1
 10
247.9285
 20
403.9058
 42
-0.04379328941
  0
VERTEX
  8
LAYER_1
 10
248.8403
 20
402.6734
 42
-0.04565266617
  0
VERTEX
  8
LAYER_1
 10
249.5192
 20
401.2942
 42
-0.04133471862
  0
VERTEX
  8
LAYER_1
 10
249.9
 20
399.984
 42
-0.04640370182
  0
VERTEX
  8
LAYER_1
 10
250.1147
 20
397.9949
 42
-0.004219875223
  0
VERTEX
  8
LAYER_1
 10
250.1163
 20
397.8038
  0
SEQEND
  0
POLYLINE
  8
LAYER_1
 40
0.05
 41
0.05
 66
1
 10
0
 20
0
 30
0
  0
VERTEX
  8
LAYER_1
 10
240.6571
 20
407.6189
 42
0.01833415017
  0
VERTEX
  8
LAYER_1
 10
239.8196
 20
407.5872
 42
0.06117899948
  0
VERTEX
  8
LAYER_1
 10
238.4024
 20
407.3041
 42
0.05858943364
  0
VERTEX
  8
LAYER_1
 10
237.1222
 20
406.6982
 42
0.02218633762
  0
VERTEX
  8
LAYER_1
 10
236.4418
 20
406.2353
 42
0.01417419921
  0
VERTEX
  8
LAYER_1
 10
235.4079
 20
405.4099
  0
VERTEX
  8
LAYER_1
 10
234.6861
 20
404.8218
 42
0.03702044101
  0
VERTEX
  8
LAYER_1
 10
232.9347
 20
403.2281
 42
0.04226391319
  0
VERTEX
  8
LAYER_1
 10
231.7894
 20
401.7803
 42
0.05045770392
  0
VERTEX
  8
LAYER_1
 10
231.0576
 20
400.37
 42
0.05365197093
  0
VERTEX
  8
LAYER_1
 10
230.7039
 20
399.0662
 42
0.0901678658
  0
VERTEX
  8
LAYER_1
 10
230.7587
 20
396.9942
 42
0.04472560916
  0
VERTEX
  8
LAYER_1
 10
231.3307
 20
395.1046
 42
0.06002117723
  0
VERTEX
  8
LAYER_1
 10
232.6654
 20
392.6679
 42
0.04241753835
  0
VERTEX
  8
LAYER_1
 10
233.8213
 20
391.3167
 42
0.04580552842
  0
VERTEX
  8
LAYER_1
 10
235.1417
 20
390.2376
 42
0.04594228399
  0
VERTEX
  8
LAYER_1
 10
236.5023
 20
389.4948
 42
0.04653096864
  0
VERTEX
  8
LAYER_1
 10
237.9338
 20
389.0307
 42
0.05622371618
  0
VERTEX
  8
LAYER_1
 10
239.5761
 20
388.8571
 42
0.04392039405
  0
VERTEX
  8
LAYER_1
 10
241.3041
 20
389.0155
 42
0.01391541018
  0
VERTEX
  8
LAYER_1
 10
243.7006
 20
389.4853
 42
0.03320118206
  0
VERTEX
  8
LAYER_1
 10
246.006
 20
390.1632
 42
0.04940175457
  0
VERTEX
  8
LAYER_1
 10
247.4503
 20
390.882
 42
0.01170171089
  0
VERTEX
  8
LAYER_1
 10
247.6686
 20
391.0323
 42
0.1099895332
  0
VERTEX
  8
LAYER_1
 10
249.5993
 20
393.2201
 42
0.05053100551
  0
VERTEX
  8
LAYER_1
 10
250.2232
 20
394.6709
 42
0.04522023577
  0
VERTEX
  8
LAYER_1
 10
250.595
 20
396.3525
 42
0.032873338
  0
VERTEX
  8
LAYER_1
 10
250.6903
 20
397.8131
 42
0.04445364487
  0
VERTEX
  8
LAYER_1
 10
250.5096
 20
399.8527
 42
0.005163693233
  0
VERTEX
  8
LAYER_1
 10
250.4667
 20
400.0765
 42
0.07329658684
  0
VERTEX
  8
LAYER_1
 10
249.595
 20
402.4855
 42
0.04469139288
  0
VERTEX
  8
LAYER_1
 10
248.7013
 20
403.8425
 42
0.04296855473
  0
VERTEX
  8
LAYER_1
 10
247.5812
 20
405.0279
 42
0.04166344908
  0
VERTEX
  8
LAYER_1
 10
246.2647
 20
406.0186
 42
0.04094334999
  0
VERTEX
  8
LAYER_1
 10
244.7819
 20
406.7913
 42
0.06135981035
  0
VERTEX
  8
LAYER_1
 10
242.3116
 20
407.4914
 42
0.0386535247
  0
VERTEX
  8
LAYER_1
 10
240.6571
 20
407.6189
  0
SEQEND
  0
POLYLINE
  8
LAYER_1
 40
0.05
 41
0.05
 66
1
 10
0
 20
0
 30
0
  0
VERTEX
  8
LAYER_1
 10
243.2861
 20
394.533
 42
-0.02721129428
  0
VERTEX
  8
LAYER_1
 10
242.5304
 20
394.1206
 42
-0.0187044968
  0
VERTEX
  8
LAYER_1
 10
241.5764
 20
393.7075
 42
-0.02602760493
  0
VERTEX
  8
LAYER_1
 10
239.236
 20
392.9342
 42
-0.06622302198
  0
VERTEX
  8
LAYER_1
 10
237.8287
 20
392.7183
 42
-0.05300503049
  0
VERTEX
  8
LAYER_1
 10
237.2207
 20
392.7846
 42
-0.07724842316
  0
VERTEX
  8
LAYER_1
 10
236.1616
 20
393.2025
 42
-0.06692610415
  0
VERTEX
  8
LAYER_1
 10
235.1727
 20
393.9736
 42
-0.05267645642
  0
VERTEX
  8
LAYER_1
 10
234.2668
 20
395.1003
 42
-0.04370986176
  0
VERTEX
  8
LAYER_1
 10
233.4102
 20
396.6986
 42
-0.02876769454
  0
VERTEX
  8
LAYER_1
 10
232.8929
 20
398.0966
 42
-0.1083173289
  0
VERTEX
  8
LAYER_1
 10
232.7528
 20
399.8994
 42
-0.06388589218
  0
VERTEX
  8
LAYER_1
 10
233.0641
 20
401.052
 42
-0.05847781496
  0
VERTEX
  8
LAYER_1
 10
233.6719
 20
402.1491
 42
0.07960798064
  0
VERTEX
  8
LAYER_1
 10
233.3367
 20
401.034
 42
0.03262391564
  0
VERTEX
  8
LAYER_1
 10
233.3067
 20
400.5747
 42
0.1264142843
  0
VERTEX
  8
LAYER_1
 10
233.7535
 20
398.8418
 42
-0.02359670294
  0
VERTEX
  8
LAYER_1
 10
234.1514
 20
397.968
  0
VERTEX
  8
LAYER_1
 10
234.1638
 20
397.938
 42
0.0293434746
  0
VERTEX
  8
LAYER_1
 10
234.7363
 20
396.6998
 42
0.07178018796
  0
VERTEX
  8
LAYER_1
 10
235.3889
 20
395.8056
 42
0.1004357486
  0
VERTEX
  8
LAYER_1
 10
235.9959
 20
395.4194
 42
0.03258188139
  0
VERTEX
  8
LAYER_1
 10
236.1827
 20
395.3655
 42
0.0550575773
  0
VERTEX
  8
LAYER_1
 10
236.4434
 20
395.3373
 42
0.06106398123
  0
VERTEX
  8
LAYER_1
 10
236.8376
 20
395.3899
 42
0.04345568332
  0
VERTEX
  8
LAYER_1
 10
237.2601
 20
395.5408
 42
0.03069567626
  0
VERTEX
  8
LAYER_1
 10
237.7771
 20
395.8171
 42
0.01785508378
  0
VERTEX
  8
LAYER_1
 10
238.6263
 20
396.3861
 42
-0.05262222163
  0
VERTEX
  8
LAYER_1
 10
239.6381
 20
397.0264
 42
0.07214311704
  0
VERTEX
  8
LAYER_1
 10
240.7111
 20
397.6959
 42
0.06926298363
  0
VERTEX
  8
LAYER_1
 10
241.472
 20
398.5479
 42
0.07299808732
  0
VERTEX
  8
LAYER_1
 10
241.9496
 20
399.5546
 42
0.07330317032
  0
VERTEX
  8
LAYER_1
 10
242.1034
 20
400.5862
 42
0.1264622392
  0
VERTEX
  8
LAYER_1
 10
241.6562
 20
402.3188
 42
0.1120418197
  0
VERTEX
  8
LAYER_1
 10
240.4654
 20
403.6657
 42
0.06633480058
  0
VERTEX
  8
LAYER_1
 10
239.431
 20
404.2238
 42
0.06394471632
  0
VERTEX
  8
LAYER_1
 10
238.2499
 20
404.5077
 42
0.02748955872
  0
VERTEX
  8
LAYER_1
 10
237.7013
 20
404.5378
 42
0.06932538093
  0
VERTEX
  8
LAYER_1
 10
236.3833
 20
404.3556
 42
0.02537391146
  0
VERTEX
  8
LAYER_1
 10
235.9291
 20
404.2008
  0
VERTEX
  8
LAYER_1
 10
236.0032
 20
404.2516
 42
-0.03092924578
  0
VERTEX
  8
LAYER_1
 10
237.1072
 20
404.9528
 42
-0.06755899531
  0
VERTEX
  8
LAYER_1
 10
238.2034
 20
405.3748
 42
-0.04026593703
  0
VERTEX
  8
LAYER_1
 10
238.8071
 20
405.4588
  0
VERTEX
  8
LAYER_1
 10
239.2081
 20
405.4705
 42
-0.1642307932
  0
VERTEX
  8
LAYER_1
 10
243.3019
 20
404.0769
 42
-0.05430911819
  0
VERTEX
  8
LAYER_1
 10
244.2942
 20
403.1176
 42
-0.05688516926
  0
VERTEX
  8
LAYER_1
 10
245.0489
 20
401.9636
 42
-0.04327013929
  0
VERTEX
  8
LAYER_1
 10
245.4234
 20
401.0201
 42
-0.05896025715
  0
VERTEX
  8
LAYER_1
 10
245.6964
 20
399.4718
 42
-0.01337882599
  0
VERTEX
  8
LAYER_1
 10
245.7056
 20
399.1327
 42
-0.06299903198
  0
VERTEX
  8
LAYER_1
 10
245.5196
 20
397.6514
 42
-0.06135260942
  0
VERTEX
  8
LAYER_1
 10
245.0244
 20
396.3938
 42
-0.06213030658
  0
VERTEX
  8
LAYER_1
 10
244.2752
 20
395.3523
 42
-0.06488081123
  0
VERTEX
  8
LAYER_1
 10
243.2861
 20
394.533
  0
SEQEND
  0
POLYLINE
  8
LAYER_1
 40
0.05
 41
0.05
 66
1
 10
0
 20
0
 30
0
  0
VERTEX
  8
LAYER_1
 10
236.1093
 20
403.5132
 42
-0.1050367943
  0
VERTEX
  8
LAYER_1
 10
237.7013
 20
403.8458
 42
-0.07470966604
  0
VERTEX
  8
LAYER_1
 10
238.896
 20
403.6675
 42
-0.07307072888
  0
VERTEX
  8
LAYER_1
 10
239.8858
 20
403.1952
 42
-0.07565143839
  0
VERTEX
  8
LAYER_1
 10
240.6525
 20
402.4885
 42
-0.04347149853
  0
VERTEX
  8
LAYER_1
 10
240.9665
 20
402.0147
 42
-0.08734717228
  0
VERTEX
  8
LAYER_1
 10
241.3025
 20
401.0255
 42
-0.03736648513
  0
VERTEX
  8
LAYER_1
 10
241.3351
 20
400.5873
 42
-0.1282780795
  0
VERTEX
  8
LAYER_1
 10
240.9497
 20
399.1272
 42
-0.07969108633
  0
VERTEX
  8
LAYER_1
 10
240.2973
 20
398.3001
 42
-0.08362691552
  0
VERTEX
  8
LAYER_1
 10
239.2984
 20
397.6476
 42
0.03660909828
  0
VERTEX
  8
LAYER_1
 10
238.7747
 20
397.3569
 42
0.009559353919
  0
VERTEX
  8
LAYER_1
 10
238.1626
 20
396.9393
 42
-0.03364555526
  0
VERTEX
  8
LAYER_1
 10
237.1193
 20
396.2607
 42
-0.04979061979
  0
VERTEX
  8
LAYER_1
 10
236.6868
 20
396.071
 42
-0.07453091897
  0
VERTEX
  8
LAYER_1
 10
236.4434
 20
396.0294
  0
VERTEX
  8
LAYER_1
 10
236.3666
 20
396.0372
 42
-0.09253982565
  0
VERTEX
  8
LAYER_1
 10
236.108
 20
396.1521
 42
-0.05940361751
  0
VERTEX
  8
LAYER_1
 10
235.8663
 20
396.3655
 42
-0.04085398019
  0
VERTEX
  8
LAYER_1
 10
235.6055
 20
396.7091
 42
-0.02901746304
  0
VERTEX
  8
LAYER_1
 10
235.2925
 20
397.268
 42
-0.01544565071
  0
VERTEX
  8
LAYER_1
 10
234.8876
 20
398.1723
 42
0.03060944273
  0
VERTEX
  8
LAYER_1
 10
234.4432
 20
399.1458
 42
-0.08670487522
  0
VERTEX
  8
LAYER_1
 10
234.1074
 20
400.1358
 42
-0.03746431519
  0
VERTEX
  8
LAYER_1
 10
234.0746
 20
400.5747
 42
-0.1282226504
  0
VERTEX
  8
LAYER_1
 10
234.4597
 20
402.0342
 42
-0.0796639637
  0
VERTEX
  8
LAYER_1
 10
235.1115
 20
402.8609
 42
-0.08364240524
  0
VERTEX
  8
LAYER_1
 10
236.1093
 20
403.5132
  0
SEQEND
  0
POLYLINE
  8
LAYER_1
 40
0.05
 41
0.05
 66
1
 10
0
 20
0
 30
0
  0
VERTEX
  8
LAYER_1
 10
239.2081
 20
406.0748
  0
VERTEX
  8
LAYER_1
 10
238.7623
 20
406.062
 42
0.07190941391
  0
VERTEX
  8
LAYER_1
 10
237.5013
 20
405.8053
 42
0.05818515184
  0
VERTEX
  8
LAYER_1
 10
236.3078
 20
405.2048
 42
0.009037104496
  0
VERTEX
  8
LAYER_1
 10
235.6063
 20
404.7395
  0
VERTEX
  8
LAYER_1
 10
235.2073
 20
404.469
 42
0.05129523901
  0
VERTEX
  8
LAYER_1
 10
233.826
 20
403.3328
 42
0.05281546914
  0
VERTEX
  8
LAYER_1
 10
232.8932
 20
402.1581
 42
0.05583518202
  0
VERTEX
  8
LAYER_1
 10
232.3208
 20
400.9736
 42
0.06201351184
  0
VERTEX
  8
LAYER_1
 10
232.0555
 20
399.735
 42
0.02100659237
  0
VERTEX
  8
LAYER_1
 10
232.0385
 20
399.3303
 42
0.07383933055
  0
VERTEX
  8
LAYER_1
 10
232.2463
 20
397.9376
 42
0.04061820717
  0
VERTEX
  8
LAYER_1
 10
233.0345
 20
395.9513
 42
0.04356287975
  0
VERTEX
  8
LAYER_1
 10
233.986
 20
394.3813
 42
0.04996763323
  0
VERTEX
  8
LAYER_1
 10
234.9603
 20
393.3081
 42
0.0594143845
  0
VERTEX
  8
LAYER_1
 10
235.987
 20
392.5921
 42
0.06550461047
  0
VERTEX
  8
LAYER_1
 10
237.057
 20
392.1979
 42
0.05475395666
  0
VERTEX
  8
LAYER_1
 10
237.8525
 20
392.1142
 42
0.0653000991
  0
VERTEX
  8
LAYER_1
 10
239.2585
 20
392.31
 42
0.005854945987
  0
VERTEX
  8
LAYER_1
 10
239.4341
 20
392.3571
 42
0.02993081373
  0
VERTEX
  8
LAYER_1
 10
242.2474
 20
393.3187
 42
0.03710391947
  0
VERTEX
  8
LAYER_1
 10
243.6713
 20
394.0376
 42
0.1212869794
  0
VERTEX
  8
LAYER_1
 10
245.5469
 20
395.9859
 42
0.0547198612
  0
VERTEX
  8
LAYER_1
 10
246.0765
 20
397.1797
 42
0.05334914771
  0
VERTEX
  8
LAYER_1
 10
246.3461
 20
398.4936
 42
0.02426656451
  0
VERTEX
  8
LAYER_1
 10
246.377
 20
399.1336
 42
0.05760198177
  0
VERTEX
  8
LAYER_1
 10
246.1904
 20
400.7332
 42
0.015498624
  0
VERTEX
  8
LAYER_1
 10
246.0718
 20
401.1779
 42
0.08322493499
  0
VERTEX
  8
LAYER_1
 10
245.1216
 20
403.1035
 42
0.05055421011
  0
VERTEX
  8
LAYER_1
 10
244.207
 20
404.1377
 42
0.04879061922
  0
VERTEX
  8
LAYER_1
 10
243.0992
 20
404.9779
 42
0.07219337174
  0
VERTEX
  8
LAYER_1
 10
241.1557
 20
405.8167
 42
0.06605428465
  0
VERTEX
  8
LAYER_1
 10
239.2081
 20
406.0748
  0
SEQEND
  0
ENDBLK
  0
BLOCK
  8
LAYER_1
  2
AIGNBL01020007
 70
64
 10
0
 20
0
 30
0
  3
AIGNBL01020007
  0
POLYLINE
  8
LAYER_1
 40
0.1799
 41
0.1799
 66
1
 10
0
 20
0
 30
0
 70
1
  0
VERTEX
  8
LAYER_1
 10
119.1224
 20
245.9271
 42
-0.3920193993
  0
VERTEX
  8
LAYER_1
 10
118.4822
 20
245.2836
  0
VERTEX
  8
LAYER_1
 10
75.27
 20
245.2836
 42
-0.3929512585
  0
VERTEX
  8
LAYER_1
 10
74.6287
 20
245.9271
  0
VERTEX
  8
LAYER_1
 10
74.6287
 20
277.4322
 42
-0.3918216329
  0
VERTEX
  8
LAYER_1
 10
75.27
 20
278.0767
  0
VERTEX
  8
LAYER_1
 10
118.4822
 20
278.0767
 42
-0.3943261016
  0
VERTEX
  8
LAYER_1
 10
119.1224
 20
277.4322
  0
SEQEND
  0
POLYLINE
  8
LAYER_1
 40
0.1799
 41
0.1799
 66
1
 10
0
 20
0
 30
0
  0
VERTEX
  8
LAYER_1
 10
134.9718
 20
320.7882
 42
0.01311165107
  0
VERTEX
  8
LAYER_1
 10
128.163
 20
322.4962
 42
0.01055118824
  0
VERTEX
  8
LAYER_1
 10
121.1012
 20
323.9321
 42
0.01083803448
  0
VERTEX
  8
LAYER_1
 10
113.8305
 20
325.0921
 42
0.01110838037
  0
VERTEX
  8
LAYER_1
 10
107.1367
 20
325.8591
 42
0.01202212768
  0
VERTEX
  8
LAYER_1
 10
100.9817
 20
326.2742
 42
0.009520568711
  0
VERTEX
  8
LAYER_1
 10
96.8809
 20
326.3703
 42
0.01480582722
  0
VERTEX
  8
LAYER_1
 10
90.3791
 20
326.1485
 42
0.01211560554
  0
VERTEX
  8
LAYER_1
 10
83.9154
 20
325.586
 42
0.01110029804
  0
VERTEX
  8
LAYER_1
 10
77.0116
 20
324.6664
 42
0.0103540026
  0
VERTEX
  8
LAYER_1
 10
69.9921
 20
323.4271
 42
0.01095237665
  0
VERTEX
  8
LAYER_1
 10
62.8537
 20
321.8531
 42
0.008241555145
  0
VERTEX
  8
LAYER_1
 10
58.7823
 20
320.7882
 42
0.08212352662
  0
VERTEX
  8
LAYER_1
 10
56.774
 20
319.6751
 42
0.05118526379
  0
VERTEX
  8
LAYER_1
 10
55.6453
 20
318.5783
 42
0.04741786831
  0
VERTEX
  8
LAYER_1
 10
54.7108
 20
317.2252
 42
0.04234682732
  0
VERTEX
  8
LAYER_1
 10
54.0363
 20
315.7428
 42
0.06569755843
  0
VERTEX
  8
LAYER_1
 10
53.4908
 20
313.2155
 42
0.01938301636
  0
VERTEX
  8
LAYER_1
 10
53.4646
 20
312.5456
 42
0.02971907326
  0
VERTEX
  8
LAYER_1
 10
53.6336
 20
310.8773
 42
0.07377127163
  0
VERTEX
  8
LAYER_1
 10
54.5272
 20
308.3717
 42
0.01618061565
  0
VERTEX
  8
LAYER_1
 10
54.8287
 20
307.8465
 42
0.008287620827
  0
VERTEX
  8
LAYER_1
 10
56.2343
 20
305.6995
 42
0.003293128013
  0
VERTEX
  8
LAYER_1
 10
59.2312
 20
301.324
 42
0.003258682847
  0
VERTEX
  8
LAYER_1
 10
74.0366
 20
280.2932
 42
0.0001882354681
  0
VERTEX
  8
LAYER_1
 10
75.5883
 20
278.1114
  0
VERTEX
  8
LAYER_1
 10
118.1644
 20
278.1114
 42
0.00275152315
  0
VERTEX
  8
LAYER_1
 10
135.0955
 20
302.1507
 42
0.008467945662
  0
VERTEX
  8
LAYER_1
 10
138.9285
 20
307.8465
 42
0.07232782903
  0
VERTEX
  8
LAYER_1
 10
139.9925
 20
310.3181
 42
0.01546046717
  0
VERTEX
  8
LAYER_1
 10
140.1237
 20
310.8773
 42
0.02937743395
  0
VERTEX
  8
LAYER_1
 10
140.2884
 20
312.5456
 42
0.05025778675
  0
VERTEX
  8
LAYER_1
 10
140.1034
 20
314.3606
 42
0.0861052446
  0
VERTEX
  8
LAYER_1
 10
138.8787
 20
317.5086
 42
0.04771580759
  0
VERTEX
  8
LAYER_1
 10
137.8921
 20
318.8268
 42
0.05163525174
  0
VERTEX
  8
LAYER_1
 10
136.7135
 20
319.8764
 42
0.04804397258
  0
VERTEX
  8
LAYER_1
 10
135.5384
 20
320.5585
 42
0.02188662383
  0
VERTEX
  8
LAYER_1
 10
134.9718
 20
320.7882
  0
SEQEND
  0
POLYLINE
  8
LAYER_1
 40
0.1799
 41
0.1799
 66
1
 10
0
 20
0
 30
0
 70
1
  0
VERTEX
  8
LAYER_1
 10
74.5145
 20
278.3162
  0
VERTEX
  8
LAYER_1
 10
119.0706
 20
278.3162
  0
VERTEX
  8
LAYER_1
 10
119.0706
 20
245.2836
  0
VERTEX
  8
LAYER_1
 10
74.5145
 20
245.2836
  0
SEQEND
  0
ENDBLK
  0
BLOCK
  8
LAYER_1
  2
AIGNBL01020009
 70
64
 10
0
 20
0
 30
0
  3
AIGNBL01020009
  0
POLYLINE
  8
LAYER_1
 40
0.1799
 41
0.1799
 66
1
 10
0
 20
0
 30
0
 70
1
  0
VERTEX
  8
LAYER_1
 10
255.6454
 20
323.3339
 42
-0.3920788248
  0
VERTEX
  8
LAYER_1
 10
255.3322
 20
323.0192
  0
VERTEX
  8
LAYER_1
 10
234.1852
 20
323.0192
 42
-0.3925665806
  0
VERTEX
  8
LAYER_1
 10
233.8713
 20
323.3339
  0
VERTEX
  8
LAYER_1
 10
233.8713
 20
338.7521
 42
-0.3916946254
  0
VERTEX
  8
LAYER_1
 10
234.1852
 20
339.0673
  0
VERTEX
  8
LAYER_1
 10
255.3322
 20
339.0673
 42
-0.3936158741
  0
VERTEX
  8
LAYER_1
 10
255.6454
 20
338.7521
  0
SEQEND
  0
POLYLINE
  8
LAYER_1
 40
0.1799
 41
0.1799
 66
1
 10
0
 20
0
 30
0
  0
VERTEX
  8
LAYER_1
 10
263.4017
 20
359.9694
 42
0.01759262308
  0
VERTEX
  8
LAYER_1
 10
258.613
 20
361.1199
 42
0.01525357415
  0
VERTEX
  8
LAYER_1
 10
253.5352
 20
362.0084
 42
0.01628012776
  0
VERTEX
  8
LAYER_1
 10
248.7788
 20
362.5346
 42
0.01753833362
  0
VERTEX
  8
LAYER_1
 10
244.7606
 20
362.701
 42
0.02019746043
  0
VERTEX
  8
LAYER_1
 10
240.2403
 20
362.4946
 42
0.0164059861
  0
VERTEX
  8
LAYER_1
 10
235.5086
 20
361.9389
 42
0.01512261432
  0
VERTEX
  8
LAYER_1
 10
230.4973
 20
361.0345
 42
0.01538400011
  0
VERTEX
  8
LAYER_1
 10
226.1164
 20
359.9694
 42
0.1188459971
  0
VERTEX
  8
LAYER_1
 10
224.7432
 20
359.0687
 42
0.06756239939
  0
VERTEX
  8
LAYER_1
 10
224.0851
 20
358.1554
 42
0.06394345599
  0
VERTEX
  8
LAYER_1
 10
223.6471
 20
357.0124
 42
0.05879480867
  0
VERTEX
  8
LAYER_1
 10
223.5137
 20
355.9359
 42
0.02950941827
  0
VERTEX
  8
LAYER_1
 10
223.5967
 20
355.1192
 42
0.09022060018
  0
VERTEX
  8
LAYER_1
 10
224.1813
 20
353.6365
 42
0.00905342545
  0
VERTEX
  8
LAYER_1
 10
225.2965
 20
351.9552
 42
0.003115787409
  0
VERTEX
  8
LAYER_1
 10
228.3159
 20
347.6051
 42
0.001652451448
  0
VERTEX
  8
LAYER_1
 10
234.3402
 20
339.084
  0
VERTEX
  8
LAYER_1
 10
255.1768
 20
339.084
 42
0.004835116276
  0
VERTEX
  8
LAYER_1
 10
264.9494
 20
353.0339
 42
0.003131878405
  0
VERTEX
  8
LAYER_1
 10
265.3385
 20
353.6365
 42
0.08773072386
  0
VERTEX
  8
LAYER_1
 10
265.9231
 20
355.1192
 42
0.02931391844
  0
VERTEX
  8
LAYER_1
 10
266.0041
 20
355.9359
 42
0.07026454364
  0
VERTEX
  8
LAYER_1
 10
265.8215
 20
357.2007
 42
0.06434061449
  0
VERTEX
  8
LAYER_1
 10
265.3346
 20
358.33
 42
0.06786781378
  0
VERTEX
  8
LAYER_1
 10
264.6317
 20
359.2117
 42
0.0720670535
  0
VERTEX
  8
LAYER_1
 10
263.793
 20
359.8022
 42
0.03115643485
  0
VERTEX
  8
LAYER_1
 10
263.4017
 20
359.9694
  0
SEQEND
  0
POLYLINE
  8
LAYER_1
 40
0.1799
 41
0.1799
 66
1
 10
0
 20
0
 30
0
 70
1
  0
VERTEX
  8
LAYER_1
 10
233.8155
 20
339.1845
  0
VERTEX
  8
LAYER_1
 10
255.6199
 20
339.1845
  0
VERTEX
  8
LAYER_1
 10
255.6199
 20
323.0192
  0
VERTEX
  8
LAYER_1
 10
233.8155
 20
323.0192
  0
SEQEND
  0
ENDBLK
  0
BLOCK
  8
LAYER_1
  2
AIGNBL01020010
 70
64
 10
0
 20
0
 30
0
  3
AIGNBL01020010
  0
INSERT
  8
LAYER_1
  2
AIGNBL01030011
 10
0
 20
0
 30
0
  0
ENDBLK
  0
BLOCK
  8
LAYER_1
  2
AIGNBL01020019
 70
64
 10
0
 20
0
 30
0
  3
AIGNBL01020019
  0
INSERT
  8
LAYER_1
  2
AIGNBL0103001A
 10
0
 20
0
 30
0
  0
INSERT
  8
LAYER_1
  2
AIGNBL0103001B
 10
0
 20
0
 30
0
  0
INSERT
  8
LAYER_1
  2
AIGNBL0103001C
 10
0
 20
0
 30
0
  0
INSERT
  8
LAYER_1
  2
AIGNBL0103001D
 10
0
 20
0
 30
0
  0
INSERT
  8
LAYER_1
  2
AIGNBL0103001E
 10
0
 20
0
 30
0
  0
INSERT
  8
LAYER_1
  2
AIGNBL0103001F
 10
0
 20
0
 30
0
  0
INSERT
  8
LAYER_1
  2
AIGNBL01030020
 10
0
 20
0
 30
0
  0
INSERT
  8
LAYER_1
  2
AIGNBL01030021
 10
0
 20
0
 30
0
  0
INSERT
  8
LAYER_1
  2
AIGNBL01030022
 10
0
 20
0
 30
0
  0
INSERT
  8
LAYER_1
  2
AIGNBL01030023
 10
0
 20
0
 30
0
  0
INSERT
  8
LAYER_1
  2
AIGNBL01030024
 10
0
 20
0
 30
0
  0
INSERT
  8
LAYER_1
  2
AIGNBL01030025
 10
0
 20
0
 30
0
  0
INSERT
  8
LAYER_1
  2
AIGNBL01030026
 10
0
 20
0
 30
0
  0
INSERT
  8
LAYER_1
  2
AIGNBL01030027
 10
0
 20
0
 30
0
  0
INSERT
  8
LAYER_1
  2
AIGNBL01030028
 10
0
 20
0
 30
0
  0
INSERT
  8
LAYER_1
  2
AIGNBL01030029
 10
0
 20
0
 30
0
  0
INSERT
  8
LAYER_1
  2
AIGNBL0103002A
 10
0
 20
0
 30
0
  0
INSERT
  8
LAYER_1
  2
AIGNBL0103002B
 10
0
 20
0
 30
0
  0
INSERT
  8
LAYER_1
  2
AIGNBL0103002C
 10
0
 20
0
 30
0
  0
INSERT
  8
LAYER_1
  2
AIGNBL0103002D
 10
0
 20
0
 30
0
  0
INSERT
  8
LAYER_1
  2
AIGNBL0103002E
 10
0
 20
0
 30
0
  0
INSERT
  8
LAYER_1
  2
AIGNBL0103002F
 10
0
 20
0
 30
0
  0
INSERT
  8
LAYER_1
  2
AIGNBL01030030
 10
0
 20
0
 30
0
  0
ENDBLK
  0
BLOCK
  8
LAYER_1
  2
AIGNBL01010002
 70
64
 10
0
 20
0
 30
0
  3
AIGNBL01010002
  0
INSERT
  8
LAYER_1
  2
AIGNBL01020003
 10
0
 20
0
 30
0
  0
POLYLINE
  8
LAYER_1
 40
0.05
 41
0.05
 66
1
 10
0
 20
0
 30
0
 70
1
  0
VERTEX
  8
LAYER_1
 10
227.747
 20
371.3737
  0
VERTEX
  8
LAYER_1
 10
302.9996
 20
371.3737
  0
VERTEX
  8
LAYER_1
 10
302.9996
 20
410.699
  0
VERTEX
  8
LAYER_1
 10
227.747
 20
410.699
  0
SEQEND
  0
ENDBLK
  0
BLOCK
  8
LAYER_1
  2
AIGNBL01010004
 70
64
 10
0
 20
0
 30
0
  3
AIGNBL01010004
  0
POLYLINE
  8
LAYER_1
 40
0.1799
 41
0.1799
 66
1
 10
0
 20
0
 30
0
  0
VERTEX
  8
LAYER_1
 10
65.971
 20
168.9661
  0
VERTEX
  8
LAYER_1
 10
65.9286
 20
169.6014
  0
VERTEX
  8
LAYER_1
 10
65.7805
 20
170.2153
 42
0.06983347895
  0
VERTEX
  8
LAYER_1
 10
65.1708
 20
171.3578
 42
0.06233737309
  0
VERTEX
  8
LAYER_1
 10
64.4738
 20
172.0923
 42
0.2053494329
  0
VERTEX
  8
LAYER_1
 10
61.4609
 20
172.9394
 42
0.3044678292
  0
VERTEX
  8
LAYER_1
 10
58.0582
 20
169.8345
 42
0.00983555049
  0
VERTEX
  8
LAYER_1
 10
58.012
 20
169.6434
  0
VERTEX
  8
LAYER_1
 10
57.9696
 20
169.0088
  0
VERTEX
  8
LAYER_1
 10
58.012
 20
168.3949
 42
0.07089814593
  0
VERTEX
  8
LAYER_1
 10
58.4019
 20
167.1683
 42
0.06840072295
  0
VERTEX
  8
LAYER_1
 10
59.0026
 20
166.2748
 42
0.1309764536
  0
VERTEX
  8
LAYER_1
 10
60.6802
 20
165.1814
 42
0.2270492274
  0
VERTEX
  8
LAYER_1
 10
64.2467
 20
165.6594
 42
0.1401158864
  0
VERTEX
  8
LAYER_1
 10
65.5832
 20
167.2845
 42
0.05552616633
  0
VERTEX
  8
LAYER_1
 10
65.8862
 20
168.2468
  0
VERTEX
  8
LAYER_1
 10
65.971
 20
168.8607
  0
VERTEX
  8
LAYER_1
 10
65.971
 20
168.9661
  0
SEQEND
  0
POLYLINE
  8
LAYER_1
 40
0.1799
 41
0.1799
 66
1
 10
0
 20
0
 30
0
  0
VERTEX
  8
LAYER_1
 10
76.2367
 20
177.8138
  0
VERTEX
  8
LAYER_1
 10
78.5862
 20
180.5867
  0
VERTEX
  8
LAYER_1
 10
75.1784
 20
179.3593
  0
SEQEND
  0
POLYLINE
  8
LAYER_1
 40
0.1799
 41
0.1799
 66
1
 10
0
 20
0
 30
0
  0
VERTEX
  8
LAYER_1
 10
65.2513
 20
171.2736
  0
VERTEX
  8
LAYER_1
 10
78.5862
 20
180.5867
  0
SEQEND
  0
POLYLINE
  8
LAYER_1
 40
0.05
 41
0.05
 66
1
 10
0
 20
0
 30
0
 70
1
  0
VERTEX
  8
LAYER_1
 10
0
 20
425.9997
  0
VERTEX
  8
LAYER_1
 10
302.9996
 20
425.9997
  0
VERTEX
  8
LAYER_1
 10
302.9996
 20
0
  0
VERTEX
  8
LAYER_1
 10
0
 20
0
  0
SEQEND
  0
ENDBLK
  0
BLOCK
  8
LAYER_1
  2
AIGNBL01010005
 70
64
 10
0
 20
0
 30
0
  3
AIGNBL01010005
  0
POLYLINE
  8
LAYER_1
 40
0.1799
 41
0.1799
 66
1
 10
0
 20
0
 30
0
  0
VERTEX
  8
LAYER_1
 10
81.7037
 20
166.9479
  0
VERTEX
  8
LAYER_1
 10
81.6613
 20
167.5832
  0
VERTEX
  8
LAYER_1
 10
81.5132
 20
168.1971
 42
0.06983233614
  0
VERTEX
  8
LAYER_1
 10
80.9035
 20
169.3396
 42
0.06233692726
  0
VERTEX
  8
LAYER_1
 10
80.2065
 20
170.0742
 42
0.2053505448
  0
VERTEX
  8
LAYER_1
 10
77.1936
 20
170.9213
 42
0.3044702785
  0
VERTEX
  8
LAYER_1
 10
73.7909
 20
167.8164
 42
0.009835551603
  0
VERTEX
  8
LAYER_1
 10
73.7447
 20
167.6253
  0
VERTEX
  8
LAYER_1
 10
73.7023
 20
166.9907
  0
VERTEX
  8
LAYER_1
 10
73.7447
 20
166.3768
 42
0.07089822849
  0
VERTEX
  8
LAYER_1
 10
74.1346
 20
165.1502
 42
0.06840086641
  0
VERTEX
  8
LAYER_1
 10
74.7353
 20
164.2567
 42
0.1309762516
  0
VERTEX
  8
LAYER_1
 10
76.4129
 20
163.1633
 42
0.2270436763
  0
VERTEX
  8
LAYER_1
 10
79.9795
 20
163.6412
 42
0.1401106973
  0
VERTEX
  8
LAYER_1
 10
81.3161
 20
165.2663
 42
0.05552579445
  0
VERTEX
  8
LAYER_1
 10
81.6191
 20
166.2286
  0
VERTEX
  8
LAYER_1
 10
81.7037
 20
166.8425
  0
VERTEX
  8
LAYER_1
 10
81.7037
 20
166.9479
  0
SEQEND
  0
POLYLINE
  8
LAYER_1
 40
0.1799
 41
0.1799
 66
1
 10
0
 20
0
 30
0
  0
VERTEX
  8
LAYER_1
 10
91.9694
 20
175.7956
  0
VERTEX
  8
LAYER_1
 10
94.319
 20
178.5686
  0
VERTEX
  8
LAYER_1
 10
90.9111
 20
177.3411
  0
SEQEND
  0
POLYLINE
  8
LAYER_1
 40
0.1799
 41
0.1799
 66
1
 10
0
 20
0
 30
0
  0
VERTEX
  8
LAYER_1
 10
80.984
 20
169.2555
  0
VERTEX
  8
LAYER_1
 10
94.319
 20
178.5686
  0
SEQEND
  0
POLYLINE
  8
LAYER_1
 40
0.05
 41
0.05
 66
1
 10
0
 20
0
 30
0
 70
1
  0
VERTEX
  8
LAYER_1
 10
0
 20
425.9997
  0
VERTEX
  8
LAYER_1
 10
302.9996
 20
425.9997
  0
VERTEX
  8
LAYER_1
 10
302.9996
 20
0
  0
VERTEX
  8
LAYER_1
 10
0
 20
0
  0
SEQEND
  0
ENDBLK
  0
BLOCK
  8
LAYER_1
  2
AIGNBL01010006
 70
64
 10
0
 20
0
 30
0
  3
AIGNBL01010006
  0
POLYLINE
  8
LAYER_1
 40
0.1799
 41
0.1799
 66
1
 10
0
 20
0
 30
0
  0
VERTEX
  8
LAYER_1
 10
84.1862
 20
181.1369
  0
VERTEX
  8
LAYER_1
 10
74.9363
 20
181.1369
  0
SEQEND
  0
POLYLINE
  8
LAYER_1
 40
0.1799
 41
0.1799
 66
1
 10
0
 20
0
 30
0
  0
VERTEX
  8
LAYER_1
 10
84.1862
 20
182.5129
  0
VERTEX
  8
LAYER_1
 10
74.0051
 20
182.5129
  0
SEQEND
  0
POLYLINE
  8
LAYER_1
 40
0.1799
 41
0.1799
 66
1
 10
0
 20
0
 30
0
  0
VERTEX
  8
LAYER_1
 10
113.5443
 20
182.5129
  0
VERTEX
  8
LAYER_1
 10
106.0302
 20
182.5129
  0
SEQEND
  0
POLYLINE
  8
LAYER_1
 40
0.1799
 41
0.1799
 66
1
 10
0
 20
0
 30
0
  0
VERTEX
  8
LAYER_1
 10
113.5443
 20
181.1369
  0
VERTEX
  8
LAYER_1
 10
106.9402
 20
181.1369
  0
SEQEND
  0
POLYLINE
  8
LAYER_1
 40
0.1799
 41
0.1799
 66
1
 10
0
 20
0
 30
0
  0
VERTEX
  8
LAYER_1
 10
93.4994
 20
180.7773
  0
VERTEX
  8
LAYER_1
 10
93.7745
 20
180.7986
 42
0.1417838462
  0
VERTEX
  8
LAYER_1
 10
94.3181
 20
181.1402
 42
0.5101618545
  0
VERTEX
  8
LAYER_1
 10
93.7745
 20
182.8515
  0
VERTEX
  8
LAYER_1
 10
93.4994
 20
182.8939
  0
SEQEND
  0
POLYLINE
  8
LAYER_1
 40
0.1799
 41
0.1799
 66
1
 10
0
 20
0
 30
0
  0
VERTEX
  8
LAYER_1
 10
90.0705
 20
180.3328
  0
VERTEX
  8
LAYER_1
 10
94.5789
 20
180.3328
  0
SEQEND
  0
POLYLINE
  8
LAYER_1
 40
0.1799
 41
0.1799
 66
1
 10
0
 20
0
 30
0
  0
VERTEX
  8
LAYER_1
 10
90.0705
 20
183.3383
  0
VERTEX
  8
LAYER_1
 10
94.5789
 20
183.3383
  0
SEQEND
  0
POLYLINE
  8
LAYER_1
 40
0.1799
 41
0.1799
 66
1
 10
0
 20
0
 30
0
  0
VERTEX
  8
LAYER_1
 10
84.1859
 20
179.9518
  0
VERTEX
  8
LAYER_1
 10
85.7949
 20
179.6132
 42
0.09679121165
  0
VERTEX
  8
LAYER_1
 10
98.8336
 20
179.6132
  0
VERTEX
  8
LAYER_1
 10
100.4419
 20
179.9518
  0
SEQEND
  0
POLYLINE
  8
LAYER_1
 40
0.1799
 41
0.1799
 66
1
 10
0
 20
0
 30
0
  0
VERTEX
  8
LAYER_1
 10
100.4419
 20
183.6983
  0
VERTEX
  8
LAYER_1
 10
98.8332
 20
184.058
 42
0.02385695
  0
VERTEX
  8
LAYER_1
 10
95.1196
 20
184.5507
 42
0.02353202098
  0
VERTEX
  8
LAYER_1
 10
91.9146
 20
184.6633
 42
0.02330962036
  0
VERTEX
  8
LAYER_1
 10
88.6973
 20
184.4723
 42
0.0182345189
  0
VERTEX
  8
LAYER_1
 10
85.7946
 20
184.058
  0
VERTEX
  8
LAYER_1
 10
84.1859
 20
183.6983
  0
SEQEND
  0
POLYLINE
  8
LAYER_1
 40
0.1799
 41
0.1799
 66
1
 10
0
 20
0
 30
0
  0
VERTEX
  8
LAYER_1
 10
94.5791
 20
180.3328
  0
VERTEX
  8
LAYER_1
 10
94.8962
 20
180.3749
 42
0.1196769607
  0
VERTEX
  8
LAYER_1
 10
95.5574
 20
180.7008
 42
0.1731319424
  0
VERTEX
  8
LAYER_1
 10
96.0413
 20
181.5548
 42
0.2266944179
  0
VERTEX
  8
LAYER_1
 10
95.6803
 20
182.8446
 42
0.1116455689
  0
VERTEX
  8
LAYER_1
 10
95.1406
 20
183.2166
 42
0.03638550179
  0
VERTEX
  8
LAYER_1
 10
94.8962
 20
183.296
  0
VERTEX
  8
LAYER_1
 10
94.5791
 20
183.3383
  0
SEQEND
  0
POLYLINE
  8
LAYER_1
 40
0.1799
 41
0.1799
 66
1
 10
0
 20
0
 30
0
  0
VERTEX
  8
LAYER_1
 10
94.5791
 20
180.904
  0
VERTEX
  8
LAYER_1
 10
94.8538
 20
180.9464
 42
0.7293158927
  0
VERTEX
  8
LAYER_1
 10
94.8538
 20
182.7244
  0
VERTEX
  8
LAYER_1
 10
94.5791
 20
182.7668
  0
SEQEND
  0
POLYLINE
  8
LAYER_1
 40
0.1799
 41
0.1799
 66
1
 10
0
 20
0
 30
0
  0
VERTEX
  8
LAYER_1
 10
84.1859
 20
183.6983
  0
VERTEX
  8
LAYER_1
 10
84.1859
 20
179.9518
  0
SEQEND
  0
POLYLINE
  8
LAYER_1
 40
0.1799
 41
0.1799
 66
1
 10
0
 20
0
 30
0
  0
VERTEX
  8
LAYER_1
 10
90.1339
 20
180.7773
  0
VERTEX
  8
LAYER_1
 10
93.4994
 20
180.7773
  0
SEQEND
  0
POLYLINE
  8
LAYER_1
 40
0.1799
 41
0.1799
 66
1
 10
0
 20
0
 30
0
  0
VERTEX
  8
LAYER_1
 10
90.1339
 20
182.8939
  0
VERTEX
  8
LAYER_1
 10
93.4994
 20
182.8939
  0
SEQEND
  0
POLYLINE
  8
LAYER_1
 40
0.1799
 41
0.1799
 66
1
 10
0
 20
0
 30
0
  0
VERTEX
  8
LAYER_1
 10
90.0705
 20
183.3383
  0
VERTEX
  8
LAYER_1
 10
89.7318
 20
183.296
 42
0.11441691
  0
VERTEX
  8
LAYER_1
 10
89.0663
 20
182.9463
 42
0.2936003866
  0
VERTEX
  8
LAYER_1
 10
88.6471
 20
181.3576
 42
0.259226793
  0
VERTEX
  8
LAYER_1
 10
89.7318
 20
180.3749
  0
VERTEX
  8
LAYER_1
 10
90.0705
 20
180.3328
  0
SEQEND
  0
POLYLINE
  8
LAYER_1
 40
0.1799
 41
0.1799
 66
1
 10
0
 20
0
 30
0
  0
VERTEX
  8
LAYER_1
 10
90.1339
 20
182.8939
  0
VERTEX
  8
LAYER_1
 10
89.8588
 20
182.8515
 42
0.1464961591
  0
VERTEX
  8
LAYER_1
 10
89.3299
 20
182.5367
 42
0.2100152745
  0
VERTEX
  8
LAYER_1
 10
89.0735
 20
181.7229
 42
0.2029987898
  0
VERTEX
  8
LAYER_1
 10
89.4789
 20
180.9824
 42
0.09831945485
  0
VERTEX
  8
LAYER_1
 10
89.8588
 20
180.7986
  0
VERTEX
  8
LAYER_1
 10
90.1339
 20
180.7773
  0
SEQEND
  0
POLYLINE
  8
LAYER_1
 40
0.1799
 41
0.1799
 66
1
 10
0
 20
0
 30
0
  0
VERTEX
  8
LAYER_1
 10
94.0075
 20
180.904
  0
VERTEX
  8
LAYER_1
 10
94.5791
 20
180.904
  0
SEQEND
  0
POLYLINE
  8
LAYER_1
 40
0.1799
 41
0.1799
 66
1
 10
0
 20
0
 30
0
  0
VERTEX
  8
LAYER_1
 10
94.0075
 20
182.7668
  0
VERTEX
  8
LAYER_1
 10
94.5791
 20
182.7668
  0
SEQEND
  0
POLYLINE
  8
LAYER_1
 40
0.1799
 41
0.1799
 66
1
 10
0
 20
0
 30
0
  0
VERTEX
  8
LAYER_1
 10
100.4423
 20
183.6983
  0
VERTEX
  8
LAYER_1
 10
100.4423
 20
179.9518
  0
SEQEND
  0
POLYLINE
  8
LAYER_1
 40
0.1799
 41
0.1799
 66
1
 10
0
 20
0
 30
0
  0
VERTEX
  8
LAYER_1
 10
119.6828
 20
180.6925
  0
VERTEX
  8
LAYER_1
 10
120.3809
 20
180.2691
  0
VERTEX
  8
LAYER_1
 10
121.1433
 20
179.9094
  0
VERTEX
  8
LAYER_1
 10
121.9261
 20
179.6555
  0
VERTEX
  8
LAYER_1
 10
122.7308
 20
179.4654
  0
VERTEX
  8
LAYER_1
 10
123.5351
 20
179.3803
  0
VERTEX
  8
LAYER_1
 10
124.3814
 20
179.3803
  0
SEQEND
  0
POLYLINE
  8
LAYER_1
 40
0.1799
 41
0.1799
 66
1
 10
0
 20
0
 30
0
  0
VERTEX
  8
LAYER_1
 10
124.3816
 20
184.2909
  0
VERTEX
  8
LAYER_1
 10
123.5353
 20
184.2909
  0
VERTEX
  8
LAYER_1
 10
122.7305
 20
184.2062
  0
VERTEX
  8
LAYER_1
 10
121.9262
 20
184.0156
  0
VERTEX
  8
LAYER_1
 10
121.143
 20
183.7617
  0
VERTEX
  8
LAYER_1
 10
120.3811
 20
183.4014
  0
VERTEX
  8
LAYER_1
 10
119.683
 20
182.9573
  0
SEQEND
  0
POLYLINE
  8
LAYER_1
 40
0.1799
 41
0.1799
 66
1
 10
0
 20
0
 30
0
  0
VERTEX
  8
LAYER_1
 10
117.5448
 20
183.0844
  0
VERTEX
  8
LAYER_1
 10
113.5443
 20
182.5763
  0
SEQEND
  0
POLYLINE
  8
LAYER_1
 40
0.1799
 41
0.1799
 66
1
 10
0
 20
0
 30
0
  0
VERTEX
  8
LAYER_1
 10
117.5448
 20
180.5867
  0
VERTEX
  8
LAYER_1
 10
113.5443
 20
181.0735
  0
VERTEX
  8
LAYER_1
 10
113.5443
 20
182.5763
  0
SEQEND
  0
POLYLINE
  8
LAYER_1
 40
0.1799
 41
0.1799
 66
1
 10
0
 20
0
 30
0
  0
VERTEX
  8
LAYER_1
 10
114.7932
 20
181.2007
  0
VERTEX
  8
LAYER_1
 10
114.7716
 20
181.2851
  0
VERTEX
  8
LAYER_1
 10
114.6872
 20
181.3271
  0
VERTEX
  8
LAYER_1
 10
114.5811
 20
181.3064
  0
VERTEX
  8
LAYER_1
 10
114.5391
 20
181.2217
  0
SEQEND
  0
POLYLINE
  8
LAYER_1
 40
0.1799
 41
0.1799
 66
1
 10
0
 20
0
 30
0
  0
VERTEX
  8
LAYER_1
 10
115.4281
 20
181.2007
  0
VERTEX
  8
LAYER_1
 10
115.3857
 20
181.2851
  0
VERTEX
  8
LAYER_1
 10
115.3011
 20
181.3271
  0
VERTEX
  8
LAYER_1
 10
115.2164
 20
181.3064
  0
VERTEX
  8
LAYER_1
 10
115.1742
 20
181.2217
  0
SEQEND
  0
POLYLINE
  8
LAYER_1
 40
0.1799
 41
0.1799
 66
1
 10
0
 20
0
 30
0
  0
VERTEX
  8
LAYER_1
 10
114.5393
 20
181.2217
  0
VERTEX
  8
LAYER_1
 10
114.5393
 20
180.9464
  0
SEQEND
  0
POLYLINE
  8
LAYER_1
 40
0.1799
 41
0.1799
 66
1
 10
0
 20
0
 30
0
  0
VERTEX
  8
LAYER_1
 10
114.7932
 20
181.2007
  0
VERTEX
  8
LAYER_1
 10
114.7932
 20
180.9254
  0
SEQEND
  0
POLYLINE
  8
LAYER_1
 40
0.1799
 41
0.1799
 66
1
 10
0
 20
0
 30
0
  0
VERTEX
  8
LAYER_1
 10
115.4281
 20
181.2007
  0
VERTEX
  8
LAYER_1
 10
115.4281
 20
180.8403
  0
SEQEND
  0
POLYLINE
  8
LAYER_1
 40
0.1799
 41
0.1799
 66
1
 10
0
 20
0
 30
0
  0
VERTEX
  8
LAYER_1
 10
115.1742
 20
181.2217
  0
VERTEX
  8
LAYER_1
 10
115.1742
 20
180.883
  0
SEQEND
  0
POLYLINE
  8
LAYER_1
 40
0.1799
 41
0.1799
 66
1
 10
0
 20
0
 30
0
  0
VERTEX
  8
LAYER_1
 10
114.666
 20
181.3274
  0
VERTEX
  8
LAYER_1
 10
114.6876
 20
181.3274
  0
SEQEND
  0
POLYLINE
  8
LAYER_1
 40
0.1799
 41
0.1799
 66
1
 10
0
 20
0
 30
0
  0
VERTEX
  8
LAYER_1
 10
114.5393
 20
182.4495
  0
VERTEX
  8
LAYER_1
 10
114.5813
 20
182.3648
  0
VERTEX
  8
LAYER_1
 10
114.6874
 20
182.3224
  0
VERTEX
  8
LAYER_1
 10
114.7718
 20
182.3648
  0
VERTEX
  8
LAYER_1
 10
114.7932
 20
182.4495
  0
SEQEND
  0
POLYLINE
  8
LAYER_1
 40
0.1799
 41
0.1799
 66
1
 10
0
 20
0
 30
0
  0
VERTEX
  8
LAYER_1
 10
114.5393
 20
182.4495
  0
VERTEX
  8
LAYER_1
 10
114.5393
 20
182.7034
  0
SEQEND
  0
POLYLINE
  8
LAYER_1
 40
0.1799
 41
0.1799
 66
1
 10
0
 20
0
 30
0
  0
VERTEX
  8
LAYER_1
 10
114.666
 20
182.3224
  0
VERTEX
  8
LAYER_1
 10
114.6876
 20
182.3224
  0
SEQEND
  0
POLYLINE
  8
LAYER_1
 40
0.1799
 41
0.1799
 66
1
 10
0
 20
0
 30
0
  0
VERTEX
  8
LAYER_1
 10
114.7932
 20
182.4495
  0
VERTEX
  8
LAYER_1
 10
114.7932
 20
182.7458
  0
SEQEND
  0
POLYLINE
  8
LAYER_1
 40
0.1799
 41
0.1799
 66
1
 10
0
 20
0
 30
0
  0
VERTEX
  8
LAYER_1
 10
115.1742
 20
182.4495
  0
VERTEX
  8
LAYER_1
 10
115.2166
 20
182.3648
  0
VERTEX
  8
LAYER_1
 10
115.3008
 20
182.3224
  0
VERTEX
  8
LAYER_1
 10
115.3859
 20
182.3648
  0
VERTEX
  8
LAYER_1
 10
115.4281
 20
182.4495
  0
SEQEND
  0
POLYLINE
  8
LAYER_1
 40
0.1799
 41
0.1799
 66
1
 10
0
 20
0
 30
0
  0
VERTEX
  8
LAYER_1
 10
115.1742
 20
182.4495
  0
VERTEX
  8
LAYER_1
 10
115.1742
 20
182.7882
  0
SEQEND
  0
POLYLINE
  8
LAYER_1
 40
0.1799
 41
0.1799
 66
1
 10
0
 20
0
 30
0
  0
VERTEX
  8
LAYER_1
 10
115.4281
 20
182.4495
  0
VERTEX
  8
LAYER_1
 10
115.4281
 20
182.8092
  0
SEQEND
  0
POLYLINE
  8
LAYER_1
 40
0.1799
 41
0.1799
 66
1
 10
0
 20
0
 30
0
  0
VERTEX
  8
LAYER_1
 10
119.5343
 20
181.0312
  0
VERTEX
  8
LAYER_1
 10
119.238
 20
180.4386
  0
SEQEND
  0
POLYLINE
  8
LAYER_1
 40
0.1799
 41
0.1799
 66
1
 10
0
 20
0
 30
0
  0
VERTEX
  8
LAYER_1
 10
119.6824
 20
180.6925
  0
VERTEX
  8
LAYER_1
 10
119.5343
 20
180.7349
  0
VERTEX
  8
LAYER_1
 10
119.4077
 20
180.6925
  0
VERTEX
  8
LAYER_1
 10
119.3018
 20
180.5867
  0
SEQEND
  0
POLYLINE
  8
LAYER_1
 40
0.1799
 41
0.1799
 66
1
 10
0
 20
0
 30
0
  0
VERTEX
  8
LAYER_1
 10
119.5343
 20
182.6397
  0
VERTEX
  8
LAYER_1
 10
119.238
 20
183.2326
  0
SEQEND
  0
POLYLINE
  8
LAYER_1
 40
0.1799
 41
0.1799
 66
1
 10
0
 20
0
 30
0
  0
VERTEX
  8
LAYER_1
 10
119.3018
 20
183.0844
  0
VERTEX
  8
LAYER_1
 10
119.4075
 20
182.9573
  0
VERTEX
  8
LAYER_1
 10
119.5343
 20
182.9149
  0
VERTEX
  8
LAYER_1
 10
119.6824
 20
182.9573
  0
SEQEND
  0
POLYLINE
  8
LAYER_1
 40
0.1799
 41
0.1799
 66
1
 10
0
 20
0
 30
0
  0
VERTEX
  8
LAYER_1
 10
117.3119
 20
182.4495
  0
VERTEX
  8
LAYER_1
 10
117.3119
 20
183.0421
  0
SEQEND
  0
POLYLINE
  8
LAYER_1
 40
0.1799
 41
0.1799
 66
1
 10
0
 20
0
 30
0
  0
VERTEX
  8
LAYER_1
 10
118.0529
 20
181.8356
  0
VERTEX
  8
LAYER_1
 10
118.0529
 20
183.0844
  0
SEQEND
  0
POLYLINE
  8
LAYER_1
 40
0.1799
 41
0.1799
 66
1
 10
0
 20
0
 30
0
  0
VERTEX
  8
LAYER_1
 10
117.5448
 20
183.0844
  0
VERTEX
  8
LAYER_1
 10
117.5448
 20
181.8356
  0
SEQEND
  0
POLYLINE
  8
LAYER_1
 40
0.1799
 41
0.1799
 66
1
 10
0
 20
0
 30
0
  0
VERTEX
  8
LAYER_1
 10
118.0529
 20
180.5867
  0
VERTEX
  8
LAYER_1
 10
117.5449
 20
180.5867
  0
SEQEND
  0
POLYLINE
  8
LAYER_1
 40
0.1799
 41
0.1799
 66
1
 10
0
 20
0
 30
0
  0
VERTEX
  8
LAYER_1
 10
116.042
 20
181.2007
  0
VERTEX
  8
LAYER_1
 10
116.0205
 20
181.2851
  0
VERTEX
  8
LAYER_1
 10
115.9151
 20
181.3271
  0
VERTEX
  8
LAYER_1
 10
115.83
 20
181.3064
  0
VERTEX
  8
LAYER_1
 10
115.7876
 20
181.2217
  0
SEQEND
  0
POLYLINE
  8
LAYER_1
 40
0.1799
 41
0.1799
 66
1
 10
0
 20
0
 30
0
  0
VERTEX
  8
LAYER_1
 10
117.5448
 20
180.5867
  0
VERTEX
  8
LAYER_1
 10
117.5448
 20
181.8356
  0
SEQEND
  0
POLYLINE
  8
LAYER_1
 40
0.1799
 41
0.1799
 66
1
 10
0
 20
0
 30
0
  0
VERTEX
  8
LAYER_1
 10
117.3119
 20
181.2007
  0
VERTEX
  8
LAYER_1
 10
117.2695
 20
181.2851
  0
VERTEX
  8
LAYER_1
 10
117.1853
 20
181.3271
  0
VERTEX
  8
LAYER_1
 10
117.1002
 20
181.3064
  0
VERTEX
  8
LAYER_1
 10
117.0578
 20
181.2217
  0
SEQEND
  0
POLYLINE
  8
LAYER_1
 40
0.1799
 41
0.1799
 66
1
 10
0
 20
0
 30
0
  0
VERTEX
  8
LAYER_1
 10
116.6769
 20
181.2007
  0
VERTEX
  8
LAYER_1
 10
116.6346
 20
181.2851
  0
VERTEX
  8
LAYER_1
 10
116.55
 20
181.3271
  0
VERTEX
  8
LAYER_1
 10
116.4652
 20
181.3064
  0
VERTEX
  8
LAYER_1
 10
116.4229
 20
181.2217
  0
SEQEND
  0
POLYLINE
  8
LAYER_1
 40
0.1799
 41
0.1799
 66
1
 10
0
 20
0
 30
0
  0
VERTEX
  8
LAYER_1
 10
115.7878
 20
181.2217
  0
VERTEX
  8
LAYER_1
 10
115.7878
 20
180.7983
  0
SEQEND
  0
POLYLINE
  8
LAYER_1
 40
0.1799
 41
0.1799
 66
1
 10
0
 20
0
 30
0
  0
VERTEX
  8
LAYER_1
 10
116.042
 20
181.2007
  0
VERTEX
  8
LAYER_1
 10
116.042
 20
180.7773
  0
SEQEND
  0
POLYLINE
  8
LAYER_1
 40
0.1799
 41
0.1799
 66
1
 10
0
 20
0
 30
0
  0
VERTEX
  8
LAYER_1
 10
116.6769
 20
181.2007
  0
VERTEX
  8
LAYER_1
 10
116.6769
 20
180.6925
  0
SEQEND
  0
POLYLINE
  8
LAYER_1
 40
0.1799
 41
0.1799
 66
1
 10
0
 20
0
 30
0
  0
VERTEX
  8
LAYER_1
 10
116.423
 20
181.2217
  0
VERTEX
  8
LAYER_1
 10
116.423
 20
180.7135
  0
SEQEND
  0
POLYLINE
  8
LAYER_1
 40
0.1799
 41
0.1799
 66
1
 10
0
 20
0
 30
0
  0
VERTEX
  8
LAYER_1
 10
117.3119
 20
181.2007
  0
VERTEX
  8
LAYER_1
 10
117.3119
 20
180.6078
  0
SEQEND
  0
POLYLINE
  8
LAYER_1
 40
0.1799
 41
0.1799
 66
1
 10
0
 20
0
 30
0
  0
VERTEX
  8
LAYER_1
 10
117.058
 20
181.2217
  0
VERTEX
  8
LAYER_1
 10
117.058
 20
180.6501
  0
SEQEND
  0
POLYLINE
  8
LAYER_1
 40
0.1799
 41
0.1799
 66
1
 10
0
 20
0
 30
0
  0
VERTEX
  8
LAYER_1
 10
115.7878
 20
182.4495
  0
VERTEX
  8
LAYER_1
 10
115.8301
 20
182.3648
  0
VERTEX
  8
LAYER_1
 10
115.9147
 20
182.3224
  0
VERTEX
  8
LAYER_1
 10
116.0207
 20
182.3648
  0
VERTEX
  8
LAYER_1
 10
116.0422
 20
182.4495
  0
SEQEND
  0
POLYLINE
  8
LAYER_1
 40
0.1799
 41
0.1799
 66
1
 10
0
 20
0
 30
0
  0
VERTEX
  8
LAYER_1
 10
115.7878
 20
182.4495
  0
VERTEX
  8
LAYER_1
 10
115.7878
 20
182.8726
  0
SEQEND
  0
POLYLINE
  8
LAYER_1
 40
0.1799
 41
0.1799
 66
1
 10
0
 20
0
 30
0
  0
VERTEX
  8
LAYER_1
 10
116.042
 20
182.4495
  0
VERTEX
  8
LAYER_1
 10
116.042
 20
182.8939
  0
SEQEND
  0
POLYLINE
  8
LAYER_1
 40
0.1799
 41
0.1799
 66
1
 10
0
 20
0
 30
0
  0
VERTEX
  8
LAYER_1
 10
116.6769
 20
182.4495
  0
VERTEX
  8
LAYER_1
 10
116.6769
 20
182.9787
  0
SEQEND
  0
POLYLINE
  8
LAYER_1
 40
0.1799
 41
0.1799
 66
1
 10
0
 20
0
 30
0
  0
VERTEX
  8
LAYER_1
 10
116.423
 20
182.9363
  0
VERTEX
  8
LAYER_1
 10
116.423
 20
182.4495
  0
VERTEX
  8
LAYER_1
 10
116.4654
 20
182.3648
  0
VERTEX
  8
LAYER_1
 10
116.5496
 20
182.3224
  0
VERTEX
  8
LAYER_1
 10
116.6347
 20
182.3648
  0
VERTEX
  8
LAYER_1
 10
116.6771
 20
182.4495
  0
SEQEND
  0
POLYLINE
  8
LAYER_1
 40
0.1799
 41
0.1799
 66
1
 10
0
 20
0
 30
0
  0
VERTEX
  8
LAYER_1
 10
117.058
 20
182.4495
  0
VERTEX
  8
LAYER_1
 10
117.1003
 20
182.3648
  0
VERTEX
  8
LAYER_1
 10
117.1846
 20
182.3224
  0
VERTEX
  8
LAYER_1
 10
117.2697
 20
182.3648
  0
VERTEX
  8
LAYER_1
 10
117.312
 20
182.4495
  0
SEQEND
  0
POLYLINE
  8
LAYER_1
 40
0.1799
 41
0.1799
 66
1
 10
0
 20
0
 30
0
  0
VERTEX
  8
LAYER_1
 10
117.058
 20
182.4495
  0
VERTEX
  8
LAYER_1
 10
117.058
 20
183.0207
  0
SEQEND
  0
POLYLINE
  8
LAYER_1
 40
0.1799
 41
0.1799
 66
1
 10
0
 20
0
 30
0
  0
VERTEX
  8
LAYER_1
 10
118.0529
 20
181.8356
  0
VERTEX
  8
LAYER_1
 10
118.0529
 20
180.5867
  0
SEQEND
  0
POLYLINE
  8
LAYER_1
 40
0.1799
 41
0.1799
 66
1
 10
0
 20
0
 30
0
  0
VERTEX
  8
LAYER_1
 10
118.0949
 20
180.4596
  0
VERTEX
  8
LAYER_1
 10
118.2011
 20
180.2908
  0
VERTEX
  8
LAYER_1
 10
118.37
 20
180.1633
  0
VERTEX
  8
LAYER_1
 10
118.5605
 20
180.0999
  0
VERTEX
  8
LAYER_1
 10
118.7511
 20
180.0786
  0
VERTEX
  8
LAYER_1
 10
118.9628
 20
180.1423
  0
VERTEX
  8
LAYER_1
 10
119.1112
 20
180.2691
  0
VERTEX
  8
LAYER_1
 10
119.2379
 20
180.4386
  0
SEQEND
  0
POLYLINE
  8
LAYER_1
 40
0.1799
 41
0.1799
 66
1
 10
0
 20
0
 30
0
  0
VERTEX
  8
LAYER_1
 10
118.0529
 20
180.5867
  0
VERTEX
  8
LAYER_1
 10
118.0949
 20
180.4596
  0
SEQEND
  0
POLYLINE
  8
LAYER_1
 40
0.1799
 41
0.1799
 66
1
 10
0
 20
0
 30
0
  0
VERTEX
  8
LAYER_1
 10
118.0529
 20
183.0844
  0
VERTEX
  8
LAYER_1
 10
117.5449
 20
183.0844
  0
SEQEND
  0
POLYLINE
  8
LAYER_1
 40
0.1799
 41
0.1799
 66
1
 10
0
 20
0
 30
0
  0
VERTEX
  8
LAYER_1
 10
119.238
 20
183.2326
  0
VERTEX
  8
LAYER_1
 10
119.1114
 20
183.4014
  0
VERTEX
  8
LAYER_1
 10
118.9417
 20
183.5288
  0
VERTEX
  8
LAYER_1
 10
118.7512
 20
183.5712
  0
VERTEX
  8
LAYER_1
 10
118.5399
 20
183.5712
  0
VERTEX
  8
LAYER_1
 10
118.349
 20
183.4865
  0
VERTEX
  8
LAYER_1
 10
118.2012
 20
183.3594
  0
VERTEX
  8
LAYER_1
 10
118.0951
 20
183.1902
  0
SEQEND
  0
POLYLINE
  8
LAYER_1
 40
0.1799
 41
0.1799
 66
1
 10
0
 20
0
 30
0
  0
VERTEX
  8
LAYER_1
 10
118.0529
 20
183.0844
  0
VERTEX
  8
LAYER_1
 10
118.1165
 20
183.2112
  0
SEQEND
  0
POLYLINE
  8
LAYER_1
 40
0.1799
 41
0.1799
 66
1
 10
0
 20
0
 30
0
  0
VERTEX
  8
LAYER_1
 10
121.3547
 20
183.4231
  0
VERTEX
  8
LAYER_1
 10
120.8894
 20
183.317
  0
VERTEX
  8
LAYER_1
 10
120.4233
 20
183.1478
  0
VERTEX
  8
LAYER_1
 10
120.0001
 20
182.9153
  0
VERTEX
  8
LAYER_1
 10
119.6191
 20
182.6187
  0
SEQEND
  0
POLYLINE
  8
LAYER_1
 40
0.1799
 41
0.1799
 66
1
 10
0
 20
0
 30
0
  0
VERTEX
  8
LAYER_1
 10
122.5402
 20
181.8356
  0
VERTEX
  8
LAYER_1
 10
122.5402
 20
183.0844
  0
SEQEND
  0
POLYLINE
  8
LAYER_1
 40
0.1799
 41
0.1799
 66
1
 10
0
 20
0
 30
0
  0
VERTEX
  8
LAYER_1
 10
119.6191
 20
181.0522
  0
VERTEX
  8
LAYER_1
 10
120.0001
 20
180.7559
  0
VERTEX
  8
LAYER_1
 10
120.4233
 20
180.523
  0
VERTEX
  8
LAYER_1
 10
120.8891
 20
180.3538
  0
VERTEX
  8
LAYER_1
 10
121.3547
 20
180.2481
  0
SEQEND
  0
POLYLINE
  8
LAYER_1
 40
0.1799
 41
0.1799
 66
1
 10
0
 20
0
 30
0
  0
VERTEX
  8
LAYER_1
 10
119.5557
 20
181.8356
  0
VERTEX
  8
LAYER_1
 10
119.5557
 20
181.0522
  0
VERTEX
  8
LAYER_1
 10
119.6192
 20
181.0522
  0
SEQEND
  0
POLYLINE
  8
LAYER_1
 40
0.1799
 41
0.1799
 66
1
 10
0
 20
0
 30
0
  0
VERTEX
  8
LAYER_1
 10
119.5557
 20
181.0522
  0
VERTEX
  8
LAYER_1
 10
119.5133
 20
181.0308
  0
SEQEND
  0
POLYLINE
  8
LAYER_1
 40
0.1799
 41
0.1799
 66
1
 10
0
 20
0
 30
0
  0
VERTEX
  8
LAYER_1
 10
119.5557
 20
181.8356
  0
VERTEX
  8
LAYER_1
 10
119.5557
 20
182.6187
  0
SEQEND
  0
POLYLINE
  8
LAYER_1
 40
0.1799
 41
0.1799
 66
1
 10
0
 20
0
 30
0
  0
VERTEX
  8
LAYER_1
 10
119.5133
 20
182.6397
  0
VERTEX
  8
LAYER_1
 10
119.5557
 20
182.5976
  0
VERTEX
  8
LAYER_1
 10
119.6191
 20
182.6183
  0
SEQEND
  0
POLYLINE
  8
LAYER_1
 40
0.1799
 41
0.1799
 66
1
 10
0
 20
0
 30
0
  0
VERTEX
  8
LAYER_1
 10
122.5402
 20
181.8356
  0
VERTEX
  8
LAYER_1
 10
122.5402
 20
180.5867
  0
SEQEND
  0
POLYLINE
  8
LAYER_1
 40
0.1799
 41
0.1799
 66
1
 10
0
 20
0
 30
0
  0
VERTEX
  8
LAYER_1
 10
121.3547
 20
180.2481
  0
VERTEX
  8
LAYER_1
 10
121.7781
 20
180.2481
  0
VERTEX
  8
LAYER_1
 10
122.1801
 20
180.3749
  0
VERTEX
  8
LAYER_1
 10
122.54
 20
180.5867
  0
SEQEND
  0
POLYLINE
  8
LAYER_1
 40
0.1799
 41
0.1799
 66
1
 10
0
 20
0
 30
0
  0
VERTEX
  8
LAYER_1
 10
122.5402
 20
183.0844
  0
VERTEX
  8
LAYER_1
 10
122.18
 20
183.296
  0
VERTEX
  8
LAYER_1
 10
121.7781
 20
183.4231
  0
VERTEX
  8
LAYER_1
 10
121.3549
 20
183.4231
  0
SEQEND
  0
POLYLINE
  8
LAYER_1
 40
0.1799
 41
0.1799
 66
1
 10
0
 20
0
 30
0
  0
VERTEX
  8
LAYER_1
 10
124.805
 20
179.2108
  0
VERTEX
  8
LAYER_1
 10
124.805
 20
181.8356
  0
SEQEND
  0
POLYLINE
  8
LAYER_1
 40
0.1799
 41
0.1799
 66
1
 10
0
 20
0
 30
0
  0
VERTEX
  8
LAYER_1
 10
125.4189
 20
181.8356
  0
VERTEX
  8
LAYER_1
 10
125.4189
 20
179.2111
  0
VERTEX
  8
LAYER_1
 10
124.8051
 20
179.2111
  0
VERTEX
  8
LAYER_1
 10
124.6568
 20
179.3165
  0
VERTEX
  8
LAYER_1
 10
124.4871
 20
179.3589
  0
VERTEX
  8
LAYER_1
 10
124.3182
 20
179.3803
  0
SEQEND
  0
POLYLINE
  8
LAYER_1
 40
0.1799
 41
0.1799
 66
1
 10
0
 20
0
 30
0
  0
VERTEX
  8
LAYER_1
 10
125.4189
 20
183.5922
  0
VERTEX
  8
LAYER_1
 10
129.4402
 20
183.5922
  0
SEQEND
  0
POLYLINE
  8
LAYER_1
 40
0.1799
 41
0.1799
 66
1
 10
0
 20
0
 30
0
  0
VERTEX
  8
LAYER_1
 10
125.4189
 20
183.0844
  0
VERTEX
  8
LAYER_1
 10
129.4193
 20
183.0844
  0
SEQEND
  0
POLYLINE
  8
LAYER_1
 40
0.1799
 41
0.1799
 66
1
 10
0
 20
0
 30
0
  0
VERTEX
  8
LAYER_1
 10
125.4189
 20
180.5867
  0
VERTEX
  8
LAYER_1
 10
129.4193
 20
180.5867
  0
SEQEND
  0
POLYLINE
  8
LAYER_1
 40
0.1799
 41
0.1799
 66
1
 10
0
 20
0
 30
0
  0
VERTEX
  8
LAYER_1
 10
125.4189
 20
180.0786
  0
VERTEX
  8
LAYER_1
 10
129.4402
 20
180.0786
  0
SEQEND
  0
POLYLINE
  8
LAYER_1
 40
0.1799
 41
0.1799
 66
1
 10
0
 20
0
 30
0
  0
VERTEX
  8
LAYER_1
 10
124.805
 20
184.4601
  0
VERTEX
  8
LAYER_1
 10
124.805
 20
181.8356
  0
SEQEND
  0
POLYLINE
  8
LAYER_1
 40
0.1799
 41
0.1799
 66
1
 10
0
 20
0
 30
0
  0
VERTEX
  8
LAYER_1
 10
125.4189
 20
181.8356
  0
VERTEX
  8
LAYER_1
 10
125.4189
 20
184.4601
  0
VERTEX
  8
LAYER_1
 10
124.8051
 20
184.4601
  0
SEQEND
  0
POLYLINE
  8
LAYER_1
 40
0.1799
 41
0.1799
 66
1
 10
0
 20
0
 30
0
  0
VERTEX
  8
LAYER_1
 10
124.3182
 20
184.2909
  0
VERTEX
  8
LAYER_1
 10
124.4871
 20
184.2909
  0
VERTEX
  8
LAYER_1
 10
124.6568
 20
184.3543
  0
VERTEX
  8
LAYER_1
 10
124.805
 20
184.4597
  0
SEQEND
  0
POLYLINE
  8
LAYER_1
 40
0.1799
 41
0.1799
 66
1
 10
0
 20
0
 30
0
  0
VERTEX
  8
LAYER_1
 10
129.4193
 20
180.0786
  0
VERTEX
  8
LAYER_1
 10
129.5459
 20
180.121
  0
VERTEX
  8
LAYER_1
 10
129.631
 20
180.2057
  0
VERTEX
  8
LAYER_1
 10
129.6734
 20
180.3325
  0
VERTEX
  8
LAYER_1
 10
129.631
 20
180.4596
  0
VERTEX
  8
LAYER_1
 10
129.5459
 20
180.5444
  0
VERTEX
  8
LAYER_1
 10
129.4193
 20
180.5867
  0
SEQEND
  0
POLYLINE
  8
LAYER_1
 40
0.1799
 41
0.1799
 66
1
 10
0
 20
0
 30
0
  0
VERTEX
  8
LAYER_1
 10
129.4193
 20
183.0844
  0
VERTEX
  8
LAYER_1
 10
129.5459
 20
183.1268
  0
VERTEX
  8
LAYER_1
 10
129.631
 20
183.2112
  0
VERTEX
  8
LAYER_1
 10
129.6734
 20
183.3383
  0
VERTEX
  8
LAYER_1
 10
129.631
 20
183.4655
  0
VERTEX
  8
LAYER_1
 10
129.5459
 20
183.5499
  0
VERTEX
  8
LAYER_1
 10
129.4193
 20
183.5919
  0
SEQEND
  0
POLYLINE
  8
LAYER_1
 40
0.1799
 41
0.1799
 62
160
 66
1
 10
0
 20
0
 30
0
  0
VERTEX
  8
LAYER_1
 10
73.9626
 20
183.5288
  0
VERTEX
  8
LAYER_1
 10
73.6663
 20
183.3173
 42
0.05457703891
  0
VERTEX
  8
LAYER_1
 10
73.2478
 20
183.0085
 42
0.1596061094
  0
VERTEX
  8
LAYER_1
 10
73.0028
 20
182.5963
 42
0.1971567155
  0
VERTEX
  8
LAYER_1
 10
73.1191
 20
182.2141
 42
0.04388687502
  0
VERTEX
  8
LAYER_1
 10
73.3779
 20
181.911
 42
-0.09400818482
  0
VERTEX
  8
LAYER_1
 10
73.836
 20
181.3492
 42
-0.1576751518
  0
VERTEX
  8
LAYER_1
 10
73.9137
 20
180.9101
 42
-0.07672340943
  0
VERTEX
  8
LAYER_1
 10
73.8346
 20
180.6726
 42
-0.05774388366
  0
VERTEX
  8
LAYER_1
 10
73.6587
 20
180.4107
 42
-0.03997983745
  0
VERTEX
  8
LAYER_1
 10
73.3695
 20
180.121
  0
VERTEX
  8
LAYER_1
 10
73.1163
 20
179.8671
  0
SEQEND
  0
POLYLINE
  8
LAYER_1
 40
0.1799
 41
0.1799
 62
160
 66
1
 10
0
 20
0
 30
0
  0
VERTEX
  8
LAYER_1
 10
74.9785
 20
183.5288
  0
VERTEX
  8
LAYER_1
 10
74.6611
 20
183.3173
 42
0.05547015964
  0
VERTEX
  8
LAYER_1
 10
74.251
 20
183.0027
 42
0.1593994328
  0
VERTEX
  8
LAYER_1
 10
74.0142
 20
182.5841
 42
0.1925607451
  0
VERTEX
  8
LAYER_1
 10
74.1342
 20
182.1984
 42
0.04367115886
  0
VERTEX
  8
LAYER_1
 10
74.3935
 20
181.8946
 42
-0.09373548968
  0
VERTEX
  8
LAYER_1
 10
74.85
 20
181.3358
 42
-0.1583163551
  0
VERTEX
  8
LAYER_1
 10
74.9271
 20
180.9012
 42
-0.07703209475
  0
VERTEX
  8
LAYER_1
 10
74.8483
 20
180.6664
 42
-0.05779949331
  0
VERTEX
  8
LAYER_1
 10
74.6733
 20
180.4074
 42
-0.03990057951
  0
VERTEX
  8
LAYER_1
 10
74.3858
 20
180.121
  0
VERTEX
  8
LAYER_1
 10
74.1319
 20
179.8671
  0
SEQEND
  0
POLYLINE
  8
LAYER_1
 40
0.1799
 41
0.1799
 66
1
 10
0
 20
0
 30
0
  0
VERTEX
  8
LAYER_1
 10
73.9202
 20
181.1369
  0
VERTEX
  8
LAYER_1
 10
65.2418
 20
181.1369
  0
SEQEND
  0
POLYLINE
  8
LAYER_1
 40
0.1799
 41
0.1799
 66
1
 10
0
 20
0
 30
0
  0
VERTEX
  8
LAYER_1
 10
72.989
 20
182.5129
  0
VERTEX
  8
LAYER_1
 10
65.242
 20
182.5129
  0
SEQEND
  0
POLYLINE
  8
LAYER_1
 40
0.1799
 41
0.1799
 62
160
 66
1
 10
0
 20
0
 30
0
  0
VERTEX
  8
LAYER_1
 10
106.9824
 20
183.5288
  0
VERTEX
  8
LAYER_1
 10
106.6862
 20
183.3173
 42
0.05440153556
  0
VERTEX
  8
LAYER_1
 10
106.273
 20
183.0014
 42
0.1578571997
  0
VERTEX
  8
LAYER_1
 10
106.0328
 20
182.5841
 42
0.1956635187
  0
VERTEX
  8
LAYER_1
 10
106.1509
 20
182.2023
 42
0.04433720304
  0
VERTEX
  8
LAYER_1
 10
106.4097
 20
181.9023
 42
-0.094198612
  0
VERTEX
  8
LAYER_1
 10
106.8677
 20
181.3478
 42
-0.1578602015
  0
VERTEX
  8
LAYER_1
 10
106.9472
 20
180.912
 42
-0.076351682
  0
VERTEX
  8
LAYER_1
 10
106.87
 20
180.675
 42
-0.05736258408
  0
VERTEX
  8
LAYER_1
 10
106.6968
 20
180.4125
 42
-0.03970134302
  0
VERTEX
  8
LAYER_1
 10
106.4112
 20
180.121
  0
VERTEX
  8
LAYER_1
 10
106.157
 20
179.8671
  0
SEQEND
  0
POLYLINE
  8
LAYER_1
 40
0.1799
 41
0.1799
 62
160
 66
1
 10
0
 20
0
 30
0
  0
VERTEX
  8
LAYER_1
 10
105.9878
 20
183.5288
  0
VERTEX
  8
LAYER_1
 10
105.6704
 20
183.3173
 42
0.05472534237
  0
VERTEX
  8
LAYER_1
 10
105.2599
 20
183.0011
 42
0.1578607885
  0
VERTEX
  8
LAYER_1
 10
105.0217
 20
182.583
 42
0.1939782429
  0
VERTEX
  8
LAYER_1
 10
105.1399
 20
182.2
 42
0.0441568682
  0
VERTEX
  8
LAYER_1
 10
105.3977
 20
181.8991
 42
-0.09412887773
  0
VERTEX
  8
LAYER_1
 10
105.8531
 20
181.3439
 42
-0.1577003165
  0
VERTEX
  8
LAYER_1
 10
105.9311
 20
180.9088
 42
-0.07626837175
  0
VERTEX
  8
LAYER_1
 10
105.8535
 20
180.6725
 42
-0.05731384944
  0
VERTEX
  8
LAYER_1
 10
105.6801
 20
180.4111
 42
-0.03967642289
  0
VERTEX
  8
LAYER_1
 10
105.3948
 20
180.121
  0
VERTEX
  8
LAYER_1
 10
105.1412
 20
179.8671
  0
SEQEND
  0
POLYLINE
  8
LAYER_1
 40
0.1799
 41
0.1799
 66
1
 10
0
 20
0
 30
0
  0
VERTEX
  8
LAYER_1
 10
105.0143
 20
182.5129
  0
VERTEX
  8
LAYER_1
 10
100.4419
 20
182.5129
  0
SEQEND
  0
POLYLINE
  8
LAYER_1
 40
0.1799
 41
0.1799
 66
1
 10
0
 20
0
 30
0
  0
VERTEX
  8
LAYER_1
 10
105.9455
 20
181.1369
  0
VERTEX
  8
LAYER_1
 10
100.4418
 20
181.1369
  0
SEQEND
  0
INSERT
  8
LAYER_1
  2
AIGNBL01020007
 10
0
 20
0
 30
0
  0
POLYLINE
  8
LAYER_1
 40
0.1799
 41
0.1799
 66
1
 10
0
 20
0
 30
0
  0
VERTEX
  8
LAYER_1
 10
74.4852
 20
221.7274
  0
VERTEX
  8
LAYER_1
 10
119.2678
 20
221.7274
  0
SEQEND
  0
POLYLINE
  8
LAYER_1
 40
0.1799
 41
0.1799
 66
1
 10
0
 20
0
 30
0
  0
VERTEX
  8
LAYER_1
 10
166.3116
 20
245.1208
  0
VERTEX
  8
LAYER_1
 10
166.3116
 20
327.0026
  0
SEQEND
  0
POLYLINE
  8
LAYER_1
 40
0.1799
 41
0.1799
 66
1
 10
0
 20
0
 30
0
  0
VERTEX
  8
LAYER_1
 10
43.2421
 20
326.7773
  0
VERTEX
  8
LAYER_1
 10
43.2421
 20
278.397
  0
SEQEND
  0
POLYLINE
  8
LAYER_1
 40
0.1799
 41
0.1799
 66
1
 10
0
 20
0
 30
0
  0
VERTEX
  8
LAYER_1
 10
140.7671
 20
341.0171
  0
VERTEX
  8
LAYER_1
 10
53.4644
 20
341.0171
  0
SEQEND
  0
POLYLINE
  8
LAYER_1
 40
0.05
 41
0.05
 66
1
 10
0
 20
0
 30
0
 70
1
  0
VERTEX
  8
LAYER_1
 10
0
 20
425.9997
  0
VERTEX
  8
LAYER_1
 10
302.9996
 20
425.9997
  0
VERTEX
  8
LAYER_1
 10
302.9996
 20
0
  0
VERTEX
  8
LAYER_1
 10
0
 20
0
  0
SEQEND
  0
ENDBLK
  0
BLOCK
  8
LAYER_1
  2
AIGNBL01010008
 70
64
 10
0
 20
0
 30
0
  3
AIGNBL01010008
  0
POLYLINE
  8
LAYER_1
 40
0.1799
 41
0.1799
 66
1
 10
0
 20
0
 30
0
  0
VERTEX
  8
LAYER_1
 10
96.0494
 20
294.3846
 42
-0.04765886448
  0
VERTEX
  8
LAYER_1
 10
97.7028
 20
294.4367
 42
-0.03442442877
  0
VERTEX
  8
LAYER_1
 10
98.1311
 20
294.3719
 42
-0.0638671864
  0
VERTEX
  8
LAYER_1
 10
99.1945
 20
294.0541
 42
-0.02876248305
  0
VERTEX
  8
LAYER_1
 10
99.8795
 20
293.6379
 42
-0.03762760632
  0
VERTEX
  8
LAYER_1
 10
101.02
 20
292.7265
 42
-0.04956945594
  0
VERTEX
  8
LAYER_1
 10
101.2809
 20
292.3906
 42
-0.06027324116
  0
VERTEX
  8
LAYER_1
 10
101.8331
 20
291.2473
 42
-0.08322805896
  0
VERTEX
  8
LAYER_1
 10
101.9897
 20
290.3708
 42
-0.010611597
  0
VERTEX
  8
LAYER_1
 10
101.9853
 20
290.3175
 42
-0.007670256009
  0
VERTEX
  8
LAYER_1
 10
101.635
 20
286.7999
 42
-0.02256156441
  0
VERTEX
  8
LAYER_1
 10
101.4013
 20
285.3102
 42
-0.000803206089
  0
VERTEX
  8
LAYER_1
 10
101.02
 20
283.6599
 42
-0.002305968366
  0
VERTEX
  8
LAYER_1
 10
100.4049
 20
280.5942
 42
-0.009922694555
  0
VERTEX
  8
LAYER_1
 10
100.0424
 20
278.9425
 42
-0.03372692659
  0
VERTEX
  8
LAYER_1
 10
99.9624
 20
278.7551
 42
-0.1626427444
  0
VERTEX
  8
LAYER_1
 10
99.1945
 20
278.0097
 42
-0.05748450753
  0
VERTEX
  8
LAYER_1
 10
98.9115
 20
277.9919
 42
-0.01186422158
  0
VERTEX
  8
LAYER_1
 10
97.6196
 20
278.0378
 42
-0.003993647013
  0
VERTEX
  8
LAYER_1
 10
95.22
 20
278.1854
 42
-0.1057767849
  0
VERTEX
  8
LAYER_1
 10
94.5997
 20
278.6653
 42
-0.1419082586
  0
VERTEX
  8
LAYER_1
 10
94.0865
 20
279.7774
 42
-0.00283454372
  0
VERTEX
  8
LAYER_1
 10
94.0819
 20
279.806
 42
0.008034840895
  0
VERTEX
  8
LAYER_1
 10
93.3616
 20
283.7498
  0
VERTEX
  8
LAYER_1
 10
92.3439
 20
288.4339
 42
-0.03927471111
  0
VERTEX
  8
LAYER_1
 10
92.2489
 20
290.4457
 42
-0.03799650944
  0
VERTEX
  8
LAYER_1
 10
92.3439
 20
291.2809
 42
-0.08297085063
  0
VERTEX
  8
LAYER_1
 10
92.735
 20
292.3418
 42
-0.08433708162
  0
VERTEX
  8
LAYER_1
 10
93.3966
 20
293.104
 42
-0.006859117515
  0
VERTEX
  8
LAYER_1
 10
93.7292
 20
293.3835
 42
-0.04001752195
  0
VERTEX
  8
LAYER_1
 10
94.1599
 20
293.6653
 42
-0.04577056174
  0
VERTEX
  8
LAYER_1
 10
95.6572
 20
294.318
 42
-0.1233261212
  0
VERTEX
  8
LAYER_1
 10
95.9632
 20
294.38
 42
-0.4366292234
  0
VERTEX
  8
LAYER_1
 10
95.9529
 20
294.3419
 42
-0.07743325693
  0
VERTEX
  8
LAYER_1
 10
95.9063
 20
294.3031
  0
SEQEND
  0
INSERT
  8
LAYER_1
  2
AIGNBL01020009
 10
0
 20
0
 30
0
  0
POLYLINE
  8
LAYER_1
 40
0.1799
 41
0.1799
 66
1
 10
0
 20
0
 30
0
  0
VERTEX
  8
LAYER_1
 10
244.3544
 20
347.0482
 42
-0.07174555591
  0
VERTEX
  8
LAYER_1
 10
245.3731
 20
347.0419
 42
-0.0774693561
  0
VERTEX
  8
LAYER_1
 10
245.8933
 20
346.8863
 42
-0.06437743554
  0
VERTEX
  8
LAYER_1
 10
246.7873
 20
346.2369
 42
-0.05996003726
  0
VERTEX
  8
LAYER_1
 10
246.9822
 20
345.9606
 42
-0.09023467135
  0
VERTEX
  8
LAYER_1
 10
247.2588
 20
345.1861
 42
-0.05236550916
  0
VERTEX
  8
LAYER_1
 10
247.2586
 20
345.0575
  0
VERTEX
  8
LAYER_1
 10
247.0874
 20
343.3363
 42
-0.03444848682
  0
VERTEX
  8
LAYER_1
 10
246.9183
 20
342.3682
 42
-0.001575883665
  0
VERTEX
  8
LAYER_1
 10
246.7873
 20
341.7996
  0
VERTEX
  8
LAYER_1
 10
246.4852
 20
340.2993
  0
VERTEX
  8
LAYER_1
 10
246.2689
 20
339.3993
 42
-0.1632215248
  0
VERTEX
  8
LAYER_1
 10
245.8933
 20
339.0346
 42
-0.05234413702
  0
VERTEX
  8
LAYER_1
 10
245.6112
 20
339.0279
 42
-0.009582613703
  0
VERTEX
  8
LAYER_1
 10
243.9482
 20
339.1206
 42
-0.1457999135
  0
VERTEX
  8
LAYER_1
 10
243.5396
 20
339.4992
 42
-0.09928062006
  0
VERTEX
  8
LAYER_1
 10
243.3912
 20
339.9136
 42
0.006609578204
  0
VERTEX
  8
LAYER_1
 10
243.0391
 20
341.8437
  0
VERTEX
  8
LAYER_1
 10
242.5406
 20
344.1361
 42
-0.0601536165
  0
VERTEX
  8
LAYER_1
 10
242.526
 20
345.449
 42
-0.008690172349
  0
VERTEX
  8
LAYER_1
 10
242.5406
 20
345.5291
 42
-0.1254816816
  0
VERTEX
  8
LAYER_1
 10
242.8548
 20
346.2196
 42
-0.05043161376
  0
VERTEX
  8
LAYER_1
 10
243.2186
 20
346.5582
 42
-0.04949359084
  0
VERTEX
  8
LAYER_1
 10
243.5731
 20
346.7718
 42
-0.03228651844
  0
VERTEX
  8
LAYER_1
 10
244.1344
 20
347.0067
 42
-0.4748128673
  0
VERTEX
  8
LAYER_1
 10
244.3125
 20
347.0344
 42
-0.07464652265
  0
VERTEX
  8
LAYER_1
 10
244.2838
 20
347.0083
  0
SEQEND
  0
POLYLINE
  8
LAYER_1
 40
0.1799
 41
0.1799
 66
1
 10
0
 20
0
 30
0
  0
VERTEX
  8
LAYER_1
 10
62.4601
 20
244.228
  0
VERTEX
  8
LAYER_1
 10
62.4124
 20
244.9409
  0
VERTEX
  8
LAYER_1
 10
62.2463
 20
245.63
 42
0.06451030387
  0
VERTEX
  8
LAYER_1
 10
61.6199
 20
246.8322
 42
0.06226283301
  0
VERTEX
  8
LAYER_1
 10
60.8507
 20
247.6777
 42
0.215469404
  0
VERTEX
  8
LAYER_1
 10
57.3122
 20
248.6754
 42
0.1790949482
  0
VERTEX
  8
LAYER_1
 10
54.5732
 20
247.1511
 42
0.06238287248
  0
VERTEX
  8
LAYER_1
 10
53.9412
 20
246.182
 42
0.06040445238
  0
VERTEX
  8
LAYER_1
 10
53.5275
 20
244.9881
  0
VERTEX
  8
LAYER_1
 10
53.4794
 20
244.2759
  0
VERTEX
  8
LAYER_1
 10
53.5275
 20
243.5867
 42
0.06542071781
  0
VERTEX
  8
LAYER_1
 10
53.9196
 20
242.3051
 42
0.06835677749
  0
VERTEX
  8
LAYER_1
 10
54.5745
 20
241.2808
 42
0.1315181473
  0
VERTEX
  8
LAYER_1
 10
56.4338
 20
240.0101
 42
0.09022939579
  0
VERTEX
  8
LAYER_1
 10
58.074
 20
239.7444
 42
0.0908705182
  0
VERTEX
  8
LAYER_1
 10
59.7009
 20
240.074
 42
0.09923913404
  0
VERTEX
  8
LAYER_1
 10
61.113
 20
241.0045
 42
0.07000130419
  0
VERTEX
  8
LAYER_1
 10
61.8355
 20
241.9613
 42
0.06825269941
  0
VERTEX
  8
LAYER_1
 10
62.3132
 20
243.1894
 42
0.01089581904
  0
VERTEX
  8
LAYER_1
 10
62.3648
 20
243.4205
  0
VERTEX
  8
LAYER_1
 10
62.4601
 20
244.1095
  0
VERTEX
  8
LAYER_1
 10
62.4601
 20
244.228
  0
SEQEND
  0
POLYLINE
  8
LAYER_1
 40
0.1799
 41
0.1799
 66
1
 10
0
 20
0
 30
0
  0
VERTEX
  8
LAYER_1
 10
86.5251
 20
261.7406
  0
VERTEX
  8
LAYER_1
 10
89.1625
 20
264.8524
  0
VERTEX
  8
LAYER_1
 10
85.3376
 20
263.4752
  0
SEQEND
  0
POLYLINE
  8
LAYER_1
 40
0.1799
 41
0.1799
 66
1
 10
0
 20
0
 30
0
  0
VERTEX
  8
LAYER_1
 10
62.4458
 20
246.5195
  0
VERTEX
  8
LAYER_1
 10
89.1105
 20
264.8526
  0
SEQEND
  0
POLYLINE
  8
LAYER_1
 40
0.05
 41
0.05
 66
1
 10
0
 20
0
 30
0
 70
1
  0
VERTEX
  8
LAYER_1
 10
0
 20
425.9997
  0
VERTEX
  8
LAYER_1
 10
302.9996
 20
425.9997
  0
VERTEX
  8
LAYER_1
 10
302.9996
 20
0
  0
VERTEX
  8
LAYER_1
 10
0
 20
0
  0
SEQEND
  0
ENDBLK
  0
BLOCK
  8
LAYER_1
  2
AIGNBL0101000A
 70
64
 10
0
 20
0
 30
0
  3
AIGNBL0101000A
  0
POLYLINE
  8
LAYER_1
 40
0.1799
 41
0.1799
 66
1
 10
0
 20
0
 30
0
  0
VERTEX
  8
LAYER_1
 10
144.3373
 20
264.4929
  0
VERTEX
  8
LAYER_1
 10
144.2899
 20
265.2059
  0
VERTEX
  8
LAYER_1
 10
144.1235
 20
265.8949
 42
0.06450490032
  0
VERTEX
  8
LAYER_1
 10
143.497
 20
267.0971
 42
0.06225860495
  0
VERTEX
  8
LAYER_1
 10
142.7278
 20
267.9426
 42
0.2154614837
  0
VERTEX
  8
LAYER_1
 10
139.1892
 20
268.9403
 42
0.1790750721
  0
VERTEX
  8
LAYER_1
 10
136.4499
 20
267.416
 42
0.0623715091
  0
VERTEX
  8
LAYER_1
 10
135.8178
 20
266.447
 42
0.06039484145
  0
VERTEX
  8
LAYER_1
 10
135.4038
 20
265.2531
  0
VERTEX
  8
LAYER_1
 10
135.3569
 20
264.5413
  0
VERTEX
  8
LAYER_1
 10
135.4038
 20
263.8519
 42
0.06540656293
  0
VERTEX
  8
LAYER_1
 10
135.7962
 20
262.5703
 42
0.06833932189
  0
VERTEX
  8
LAYER_1
 10
136.4513
 20
261.5458
 42
0.131489634
  0
VERTEX
  8
LAYER_1
 10
138.3109
 20
260.2751
 42
0.1200132943
  0
VERTEX
  8
LAYER_1
 10
140.5049
 20
260.0528
 42
0.09307488147
  0
VERTEX
  8
LAYER_1
 10
142.0826
 20
260.5821
 42
0.1746444724
  0
VERTEX
  8
LAYER_1
 10
143.9856
 20
262.8063
 42
0.04383125397
  0
VERTEX
  8
LAYER_1
 10
144.2417
 20
263.6854
  0
VERTEX
  8
LAYER_1
 10
144.3373
 20
264.3747
  0
VERTEX
  8
LAYER_1
 10
144.3373
 20
264.4929
  0
SEQEND
  0
POLYLINE
  8
LAYER_1
 40
0.1799
 41
0.1799
 66
1
 10
0
 20
0
 30
0
  0
VERTEX
  8
LAYER_1
 10
102.4377
 20
272.8684
  0
VERTEX
  8
LAYER_1
 10
98.3723
 20
272.5322
  0
VERTEX
  8
LAYER_1
 10
102.051
 20
270.8022
  0
SEQEND
  0
POLYLINE
  8
LAYER_1
 40
0.1799
 41
0.1799
 66
1
 10
0
 20
0
 30
0
  0
VERTEX
  8
LAYER_1
 10
135.6079
 20
265.4496
  0
VERTEX
  8
LAYER_1
 10
98.3723
 20
272.5324
  0
SEQEND
  0
POLYLINE
  8
LAYER_1
 40
0.05
 41
0.05
 66
1
 10
0
 20
0
 30
0
 70
1
  0
VERTEX
  8
LAYER_1
 10
0
 20
425.9997
  0
VERTEX
  8
LAYER_1
 10
302.9996
 20
425.9997
  0
VERTEX
  8
LAYER_1
 10
302.9996
 20
0
  0
VERTEX
  8
LAYER_1
 10
0
 20
0
  0
SEQEND
  0
ENDBLK
  0
BLOCK
  8
LAYER_1
  2
AIGNBL0101000B
 70
64
 10
0
 20
0
 30
0
  3
AIGNBL0101000B
  0
POLYLINE
  8
LAYER_1
 40
0.1799
 41
0.1799
 66
1
 10
0
 20
0
 30
0
  0
VERTEX
  8
LAYER_1
 10
158.9178
 20
334.6934
  0
VERTEX
  8
LAYER_1
 10
158.8709
 20
335.4064
  0
VERTEX
  8
LAYER_1
 10
158.7045
 20
336.0958
 42
0.06450087995
  0
VERTEX
  8
LAYER_1
 10
158.078
 20
337.298
 42
0.06225680862
  0
VERTEX
  8
LAYER_1
 10
157.3087
 20
338.1434
 42
0.2154680569
  0
VERTEX
  8
LAYER_1
 10
153.7702
 20
339.141
 42
0.1790827816
  0
VERTEX
  8
LAYER_1
 10
151.0312
 20
337.6166
 42
0.06236901512
  0
VERTEX
  8
LAYER_1
 10
150.3991
 20
336.6475
 42
0.06039079089
  0
VERTEX
  8
LAYER_1
 10
149.9852
 20
335.4536
  0
VERTEX
  8
LAYER_1
 10
149.9378
 20
334.7413
  0
VERTEX
  8
LAYER_1
 10
149.9852
 20
334.0525
 42
0.06542302497
  0
VERTEX
  8
LAYER_1
 10
150.3774
 20
332.771
 42
0.06835234537
  0
VERTEX
  8
LAYER_1
 10
151.0323
 20
331.7466
 42
0.1314980115
  0
VERTEX
  8
LAYER_1
 10
152.8918
 20
330.4759
 42
0.09021817117
  0
VERTEX
  8
LAYER_1
 10
154.5321
 20
330.2102
 42
0.09087198096
  0
VERTEX
  8
LAYER_1
 10
156.1589
 20
330.5397
 42
0.09925725232
  0
VERTEX
  8
LAYER_1
 10
157.5709
 20
331.47
 42
0.07001956836
  0
VERTEX
  8
LAYER_1
 10
158.2932
 20
332.4268
 42
0.0682683584
  0
VERTEX
  8
LAYER_1
 10
158.7707
 20
333.6548
 42
0.01089782717
  0
VERTEX
  8
LAYER_1
 10
158.8223
 20
333.8859
  0
VERTEX
  8
LAYER_1
 10
158.9178
 20
334.5753
  0
VERTEX
  8
LAYER_1
 10
158.9178
 20
334.6934
  0
SEQEND
  0
POLYLINE
  8
LAYER_1
 40
0.1799
 41
0.1799
 66
1
 10
0
 20
0
 30
0
  0
VERTEX
  8
LAYER_1
 10
137.6076
 20
324.9159
  0
VERTEX
  8
LAYER_1
 10
134.9706
 20
321.8036
  0
VERTEX
  8
LAYER_1
 10
138.7953
 20
323.1813
  0
SEQEND
  0
POLYLINE
  8
LAYER_1
 40
0.1799
 41
0.1799
 66
1
 10
0
 20
0
 30
0
  0
VERTEX
  8
LAYER_1
 10
149.9378
 20
332.2565
  0
VERTEX
  8
LAYER_1
 10
134.9709
 20
321.8038
  0
SEQEND
  0
POLYLINE
  8
LAYER_1
 40
0.05
 41
0.05
 66
1
 10
0
 20
0
 30
0
 70
1
  0
VERTEX
  8
LAYER_1
 10
0
 20
425.9997
  0
VERTEX
  8
LAYER_1
 10
302.9996
 20
425.9997
  0
VERTEX
  8
LAYER_1
 10
302.9996
 20
0
  0
VERTEX
  8
LAYER_1
 10
0
 20
0
  0
SEQEND
  0
ENDBLK
  0
BLOCK
  8
LAYER_1
  2
AIGNBL0101000C
 70
64
 10
0
 20
0
 30
0
  3
AIGNBL0101000C
  0
POLYLINE
  8
LAYER_1
 40
0.1799
 41
0.1799
 66
1
 10
0
 20
0
 30
0
  0
VERTEX
  8
LAYER_1
 10
122.2161
 20
306.7828
  0
VERTEX
  8
LAYER_1
 10
122.1693
 20
307.4958
  0
VERTEX
  8
LAYER_1
 10
122.0031
 20
308.1852
 42
0.0644989979
  0
VERTEX
  8
LAYER_1
 10
121.3765
 20
309.3874
 42
0.06225297999
  0
VERTEX
  8
LAYER_1
 10
120.6072
 20
310.2329
 42
0.2105923912
  0
VERTEX
  8
LAYER_1
 10
117.1545
 20
311.2427
 42
0.1786066483
  0
VERTEX
  8
LAYER_1
 10
114.3905
 20
309.7766
 42
0.06240241786
  0
VERTEX
  8
LAYER_1
 10
113.7424
 20
308.8264
 42
0.0606755949
  0
VERTEX
  8
LAYER_1
 10
113.3085
 20
307.651
 42
0.004888059083
  0
VERTEX
  8
LAYER_1
 10
113.2835
 20
307.543
  0
VERTEX
  8
LAYER_1
 10
113.2362
 20
306.8309
  0
VERTEX
  8
LAYER_1
 10
113.2835
 20
306.1419
 42
0.06542159603
  0
VERTEX
  8
LAYER_1
 10
113.6757
 20
304.8604
 42
0.0683510065
  0
VERTEX
  8
LAYER_1
 10
114.3307
 20
303.836
 42
0.1314964922
  0
VERTEX
  8
LAYER_1
 10
116.1902
 20
302.5653
 42
0.09021753258
  0
VERTEX
  8
LAYER_1
 10
117.8304
 20
302.2996
 42
0.09087012638
  0
VERTEX
  8
LAYER_1
 10
119.4574
 20
302.6291
 42
0.09925288168
  0
VERTEX
  8
LAYER_1
 10
120.8693
 20
303.5594
 42
0.07001562306
  0
VERTEX
  8
LAYER_1
 10
121.5917
 20
304.5162
 42
0.06826494663
  0
VERTEX
  8
LAYER_1
 10
122.0693
 20
305.7442
 42
0.01089737716
  0
VERTEX
  8
LAYER_1
 10
122.1209
 20
305.9753
  0
VERTEX
  8
LAYER_1
 10
122.2161
 20
306.6647
  0
VERTEX
  8
LAYER_1
 10
122.2161
 20
306.7828
  0
SEQEND
  0
POLYLINE
  8
LAYER_1
 40
0.1799
 41
0.1799
 66
1
 10
0
 20
0
 30
0
  0
VERTEX
  8
LAYER_1
 10
102.3173
 20
297.7112
  0
VERTEX
  8
LAYER_1
 10
99.6795
 20
294.5987
  0
VERTEX
  8
LAYER_1
 10
103.5048
 20
295.9766
  0
SEQEND
  0
POLYLINE
  8
LAYER_1
 40
0.1799
 41
0.1799
 66
1
 10
0
 20
0
 30
0
  0
VERTEX
  8
LAYER_1
 10
114.6473
 20
305.0518
  0
VERTEX
  8
LAYER_1
 10
99.6797
 20
294.5987
  0
SEQEND
  0
POLYLINE
  8
LAYER_1
 40
0.05
 41
0.05
 66
1
 10
0
 20
0
 30
0
 70
1
  0
VERTEX
  8
LAYER_1
 10
0
 20
425.9997
  0
VERTEX
  8
LAYER_1
 10
302.9996
 20
425.9997
  0
VERTEX
  8
LAYER_1
 10
302.9996
 20
0
  0
VERTEX
  8
LAYER_1
 10
0
 20
0
  0
SEQEND
  0
ENDBLK
  0
BLOCK
  8
LAYER_1
  2
AIGNBL0101000D
 70
64
 10
0
 20
0
 30
0
  3
AIGNBL0101000D
  0
POLYLINE
  8
LAYER_1
 40
0.1799
 41
0.1799
 66
1
 10
0
 20
0
 30
0
  0
VERTEX
  8
LAYER_1
 10
69.6116
 20
234.0007
  0
VERTEX
  8
LAYER_1
 10
69.5696
 20
234.636
  0
VERTEX
  8
LAYER_1
 10
69.4214
 20
235.2499
 42
0.06982483188
  0
VERTEX
  8
LAYER_1
 10
68.8116
 20
236.3924
 42
0.06233103039
  0
VERTEX
  8
LAYER_1
 10
68.1146
 20
237.127
 42
0.2053434696
  0
VERTEX
  8
LAYER_1
 10
65.1016
 20
237.9741
 42
0.3044674831
  0
VERTEX
  8
LAYER_1
 10
61.6988
 20
234.8691
 42
0.009834278962
  0
VERTEX
  8
LAYER_1
 10
61.6526
 20
234.678
  0
VERTEX
  8
LAYER_1
 10
61.6105
 20
234.0434
  0
VERTEX
  8
LAYER_1
 10
61.6526
 20
233.4295
 42
0.07089919785
  0
VERTEX
  8
LAYER_1
 10
62.0426
 20
232.203
 42
0.06839843906
  0
VERTEX
  8
LAYER_1
 10
62.6434
 20
231.3095
 42
0.1309664069
  0
VERTEX
  8
LAYER_1
 10
64.321
 20
230.2161
 42
0.2270348426
  0
VERTEX
  8
LAYER_1
 10
67.8876
 20
230.6941
 42
0.1401255016
  0
VERTEX
  8
LAYER_1
 10
69.224
 20
232.3192
 42
0.05553115333
  0
VERTEX
  8
LAYER_1
 10
69.5269
 20
233.2814
  0
VERTEX
  8
LAYER_1
 10
69.6116
 20
233.8953
  0
VERTEX
  8
LAYER_1
 10
69.6116
 20
234.0007
  0
SEQEND
  0
POLYLINE
  8
LAYER_1
 40
0.1799
 41
0.1799
 66
1
 10
0
 20
0
 30
0
  0
VERTEX
  8
LAYER_1
 10
79.8773
 20
242.8484
  0
VERTEX
  8
LAYER_1
 10
82.2269
 20
245.6212
  0
VERTEX
  8
LAYER_1
 10
78.819
 20
244.3939
  0
SEQEND
  0
POLYLINE
  8
LAYER_1
 40
0.1799
 41
0.1799
 66
1
 10
0
 20
0
 30
0
  0
VERTEX
  8
LAYER_1
 10
68.8923
 20
236.3082
  0
VERTEX
  8
LAYER_1
 10
82.2269
 20
245.6212
  0
SEQEND
  0
POLYLINE
  8
LAYER_1
 40
0.05
 41
0.05
 66
1
 10
0
 20
0
 30
0
 70
1
  0
VERTEX
  8
LAYER_1
 10
0
 20
425.9997
  0
VERTEX
  8
LAYER_1
 10
302.9996
 20
425.9997
  0
VERTEX
  8
LAYER_1
 10
302.9996
 20
0
  0
VERTEX
  8
LAYER_1
 10
0
 20
0
  0
SEQEND
  0
ENDBLK
  0
BLOCK
  8
LAYER_1
  2
AIGNBL0101000E
 70
64
 10
0
 20
0
 30
0
  3
AIGNBL0101000E
  0
POLYLINE
  8
LAYER_1
 40
0.1799
 41
0.1799
 66
1
 10
0
 20
0
 30
0
 70
1
  0
VERTEX
  8
LAYER_1
 10
99.6153
 20
268.6382
  0
VERTEX
  8
LAYER_1
 10
94.6542
 20
268.6382
  0
VERTEX
  8
LAYER_1
 10
94.6542
 20
277.8327
  0
VERTEX
  8
LAYER_1
 10
99.6153
 20
277.8327
  0
SEQEND
  0
POLYLINE
  8
LAYER_1
 40
0.1799
 41
0.1799
 66
1
 10
0
 20
0
 30
0
 70
1
  0
VERTEX
  8
LAYER_1
 10
93.5405
 20
266.1863
  0
VERTEX
  8
LAYER_1
 10
93.5405
 20
277.8325
  0
VERTEX
  8
LAYER_1
 10
100.7668
 20
277.8325
  0
VERTEX
  8
LAYER_1
 10
100.7668
 20
266.1863
  0
VERTEX
  8
LAYER_1
 10
109.9352
 20
266.1863
  0
VERTEX
  8
LAYER_1
 10
109.9352
 20
265.4536
  0
VERTEX
  8
LAYER_1
 10
84.334
 20
265.4536
  0
VERTEX
  8
LAYER_1
 10
84.334
 20
266.1863
  0
SEQEND
  0
POLYLINE
  8
LAYER_1
 40
0.05
 41
0.05
 66
1
 10
0
 20
0
 30
0
 70
1
  0
VERTEX
  8
LAYER_1
 10
0
 20
425.9997
  0
VERTEX
  8
LAYER_1
 10
302.9996
 20
425.9997
  0
VERTEX
  8
LAYER_1
 10
302.9996
 20
0
  0
VERTEX
  8
LAYER_1
 10
0
 20
0
  0
SEQEND
  0
ENDBLK
  0
BLOCK
  8
LAYER_1
  2
AIGNBL0101000F
 70
64
 10
0
 20
0
 30
0
  3
AIGNBL0101000F
  0
INSERT
  8
LAYER_1
  2
AIGNBL01020010
 10
0
 20
0
 30
0
  0
INSERT
  8
LAYER_1
  2
AIGNBL01020019
 10
0
 20
0
 30
0
  0
ENDBLK
  0
ENDSEC
  0
SECTION
  2
ENTITIES
  0
INSERT
  8
LAYER_1
  2
AIGNBL01010002
 10
0
 20
0
 30
0
  0
POLYLINE
  8
LAYER_1
 40
0.3528
 41
0.3528
 66
1
 10
0
 20
0
 30
0
 70
1
  0
VERTEX
  8
LAYER_1
 10
292.9103
 20
10.6064
  0
VERTEX
  8
LAYER_1
 10
9.6301
 20
10.6064
  0
VERTEX
  8
LAYER_1
 10
9.6301
 20
416.8042
  0
VERTEX
  8
LAYER_1
 10
292.9103
 20
416.8042
  0
SEQEND
  0
POLYLINE
  8
LAYER_1
 40
0.3528
 41
0.3528
 66
1
 10
0
 20
0
 30
0
  0
VERTEX
  8
LAYER_1
 10
9.6302
 20
110.086
  0
VERTEX
  8
LAYER_1
 10
292.9103
 20
110.086
  0
SEQEND
  0
POLYLINE
  8
LAYER_1
 40
0.3528
 41
0.3528
 66
1
 10
0
 20
0
 30
0
  0
VERTEX
  8
LAYER_1
 10
182.5649
 20
110.086
  0
VERTEX
  8
LAYER_1
 10
182.5649
 20
10.6064
  0
SEQEND
  0
POLYLINE
  8
LAYER_1
 40
0.3528
 41
0.3528
 66
1
 10
0
 20
0
 30
0
  0
VERTEX
  8
LAYER_1
 10
9.6302
 20
97.7894
  0
VERTEX
  8
LAYER_1
 10
182.5646
 20
97.7894
  0
SEQEND
  0
POLYLINE
  8
LAYER_1
 40
0.3528
 41
0.3528
 66
1
 10
0
 20
0
 30
0
  0
VERTEX
  8
LAYER_1
 10
9.6302
 20
85.3498
  0
VERTEX
  8
LAYER_1
 10
292.9103
 20
85.3498
  0
SEQEND
  0
POLYLINE
  8
LAYER_1
 40
0.3528
 41
0.3528
 66
1
 10
0
 20
0
 30
0
  0
VERTEX
  8
LAYER_1
 10
9.6302
 20
72.9099
  0
VERTEX
  8
LAYER_1
 10
292.9103
 20
72.9099
  0
SEQEND
  0
POLYLINE
  8
LAYER_1
 40
0.3528
 41
0.3528
 66
1
 10
0
 20
0
 30
0
  0
VERTEX
  8
LAYER_1
 10
9.6302
 20
60.4704
  0
VERTEX
  8
LAYER_1
 10
182.5646
 20
60.4704
  0
SEQEND
  0
POLYLINE
  8
LAYER_1
 40
0.3528
 41
0.3528
 66
1
 10
0
 20
0
 30
0
  0
VERTEX
  8
LAYER_1
 10
9.6302
 20
48.0308
  0
VERTEX
  8
LAYER_1
 10
292.9103
 20
48.0308
  0
SEQEND
  0
POLYLINE
  8
LAYER_1
 40
0.3528
 41
0.3528
 66
1
 10
0
 20
0
 30
0
  0
VERTEX
  8
LAYER_1
 10
9.6302
 20
35.5909
  0
VERTEX
  8
LAYER_1
 10
182.5646
 20
35.5909
  0
SEQEND
  0
POLYLINE
  8
LAYER_1
 40
0.3528
 41
0.3528
 66
1
 10
0
 20
0
 30
0
  0
VERTEX
  8
LAYER_1
 10
9.6302
 20
23.1514
  0
VERTEX
  8
LAYER_1
 10
182.5646
 20
23.1514
  0
SEQEND
  0
POLYLINE
  8
LAYER_1
 40
0.3528
 41
0.3528
 66
1
 10
0
 20
0
 30
0
  0
VERTEX
  8
LAYER_1
 10
31.2231
 20
110.086
  0
VERTEX
  8
LAYER_1
 10
31.2231
 20
10.6064
  0
SEQEND
  0
POLYLINE
  8
LAYER_1
 40
0.3528
 41
0.3528
 66
1
 10
0
 20
0
 30
0
  0
VERTEX
  8
LAYER_1
 10
80.2411
 20
110.086
  0
VERTEX
  8
LAYER_1
 10
80.2411
 20
10.6064
  0
SEQEND
  0
POLYLINE
  8
LAYER_1
 40
0.3528
 41
0.3528
 66
1
 10
0
 20
0
 30
0
  0
VERTEX
  8
LAYER_1
 10
118.8517
 20
110.0863
  0
VERTEX
  8
LAYER_1
 10
118.8517
 20
10.6064
  0
SEQEND
  0
POLYLINE
  8
LAYER_1
 40
0.3528
 41
0.3528
 66
1
 10
0
 20
0
 30
0
  0
VERTEX
  8
LAYER_1
 10
137.9079
 20
110.086
  0
VERTEX
  8
LAYER_1
 10
137.9079
 20
10.6061
  0
SEQEND
  0
TEXT
  8
LAYER_1
 10
45.8277
 20
14.1304
 11
45.8277
 21
14.1304
 40
6.2324
 41
0.5
  1
部品名
  0
TEXT
  8
LAYER_1
 10
15.134
 20
14.1304
 11
15.134
 21
14.1304
 40
6.2324
 41
0.5
  1
部番
  0
TEXT
  8
LAYER_1
 10
93.2958
 20
14.1304
 11
93.2958
 21
14.1304
 40
6.2324
 41
0.5
  1
材質
  0
TEXT
  8
LAYER_1
 10
122.4781
 20
14.1304
 11
122.4781
 21
14.1304
 40
6.2324
 41
0.5
  1
数量
  0
TEXT
  8
LAYER_1
 10
153.8618
 20
14.1304
 11
153.8618
 21
14.1304
 40
6.2324
 41
0.5
  1
摘要
  0
TEXT
  8
LAYER_1
 10
18.4564
 20
63.9975
 11
18.4564
 21
63.9975
 40
7.105
 41
0.5
  1
4
  0
TEXT
  8
LAYER_1
 10
18.4564
 20
52.0871
 11
18.4564
 21
52.0871
 40
7.105
 41
0.5
  1
3
  0
TEXT
  8
LAYER_1
 10
18.4564
 20
39.1328
 11
18.4564
 21
39.1328
 40
7.105
 41
0.5
  1
2
  0
TEXT
  8
LAYER_1
 10
18.4564
 20
26.9344
 11
18.4564
 21
26.9344
 40
7.105
 41
0.5
  1
1
  0
TEXT
  8
LAYER_1
 10
18.4564
 20
75.7701
 11
18.4564
 21
75.7701
 40
7.105
 41
0.5
  1
5
  0
TEXT
  8
LAYER_1
 10
33.8272
 20
26.4067
 11
33.8272
 21
26.4067
 40
6.2324
 41
0.5
  1
コード
  0
TEXT
  8
LAYER_1
 10
33.8272
 20
39.3068
 11
33.8272
 21
39.3068
 40
6.2324
 41
0.5
  1
中間スイッチ
  0
TEXT
  8
LAYER_1
 10
33.8272
 20
51.9069
 11
33.8272
 21
51.9069
 40
6.2324
 41
0.5
  1
ソケットカバー
  0
TEXT
  8
LAYER_1
 10
33.8272
 20
64.5191
 11
33.8272
 21
64.5191
 40
6.2324
 41
0.5
  1
ソケット
  0
TEXT
  8
LAYER_1
 10
33.8272
 20
101.4202
 11
33.8272
 21
101.4202
 40
6.2324
 41
0.5
  1
ランプ
  0
TEXT
  8
LAYER_1
 10
18.4564
 20
89.1198
 11
18.4564
 21
89.1198
 40
7.105
 41
0.5
  1
6
  0
TEXT
  8
LAYER_1
 10
18.4564
 20
100.8862
 11
18.4564
 21
100.8862
 40
7.105
 41
0.5
  1
7
  0
TEXT
  8
LAYER_1
 10
126.1065
 20
26.9286
 11
126.1065
 21
26.9286
 40
7.105
 41
0.5
  1
1
  0
TEXT
  8
LAYER_1
 10
126.1065
 20
39.127
 11
126.1065
 21
39.127
 40
7.105
 41
0.5
  1
1
  0
TEXT
  8
LAYER_1
 10
126.1065
 20
52.0809
 11
126.1065
 21
52.0809
 40
7.105
 41
0.5
  1
1
  0
TEXT
  8
LAYER_1
 10
126.1065
 20
64.3392
 11
126.1065
 21
64.3392
 40
7.105
 41
0.5
  1
1
  0
TEXT
  8
LAYER_1
 10
126.1065
 20
75.7639
 11
126.1065
 21
75.7639
 40
7.105
 41
0.5
  1
1
  0
TEXT
  8
LAYER_1
 10
126.1065
 20
89.1198
 11
126.1065
 21
89.1198
 40
7.105
 41
0.5
  1
1
  0
TEXT
  8
LAYER_1
 10
126.1065
 20
101.0664
 11
126.1065
 21
101.0664
 40
7.105
 41
0.5
  1
1
  0
TEXT
  8
LAYER_1
 10
92.3062
 20
39.3068
 11
92.3062
 21
39.3068
 40
6.2324
 41
0.5
  1
樹脂
  0
TEXT
  8
LAYER_1
 10
92.456
 20
64.1652
 11
92.456
 21
64.1652
 40
6.2324
 41
0.5
  1
樹脂
  0
TEXT
  8
LAYER_1
 10
89.0617
 20
75.9437
 11
89.0617
 21
75.9437
 40
6.2324
 41
0.5
  1
ガラス
  0
TEXT
  8
LAYER_1
 10
154.9773
 20
63.9854
 11
154.9773
 21
63.9854
 40
7.105
 41
0.5
  1
E26
  0
TEXT
  8
LAYER_1
 10
187.5434
 20
64.8798
 11
187.5434
 21
64.8798
 40
4.766
 41
0.5
  1
品番
  0
TEXT
  8
LAYER_1
 10
197.8511
 20
53.0217
 11
197.8511
 21
53.0217
 40
12.5382
 41
0.5
  1
BRO-PC849
  0
TEXT
  8
LAYER_1
 10
187.5434
 20
101.4284
 11
187.5434
 21
101.4284
 40
4.766
 41
0.5
  1
適合ランプ
  0
TEXT
  8
LAYER_1
 10
206.3853
 20
89.4033
 11
206.3853
 21
89.4033
 40
7.105
 41
0.5
  1
Edison Bull SIGNATURE(S)
  0
TEXT
  8
LAYER_1
 10
187.5434
 20
76.2076
 11
187.5434
 21
76.2076
 40
4.766
 41
0.5
  1
定格
  0
TEXT
  8
LAYER_1
 10
206.3853
 20
75.8259
 11
206.3853
 21
75.8259
 40
7.105
 41
0.5
  1
白熱電球100V 40W E26
  0
TEXT
  8
LAYER_1
 10
155.5051
 20
26.2351
 11
155.5051
 21
26.2351
 40
7.105
 41
0.5
  1
2m
  0
TEXT
  8
LAYER_1
 10
156.8666
 20
39.3147
 11
156.8666
 21
39.3147
 40
6.2324
 41
0.5
  1
黒
  0
TEXT
  8
LAYER_1
 10
203.107
 20
197.2217
 11
203.107
 21
197.2217
 40
6.2324
 41
0.5
  1
安全に関するご注意
  0
TEXT
  8
LAYER_1
 10
182.6045
 20
184.6661
 11
182.6045
 21
184.6661
 40
4.766
 41
0.5
  1
不安定な場所で使用しないでください。
  0
TEXT
  8
LAYER_1
 10
182.6045
 20
176.6404
 11
182.6045
 21
176.6404
 40
4.766
 41
0.5
  1
屋内用器具です。屋内や水気、湿気のある所では
  0
TEXT
  8
LAYER_1
 10
182.6045
 20
168.6147
 11
182.6045
 21
168.6147
 40
4.766
 41
0.5
  1
使用しないでください。
  0
TEXT
  8
LAYER_1
 10
182.6045
 20
160.589
 11
182.6045
 21
160.589
 40
4.766
 41
0.5
  1
カーテンの近くや天井と接近させて使用しない
  0
TEXT
  8
LAYER_1
 10
182.6045
 20
152.5633
 11
182.6045
 21
152.5633
 40
4.766
 41
0.5
  1
でください。
  0
TEXT
  8
LAYER_1
 10
182.6045
 20
144.5376
 11
182.6045
 21
144.5376
 40
4.766
 41
0.5
  1
火災の原因となります。
  0
TEXT
  8
LAYER_1
 10
182.6045
 20
136.5119
 11
182.6045
 21
136.5119
 40
4.766
 41
0.5
  1
必ず電源を切ってランプ交換をしてください。
  0
TEXT
  8
LAYER_1
 10
182.6045
 20
128.4862
 11
182.6045
 21
128.4862
 40
4.766
 41
0.5
  1
点灯中や消灯直後のランプに触れないでください。
  0
TEXT
  8
LAYER_1
 10
182.6045
 20
120.4605
 11
182.6045
 21
120.4605
 40
4.766
 41
0.5
  1
やけどの原因となります。
  0
TEXT
  8
LAYER_1
 10
176.5188
 20
184.6661
 11
176.5188
 21
184.6661
 40
4.766
 41
0.5
  1
・
  0
TEXT
  8
LAYER_1
 10
176.5188
 20
176.7045
 11
176.5188
 21
176.7045
 40
4.766
 41
0.5
  1
・
  0
TEXT
  8
LAYER_1
 10
176.5188
 20
161.1805
 11
176.5188
 21
161.1805
 40
4.766
 41
0.5
  1
・
  0
TEXT
  8
LAYER_1
 10
176.5188
 20
128.7246
 11
176.5188
 21
128.7246
 40
4.766
 41
0.5
  1
・
  0
TEXT
  8
LAYER_1
 10
176.5188
 20
145.1474
 11
176.5188
 21
145.1474
 40
4.766
 41
0.5
  1
・
  0
POLYLINE
  8
LAYER_1
 40
0.3528
 41
0.3528
 66
1
 10
0
 20
0
 30
0
 70
1
  0
VERTEX
  8
LAYER_1
 10
174.45
 20
204.3686
  0
VERTEX
  8
LAYER_1
 10
287.3389
 20
204.3686
  0
VERTEX
  8
LAYER_1
 10
287.3389
 20
116.0825
  0
VERTEX
  8
LAYER_1
 10
174.45
 20
116.0825
  0
SEQEND
  0
POLYLINE
  8
LAYER_1
 40
0.3528
 41
0.3528
 66
1
 10
0
 20
0
 30
0
  0
VERTEX
  8
LAYER_1
 10
174.686
 20
193.0166
  0
VERTEX
  8
LAYER_1
 10
287.5749
 20
193.0166
  0
SEQEND
  0
TEXT
  8
LAYER_1
 10
33.8336
 20
76.2072
 11
33.8336
 21
76.2072
 40
6.2324
 41
0.5
  1
シェード
  0
TEXT
  8
LAYER_1
 10
33.8336
 20
89.311
 11
33.8336
 21
89.311
 40
6.2324
 41
0.5
  1
ベース
  0
TEXT
  8
LAYER_1
 10
94.5794
 20
89.311
 11
94.5794
 21
89.311
 40
6.2324
 41
0.5
  1
木
  0
INSERT
  8
LAYER_1
  2
AIGNBL01010004
 10
0
 20
0
 30
0
  0
TEXT
  8
LAYER_1
 10
60.0454
 20
166.1807
 11
60.0454
 21
166.1807
 40
7.9409
 41
0.5
  1
1
  0
INSERT
  8
LAYER_1
  2
AIGNBL01010005
 10
0
 20
0
 30
0
  0
TEXT
  8
LAYER_1
 10
75.7781
 20
164.1626
 11
75.7781
 21
164.1626
 40
7.9409
 41
0.5
  1
2
  0
INSERT
  8
LAYER_1
  2
AIGNBL01010006
 10
0
 20
0
 30
0
  0
TEXT
  8
LAYER_1
 10
161.577
 20
278.3971
 11
161.577
 21
278.3971
 40
12.7413
 41
0.5
 50
89.99999999
  1
346
  0
TEXT
  8
LAYER_1
 10
87.6029
 20
225.1513
 11
87.6029
 21
225.1513
 40
12.7414
 41
0.5
  1
190
  0
TEXT
  8
LAYER_1
 10
87.7965
 20
343.4121
 11
87.7965
 21
343.4121
 40
12.7414
 41
0.5
  1
370
  0
TEXT
  8
LAYER_1
 10
38.0759
 20
294.4776
 11
38.0759
 21
294.4776
 40
12.7413
 41
0.5
 50
89.99999999
  1
206
  0
INSERT
  8
LAYER_1
  2
AIGNBL01010008
 10
0
 20
0
 30
0
  0
TEXT
  8
LAYER_1
 10
55.8093
 20
241.1017
 11
55.8093
 21
241.1017
 40
8.9127
 41
0.5
  1
3
  0
INSERT
  8
LAYER_1
  2
AIGNBL0101000A
 10
0
 20
0
 30
0
  0
TEXT
  8
LAYER_1
 10
137.6869
 20
261.3668
 11
137.6869
 21
261.3668
 40
8.9127
 41
0.5
  1
4
  0
INSERT
  8
LAYER_1
  2
AIGNBL0101000B
 10
0
 20
0
 30
0
  0
TEXT
  8
LAYER_1
 10
152.2674
 20
331.5674
 11
152.2674
 21
331.5674
 40
8.9127
 41
0.5
  1
5
  0
INSERT
  8
LAYER_1
  2
AIGNBL0101000C
 10
0
 20
0
 30
0
  0
TEXT
  8
LAYER_1
 10
115.9189
 20
303.3043
 11
115.9189
 21
303.3043
 40
8.9127
 41
0.5
  1
7
  0
INSERT
  8
LAYER_1
  2
AIGNBL0101000D
 10
0
 20
0
 30
0
  0
TEXT
  8
LAYER_1
 10
63.6862
 20
231.2157
 11
63.6862
 21
231.2157
 40
7.9409
 41
0.5
  1
6
  0
INSERT
  8
LAYER_1
  2
AIGNBL0101000E
 10
0
 20
0
 30
0
  0
TEXT
  8
LAYER_1
 10
187.6051
 20
22.2167
 11
187.6051
 21
22.2167
 40
5.2209
 41
0.5
  1
●TEL 0120-65-1232●FAX 06-6532-1580
  0
TEXT
  8
LAYER_1
 10
187.6051
 20
16.7962
 11
187.6051
 21
16.7962
 40
5.2209
 41
0.5
  1
hits@hiratatile.co.jp
  0
INSERT
  8
LAYER_1
  2
AIGNBL0101000F
 10
0
 20
0
 30
0
  0
ENDSEC
  0
EOF
