  0
SECTION
  2
HEADER
  9
$ACADVER
  1
AC1009
  9
$LUNITS
 70
2
  9
$LUPREC
 70
4
  9
$LTSCALE
 40
1.0
  9
$EXTMIN
 10
0
 20
0
 30
0
  9
$EXTMAX
 10
302.9996
 20
425.9997
 30
0
  0
ENDSEC
  0
SECTION
  2
TABLES
  0
TABLE
  2
LTYPE
 70
256
  0
ENDTAB
  0
TABLE
  2
LAYER
 70
1
  0
LAYER
  2
LAYER_1
 70
64
 62
7
  6
CONTINUOUS
  0
ENDTAB
  0
TABLE
  2
STYLE
 70
6
  0
STYLE
  2
STANDARD
 70
0
 40
0
 50
0
 71
0
 41
0
 42
0
  3
TXT
  4
BIGFONT
  0
ENDTAB
  0
ENDSEC
  0
SECTION
  2
BLOCKS
  0
BLOCK
  8
LAYER_1
  2
AIGNBL01040013
 70
64
 10
0
 20
0
 30
0
  3
AIGNBL01040013
  0
POLYLINE
  8
LAYER_1
 40
0.05
 41
0.05
 66
1
 10
0
 20
0
 30
0
 70
1
  0
VERTEX
  8
LAYER_1
 10
189.7159
 20
37.4379
  0
VERTEX
  8
LAYER_1
 10
188.9618
 20
35.6106
  0
VERTEX
  8
LAYER_1
 10
187.9933
 20
35.6106
  0
VERTEX
  8
LAYER_1
 10
190.46
 20
41.4183
  0
VERTEX
  8
LAYER_1
 10
191.5907
 20
41.4183
  0
VERTEX
  8
LAYER_1
 10
194.0684
 20
35.6106
  0
VERTEX
  8
LAYER_1
 10
193.0656
 20
35.6106
  0
VERTEX
  8
LAYER_1
 10
192.2904
 20
37.4379
  0
SEQEND
  0
POLYLINE
  8
LAYER_1
 40
0.05
 41
0.05
 66
1
 10
0
 20
0
 30
0
 70
1
  0
VERTEX
  8
LAYER_1
 10
192.0965
 20
38.0221
  0
VERTEX
  8
LAYER_1
 10
191.3857
 20
39.6958
 42
-0.02513131823
  0
VERTEX
  8
LAYER_1
 10
191.0085
 20
40.7548
  0
VERTEX
  8
LAYER_1
 10
190.9871
 20
40.7548
 42
-0.01987978422
  0
VERTEX
  8
LAYER_1
 10
190.6206
 20
39.7027
  0
VERTEX
  8
LAYER_1
 10
189.9102
 20
38.0221
  0
SEQEND
  0
ENDBLK
  0
BLOCK
  8
LAYER_1
  2
AIGNBL01040014
 70
64
 10
0
 20
0
 30
0
  3
AIGNBL01040014
  0
POLYLINE
  8
LAYER_1
 40
0.05
 41
0.05
 66
1
 10
0
 20
0
 30
0
 70
1
  0
VERTEX
  8
LAYER_1
 10
200.8005
 20
34.7569
 42
-0.01511615515
  0
VERTEX
  8
LAYER_1
 10
198.0213
 20
35.4294
 42
0.08496266682
  0
VERTEX
  8
LAYER_1
 10
197.579
 20
35.5155
 42
-0.07479382015
  0
VERTEX
  8
LAYER_1
 10
196.3527
 20
35.7331
 42
-0.07802930261
  0
VERTEX
  8
LAYER_1
 10
195.446
 20
36.2123
 42
-0.08253532117
  0
VERTEX
  8
LAYER_1
 10
194.8337
 20
36.8618
 42
-0.08518229749
  0
VERTEX
  8
LAYER_1
 10
194.4742
 20
37.6771
 42
-0.06334345601
  0
VERTEX
  8
LAYER_1
 10
194.3806
 20
38.4528
 42
-0.08542750401
  0
VERTEX
  8
LAYER_1
 10
194.5621
 20
39.5373
 42
-0.2023979593
  0
VERTEX
  8
LAYER_1
 10
196.0738
 20
41.1615
 42
-0.07335074942
  0
VERTEX
  8
LAYER_1
 10
197.0973
 20
41.4642
 42
-0.037292865
  0
VERTEX
  8
LAYER_1
 10
197.763
 20
41.5127
 42
-0.07558804749
  0
VERTEX
  8
LAYER_1
 10
198.9894
 20
41.3329
 42
-0.07835396487
  0
VERTEX
  8
LAYER_1
 10
199.8747
 20
40.8932
 42
-0.1260247297
  0
VERTEX
  8
LAYER_1
 10
200.7401
 20
39.856
 42
-0.0782405393
  0
VERTEX
  8
LAYER_1
 10
200.9875
 20
39.0049
 42
-0.03297808671
  0
VERTEX
  8
LAYER_1
 10
201.0155
 20
38.574
 42
-0.08289425989
  0
VERTEX
  8
LAYER_1
 10
200.8429
 20
37.5008
 42
-0.08683618698
  0
VERTEX
  8
LAYER_1
 10
200.3994
 20
36.7059
 42
-0.08480971924
  0
VERTEX
  8
LAYER_1
 10
199.7326
 20
36.128
 42
-0.07064783295
  0
VERTEX
  8
LAYER_1
 10
198.9477
 20
35.7911
  0
VERTEX
  8
LAYER_1
 10
198.9477
 20
35.7566
 42
0.0147523067
  0
VERTEX
  8
LAYER_1
 10
201.0702
 20
35.386
  0
SEQEND
  0
POLYLINE
  8
LAYER_1
 40
0.05
 41
0.05
 66
1
 10
0
 20
0
 30
0
 70
1
  0
VERTEX
  8
LAYER_1
 10
200.0253
 20
38.541
 42
0.09294016112
  0
VERTEX
  8
LAYER_1
 10
199.8454
 20
39.5024
 42
0.09187317272
  0
VERTEX
  8
LAYER_1
 10
199.4003
 20
40.2182
 42
0.1947450502
  0
VERTEX
  8
LAYER_1
 10
197.9413
 20
40.8931
 42
0.01946782978
  0
VERTEX
  8
LAYER_1
 10
197.7299
 20
40.9009
 42
0.09478511939
  0
VERTEX
  8
LAYER_1
 10
196.7496
 20
40.7217
 42
0.2440881105
  0
VERTEX
  8
LAYER_1
 10
195.4658
 20
39.1907
 42
0.064145877
  0
VERTEX
  8
LAYER_1
 10
195.382
 20
38.4721
 42
0.09461046417
  0
VERTEX
  8
LAYER_1
 10
195.551
 20
37.534
 42
0.09419437463
  0
VERTEX
  8
LAYER_1
 10
195.9995
 20
36.8169
 42
0.1408130452
  0
VERTEX
  8
LAYER_1
 10
197.0166
 20
36.2116
 42
0.06669548607
  0
VERTEX
  8
LAYER_1
 10
197.6872
 20
36.126
 42
0.09216033459
  0
VERTEX
  8
LAYER_1
 10
198.6293
 20
36.2944
 42
0.2420223282
  0
VERTEX
  8
LAYER_1
 10
199.9304
 20
37.7971
 42
0.06603876651
  0
SEQEND
  0
ENDBLK
  0
BLOCK
  8
LAYER_1
  2
AIGNBL01040015
 70
64
 10
0
 20
0
 30
0
  3
AIGNBL01040015
  0
POLYLINE
  8
LAYER_1
 40
0.05
 41
0.05
 66
1
 10
0
 20
0
 30
0
 70
1
  0
VERTEX
  8
LAYER_1
 10
203.0629
 20
41.4183
  0
VERTEX
  8
LAYER_1
 10
203.0629
 20
37.9801
 42
0.09353123773
  0
VERTEX
  8
LAYER_1
 10
203.2236
 20
37.055
 42
0.1122452342
  0
VERTEX
  8
LAYER_1
 10
203.6027
 20
36.5102
 42
0.1179417588
  0
VERTEX
  8
LAYER_1
 10
204.1976
 20
36.196
 42
0.06800355252
  0
VERTEX
  8
LAYER_1
 10
204.7537
 20
36.126
 42
0.1038218017
  0
VERTEX
  8
LAYER_1
 10
205.6407
 20
36.2973
 42
0.1169361545
  0
VERTEX
  8
LAYER_1
 10
206.1497
 20
36.6926
 42
0.112945955
  0
VERTEX
  8
LAYER_1
 10
206.4497
 20
37.3321
 42
0.06116440932
  0
VERTEX
  8
LAYER_1
 10
206.5204
 20
37.9801
  0
VERTEX
  8
LAYER_1
 10
206.5204
 20
41.4183
  0
VERTEX
  8
LAYER_1
 10
207.4681
 20
41.4183
  0
VERTEX
  8
LAYER_1
 10
207.4681
 20
38.0318
 42
-0.08655207844
  0
VERTEX
  8
LAYER_1
 10
207.2963
 20
36.9778
 42
-0.09649545994
  0
VERTEX
  8
LAYER_1
 10
206.8793
 20
36.2896
 42
-0.1004107627
  0
VERTEX
  8
LAYER_1
 10
206.1985
 20
35.8011
 42
-0.08189431622
  0
VERTEX
  8
LAYER_1
 10
205.2566
 20
35.5462
 42
-0.02973281319
  0
VERTEX
  8
LAYER_1
 10
204.7214
 20
35.5155
 42
-0.07964784669
  0
VERTEX
  8
LAYER_1
 10
203.5708
 20
35.6869
 42
-0.09129651749
  0
VERTEX
  8
LAYER_1
 10
202.8606
 20
36.0813
 42
-0.150799352
  0
VERTEX
  8
LAYER_1
 10
202.2374
 20
37.0672
 42
-0.07483297072
  0
VERTEX
  8
LAYER_1
 10
202.1148
 20
37.9973
  0
VERTEX
  8
LAYER_1
 10
202.1148
 20
41.4183
  0
SEQEND
  0
ENDBLK
  0
BLOCK
  8
LAYER_1
  2
AIGNBL01040016
 70
64
 10
0
 20
0
 30
0
  3
AIGNBL01040016
  0
POLYLINE
  8
LAYER_1
 40
0.05
 41
0.05
 66
1
 10
0
 20
0
 30
0
 70
1
  0
VERTEX
  8
LAYER_1
 10
210.1615
 20
37.4379
  0
VERTEX
  8
LAYER_1
 10
209.407
 20
35.6106
  0
VERTEX
  8
LAYER_1
 10
208.4386
 20
35.6106
  0
VERTEX
  8
LAYER_1
 10
210.9046
 20
41.4183
  0
VERTEX
  8
LAYER_1
 10
212.0353
 20
41.4183
  0
VERTEX
  8
LAYER_1
 10
214.513
 20
35.6106
  0
VERTEX
  8
LAYER_1
 10
213.5112
 20
35.6106
  0
VERTEX
  8
LAYER_1
 10
212.736
 20
37.4379
  0
SEQEND
  0
POLYLINE
  8
LAYER_1
 40
0.05
 41
0.05
 66
1
 10
0
 20
0
 30
0
 70
1
  0
VERTEX
  8
LAYER_1
 10
212.5417
 20
38.0221
  0
VERTEX
  8
LAYER_1
 10
211.8303
 20
39.6958
 42
-0.02425369923
  0
VERTEX
  8
LAYER_1
 10
211.4531
 20
40.7548
  0
VERTEX
  8
LAYER_1
 10
211.4317
 20
40.7548
 42
-0.02025309467
  0
VERTEX
  8
LAYER_1
 10
211.0658
 20
39.7027
  0
VERTEX
  8
LAYER_1
 10
210.3548
 20
38.0221
  0
SEQEND
  0
ENDBLK
  0
BLOCK
  8
LAYER_1
  2
AIGNBL01040017
 70
64
 10
0
 20
0
 30
0
  3
AIGNBL01040017
  0
POLYLINE
  8
LAYER_1
 40
0.05
 41
0.05
 66
1
 10
0
 20
0
 30
0
 70
1
  0
VERTEX
  8
LAYER_1
 10
216.1177
 20
41.3487
 42
-0.03377004837
  0
VERTEX
  8
LAYER_1
 10
217.9174
 20
41.4617
 42
-0.06715871709
  0
VERTEX
  8
LAYER_1
 10
219.2753
 20
41.2954
 42
-0.08064624059
  0
VERTEX
  8
LAYER_1
 10
219.9528
 20
40.9794
 42
-0.1248529956
  0
VERTEX
  8
LAYER_1
 10
220.4351
 20
40.4328
 42
-0.1169517619
  0
VERTEX
  8
LAYER_1
 10
220.5877
 20
39.7754
 42
-0.00183438106
  0
VERTEX
  8
LAYER_1
 10
220.5877
 20
39.7633
 42
-0.1180374437
  0
VERTEX
  8
LAYER_1
 10
220.4127
 20
38.9922
 42
-0.103634684
  0
VERTEX
  8
LAYER_1
 10
220.0279
 20
38.5237
 42
-0.09997740243
  0
VERTEX
  8
LAYER_1
 10
219.2331
 20
38.0936
 42
-0.06912129152
  0
VERTEX
  8
LAYER_1
 10
218.1264
 20
37.8945
 42
-0.0147615364
  0
VERTEX
  8
LAYER_1
 10
217.8089
 20
37.8857
 42
-0.05238395079
  0
VERTEX
  8
LAYER_1
 10
217.0555
 20
37.9367
  0
VERTEX
  8
LAYER_1
 10
217.0555
 20
35.6106
  0
VERTEX
  8
LAYER_1
 10
216.1177
 20
35.6106
  0
SEQEND
  0
POLYLINE
  8
LAYER_1
 40
0.05
 41
0.05
 66
1
 10
0
 20
0
 30
0
 70
1
  0
VERTEX
  8
LAYER_1
 10
217.0555
 20
38.5492
 42
0.05317186326
  0
VERTEX
  8
LAYER_1
 10
217.8303
 20
38.4886
 42
0.08788956177
  0
VERTEX
  8
LAYER_1
 10
218.8677
 20
38.6551
 42
0.1189092167
  0
VERTEX
  8
LAYER_1
 10
219.4067
 20
39.0214
 42
0.1837788025
  0
VERTEX
  8
LAYER_1
 10
219.6517
 20
39.7288
 42
0.1524675076
  0
VERTEX
  8
LAYER_1
 10
219.4807
 20
40.3083
 42
0.1368008988
  0
VERTEX
  8
LAYER_1
 10
219.0336
 20
40.667
 42
0.05022340939
  0
VERTEX
  8
LAYER_1
 10
218.6817
 20
40.7877
 42
0.0609315191
  0
VERTEX
  8
LAYER_1
 10
217.9392
 20
40.8664
 42
0.04661709921
  0
VERTEX
  8
LAYER_1
 10
217.0555
 20
40.8058
  0
SEQEND
  0
ENDBLK
  0
BLOCK
  8
LAYER_1
  2
AIGNBL01040018
 70
64
 10
0
 20
0
 30
0
  3
AIGNBL01040018
  0
POLYLINE
  8
LAYER_1
 40
0.05
 41
0.05
 66
1
 10
0
 20
0
 30
0
 70
1
  0
VERTEX
  8
LAYER_1
 10
222.9814
 20
40.9525
 42
-0.2456446297
  0
VERTEX
  8
LAYER_1
 10
222.8195
 20
40.619
 42
-0.1752673778
  0
VERTEX
  8
LAYER_1
 10
222.3771
 20
40.4875
 42
-0.1918034087
  0
VERTEX
  8
LAYER_1
 10
221.9303
 20
40.6558
 42
-0.1947972441
  0
VERTEX
  8
LAYER_1
 10
221.8059
 20
40.9525
 42
-0.2325550858
  0
VERTEX
  8
LAYER_1
 10
221.9778
 20
41.2934
 42
-0.1734640768
  0
VERTEX
  8
LAYER_1
 10
222.3985
 20
41.4259
 42
-0.1899155107
  0
VERTEX
  8
LAYER_1
 10
222.855
 20
41.2604
 42
-0.1983713186
  0
SEQEND
  0
POLYLINE
  8
LAYER_1
 40
0.05
 41
0.05
 66
1
 10
0
 20
0
 30
0
 70
1
  0
VERTEX
  8
LAYER_1
 10
221.9241
 20
35.6106
  0
VERTEX
  8
LAYER_1
 10
221.9241
 20
39.7805
  0
VERTEX
  8
LAYER_1
 10
222.8718
 20
39.7805
  0
VERTEX
  8
LAYER_1
 10
222.8718
 20
35.6106
  0
SEQEND
  0
ENDBLK
  0
BLOCK
  8
LAYER_1
  2
AIGNBL01040019
 70
64
 10
0
 20
0
 30
0
  3
AIGNBL01040019
  0
POLYLINE
  8
LAYER_1
 40
0.05
 41
0.05
 66
1
 10
0
 20
0
 30
0
 70
1
  0
VERTEX
  8
LAYER_1
 10
225.7585
 20
37.4379
  0
VERTEX
  8
LAYER_1
 10
225.0054
 20
35.6106
  0
VERTEX
  8
LAYER_1
 10
224.0352
 20
35.6106
  0
VERTEX
  8
LAYER_1
 10
226.5023
 20
41.4183
  0
VERTEX
  8
LAYER_1
 10
227.634
 20
41.4183
  0
VERTEX
  8
LAYER_1
 10
230.1114
 20
35.6106
  0
VERTEX
  8
LAYER_1
 10
229.1092
 20
35.6106
  0
VERTEX
  8
LAYER_1
 10
228.334
 20
37.4379
  0
SEQEND
  0
POLYLINE
  8
LAYER_1
 40
0.05
 41
0.05
 66
1
 10
0
 20
0
 30
0
 70
1
  0
VERTEX
  8
LAYER_1
 10
228.1397
 20
38.0221
  0
VERTEX
  8
LAYER_1
 10
227.4287
 20
39.6958
 42
-0.02597772238
  0
VERTEX
  8
LAYER_1
 10
227.0528
 20
40.7548
  0
VERTEX
  8
LAYER_1
 10
227.0297
 20
40.7548
 42
-0.01996777423
  0
VERTEX
  8
LAYER_1
 10
226.6642
 20
39.7027
  0
VERTEX
  8
LAYER_1
 10
225.9535
 20
38.0221
  0
SEQEND
  0
ENDBLK
  0
BLOCK
  8
LAYER_1
  2
AIGNBL01030012
 70
64
 10
0
 20
0
 30
0
  3
AIGNBL01030012
  0
INSERT
  8
LAYER_1
  2
AIGNBL01040013
 10
0
 20
0
 30
0
  0
INSERT
  8
LAYER_1
  2
AIGNBL01040014
 10
0
 20
0
 30
0
  0
INSERT
  8
LAYER_1
  2
AIGNBL01040015
 10
0
 20
0
 30
0
  0
INSERT
  8
LAYER_1
  2
AIGNBL01040016
 10
0
 20
0
 30
0
  0
INSERT
  8
LAYER_1
  2
AIGNBL01040017
 10
0
 20
0
 30
0
  0
INSERT
  8
LAYER_1
  2
AIGNBL01040018
 10
0
 20
0
 30
0
  0
INSERT
  8
LAYER_1
  2
AIGNBL01040019
 10
0
 20
0
 30
0
  0
ENDBLK
  0
BLOCK
  8
LAYER_1
  2
AIGNBL0103001B
 70
64
 10
0
 20
0
 30
0
  3
AIGNBL0103001B
  0
POLYLINE
  8
LAYER_1
 40
0.05
 41
0.05
 66
1
 10
0
 20
0
 30
0
 70
1
  0
VERTEX
  8
LAYER_1
 10
188.1628
 20
32.6816
  0
VERTEX
  8
LAYER_1
 10
189.0162
 20
32.6816
  0
VERTEX
  8
LAYER_1
 10
189.0162
 20
32.5369
  0
VERTEX
  8
LAYER_1
 10
188.0009
 20
32.5369
  0
VERTEX
  8
LAYER_1
 10
188.0009
 20
34.1299
  0
VERTEX
  8
LAYER_1
 10
188.989
 20
34.1299
  0
VERTEX
  8
LAYER_1
 10
188.989
 20
33.9859
  0
VERTEX
  8
LAYER_1
 10
188.1628
 20
33.9859
  0
VERTEX
  8
LAYER_1
 10
188.1628
 20
33.4395
  0
VERTEX
  8
LAYER_1
 10
188.9349
 20
33.4395
  0
VERTEX
  8
LAYER_1
 10
188.9349
 20
33.2955
  0
VERTEX
  8
LAYER_1
 10
188.1628
 20
33.2955
  0
SEQEND
  0
ENDBLK
  0
BLOCK
  8
LAYER_1
  2
AIGNBL0103001C
 70
64
 10
0
 20
0
 30
0
  3
AIGNBL0103001C
  0
POLYLINE
  8
LAYER_1
 40
0.05
 41
0.05
 66
1
 10
0
 20
0
 30
0
 70
1
  0
VERTEX
  8
LAYER_1
 10
190.7735
 20
32.7732
  0
VERTEX
  8
LAYER_1
 10
190.778
 20
32.7732
  0
VERTEX
  8
LAYER_1
 10
190.778
 20
34.1299
  0
VERTEX
  8
LAYER_1
 10
190.9399
 20
34.1299
  0
VERTEX
  8
LAYER_1
 10
190.9399
 20
32.5369
  0
VERTEX
  8
LAYER_1
 10
190.7381
 20
32.5369
  0
VERTEX
  8
LAYER_1
 10
189.811
 20
33.9073
  0
VERTEX
  8
LAYER_1
 10
189.8055
 20
33.9073
  0
VERTEX
  8
LAYER_1
 10
189.8055
 20
32.5369
  0
VERTEX
  8
LAYER_1
 10
189.6442
 20
32.5369
  0
VERTEX
  8
LAYER_1
 10
189.6442
 20
34.1299
  0
VERTEX
  8
LAYER_1
 10
189.8465
 20
34.1299
  0
SEQEND
  0
ENDBLK
  0
BLOCK
  8
LAYER_1
  2
AIGNBL0103001D
 70
64
 10
0
 20
0
 30
0
  3
AIGNBL0103001D
  0
POLYLINE
  8
LAYER_1
 40
0.05
 41
0.05
 66
1
 10
0
 20
0
 30
0
 70
1
  0
VERTEX
  8
LAYER_1
 10
191.6693
 20
32.8635
 42
0.1540843454
  0
VERTEX
  8
LAYER_1
 10
191.7533
 20
32.7043
 42
0.1940233907
  0
VERTEX
  8
LAYER_1
 10
191.9283
 20
32.6402
 42
0.1377029878
  0
VERTEX
  8
LAYER_1
 10
192.0658
 20
32.6705
 42
0.1247121114
  0
VERTEX
  8
LAYER_1
 10
192.1523
 20
32.7532
 42
0.09388557839
  0
VERTEX
  8
LAYER_1
 10
192.1971
 20
32.871
  0
VERTEX
  8
LAYER_1
 10
192.2098
 20
33.0088
  0
VERTEX
  8
LAYER_1
 10
192.2098
 20
34.1299
  0
VERTEX
  8
LAYER_1
 10
192.3717
 20
34.1299
  0
VERTEX
  8
LAYER_1
 10
192.3717
 20
32.9957
  0
VERTEX
  8
LAYER_1
 10
192.3542
 20
32.8297
 42
-0.09851867799
  0
VERTEX
  8
LAYER_1
 10
192.2904
 20
32.6671
 42
-0.1161901237
  0
VERTEX
  8
LAYER_1
 10
192.1598
 20
32.5444
 42
-0.130231669
  0
VERTEX
  8
LAYER_1
 10
191.9456
 20
32.4962
 42
-0.1749239512
  0
VERTEX
  8
LAYER_1
 10
191.661
 20
32.5885
 42
-0.1762813103
  0
VERTEX
  8
LAYER_1
 10
191.5184
 20
32.8228
  0
SEQEND
  0
ENDBLK
  0
BLOCK
  8
LAYER_1
  2
AIGNBL0103001E
 70
64
 10
0
 20
0
 30
0
  3
AIGNBL0103001E
  0
POLYLINE
  8
LAYER_1
 40
0.05
 41
0.05
 66
1
 10
0
 20
0
 30
0
 70
1
  0
VERTEX
  8
LAYER_1
 10
194.6672
 20
33.3334
 42
-0.0999152039
  0
VERTEX
  8
LAYER_1
 10
194.6038
 20
32.9985
 42
-0.09877054803
  0
VERTEX
  8
LAYER_1
 10
194.4302
 20
32.7339
 42
-0.09628404905
  0
VERTEX
  8
LAYER_1
 10
194.1666
 20
32.5596
 42
-0.09858362812
  0
VERTEX
  8
LAYER_1
 10
193.8366
 20
32.4962
 42
-0.09936688862
  0
VERTEX
  8
LAYER_1
 10
193.5072
 20
32.5596
 42
-0.09929172255
  0
VERTEX
  8
LAYER_1
 10
193.2437
 20
32.7339
 42
-0.09842413213
  0
VERTEX
  8
LAYER_1
 10
193.069
 20
32.9985
 42
-0.09810272871
  0
VERTEX
  8
LAYER_1
 10
193.0063
 20
33.3334
 42
-0.09915992422
  0
VERTEX
  8
LAYER_1
 10
193.069
 20
33.6689
 42
-0.09929700111
  0
VERTEX
  8
LAYER_1
 10
193.2437
 20
33.9335
 42
-0.09998775454
  0
VERTEX
  8
LAYER_1
 10
193.5072
 20
34.1078
 42
-0.09893854539
  0
VERTEX
  8
LAYER_1
 10
193.8366
 20
34.1712
 42
-0.09950956293
  0
VERTEX
  8
LAYER_1
 10
194.1666
 20
34.1078
 42
-0.09796597525
  0
VERTEX
  8
LAYER_1
 10
194.4302
 20
33.9335
 42
-0.09806279503
  0
VERTEX
  8
LAYER_1
 10
194.6038
 20
33.6689
 42
-0.09904030531
  0
SEQEND
  0
POLYLINE
  8
LAYER_1
 40
0.05
 41
0.05
 66
1
 10
0
 20
0
 30
0
 70
1
  0
VERTEX
  8
LAYER_1
 10
194.496
 20
33.3327
 42
0.08591922037
  0
VERTEX
  8
LAYER_1
 10
194.4515
 20
33.5979
 42
0.09669672023
  0
VERTEX
  8
LAYER_1
 10
194.3206
 20
33.8184
 42
0.104906235
  0
VERTEX
  8
LAYER_1
 10
194.1125
 20
33.97
 42
0.108421208
  0
VERTEX
  8
LAYER_1
 10
193.8366
 20
34.0272
 42
0.1106917346
  0
VERTEX
  8
LAYER_1
 10
193.561
 20
33.97
 42
0.1066475845
  0
VERTEX
  8
LAYER_1
 10
193.3532
 20
33.8184
 42
0.0991709836
  0
VERTEX
  8
LAYER_1
 10
193.2223
 20
33.5979
 42
0.08484740057
  0
VERTEX
  8
LAYER_1
 10
193.1772
 20
33.3327
 42
0.08592890171
  0
VERTEX
  8
LAYER_1
 10
193.2223
 20
33.0674
 42
0.1002093741
  0
VERTEX
  8
LAYER_1
 10
193.3532
 20
32.8469
 42
0.1005084906
  0
VERTEX
  8
LAYER_1
 10
193.561
 20
32.6967
 42
0.1087184549
  0
VERTEX
  8
LAYER_1
 10
193.8366
 20
32.6402
 42
0.1105386329
  0
VERTEX
  8
LAYER_1
 10
194.1125
 20
32.6967
 42
0.1023036151
  0
VERTEX
  8
LAYER_1
 10
194.3206
 20
32.8469
 42
0.09479161826
  0
VERTEX
  8
LAYER_1
 10
194.4515
 20
33.0674
 42
0.08513088512
  0
SEQEND
  0
ENDBLK
  0
BLOCK
  8
LAYER_1
  2
AIGNBL0103001F
 70
64
 10
0
 20
0
 30
0
  3
AIGNBL0103001F
  0
POLYLINE
  8
LAYER_1
 40
0.05
 41
0.05
 66
1
 10
0
 20
0
 30
0
 70
1
  0
VERTEX
  8
LAYER_1
 10
195.8619
 20
32.5369
  0
VERTEX
  8
LAYER_1
 10
195.7004
 20
32.5369
  0
VERTEX
  8
LAYER_1
 10
195.7004
 20
33.2238
  0
VERTEX
  8
LAYER_1
 10
195.1037
 20
34.1299
  0
VERTEX
  8
LAYER_1
 10
195.3063
 20
34.1299
  0
VERTEX
  8
LAYER_1
 10
195.7862
 20
33.3589
  0
VERTEX
  8
LAYER_1
 10
196.2695
 20
34.1299
  0
VERTEX
  8
LAYER_1
 10
196.4579
 20
34.1299
  0
VERTEX
  8
LAYER_1
 10
195.8619
 20
33.2238
  0
SEQEND
  0
ENDBLK
  0
BLOCK
  8
LAYER_1
  2
AIGNBL01030020
 70
64
 10
0
 20
0
 30
0
  3
AIGNBL01030020
  0
POLYLINE
  8
LAYER_1
 40
0.05
 41
0.05
 66
1
 10
0
 20
0
 30
0
 70
1
  0
VERTEX
  8
LAYER_1
 10
197.8539
 20
34.1299
  0
VERTEX
  8
LAYER_1
 10
198.3283
 20
34.1299
  0
VERTEX
  8
LAYER_1
 10
198.5109
 20
34.1113
 42
-0.09131819756
  0
VERTEX
  8
LAYER_1
 10
198.6759
 20
34.0458
 42
-0.1160737072
  0
VERTEX
  8
LAYER_1
 10
198.7958
 20
33.9211
 42
-0.1278969852
  0
VERTEX
  8
LAYER_1
 10
198.8416
 20
33.7234
 42
-0.1795256557
  0
VERTEX
  8
LAYER_1
 10
198.7644
 20
33.5036
 42
-0.1717810419
  0
VERTEX
  8
LAYER_1
 10
198.5588
 20
33.3809
  0
VERTEX
  8
LAYER_1
 10
198.5588
 20
33.3768
 42
-0.1703646004
  0
VERTEX
  8
LAYER_1
 10
198.8161
 20
33.2562
 42
-0.20471047
  0
VERTEX
  8
LAYER_1
 10
198.9181
 20
32.9778
 42
-0.1241738785
  0
VERTEX
  8
LAYER_1
 10
198.8761
 20
32.7973
 42
-0.1186652071
  0
VERTEX
  8
LAYER_1
 10
198.7586
 20
32.6574
 42
-0.09048890696
  0
VERTEX
  8
LAYER_1
 10
198.5722
 20
32.5686
 42
-0.06772437962
  0
VERTEX
  8
LAYER_1
 10
198.3255
 20
32.5369
  0
VERTEX
  8
LAYER_1
 10
197.8539
 20
32.5369
  0
SEQEND
  0
POLYLINE
  8
LAYER_1
 40
0.05
 41
0.05
 66
1
 10
0
 20
0
 30
0
 70
1
  0
VERTEX
  8
LAYER_1
 10
198.0158
 20
33.4326
  0
VERTEX
  8
LAYER_1
 10
198.3421
 20
33.4326
  0
VERTEX
  8
LAYER_1
 10
198.4606
 20
33.4464
 42
0.08776441943
  0
VERTEX
  8
LAYER_1
 10
198.5691
 20
33.4918
 42
0.1199675583
  0
VERTEX
  8
LAYER_1
 10
198.649
 20
33.5793
 42
0.1231731849
  0
VERTEX
  8
LAYER_1
 10
198.6793
 20
33.7116
 42
0.142784961
  0
VERTEX
  8
LAYER_1
 10
198.649
 20
33.8412
 42
0.1156851026
  0
VERTEX
  8
LAYER_1
 10
198.5674
 20
33.928
 42
0.08770034366
  0
VERTEX
  8
LAYER_1
 10
198.4458
 20
33.9762
  0
VERTEX
  8
LAYER_1
 10
198.2969
 20
33.9907
  0
VERTEX
  8
LAYER_1
 10
198.0158
 20
33.9907
  0
SEQEND
  0
POLYLINE
  8
LAYER_1
 40
0.05
 41
0.05
 66
1
 10
0
 20
0
 30
0
 70
1
  0
VERTEX
  8
LAYER_1
 10
198.0158
 20
32.6767
  0
VERTEX
  8
LAYER_1
 10
198.3176
 20
32.6767
  0
VERTEX
  8
LAYER_1
 10
198.485
 20
32.6933
 42
0.08450112339
  0
VERTEX
  8
LAYER_1
 10
198.6249
 20
32.747
 42
0.1178392492
  0
VERTEX
  8
LAYER_1
 10
198.72
 20
32.8442
 42
0.132174727
  0
VERTEX
  8
LAYER_1
 10
198.7558
 20
32.9875
 42
0.2442546113
  0
VERTEX
  8
LAYER_1
 10
198.649
 20
33.2224
 42
0.1590065208
  0
VERTEX
  8
LAYER_1
 10
198.3469
 20
33.2996
  0
VERTEX
  8
LAYER_1
 10
198.0158
 20
33.2996
  0
SEQEND
  0
ENDBLK
  0
BLOCK
  8
LAYER_1
  2
AIGNBL01030021
 70
64
 10
0
 20
0
 30
0
  3
AIGNBL01030021
  0
POLYLINE
  8
LAYER_1
 40
0.05
 41
0.05
 66
1
 10
0
 20
0
 30
0
 70
1
  0
VERTEX
  8
LAYER_1
 10
199.5844
 20
32.5369
  0
VERTEX
  8
LAYER_1
 10
199.4063
 20
32.5369
  0
VERTEX
  8
LAYER_1
 10
200.0953
 20
34.1299
  0
VERTEX
  8
LAYER_1
 10
200.2531
 20
34.1299
  0
VERTEX
  8
LAYER_1
 10
200.9369
 20
32.5369
  0
VERTEX
  8
LAYER_1
 10
200.7567
 20
32.5369
  0
VERTEX
  8
LAYER_1
 10
200.581
 20
32.9551
  0
VERTEX
  8
LAYER_1
 10
199.7573
 20
32.9551
  0
SEQEND
  0
POLYLINE
  8
LAYER_1
 40
0.05
 41
0.05
 66
1
 10
0
 20
0
 30
0
 70
1
  0
VERTEX
  8
LAYER_1
 10
199.8179
 20
33.1039
  0
VERTEX
  8
LAYER_1
 10
200.5204
 20
33.1039
  0
VERTEX
  8
LAYER_1
 10
200.1693
 20
33.9507
  0
SEQEND
  0
ENDBLK
  0
BLOCK
  8
LAYER_1
  2
AIGNBL01030022
 70
64
 10
0
 20
0
 30
0
  3
AIGNBL01030022
  0
POLYLINE
  8
LAYER_1
 40
0.05
 41
0.05
 66
1
 10
0
 20
0
 30
0
 70
1
  0
VERTEX
  8
LAYER_1
 10
201.9928
 20
32.5369
  0
VERTEX
  8
LAYER_1
 10
201.8306
 20
32.5369
  0
VERTEX
  8
LAYER_1
 10
201.8306
 20
33.9859
  0
VERTEX
  8
LAYER_1
 10
201.2966
 20
33.9859
  0
VERTEX
  8
LAYER_1
 10
201.2966
 20
34.1299
  0
VERTEX
  8
LAYER_1
 10
202.5255
 20
34.1299
  0
VERTEX
  8
LAYER_1
 10
202.5255
 20
33.9859
  0
VERTEX
  8
LAYER_1
 10
201.9928
 20
33.9859
  0
SEQEND
  0
ENDBLK
  0
BLOCK
  8
LAYER_1
  2
AIGNBL01030023
 70
64
 10
0
 20
0
 30
0
  3
AIGNBL01030023
  0
POLYLINE
  8
LAYER_1
 40
0.05
 41
0.05
 66
1
 10
0
 20
0
 30
0
 70
1
  0
VERTEX
  8
LAYER_1
 10
203.0749
 20
34.1299
  0
VERTEX
  8
LAYER_1
 10
203.2365
 20
34.1299
  0
VERTEX
  8
LAYER_1
 10
203.2365
 20
33.4395
  0
VERTEX
  8
LAYER_1
 10
204.1057
 20
33.4395
  0
VERTEX
  8
LAYER_1
 10
204.1057
 20
34.1299
  0
VERTEX
  8
LAYER_1
 10
204.2676
 20
34.1299
  0
VERTEX
  8
LAYER_1
 10
204.2676
 20
32.5369
  0
VERTEX
  8
LAYER_1
 10
204.1057
 20
32.5369
  0
VERTEX
  8
LAYER_1
 10
204.1057
 20
33.2913
  0
VERTEX
  8
LAYER_1
 10
203.2365
 20
33.2913
  0
VERTEX
  8
LAYER_1
 10
203.2365
 20
32.5369
  0
VERTEX
  8
LAYER_1
 10
203.0749
 20
32.5369
  0
SEQEND
  0
ENDBLK
  0
BLOCK
  8
LAYER_1
  2
AIGNBL01030024
 70
64
 10
0
 20
0
 30
0
  3
AIGNBL01030024
  0
POLYLINE
  8
LAYER_1
 40
0.05
 41
0.05
 66
1
 10
0
 20
0
 30
0
 70
1
  0
VERTEX
  8
LAYER_1
 10
205.163
 20
32.5369
  0
VERTEX
  8
LAYER_1
 10
205.0008
 20
32.5369
  0
VERTEX
  8
LAYER_1
 10
205.0008
 20
34.1299
  0
VERTEX
  8
LAYER_1
 10
205.4696
 20
34.1299
 42
-0.06098978775
  0
VERTEX
  8
LAYER_1
 10
205.6863
 20
34.1078
 42
-0.09925286876
  0
VERTEX
  8
LAYER_1
 10
205.86
 20
34.0348
 42
-0.1297145661
  0
VERTEX
  8
LAYER_1
 10
205.9733
 20
33.9025
 42
-0.1126969409
  0
VERTEX
  8
LAYER_1
 10
206.0136
 20
33.7047
 42
-0.1055496362
  0
VERTEX
  8
LAYER_1
 10
205.9826
 20
33.5449
 42
-0.09374101422
  0
VERTEX
  8
LAYER_1
 10
205.8972
 20
33.4202
 42
-0.0918022519
  0
VERTEX
  8
LAYER_1
 10
205.7687
 20
33.3361
 42
-0.07645437998
  0
VERTEX
  8
LAYER_1
 10
205.6067
 20
33.2955
  0
VERTEX
  8
LAYER_1
 10
206.0725
 20
32.5369
  0
VERTEX
  8
LAYER_1
 10
205.8744
 20
32.5369
  0
VERTEX
  8
LAYER_1
 10
205.4335
 20
33.2817
  0
VERTEX
  8
LAYER_1
 10
205.163
 20
33.2817
  0
SEQEND
  0
POLYLINE
  8
LAYER_1
 40
0.05
 41
0.05
 66
1
 10
0
 20
0
 30
0
 70
1
  0
VERTEX
  8
LAYER_1
 10
205.163
 20
33.4216
  0
VERTEX
  8
LAYER_1
 10
205.4445
 20
33.4216
 42
0.1458750428
  0
VERTEX
  8
LAYER_1
 10
205.7463
 20
33.4918
 42
0.2606794598
  0
VERTEX
  8
LAYER_1
 10
205.852
 20
33.7047
 42
0.1386600416
  0
VERTEX
  8
LAYER_1
 10
205.8224
 20
33.837
 42
0.127406306
  0
VERTEX
  8
LAYER_1
 10
205.7414
 20
33.9252
 42
0.09560187562
  0
VERTEX
  8
LAYER_1
 10
205.6157
 20
33.9748
 42
0.04832996048
  0
VERTEX
  8
LAYER_1
 10
205.4514
 20
33.9907
  0
VERTEX
  8
LAYER_1
 10
205.163
 20
33.9907
  0
SEQEND
  0
ENDBLK
  0
BLOCK
  8
LAYER_1
  2
AIGNBL01030025
 70
64
 10
0
 20
0
 30
0
  3
AIGNBL01030025
  0
POLYLINE
  8
LAYER_1
 40
0.05
 41
0.05
 66
1
 10
0
 20
0
 30
0
 70
1
  0
VERTEX
  8
LAYER_1
 10
208.235
 20
33.3334
 42
-0.09738165361
  0
VERTEX
  8
LAYER_1
 10
208.1723
 20
32.9985
 42
-0.09919284878
  0
VERTEX
  8
LAYER_1
 10
207.9973
 20
32.7339
 42
-0.09937684681
  0
VERTEX
  8
LAYER_1
 10
207.7344
 20
32.5596
 42
-0.09868805195
  0
VERTEX
  8
LAYER_1
 10
207.4044
 20
32.4962
 42
-0.09950597382
  0
VERTEX
  8
LAYER_1
 10
207.0747
 20
32.5596
 42
-0.09900610129
  0
VERTEX
  8
LAYER_1
 10
206.8115
 20
32.7339
 42
-0.09934846563
  0
VERTEX
  8
LAYER_1
 10
206.6372
 20
32.9985
 42
-0.09742775703
  0
VERTEX
  8
LAYER_1
 10
206.5745
 20
33.3334
 42
-0.09843728748
  0
VERTEX
  8
LAYER_1
 10
206.6372
 20
33.6689
 42
-0.1000840271
  0
VERTEX
  8
LAYER_1
 10
206.8115
 20
33.9335
 42
-0.0982976065
  0
VERTEX
  8
LAYER_1
 10
207.0747
 20
34.1078
 42
-0.09903895652
  0
VERTEX
  8
LAYER_1
 10
207.4044
 20
34.1712
 42
-0.09967196834
  0
VERTEX
  8
LAYER_1
 10
207.7344
 20
34.1078
 42
-0.1002688857
  0
VERTEX
  8
LAYER_1
 10
207.9973
 20
33.9335
 42
-0.09843432409
  0
VERTEX
  8
LAYER_1
 10
208.1723
 20
33.6689
 42
-0.09663425783
  0
SEQEND
  0
POLYLINE
  8
LAYER_1
 40
0.05
 41
0.05
 66
1
 10
0
 20
0
 30
0
 70
1
  0
VERTEX
  8
LAYER_1
 10
208.0638
 20
33.3327
 42
0.08767639808
  0
VERTEX
  8
LAYER_1
 10
208.0187
 20
33.5979
 42
0.09998649981
  0
VERTEX
  8
LAYER_1
 10
207.8881
 20
33.8184
 42
0.1043761441
  0
VERTEX
  8
LAYER_1
 10
207.6803
 20
33.97
 42
0.1085169089
  0
VERTEX
  8
LAYER_1
 10
207.4044
 20
34.0272
 42
0.1106917346
  0
VERTEX
  8
LAYER_1
 10
207.1288
 20
33.97
 42
0.1068798402
  0
VERTEX
  8
LAYER_1
 10
206.9204
 20
33.8184
 42
0.09694774979
  0
VERTEX
  8
LAYER_1
 10
206.7898
 20
33.5979
 42
0.08466940007
  0
VERTEX
  8
LAYER_1
 10
206.745
 20
33.3327
 42
0.08611442707
  0
VERTEX
  8
LAYER_1
 10
206.7898
 20
33.0674
 42
0.09801998234
  0
VERTEX
  8
LAYER_1
 10
206.9204
 20
32.8469
 42
0.1003461121
  0
VERTEX
  8
LAYER_1
 10
207.1288
 20
32.6967
 42
0.1087184549
  0
VERTEX
  8
LAYER_1
 10
207.4044
 20
32.6402
 42
0.1106703841
  0
VERTEX
  8
LAYER_1
 10
207.6803
 20
32.6967
 42
0.1017307908
  0
VERTEX
  8
LAYER_1
 10
207.8881
 20
32.8469
 42
0.09944245512
  0
VERTEX
  8
LAYER_1
 10
208.0187
 20
33.0674
 42
0.08665879347
  0
SEQEND
  0
ENDBLK
  0
BLOCK
  8
LAYER_1
  2
AIGNBL01030026
 70
64
 10
0
 20
0
 30
0
  3
AIGNBL01030026
  0
POLYLINE
  8
LAYER_1
 40
0.05
 41
0.05
 66
1
 10
0
 20
0
 30
0
 70
1
  0
VERTEX
  8
LAYER_1
 10
210.4585
 20
33.3334
 42
-0.100637837
  0
VERTEX
  8
LAYER_1
 10
210.3951
 20
32.9985
 42
-0.1000795124
  0
VERTEX
  8
LAYER_1
 10
210.2214
 20
32.7339
 42
-0.09785486213
  0
VERTEX
  8
LAYER_1
 10
209.9579
 20
32.5596
 42
-0.09868805195
  0
VERTEX
  8
LAYER_1
 10
209.6279
 20
32.4962
 42
-0.09967464512
  0
VERTEX
  8
LAYER_1
 10
209.2985
 20
32.5596
 42
-0.1000592518
  0
VERTEX
  8
LAYER_1
 10
209.035
 20
32.7339
 42
-0.09790531107
  0
VERTEX
  8
LAYER_1
 10
208.8603
 20
32.9985
 42
-0.09810272871
  0
VERTEX
  8
LAYER_1
 10
208.7976
 20
33.3334
 42
-0.09915992422
  0
VERTEX
  8
LAYER_1
 10
208.8603
 20
33.6689
 42
-0.09863158885
  0
VERTEX
  8
LAYER_1
 10
209.035
 20
33.9335
 42
-0.09923447691
  0
VERTEX
  8
LAYER_1
 10
209.2985
 20
34.1078
 42
-0.09915259596
  0
VERTEX
  8
LAYER_1
 10
209.6279
 20
34.1712
 42
-0.09967196834
  0
VERTEX
  8
LAYER_1
 10
209.9579
 20
34.1078
 42
-0.09849396964
  0
VERTEX
  8
LAYER_1
 10
210.2214
 20
33.9335
 42
-0.09942994064
  0
VERTEX
  8
LAYER_1
 10
210.3951
 20
33.6689
 42
-0.09964065606
  0
SEQEND
  0
POLYLINE
  8
LAYER_1
 40
0.05
 41
0.05
 66
1
 10
0
 20
0
 30
0
 70
1
  0
VERTEX
  8
LAYER_1
 10
210.2873
 20
33.3327
 42
0.08555456985
  0
VERTEX
  8
LAYER_1
 10
210.2428
 20
33.5979
 42
0.09638012273
  0
VERTEX
  8
LAYER_1
 10
210.1119
 20
33.8184
 42
0.104906235
  0
VERTEX
  8
LAYER_1
 10
209.9038
 20
33.97
 42
0.1086365864
  0
VERTEX
  8
LAYER_1
 10
209.6279
 20
34.0272
 42
0.1104607967
  0
VERTEX
  8
LAYER_1
 10
209.3523
 20
33.97
 42
0.1062645758
  0
VERTEX
  8
LAYER_1
 10
209.1445
 20
33.8184
 42
0.1000404659
  0
VERTEX
  8
LAYER_1
 10
209.0139
 20
33.5979
 42
0.08542184057
  0
VERTEX
  8
LAYER_1
 10
208.9688
 20
33.3327
 42
0.08701125897
  0
VERTEX
  8
LAYER_1
 10
209.0139
 20
33.0674
 42
0.1009052567
  0
VERTEX
  8
LAYER_1
 10
209.1445
 20
32.8469
 42
0.09999686415
  0
VERTEX
  8
LAYER_1
 10
209.3523
 20
32.6967
 42
0.1085893715
  0
VERTEX
  8
LAYER_1
 10
209.6279
 20
32.6402
 42
0.1107527855
  0
VERTEX
  8
LAYER_1
 10
209.9038
 20
32.6967
 42
0.1023036151
  0
VERTEX
  8
LAYER_1
 10
210.1119
 20
32.8469
 42
0.09460507655
  0
VERTEX
  8
LAYER_1
 10
210.2428
 20
33.0674
 42
0.08490155302
  0
SEQEND
  0
ENDBLK
  0
BLOCK
  8
LAYER_1
  2
AIGNBL01030027
 70
64
 10
0
 20
0
 30
0
  3
AIGNBL01030027
  0
POLYLINE
  8
LAYER_1
 40
0.05
 41
0.05
 66
1
 10
0
 20
0
 30
0
 70
1
  0
VERTEX
  8
LAYER_1
 10
211.894
 20
32.8111
  0
VERTEX
  8
LAYER_1
 10
211.8968
 20
32.8111
  0
VERTEX
  8
LAYER_1
 10
212.4294
 20
34.1299
  0
VERTEX
  8
LAYER_1
 10
212.6778
 20
34.1299
  0
VERTEX
  8
LAYER_1
 10
212.6778
 20
32.5369
  0
VERTEX
  8
LAYER_1
 10
212.5152
 20
32.5369
  0
VERTEX
  8
LAYER_1
 10
212.5152
 20
33.9211
  0
VERTEX
  8
LAYER_1
 10
212.5107
 20
33.9211
  0
VERTEX
  8
LAYER_1
 10
211.935
 20
32.5369
  0
VERTEX
  8
LAYER_1
 10
211.8493
 20
32.5369
  0
VERTEX
  8
LAYER_1
 10
211.2729
 20
33.9211
  0
VERTEX
  8
LAYER_1
 10
211.2688
 20
33.9211
  0
VERTEX
  8
LAYER_1
 10
211.2688
 20
32.5369
  0
VERTEX
  8
LAYER_1
 10
211.1065
 20
32.5369
  0
VERTEX
  8
LAYER_1
 10
211.1065
 20
34.1299
  0
VERTEX
  8
LAYER_1
 10
211.3542
 20
34.1299
  0
SEQEND
  0
ENDBLK
  0
BLOCK
  8
LAYER_1
  2
AIGNBL01030028
 70
64
 10
0
 20
0
 30
0
  3
AIGNBL01030028
  0
POLYLINE
  8
LAYER_1
 40
0.05
 41
0.05
 66
1
 10
0
 20
0
 30
0
 70
1
  0
VERTEX
  8
LAYER_1
 10
214.4458
 20
32.6816
  0
VERTEX
  8
LAYER_1
 10
215.2992
 20
32.6816
  0
VERTEX
  8
LAYER_1
 10
215.2992
 20
32.5369
  0
VERTEX
  8
LAYER_1
 10
214.2839
 20
32.5369
  0
VERTEX
  8
LAYER_1
 10
214.2839
 20
34.1299
  0
VERTEX
  8
LAYER_1
 10
215.272
 20
34.1299
  0
VERTEX
  8
LAYER_1
 10
215.272
 20
33.9859
  0
VERTEX
  8
LAYER_1
 10
214.4458
 20
33.9859
  0
VERTEX
  8
LAYER_1
 10
214.4458
 20
33.4395
  0
VERTEX
  8
LAYER_1
 10
215.2179
 20
33.4395
  0
VERTEX
  8
LAYER_1
 10
215.2179
 20
33.2955
  0
VERTEX
  8
LAYER_1
 10
214.4458
 20
33.2955
  0
SEQEND
  0
ENDBLK
  0
BLOCK
  8
LAYER_1
  2
AIGNBL01030029
 70
64
 10
0
 20
0
 30
0
  3
AIGNBL01030029
  0
POLYLINE
  8
LAYER_1
 40
0.05
 41
0.05
 66
1
 10
0
 20
0
 30
0
 70
1
  0
VERTEX
  8
LAYER_1
 10
216.4485
 20
33.487
  0
VERTEX
  8
LAYER_1
 10
216.8836
 20
34.1299
  0
VERTEX
  8
LAYER_1
 10
217.0765
 20
34.1299
  0
VERTEX
  8
LAYER_1
 10
216.5484
 20
33.372
  0
VERTEX
  8
LAYER_1
 10
217.1333
 20
32.5369
  0
VERTEX
  8
LAYER_1
 10
216.9308
 20
32.5369
  0
VERTEX
  8
LAYER_1
 10
216.444
 20
33.2548
  0
VERTEX
  8
LAYER_1
 10
215.9606
 20
32.5369
  0
VERTEX
  8
LAYER_1
 10
215.7577
 20
32.5369
  0
VERTEX
  8
LAYER_1
 10
216.343
 20
33.374
  0
VERTEX
  8
LAYER_1
 10
215.8097
 20
34.1299
  0
VERTEX
  8
LAYER_1
 10
216.0127
 20
34.1299
  0
SEQEND
  0
ENDBLK
  0
BLOCK
  8
LAYER_1
  2
AIGNBL0103002A
 70
64
 10
0
 20
0
 30
0
  3
AIGNBL0103002A
  0
POLYLINE
  8
LAYER_1
 40
0.05
 41
0.05
 66
1
 10
0
 20
0
 30
0
 70
1
  0
VERTEX
  8
LAYER_1
 10
217.698
 20
34.1299
  0
VERTEX
  8
LAYER_1
 10
218.1486
 20
34.1299
 42
-0.0685556442
  0
VERTEX
  8
LAYER_1
 10
218.3691
 20
34.1044
 42
-0.103233596
  0
VERTEX
  8
LAYER_1
 10
218.5386
 20
34.0251
 42
-0.1236034878
  0
VERTEX
  8
LAYER_1
 10
218.6478
 20
33.8928
 42
-0.1076956505
  0
VERTEX
  8
LAYER_1
 10
218.6857
 20
33.7054
 42
-0.1206859882
  0
VERTEX
  8
LAYER_1
 10
218.6468
 20
33.5173
 42
-0.120120946
  0
VERTEX
  8
LAYER_1
 10
218.5365
 20
33.3844
 42
-0.09091719739
  0
VERTEX
  8
LAYER_1
 10
218.3653
 20
33.3044
 42
-0.06233969657
  0
VERTEX
  8
LAYER_1
 10
218.1438
 20
33.2776
  0
VERTEX
  8
LAYER_1
 10
217.8599
 20
33.2776
  0
VERTEX
  8
LAYER_1
 10
217.8599
 20
32.5369
  0
VERTEX
  8
LAYER_1
 10
217.698
 20
32.5369
  0
SEQEND
  0
POLYLINE
  8
LAYER_1
 40
0.05
 41
0.05
 66
1
 10
0
 20
0
 30
0
 70
1
  0
VERTEX
  8
LAYER_1
 10
217.8599
 20
33.4147
  0
VERTEX
  8
LAYER_1
 10
218.1341
 20
33.4147
 42
0.1607783643
  0
VERTEX
  8
LAYER_1
 10
218.4249
 20
33.4891
 42
0.2497127316
  0
VERTEX
  8
LAYER_1
 10
218.5241
 20
33.7054
 42
0.2533430213
  0
VERTEX
  8
LAYER_1
 10
218.4218
 20
33.9225
 42
0.1486903104
  0
VERTEX
  8
LAYER_1
 10
218.1341
 20
33.9907
  0
VERTEX
  8
LAYER_1
 10
217.8599
 20
33.9907
  0
SEQEND
  0
ENDBLK
  0
BLOCK
  8
LAYER_1
  2
AIGNBL0103002B
 70
64
 10
0
 20
0
 30
0
  3
AIGNBL0103002B
  0
POLYLINE
  8
LAYER_1
 40
0.05
 41
0.05
 66
1
 10
0
 20
0
 30
0
 70
1
  0
VERTEX
  8
LAYER_1
 10
219.4757
 20
32.6816
  0
VERTEX
  8
LAYER_1
 10
220.329
 20
32.6816
  0
VERTEX
  8
LAYER_1
 10
220.329
 20
32.5369
  0
VERTEX
  8
LAYER_1
 10
219.3137
 20
32.5369
  0
VERTEX
  8
LAYER_1
 10
219.3137
 20
34.1299
  0
VERTEX
  8
LAYER_1
 10
220.3018
 20
34.1299
  0
VERTEX
  8
LAYER_1
 10
220.3018
 20
33.9859
  0
VERTEX
  8
LAYER_1
 10
219.4757
 20
33.9859
  0
VERTEX
  8
LAYER_1
 10
219.4757
 20
33.4395
  0
VERTEX
  8
LAYER_1
 10
220.2477
 20
33.4395
  0
VERTEX
  8
LAYER_1
 10
220.2477
 20
33.2955
  0
VERTEX
  8
LAYER_1
 10
219.4757
 20
33.2955
  0
SEQEND
  0
ENDBLK
  0
BLOCK
  8
LAYER_1
  2
AIGNBL0103002C
 70
64
 10
0
 20
0
 30
0
  3
AIGNBL0103002C
  0
POLYLINE
  8
LAYER_1
 40
0.05
 41
0.05
 66
1
 10
0
 20
0
 30
0
 70
1
  0
VERTEX
  8
LAYER_1
 10
221.1186
 20
32.5369
  0
VERTEX
  8
LAYER_1
 10
220.9564
 20
32.5369
  0
VERTEX
  8
LAYER_1
 10
220.9564
 20
34.1299
  0
VERTEX
  8
LAYER_1
 10
221.4252
 20
34.1299
 42
-0.06114390728
  0
VERTEX
  8
LAYER_1
 10
221.6419
 20
34.1078
 42
-0.09992113099
  0
VERTEX
  8
LAYER_1
 10
221.8156
 20
34.0348
 42
-0.1261956079
  0
VERTEX
  8
LAYER_1
 10
221.9293
 20
33.9025
 42
-0.1110463123
  0
VERTEX
  8
LAYER_1
 10
221.9692
 20
33.7054
 42
-0.1037816136
  0
VERTEX
  8
LAYER_1
 10
221.9382
 20
33.5449
 42
-0.09929019172
  0
VERTEX
  8
LAYER_1
 10
221.8528
 20
33.4202
 42
-0.09423286998
  0
VERTEX
  8
LAYER_1
 10
221.7243
 20
33.3361
 42
-0.07653038381
  0
VERTEX
  8
LAYER_1
 10
221.562
 20
33.2955
  0
VERTEX
  8
LAYER_1
 10
222.0281
 20
32.5369
  0
VERTEX
  8
LAYER_1
 10
221.83
 20
32.5369
  0
VERTEX
  8
LAYER_1
 10
221.3891
 20
33.2817
  0
VERTEX
  8
LAYER_1
 10
221.1186
 20
33.2817
  0
SEQEND
  0
POLYLINE
  8
LAYER_1
 40
0.05
 41
0.05
 66
1
 10
0
 20
0
 30
0
 70
1
  0
VERTEX
  8
LAYER_1
 10
221.1186
 20
33.4216
  0
VERTEX
  8
LAYER_1
 10
221.4001
 20
33.4216
 42
0.1461858404
  0
VERTEX
  8
LAYER_1
 10
221.7019
 20
33.4918
 42
0.2610547434
  0
VERTEX
  8
LAYER_1
 10
221.8076
 20
33.7054
 42
0.1338205074
  0
VERTEX
  8
LAYER_1
 10
221.7784
 20
33.8377
 42
0.1167052037
  0
VERTEX
  8
LAYER_1
 10
221.6971
 20
33.9259
 42
0.09212784257
  0
VERTEX
  8
LAYER_1
 10
221.5713
 20
33.9748
 42
0.04832996048
  0
VERTEX
  8
LAYER_1
 10
221.407
 20
33.9907
  0
VERTEX
  8
LAYER_1
 10
221.1186
 20
33.9907
  0
SEQEND
  0
ENDBLK
  0
BLOCK
  8
LAYER_1
  2
AIGNBL0103002D
 70
64
 10
0
 20
0
 30
0
  3
AIGNBL0103002D
  0
POLYLINE
  8
LAYER_1
 40
0.05
 41
0.05
 66
1
 10
0
 20
0
 30
0
 70
1
  0
VERTEX
  8
LAYER_1
 10
222.7771
 20
32.5369
  0
VERTEX
  8
LAYER_1
 10
222.6159
 20
32.5369
  0
VERTEX
  8
LAYER_1
 10
222.6159
 20
34.1299
  0
VERTEX
  8
LAYER_1
 10
222.7771
 20
34.1299
  0
SEQEND
  0
ENDBLK
  0
BLOCK
  8
LAYER_1
  2
AIGNBL0103002E
 70
64
 10
0
 20
0
 30
0
  3
AIGNBL0103002E
  0
POLYLINE
  8
LAYER_1
 40
0.05
 41
0.05
 66
1
 10
0
 20
0
 30
0
 70
1
  0
VERTEX
  8
LAYER_1
 10
223.6732
 20
32.6816
  0
VERTEX
  8
LAYER_1
 10
224.5258
 20
32.6816
  0
VERTEX
  8
LAYER_1
 10
224.5258
 20
32.5369
  0
VERTEX
  8
LAYER_1
 10
223.5109
 20
32.5369
  0
VERTEX
  8
LAYER_1
 10
223.5109
 20
34.1299
  0
VERTEX
  8
LAYER_1
 10
224.4993
 20
34.1299
  0
VERTEX
  8
LAYER_1
 10
224.4993
 20
33.9859
  0
VERTEX
  8
LAYER_1
 10
223.6732
 20
33.9859
  0
VERTEX
  8
LAYER_1
 10
223.6732
 20
33.4395
  0
VERTEX
  8
LAYER_1
 10
224.4449
 20
33.4395
  0
VERTEX
  8
LAYER_1
 10
224.4449
 20
33.2955
  0
VERTEX
  8
LAYER_1
 10
223.6732
 20
33.2955
  0
SEQEND
  0
ENDBLK
  0
BLOCK
  8
LAYER_1
  2
AIGNBL0103002F
 70
64
 10
0
 20
0
 30
0
  3
AIGNBL0103002F
  0
POLYLINE
  8
LAYER_1
 40
0.05
 41
0.05
 66
1
 10
0
 20
0
 30
0
 70
1
  0
VERTEX
  8
LAYER_1
 10
226.2839
 20
32.7732
  0
VERTEX
  8
LAYER_1
 10
226.288
 20
32.7732
  0
VERTEX
  8
LAYER_1
 10
226.288
 20
34.1299
  0
VERTEX
  8
LAYER_1
 10
226.4503
 20
34.1299
  0
VERTEX
  8
LAYER_1
 10
226.4503
 20
32.5369
  0
VERTEX
  8
LAYER_1
 10
226.2477
 20
32.5369
  0
VERTEX
  8
LAYER_1
 10
225.3206
 20
33.9073
  0
VERTEX
  8
LAYER_1
 10
225.3158
 20
33.9073
  0
VERTEX
  8
LAYER_1
 10
225.3158
 20
32.5369
  0
VERTEX
  8
LAYER_1
 10
225.1539
 20
32.5369
  0
VERTEX
  8
LAYER_1
 10
225.1539
 20
34.1299
  0
VERTEX
  8
LAYER_1
 10
225.3568
 20
34.1299
  0
SEQEND
  0
ENDBLK
  0
BLOCK
  8
LAYER_1
  2
AIGNBL01030030
 70
64
 10
0
 20
0
 30
0
  3
AIGNBL01030030
  0
POLYLINE
  8
LAYER_1
 40
0.05
 41
0.05
 66
1
 10
0
 20
0
 30
0
 70
1
  0
VERTEX
  8
LAYER_1
 10
228.5256
 20
32.7952
  0
VERTEX
  8
LAYER_1
 10
228.4271
 20
32.6809
 42
-0.06030847294
  0
VERTEX
  8
LAYER_1
 10
228.2944
 20
32.5858
 42
-0.06055421439
  0
VERTEX
  8
LAYER_1
 10
228.1273
 20
32.5203
 42
-0.06065920949
  0
VERTEX
  8
LAYER_1
 10
227.9289
 20
32.4962
 42
-0.09901387051
  0
VERTEX
  8
LAYER_1
 10
227.5958
 20
32.5596
 42
-0.1017958945
  0
VERTEX
  8
LAYER_1
 10
227.3325
 20
32.7339
 42
-0.1009132826
  0
VERTEX
  8
LAYER_1
 10
227.1606
 20
32.9985
 42
-0.09812544234
  0
VERTEX
  8
LAYER_1
 10
227.0983
 20
33.3341
 42
-0.1006227868
  0
VERTEX
  8
LAYER_1
 10
227.1617
 20
33.6689
 42
-0.09877054803
  0
VERTEX
  8
LAYER_1
 10
227.3353
 20
33.9335
 42
-0.09784806531
  0
VERTEX
  8
LAYER_1
 10
227.5989
 20
34.1078
 42
-0.09897932378
  0
VERTEX
  8
LAYER_1
 10
227.9289
 20
34.1712
  0
VERTEX
  8
LAYER_1
 10
228.1008
 20
34.1526
  0
VERTEX
  8
LAYER_1
 10
228.2596
 20
34.1009
  0
VERTEX
  8
LAYER_1
 10
228.3947
 20
34.021
 42
-0.08224683404
  0
VERTEX
  8
LAYER_1
 10
228.4963
 20
33.9163
  0
VERTEX
  8
LAYER_1
 10
228.3613
 20
33.8171
  0
VERTEX
  8
LAYER_1
 10
228.2944
 20
33.8942
  0
VERTEX
  8
LAYER_1
 10
228.1966
 20
33.9618
  0
VERTEX
  8
LAYER_1
 10
228.0739
 20
34.0093
  0
VERTEX
  8
LAYER_1
 10
227.931
 20
34.0272
 42
0.1086512307
  0
VERTEX
  8
LAYER_1
 10
227.6529
 20
33.9707
 42
0.103256419
  0
VERTEX
  8
LAYER_1
 10
227.4449
 20
33.8191
 42
0.09555913376
  0
VERTEX
  8
LAYER_1
 10
227.3139
 20
33.5986
 42
0.08472952471
  0
VERTEX
  8
LAYER_1
 10
227.2695
 20
33.3341
 42
0.09051709977
  0
VERTEX
  8
LAYER_1
 10
227.3157
 20
33.0695
 42
0.09829614736
  0
VERTEX
  8
LAYER_1
 10
227.4473
 20
32.8483
 42
0.1053069792
  0
VERTEX
  8
LAYER_1
 10
227.6557
 20
32.6967
 42
0.1089780197
  0
VERTEX
  8
LAYER_1
 10
227.931
 20
32.6402
 42
0.1094802784
  0
VERTEX
  8
LAYER_1
 10
228.1918
 20
32.6967
 42
0.1380331699
  0
VERTEX
  8
LAYER_1
 10
228.3988
 20
32.8765
  0
SEQEND
  0
ENDBLK
  0
BLOCK
  8
LAYER_1
  2
AIGNBL01030031
 70
64
 10
0
 20
0
 30
0
  3
AIGNBL01030031
  0
POLYLINE
  8
LAYER_1
 40
0.05
 41
0.05
 66
1
 10
0
 20
0
 30
0
 70
1
  0
VERTEX
  8
LAYER_1
 10
229.2766
 20
32.6816
  0
VERTEX
  8
LAYER_1
 10
230.13
 20
32.6816
  0
VERTEX
  8
LAYER_1
 10
230.13
 20
32.5369
  0
VERTEX
  8
LAYER_1
 10
229.1147
 20
32.5369
  0
VERTEX
  8
LAYER_1
 10
229.1147
 20
34.1299
  0
VERTEX
  8
LAYER_1
 10
230.1028
 20
34.1299
  0
VERTEX
  8
LAYER_1
 10
230.1028
 20
33.9859
  0
VERTEX
  8
LAYER_1
 10
229.2766
 20
33.9859
  0
VERTEX
  8
LAYER_1
 10
229.2766
 20
33.4395
  0
VERTEX
  8
LAYER_1
 10
230.0487
 20
33.4395
  0
VERTEX
  8
LAYER_1
 10
230.0487
 20
33.2955
  0
VERTEX
  8
LAYER_1
 10
229.2766
 20
33.2955
  0
SEQEND
  0
ENDBLK
  0
BLOCK
  8
LAYER_1
  2
AIGNBL01020003
 70
64
 10
0
 20
0
 30
0
  3
AIGNBL01020003
  0
POLYLINE
  8
LAYER_1
 40
0.05
 41
0.05
 66
1
 10
0
 20
0
 30
0
 70
1
  0
VERTEX
  8
LAYER_1
 10
281.4447
 20
399.202
  0
VERTEX
  8
LAYER_1
 10
280.7336
 20
399.202
  0
VERTEX
  8
LAYER_1
 10
278.4588
 20
396.9561
  0
VERTEX
  8
LAYER_1
 10
278.4588
 20
399.202
  0
VERTEX
  8
LAYER_1
 10
277.8683
 20
399.202
  0
VERTEX
  8
LAYER_1
 10
277.8683
 20
394.8307
  0
VERTEX
  8
LAYER_1
 10
278.4588
 20
394.8307
  0
VERTEX
  8
LAYER_1
 10
278.4588
 20
396.2647
  0
VERTEX
  8
LAYER_1
 10
279.1702
 20
396.9675
  0
VERTEX
  8
LAYER_1
 10
280.8669
 20
394.8307
  0
VERTEX
  8
LAYER_1
 10
281.578
 20
394.8307
  0
VERTEX
  8
LAYER_1
 10
279.5771
 20
397.3675
  0
SEQEND
  0
POLYLINE
  8
LAYER_1
 40
0.05
 41
0.05
 66
1
 10
0
 20
0
 30
0
  0
VERTEX
  8
LAYER_1
 10
286.9461
 20
397.2533
  0
VERTEX
  8
LAYER_1
 10
286.2602
 20
397.3618
 42
-0.06913007455
  0
VERTEX
  8
LAYER_1
 10
285.8361
 20
397.4842
 42
-0.1734388811
  0
VERTEX
  8
LAYER_1
 10
285.5032
 20
397.7972
 42
-0.1087484145
  0
VERTEX
  8
LAYER_1
 10
285.4472
 20
398.0875
 42
-0.2779971125
  0
VERTEX
  8
LAYER_1
 10
285.8222
 20
398.6976
 42
-0.1278420901
  0
VERTEX
  8
LAYER_1
 10
286.4175
 20
398.8412
 42
-0.006492643815
  0
VERTEX
  8
LAYER_1
 10
286.4635
 20
398.8418
 42
-0.1388619967
  0
VERTEX
  8
LAYER_1
 10
287.0944
 20
398.6808
 42
-0.1580474478
  0
VERTEX
  8
LAYER_1
 10
287.4068
 20
398.2923
 42
-0.06125421761
  0
VERTEX
  8
LAYER_1
 10
287.4736
 20
398.0303
  0
VERTEX
  8
LAYER_1
 10
288.0772
 20
398.0303
 42
0.1331872531
  0
VERTEX
  8
LAYER_1
 10
287.8666
 20
398.6848
 42
0.1320588866
  0
VERTEX
  8
LAYER_1
 10
287.4036
 20
399.0778
 42
0.1048501502
  0
VERTEX
  8
LAYER_1
 10
286.6572
 20
399.259
 42
0.01703281728
  0
VERTEX
  8
LAYER_1
 10
286.47
 20
399.2647
 42
0.1021277535
  0
VERTEX
  8
LAYER_1
 10
285.5606
 20
399.0879
 42
0.1198283036
  0
VERTEX
  8
LAYER_1
 10
285.0422
 20
398.6906
 42
0.1653837996
  0
VERTEX
  8
LAYER_1
 10
284.8246
 20
398.0417
 42
0.1470911156
  0
VERTEX
  8
LAYER_1
 10
284.9954
 20
397.4354
 42
0.1360793618
  0
VERTEX
  8
LAYER_1
 10
285.4501
 20
397.0547
 42
0.07792477994
  0
VERTEX
  8
LAYER_1
 10
286.1141
 20
396.8535
  0
VERTEX
  8
LAYER_1
 10
286.7939
 20
396.7448
 42
-0.06878601885
  0
VERTEX
  8
LAYER_1
 10
287.2039
 20
396.6325
 42
-0.169483501
  0
VERTEX
  8
LAYER_1
 10
287.5553
 20
396.3174
 42
-0.1164325627
  0
VERTEX
  8
LAYER_1
 10
287.6193
 20
396.0132
 42
-0.1724125422
  0
VERTEX
  8
LAYER_1
 10
287.4518
 20
395.503
 42
-0.1584721802
  0
VERTEX
  8
LAYER_1
 10
287.0141
 20
395.2393
 42
-0.07245656248
  0
VERTEX
  8
LAYER_1
 10
286.47
 20
395.1731
 42
-0.1216647888
  0
VERTEX
  8
LAYER_1
 10
285.7498
 20
395.3361
 42
-0.2350944637
  0
VERTEX
  8
LAYER_1
 10
285.2563
 20
396.059
  0
VERTEX
  8
LAYER_1
 10
284.6403
 20
396.059
 42
0.1333559319
  0
VERTEX
  8
LAYER_1
 10
284.8578
 20
395.4123
 42
0.1212214038
  0
VERTEX
  8
LAYER_1
 10
285.3332
 20
394.9923
 42
0.09874754593
  0
VERTEX
  8
LAYER_1
 10
286.0821
 20
394.7665
 42
0.02987283731
  0
VERTEX
  8
LAYER_1
 10
286.4573
 20
394.7446
 42
0.09226156506
  0
VERTEX
  8
LAYER_1
 10
287.4377
 20
394.9101
 42
0.1223159491
  0
VERTEX
  8
LAYER_1
 10
287.9708
 20
395.2915
 42
0.1355315453
  0
VERTEX
  8
LAYER_1
 10
288.2073
 20
395.8417
 42
0.03705162074
  0
VERTEX
  8
LAYER_1
 10
288.2232
 20
396.059
 42
0.1440889385
  0
VERTEX
  8
LAYER_1
 10
288.0549
 20
396.6914
 42
0.136499685
  0
VERTEX
  8
LAYER_1
 10
287.6338
 20
397.0479
 42
0.08070480146
  0
VERTEX
  8
LAYER_1
 10
286.9461
 20
397.2533
  0
SEQEND
  0
POLYLINE
  8
LAYER_1
 40
0.05
 41
0.05
 66
1
 10
0
 20
0
 30
0
 70
1
  0
VERTEX
  8
LAYER_1
 10
268.4977
 20
397.122
  0
VERTEX
  8
LAYER_1
 10
268.4977
 20
398.7677
  0
VERTEX
  8
LAYER_1
 10
269.6411
 20
398.7677
 42
-0.1360765863
  0
VERTEX
  8
LAYER_1
 10
270.2862
 20
398.6047
 42
-0.2642099653
  0
VERTEX
  8
LAYER_1
 10
270.6129
 20
397.9676
 42
-0.1653001469
  0
VERTEX
  8
LAYER_1
 10
270.4481
 20
397.4363
 42
-0.1616872832
  0
VERTEX
  8
LAYER_1
 10
270.0351
 20
397.176
 42
-0.07199661025
  0
VERTEX
  8
LAYER_1
 10
269.6156
 20
397.122
  0
SEQEND
  0
POLYLINE
  8
LAYER_1
 40
0.05
 41
0.05
 66
1
 10
0
 20
0
 30
0
 70
1
  0
VERTEX
  8
LAYER_1
 10
270.194
 20
396.7675
 42
0.1221867852
  0
VERTEX
  8
LAYER_1
 10
270.8819
 20
397.1005
 42
0.2053827054
  0
VERTEX
  8
LAYER_1
 10
271.2335
 20
397.8794
 42
0.0156744566
  0
VERTEX
  8
LAYER_1
 10
271.2362
 20
397.9733
 42
0.13949242
  0
VERTEX
  8
LAYER_1
 10
271.0669
 20
398.6063
 42
0.1368697471
  0
VERTEX
  8
LAYER_1
 10
270.6251
 20
398.9983
 42
0.003703867914
  0
VERTEX
  8
LAYER_1
 10
270.6071
 20
399.0075
 42
0.1052672577
  0
VERTEX
  8
LAYER_1
 10
269.7493
 20
399.2008
 42
0.007901396217
  0
VERTEX
  8
LAYER_1
 10
269.6666
 20
399.202
  0
VERTEX
  8
LAYER_1
 10
267.9068
 20
399.202
  0
VERTEX
  8
LAYER_1
 10
267.9068
 20
394.8307
  0
VERTEX
  8
LAYER_1
 10
268.4977
 20
394.8307
  0
VERTEX
  8
LAYER_1
 10
268.4977
 20
396.6821
  0
VERTEX
  8
LAYER_1
 10
269.5777
 20
396.6821
  0
VERTEX
  8
LAYER_1
 10
270.5812
 20
394.8307
  0
VERTEX
  8
LAYER_1
 10
271.2675
 20
394.8307
  0
VERTEX
  8
LAYER_1
 10
270.194
 20
396.7561
  0
SEQEND
  0
POLYLINE
  8
LAYER_1
 40
0.05
 41
0.05
 66
1
 10
0
 20
0
 30
0
 70
1
  0
VERTEX
  8
LAYER_1
 10
282.6515
 20
394.8307
  0
VERTEX
  8
LAYER_1
 10
283.2427
 20
394.8307
  0
VERTEX
  8
LAYER_1
 10
283.2427
 20
399.202
  0
VERTEX
  8
LAYER_1
 10
282.6515
 20
399.202
  0
SEQEND
  0
POLYLINE
  8
LAYER_1
 40
0.05
 41
0.05
 66
1
 10
0
 20
0
 30
0
  0
VERTEX
  8
LAYER_1
 10
274.4628
 20
395.1676
 42
-0.1201036245
  0
VERTEX
  8
LAYER_1
 10
273.709
 20
395.3422
 42
-0.1833995402
  0
VERTEX
  8
LAYER_1
 10
273.0692
 20
396.0826
 42
-0.09346695174
  0
VERTEX
  8
LAYER_1
 10
272.9139
 20
396.9133
 42
-0.006607646183
  0
VERTEX
  8
LAYER_1
 10
272.9129
 20
396.9964
 42
-0.09451233088
  0
VERTEX
  8
LAYER_1
 10
273.081
 20
397.9512
 42
-0.1136920143
  0
VERTEX
  8
LAYER_1
 10
273.4694
 20
398.5022
 42
-0.1233838019
  0
VERTEX
  8
LAYER_1
 10
274.058
 20
398.797
 42
-0.0578588559
  0
VERTEX
  8
LAYER_1
 10
274.4628
 20
398.8418
 42
-0.1204247159
  0
VERTEX
  8
LAYER_1
 10
275.2239
 20
398.6646
 42
-0.1821183244
  0
VERTEX
  8
LAYER_1
 10
275.8732
 20
397.916
 42
-0.09404686693
  0
VERTEX
  8
LAYER_1
 10
276.0314
 20
397.0798
 42
-0.006701039944
  0
VERTEX
  8
LAYER_1
 10
276.0324
 20
396.9964
 42
-0.09787375833
  0
VERTEX
  8
LAYER_1
 10
275.8612
 20
396.0703
 42
-0.1143705115
  0
VERTEX
  8
LAYER_1
 10
275.4521
 20
395.506
 42
-0.1174818689
  0
VERTEX
  8
LAYER_1
 10
274.871
 20
395.2148
 42
-0.05993966148
  0
VERTEX
  8
LAYER_1
 10
274.4628
 20
395.1676
  0
SEQEND
  0
POLYLINE
  8
LAYER_1
 40
0.05
 41
0.05
 66
1
 10
0
 20
0
 30
0
  0
VERTEX
  8
LAYER_1
 10
274.4628
 20
399.2647
 42
0.09380817421
  0
VERTEX
  8
LAYER_1
 10
273.54
 20
399.0955
 42
0.1009713649
  0
VERTEX
  8
LAYER_1
 10
272.888
 20
398.6671
 42
0.09914018748
  0
VERTEX
  8
LAYER_1
 10
272.478
 20
398.0427
 42
0.08801165144
  0
VERTEX
  8
LAYER_1
 10
272.295
 20
397.1816
 42
0.01380030723
  0
VERTEX
  8
LAYER_1
 10
272.2904
 20
397.0021
 42
0.08978712934
  0
VERTEX
  8
LAYER_1
 10
272.4619
 20
395.9903
 42
0.09632916679
  0
VERTEX
  8
LAYER_1
 10
272.8568
 20
395.3573
 42
0.1028034786
  0
VERTEX
  8
LAYER_1
 10
273.4764
 20
394.9289
 42
0.09013977037
  0
VERTEX
  8
LAYER_1
 10
274.2964
 20
394.7436
 42
0.01466939489
  0
VERTEX
  8
LAYER_1
 10
274.4628
 20
394.739
 42
0.09305512057
  0
VERTEX
  8
LAYER_1
 10
275.4034
 20
394.9093
 42
0.1015182123
  0
VERTEX
  8
LAYER_1
 10
276.0596
 20
395.3389
 42
0.09957407106
  0
VERTEX
  8
LAYER_1
 10
276.4688
 20
395.9637
 42
0.08770168348
  0
VERTEX
  8
LAYER_1
 10
276.6504
 20
396.8232
 42
0.01369252336
  0
VERTEX
  8
LAYER_1
 10
276.6549
 20
397.0021
 42
0.09193683062
  0
VERTEX
  8
LAYER_1
 10
276.4786
 20
398.0161
 42
0.09687042249
  0
VERTEX
  8
LAYER_1
 10
276.0753
 20
398.6488
 42
0.1014738264
  0
VERTEX
  8
LAYER_1
 10
275.448
 20
399.0759
 42
0.0914088598
  0
VERTEX
  8
LAYER_1
 10
274.6004
 20
399.2615
 42
0.01213375877
  0
VERTEX
  8
LAYER_1
 10
274.4628
 20
399.2647
  0
SEQEND
  0
POLYLINE
  8
LAYER_1
 40
0.05
 41
0.05
 66
1
 10
0
 20
0
 30
0
  0
VERTEX
  8
LAYER_1
 10
264.87
 20
395.2589
  0
VERTEX
  8
LAYER_1
 10
263.6883
 20
395.2589
  0
VERTEX
  8
LAYER_1
 10
263.6883
 20
396.9219
  0
VERTEX
  8
LAYER_1
 10
264.8193
 20
396.9219
 42
-0.05275806413
  0
VERTEX
  8
LAYER_1
 10
265.3631
 20
396.8743
 42
-0.1430657129
  0
VERTEX
  8
LAYER_1
 10
265.8747
 20
396.6211
 42
-0.1770511011
  0
VERTEX
  8
LAYER_1
 10
266.0421
 20
396.2122
 42
-0.02176307697
  0
VERTEX
  8
LAYER_1
 10
266.0451
 20
396.1334
 42
-0.1635613937
  0
VERTEX
  8
LAYER_1
 10
265.8826
 20
395.5937
 42
-0.1608951105
  0
VERTEX
  8
LAYER_1
 10
265.4704
 20
395.3331
 42
-0.07830107821
  0
VERTEX
  8
LAYER_1
 10
264.87
 20
395.2589
  0
SEQEND
  0
POLYLINE
  8
LAYER_1
 40
0.05
 41
0.05
 66
1
 10
0
 20
0
 30
0
 70
1
  0
VERTEX
  8
LAYER_1
 10
263.6883
 20
398.7732
  0
VERTEX
  8
LAYER_1
 10
264.9785
 20
398.7732
 42
-0.1381658882
  0
VERTEX
  8
LAYER_1
 10
265.6305
 20
398.6135
 42
-0.2604385785
  0
VERTEX
  8
LAYER_1
 10
265.8928
 20
398.0875
 42
-0.1867763055
  0
VERTEX
  8
LAYER_1
 10
265.7286
 20
397.6258
 42
-0.1639635045
  0
VERTEX
  8
LAYER_1
 10
265.2849
 20
397.3987
 42
-0.05311995908
  0
VERTEX
  8
LAYER_1
 10
264.902
 20
397.3618
  0
VERTEX
  8
LAYER_1
 10
263.6883
 20
397.3618
  0
SEQEND
  0
POLYLINE
  8
LAYER_1
 40
0.05
 41
0.05
 66
1
 10
0
 20
0
 30
0
  0
VERTEX
  8
LAYER_1
 10
265.6196
 20
397.1506
  0
VERTEX
  8
LAYER_1
 10
265.6196
 20
397.1618
 42
0.1370906713
  0
VERTEX
  8
LAYER_1
 10
266.2447
 20
397.464
 42
0.211814873
  0
VERTEX
  8
LAYER_1
 10
266.5095
 20
398.139
 42
0.1581789908
  0
VERTEX
  8
LAYER_1
 10
266.3379
 20
398.6906
 42
0.1384100717
  0
VERTEX
  8
LAYER_1
 10
265.8798
 20
399.0414
 42
0.1013642858
  0
VERTEX
  8
LAYER_1
 10
265.0873
 20
399.201
 42
0.006975573638
  0
VERTEX
  8
LAYER_1
 10
265.0098
 20
399.202
  0
VERTEX
  8
LAYER_1
 10
263.0975
 20
399.202
  0
VERTEX
  8
LAYER_1
 10
263.0975
 20
394.8307
  0
VERTEX
  8
LAYER_1
 10
264.8638
 20
394.8307
 42
0.08698062885
  0
VERTEX
  8
LAYER_1
 10
265.9157
 20
394.9927
 42
0.127478928
  0
VERTEX
  8
LAYER_1
 10
266.4309
 20
395.3556
 42
0.1417718506
  0
VERTEX
  8
LAYER_1
 10
266.6495
 20
395.9017
 42
0.03046965801
  0
VERTEX
  8
LAYER_1
 10
266.6614
 20
396.0988
 42
0.2294859749
  0
VERTEX
  8
LAYER_1
 10
266.2775
 20
396.8706
 42
0.1215377782
  0
VERTEX
  8
LAYER_1
 10
265.7042
 20
397.1355
 42
0.01431458495
  0
VERTEX
  8
LAYER_1
 10
265.6196
 20
397.1506
  0
SEQEND
  0
POLYLINE
  8
LAYER_1
 40
0.05
 41
0.05
 66
1
 10
0
 20
0
 30
0
  0
VERTEX
  8
LAYER_1
 10
255.3804
 20
385.2545
 42
-0.05827443014
  0
VERTEX
  8
LAYER_1
 10
254.1479
 20
384.4566
 42
-0.04511033051
  0
VERTEX
  8
LAYER_1
 10
252.4536
 20
383.791
 42
-0.03375494188
  0
VERTEX
  8
LAYER_1
 10
250.0651
 20
383.2464
 42
-0.01171791942
  0
VERTEX
  8
LAYER_1
 10
248.4852
 20
383.0206
 42
-0.008881956716
  0
VERTEX
  8
LAYER_1
 10
245.7221
 20
382.746
  0
VERTEX
  8
LAYER_1
 10
245.0589
 20
382.6871
 42
-0.02249235624
  0
VERTEX
  8
LAYER_1
 10
243.5011
 20
382.6168
 42
-0.03690341499
  0
VERTEX
  8
LAYER_1
 10
240.9484
 20
382.8048
 42
-0.03162874393
  0
VERTEX
  8
LAYER_1
 10
238.8643
 20
383.251
 42
-0.03174840645
  0
VERTEX
  8
LAYER_1
 10
236.8991
 20
383.9417
 42
-0.03205987389
  0
VERTEX
  8
LAYER_1
 10
235.075
 20
384.8589
 42
-0.03263071339
  0
VERTEX
  8
LAYER_1
 10
233.4137
 20
385.9847
 42
-0.03349006318
  0
VERTEX
  8
LAYER_1
 10
231.9374
 20
387.3011
 42
-0.03461650268
  0
VERTEX
  8
LAYER_1
 10
230.6679
 20
388.7905
 42
-0.03592435912
  0
VERTEX
  8
LAYER_1
 10
229.6272
 20
390.4347
 42
-0.0372535027
  0
VERTEX
  8
LAYER_1
 10
228.8372
 20
392.2161
 42
-0.05786282603
  0
VERTEX
  8
LAYER_1
 10
228.1704
 20
395.1059
 42
-0.02752751718
  0
VERTEX
  8
LAYER_1
 10
228.1263
 20
395.9021
 42
-0.05697968256
  0
VERTEX
  8
LAYER_1
 10
228.3139
 20
397.5309
 42
-0.04620439223
  0
VERTEX
  8
LAYER_1
 10
228.7934
 20
398.9776
 42
-0.04246009244
  0
VERTEX
  8
LAYER_1
 10
229.6503
 20
400.5657
 42
-0.03656192005
  0
VERTEX
  8
LAYER_1
 10
231.0249
 20
402.3772
 42
-0.0137605088
  0
VERTEX
  8
LAYER_1
 10
231.9381
 20
403.3714
 42
-0.01455498674
  0
VERTEX
  8
LAYER_1
 10
233.9454
 20
405.3134
  0
VERTEX
  8
LAYER_1
 10
235.0031
 20
406.3294
 42
-0.01776002607
  0
VERTEX
  8
LAYER_1
 10
236.6495
 20
407.8699
 42
-0.03948681369
  0
VERTEX
  8
LAYER_1
 10
238.2811
 20
409.079
 42
-0.0470648882
  0
VERTEX
  8
LAYER_1
 10
239.7518
 20
409.7982
 42
-0.04933993414
  0
VERTEX
  8
LAYER_1
 10
241.3242
 20
410.2137
 42
-0.01788807199
  0
VERTEX
  8
LAYER_1
 10
241.9794
 20
410.2964
 42
-0.02276715341
  0
VERTEX
  8
LAYER_1
 10
243.5366
 20
410.3667
 42
-0.03690759004
  0
VERTEX
  8
LAYER_1
 10
246.0891
 20
410.1787
 42
-0.03163073628
  0
VERTEX
  8
LAYER_1
 10
248.1732
 20
409.7324
 42
-0.03174900391
  0
VERTEX
  8
LAYER_1
 10
250.1383
 20
409.0417
 42
-0.03205930382
  0
VERTEX
  8
LAYER_1
 10
251.9625
 20
408.1245
 42
-0.03262928322
  0
VERTEX
  8
LAYER_1
 10
253.6237
 20
406.9987
 42
-0.03348814572
  0
VERTEX
  8
LAYER_1
 10
255.1001
 20
405.6821
 42
-0.03461452889
  0
VERTEX
  8
LAYER_1
 10
256.3696
 20
404.1927
 42
-0.03592280444
  0
VERTEX
  8
LAYER_1
 10
257.4104
 20
402.5484
 42
-0.03725284676
  0
VERTEX
  8
LAYER_1
 10
258.2004
 20
400.7671
 42
-0.05786411175
  0
VERTEX
  8
LAYER_1
 10
258.8672
 20
397.8772
 42
-0.02775302652
  0
VERTEX
  8
LAYER_1
 10
259.0164
 20
395.1976
 42
-0.03274993766
  0
VERTEX
  8
LAYER_1
 10
258.8392
 20
392.4209
 42
-0.03404497385
  0
VERTEX
  8
LAYER_1
 10
258.3978
 20
390.2396
 42
-0.04007547318
  0
VERTEX
  8
LAYER_1
 10
257.7085
 20
388.3565
 42
-0.04417216634
  0
VERTEX
  8
LAYER_1
 10
256.8318
 20
386.8365
 42
-0.04721463467
  0
VERTEX
  8
LAYER_1
 10
255.7875
 20
385.6196
 42
-0.01700971296
  0
VERTEX
  8
LAYER_1
 10
255.3804
 20
385.2545
  0
SEQEND
  0
POLYLINE
  8
LAYER_1
 40
0.05
 41
0.05
 66
1
 10
0
 20
0
 30
0
  0
VERTEX
  8
LAYER_1
 10
259.2455
 20
397.9111
 42
0.06045643612
  0
VERTEX
  8
LAYER_1
 10
258.5237
 20
400.9642
 42
0.03722199802
  0
VERTEX
  8
LAYER_1
 10
257.7003
 20
402.7738
 42
0.03634309149
  0
VERTEX
  8
LAYER_1
 10
256.6084
 20
404.4632
 42
0.03543677134
  0
VERTEX
  8
LAYER_1
 10
255.2613
 20
406.0088
 42
0.02593575174
  0
VERTEX
  8
LAYER_1
 10
254.0916
 20
407.0594
 42
0.03741535603
  0
VERTEX
  8
LAYER_1
 10
252.1441
 20
408.4051
 42
0.03497465995
  0
VERTEX
  8
LAYER_1
 10
250.0937
 20
409.4216
 42
0.03420811546
  0
VERTEX
  8
LAYER_1
 10
247.9069
 20
410.152
 42
0.03380635492
  0
VERTEX
  8
LAYER_1
 10
245.6182
 20
410.5843
 42
0.02985151976
  0
VERTEX
  8
LAYER_1
 10
243.5366
 20
410.7084
 42
0.02227717322
  0
VERTEX
  8
LAYER_1
 10
241.9411
 20
410.6364
 42
0.04964862375
  0
VERTEX
  8
LAYER_1
 10
240.1381
 20
410.2951
 42
0.04680569772
  0
VERTEX
  8
LAYER_1
 10
238.6567
 20
409.697
 42
0.04565220968
  0
VERTEX
  8
LAYER_1
 10
237.103
 20
408.7023
 42
0.01709579716
  0
VERTEX
  8
LAYER_1
 10
236.2716
 20
408.018
 42
0.01469603663
  0
VERTEX
  8
LAYER_1
 10
234.7271
 20
406.5643
  0
VERTEX
  8
LAYER_1
 10
233.6715
 20
405.5498
 42
0.01406740362
  0
VERTEX
  8
LAYER_1
 10
231.6911
 20
403.6365
 42
0.02972210799
  0
VERTEX
  8
LAYER_1
 10
229.9381
 20
401.6189
 42
0.03716251792
  0
VERTEX
  8
LAYER_1
 10
228.8278
 20
399.9061
 42
0.04424038633
  0
VERTEX
  8
LAYER_1
 10
228.1344
 20
398.2988
 42
0.04915627538
  0
VERTEX
  8
LAYER_1
 10
227.7963
 20
396.7593
 42
0.02875165725
  0
VERTEX
  8
LAYER_1
 10
227.747
 20
395.9052
 42
0.02747074167
  0
VERTEX
  8
LAYER_1
 10
227.7935
 20
395.072
 42
0.06042905997
  0
VERTEX
  8
LAYER_1
 10
228.5151
 20
392.0182
 42
0.03722706254
  0
VERTEX
  8
LAYER_1
 10
229.3383
 20
390.2086
 42
0.03636218909
  0
VERTEX
  8
LAYER_1
 10
230.4299
 20
388.5194
 42
0.03546648319
  0
VERTEX
  8
LAYER_1
 10
231.7766
 20
386.9744
 42
0.02596272846
  0
VERTEX
  8
LAYER_1
 10
232.946
 20
385.9244
 42
0.03741517953
  0
VERTEX
  8
LAYER_1
 10
234.8935
 20
384.5786
 42
0.03497862242
  0
VERTEX
  8
LAYER_1
 10
236.9438
 20
383.5619
 42
0.03421380376
  0
VERTEX
  8
LAYER_1
 10
239.1306
 20
382.8314
 42
0.03381123406
  0
VERTEX
  8
LAYER_1
 10
241.4194
 20
382.3992
 42
0.02985309434
  0
VERTEX
  8
LAYER_1
 10
243.5011
 20
382.275
 42
0.02243337254
  0
VERTEX
  8
LAYER_1
 10
245.0972
 20
382.347
  0
VERTEX
  8
LAYER_1
 10
245.7573
 20
382.4059
 42
0.01209709131
  0
VERTEX
  8
LAYER_1
 10
248.9111
 20
382.7291
 42
0.02667465712
  0
VERTEX
  8
LAYER_1
 10
251.7524
 20
383.2418
 42
0.03717421193
  0
VERTEX
  8
LAYER_1
 10
253.7402
 20
383.8847
 42
0.04664398126
  0
VERTEX
  8
LAYER_1
 10
255.1255
 20
384.6195
 42
0.02643428168
  0
VERTEX
  8
LAYER_1
 10
255.6395
 20
385.0041
 42
0.05228234641
  0
VERTEX
  8
LAYER_1
 10
256.886
 20
386.2922
 42
0.04478755371
  0
VERTEX
  8
LAYER_1
 10
257.8141
 20
387.7223
 42
0.04104964052
  0
VERTEX
  8
LAYER_1
 10
258.5523
 20
389.4392
 42
0.02613567289
  0
VERTEX
  8
LAYER_1
 10
258.952
 20
390.8559
 42
0.03626730167
  0
VERTEX
  8
LAYER_1
 10
259.3309
 20
393.3504
 42
0.02074344722
  0
VERTEX
  8
LAYER_1
 10
259.4029
 20
395.1428
 42
0.02791368813
  0
VERTEX
  8
LAYER_1
 10
259.2455
 20
397.9111
  0
SEQEND
  0
POLYLINE
  8
LAYER_1
 40
0.05
 41
0.05
 66
1
 10
0
 20
0
 30
0
 70
1
  0
VERTEX
  8
LAYER_1
 10
254.576
 20
396.3896
 42
-0.04032753284
  0
VERTEX
  8
LAYER_1
 10
254.3894
 20
394.0192
 42
-0.04012161219
  0
VERTEX
  8
LAYER_1
 10
253.9339
 20
392.1785
 42
-0.04238898037
  0
VERTEX
  8
LAYER_1
 10
253.2811
 20
390.6796
 42
-0.04766533917
  0
VERTEX
  8
LAYER_1
 10
252.4137
 20
389.3941
 42
-0.05216108607
  0
VERTEX
  8
LAYER_1
 10
251.34
 20
388.3427
 42
-0.06132027517
  0
VERTEX
  8
LAYER_1
 10
250.0904
 20
387.5944
 42
-0.04372997586
  0
VERTEX
  8
LAYER_1
 10
248.3291
 20
386.9731
 42
-0.03008929619
  0
VERTEX
  8
LAYER_1
 10
245.7612
 20
386.4505
 42
-0.008990725474
  0
VERTEX
  8
LAYER_1
 10
243.3454
 20
386.1318
  0
VERTEX
  8
LAYER_1
 10
243.1324
 20
386.1061
 42
-0.04222384689
  0
VERTEX
  8
LAYER_1
 10
240.9096
 20
386.0163
 42
-0.04179218311
  0
VERTEX
  8
LAYER_1
 10
238.9868
 20
386.267
 42
-0.001444224648
  0
VERTEX
  8
LAYER_1
 10
238.9246
 20
386.2808
 42
-0.08082836933
  0
VERTEX
  8
LAYER_1
 10
235.3868
 20
387.7048
 42
-0.1843096854
  0
VERTEX
  8
LAYER_1
 10
230.087
 20
394.5527
 42
-0.03418230846
  0
VERTEX
  8
LAYER_1
 10
229.7476
 20
396.0937
 42
-0.03659004632
  0
VERTEX
  8
LAYER_1
 10
229.6769
 20
397.039
 42
-0.06060583724
  0
VERTEX
  8
LAYER_1
 10
229.863
 20
398.5607
 42
-0.04987526961
  0
VERTEX
  8
LAYER_1
 10
230.3464
 20
399.9184
 42
-0.0463619724
  0
VERTEX
  8
LAYER_1
 10
231.2391
 20
401.435
 42
-0.03788267814
  0
VERTEX
  8
LAYER_1
 10
232.6393
 20
403.112
 42
-0.02443806133
  0
VERTEX
  8
LAYER_1
 10
234.5073
 20
404.8754
  0
VERTEX
  8
LAYER_1
 10
235.432
 20
405.7079
 42
-0.02104820943
  0
VERTEX
  8
LAYER_1
 10
236.928
 20
407.0131
 42
-0.0463007719
  0
VERTEX
  8
LAYER_1
 10
238.3581
 20
407.955
 42
-0.05408370526
  0
VERTEX
  8
LAYER_1
 10
239.6891
 20
408.4714
 42
-0.04458532955
  0
VERTEX
  8
LAYER_1
 10
240.9228
 20
408.6836
 42
-0.02156597693
  0
VERTEX
  8
LAYER_1
 10
242.0982
 20
408.7341
 42
-0.05799360853
  0
VERTEX
  8
LAYER_1
 10
245.1855
 20
408.3751
 42
-0.03911379441
  0
VERTEX
  8
LAYER_1
 10
247.144
 20
407.7466
 42
-0.04175291897
  0
VERTEX
  8
LAYER_1
 10
249.0576
 20
406.7687
 42
-0.04248080691
  0
VERTEX
  8
LAYER_1
 10
250.749
 20
405.506
 42
-0.04121647155
  0
VERTEX
  8
LAYER_1
 10
252.096
 20
404.0933
 42
-0.04015516692
  0
VERTEX
  8
LAYER_1
 10
253.1138
 20
402.5994
 42
-0.04205147242
  0
VERTEX
  8
LAYER_1
 10
253.8716
 20
400.9592
 42
-0.05016671586
  0
VERTEX
  8
LAYER_1
 10
254.3838
 20
398.9341
 42
-0.03627503264
  0
VERTEX
  8
LAYER_1
 10
254.576
 20
396.3903
  0
SEQEND
  0
POLYLINE
  8
LAYER_1
 40
0.05
 41
0.05
 66
1
 10
0
 20
0
 30
0
  0
VERTEX
  8
LAYER_1
 10
242.0982
 20
409.1633
 42
0.02054480718
  0
VERTEX
  8
LAYER_1
 10
240.8794
 20
409.1115
 42
0.05546189218
  0
VERTEX
  8
LAYER_1
 10
239.2409
 20
408.7902
 42
0.05251280522
  0
VERTEX
  8
LAYER_1
 10
237.8623
 20
408.1842
 42
0.04491440627
  0
VERTEX
  8
LAYER_1
 10
236.4245
 20
407.1817
 42
0.01589170313
  0
VERTEX
  8
LAYER_1
 10
235.0943
 20
406.0088
  0
VERTEX
  8
LAYER_1
 10
235.0516
 20
405.9704
  0
VERTEX
  8
LAYER_1
 10
234.1752
 20
405.1837
 42
0.0293495002
  0
VERTEX
  8
LAYER_1
 10
231.878
 20
402.9614
 42
0.03631513803
  0
VERTEX
  8
LAYER_1
 10
230.5921
 20
401.3103
 42
0.04483757134
  0
VERTEX
  8
LAYER_1
 10
229.767
 20
399.7758
 42
0.04994149557
  0
VERTEX
  8
LAYER_1
 10
229.3255
 20
398.3399
 42
0.04854188454
  0
VERTEX
  8
LAYER_1
 10
229.1984
 20
397.0412
 42
0.03715510951
  0
VERTEX
  8
LAYER_1
 10
229.2739
 20
396.0361
 42
0.06322709892
  0
VERTEX
  8
LAYER_1
 10
230.0921
 20
393.1338
 42
0.05619979524
  0
VERTEX
  8
LAYER_1
 10
231.441
 20
390.7396
 42
0.07329388279
  0
VERTEX
  8
LAYER_1
 10
233.9888
 20
388.1195
 42
0.07435656706
  0
VERTEX
  8
LAYER_1
 10
237.2245
 20
386.3329
 42
0.03356134389
  0
VERTEX
  8
LAYER_1
 10
238.8095
 20
385.8634
 42
0.04386441913
  0
VERTEX
  8
LAYER_1
 10
240.8889
 20
385.5883
 42
0.01154452605
  0
VERTEX
  8
LAYER_1
 10
241.4922
 20
385.5744
 42
0.03056722751
  0
VERTEX
  8
LAYER_1
 10
243.1958
 20
385.68
  0
VERTEX
  8
LAYER_1
 10
243.4036
 20
385.706
 42
0.01280223546
  0
VERTEX
  8
LAYER_1
 10
246.2314
 20
386.0896
 42
0.02992648603
  0
VERTEX
  8
LAYER_1
 10
248.8513
 20
386.672
 42
0.04180868802
  0
VERTEX
  8
LAYER_1
 10
250.5737
 20
387.3405
 42
0.04904239712
  0
VERTEX
  8
LAYER_1
 10
251.6556
 20
388.0202
 42
0.05429271357
  0
VERTEX
  8
LAYER_1
 10
252.8247
 20
389.1727
 42
0.04834550018
  0
VERTEX
  8
LAYER_1
 10
253.7261
 20
390.5238
 42
0.04348634732
  0
VERTEX
  8
LAYER_1
 10
254.402
 20
392.0928
 42
0.03859414124
  0
VERTEX
  8
LAYER_1
 10
254.8436
 20
393.8579
 42
0.03692242887
  0
VERTEX
  8
LAYER_1
 10
255.0473
 20
395.9664
 42
0.006640100582
  0
VERTEX
  8
LAYER_1
 10
255.0528
 20
396.393
 42
0.03635952888
  0
VERTEX
  8
LAYER_1
 10
254.8626
 20
398.9493
 42
0.0005512043621
  0
VERTEX
  8
LAYER_1
 10
254.8565
 20
398.9906
 42
0.06575546924
  0
VERTEX
  8
LAYER_1
 10
254.077
 20
401.7168
 42
0.04170143468
  0
VERTEX
  8
LAYER_1
 10
253.1905
 20
403.3677
 42
0.0398725754
  0
VERTEX
  8
LAYER_1
 10
252.0445
 20
404.8585
 42
0.0383116389
  0
VERTEX
  8
LAYER_1
 10
250.6679
 20
406.1659
 42
0.03721932665
  0
VERTEX
  8
LAYER_1
 10
249.0898
 20
407.2669
 42
0.03665710312
  0
VERTEX
  8
LAYER_1
 10
247.3392
 20
408.1382
 42
0.05502209764
  0
VERTEX
  8
LAYER_1
 10
244.4533
 20
408.9641
 42
0.04240805629
  0
VERTEX
  8
LAYER_1
 10
242.0982
 20
409.1633
  0
SEQEND
  0
POLYLINE
  8
LAYER_1
 40
0.05
 41
0.05
 66
1
 10
0
 20
0
 30
0
  0
VERTEX
  8
LAYER_1
 10
250.1163
 20
397.8038
 42
-0.04622281258
  0
VERTEX
  8
LAYER_1
 10
249.9379
 20
395.8631
 42
-0.04705775267
  0
VERTEX
  8
LAYER_1
 10
249.4872
 20
394.2945
 42
-0.05162027971
  0
VERTEX
  8
LAYER_1
 10
248.813
 20
393.0029
 42
-0.0545594093
  0
VERTEX
  8
LAYER_1
 10
247.9423
 20
391.963
 42
-0.03373583354
  0
VERTEX
  8
LAYER_1
 10
247.3086
 20
391.4342
 42
-0.06243616234
  0
VERTEX
  8
LAYER_1
 10
245.9572
 20
390.7079
 42
-0.02017897561
  0
VERTEX
  8
LAYER_1
 10
245.0848
 20
390.3946
 42
-0.01606019147
  0
VERTEX
  8
LAYER_1
 10
243.9868
 20
390.0879
 42
-0.01916045493
  0
VERTEX
  8
LAYER_1
 10
241.1942
 20
389.5228
 42
-0.04918783806
  0
VERTEX
  8
LAYER_1
 10
239.3557
 20
389.3775
 42
-0.04720000725
  0
VERTEX
  8
LAYER_1
 10
238.0726
 20
389.532
 42
-0.08100706076
  0
VERTEX
  8
LAYER_1
 10
235.8108
 20
390.4427
 42
-0.04850340653
  0
VERTEX
  8
LAYER_1
 10
234.5173
 20
391.4051
 42
-0.04464584876
  0
VERTEX
  8
LAYER_1
 10
233.3732
 20
392.641
 42
-0.04134609408
  0
VERTEX
  8
LAYER_1
 10
232.4185
 20
394.1081
 42
-0.06489896365
  0
VERTEX
  8
LAYER_1
 10
231.3894
 20
396.7914
 42
-0.007408240633
  0
VERTEX
  8
LAYER_1
 10
231.3237
 20
397.0881
 42
-0.05044871394
  0
VERTEX
  8
LAYER_1
 10
231.2103
 20
398.1862
 42
-0.06591018749
  0
VERTEX
  8
LAYER_1
 10
231.396
 20
399.5785
 42
-0.05740584793
  0
VERTEX
  8
LAYER_1
 10
231.9255
 20
400.9105
 42
-0.04923584891
  0
VERTEX
  8
LAYER_1
 10
232.8358
 20
402.2774
 42
-0.04002711752
  0
VERTEX
  8
LAYER_1
 10
234.164
 20
403.6736
 42
-0.0175241318
  0
VERTEX
  8
LAYER_1
 10
235.0637
 20
404.4341
  0
VERTEX
  8
LAYER_1
 10
235.7906
 20
405.0252
 42
-0.02483419191
  0
VERTEX
  8
LAYER_1
 10
237.0742
 20
406.0286
 42
-0.05459521348
  0
VERTEX
  8
LAYER_1
 10
238.3236
 20
406.7174
 42
-0.07759522182
  0
VERTEX
  8
LAYER_1
 10
239.8686
 20
407.0721
 42
-0.01858809044
  0
VERTEX
  8
LAYER_1
 10
240.6571
 20
407.1018
 42
-0.06661855202
  0
VERTEX
  8
LAYER_1
 10
243.3127
 20
406.7468
 42
-0.06097388439
  0
VERTEX
  8
LAYER_1
 10
245.5198
 20
405.8424
 42
-0.04116897752
  0
VERTEX
  8
LAYER_1
 10
246.8123
 20
404.9694
 42
-0.04221209418
  0
VERTEX
  8
LAYER_1
 10
247.9285
 20
403.9058
 42
-0.04379328941
  0
VERTEX
  8
LAYER_1
 10
248.8403
 20
402.6734
 42
-0.04565266617
  0
VERTEX
  8
LAYER_1
 10
249.5192
 20
401.2942
 42
-0.04133471862
  0
VERTEX
  8
LAYER_1
 10
249.9
 20
399.984
 42
-0.04640370182
  0
VERTEX
  8
LAYER_1
 10
250.1147
 20
397.9949
 42
-0.004219875223
  0
VERTEX
  8
LAYER_1
 10
250.1163
 20
397.8038
  0
SEQEND
  0
POLYLINE
  8
LAYER_1
 40
0.05
 41
0.05
 66
1
 10
0
 20
0
 30
0
  0
VERTEX
  8
LAYER_1
 10
240.6571
 20
407.6189
 42
0.01833415017
  0
VERTEX
  8
LAYER_1
 10
239.8196
 20
407.5872
 42
0.06117899948
  0
VERTEX
  8
LAYER_1
 10
238.4024
 20
407.3041
 42
0.05858943364
  0
VERTEX
  8
LAYER_1
 10
237.1222
 20
406.6982
 42
0.02218633762
  0
VERTEX
  8
LAYER_1
 10
236.4418
 20
406.2353
 42
0.01417419921
  0
VERTEX
  8
LAYER_1
 10
235.4079
 20
405.4099
  0
VERTEX
  8
LAYER_1
 10
234.6861
 20
404.8218
 42
0.03702044101
  0
VERTEX
  8
LAYER_1
 10
232.9347
 20
403.2281
 42
0.04226391319
  0
VERTEX
  8
LAYER_1
 10
231.7894
 20
401.7803
 42
0.05045770392
  0
VERTEX
  8
LAYER_1
 10
231.0576
 20
400.37
 42
0.05365197093
  0
VERTEX
  8
LAYER_1
 10
230.7039
 20
399.0662
 42
0.0901678658
  0
VERTEX
  8
LAYER_1
 10
230.7587
 20
396.9942
 42
0.04472560916
  0
VERTEX
  8
LAYER_1
 10
231.3307
 20
395.1046
 42
0.06002117723
  0
VERTEX
  8
LAYER_1
 10
232.6654
 20
392.6679
 42
0.04241753835
  0
VERTEX
  8
LAYER_1
 10
233.8213
 20
391.3167
 42
0.04580552842
  0
VERTEX
  8
LAYER_1
 10
235.1417
 20
390.2376
 42
0.04594228399
  0
VERTEX
  8
LAYER_1
 10
236.5023
 20
389.4948
 42
0.04653096864
  0
VERTEX
  8
LAYER_1
 10
237.9338
 20
389.0307
 42
0.05622371618
  0
VERTEX
  8
LAYER_1
 10
239.5761
 20
388.8571
 42
0.04392039405
  0
VERTEX
  8
LAYER_1
 10
241.3041
 20
389.0155
 42
0.01391541018
  0
VERTEX
  8
LAYER_1
 10
243.7006
 20
389.4853
 42
0.03320118206
  0
VERTEX
  8
LAYER_1
 10
246.006
 20
390.1632
 42
0.04940175457
  0
VERTEX
  8
LAYER_1
 10
247.4503
 20
390.882
 42
0.01170171089
  0
VERTEX
  8
LAYER_1
 10
247.6686
 20
391.0323
 42
0.1099895332
  0
VERTEX
  8
LAYER_1
 10
249.5993
 20
393.2201
 42
0.05053100551
  0
VERTEX
  8
LAYER_1
 10
250.2232
 20
394.6709
 42
0.04522023577
  0
VERTEX
  8
LAYER_1
 10
250.595
 20
396.3525
 42
0.032873338
  0
VERTEX
  8
LAYER_1
 10
250.6903
 20
397.8131
 42
0.04445364487
  0
VERTEX
  8
LAYER_1
 10
250.5096
 20
399.8527
 42
0.005163693233
  0
VERTEX
  8
LAYER_1
 10
250.4667
 20
400.0765
 42
0.07329658684
  0
VERTEX
  8
LAYER_1
 10
249.595
 20
402.4855
 42
0.04469139288
  0
VERTEX
  8
LAYER_1
 10
248.7013
 20
403.8425
 42
0.04296855473
  0
VERTEX
  8
LAYER_1
 10
247.5812
 20
405.0279
 42
0.04166344908
  0
VERTEX
  8
LAYER_1
 10
246.2647
 20
406.0186
 42
0.04094334999
  0
VERTEX
  8
LAYER_1
 10
244.7819
 20
406.7913
 42
0.06135981035
  0
VERTEX
  8
LAYER_1
 10
242.3116
 20
407.4914
 42
0.0386535247
  0
VERTEX
  8
LAYER_1
 10
240.6571
 20
407.6189
  0
SEQEND
  0
POLYLINE
  8
LAYER_1
 40
0.05
 41
0.05
 66
1
 10
0
 20
0
 30
0
  0
VERTEX
  8
LAYER_1
 10
243.2861
 20
394.533
 42
-0.02721129428
  0
VERTEX
  8
LAYER_1
 10
242.5304
 20
394.1206
 42
-0.0187044968
  0
VERTEX
  8
LAYER_1
 10
241.5764
 20
393.7075
 42
-0.02602760493
  0
VERTEX
  8
LAYER_1
 10
239.236
 20
392.9342
 42
-0.06622302198
  0
VERTEX
  8
LAYER_1
 10
237.8287
 20
392.7183
 42
-0.05300503049
  0
VERTEX
  8
LAYER_1
 10
237.2207
 20
392.7846
 42
-0.07724842316
  0
VERTEX
  8
LAYER_1
 10
236.1616
 20
393.2025
 42
-0.06692610415
  0
VERTEX
  8
LAYER_1
 10
235.1727
 20
393.9736
 42
-0.05267645642
  0
VERTEX
  8
LAYER_1
 10
234.2668
 20
395.1003
 42
-0.04370986176
  0
VERTEX
  8
LAYER_1
 10
233.4102
 20
396.6986
 42
-0.02876769454
  0
VERTEX
  8
LAYER_1
 10
232.8929
 20
398.0966
 42
-0.1083173289
  0
VERTEX
  8
LAYER_1
 10
232.7528
 20
399.8994
 42
-0.06388589218
  0
VERTEX
  8
LAYER_1
 10
233.0641
 20
401.052
 42
-0.05847781496
  0
VERTEX
  8
LAYER_1
 10
233.6719
 20
402.1491
 42
0.07960798064
  0
VERTEX
  8
LAYER_1
 10
233.3367
 20
401.034
 42
0.03262391564
  0
VERTEX
  8
LAYER_1
 10
233.3067
 20
400.5747
 42
0.1264142843
  0
VERTEX
  8
LAYER_1
 10
233.7535
 20
398.8418
 42
-0.02359670294
  0
VERTEX
  8
LAYER_1
 10
234.1514
 20
397.968
  0
VERTEX
  8
LAYER_1
 10
234.1638
 20
397.938
 42
0.0293434746
  0
VERTEX
  8
LAYER_1
 10
234.7363
 20
396.6998
 42
0.07178018796
  0
VERTEX
  8
LAYER_1
 10
235.3889
 20
395.8056
 42
0.1004357486
  0
VERTEX
  8
LAYER_1
 10
235.9959
 20
395.4194
 42
0.03258188139
  0
VERTEX
  8
LAYER_1
 10
236.1827
 20
395.3655
 42
0.0550575773
  0
VERTEX
  8
LAYER_1
 10
236.4434
 20
395.3373
 42
0.06106398123
  0
VERTEX
  8
LAYER_1
 10
236.8376
 20
395.3899
 42
0.04345568332
  0
VERTEX
  8
LAYER_1
 10
237.2601
 20
395.5408
 42
0.03069567626
  0
VERTEX
  8
LAYER_1
 10
237.7771
 20
395.8171
 42
0.01785508378
  0
VERTEX
  8
LAYER_1
 10
238.6263
 20
396.3861
 42
-0.05262222163
  0
VERTEX
  8
LAYER_1
 10
239.6381
 20
397.0264
 42
0.07214311704
  0
VERTEX
  8
LAYER_1
 10
240.7111
 20
397.6959
 42
0.06926298363
  0
VERTEX
  8
LAYER_1
 10
241.472
 20
398.5479
 42
0.07299808732
  0
VERTEX
  8
LAYER_1
 10
241.9496
 20
399.5546
 42
0.07330317032
  0
VERTEX
  8
LAYER_1
 10
242.1034
 20
400.5862
 42
0.1264622392
  0
VERTEX
  8
LAYER_1
 10
241.6562
 20
402.3188
 42
0.1120418197
  0
VERTEX
  8
LAYER_1
 10
240.4654
 20
403.6657
 42
0.06633480058
  0
VERTEX
  8
LAYER_1
 10
239.431
 20
404.2238
 42
0.06394471632
  0
VERTEX
  8
LAYER_1
 10
238.2499
 20
404.5077
 42
0.02748955872
  0
VERTEX
  8
LAYER_1
 10
237.7013
 20
404.5378
 42
0.06932538093
  0
VERTEX
  8
LAYER_1
 10
236.3833
 20
404.3556
 42
0.02537391146
  0
VERTEX
  8
LAYER_1
 10
235.9291
 20
404.2008
  0
VERTEX
  8
LAYER_1
 10
236.0032
 20
404.2516
 42
-0.03092924578
  0
VERTEX
  8
LAYER_1
 10
237.1072
 20
404.9528
 42
-0.06755899531
  0
VERTEX
  8
LAYER_1
 10
238.2034
 20
405.3748
 42
-0.04026593703
  0
VERTEX
  8
LAYER_1
 10
238.8071
 20
405.4588
  0
VERTEX
  8
LAYER_1
 10
239.2081
 20
405.4705
 42
-0.1642307932
  0
VERTEX
  8
LAYER_1
 10
243.3019
 20
404.0769
 42
-0.05430911819
  0
VERTEX
  8
LAYER_1
 10
244.2942
 20
403.1176
 42
-0.05688516926
  0
VERTEX
  8
LAYER_1
 10
245.0489
 20
401.9636
 42
-0.04327013929
  0
VERTEX
  8
LAYER_1
 10
245.4234
 20
401.0201
 42
-0.05896025715
  0
VERTEX
  8
LAYER_1
 10
245.6964
 20
399.4718
 42
-0.01337882599
  0
VERTEX
  8
LAYER_1
 10
245.7056
 20
399.1327
 42
-0.06299903198
  0
VERTEX
  8
LAYER_1
 10
245.5196
 20
397.6514
 42
-0.06135260942
  0
VERTEX
  8
LAYER_1
 10
245.0244
 20
396.3938
 42
-0.06213030658
  0
VERTEX
  8
LAYER_1
 10
244.2752
 20
395.3523
 42
-0.06488081123
  0
VERTEX
  8
LAYER_1
 10
243.2861
 20
394.533
  0
SEQEND
  0
POLYLINE
  8
LAYER_1
 40
0.05
 41
0.05
 66
1
 10
0
 20
0
 30
0
  0
VERTEX
  8
LAYER_1
 10
236.1093
 20
403.5132
 42
-0.1050367943
  0
VERTEX
  8
LAYER_1
 10
237.7013
 20
403.8458
 42
-0.07470966604
  0
VERTEX
  8
LAYER_1
 10
238.896
 20
403.6675
 42
-0.07307072888
  0
VERTEX
  8
LAYER_1
 10
239.8858
 20
403.1952
 42
-0.07565143839
  0
VERTEX
  8
LAYER_1
 10
240.6525
 20
402.4885
 42
-0.04347149853
  0
VERTEX
  8
LAYER_1
 10
240.9665
 20
402.0147
 42
-0.08734717228
  0
VERTEX
  8
LAYER_1
 10
241.3025
 20
401.0255
 42
-0.03736648513
  0
VERTEX
  8
LAYER_1
 10
241.3351
 20
400.5873
 42
-0.1282780795
  0
VERTEX
  8
LAYER_1
 10
240.9497
 20
399.1272
 42
-0.07969108633
  0
VERTEX
  8
LAYER_1
 10
240.2973
 20
398.3001
 42
-0.08362691552
  0
VERTEX
  8
LAYER_1
 10
239.2984
 20
397.6476
 42
0.03660909828
  0
VERTEX
  8
LAYER_1
 10
238.7747
 20
397.3569
 42
0.009559353919
  0
VERTEX
  8
LAYER_1
 10
238.1626
 20
396.9393
 42
-0.03364555526
  0
VERTEX
  8
LAYER_1
 10
237.1193
 20
396.2607
 42
-0.04979061979
  0
VERTEX
  8
LAYER_1
 10
236.6868
 20
396.071
 42
-0.07453091897
  0
VERTEX
  8
LAYER_1
 10
236.4434
 20
396.0294
  0
VERTEX
  8
LAYER_1
 10
236.3666
 20
396.0372
 42
-0.09253982565
  0
VERTEX
  8
LAYER_1
 10
236.108
 20
396.1521
 42
-0.05940361751
  0
VERTEX
  8
LAYER_1
 10
235.8663
 20
396.3655
 42
-0.04085398019
  0
VERTEX
  8
LAYER_1
 10
235.6055
 20
396.7091
 42
-0.02901746304
  0
VERTEX
  8
LAYER_1
 10
235.2925
 20
397.268
 42
-0.01544565071
  0
VERTEX
  8
LAYER_1
 10
234.8876
 20
398.1723
 42
0.03060944273
  0
VERTEX
  8
LAYER_1
 10
234.4432
 20
399.1458
 42
-0.08670487522
  0
VERTEX
  8
LAYER_1
 10
234.1074
 20
400.1358
 42
-0.03746431519
  0
VERTEX
  8
LAYER_1
 10
234.0746
 20
400.5747
 42
-0.1282226504
  0
VERTEX
  8
LAYER_1
 10
234.4597
 20
402.0342
 42
-0.0796639637
  0
VERTEX
  8
LAYER_1
 10
235.1115
 20
402.8609
 42
-0.08364240524
  0
VERTEX
  8
LAYER_1
 10
236.1093
 20
403.5132
  0
SEQEND
  0
POLYLINE
  8
LAYER_1
 40
0.05
 41
0.05
 66
1
 10
0
 20
0
 30
0
  0
VERTEX
  8
LAYER_1
 10
239.2081
 20
406.0748
  0
VERTEX
  8
LAYER_1
 10
238.7623
 20
406.062
 42
0.07190941391
  0
VERTEX
  8
LAYER_1
 10
237.5013
 20
405.8053
 42
0.05818515184
  0
VERTEX
  8
LAYER_1
 10
236.3078
 20
405.2048
 42
0.009037104496
  0
VERTEX
  8
LAYER_1
 10
235.6063
 20
404.7395
  0
VERTEX
  8
LAYER_1
 10
235.2073
 20
404.469
 42
0.05129523901
  0
VERTEX
  8
LAYER_1
 10
233.826
 20
403.3328
 42
0.05281546914
  0
VERTEX
  8
LAYER_1
 10
232.8932
 20
402.1581
 42
0.05583518202
  0
VERTEX
  8
LAYER_1
 10
232.3208
 20
400.9736
 42
0.06201351184
  0
VERTEX
  8
LAYER_1
 10
232.0555
 20
399.735
 42
0.02100659237
  0
VERTEX
  8
LAYER_1
 10
232.0385
 20
399.3303
 42
0.07383933055
  0
VERTEX
  8
LAYER_1
 10
232.2463
 20
397.9376
 42
0.04061820717
  0
VERTEX
  8
LAYER_1
 10
233.0345
 20
395.9513
 42
0.04356287975
  0
VERTEX
  8
LAYER_1
 10
233.986
 20
394.3813
 42
0.04996763323
  0
VERTEX
  8
LAYER_1
 10
234.9603
 20
393.3081
 42
0.0594143845
  0
VERTEX
  8
LAYER_1
 10
235.987
 20
392.5921
 42
0.06550461047
  0
VERTEX
  8
LAYER_1
 10
237.057
 20
392.1979
 42
0.05475395666
  0
VERTEX
  8
LAYER_1
 10
237.8525
 20
392.1142
 42
0.0653000991
  0
VERTEX
  8
LAYER_1
 10
239.2585
 20
392.31
 42
0.005854945987
  0
VERTEX
  8
LAYER_1
 10
239.4341
 20
392.3571
 42
0.02993081373
  0
VERTEX
  8
LAYER_1
 10
242.2474
 20
393.3187
 42
0.03710391947
  0
VERTEX
  8
LAYER_1
 10
243.6713
 20
394.0376
 42
0.1212869794
  0
VERTEX
  8
LAYER_1
 10
245.5469
 20
395.9859
 42
0.0547198612
  0
VERTEX
  8
LAYER_1
 10
246.0765
 20
397.1797
 42
0.05334914771
  0
VERTEX
  8
LAYER_1
 10
246.3461
 20
398.4936
 42
0.02426656451
  0
VERTEX
  8
LAYER_1
 10
246.377
 20
399.1336
 42
0.05760198177
  0
VERTEX
  8
LAYER_1
 10
246.1904
 20
400.7332
 42
0.015498624
  0
VERTEX
  8
LAYER_1
 10
246.0718
 20
401.1779
 42
0.08322493499
  0
VERTEX
  8
LAYER_1
 10
245.1216
 20
403.1035
 42
0.05055421011
  0
VERTEX
  8
LAYER_1
 10
244.207
 20
404.1377
 42
0.04879061922
  0
VERTEX
  8
LAYER_1
 10
243.0992
 20
404.9779
 42
0.07219337174
  0
VERTEX
  8
LAYER_1
 10
241.1557
 20
405.8167
 42
0.06605428465
  0
VERTEX
  8
LAYER_1
 10
239.2081
 20
406.0748
  0
SEQEND
  0
ENDBLK
  0
BLOCK
  8
LAYER_1
  2
AIGNBL01020007
 70
64
 10
0
 20
0
 30
0
  3
AIGNBL01020007
  0
POLYLINE
  8
LAYER_1
 40
0.1799
 41
0.1799
 66
1
 10
0
 20
0
 30
0
 70
1
  0
VERTEX
  8
LAYER_1
 10
255.6454
 20
323.3339
 42
-0.3920788248
  0
VERTEX
  8
LAYER_1
 10
255.3322
 20
323.0192
  0
VERTEX
  8
LAYER_1
 10
234.1852
 20
323.0192
 42
-0.3925665806
  0
VERTEX
  8
LAYER_1
 10
233.8713
 20
323.3339
  0
VERTEX
  8
LAYER_1
 10
233.8713
 20
338.7521
 42
-0.3916946254
  0
VERTEX
  8
LAYER_1
 10
234.1852
 20
339.0673
  0
VERTEX
  8
LAYER_1
 10
255.3322
 20
339.0673
 42
-0.3936158741
  0
VERTEX
  8
LAYER_1
 10
255.6454
 20
338.7521
  0
SEQEND
  0
POLYLINE
  8
LAYER_1
 40
0.1799
 41
0.1799
 66
1
 10
0
 20
0
 30
0
  0
VERTEX
  8
LAYER_1
 10
263.4017
 20
359.9694
 42
0.01759262308
  0
VERTEX
  8
LAYER_1
 10
258.613
 20
361.1199
 42
0.01525357415
  0
VERTEX
  8
LAYER_1
 10
253.5352
 20
362.0084
 42
0.01628012776
  0
VERTEX
  8
LAYER_1
 10
248.7788
 20
362.5346
 42
0.01753833362
  0
VERTEX
  8
LAYER_1
 10
244.7606
 20
362.701
 42
0.02019746043
  0
VERTEX
  8
LAYER_1
 10
240.2403
 20
362.4946
 42
0.0164059861
  0
VERTEX
  8
LAYER_1
 10
235.5086
 20
361.9389
 42
0.01512261432
  0
VERTEX
  8
LAYER_1
 10
230.4973
 20
361.0345
 42
0.01538400011
  0
VERTEX
  8
LAYER_1
 10
226.1164
 20
359.9694
 42
0.1188459971
  0
VERTEX
  8
LAYER_1
 10
224.7432
 20
359.0687
 42
0.06756239939
  0
VERTEX
  8
LAYER_1
 10
224.0851
 20
358.1554
 42
0.06394345599
  0
VERTEX
  8
LAYER_1
 10
223.6471
 20
357.0124
 42
0.05879480867
  0
VERTEX
  8
LAYER_1
 10
223.5137
 20
355.9359
 42
0.02950941827
  0
VERTEX
  8
LAYER_1
 10
223.5967
 20
355.1192
 42
0.09022060018
  0
VERTEX
  8
LAYER_1
 10
224.1813
 20
353.6365
 42
0.00905342545
  0
VERTEX
  8
LAYER_1
 10
225.2965
 20
351.9552
 42
0.003115787409
  0
VERTEX
  8
LAYER_1
 10
228.3159
 20
347.6051
 42
0.001652451448
  0
VERTEX
  8
LAYER_1
 10
234.3402
 20
339.084
  0
VERTEX
  8
LAYER_1
 10
255.1768
 20
339.084
 42
0.004835116276
  0
VERTEX
  8
LAYER_1
 10
264.9494
 20
353.0339
 42
0.003131878405
  0
VERTEX
  8
LAYER_1
 10
265.3385
 20
353.6365
 42
0.08773072386
  0
VERTEX
  8
LAYER_1
 10
265.9231
 20
355.1192
 42
0.02931391844
  0
VERTEX
  8
LAYER_1
 10
266.0041
 20
355.9359
 42
0.07026454364
  0
VERTEX
  8
LAYER_1
 10
265.8215
 20
357.2007
 42
0.06434061449
  0
VERTEX
  8
LAYER_1
 10
265.3346
 20
358.33
 42
0.06786781378
  0
VERTEX
  8
LAYER_1
 10
264.6317
 20
359.2117
 42
0.0720670535
  0
VERTEX
  8
LAYER_1
 10
263.793
 20
359.8022
 42
0.03115643485
  0
VERTEX
  8
LAYER_1
 10
263.4017
 20
359.9694
  0
SEQEND
  0
POLYLINE
  8
LAYER_1
 40
0.1799
 41
0.1799
 66
1
 10
0
 20
0
 30
0
 70
1
  0
VERTEX
  8
LAYER_1
 10
233.8155
 20
339.1845
  0
VERTEX
  8
LAYER_1
 10
255.6199
 20
339.1845
  0
VERTEX
  8
LAYER_1
 10
255.6199
 20
323.0192
  0
VERTEX
  8
LAYER_1
 10
233.8155
 20
323.0192
  0
SEQEND
  0
ENDBLK
  0
BLOCK
  8
LAYER_1
  2
AIGNBL01020009
 70
64
 10
0
 20
0
 30
0
  3
AIGNBL01020009
  0
POLYLINE
  8
LAYER_1
 40
0.1799
 41
0.1799
 66
1
 10
0
 20
0
 30
0
 70
1
  0
VERTEX
  8
LAYER_1
 10
123.0242
 20
241.3434
 42
-0.3918778886
  0
VERTEX
  8
LAYER_1
 10
122.3166
 20
240.6318
  0
VERTEX
  8
LAYER_1
 10
74.5482
 20
240.6318
 42
-0.3930718745
  0
VERTEX
  8
LAYER_1
 10
73.8392
 20
241.3434
  0
VERTEX
  8
LAYER_1
 10
73.8392
 20
276.1699
 42
-0.3917978246
  0
VERTEX
  8
LAYER_1
 10
74.5482
 20
276.8822
  0
VERTEX
  8
LAYER_1
 10
122.3166
 20
276.8822
 42
-0.3941567577
  0
VERTEX
  8
LAYER_1
 10
123.0242
 20
276.1699
  0
SEQEND
  0
POLYLINE
  8
LAYER_1
 40
0.1799
 41
0.1799
 66
1
 10
0
 20
0
 30
0
  0
VERTEX
  8
LAYER_1
 10
140.5442
 20
324.097
 42
0.01224510749
  0
VERTEX
  8
LAYER_1
 10
133.5884
 20
325.8553
 42
0.01006815413
  0
VERTEX
  8
LAYER_1
 10
126.2066
 20
327.3887
 42
0.01014853983
  0
VERTEX
  8
LAYER_1
 10
118.616
 20
328.6511
 42
0.01073674828
  0
VERTEX
  8
LAYER_1
 10
111.2739
 20
329.558
 42
0.01082779669
  0
VERTEX
  8
LAYER_1
 10
104.8648
 20
330.0671
 42
0.01217179065
  0
VERTEX
  8
LAYER_1
 10
98.8137
 20
330.265
 42
0.0008374750841
  0
VERTEX
  8
LAYER_1
 10
98.4374
 20
330.267
 42
0.01334581861
  0
VERTEX
  8
LAYER_1
 10
92.0079
 20
330.0671
 42
0.01114340903
  0
VERTEX
  8
LAYER_1
 10
85.5969
 20
329.558
 42
0.01098068688
  0
VERTEX
  8
LAYER_1
 10
78.253
 20
328.6511
 42
0.009817382473
  0
VERTEX
  8
LAYER_1
 10
70.9911
 20
327.4502
 42
0.009971978089
  0
VERTEX
  8
LAYER_1
 10
63.5623
 20
325.9202
 42
0.01112317685
  0
VERTEX
  8
LAYER_1
 10
56.7486
 20
324.2158
 42
0.0008998704336
  0
VERTEX
  8
LAYER_1
 10
56.3223
 20
324.097
 42
0.07626299145
  0
VERTEX
  8
LAYER_1
 10
54.2487
 20
322.9792
 42
0.04666634461
  0
VERTEX
  8
LAYER_1
 10
53.0957
 20
321.9286
 42
0.0463393647
  0
VERTEX
  8
LAYER_1
 10
52.053
 20
320.5487
 42
0.04339152642
  0
VERTEX
  8
LAYER_1
 10
51.2355
 20
318.9379
 42
0.0797201208
  0
VERTEX
  8
LAYER_1
 10
50.4616
 20
315.5594
 42
0.01516725813
  0
VERTEX
  8
LAYER_1
 10
50.4441
 20
314.9851
 42
0.0297072229
  0
VERTEX
  8
LAYER_1
 10
50.6307
 20
313.1407
 42
0.07005355624
  0
VERTEX
  8
LAYER_1
 10
51.5518
 20
310.499
 42
0.01975006005
  0
VERTEX
  8
LAYER_1
 10
51.9519
 20
309.7907
 42
0.007846384524
  0
VERTEX
  8
LAYER_1
 10
53.2205
 20
307.8425
 42
0.003410348078
  0
VERTEX
  8
LAYER_1
 10
55.982
 20
303.7908
 42
0.003497155336
  0
VERTEX
  8
LAYER_1
 10
70.1891
 20
283.5538
 42
0.0005078202699
  0
VERTEX
  8
LAYER_1
 10
74.9
 20
276.9204
  0
VERTEX
  8
LAYER_1
 10
121.9652
 20
276.9204
 42
0.002540288772
  0
VERTEX
  8
LAYER_1
 10
140.049
 20
302.5805
 42
0.00808596165
  0
VERTEX
  8
LAYER_1
 10
144.9183
 20
309.7907
 42
0.06891152263
  0
VERTEX
  8
LAYER_1
 10
146.0578
 20
312.3889
 42
0.01888486735
  0
VERTEX
  8
LAYER_1
 10
146.2395
 20
313.1407
 42
0.02920894803
  0
VERTEX
  8
LAYER_1
 10
146.4216
 20
314.9851
 42
0.04625815725
  0
VERTEX
  8
LAYER_1
 10
146.2498
 20
316.8214
 42
0.04016602551
  0
VERTEX
  8
LAYER_1
 10
145.792
 20
318.5194
 42
0.04191963979
  0
VERTEX
  8
LAYER_1
 10
145.0467
 20
320.1581
 42
0.04651611056
  0
VERTEX
  8
LAYER_1
 10
144.0136
 20
321.6539
 42
0.04469936445
  0
VERTEX
  8
LAYER_1
 10
142.909
 20
322.7505
 42
0.0466148174
  0
VERTEX
  8
LAYER_1
 10
141.6793
 20
323.5871
 42
0.04034086233
  0
VERTEX
  8
LAYER_1
 10
140.5442
 20
324.097
  0
SEQEND
  0
POLYLINE
  8
LAYER_1
 40
0.1799
 41
0.1799
 66
1
 10
0
 20
0
 30
0
 70
1
  0
VERTEX
  8
LAYER_1
 10
73.713
 20
277.1467
  0
VERTEX
  8
LAYER_1
 10
122.9667
 20
277.1467
  0
VERTEX
  8
LAYER_1
 10
122.9667
 20
240.6318
  0
VERTEX
  8
LAYER_1
 10
73.713
 20
240.6318
  0
SEQEND
  0
ENDBLK
  0
BLOCK
  8
LAYER_1
  2
AIGNBL01020011
 70
64
 10
0
 20
0
 30
0
  3
AIGNBL01020011
  0
INSERT
  8
LAYER_1
  2
AIGNBL01030012
 10
0
 20
0
 30
0
  0
ENDBLK
  0
BLOCK
  8
LAYER_1
  2
AIGNBL0102001A
 70
64
 10
0
 20
0
 30
0
  3
AIGNBL0102001A
  0
INSERT
  8
LAYER_1
  2
AIGNBL0103001B
 10
0
 20
0
 30
0
  0
INSERT
  8
LAYER_1
  2
AIGNBL0103001C
 10
0
 20
0
 30
0
  0
INSERT
  8
LAYER_1
  2
AIGNBL0103001D
 10
0
 20
0
 30
0
  0
INSERT
  8
LAYER_1
  2
AIGNBL0103001E
 10
0
 20
0
 30
0
  0
INSERT
  8
LAYER_1
  2
AIGNBL0103001F
 10
0
 20
0
 30
0
  0
INSERT
  8
LAYER_1
  2
AIGNBL01030020
 10
0
 20
0
 30
0
  0
INSERT
  8
LAYER_1
  2
AIGNBL01030021
 10
0
 20
0
 30
0
  0
INSERT
  8
LAYER_1
  2
AIGNBL01030022
 10
0
 20
0
 30
0
  0
INSERT
  8
LAYER_1
  2
AIGNBL01030023
 10
0
 20
0
 30
0
  0
INSERT
  8
LAYER_1
  2
AIGNBL01030024
 10
0
 20
0
 30
0
  0
INSERT
  8
LAYER_1
  2
AIGNBL01030025
 10
0
 20
0
 30
0
  0
INSERT
  8
LAYER_1
  2
AIGNBL01030026
 10
0
 20
0
 30
0
  0
INSERT
  8
LAYER_1
  2
AIGNBL01030027
 10
0
 20
0
 30
0
  0
INSERT
  8
LAYER_1
  2
AIGNBL01030028
 10
0
 20
0
 30
0
  0
INSERT
  8
LAYER_1
  2
AIGNBL01030029
 10
0
 20
0
 30
0
  0
INSERT
  8
LAYER_1
  2
AIGNBL0103002A
 10
0
 20
0
 30
0
  0
INSERT
  8
LAYER_1
  2
AIGNBL0103002B
 10
0
 20
0
 30
0
  0
INSERT
  8
LAYER_1
  2
AIGNBL0103002C
 10
0
 20
0
 30
0
  0
INSERT
  8
LAYER_1
  2
AIGNBL0103002D
 10
0
 20
0
 30
0
  0
INSERT
  8
LAYER_1
  2
AIGNBL0103002E
 10
0
 20
0
 30
0
  0
INSERT
  8
LAYER_1
  2
AIGNBL0103002F
 10
0
 20
0
 30
0
  0
INSERT
  8
LAYER_1
  2
AIGNBL01030030
 10
0
 20
0
 30
0
  0
INSERT
  8
LAYER_1
  2
AIGNBL01030031
 10
0
 20
0
 30
0
  0
ENDBLK
  0
BLOCK
  8
LAYER_1
  2
AIGNBL01010002
 70
64
 10
0
 20
0
 30
0
  3
AIGNBL01010002
  0
INSERT
  8
LAYER_1
  2
AIGNBL01020003
 10
0
 20
0
 30
0
  0
POLYLINE
  8
LAYER_1
 40
0.05
 41
0.05
 66
1
 10
0
 20
0
 30
0
 70
1
  0
VERTEX
  8
LAYER_1
 10
227.747
 20
371.3737
  0
VERTEX
  8
LAYER_1
 10
302.9996
 20
371.3737
  0
VERTEX
  8
LAYER_1
 10
302.9996
 20
410.699
  0
VERTEX
  8
LAYER_1
 10
227.747
 20
410.699
  0
SEQEND
  0
ENDBLK
  0
BLOCK
  8
LAYER_1
  2
AIGNBL01010004
 70
64
 10
0
 20
0
 30
0
  3
AIGNBL01010004
  0
POLYLINE
  8
LAYER_1
 40
0.1799
 41
0.1799
 66
1
 10
0
 20
0
 30
0
  0
VERTEX
  8
LAYER_1
 10
65.971
 20
168.9661
  0
VERTEX
  8
LAYER_1
 10
65.9286
 20
169.6014
  0
VERTEX
  8
LAYER_1
 10
65.7805
 20
170.2153
 42
0.06983347895
  0
VERTEX
  8
LAYER_1
 10
65.1708
 20
171.3578
 42
0.06233737309
  0
VERTEX
  8
LAYER_1
 10
64.4738
 20
172.0923
 42
0.2053494329
  0
VERTEX
  8
LAYER_1
 10
61.4609
 20
172.9394
 42
0.3044678292
  0
VERTEX
  8
LAYER_1
 10
58.0582
 20
169.8345
 42
0.00983555049
  0
VERTEX
  8
LAYER_1
 10
58.012
 20
169.6434
  0
VERTEX
  8
LAYER_1
 10
57.9696
 20
169.0088
  0
VERTEX
  8
LAYER_1
 10
58.012
 20
168.3949
 42
0.07089814593
  0
VERTEX
  8
LAYER_1
 10
58.4019
 20
167.1683
 42
0.06840072295
  0
VERTEX
  8
LAYER_1
 10
59.0026
 20
166.2748
 42
0.1309764536
  0
VERTEX
  8
LAYER_1
 10
60.6802
 20
165.1814
 42
0.2270492274
  0
VERTEX
  8
LAYER_1
 10
64.2467
 20
165.6594
 42
0.1401158864
  0
VERTEX
  8
LAYER_1
 10
65.5832
 20
167.2845
 42
0.05552616633
  0
VERTEX
  8
LAYER_1
 10
65.8862
 20
168.2468
  0
VERTEX
  8
LAYER_1
 10
65.971
 20
168.8607
  0
VERTEX
  8
LAYER_1
 10
65.971
 20
168.9661
  0
SEQEND
  0
POLYLINE
  8
LAYER_1
 40
0.1799
 41
0.1799
 66
1
 10
0
 20
0
 30
0
  0
VERTEX
  8
LAYER_1
 10
76.2367
 20
177.8138
  0
VERTEX
  8
LAYER_1
 10
78.5862
 20
180.5867
  0
VERTEX
  8
LAYER_1
 10
75.1784
 20
179.3593
  0
SEQEND
  0
POLYLINE
  8
LAYER_1
 40
0.1799
 41
0.1799
 66
1
 10
0
 20
0
 30
0
  0
VERTEX
  8
LAYER_1
 10
65.2513
 20
171.2736
  0
VERTEX
  8
LAYER_1
 10
78.5862
 20
180.5867
  0
SEQEND
  0
POLYLINE
  8
LAYER_1
 40
0.05
 41
0.05
 66
1
 10
0
 20
0
 30
0
 70
1
  0
VERTEX
  8
LAYER_1
 10
0
 20
425.9997
  0
VERTEX
  8
LAYER_1
 10
302.9996
 20
425.9997
  0
VERTEX
  8
LAYER_1
 10
302.9996
 20
0
  0
VERTEX
  8
LAYER_1
 10
0
 20
0
  0
SEQEND
  0
ENDBLK
  0
BLOCK
  8
LAYER_1
  2
AIGNBL01010005
 70
64
 10
0
 20
0
 30
0
  3
AIGNBL01010005
  0
POLYLINE
  8
LAYER_1
 40
0.1799
 41
0.1799
 66
1
 10
0
 20
0
 30
0
  0
VERTEX
  8
LAYER_1
 10
81.7037
 20
166.9479
  0
VERTEX
  8
LAYER_1
 10
81.6613
 20
167.5832
  0
VERTEX
  8
LAYER_1
 10
81.5132
 20
168.1971
 42
0.06983233614
  0
VERTEX
  8
LAYER_1
 10
80.9035
 20
169.3396
 42
0.06233692726
  0
VERTEX
  8
LAYER_1
 10
80.2065
 20
170.0742
 42
0.2053505448
  0
VERTEX
  8
LAYER_1
 10
77.1936
 20
170.9213
 42
0.3044702785
  0
VERTEX
  8
LAYER_1
 10
73.7909
 20
167.8164
 42
0.009835551603
  0
VERTEX
  8
LAYER_1
 10
73.7447
 20
167.6253
  0
VERTEX
  8
LAYER_1
 10
73.7023
 20
166.9907
  0
VERTEX
  8
LAYER_1
 10
73.7447
 20
166.3768
 42
0.07089822849
  0
VERTEX
  8
LAYER_1
 10
74.1346
 20
165.1502
 42
0.06840086641
  0
VERTEX
  8
LAYER_1
 10
74.7353
 20
164.2567
 42
0.1309762516
  0
VERTEX
  8
LAYER_1
 10
76.4129
 20
163.1633
 42
0.2270436763
  0
VERTEX
  8
LAYER_1
 10
79.9795
 20
163.6412
 42
0.1401106973
  0
VERTEX
  8
LAYER_1
 10
81.3161
 20
165.2663
 42
0.05552579445
  0
VERTEX
  8
LAYER_1
 10
81.6191
 20
166.2286
  0
VERTEX
  8
LAYER_1
 10
81.7037
 20
166.8425
  0
VERTEX
  8
LAYER_1
 10
81.7037
 20
166.9479
  0
SEQEND
  0
POLYLINE
  8
LAYER_1
 40
0.1799
 41
0.1799
 66
1
 10
0
 20
0
 30
0
  0
VERTEX
  8
LAYER_1
 10
91.9694
 20
175.7956
  0
VERTEX
  8
LAYER_1
 10
94.319
 20
178.5686
  0
VERTEX
  8
LAYER_1
 10
90.9111
 20
177.3411
  0
SEQEND
  0
POLYLINE
  8
LAYER_1
 40
0.1799
 41
0.1799
 66
1
 10
0
 20
0
 30
0
  0
VERTEX
  8
LAYER_1
 10
80.984
 20
169.2555
  0
VERTEX
  8
LAYER_1
 10
94.319
 20
178.5686
  0
SEQEND
  0
POLYLINE
  8
LAYER_1
 40
0.05
 41
0.05
 66
1
 10
0
 20
0
 30
0
 70
1
  0
VERTEX
  8
LAYER_1
 10
0
 20
425.9997
  0
VERTEX
  8
LAYER_1
 10
302.9996
 20
425.9997
  0
VERTEX
  8
LAYER_1
 10
302.9996
 20
0
  0
VERTEX
  8
LAYER_1
 10
0
 20
0
  0
SEQEND
  0
ENDBLK
  0
BLOCK
  8
LAYER_1
  2
AIGNBL01010006
 70
64
 10
0
 20
0
 30
0
  3
AIGNBL01010006
  0
POLYLINE
  8
LAYER_1
 40
0.1799
 41
0.1799
 66
1
 10
0
 20
0
 30
0
  0
VERTEX
  8
LAYER_1
 10
84.1862
 20
181.1369
  0
VERTEX
  8
LAYER_1
 10
74.9363
 20
181.1369
  0
SEQEND
  0
POLYLINE
  8
LAYER_1
 40
0.1799
 41
0.1799
 66
1
 10
0
 20
0
 30
0
  0
VERTEX
  8
LAYER_1
 10
84.1862
 20
182.5129
  0
VERTEX
  8
LAYER_1
 10
74.0051
 20
182.5129
  0
SEQEND
  0
POLYLINE
  8
LAYER_1
 40
0.1799
 41
0.1799
 66
1
 10
0
 20
0
 30
0
  0
VERTEX
  8
LAYER_1
 10
113.5443
 20
182.5129
  0
VERTEX
  8
LAYER_1
 10
106.0302
 20
182.5129
  0
SEQEND
  0
POLYLINE
  8
LAYER_1
 40
0.1799
 41
0.1799
 66
1
 10
0
 20
0
 30
0
  0
VERTEX
  8
LAYER_1
 10
113.5443
 20
181.1369
  0
VERTEX
  8
LAYER_1
 10
106.9402
 20
181.1369
  0
SEQEND
  0
POLYLINE
  8
LAYER_1
 40
0.1799
 41
0.1799
 66
1
 10
0
 20
0
 30
0
  0
VERTEX
  8
LAYER_1
 10
93.4994
 20
180.7773
  0
VERTEX
  8
LAYER_1
 10
93.7745
 20
180.7986
 42
0.1417838462
  0
VERTEX
  8
LAYER_1
 10
94.3181
 20
181.1402
 42
0.5101618545
  0
VERTEX
  8
LAYER_1
 10
93.7745
 20
182.8515
  0
VERTEX
  8
LAYER_1
 10
93.4994
 20
182.8939
  0
SEQEND
  0
POLYLINE
  8
LAYER_1
 40
0.1799
 41
0.1799
 66
1
 10
0
 20
0
 30
0
  0
VERTEX
  8
LAYER_1
 10
90.0705
 20
180.3328
  0
VERTEX
  8
LAYER_1
 10
94.5789
 20
180.3328
  0
SEQEND
  0
POLYLINE
  8
LAYER_1
 40
0.1799
 41
0.1799
 66
1
 10
0
 20
0
 30
0
  0
VERTEX
  8
LAYER_1
 10
90.0705
 20
183.3383
  0
VERTEX
  8
LAYER_1
 10
94.5789
 20
183.3383
  0
SEQEND
  0
POLYLINE
  8
LAYER_1
 40
0.1799
 41
0.1799
 66
1
 10
0
 20
0
 30
0
  0
VERTEX
  8
LAYER_1
 10
84.1859
 20
179.9518
  0
VERTEX
  8
LAYER_1
 10
85.7949
 20
179.6132
 42
0.09679121165
  0
VERTEX
  8
LAYER_1
 10
98.8336
 20
179.6132
  0
VERTEX
  8
LAYER_1
 10
100.4419
 20
179.9518
  0
SEQEND
  0
POLYLINE
  8
LAYER_1
 40
0.1799
 41
0.1799
 66
1
 10
0
 20
0
 30
0
  0
VERTEX
  8
LAYER_1
 10
100.4419
 20
183.6983
  0
VERTEX
  8
LAYER_1
 10
98.8332
 20
184.058
 42
0.02385695
  0
VERTEX
  8
LAYER_1
 10
95.1196
 20
184.5507
 42
0.02353202098
  0
VERTEX
  8
LAYER_1
 10
91.9146
 20
184.6633
 42
0.02330962036
  0
VERTEX
  8
LAYER_1
 10
88.6973
 20
184.4723
 42
0.0182345189
  0
VERTEX
  8
LAYER_1
 10
85.7946
 20
184.058
  0
VERTEX
  8
LAYER_1
 10
84.1859
 20
183.6983
  0
SEQEND
  0
POLYLINE
  8
LAYER_1
 40
0.1799
 41
0.1799
 66
1
 10
0
 20
0
 30
0
  0
VERTEX
  8
LAYER_1
 10
94.5791
 20
180.3328
  0
VERTEX
  8
LAYER_1
 10
94.8962
 20
180.3749
 42
0.1196769607
  0
VERTEX
  8
LAYER_1
 10
95.5574
 20
180.7008
 42
0.1731319424
  0
VERTEX
  8
LAYER_1
 10
96.0413
 20
181.5548
 42
0.2266944179
  0
VERTEX
  8
LAYER_1
 10
95.6803
 20
182.8446
 42
0.1116455689
  0
VERTEX
  8
LAYER_1
 10
95.1406
 20
183.2166
 42
0.03638550179
  0
VERTEX
  8
LAYER_1
 10
94.8962
 20
183.296
  0
VERTEX
  8
LAYER_1
 10
94.5791
 20
183.3383
  0
SEQEND
  0
POLYLINE
  8
LAYER_1
 40
0.1799
 41
0.1799
 66
1
 10
0
 20
0
 30
0
  0
VERTEX
  8
LAYER_1
 10
94.5791
 20
180.904
  0
VERTEX
  8
LAYER_1
 10
94.8538
 20
180.9464
 42
0.7293158927
  0
VERTEX
  8
LAYER_1
 10
94.8538
 20
182.7244
  0
VERTEX
  8
LAYER_1
 10
94.5791
 20
182.7668
  0
SEQEND
  0
POLYLINE
  8
LAYER_1
 40
0.1799
 41
0.1799
 66
1
 10
0
 20
0
 30
0
  0
VERTEX
  8
LAYER_1
 10
84.1859
 20
183.6983
  0
VERTEX
  8
LAYER_1
 10
84.1859
 20
179.9518
  0
SEQEND
  0
POLYLINE
  8
LAYER_1
 40
0.1799
 41
0.1799
 66
1
 10
0
 20
0
 30
0
  0
VERTEX
  8
LAYER_1
 10
90.1339
 20
180.7773
  0
VERTEX
  8
LAYER_1
 10
93.4994
 20
180.7773
  0
SEQEND
  0
POLYLINE
  8
LAYER_1
 40
0.1799
 41
0.1799
 66
1
 10
0
 20
0
 30
0
  0
VERTEX
  8
LAYER_1
 10
90.1339
 20
182.8939
  0
VERTEX
  8
LAYER_1
 10
93.4994
 20
182.8939
  0
SEQEND
  0
POLYLINE
  8
LAYER_1
 40
0.1799
 41
0.1799
 66
1
 10
0
 20
0
 30
0
  0
VERTEX
  8
LAYER_1
 10
90.0705
 20
183.3383
  0
VERTEX
  8
LAYER_1
 10
89.7318
 20
183.296
 42
0.11441691
  0
VERTEX
  8
LAYER_1
 10
89.0663
 20
182.9463
 42
0.2936003866
  0
VERTEX
  8
LAYER_1
 10
88.6471
 20
181.3576
 42
0.259226793
  0
VERTEX
  8
LAYER_1
 10
89.7318
 20
180.3749
  0
VERTEX
  8
LAYER_1
 10
90.0705
 20
180.3328
  0
SEQEND
  0
POLYLINE
  8
LAYER_1
 40
0.1799
 41
0.1799
 66
1
 10
0
 20
0
 30
0
  0
VERTEX
  8
LAYER_1
 10
90.1339
 20
182.8939
  0
VERTEX
  8
LAYER_1
 10
89.8588
 20
182.8515
 42
0.1464961591
  0
VERTEX
  8
LAYER_1
 10
89.3299
 20
182.5367
 42
0.2100152745
  0
VERTEX
  8
LAYER_1
 10
89.0735
 20
181.7229
 42
0.2029987898
  0
VERTEX
  8
LAYER_1
 10
89.4789
 20
180.9824
 42
0.09831945485
  0
VERTEX
  8
LAYER_1
 10
89.8588
 20
180.7986
  0
VERTEX
  8
LAYER_1
 10
90.1339
 20
180.7773
  0
SEQEND
  0
POLYLINE
  8
LAYER_1
 40
0.1799
 41
0.1799
 66
1
 10
0
 20
0
 30
0
  0
VERTEX
  8
LAYER_1
 10
94.0075
 20
180.904
  0
VERTEX
  8
LAYER_1
 10
94.5791
 20
180.904
  0
SEQEND
  0
POLYLINE
  8
LAYER_1
 40
0.1799
 41
0.1799
 66
1
 10
0
 20
0
 30
0
  0
VERTEX
  8
LAYER_1
 10
94.0075
 20
182.7668
  0
VERTEX
  8
LAYER_1
 10
94.5791
 20
182.7668
  0
SEQEND
  0
POLYLINE
  8
LAYER_1
 40
0.1799
 41
0.1799
 66
1
 10
0
 20
0
 30
0
  0
VERTEX
  8
LAYER_1
 10
100.4423
 20
183.6983
  0
VERTEX
  8
LAYER_1
 10
100.4423
 20
179.9518
  0
SEQEND
  0
POLYLINE
  8
LAYER_1
 40
0.1799
 41
0.1799
 66
1
 10
0
 20
0
 30
0
  0
VERTEX
  8
LAYER_1
 10
119.6828
 20
180.6925
  0
VERTEX
  8
LAYER_1
 10
120.3809
 20
180.2691
  0
VERTEX
  8
LAYER_1
 10
121.1433
 20
179.9094
  0
VERTEX
  8
LAYER_1
 10
121.9261
 20
179.6555
  0
VERTEX
  8
LAYER_1
 10
122.7308
 20
179.4654
  0
VERTEX
  8
LAYER_1
 10
123.5351
 20
179.3803
  0
VERTEX
  8
LAYER_1
 10
124.3814
 20
179.3803
  0
SEQEND
  0
POLYLINE
  8
LAYER_1
 40
0.1799
 41
0.1799
 66
1
 10
0
 20
0
 30
0
  0
VERTEX
  8
LAYER_1
 10
124.3816
 20
184.2909
  0
VERTEX
  8
LAYER_1
 10
123.5353
 20
184.2909
  0
VERTEX
  8
LAYER_1
 10
122.7305
 20
184.2062
  0
VERTEX
  8
LAYER_1
 10
121.9262
 20
184.0156
  0
VERTEX
  8
LAYER_1
 10
121.143
 20
183.7617
  0
VERTEX
  8
LAYER_1
 10
120.3811
 20
183.4014
  0
VERTEX
  8
LAYER_1
 10
119.683
 20
182.9573
  0
SEQEND
  0
POLYLINE
  8
LAYER_1
 40
0.1799
 41
0.1799
 66
1
 10
0
 20
0
 30
0
  0
VERTEX
  8
LAYER_1
 10
117.5448
 20
183.0844
  0
VERTEX
  8
LAYER_1
 10
113.5443
 20
182.5763
  0
SEQEND
  0
POLYLINE
  8
LAYER_1
 40
0.1799
 41
0.1799
 66
1
 10
0
 20
0
 30
0
  0
VERTEX
  8
LAYER_1
 10
117.5448
 20
180.5867
  0
VERTEX
  8
LAYER_1
 10
113.5443
 20
181.0735
  0
VERTEX
  8
LAYER_1
 10
113.5443
 20
182.5763
  0
SEQEND
  0
POLYLINE
  8
LAYER_1
 40
0.1799
 41
0.1799
 66
1
 10
0
 20
0
 30
0
  0
VERTEX
  8
LAYER_1
 10
114.7932
 20
181.2007
  0
VERTEX
  8
LAYER_1
 10
114.7716
 20
181.2851
  0
VERTEX
  8
LAYER_1
 10
114.6872
 20
181.3271
  0
VERTEX
  8
LAYER_1
 10
114.5811
 20
181.3064
  0
VERTEX
  8
LAYER_1
 10
114.5391
 20
181.2217
  0
SEQEND
  0
POLYLINE
  8
LAYER_1
 40
0.1799
 41
0.1799
 66
1
 10
0
 20
0
 30
0
  0
VERTEX
  8
LAYER_1
 10
115.4281
 20
181.2007
  0
VERTEX
  8
LAYER_1
 10
115.3857
 20
181.2851
  0
VERTEX
  8
LAYER_1
 10
115.3011
 20
181.3271
  0
VERTEX
  8
LAYER_1
 10
115.2164
 20
181.3064
  0
VERTEX
  8
LAYER_1
 10
115.1742
 20
181.2217
  0
SEQEND
  0
POLYLINE
  8
LAYER_1
 40
0.1799
 41
0.1799
 66
1
 10
0
 20
0
 30
0
  0
VERTEX
  8
LAYER_1
 10
114.5393
 20
181.2217
  0
VERTEX
  8
LAYER_1
 10
114.5393
 20
180.9464
  0
SEQEND
  0
POLYLINE
  8
LAYER_1
 40
0.1799
 41
0.1799
 66
1
 10
0
 20
0
 30
0
  0
VERTEX
  8
LAYER_1
 10
114.7932
 20
181.2007
  0
VERTEX
  8
LAYER_1
 10
114.7932
 20
180.9254
  0
SEQEND
  0
POLYLINE
  8
LAYER_1
 40
0.1799
 41
0.1799
 66
1
 10
0
 20
0
 30
0
  0
VERTEX
  8
LAYER_1
 10
115.4281
 20
181.2007
  0
VERTEX
  8
LAYER_1
 10
115.4281
 20
180.8403
  0
SEQEND
  0
POLYLINE
  8
LAYER_1
 40
0.1799
 41
0.1799
 66
1
 10
0
 20
0
 30
0
  0
VERTEX
  8
LAYER_1
 10
115.1742
 20
181.2217
  0
VERTEX
  8
LAYER_1
 10
115.1742
 20
180.883
  0
SEQEND
  0
POLYLINE
  8
LAYER_1
 40
0.1799
 41
0.1799
 66
1
 10
0
 20
0
 30
0
  0
VERTEX
  8
LAYER_1
 10
114.666
 20
181.3274
  0
VERTEX
  8
LAYER_1
 10
114.6876
 20
181.3274
  0
SEQEND
  0
POLYLINE
  8
LAYER_1
 40
0.1799
 41
0.1799
 66
1
 10
0
 20
0
 30
0
  0
VERTEX
  8
LAYER_1
 10
114.5393
 20
182.4495
  0
VERTEX
  8
LAYER_1
 10
114.5813
 20
182.3648
  0
VERTEX
  8
LAYER_1
 10
114.6874
 20
182.3224
  0
VERTEX
  8
LAYER_1
 10
114.7718
 20
182.3648
  0
VERTEX
  8
LAYER_1
 10
114.7932
 20
182.4495
  0
SEQEND
  0
POLYLINE
  8
LAYER_1
 40
0.1799
 41
0.1799
 66
1
 10
0
 20
0
 30
0
  0
VERTEX
  8
LAYER_1
 10
114.5393
 20
182.4495
  0
VERTEX
  8
LAYER_1
 10
114.5393
 20
182.7034
  0
SEQEND
  0
POLYLINE
  8
LAYER_1
 40
0.1799
 41
0.1799
 66
1
 10
0
 20
0
 30
0
  0
VERTEX
  8
LAYER_1
 10
114.666
 20
182.3224
  0
VERTEX
  8
LAYER_1
 10
114.6876
 20
182.3224
  0
SEQEND
  0
POLYLINE
  8
LAYER_1
 40
0.1799
 41
0.1799
 66
1
 10
0
 20
0
 30
0
  0
VERTEX
  8
LAYER_1
 10
114.7932
 20
182.4495
  0
VERTEX
  8
LAYER_1
 10
114.7932
 20
182.7458
  0
SEQEND
  0
POLYLINE
  8
LAYER_1
 40
0.1799
 41
0.1799
 66
1
 10
0
 20
0
 30
0
  0
VERTEX
  8
LAYER_1
 10
115.1742
 20
182.4495
  0
VERTEX
  8
LAYER_1
 10
115.2166
 20
182.3648
  0
VERTEX
  8
LAYER_1
 10
115.3008
 20
182.3224
  0
VERTEX
  8
LAYER_1
 10
115.3859
 20
182.3648
  0
VERTEX
  8
LAYER_1
 10
115.4281
 20
182.4495
  0
SEQEND
  0
POLYLINE
  8
LAYER_1
 40
0.1799
 41
0.1799
 66
1
 10
0
 20
0
 30
0
  0
VERTEX
  8
LAYER_1
 10
115.1742
 20
182.4495
  0
VERTEX
  8
LAYER_1
 10
115.1742
 20
182.7882
  0
SEQEND
  0
POLYLINE
  8
LAYER_1
 40
0.1799
 41
0.1799
 66
1
 10
0
 20
0
 30
0
  0
VERTEX
  8
LAYER_1
 10
115.4281
 20
182.4495
  0
VERTEX
  8
LAYER_1
 10
115.4281
 20
182.8092
  0
SEQEND
  0
POLYLINE
  8
LAYER_1
 40
0.1799
 41
0.1799
 66
1
 10
0
 20
0
 30
0
  0
VERTEX
  8
LAYER_1
 10
119.5343
 20
181.0312
  0
VERTEX
  8
LAYER_1
 10
119.238
 20
180.4386
  0
SEQEND
  0
POLYLINE
  8
LAYER_1
 40
0.1799
 41
0.1799
 66
1
 10
0
 20
0
 30
0
  0
VERTEX
  8
LAYER_1
 10
119.6824
 20
180.6925
  0
VERTEX
  8
LAYER_1
 10
119.5343
 20
180.7349
  0
VERTEX
  8
LAYER_1
 10
119.4077
 20
180.6925
  0
VERTEX
  8
LAYER_1
 10
119.3018
 20
180.5867
  0
SEQEND
  0
POLYLINE
  8
LAYER_1
 40
0.1799
 41
0.1799
 66
1
 10
0
 20
0
 30
0
  0
VERTEX
  8
LAYER_1
 10
119.5343
 20
182.6397
  0
VERTEX
  8
LAYER_1
 10
119.238
 20
183.2326
  0
SEQEND
  0
POLYLINE
  8
LAYER_1
 40
0.1799
 41
0.1799
 66
1
 10
0
 20
0
 30
0
  0
VERTEX
  8
LAYER_1
 10
119.3018
 20
183.0844
  0
VERTEX
  8
LAYER_1
 10
119.4075
 20
182.9573
  0
VERTEX
  8
LAYER_1
 10
119.5343
 20
182.9149
  0
VERTEX
  8
LAYER_1
 10
119.6824
 20
182.9573
  0
SEQEND
  0
POLYLINE
  8
LAYER_1
 40
0.1799
 41
0.1799
 66
1
 10
0
 20
0
 30
0
  0
VERTEX
  8
LAYER_1
 10
117.3119
 20
182.4495
  0
VERTEX
  8
LAYER_1
 10
117.3119
 20
183.0421
  0
SEQEND
  0
POLYLINE
  8
LAYER_1
 40
0.1799
 41
0.1799
 66
1
 10
0
 20
0
 30
0
  0
VERTEX
  8
LAYER_1
 10
118.0529
 20
181.8356
  0
VERTEX
  8
LAYER_1
 10
118.0529
 20
183.0844
  0
SEQEND
  0
POLYLINE
  8
LAYER_1
 40
0.1799
 41
0.1799
 66
1
 10
0
 20
0
 30
0
  0
VERTEX
  8
LAYER_1
 10
117.5448
 20
183.0844
  0
VERTEX
  8
LAYER_1
 10
117.5448
 20
181.8356
  0
SEQEND
  0
POLYLINE
  8
LAYER_1
 40
0.1799
 41
0.1799
 66
1
 10
0
 20
0
 30
0
  0
VERTEX
  8
LAYER_1
 10
118.0529
 20
180.5867
  0
VERTEX
  8
LAYER_1
 10
117.5449
 20
180.5867
  0
SEQEND
  0
POLYLINE
  8
LAYER_1
 40
0.1799
 41
0.1799
 66
1
 10
0
 20
0
 30
0
  0
VERTEX
  8
LAYER_1
 10
116.042
 20
181.2007
  0
VERTEX
  8
LAYER_1
 10
116.0205
 20
181.2851
  0
VERTEX
  8
LAYER_1
 10
115.9151
 20
181.3271
  0
VERTEX
  8
LAYER_1
 10
115.83
 20
181.3064
  0
VERTEX
  8
LAYER_1
 10
115.7876
 20
181.2217
  0
SEQEND
  0
POLYLINE
  8
LAYER_1
 40
0.1799
 41
0.1799
 66
1
 10
0
 20
0
 30
0
  0
VERTEX
  8
LAYER_1
 10
117.5448
 20
180.5867
  0
VERTEX
  8
LAYER_1
 10
117.5448
 20
181.8356
  0
SEQEND
  0
POLYLINE
  8
LAYER_1
 40
0.1799
 41
0.1799
 66
1
 10
0
 20
0
 30
0
  0
VERTEX
  8
LAYER_1
 10
117.3119
 20
181.2007
  0
VERTEX
  8
LAYER_1
 10
117.2695
 20
181.2851
  0
VERTEX
  8
LAYER_1
 10
117.1853
 20
181.3271
  0
VERTEX
  8
LAYER_1
 10
117.1002
 20
181.3064
  0
VERTEX
  8
LAYER_1
 10
117.0578
 20
181.2217
  0
SEQEND
  0
POLYLINE
  8
LAYER_1
 40
0.1799
 41
0.1799
 66
1
 10
0
 20
0
 30
0
  0
VERTEX
  8
LAYER_1
 10
116.6769
 20
181.2007
  0
VERTEX
  8
LAYER_1
 10
116.6346
 20
181.2851
  0
VERTEX
  8
LAYER_1
 10
116.55
 20
181.3271
  0
VERTEX
  8
LAYER_1
 10
116.4652
 20
181.3064
  0
VERTEX
  8
LAYER_1
 10
116.4229
 20
181.2217
  0
SEQEND
  0
POLYLINE
  8
LAYER_1
 40
0.1799
 41
0.1799
 66
1
 10
0
 20
0
 30
0
  0
VERTEX
  8
LAYER_1
 10
115.7878
 20
181.2217
  0
VERTEX
  8
LAYER_1
 10
115.7878
 20
180.7983
  0
SEQEND
  0
POLYLINE
  8
LAYER_1
 40
0.1799
 41
0.1799
 66
1
 10
0
 20
0
 30
0
  0
VERTEX
  8
LAYER_1
 10
116.042
 20
181.2007
  0
VERTEX
  8
LAYER_1
 10
116.042
 20
180.7773
  0
SEQEND
  0
POLYLINE
  8
LAYER_1
 40
0.1799
 41
0.1799
 66
1
 10
0
 20
0
 30
0
  0
VERTEX
  8
LAYER_1
 10
116.6769
 20
181.2007
  0
VERTEX
  8
LAYER_1
 10
116.6769
 20
180.6925
  0
SEQEND
  0
POLYLINE
  8
LAYER_1
 40
0.1799
 41
0.1799
 66
1
 10
0
 20
0
 30
0
  0
VERTEX
  8
LAYER_1
 10
116.423
 20
181.2217
  0
VERTEX
  8
LAYER_1
 10
116.423
 20
180.7135
  0
SEQEND
  0
POLYLINE
  8
LAYER_1
 40
0.1799
 41
0.1799
 66
1
 10
0
 20
0
 30
0
  0
VERTEX
  8
LAYER_1
 10
117.3119
 20
181.2007
  0
VERTEX
  8
LAYER_1
 10
117.3119
 20
180.6078
  0
SEQEND
  0
POLYLINE
  8
LAYER_1
 40
0.1799
 41
0.1799
 66
1
 10
0
 20
0
 30
0
  0
VERTEX
  8
LAYER_1
 10
117.058
 20
181.2217
  0
VERTEX
  8
LAYER_1
 10
117.058
 20
180.6501
  0
SEQEND
  0
POLYLINE
  8
LAYER_1
 40
0.1799
 41
0.1799
 66
1
 10
0
 20
0
 30
0
  0
VERTEX
  8
LAYER_1
 10
115.7878
 20
182.4495
  0
VERTEX
  8
LAYER_1
 10
115.8301
 20
182.3648
  0
VERTEX
  8
LAYER_1
 10
115.9147
 20
182.3224
  0
VERTEX
  8
LAYER_1
 10
116.0207
 20
182.3648
  0
VERTEX
  8
LAYER_1
 10
116.0422
 20
182.4495
  0
SEQEND
  0
POLYLINE
  8
LAYER_1
 40
0.1799
 41
0.1799
 66
1
 10
0
 20
0
 30
0
  0
VERTEX
  8
LAYER_1
 10
115.7878
 20
182.4495
  0
VERTEX
  8
LAYER_1
 10
115.7878
 20
182.8726
  0
SEQEND
  0
POLYLINE
  8
LAYER_1
 40
0.1799
 41
0.1799
 66
1
 10
0
 20
0
 30
0
  0
VERTEX
  8
LAYER_1
 10
116.042
 20
182.4495
  0
VERTEX
  8
LAYER_1
 10
116.042
 20
182.8939
  0
SEQEND
  0
POLYLINE
  8
LAYER_1
 40
0.1799
 41
0.1799
 66
1
 10
0
 20
0
 30
0
  0
VERTEX
  8
LAYER_1
 10
116.6769
 20
182.4495
  0
VERTEX
  8
LAYER_1
 10
116.6769
 20
182.9787
  0
SEQEND
  0
POLYLINE
  8
LAYER_1
 40
0.1799
 41
0.1799
 66
1
 10
0
 20
0
 30
0
  0
VERTEX
  8
LAYER_1
 10
116.423
 20
182.9363
  0
VERTEX
  8
LAYER_1
 10
116.423
 20
182.4495
  0
VERTEX
  8
LAYER_1
 10
116.4654
 20
182.3648
  0
VERTEX
  8
LAYER_1
 10
116.5496
 20
182.3224
  0
VERTEX
  8
LAYER_1
 10
116.6347
 20
182.3648
  0
VERTEX
  8
LAYER_1
 10
116.6771
 20
182.4495
  0
SEQEND
  0
POLYLINE
  8
LAYER_1
 40
0.1799
 41
0.1799
 66
1
 10
0
 20
0
 30
0
  0
VERTEX
  8
LAYER_1
 10
117.058
 20
182.4495
  0
VERTEX
  8
LAYER_1
 10
117.1003
 20
182.3648
  0
VERTEX
  8
LAYER_1
 10
117.1846
 20
182.3224
  0
VERTEX
  8
LAYER_1
 10
117.2697
 20
182.3648
  0
VERTEX
  8
LAYER_1
 10
117.312
 20
182.4495
  0
SEQEND
  0
POLYLINE
  8
LAYER_1
 40
0.1799
 41
0.1799
 66
1
 10
0
 20
0
 30
0
  0
VERTEX
  8
LAYER_1
 10
117.058
 20
182.4495
  0
VERTEX
  8
LAYER_1
 10
117.058
 20
183.0207
  0
SEQEND
  0
POLYLINE
  8
LAYER_1
 40
0.1799
 41
0.1799
 66
1
 10
0
 20
0
 30
0
  0
VERTEX
  8
LAYER_1
 10
118.0529
 20
181.8356
  0
VERTEX
  8
LAYER_1
 10
118.0529
 20
180.5867
  0
SEQEND
  0
POLYLINE
  8
LAYER_1
 40
0.1799
 41
0.1799
 66
1
 10
0
 20
0
 30
0
  0
VERTEX
  8
LAYER_1
 10
118.0949
 20
180.4596
  0
VERTEX
  8
LAYER_1
 10
118.2011
 20
180.2908
  0
VERTEX
  8
LAYER_1
 10
118.37
 20
180.1633
  0
VERTEX
  8
LAYER_1
 10
118.5605
 20
180.0999
  0
VERTEX
  8
LAYER_1
 10
118.7511
 20
180.0786
  0
VERTEX
  8
LAYER_1
 10
118.9628
 20
180.1423
  0
VERTEX
  8
LAYER_1
 10
119.1112
 20
180.2691
  0
VERTEX
  8
LAYER_1
 10
119.2379
 20
180.4386
  0
SEQEND
  0
POLYLINE
  8
LAYER_1
 40
0.1799
 41
0.1799
 66
1
 10
0
 20
0
 30
0
  0
VERTEX
  8
LAYER_1
 10
118.0529
 20
180.5867
  0
VERTEX
  8
LAYER_1
 10
118.0949
 20
180.4596
  0
SEQEND
  0
POLYLINE
  8
LAYER_1
 40
0.1799
 41
0.1799
 66
1
 10
0
 20
0
 30
0
  0
VERTEX
  8
LAYER_1
 10
118.0529
 20
183.0844
  0
VERTEX
  8
LAYER_1
 10
117.5449
 20
183.0844
  0
SEQEND
  0
POLYLINE
  8
LAYER_1
 40
0.1799
 41
0.1799
 66
1
 10
0
 20
0
 30
0
  0
VERTEX
  8
LAYER_1
 10
119.238
 20
183.2326
  0
VERTEX
  8
LAYER_1
 10
119.1114
 20
183.4014
  0
VERTEX
  8
LAYER_1
 10
118.9417
 20
183.5288
  0
VERTEX
  8
LAYER_1
 10
118.7512
 20
183.5712
  0
VERTEX
  8
LAYER_1
 10
118.5399
 20
183.5712
  0
VERTEX
  8
LAYER_1
 10
118.349
 20
183.4865
  0
VERTEX
  8
LAYER_1
 10
118.2012
 20
183.3594
  0
VERTEX
  8
LAYER_1
 10
118.0951
 20
183.1902
  0
SEQEND
  0
POLYLINE
  8
LAYER_1
 40
0.1799
 41
0.1799
 66
1
 10
0
 20
0
 30
0
  0
VERTEX
  8
LAYER_1
 10
118.0529
 20
183.0844
  0
VERTEX
  8
LAYER_1
 10
118.1165
 20
183.2112
  0
SEQEND
  0
POLYLINE
  8
LAYER_1
 40
0.1799
 41
0.1799
 66
1
 10
0
 20
0
 30
0
  0
VERTEX
  8
LAYER_1
 10
121.3547
 20
183.4231
  0
VERTEX
  8
LAYER_1
 10
120.8894
 20
183.317
  0
VERTEX
  8
LAYER_1
 10
120.4233
 20
183.1478
  0
VERTEX
  8
LAYER_1
 10
120.0001
 20
182.9153
  0
VERTEX
  8
LAYER_1
 10
119.6191
 20
182.6187
  0
SEQEND
  0
POLYLINE
  8
LAYER_1
 40
0.1799
 41
0.1799
 66
1
 10
0
 20
0
 30
0
  0
VERTEX
  8
LAYER_1
 10
122.5402
 20
181.8356
  0
VERTEX
  8
LAYER_1
 10
122.5402
 20
183.0844
  0
SEQEND
  0
POLYLINE
  8
LAYER_1
 40
0.1799
 41
0.1799
 66
1
 10
0
 20
0
 30
0
  0
VERTEX
  8
LAYER_1
 10
119.6191
 20
181.0522
  0
VERTEX
  8
LAYER_1
 10
120.0001
 20
180.7559
  0
VERTEX
  8
LAYER_1
 10
120.4233
 20
180.523
  0
VERTEX
  8
LAYER_1
 10
120.8891
 20
180.3538
  0
VERTEX
  8
LAYER_1
 10
121.3547
 20
180.2481
  0
SEQEND
  0
POLYLINE
  8
LAYER_1
 40
0.1799
 41
0.1799
 66
1
 10
0
 20
0
 30
0
  0
VERTEX
  8
LAYER_1
 10
119.5557
 20
181.8356
  0
VERTEX
  8
LAYER_1
 10
119.5557
 20
181.0522
  0
VERTEX
  8
LAYER_1
 10
119.6192
 20
181.0522
  0
SEQEND
  0
POLYLINE
  8
LAYER_1
 40
0.1799
 41
0.1799
 66
1
 10
0
 20
0
 30
0
  0
VERTEX
  8
LAYER_1
 10
119.5557
 20
181.0522
  0
VERTEX
  8
LAYER_1
 10
119.5133
 20
181.0308
  0
SEQEND
  0
POLYLINE
  8
LAYER_1
 40
0.1799
 41
0.1799
 66
1
 10
0
 20
0
 30
0
  0
VERTEX
  8
LAYER_1
 10
119.5557
 20
181.8356
  0
VERTEX
  8
LAYER_1
 10
119.5557
 20
182.6187
  0
SEQEND
  0
POLYLINE
  8
LAYER_1
 40
0.1799
 41
0.1799
 66
1
 10
0
 20
0
 30
0
  0
VERTEX
  8
LAYER_1
 10
119.5133
 20
182.6397
  0
VERTEX
  8
LAYER_1
 10
119.5557
 20
182.5976
  0
VERTEX
  8
LAYER_1
 10
119.6191
 20
182.6183
  0
SEQEND
  0
POLYLINE
  8
LAYER_1
 40
0.1799
 41
0.1799
 66
1
 10
0
 20
0
 30
0
  0
VERTEX
  8
LAYER_1
 10
122.5402
 20
181.8356
  0
VERTEX
  8
LAYER_1
 10
122.5402
 20
180.5867
  0
SEQEND
  0
POLYLINE
  8
LAYER_1
 40
0.1799
 41
0.1799
 66
1
 10
0
 20
0
 30
0
  0
VERTEX
  8
LAYER_1
 10
121.3547
 20
180.2481
  0
VERTEX
  8
LAYER_1
 10
121.7781
 20
180.2481
  0
VERTEX
  8
LAYER_1
 10
122.1801
 20
180.3749
  0
VERTEX
  8
LAYER_1
 10
122.54
 20
180.5867
  0
SEQEND
  0
POLYLINE
  8
LAYER_1
 40
0.1799
 41
0.1799
 66
1
 10
0
 20
0
 30
0
  0
VERTEX
  8
LAYER_1
 10
122.5402
 20
183.0844
  0
VERTEX
  8
LAYER_1
 10
122.18
 20
183.296
  0
VERTEX
  8
LAYER_1
 10
121.7781
 20
183.4231
  0
VERTEX
  8
LAYER_1
 10
121.3549
 20
183.4231
  0
SEQEND
  0
POLYLINE
  8
LAYER_1
 40
0.1799
 41
0.1799
 66
1
 10
0
 20
0
 30
0
  0
VERTEX
  8
LAYER_1
 10
124.805
 20
179.2108
  0
VERTEX
  8
LAYER_1
 10
124.805
 20
181.8356
  0
SEQEND
  0
POLYLINE
  8
LAYER_1
 40
0.1799
 41
0.1799
 66
1
 10
0
 20
0
 30
0
  0
VERTEX
  8
LAYER_1
 10
125.4189
 20
181.8356
  0
VERTEX
  8
LAYER_1
 10
125.4189
 20
179.2111
  0
VERTEX
  8
LAYER_1
 10
124.8051
 20
179.2111
  0
VERTEX
  8
LAYER_1
 10
124.6568
 20
179.3165
  0
VERTEX
  8
LAYER_1
 10
124.4871
 20
179.3589
  0
VERTEX
  8
LAYER_1
 10
124.3182
 20
179.3803
  0
SEQEND
  0
POLYLINE
  8
LAYER_1
 40
0.1799
 41
0.1799
 66
1
 10
0
 20
0
 30
0
  0
VERTEX
  8
LAYER_1
 10
125.4189
 20
183.5922
  0
VERTEX
  8
LAYER_1
 10
129.4402
 20
183.5922
  0
SEQEND
  0
POLYLINE
  8
LAYER_1
 40
0.1799
 41
0.1799
 66
1
 10
0
 20
0
 30
0
  0
VERTEX
  8
LAYER_1
 10
125.4189
 20
183.0844
  0
VERTEX
  8
LAYER_1
 10
129.4193
 20
183.0844
  0
SEQEND
  0
POLYLINE
  8
LAYER_1
 40
0.1799
 41
0.1799
 66
1
 10
0
 20
0
 30
0
  0
VERTEX
  8
LAYER_1
 10
125.4189
 20
180.5867
  0
VERTEX
  8
LAYER_1
 10
129.4193
 20
180.5867
  0
SEQEND
  0
POLYLINE
  8
LAYER_1
 40
0.1799
 41
0.1799
 66
1
 10
0
 20
0
 30
0
  0
VERTEX
  8
LAYER_1
 10
125.4189
 20
180.0786
  0
VERTEX
  8
LAYER_1
 10
129.4402
 20
180.0786
  0
SEQEND
  0
POLYLINE
  8
LAYER_1
 40
0.1799
 41
0.1799
 66
1
 10
0
 20
0
 30
0
  0
VERTEX
  8
LAYER_1
 10
124.805
 20
184.4601
  0
VERTEX
  8
LAYER_1
 10
124.805
 20
181.8356
  0
SEQEND
  0
POLYLINE
  8
LAYER_1
 40
0.1799
 41
0.1799
 66
1
 10
0
 20
0
 30
0
  0
VERTEX
  8
LAYER_1
 10
125.4189
 20
181.8356
  0
VERTEX
  8
LAYER_1
 10
125.4189
 20
184.4601
  0
VERTEX
  8
LAYER_1
 10
124.8051
 20
184.4601
  0
SEQEND
  0
POLYLINE
  8
LAYER_1
 40
0.1799
 41
0.1799
 66
1
 10
0
 20
0
 30
0
  0
VERTEX
  8
LAYER_1
 10
124.3182
 20
184.2909
  0
VERTEX
  8
LAYER_1
 10
124.4871
 20
184.2909
  0
VERTEX
  8
LAYER_1
 10
124.6568
 20
184.3543
  0
VERTEX
  8
LAYER_1
 10
124.805
 20
184.4597
  0
SEQEND
  0
POLYLINE
  8
LAYER_1
 40
0.1799
 41
0.1799
 66
1
 10
0
 20
0
 30
0
  0
VERTEX
  8
LAYER_1
 10
129.4193
 20
180.0786
  0
VERTEX
  8
LAYER_1
 10
129.5459
 20
180.121
  0
VERTEX
  8
LAYER_1
 10
129.631
 20
180.2057
  0
VERTEX
  8
LAYER_1
 10
129.6734
 20
180.3325
  0
VERTEX
  8
LAYER_1
 10
129.631
 20
180.4596
  0
VERTEX
  8
LAYER_1
 10
129.5459
 20
180.5444
  0
VERTEX
  8
LAYER_1
 10
129.4193
 20
180.5867
  0
SEQEND
  0
POLYLINE
  8
LAYER_1
 40
0.1799
 41
0.1799
 66
1
 10
0
 20
0
 30
0
  0
VERTEX
  8
LAYER_1
 10
129.4193
 20
183.0844
  0
VERTEX
  8
LAYER_1
 10
129.5459
 20
183.1268
  0
VERTEX
  8
LAYER_1
 10
129.631
 20
183.2112
  0
VERTEX
  8
LAYER_1
 10
129.6734
 20
183.3383
  0
VERTEX
  8
LAYER_1
 10
129.631
 20
183.4655
  0
VERTEX
  8
LAYER_1
 10
129.5459
 20
183.5499
  0
VERTEX
  8
LAYER_1
 10
129.4193
 20
183.5919
  0
SEQEND
  0
POLYLINE
  8
LAYER_1
 40
0.1799
 41
0.1799
 62
160
 66
1
 10
0
 20
0
 30
0
  0
VERTEX
  8
LAYER_1
 10
73.9626
 20
183.5288
  0
VERTEX
  8
LAYER_1
 10
73.6663
 20
183.3173
 42
0.05457703891
  0
VERTEX
  8
LAYER_1
 10
73.2478
 20
183.0085
 42
0.1596061094
  0
VERTEX
  8
LAYER_1
 10
73.0028
 20
182.5963
 42
0.1971567155
  0
VERTEX
  8
LAYER_1
 10
73.1191
 20
182.2141
 42
0.04388687502
  0
VERTEX
  8
LAYER_1
 10
73.3779
 20
181.911
 42
-0.09400818482
  0
VERTEX
  8
LAYER_1
 10
73.836
 20
181.3492
 42
-0.1576751518
  0
VERTEX
  8
LAYER_1
 10
73.9137
 20
180.9101
 42
-0.07672340943
  0
VERTEX
  8
LAYER_1
 10
73.8346
 20
180.6726
 42
-0.05774388366
  0
VERTEX
  8
LAYER_1
 10
73.6587
 20
180.4107
 42
-0.03997983745
  0
VERTEX
  8
LAYER_1
 10
73.3695
 20
180.121
  0
VERTEX
  8
LAYER_1
 10
73.1163
 20
179.8671
  0
SEQEND
  0
POLYLINE
  8
LAYER_1
 40
0.1799
 41
0.1799
 62
160
 66
1
 10
0
 20
0
 30
0
  0
VERTEX
  8
LAYER_1
 10
74.9785
 20
183.5288
  0
VERTEX
  8
LAYER_1
 10
74.6611
 20
183.3173
 42
0.05547015964
  0
VERTEX
  8
LAYER_1
 10
74.251
 20
183.0027
 42
0.1593994328
  0
VERTEX
  8
LAYER_1
 10
74.0142
 20
182.5841
 42
0.1925607451
  0
VERTEX
  8
LAYER_1
 10
74.1342
 20
182.1984
 42
0.04367115886
  0
VERTEX
  8
LAYER_1
 10
74.3935
 20
181.8946
 42
-0.09373548968
  0
VERTEX
  8
LAYER_1
 10
74.85
 20
181.3358
 42
-0.1583163551
  0
VERTEX
  8
LAYER_1
 10
74.9271
 20
180.9012
 42
-0.07703209475
  0
VERTEX
  8
LAYER_1
 10
74.8483
 20
180.6664
 42
-0.05779949331
  0
VERTEX
  8
LAYER_1
 10
74.6733
 20
180.4074
 42
-0.03990057951
  0
VERTEX
  8
LAYER_1
 10
74.3858
 20
180.121
  0
VERTEX
  8
LAYER_1
 10
74.1319
 20
179.8671
  0
SEQEND
  0
POLYLINE
  8
LAYER_1
 40
0.1799
 41
0.1799
 66
1
 10
0
 20
0
 30
0
  0
VERTEX
  8
LAYER_1
 10
73.9202
 20
181.1369
  0
VERTEX
  8
LAYER_1
 10
65.2418
 20
181.1369
  0
SEQEND
  0
POLYLINE
  8
LAYER_1
 40
0.1799
 41
0.1799
 66
1
 10
0
 20
0
 30
0
  0
VERTEX
  8
LAYER_1
 10
72.989
 20
182.5129
  0
VERTEX
  8
LAYER_1
 10
65.242
 20
182.5129
  0
SEQEND
  0
POLYLINE
  8
LAYER_1
 40
0.1799
 41
0.1799
 62
160
 66
1
 10
0
 20
0
 30
0
  0
VERTEX
  8
LAYER_1
 10
106.9824
 20
183.5288
  0
VERTEX
  8
LAYER_1
 10
106.6862
 20
183.3173
 42
0.05440153556
  0
VERTEX
  8
LAYER_1
 10
106.273
 20
183.0014
 42
0.1578571997
  0
VERTEX
  8
LAYER_1
 10
106.0328
 20
182.5841
 42
0.1956635187
  0
VERTEX
  8
LAYER_1
 10
106.1509
 20
182.2023
 42
0.04433720304
  0
VERTEX
  8
LAYER_1
 10
106.4097
 20
181.9023
 42
-0.094198612
  0
VERTEX
  8
LAYER_1
 10
106.8677
 20
181.3478
 42
-0.1578602015
  0
VERTEX
  8
LAYER_1
 10
106.9472
 20
180.912
 42
-0.076351682
  0
VERTEX
  8
LAYER_1
 10
106.87
 20
180.675
 42
-0.05736258408
  0
VERTEX
  8
LAYER_1
 10
106.6968
 20
180.4125
 42
-0.03970134302
  0
VERTEX
  8
LAYER_1
 10
106.4112
 20
180.121
  0
VERTEX
  8
LAYER_1
 10
106.157
 20
179.8671
  0
SEQEND
  0
POLYLINE
  8
LAYER_1
 40
0.1799
 41
0.1799
 62
160
 66
1
 10
0
 20
0
 30
0
  0
VERTEX
  8
LAYER_1
 10
105.9878
 20
183.5288
  0
VERTEX
  8
LAYER_1
 10
105.6704
 20
183.3173
 42
0.05472534237
  0
VERTEX
  8
LAYER_1
 10
105.2599
 20
183.0011
 42
0.1578607885
  0
VERTEX
  8
LAYER_1
 10
105.0217
 20
182.583
 42
0.1939782429
  0
VERTEX
  8
LAYER_1
 10
105.1399
 20
182.2
 42
0.0441568682
  0
VERTEX
  8
LAYER_1
 10
105.3977
 20
181.8991
 42
-0.09412887773
  0
VERTEX
  8
LAYER_1
 10
105.8531
 20
181.3439
 42
-0.1577003165
  0
VERTEX
  8
LAYER_1
 10
105.9311
 20
180.9088
 42
-0.07626837175
  0
VERTEX
  8
LAYER_1
 10
105.8535
 20
180.6725
 42
-0.05731384944
  0
VERTEX
  8
LAYER_1
 10
105.6801
 20
180.4111
 42
-0.03967642289
  0
VERTEX
  8
LAYER_1
 10
105.3948
 20
180.121
  0
VERTEX
  8
LAYER_1
 10
105.1412
 20
179.8671
  0
SEQEND
  0
POLYLINE
  8
LAYER_1
 40
0.1799
 41
0.1799
 66
1
 10
0
 20
0
 30
0
  0
VERTEX
  8
LAYER_1
 10
105.0143
 20
182.5129
  0
VERTEX
  8
LAYER_1
 10
100.4419
 20
182.5129
  0
SEQEND
  0
POLYLINE
  8
LAYER_1
 40
0.1799
 41
0.1799
 66
1
 10
0
 20
0
 30
0
  0
VERTEX
  8
LAYER_1
 10
105.9455
 20
181.1369
  0
VERTEX
  8
LAYER_1
 10
100.4418
 20
181.1369
  0
SEQEND
  0
INSERT
  8
LAYER_1
  2
AIGNBL01020007
 10
0
 20
0
 30
0
  0
POLYLINE
  8
LAYER_1
 40
0.1799
 41
0.1799
 66
1
 10
0
 20
0
 30
0
  0
VERTEX
  8
LAYER_1
 10
244.3544
 20
347.0482
 42
-0.07174555591
  0
VERTEX
  8
LAYER_1
 10
245.3731
 20
347.0419
 42
-0.0774693561
  0
VERTEX
  8
LAYER_1
 10
245.8933
 20
346.8863
 42
-0.06437743554
  0
VERTEX
  8
LAYER_1
 10
246.7873
 20
346.2369
 42
-0.05996003726
  0
VERTEX
  8
LAYER_1
 10
246.9822
 20
345.9606
 42
-0.09023467135
  0
VERTEX
  8
LAYER_1
 10
247.2588
 20
345.1861
 42
-0.05236550916
  0
VERTEX
  8
LAYER_1
 10
247.2586
 20
345.0575
  0
VERTEX
  8
LAYER_1
 10
247.0874
 20
343.3363
 42
-0.03444848682
  0
VERTEX
  8
LAYER_1
 10
246.9183
 20
342.3682
 42
-0.001575883665
  0
VERTEX
  8
LAYER_1
 10
246.7873
 20
341.7996
  0
VERTEX
  8
LAYER_1
 10
246.4852
 20
340.2993
  0
VERTEX
  8
LAYER_1
 10
246.2689
 20
339.3993
 42
-0.1632215248
  0
VERTEX
  8
LAYER_1
 10
245.8933
 20
339.0346
 42
-0.05234413702
  0
VERTEX
  8
LAYER_1
 10
245.6112
 20
339.0279
 42
-0.009582613703
  0
VERTEX
  8
LAYER_1
 10
243.9482
 20
339.1206
 42
-0.1457999135
  0
VERTEX
  8
LAYER_1
 10
243.5396
 20
339.4992
 42
-0.09928062006
  0
VERTEX
  8
LAYER_1
 10
243.3912
 20
339.9136
 42
0.006609578204
  0
VERTEX
  8
LAYER_1
 10
243.0391
 20
341.8437
  0
VERTEX
  8
LAYER_1
 10
242.5406
 20
344.1361
 42
-0.0601536165
  0
VERTEX
  8
LAYER_1
 10
242.526
 20
345.449
 42
-0.008690172349
  0
VERTEX
  8
LAYER_1
 10
242.5406
 20
345.5291
 42
-0.1254816816
  0
VERTEX
  8
LAYER_1
 10
242.8548
 20
346.2196
 42
-0.05043161376
  0
VERTEX
  8
LAYER_1
 10
243.2186
 20
346.5582
 42
-0.04949359084
  0
VERTEX
  8
LAYER_1
 10
243.5731
 20
346.7718
 42
-0.03228651844
  0
VERTEX
  8
LAYER_1
 10
244.1344
 20
347.0067
 42
-0.4748128673
  0
VERTEX
  8
LAYER_1
 10
244.3125
 20
347.0344
 42
-0.07464652265
  0
VERTEX
  8
LAYER_1
 10
244.2838
 20
347.0083
  0
SEQEND
  0
POLYLINE
  8
LAYER_1
 40
0.05
 41
0.05
 66
1
 10
0
 20
0
 30
0
 70
1
  0
VERTEX
  8
LAYER_1
 10
0
 20
425.9997
  0
VERTEX
  8
LAYER_1
 10
302.9996
 20
425.9997
  0
VERTEX
  8
LAYER_1
 10
302.9996
 20
0
  0
VERTEX
  8
LAYER_1
 10
0
 20
0
  0
SEQEND
  0
ENDBLK
  0
BLOCK
  8
LAYER_1
  2
AIGNBL01010008
 70
64
 10
0
 20
0
 30
0
  3
AIGNBL01010008
  0
INSERT
  8
LAYER_1
  2
AIGNBL01020009
 10
0
 20
0
 30
0
  0
POLYLINE
  8
LAYER_1
 40
0.1799
 41
0.1799
 66
1
 10
0
 20
0
 30
0
  0
VERTEX
  8
LAYER_1
 10
73.6808
 20
214.5921
  0
VERTEX
  8
LAYER_1
 10
123.1851
 20
214.5921
  0
SEQEND
  0
POLYLINE
  8
LAYER_1
 40
0.1799
 41
0.1799
 66
1
 10
0
 20
0
 30
0
  0
VERTEX
  8
LAYER_1
 10
175.1883
 20
240.452
  0
VERTEX
  8
LAYER_1
 10
175.1883
 20
330.9664
  0
SEQEND
  0
POLYLINE
  8
LAYER_1
 40
0.1799
 41
0.1799
 66
1
 10
0
 20
0
 30
0
  0
VERTEX
  8
LAYER_1
 10
39.1439
 20
330.7175
  0
VERTEX
  8
LAYER_1
 10
39.1439
 20
277.2363
  0
SEQEND
  0
POLYLINE
  8
LAYER_1
 40
0.1799
 41
0.1799
 66
1
 10
0
 20
0
 30
0
  0
VERTEX
  8
LAYER_1
 10
146.9509
 20
346.4584
  0
VERTEX
  8
LAYER_1
 10
50.4439
 20
346.4584
  0
SEQEND
  0
POLYLINE
  8
LAYER_1
 40
0.05
 41
0.05
 66
1
 10
0
 20
0
 30
0
 70
1
  0
VERTEX
  8
LAYER_1
 10
0
 20
425.9997
  0
VERTEX
  8
LAYER_1
 10
302.9996
 20
425.9997
  0
VERTEX
  8
LAYER_1
 10
302.9996
 20
0
  0
VERTEX
  8
LAYER_1
 10
0
 20
0
  0
SEQEND
  0
ENDBLK
  0
BLOCK
  8
LAYER_1
  2
AIGNBL0101000A
 70
64
 10
0
 20
0
 30
0
  3
AIGNBL0101000A
  0
POLYLINE
  8
LAYER_1
 40
0.1799
 41
0.1799
 66
1
 10
0
 20
0
 30
0
  0
VERTEX
  8
LAYER_1
 10
60.3877
 20
239.4648
  0
VERTEX
  8
LAYER_1
 10
60.3355
 20
240.2532
  0
VERTEX
  8
LAYER_1
 10
60.1517
 20
241.0149
 42
0.05951998567
  0
VERTEX
  8
LAYER_1
 10
59.5217
 20
242.2533
 42
0.06215407178
  0
VERTEX
  8
LAYER_1
 10
58.6861
 20
243.211
 42
0.2401352739
  0
VERTEX
  8
LAYER_1
 10
54.3197
 20
244.3091
 42
0.2465991949
  0
VERTEX
  8
LAYER_1
 10
50.789
 20
241.2124
 42
0.03947261705
  0
VERTEX
  8
LAYER_1
 10
50.5134
 20
240.3051
  0
VERTEX
  8
LAYER_1
 10
50.4605
 20
239.5177
  0
VERTEX
  8
LAYER_1
 10
50.5134
 20
238.7558
 42
0.05993539378
  0
VERTEX
  8
LAYER_1
 10
50.8987
 20
237.4463
 42
0.06826719951
  0
VERTEX
  8
LAYER_1
 10
51.601
 20
236.2902
 42
0.1320196689
  0
VERTEX
  8
LAYER_1
 10
53.6295
 20
234.8376
 42
0.09046292559
  0
VERTEX
  8
LAYER_1
 10
55.4369
 20
234.5076
 42
0.09059073149
  0
VERTEX
  8
LAYER_1
 10
57.242
 20
234.8353
 42
0.06491889214
  0
VERTEX
  8
LAYER_1
 10
58.3341
 20
235.4222
 42
0.1043596944
  0
VERTEX
  8
LAYER_1
 10
59.6403
 20
236.8597
 42
0.05718522482
  0
VERTEX
  8
LAYER_1
 10
60.1225
 20
237.9492
 42
0.02678288255
  0
VERTEX
  8
LAYER_1
 10
60.2826
 20
238.5723
  0
VERTEX
  8
LAYER_1
 10
60.3877
 20
239.3339
  0
VERTEX
  8
LAYER_1
 10
60.3877
 20
239.4648
  0
SEQEND
  0
POLYLINE
  8
LAYER_1
 40
0.1799
 41
0.1799
 66
1
 10
0
 20
0
 30
0
  0
VERTEX
  8
LAYER_1
 10
86.99
 20
258.824
  0
VERTEX
  8
LAYER_1
 10
89.9055
 20
262.2636
  0
VERTEX
  8
LAYER_1
 10
85.6773
 20
260.7414
  0
SEQEND
  0
POLYLINE
  8
LAYER_1
 40
0.1799
 41
0.1799
 66
1
 10
0
 20
0
 30
0
  0
VERTEX
  8
LAYER_1
 10
60.372
 20
241.9981
  0
VERTEX
  8
LAYER_1
 10
89.8481
 20
262.2638
  0
SEQEND
  0
POLYLINE
  8
LAYER_1
 40
0.05
 41
0.05
 66
1
 10
0
 20
0
 30
0
 70
1
  0
VERTEX
  8
LAYER_1
 10
0
 20
425.9997
  0
VERTEX
  8
LAYER_1
 10
302.9996
 20
425.9997
  0
VERTEX
  8
LAYER_1
 10
302.9996
 20
0
  0
VERTEX
  8
LAYER_1
 10
0
 20
0
  0
SEQEND
  0
ENDBLK
  0
BLOCK
  8
LAYER_1
  2
AIGNBL0101000B
 70
64
 10
0
 20
0
 30
0
  3
AIGNBL0101000B
  0
POLYLINE
  8
LAYER_1
 40
0.1799
 41
0.1799
 66
1
 10
0
 20
0
 30
0
  0
VERTEX
  8
LAYER_1
 10
150.8969
 20
261.8662
  0
VERTEX
  8
LAYER_1
 10
150.8454
 20
262.6546
  0
VERTEX
  8
LAYER_1
 10
150.6609
 20
263.4163
 42
0.05951730371
  0
VERTEX
  8
LAYER_1
 10
150.0309
 20
264.6548
 42
0.06215742453
  0
VERTEX
  8
LAYER_1
 10
149.1953
 20
265.6125
 42
0.2401652836
  0
VERTEX
  8
LAYER_1
 10
144.829
 20
266.7105
 42
0.2465531561
  0
VERTEX
  8
LAYER_1
 10
141.2979
 20
263.6137
 42
0.03946638776
  0
VERTEX
  8
LAYER_1
 10
141.0222
 20
262.7064
  0
VERTEX
  8
LAYER_1
 10
140.9704
 20
261.9194
  0
VERTEX
  8
LAYER_1
 10
141.0222
 20
261.1579
 42
0.05992461674
  0
VERTEX
  8
LAYER_1
 10
141.4077
 20
259.8483
 42
0.06825474521
  0
VERTEX
  8
LAYER_1
 10
142.1101
 20
258.6921
 42
0.1320016104
  0
VERTEX
  8
LAYER_1
 10
144.1388
 20
257.2394
 42
0.09045957156
  0
VERTEX
  8
LAYER_1
 10
145.9462
 20
256.9094
 42
0.09059138603
  0
VERTEX
  8
LAYER_1
 10
147.7513
 20
257.237
 42
0.06492009422
  0
VERTEX
  8
LAYER_1
 10
148.8434
 20
257.8238
 42
0.1043612684
  0
VERTEX
  8
LAYER_1
 10
150.1495
 20
259.2613
 42
0.05718592825
  0
VERTEX
  8
LAYER_1
 10
150.6317
 20
260.3507
 42
0.02678321865
  0
VERTEX
  8
LAYER_1
 10
150.7918
 20
260.9737
  0
VERTEX
  8
LAYER_1
 10
150.8969
 20
261.736
  0
VERTEX
  8
LAYER_1
 10
150.8969
 20
261.8662
  0
SEQEND
  0
POLYLINE
  8
LAYER_1
 40
0.1799
 41
0.1799
 66
1
 10
0
 20
0
 30
0
  0
VERTEX
  8
LAYER_1
 10
104.5804
 20
271.1249
  0
VERTEX
  8
LAYER_1
 10
100.0855
 20
270.7535
  0
VERTEX
  8
LAYER_1
 10
104.1528
 20
268.8406
  0
SEQEND
  0
POLYLINE
  8
LAYER_1
 40
0.1799
 41
0.1799
 66
1
 10
0
 20
0
 30
0
  0
VERTEX
  8
LAYER_1
 10
141.2475
 20
262.9238
  0
VERTEX
  8
LAYER_1
 10
100.0857
 20
270.7533
  0
SEQEND
  0
POLYLINE
  8
LAYER_1
 40
0.05
 41
0.05
 66
1
 10
0
 20
0
 30
0
 70
1
  0
VERTEX
  8
LAYER_1
 10
0
 20
425.9997
  0
VERTEX
  8
LAYER_1
 10
302.9996
 20
425.9997
  0
VERTEX
  8
LAYER_1
 10
302.9996
 20
0
  0
VERTEX
  8
LAYER_1
 10
0
 20
0
  0
SEQEND
  0
ENDBLK
  0
BLOCK
  8
LAYER_1
  2
AIGNBL0101000C
 70
64
 10
0
 20
0
 30
0
  3
AIGNBL0101000C
  0
POLYLINE
  8
LAYER_1
 40
0.1799
 41
0.1799
 66
1
 10
0
 20
0
 30
0
  0
VERTEX
  8
LAYER_1
 10
167.0148
 20
339.468
  0
VERTEX
  8
LAYER_1
 10
166.9631
 20
340.2561
  0
VERTEX
  8
LAYER_1
 10
166.7795
 20
341.0185
 42
0.05950885261
  0
VERTEX
  8
LAYER_1
 10
166.1493
 20
342.2569
 42
0.06214765338
  0
VERTEX
  8
LAYER_1
 10
165.3136
 20
343.2146
 42
0.2401361993
  0
VERTEX
  8
LAYER_1
 10
160.9472
 20
344.3124
 42
0.2465446571
  0
VERTEX
  8
LAYER_1
 10
157.4162
 20
341.2158
 42
0.03946493071
  0
VERTEX
  8
LAYER_1
 10
157.1405
 20
340.3086
  0
VERTEX
  8
LAYER_1
 10
157.0881
 20
339.5212
  0
VERTEX
  8
LAYER_1
 10
157.1405
 20
338.7593
 42
0.0599406308
  0
VERTEX
  8
LAYER_1
 10
157.5259
 20
337.45
 42
0.06826512821
  0
VERTEX
  8
LAYER_1
 10
158.2282
 20
336.2939
 42
0.1319988974
  0
VERTEX
  8
LAYER_1
 10
160.2568
 20
334.8413
 42
0.09044778372
  0
VERTEX
  8
LAYER_1
 10
162.0643
 20
334.5112
 42
0.09058763515
  0
VERTEX
  8
LAYER_1
 10
163.8694
 20
334.8387
 42
0.06492675306
  0
VERTEX
  8
LAYER_1
 10
164.9615
 20
335.4255
 42
0.1043816952
  0
VERTEX
  8
LAYER_1
 10
166.2675
 20
336.8629
 42
0.05744563774
  0
VERTEX
  8
LAYER_1
 10
166.7496
 20
337.9523
 42
0.02696918128
  0
VERTEX
  8
LAYER_1
 10
166.9097
 20
338.5754
  0
VERTEX
  8
LAYER_1
 10
167.0148
 20
339.3371
  0
VERTEX
  8
LAYER_1
 10
167.0148
 20
339.468
  0
SEQEND
  0
POLYLINE
  8
LAYER_1
 40
0.1799
 41
0.1799
 66
1
 10
0
 20
0
 30
0
  0
VERTEX
  8
LAYER_1
 10
143.4579
 20
328.6599
  0
VERTEX
  8
LAYER_1
 10
140.5428
 20
325.2196
  0
VERTEX
  8
LAYER_1
 10
144.771
 20
326.7425
  0
SEQEND
  0
POLYLINE
  8
LAYER_1
 40
0.1799
 41
0.1799
 66
1
 10
0
 20
0
 30
0
  0
VERTEX
  8
LAYER_1
 10
157.0881
 20
336.7744
  0
VERTEX
  8
LAYER_1
 10
140.5432
 20
325.2196
  0
SEQEND
  0
POLYLINE
  8
LAYER_1
 40
0.05
 41
0.05
 66
1
 10
0
 20
0
 30
0
 70
1
  0
VERTEX
  8
LAYER_1
 10
0
 20
425.9997
  0
VERTEX
  8
LAYER_1
 10
302.9996
 20
425.9997
  0
VERTEX
  8
LAYER_1
 10
302.9996
 20
0
  0
VERTEX
  8
LAYER_1
 10
0
 20
0
  0
SEQEND
  0
ENDBLK
  0
BLOCK
  8
LAYER_1
  2
AIGNBL0101000D
 70
64
 10
0
 20
0
 30
0
  3
AIGNBL0101000D
  0
POLYLINE
  8
LAYER_1
 40
0.1799
 41
0.1799
 66
1
 10
0
 20
0
 30
0
  0
VERTEX
  8
LAYER_1
 10
127.8551
 20
309.3203
  0
VERTEX
  8
LAYER_1
 10
127.8032
 20
310.1084
  0
VERTEX
  8
LAYER_1
 10
127.6194
 20
310.8704
 42
0.05951521184
  0
VERTEX
  8
LAYER_1
 10
126.9893
 20
312.1089
 42
0.06215351582
  0
VERTEX
  8
LAYER_1
 10
126.1537
 20
313.0667
 42
0.2401503765
  0
VERTEX
  8
LAYER_1
 10
121.7871
 20
314.1649
 42
0.2465756128
  0
VERTEX
  8
LAYER_1
 10
118.256
 20
311.0679
 42
0.0394692126
  0
VERTEX
  8
LAYER_1
 10
117.9804
 20
310.1606
  0
VERTEX
  8
LAYER_1
 10
117.9282
 20
309.3732
  0
VERTEX
  8
LAYER_1
 10
117.9804
 20
308.612
 42
0.0599384125
  0
VERTEX
  8
LAYER_1
 10
118.3658
 20
307.3026
 42
0.06826407906
  0
VERTEX
  8
LAYER_1
 10
119.0682
 20
306.1465
 42
0.1319998465
  0
VERTEX
  8
LAYER_1
 10
121.0969
 20
304.6939
 42
0.09044830177
  0
VERTEX
  8
LAYER_1
 10
122.9045
 20
304.3637
 42
0.09058591368
  0
VERTEX
  8
LAYER_1
 10
124.7097
 20
304.6913
 42
0.06492452622
  0
VERTEX
  8
LAYER_1
 10
125.8018
 20
305.2781
 42
0.1043787772
  0
VERTEX
  8
LAYER_1
 10
127.1078
 20
306.7155
 42
0.05744581358
  0
VERTEX
  8
LAYER_1
 10
127.5899
 20
307.8049
 42
0.02696986646
  0
VERTEX
  8
LAYER_1
 10
127.75
 20
308.428
  0
VERTEX
  8
LAYER_1
 10
127.8551
 20
309.1894
  0
VERTEX
  8
LAYER_1
 10
127.8551
 20
309.3203
  0
SEQEND
  0
POLYLINE
  8
LAYER_1
 40
0.1799
 41
0.1799
 66
1
 10
0
 20
0
 30
0
  0
VERTEX
  8
LAYER_1
 10
104.4472
 20
298.5869
  0
VERTEX
  8
LAYER_1
 10
101.5314
 20
295.1463
  0
VERTEX
  8
LAYER_1
 10
105.76
 20
296.6692
  0
SEQEND
  0
POLYLINE
  8
LAYER_1
 40
0.1799
 41
0.1799
 66
1
 10
0
 20
0
 30
0
  0
VERTEX
  8
LAYER_1
 10
118.077
 20
306.7015
  0
VERTEX
  8
LAYER_1
 10
101.5314
 20
295.1463
  0
SEQEND
  0
POLYLINE
  8
LAYER_1
 40
0.05
 41
0.05
 66
1
 10
0
 20
0
 30
0
 70
1
  0
VERTEX
  8
LAYER_1
 10
0
 20
425.9997
  0
VERTEX
  8
LAYER_1
 10
302.9996
 20
425.9997
  0
VERTEX
  8
LAYER_1
 10
302.9996
 20
0
  0
VERTEX
  8
LAYER_1
 10
0
 20
0
  0
SEQEND
  0
ENDBLK
  0
BLOCK
  8
LAYER_1
  2
AIGNBL0101000E
 70
64
 10
0
 20
0
 30
0
  3
AIGNBL0101000E
  0
POLYLINE
  8
LAYER_1
 40
0.1799
 41
0.1799
 66
1
 10
0
 20
0
 30
0
  0
VERTEX
  8
LAYER_1
 10
79.6413
 20
237.94
  0
VERTEX
  8
LAYER_1
 10
82.2384
 20
241.0049
  0
VERTEX
  8
LAYER_1
 10
78.4715
 20
239.6484
  0
SEQEND
  0
POLYLINE
  8
LAYER_1
 40
0.1799
 41
0.1799
 66
1
 10
0
 20
0
 30
0
  0
VERTEX
  8
LAYER_1
 10
67.498
 20
230.7105
  0
VERTEX
  8
LAYER_1
 10
82.2386
 20
241.0049
  0
SEQEND
  0
POLYLINE
  8
LAYER_1
 40
0.1799
 41
0.1799
 66
1
 10
0
 20
0
 30
0
 70
1
  0
VERTEX
  8
LAYER_1
 10
101.4603
 20
266.4485
  0
VERTEX
  8
LAYER_1
 10
95.9761
 20
266.4485
  0
VERTEX
  8
LAYER_1
 10
95.9761
 20
276.6127
  0
VERTEX
  8
LAYER_1
 10
101.4603
 20
276.6127
  0
SEQEND
  0
POLYLINE
  8
LAYER_1
 40
0.1799
 41
0.1799
 66
1
 10
0
 20
0
 30
0
 70
1
  0
VERTEX
  8
LAYER_1
 10
94.7451
 20
263.7384
  0
VERTEX
  8
LAYER_1
 10
94.7451
 20
276.6127
  0
VERTEX
  8
LAYER_1
 10
102.7334
 20
276.6127
  0
VERTEX
  8
LAYER_1
 10
102.7334
 20
263.7384
  0
VERTEX
  8
LAYER_1
 10
112.868
 20
263.7384
  0
VERTEX
  8
LAYER_1
 10
112.868
 20
262.9288
  0
VERTEX
  8
LAYER_1
 10
84.5681
 20
262.9288
  0
VERTEX
  8
LAYER_1
 10
84.5681
 20
263.7384
  0
SEQEND
  0
POLYLINE
  8
LAYER_1
 40
0.1799
 41
0.1799
 66
1
 10
0
 20
0
 30
0
  0
VERTEX
  8
LAYER_1
 10
69.14
 20
225.7378
  0
VERTEX
  8
LAYER_1
 10
69.0885
 20
226.5259
  0
VERTEX
  8
LAYER_1
 10
68.9043
 20
227.2879
 42
0.05951038712
  0
VERTEX
  8
LAYER_1
 10
68.2741
 20
228.5264
 42
0.06214885267
  0
VERTEX
  8
LAYER_1
 10
67.4385
 20
229.4842
 42
0.2401427228
  0
VERTEX
  8
LAYER_1
 10
63.0719
 20
230.5824
 42
0.2465794496
  0
VERTEX
  8
LAYER_1
 10
59.5409
 20
227.4854
 42
0.03946759899
  0
VERTEX
  8
LAYER_1
 10
59.2653
 20
226.5781
  0
VERTEX
  8
LAYER_1
 10
59.2131
 20
225.7907
  0
VERTEX
  8
LAYER_1
 10
59.2653
 20
225.0295
 42
0.0599384125
  0
VERTEX
  8
LAYER_1
 10
59.6507
 20
223.7201
 42
0.06826407906
  0
VERTEX
  8
LAYER_1
 10
60.3531
 20
222.564
 42
0.1319998465
  0
VERTEX
  8
LAYER_1
 10
62.3818
 20
221.1114
 42
0.09044830177
  0
VERTEX
  8
LAYER_1
 10
64.1894
 20
220.7812
 42
0.09058591368
  0
VERTEX
  8
LAYER_1
 10
65.9946
 20
221.1088
 42
0.06492452622
  0
VERTEX
  8
LAYER_1
 10
67.0867
 20
221.6956
 42
0.1043787772
  0
VERTEX
  8
LAYER_1
 10
68.3927
 20
223.133
 42
0.05744581358
  0
VERTEX
  8
LAYER_1
 10
68.8748
 20
224.2224
 42
0.02696986646
  0
VERTEX
  8
LAYER_1
 10
69.0349
 20
224.8455
  0
VERTEX
  8
LAYER_1
 10
69.14
 20
225.6069
  0
VERTEX
  8
LAYER_1
 10
69.14
 20
225.7378
  0
SEQEND
  0
POLYLINE
  8
LAYER_1
 40
0.05
 41
0.05
 66
1
 10
0
 20
0
 30
0
 70
1
  0
VERTEX
  8
LAYER_1
 10
0
 20
425.9997
  0
VERTEX
  8
LAYER_1
 10
302.9996
 20
425.9997
  0
VERTEX
  8
LAYER_1
 10
302.9996
 20
0
  0
VERTEX
  8
LAYER_1
 10
0
 20
0
  0
SEQEND
  0
ENDBLK
  0
BLOCK
  8
LAYER_1
  2
AIGNBL0101000F
 70
64
 10
0
 20
0
 30
0
  3
AIGNBL0101000F
  0
POLYLINE
  8
LAYER_1
 40
0.1799
 41
0.1799
 66
1
 10
0
 20
0
 30
0
  0
VERTEX
  8
LAYER_1
 10
97.3663
 20
293.2824
 42
-0.04770124364
  0
VERTEX
  8
LAYER_1
 10
99.0197
 20
293.3345
 42
-0.0344530645
  0
VERTEX
  8
LAYER_1
 10
99.448
 20
293.2696
 42
-0.06395058219
  0
VERTEX
  8
LAYER_1
 10
100.5113
 20
292.9518
 42
-0.02876722975
  0
VERTEX
  8
LAYER_1
 10
101.1963
 20
292.5356
 42
-0.03762943652
  0
VERTEX
  8
LAYER_1
 10
102.3369
 20
291.6242
 42
-0.04954033327
  0
VERTEX
  8
LAYER_1
 10
102.5978
 20
291.2883
 42
-0.0602610579
  0
VERTEX
  8
LAYER_1
 10
103.15
 20
290.145
 42
-0.08323488449
  0
VERTEX
  8
LAYER_1
 10
103.3066
 20
289.2685
 42
-0.01061172978
  0
VERTEX
  8
LAYER_1
 10
103.3022
 20
289.2152
 42
-0.007670256009
  0
VERTEX
  8
LAYER_1
 10
102.9519
 20
285.6976
 42
-0.02253711658
  0
VERTEX
  8
LAYER_1
 10
102.7181
 20
284.2081
 42
-0.0008033945146
  0
VERTEX
  8
LAYER_1
 10
102.3369
 20
282.5576
 42
-0.002364022471
  0
VERTEX
  8
LAYER_1
 10
101.7216
 20
279.492
 42
-0.009947192223
  0
VERTEX
  8
LAYER_1
 10
101.3593
 20
277.8403
 42
-0.03376804213
  0
VERTEX
  8
LAYER_1
 10
101.2793
 20
277.653
 42
-0.1627619317
  0
VERTEX
  8
LAYER_1
 10
100.5113
 20
276.9075
 42
-0.05749731302
  0
VERTEX
  8
LAYER_1
 10
100.2283
 20
276.8897
 42
-0.01186428512
  0
VERTEX
  8
LAYER_1
 10
98.9365
 20
276.9356
 42
-0.003993435705
  0
VERTEX
  8
LAYER_1
 10
96.5369
 20
277.0832
 42
-0.1057514052
  0
VERTEX
  8
LAYER_1
 10
95.9166
 20
277.5632
 42
-0.141898763
  0
VERTEX
  8
LAYER_1
 10
95.4034
 20
278.6751
 42
-0.002834830616
  0
VERTEX
  8
LAYER_1
 10
95.3988
 20
278.7037
 42
0.008039139668
  0
VERTEX
  8
LAYER_1
 10
94.6785
 20
282.6475
  0
VERTEX
  8
LAYER_1
 10
93.6608
 20
287.3316
 42
-0.03927460892
  0
VERTEX
  8
LAYER_1
 10
93.5658
 20
289.3435
 42
-0.03799307707
  0
VERTEX
  8
LAYER_1
 10
93.6608
 20
290.1787
 42
-0.08297243225
  0
VERTEX
  8
LAYER_1
 10
94.0519
 20
291.2396
 42
-0.08434967893
  0
VERTEX
  8
LAYER_1
 10
94.7135
 20
292.0018
 42
-0.00686628467
  0
VERTEX
  8
LAYER_1
 10
95.0461
 20
292.2812
 42
-0.04003501595
  0
VERTEX
  8
LAYER_1
 10
95.4767
 20
292.563
 42
-0.0457860172
  0
VERTEX
  8
LAYER_1
 10
96.9739
 20
293.2158
 42
-0.1233357962
  0
VERTEX
  8
LAYER_1
 10
97.2799
 20
293.2778
 42
-0.4365691146
  0
VERTEX
  8
LAYER_1
 10
97.2696
 20
293.2397
 42
-0.07742129257
  0
VERTEX
  8
LAYER_1
 10
97.223
 20
293.2009
  0
SEQEND
  0
POLYLINE
  8
LAYER_1
 40
0.05
 41
0.05
 66
1
 10
0
 20
0
 30
0
 70
1
  0
VERTEX
  8
LAYER_1
 10
0
 20
425.9997
  0
VERTEX
  8
LAYER_1
 10
302.9996
 20
425.9997
  0
VERTEX
  8
LAYER_1
 10
302.9996
 20
0
  0
VERTEX
  8
LAYER_1
 10
0
 20
0
  0
SEQEND
  0
ENDBLK
  0
BLOCK
  8
LAYER_1
  2
AIGNBL01010010
 70
64
 10
0
 20
0
 30
0
  3
AIGNBL01010010
  0
INSERT
  8
LAYER_1
  2
AIGNBL01020011
 10
0
 20
0
 30
0
  0
INSERT
  8
LAYER_1
  2
AIGNBL0102001A
 10
0
 20
0
 30
0
  0
ENDBLK
  0
ENDSEC
  0
SECTION
  2
ENTITIES
  0
INSERT
  8
LAYER_1
  2
AIGNBL01010002
 10
0
 20
0
 30
0
  0
POLYLINE
  8
LAYER_1
 40
0.3528
 41
0.3528
 66
1
 10
0
 20
0
 30
0
 70
1
  0
VERTEX
  8
LAYER_1
 10
292.9103
 20
10.6064
  0
VERTEX
  8
LAYER_1
 10
9.6301
 20
10.6064
  0
VERTEX
  8
LAYER_1
 10
9.6301
 20
416.8042
  0
VERTEX
  8
LAYER_1
 10
292.9103
 20
416.8042
  0
SEQEND
  0
POLYLINE
  8
LAYER_1
 40
0.3528
 41
0.3528
 66
1
 10
0
 20
0
 30
0
  0
VERTEX
  8
LAYER_1
 10
9.6302
 20
110.086
  0
VERTEX
  8
LAYER_1
 10
292.9103
 20
110.086
  0
SEQEND
  0
POLYLINE
  8
LAYER_1
 40
0.3528
 41
0.3528
 66
1
 10
0
 20
0
 30
0
  0
VERTEX
  8
LAYER_1
 10
182.5649
 20
110.086
  0
VERTEX
  8
LAYER_1
 10
182.5649
 20
10.6064
  0
SEQEND
  0
POLYLINE
  8
LAYER_1
 40
0.3528
 41
0.3528
 66
1
 10
0
 20
0
 30
0
  0
VERTEX
  8
LAYER_1
 10
9.6302
 20
97.7894
  0
VERTEX
  8
LAYER_1
 10
182.5646
 20
97.7894
  0
SEQEND
  0
POLYLINE
  8
LAYER_1
 40
0.3528
 41
0.3528
 66
1
 10
0
 20
0
 30
0
  0
VERTEX
  8
LAYER_1
 10
9.6302
 20
85.3498
  0
VERTEX
  8
LAYER_1
 10
292.9103
 20
85.3498
  0
SEQEND
  0
POLYLINE
  8
LAYER_1
 40
0.3528
 41
0.3528
 66
1
 10
0
 20
0
 30
0
  0
VERTEX
  8
LAYER_1
 10
9.6302
 20
72.9099
  0
VERTEX
  8
LAYER_1
 10
292.9103
 20
72.9099
  0
SEQEND
  0
POLYLINE
  8
LAYER_1
 40
0.3528
 41
0.3528
 66
1
 10
0
 20
0
 30
0
  0
VERTEX
  8
LAYER_1
 10
9.6302
 20
60.4704
  0
VERTEX
  8
LAYER_1
 10
182.5646
 20
60.4704
  0
SEQEND
  0
POLYLINE
  8
LAYER_1
 40
0.3528
 41
0.3528
 66
1
 10
0
 20
0
 30
0
  0
VERTEX
  8
LAYER_1
 10
9.6302
 20
48.0308
  0
VERTEX
  8
LAYER_1
 10
292.9103
 20
48.0308
  0
SEQEND
  0
POLYLINE
  8
LAYER_1
 40
0.3528
 41
0.3528
 66
1
 10
0
 20
0
 30
0
  0
VERTEX
  8
LAYER_1
 10
9.6302
 20
35.5909
  0
VERTEX
  8
LAYER_1
 10
182.5646
 20
35.5909
  0
SEQEND
  0
POLYLINE
  8
LAYER_1
 40
0.3528
 41
0.3528
 66
1
 10
0
 20
0
 30
0
  0
VERTEX
  8
LAYER_1
 10
9.6302
 20
23.1514
  0
VERTEX
  8
LAYER_1
 10
182.5646
 20
23.1514
  0
SEQEND
  0
POLYLINE
  8
LAYER_1
 40
0.3528
 41
0.3528
 66
1
 10
0
 20
0
 30
0
  0
VERTEX
  8
LAYER_1
 10
31.2231
 20
110.086
  0
VERTEX
  8
LAYER_1
 10
31.2231
 20
10.6064
  0
SEQEND
  0
POLYLINE
  8
LAYER_1
 40
0.3528
 41
0.3528
 66
1
 10
0
 20
0
 30
0
  0
VERTEX
  8
LAYER_1
 10
80.2411
 20
110.086
  0
VERTEX
  8
LAYER_1
 10
80.2411
 20
10.6064
  0
SEQEND
  0
POLYLINE
  8
LAYER_1
 40
0.3528
 41
0.3528
 66
1
 10
0
 20
0
 30
0
  0
VERTEX
  8
LAYER_1
 10
118.8517
 20
110.0863
  0
VERTEX
  8
LAYER_1
 10
118.8517
 20
10.6064
  0
SEQEND
  0
POLYLINE
  8
LAYER_1
 40
0.3528
 41
0.3528
 66
1
 10
0
 20
0
 30
0
  0
VERTEX
  8
LAYER_1
 10
137.9079
 20
110.086
  0
VERTEX
  8
LAYER_1
 10
137.9079
 20
10.6061
  0
SEQEND
  0
TEXT
  8
LAYER_1
 10
45.8277
 20
14.1304
 11
45.8277
 21
14.1304
 40
6.2324
 41
0.5
  1
部品名
  0
TEXT
  8
LAYER_1
 10
15.134
 20
14.1304
 11
15.134
 21
14.1304
 40
6.2324
 41
0.5
  1
部番
  0
TEXT
  8
LAYER_1
 10
93.2958
 20
14.1304
 11
93.2958
 21
14.1304
 40
6.2324
 41
0.5
  1
材質
  0
TEXT
  8
LAYER_1
 10
122.4781
 20
14.1304
 11
122.4781
 21
14.1304
 40
6.2324
 41
0.5
  1
数量
  0
TEXT
  8
LAYER_1
 10
153.8618
 20
14.1304
 11
153.8618
 21
14.1304
 40
6.2324
 41
0.5
  1
摘要
  0
TEXT
  8
LAYER_1
 10
18.4564
 20
63.9975
 11
18.4564
 21
63.9975
 40
7.105
 41
0.5
  1
4
  0
TEXT
  8
LAYER_1
 10
18.4564
 20
52.0871
 11
18.4564
 21
52.0871
 40
7.105
 41
0.5
  1
3
  0
TEXT
  8
LAYER_1
 10
18.4564
 20
39.1328
 11
18.4564
 21
39.1328
 40
7.105
 41
0.5
  1
2
  0
TEXT
  8
LAYER_1
 10
18.4564
 20
26.9344
 11
18.4564
 21
26.9344
 40
7.105
 41
0.5
  1
1
  0
TEXT
  8
LAYER_1
 10
18.4564
 20
75.7701
 11
18.4564
 21
75.7701
 40
7.105
 41
0.5
  1
5
  0
TEXT
  8
LAYER_1
 10
33.8272
 20
26.4067
 11
33.8272
 21
26.4067
 40
6.2324
 41
0.5
  1
コード
  0
TEXT
  8
LAYER_1
 10
33.8272
 20
39.3068
 11
33.8272
 21
39.3068
 40
6.2324
 41
0.5
  1
中間スイッチ
  0
TEXT
  8
LAYER_1
 10
33.8272
 20
51.9069
 11
33.8272
 21
51.9069
 40
6.2324
 41
0.5
  1
ソケットカバー
  0
TEXT
  8
LAYER_1
 10
33.8272
 20
64.5191
 11
33.8272
 21
64.5191
 40
6.2324
 41
0.5
  1
ソケット
  0
TEXT
  8
LAYER_1
 10
33.8272
 20
101.4202
 11
33.8272
 21
101.4202
 40
6.2324
 41
0.5
  1
ランプ
  0
TEXT
  8
LAYER_1
 10
18.4564
 20
89.1198
 11
18.4564
 21
89.1198
 40
7.105
 41
0.5
  1
6
  0
TEXT
  8
LAYER_1
 10
18.4564
 20
100.8862
 11
18.4564
 21
100.8862
 40
7.105
 41
0.5
  1
7
  0
TEXT
  8
LAYER_1
 10
126.1065
 20
26.9286
 11
126.1065
 21
26.9286
 40
7.105
 41
0.5
  1
1
  0
TEXT
  8
LAYER_1
 10
126.1065
 20
39.127
 11
126.1065
 21
39.127
 40
7.105
 41
0.5
  1
1
  0
TEXT
  8
LAYER_1
 10
126.1065
 20
52.0809
 11
126.1065
 21
52.0809
 40
7.105
 41
0.5
  1
1
  0
TEXT
  8
LAYER_1
 10
126.1065
 20
64.3392
 11
126.1065
 21
64.3392
 40
7.105
 41
0.5
  1
1
  0
TEXT
  8
LAYER_1
 10
126.1065
 20
75.7639
 11
126.1065
 21
75.7639
 40
7.105
 41
0.5
  1
1
  0
TEXT
  8
LAYER_1
 10
126.1065
 20
89.1198
 11
126.1065
 21
89.1198
 40
7.105
 41
0.5
  1
1
  0
TEXT
  8
LAYER_1
 10
126.1065
 20
101.0664
 11
126.1065
 21
101.0664
 40
7.105
 41
0.5
  1
1
  0
TEXT
  8
LAYER_1
 10
92.3062
 20
39.3068
 11
92.3062
 21
39.3068
 40
6.2324
 41
0.5
  1
樹脂
  0
TEXT
  8
LAYER_1
 10
92.456
 20
64.1652
 11
92.456
 21
64.1652
 40
6.2324
 41
0.5
  1
樹脂
  0
TEXT
  8
LAYER_1
 10
89.0617
 20
75.9437
 11
89.0617
 21
75.9437
 40
6.2324
 41
0.5
  1
ガラス
  0
TEXT
  8
LAYER_1
 10
154.9773
 20
63.9854
 11
154.9773
 21
63.9854
 40
7.105
 41
0.5
  1
E26
  0
TEXT
  8
LAYER_1
 10
187.5434
 20
64.8798
 11
187.5434
 21
64.8798
 40
4.766
 41
0.5
  1
品番
  0
TEXT
  8
LAYER_1
 10
197.8567
 20
53.0217
 11
197.8567
 21
53.0217
 40
12.5382
 41
0.5
  1
BRO-PC850
  0
TEXT
  8
LAYER_1
 10
187.5434
 20
101.4284
 11
187.5434
 21
101.4284
 40
4.766
 41
0.5
  1
適合ランプ
  0
TEXT
  8
LAYER_1
 10
206.3853
 20
89.4033
 11
206.3853
 21
89.4033
 40
7.105
 41
0.5
  1
Edison Bull SIGNATURE(S)
  0
TEXT
  8
LAYER_1
 10
187.5434
 20
76.2076
 11
187.5434
 21
76.2076
 40
4.766
 41
0.5
  1
定格
  0
TEXT
  8
LAYER_1
 10
206.3853
 20
75.8259
 11
206.3853
 21
75.8259
 40
7.105
 41
0.5
  1
白熱電球100V 40W E26
  0
TEXT
  8
LAYER_1
 10
155.5051
 20
26.2351
 11
155.5051
 21
26.2351
 40
7.105
 41
0.5
  1
2m
  0
TEXT
  8
LAYER_1
 10
156.8666
 20
39.3147
 11
156.8666
 21
39.3147
 40
6.2324
 41
0.5
  1
黒
  0
TEXT
  8
LAYER_1
 10
203.107
 20
197.2217
 11
203.107
 21
197.2217
 40
6.2324
 41
0.5
  1
安全に関するご注意
  0
TEXT
  8
LAYER_1
 10
182.6045
 20
184.6661
 11
182.6045
 21
184.6661
 40
4.766
 41
0.5
  1
不安定な場所で使用しないでください。
  0
TEXT
  8
LAYER_1
 10
182.6045
 20
176.6404
 11
182.6045
 21
176.6404
 40
4.766
 41
0.5
  1
屋内用器具です。屋内や水気、湿気のある所では
  0
TEXT
  8
LAYER_1
 10
182.6045
 20
168.6147
 11
182.6045
 21
168.6147
 40
4.766
 41
0.5
  1
使用しないでください。
  0
TEXT
  8
LAYER_1
 10
182.6045
 20
160.589
 11
182.6045
 21
160.589
 40
4.766
 41
0.5
  1
カーテンの近くや天井と接近させて使用しない
  0
TEXT
  8
LAYER_1
 10
182.6045
 20
152.5633
 11
182.6045
 21
152.5633
 40
4.766
 41
0.5
  1
でください。
  0
TEXT
  8
LAYER_1
 10
182.6045
 20
144.5376
 11
182.6045
 21
144.5376
 40
4.766
 41
0.5
  1
火災の原因となります。
  0
TEXT
  8
LAYER_1
 10
182.6045
 20
136.5119
 11
182.6045
 21
136.5119
 40
4.766
 41
0.5
  1
必ず電源を切ってランプ交換をしてください。
  0
TEXT
  8
LAYER_1
 10
182.6045
 20
128.4862
 11
182.6045
 21
128.4862
 40
4.766
 41
0.5
  1
点灯中や消灯直後のランプに触れないでください。
  0
TEXT
  8
LAYER_1
 10
182.6045
 20
120.4605
 11
182.6045
 21
120.4605
 40
4.766
 41
0.5
  1
やけどの原因となります。
  0
TEXT
  8
LAYER_1
 10
176.5188
 20
184.6661
 11
176.5188
 21
184.6661
 40
4.766
 41
0.5
  1
・
  0
TEXT
  8
LAYER_1
 10
176.5188
 20
176.7045
 11
176.5188
 21
176.7045
 40
4.766
 41
0.5
  1
・
  0
TEXT
  8
LAYER_1
 10
176.5188
 20
161.1805
 11
176.5188
 21
161.1805
 40
4.766
 41
0.5
  1
・
  0
TEXT
  8
LAYER_1
 10
176.5188
 20
128.7246
 11
176.5188
 21
128.7246
 40
4.766
 41
0.5
  1
・
  0
TEXT
  8
LAYER_1
 10
176.5188
 20
145.1474
 11
176.5188
 21
145.1474
 40
4.766
 41
0.5
  1
・
  0
POLYLINE
  8
LAYER_1
 40
0.3528
 41
0.3528
 66
1
 10
0
 20
0
 30
0
 70
1
  0
VERTEX
  8
LAYER_1
 10
174.45
 20
204.3686
  0
VERTEX
  8
LAYER_1
 10
287.3389
 20
204.3686
  0
VERTEX
  8
LAYER_1
 10
287.3389
 20
116.0825
  0
VERTEX
  8
LAYER_1
 10
174.45
 20
116.0825
  0
SEQEND
  0
POLYLINE
  8
LAYER_1
 40
0.3528
 41
0.3528
 66
1
 10
0
 20
0
 30
0
  0
VERTEX
  8
LAYER_1
 10
174.686
 20
193.0166
  0
VERTEX
  8
LAYER_1
 10
287.5749
 20
193.0166
  0
SEQEND
  0
TEXT
  8
LAYER_1
 10
33.8336
 20
76.2072
 11
33.8336
 21
76.2072
 40
6.2324
 41
0.5
  1
シェード
  0
TEXT
  8
LAYER_1
 10
33.8336
 20
89.311
 11
33.8336
 21
89.311
 40
6.2324
 41
0.5
  1
ベース
  0
TEXT
  8
LAYER_1
 10
94.5794
 20
89.311
 11
94.5794
 21
89.311
 40
6.2324
 41
0.5
  1
木
  0
INSERT
  8
LAYER_1
  2
AIGNBL01010004
 10
0
 20
0
 30
0
  0
TEXT
  8
LAYER_1
 10
60.0454
 20
166.1807
 11
60.0454
 21
166.1807
 40
7.9409
 41
0.5
  1
1
  0
INSERT
  8
LAYER_1
  2
AIGNBL01010005
 10
0
 20
0
 30
0
  0
TEXT
  8
LAYER_1
 10
75.7781
 20
164.1626
 11
75.7781
 21
164.1626
 40
7.9409
 41
0.5
  1
2
  0
INSERT
  8
LAYER_1
  2
AIGNBL01010006
 10
0
 20
0
 30
0
  0
INSERT
  8
LAYER_1
  2
AIGNBL01010008
 10
0
 20
0
 30
0
  0
TEXT
  8
LAYER_1
 10
169.8622
 20
280.059
 11
169.8622
 21
280.059
 40
10.4485
 41
0.5
 50
89.99999999
  1
506
  0
TEXT
  8
LAYER_1
 10
89.9454
 20
218.469
 11
89.9454
 21
218.469
 40
10.4485
 41
0.5
  1
250
  0
TEXT
  8
LAYER_1
 10
91.5682
 20
349.1997
 11
91.5682
 21
349.1997
 40
10.4485
 41
0.5
  1
530
  0
TEXT
  8
LAYER_1
 10
33.3406
 20
296.776
 11
33.3406
 21
296.776
 40
10.4485
 41
0.5
 50
89.99999999
  1
306
  0
INSERT
  8
LAYER_1
  2
AIGNBL0101000A
 10
0
 20
0
 30
0
  0
TEXT
  8
LAYER_1
 10
53.0359
 20
236.0094
 11
53.0359
 21
236.0094
 40
9.8524
 41
0.5
  1
3
  0
INSERT
  8
LAYER_1
  2
AIGNBL0101000B
 10
0
 20
0
 30
0
  0
TEXT
  8
LAYER_1
 10
143.5454
 20
258.4108
 11
143.5454
 21
258.4108
 40
9.8524
 41
0.5
  1
4
  0
INSERT
  8
LAYER_1
  2
AIGNBL0101000C
 10
0
 20
0
 30
0
  0
TEXT
  8
LAYER_1
 10
159.6633
 20
336.0124
 11
159.6633
 21
336.0124
 40
9.8524
 41
0.5
  1
5
  0
INSERT
  8
LAYER_1
  2
AIGNBL0101000D
 10
0
 20
0
 30
0
  0
TEXT
  8
LAYER_1
 10
120.8939
 20
305.4754
 11
120.8939
 21
305.4754
 40
9.8524
 41
0.5
  1
7
  0
INSERT
  8
LAYER_1
  2
AIGNBL0101000E
 10
0
 20
0
 30
0
  0
TEXT
  8
LAYER_1
 10
61.826
 20
221.8929
 11
61.826
 21
221.8929
 40
9.8524
 41
0.5
  1
6
  0
INSERT
  8
LAYER_1
  2
AIGNBL0101000F
 10
0
 20
0
 30
0
  0
TEXT
  8
LAYER_1
 10
189.1592
 20
23.3564
 11
189.1592
 21
23.3564
 40
5.2209
 41
0.5
  1
●TEL 0120-65-1232●FAX 06-6532-1580
  0
TEXT
  8
LAYER_1
 10
189.1592
 20
17.9359
 11
189.1592
 21
17.9359
 40
5.2209
 41
0.5
  1
hits@hiratatile.co.jp
  0
INSERT
  8
LAYER_1
  2
AIGNBL01010010
 10
0
 20
0
 30
0
  0
ENDSEC
  0
EOF
