  0
SECTION
  2
HEADER
  9
$ACADVER
  1
AC1009
  9
$LUNITS
 70
2
  9
$LUPREC
 70
4
  9
$LTSCALE
 40
1.0
  9
$EXTMIN
 10
0
 20
0
 30
0
  9
$EXTMAX
 10
302.9996
 20
425.9997
 30
0
  0
ENDSEC
  0
SECTION
  2
TABLES
  0
TABLE
  2
LTYPE
 70
256
  0
ENDTAB
  0
TABLE
  2
LAYER
 70
1
  0
LAYER
  2
LAYER_1
 70
64
 62
7
  6
CONTINUOUS
  0
ENDTAB
  0
TABLE
  2
STYLE
 70
6
  0
STYLE
  2
STANDARD
 70
0
 40
0
 50
0
 71
0
 41
0
 42
0
  3
TXT
  4
BIGFONT
  0
ENDTAB
  0
ENDSEC
  0
SECTION
  2
BLOCKS
  0
BLOCK
  8
LAYER_1
  2
AIGNBL01040014
 70
64
 10
0
 20
0
 30
0
  3
AIGNBL01040014
  0
POLYLINE
  8
LAYER_1
 40
0.05
 41
0.05
 66
1
 10
0
 20
0
 30
0
 70
1
  0
VERTEX
  8
LAYER_1
 10
188.5769
 20
35.6939
  0
VERTEX
  8
LAYER_1
 10
187.8228
 20
33.8667
  0
VERTEX
  8
LAYER_1
 10
186.8544
 20
33.8667
  0
VERTEX
  8
LAYER_1
 10
189.3211
 20
39.6744
  0
VERTEX
  8
LAYER_1
 10
190.4518
 20
39.6744
  0
VERTEX
  8
LAYER_1
 10
192.9295
 20
33.8667
  0
VERTEX
  8
LAYER_1
 10
191.9266
 20
33.8667
  0
VERTEX
  8
LAYER_1
 10
191.1515
 20
35.6939
  0
SEQEND
  0
POLYLINE
  8
LAYER_1
 40
0.05
 41
0.05
 66
1
 10
0
 20
0
 30
0
 70
1
  0
VERTEX
  8
LAYER_1
 10
190.9575
 20
36.2782
  0
VERTEX
  8
LAYER_1
 10
190.2468
 20
37.9519
 42
-0.02515637204
  0
VERTEX
  8
LAYER_1
 10
189.8695
 20
39.0109
  0
VERTEX
  8
LAYER_1
 10
189.8482
 20
39.0109
 42
-0.01985544323
  0
VERTEX
  8
LAYER_1
 10
189.4816
 20
37.9588
  0
VERTEX
  8
LAYER_1
 10
188.7713
 20
36.2782
  0
SEQEND
  0
ENDBLK
  0
BLOCK
  8
LAYER_1
  2
AIGNBL01040015
 70
64
 10
0
 20
0
 30
0
  3
AIGNBL01040015
  0
POLYLINE
  8
LAYER_1
 40
0.05
 41
0.05
 66
1
 10
0
 20
0
 30
0
 70
1
  0
VERTEX
  8
LAYER_1
 10
199.6615
 20
33.013
 42
-0.01512299395
  0
VERTEX
  8
LAYER_1
 10
196.8824
 20
33.6855
 42
0.084934136
  0
VERTEX
  8
LAYER_1
 10
196.44
 20
33.7716
 42
-0.07479382015
  0
VERTEX
  8
LAYER_1
 10
195.2137
 20
33.9892
 42
-0.07802930261
  0
VERTEX
  8
LAYER_1
 10
194.307
 20
34.4684
 42
-0.08253532117
  0
VERTEX
  8
LAYER_1
 10
193.6947
 20
35.1179
 42
-0.08518229749
  0
VERTEX
  8
LAYER_1
 10
193.3352
 20
35.9332
 42
-0.06334345601
  0
VERTEX
  8
LAYER_1
 10
193.2416
 20
36.7089
 42
-0.08543190404
  0
VERTEX
  8
LAYER_1
 10
193.4231
 20
37.7934
 42
-0.2023945908
  0
VERTEX
  8
LAYER_1
 10
194.9348
 20
39.4176
 42
-0.07334929783
  0
VERTEX
  8
LAYER_1
 10
195.9583
 20
39.7203
 42
-0.03729399728
  0
VERTEX
  8
LAYER_1
 10
196.624
 20
39.7688
 42
-0.07558653402
  0
VERTEX
  8
LAYER_1
 10
197.8504
 20
39.589
 42
-0.07835633417
  0
VERTEX
  8
LAYER_1
 10
198.7357
 20
39.1493
 42
-0.1260287891
  0
VERTEX
  8
LAYER_1
 10
199.6011
 20
38.1121
 42
-0.07823840187
  0
VERTEX
  8
LAYER_1
 10
199.8485
 20
37.261
 42
-0.03297580944
  0
VERTEX
  8
LAYER_1
 10
199.8765
 20
36.8301
 42
-0.08288662263
  0
VERTEX
  8
LAYER_1
 10
199.7039
 20
35.7569
 42
-0.08683458427
  0
VERTEX
  8
LAYER_1
 10
199.2604
 20
34.962
 42
-0.08481385328
  0
VERTEX
  8
LAYER_1
 10
198.5937
 20
34.3841
 42
-0.07065217972
  0
VERTEX
  8
LAYER_1
 10
197.8088
 20
34.0472
  0
VERTEX
  8
LAYER_1
 10
197.8088
 20
34.0127
 42
0.01471316395
  0
VERTEX
  8
LAYER_1
 10
199.9313
 20
33.642
  0
SEQEND
  0
POLYLINE
  8
LAYER_1
 40
0.05
 41
0.05
 66
1
 10
0
 20
0
 30
0
 70
1
  0
VERTEX
  8
LAYER_1
 10
198.8864
 20
36.7971
 42
0.09294884278
  0
VERTEX
  8
LAYER_1
 10
198.7065
 20
37.7585
 42
0.09187354063
  0
VERTEX
  8
LAYER_1
 10
198.2614
 20
38.4743
 42
0.1947353543
  0
VERTEX
  8
LAYER_1
 10
196.8023
 20
39.1492
 42
0.01946754028
  0
VERTEX
  8
LAYER_1
 10
196.5909
 20
39.157
 42
0.09478729924
  0
VERTEX
  8
LAYER_1
 10
195.6106
 20
38.9778
 42
0.2440971418
  0
VERTEX
  8
LAYER_1
 10
194.3268
 20
37.4468
 42
0.06413979275
  0
VERTEX
  8
LAYER_1
 10
194.2431
 20
36.7282
 42
0.09460919564
  0
VERTEX
  8
LAYER_1
 10
194.4121
 20
35.7901
 42
0.09419156281
  0
VERTEX
  8
LAYER_1
 10
194.8606
 20
35.073
 42
0.1408119564
  0
VERTEX
  8
LAYER_1
 10
195.8776
 20
34.4677
 42
0.06669888162
  0
VERTEX
  8
LAYER_1
 10
196.5482
 20
34.3821
 42
0.09215813655
  0
VERTEX
  8
LAYER_1
 10
197.4903
 20
34.5505
 42
0.2420134196
  0
VERTEX
  8
LAYER_1
 10
198.7915
 20
36.0532
 42
0.06604475412
  0
SEQEND
  0
ENDBLK
  0
BLOCK
  8
LAYER_1
  2
AIGNBL01040016
 70
64
 10
0
 20
0
 30
0
  3
AIGNBL01040016
  0
POLYLINE
  8
LAYER_1
 40
0.05
 41
0.05
 66
1
 10
0
 20
0
 30
0
 70
1
  0
VERTEX
  8
LAYER_1
 10
201.9239
 20
39.6744
  0
VERTEX
  8
LAYER_1
 10
201.9239
 20
36.2362
 42
0.09353286566
  0
VERTEX
  8
LAYER_1
 10
202.0846
 20
35.3111
 42
0.1122493043
  0
VERTEX
  8
LAYER_1
 10
202.4637
 20
34.7663
 42
0.1179420859
  0
VERTEX
  8
LAYER_1
 10
203.0587
 20
34.4521
 42
0.06799896307
  0
VERTEX
  8
LAYER_1
 10
203.6148
 20
34.3821
 42
0.1038280804
  0
VERTEX
  8
LAYER_1
 10
204.5017
 20
34.5534
 42
0.1169356059
  0
VERTEX
  8
LAYER_1
 10
205.0107
 20
34.9487
 42
0.1129422763
  0
VERTEX
  8
LAYER_1
 10
205.3107
 20
35.5882
 42
0.06116350684
  0
VERTEX
  8
LAYER_1
 10
205.3814
 20
36.2362
  0
VERTEX
  8
LAYER_1
 10
205.3814
 20
39.6744
  0
VERTEX
  8
LAYER_1
 10
206.3292
 20
39.6744
  0
VERTEX
  8
LAYER_1
 10
206.3292
 20
36.2879
 42
-0.08655282725
  0
VERTEX
  8
LAYER_1
 10
206.1574
 20
35.2339
 42
-0.09649736902
  0
VERTEX
  8
LAYER_1
 10
205.7404
 20
34.5457
 42
-0.1004118405
  0
VERTEX
  8
LAYER_1
 10
205.0596
 20
34.0572
 42
-0.08189283823
  0
VERTEX
  8
LAYER_1
 10
204.1176
 20
33.8023
 42
-0.02973123421
  0
VERTEX
  8
LAYER_1
 10
203.5824
 20
33.7716
 42
-0.07964784669
  0
VERTEX
  8
LAYER_1
 10
202.4318
 20
33.943
 42
-0.09129651749
  0
VERTEX
  8
LAYER_1
 10
201.7216
 20
34.3374
 42
-0.150799352
  0
VERTEX
  8
LAYER_1
 10
201.0984
 20
35.3233
 42
-0.07483297072
  0
VERTEX
  8
LAYER_1
 10
200.9758
 20
36.2534
  0
VERTEX
  8
LAYER_1
 10
200.9758
 20
39.6744
  0
SEQEND
  0
ENDBLK
  0
BLOCK
  8
LAYER_1
  2
AIGNBL01040017
 70
64
 10
0
 20
0
 30
0
  3
AIGNBL01040017
  0
POLYLINE
  8
LAYER_1
 40
0.05
 41
0.05
 66
1
 10
0
 20
0
 30
0
 70
1
  0
VERTEX
  8
LAYER_1
 10
209.0226
 20
35.6939
  0
VERTEX
  8
LAYER_1
 10
208.2681
 20
33.8667
  0
VERTEX
  8
LAYER_1
 10
207.2997
 20
33.8667
  0
VERTEX
  8
LAYER_1
 10
209.7657
 20
39.6744
  0
VERTEX
  8
LAYER_1
 10
210.8963
 20
39.6744
  0
VERTEX
  8
LAYER_1
 10
213.3741
 20
33.8667
  0
VERTEX
  8
LAYER_1
 10
212.3722
 20
33.8667
  0
VERTEX
  8
LAYER_1
 10
211.5971
 20
35.6939
  0
SEQEND
  0
POLYLINE
  8
LAYER_1
 40
0.05
 41
0.05
 66
1
 10
0
 20
0
 30
0
 70
1
  0
VERTEX
  8
LAYER_1
 10
211.4028
 20
36.2782
  0
VERTEX
  8
LAYER_1
 10
210.6914
 20
37.9519
 42
-0.02427547439
  0
VERTEX
  8
LAYER_1
 10
210.3141
 20
39.0109
  0
VERTEX
  8
LAYER_1
 10
210.2928
 20
39.0109
 42
-0.02012851687
  0
VERTEX
  8
LAYER_1
 10
209.9269
 20
37.9588
  0
VERTEX
  8
LAYER_1
 10
209.2158
 20
36.2782
  0
SEQEND
  0
ENDBLK
  0
BLOCK
  8
LAYER_1
  2
AIGNBL01040018
 70
64
 10
0
 20
0
 30
0
  3
AIGNBL01040018
  0
POLYLINE
  8
LAYER_1
 40
0.05
 41
0.05
 66
1
 10
0
 20
0
 30
0
 70
1
  0
VERTEX
  8
LAYER_1
 10
214.9788
 20
39.6048
 42
-0.03377683289
  0
VERTEX
  8
LAYER_1
 10
216.7785
 20
39.7178
 42
-0.06715871709
  0
VERTEX
  8
LAYER_1
 10
218.1364
 20
39.5515
 42
-0.08064624059
  0
VERTEX
  8
LAYER_1
 10
218.8139
 20
39.2355
 42
-0.1248529956
  0
VERTEX
  8
LAYER_1
 10
219.2962
 20
38.6889
 42
-0.1169517619
  0
VERTEX
  8
LAYER_1
 10
219.4488
 20
38.0315
 42
-0.00183438106
  0
VERTEX
  8
LAYER_1
 10
219.4488
 20
38.0194
 42
-0.1180527337
  0
VERTEX
  8
LAYER_1
 10
219.2738
 20
37.2483
 42
-0.1035892369
  0
VERTEX
  8
LAYER_1
 10
218.889
 20
36.7798
 42
-0.09995150194
  0
VERTEX
  8
LAYER_1
 10
218.0941
 20
36.3497
 42
-0.06911707736
  0
VERTEX
  8
LAYER_1
 10
216.9875
 20
36.1506
 42
-0.01476228892
  0
VERTEX
  8
LAYER_1
 10
216.67
 20
36.1418
 42
-0.05236320163
  0
VERTEX
  8
LAYER_1
 10
215.9165
 20
36.1928
  0
VERTEX
  8
LAYER_1
 10
215.9165
 20
33.8667
  0
VERTEX
  8
LAYER_1
 10
214.9788
 20
33.8667
  0
SEQEND
  0
POLYLINE
  8
LAYER_1
 40
0.05
 41
0.05
 66
1
 10
0
 20
0
 30
0
 70
1
  0
VERTEX
  8
LAYER_1
 10
215.9165
 20
36.8053
 42
0.05317186326
  0
VERTEX
  8
LAYER_1
 10
216.6913
 20
36.7447
 42
0.08788461118
  0
VERTEX
  8
LAYER_1
 10
217.7287
 20
36.9112
 42
0.118909525
  0
VERTEX
  8
LAYER_1
 10
218.2678
 20
37.2775
 42
0.1837828538
  0
VERTEX
  8
LAYER_1
 10
218.5128
 20
37.9849
 42
0.1524828212
  0
VERTEX
  8
LAYER_1
 10
218.3417
 20
38.5644
 42
0.1367950544
  0
VERTEX
  8
LAYER_1
 10
217.8946
 20
38.9231
 42
0.05021915967
  0
VERTEX
  8
LAYER_1
 10
217.5427
 20
39.0438
 42
0.06092834512
  0
VERTEX
  8
LAYER_1
 10
216.8002
 20
39.1225
 42
0.04660910053
  0
VERTEX
  8
LAYER_1
 10
215.9165
 20
39.0619
  0
SEQEND
  0
ENDBLK
  0
BLOCK
  8
LAYER_1
  2
AIGNBL01040019
 70
64
 10
0
 20
0
 30
0
  3
AIGNBL01040019
  0
POLYLINE
  8
LAYER_1
 40
0.05
 41
0.05
 66
1
 10
0
 20
0
 30
0
 70
1
  0
VERTEX
  8
LAYER_1
 10
221.8424
 20
39.2086
 42
-0.2455807792
  0
VERTEX
  8
LAYER_1
 10
221.6805
 20
38.875
 42
-0.175308305
  0
VERTEX
  8
LAYER_1
 10
221.2382
 20
38.7435
 42
-0.1918490896
  0
VERTEX
  8
LAYER_1
 10
220.7914
 20
38.9119
 42
-0.19475375
  0
VERTEX
  8
LAYER_1
 10
220.667
 20
39.2086
 42
-0.2325372243
  0
VERTEX
  8
LAYER_1
 10
220.8389
 20
39.5495
 42
-0.1734715655
  0
VERTEX
  8
LAYER_1
 10
221.2595
 20
39.682
 42
-0.1899155107
  0
VERTEX
  8
LAYER_1
 10
221.716
 20
39.5165
 42
-0.1983713186
  0
SEQEND
  0
POLYLINE
  8
LAYER_1
 40
0.05
 41
0.05
 66
1
 10
0
 20
0
 30
0
 70
1
  0
VERTEX
  8
LAYER_1
 10
220.7851
 20
33.8667
  0
VERTEX
  8
LAYER_1
 10
220.7851
 20
38.0366
  0
VERTEX
  8
LAYER_1
 10
221.7329
 20
38.0366
  0
VERTEX
  8
LAYER_1
 10
221.7329
 20
33.8667
  0
SEQEND
  0
ENDBLK
  0
BLOCK
  8
LAYER_1
  2
AIGNBL0104001A
 70
64
 10
0
 20
0
 30
0
  3
AIGNBL0104001A
  0
POLYLINE
  8
LAYER_1
 40
0.05
 41
0.05
 66
1
 10
0
 20
0
 30
0
 70
1
  0
VERTEX
  8
LAYER_1
 10
224.6195
 20
35.6939
  0
VERTEX
  8
LAYER_1
 10
223.8664
 20
33.8667
  0
VERTEX
  8
LAYER_1
 10
222.8963
 20
33.8667
  0
VERTEX
  8
LAYER_1
 10
225.3633
 20
39.6744
  0
VERTEX
  8
LAYER_1
 10
226.495
 20
39.6744
  0
VERTEX
  8
LAYER_1
 10
228.9724
 20
33.8667
  0
VERTEX
  8
LAYER_1
 10
227.9702
 20
33.8667
  0
VERTEX
  8
LAYER_1
 10
227.1951
 20
35.6939
  0
SEQEND
  0
POLYLINE
  8
LAYER_1
 40
0.05
 41
0.05
 66
1
 10
0
 20
0
 30
0
 70
1
  0
VERTEX
  8
LAYER_1
 10
227.0008
 20
36.2782
  0
VERTEX
  8
LAYER_1
 10
226.2897
 20
37.9519
 42
-0.02594133977
  0
VERTEX
  8
LAYER_1
 10
225.9139
 20
39.0109
  0
VERTEX
  8
LAYER_1
 10
225.8908
 20
39.0109
 42
-0.01987529576
  0
VERTEX
  8
LAYER_1
 10
225.5253
 20
37.9588
  0
VERTEX
  8
LAYER_1
 10
224.8145
 20
36.2782
  0
SEQEND
  0
ENDBLK
  0
BLOCK
  8
LAYER_1
  2
AIGNBL01030013
 70
64
 10
0
 20
0
 30
0
  3
AIGNBL01030013
  0
INSERT
  8
LAYER_1
  2
AIGNBL01040014
 10
0
 20
0
 30
0
  0
INSERT
  8
LAYER_1
  2
AIGNBL01040015
 10
0
 20
0
 30
0
  0
INSERT
  8
LAYER_1
  2
AIGNBL01040016
 10
0
 20
0
 30
0
  0
INSERT
  8
LAYER_1
  2
AIGNBL01040017
 10
0
 20
0
 30
0
  0
INSERT
  8
LAYER_1
  2
AIGNBL01040018
 10
0
 20
0
 30
0
  0
INSERT
  8
LAYER_1
  2
AIGNBL01040019
 10
0
 20
0
 30
0
  0
INSERT
  8
LAYER_1
  2
AIGNBL0104001A
 10
0
 20
0
 30
0
  0
ENDBLK
  0
BLOCK
  8
LAYER_1
  2
AIGNBL0103001C
 70
64
 10
0
 20
0
 30
0
  3
AIGNBL0103001C
  0
POLYLINE
  8
LAYER_1
 40
0.05
 41
0.05
 66
1
 10
0
 20
0
 30
0
 70
1
  0
VERTEX
  8
LAYER_1
 10
187.0239
 20
30.9376
  0
VERTEX
  8
LAYER_1
 10
187.8772
 20
30.9376
  0
VERTEX
  8
LAYER_1
 10
187.8772
 20
30.793
  0
VERTEX
  8
LAYER_1
 10
186.862
 20
30.793
  0
VERTEX
  8
LAYER_1
 10
186.862
 20
32.386
  0
VERTEX
  8
LAYER_1
 10
187.85
 20
32.386
  0
VERTEX
  8
LAYER_1
 10
187.85
 20
32.242
  0
VERTEX
  8
LAYER_1
 10
187.0239
 20
32.242
  0
VERTEX
  8
LAYER_1
 10
187.0239
 20
31.6956
  0
VERTEX
  8
LAYER_1
 10
187.7959
 20
31.6956
  0
VERTEX
  8
LAYER_1
 10
187.7959
 20
31.5516
  0
VERTEX
  8
LAYER_1
 10
187.0239
 20
31.5516
  0
SEQEND
  0
ENDBLK
  0
BLOCK
  8
LAYER_1
  2
AIGNBL0103001D
 70
64
 10
0
 20
0
 30
0
  3
AIGNBL0103001D
  0
POLYLINE
  8
LAYER_1
 40
0.05
 41
0.05
 66
1
 10
0
 20
0
 30
0
 70
1
  0
VERTEX
  8
LAYER_1
 10
189.6346
 20
31.0293
  0
VERTEX
  8
LAYER_1
 10
189.6391
 20
31.0293
  0
VERTEX
  8
LAYER_1
 10
189.6391
 20
32.386
  0
VERTEX
  8
LAYER_1
 10
189.801
 20
32.386
  0
VERTEX
  8
LAYER_1
 10
189.801
 20
30.793
  0
VERTEX
  8
LAYER_1
 10
189.5991
 20
30.793
  0
VERTEX
  8
LAYER_1
 10
188.672
 20
32.1634
  0
VERTEX
  8
LAYER_1
 10
188.6665
 20
32.1634
  0
VERTEX
  8
LAYER_1
 10
188.6665
 20
30.793
  0
VERTEX
  8
LAYER_1
 10
188.5053
 20
30.793
  0
VERTEX
  8
LAYER_1
 10
188.5053
 20
32.386
  0
VERTEX
  8
LAYER_1
 10
188.7075
 20
32.386
  0
SEQEND
  0
ENDBLK
  0
BLOCK
  8
LAYER_1
  2
AIGNBL0103001E
 70
64
 10
0
 20
0
 30
0
  3
AIGNBL0103001E
  0
POLYLINE
  8
LAYER_1
 40
0.05
 41
0.05
 66
1
 10
0
 20
0
 30
0
 70
1
  0
VERTEX
  8
LAYER_1
 10
190.5303
 20
31.1195
 42
0.1538675978
  0
VERTEX
  8
LAYER_1
 10
190.6144
 20
30.9604
 42
0.1941624528
  0
VERTEX
  8
LAYER_1
 10
190.7894
 20
30.8963
 42
0.1380878958
  0
VERTEX
  8
LAYER_1
 10
190.9268
 20
30.9266
 42
0.1247121114
  0
VERTEX
  8
LAYER_1
 10
191.0133
 20
31.0093
 42
0.09502559536
  0
VERTEX
  8
LAYER_1
 10
191.0581
 20
31.1271
  0
VERTEX
  8
LAYER_1
 10
191.0709
 20
31.2649
  0
VERTEX
  8
LAYER_1
 10
191.0709
 20
32.386
  0
VERTEX
  8
LAYER_1
 10
191.2328
 20
32.386
  0
VERTEX
  8
LAYER_1
 10
191.2328
 20
31.2518
  0
VERTEX
  8
LAYER_1
 10
191.2152
 20
31.0858
 42
-0.09828618826
  0
VERTEX
  8
LAYER_1
 10
191.1515
 20
30.9232
 42
-0.1156797406
  0
VERTEX
  8
LAYER_1
 10
191.0209
 20
30.8005
 42
-0.1305351272
  0
VERTEX
  8
LAYER_1
 10
190.8066
 20
30.7523
 42
-0.1748572921
  0
VERTEX
  8
LAYER_1
 10
190.522
 20
30.8446
 42
-0.1760989268
  0
VERTEX
  8
LAYER_1
 10
190.3794
 20
31.0789
  0
SEQEND
  0
ENDBLK
  0
BLOCK
  8
LAYER_1
  2
AIGNBL0103001F
 70
64
 10
0
 20
0
 30
0
  3
AIGNBL0103001F
  0
POLYLINE
  8
LAYER_1
 40
0.05
 41
0.05
 66
1
 10
0
 20
0
 30
0
 70
1
  0
VERTEX
  8
LAYER_1
 10
193.5282
 20
31.5895
 42
-0.0999152039
  0
VERTEX
  8
LAYER_1
 10
193.4648
 20
31.2546
 42
-0.09877054803
  0
VERTEX
  8
LAYER_1
 10
193.2912
 20
30.99
 42
-0.096181125
  0
VERTEX
  8
LAYER_1
 10
193.0277
 20
30.8157
 42
-0.09851676845
  0
VERTEX
  8
LAYER_1
 10
192.6976
 20
30.7523
 42
-0.099447121
  0
VERTEX
  8
LAYER_1
 10
192.3683
 20
30.8157
 42
-0.09923818864
  0
VERTEX
  8
LAYER_1
 10
192.1047
 20
30.99
 42
-0.09864313051
  0
VERTEX
  8
LAYER_1
 10
191.9301
 20
31.2546
 42
-0.09830339119
  0
VERTEX
  8
LAYER_1
 10
191.8674
 20
31.5895
 42
-0.09940076646
  0
VERTEX
  8
LAYER_1
 10
191.9301
 20
31.925
 42
-0.0994936036
  0
VERTEX
  8
LAYER_1
 10
192.1047
 20
32.1896
 42
-0.0999773726
  0
VERTEX
  8
LAYER_1
 10
192.3683
 20
32.3639
 42
-0.09880877045
  0
VERTEX
  8
LAYER_1
 10
192.6976
 20
32.4273
 42
-0.09918569067
  0
VERTEX
  8
LAYER_1
 10
193.0277
 20
32.3639
 42
-0.09786351832
  0
VERTEX
  8
LAYER_1
 10
193.2912
 20
32.1896
 42
-0.09806279503
  0
VERTEX
  8
LAYER_1
 10
193.4648
 20
31.925
 42
-0.09904030531
  0
SEQEND
  0
POLYLINE
  8
LAYER_1
 40
0.05
 41
0.05
 66
1
 10
0
 20
0
 30
0
 70
1
  0
VERTEX
  8
LAYER_1
 10
193.357
 20
31.5888
 42
0.08562037207
  0
VERTEX
  8
LAYER_1
 10
193.3126
 20
31.854
 42
0.09638012273
  0
VERTEX
  8
LAYER_1
 10
193.1817
 20
32.0745
 42
0.1045874118
  0
VERTEX
  8
LAYER_1
 10
192.9736
 20
32.2261
 42
0.1084314942
  0
VERTEX
  8
LAYER_1
 10
192.6976
 20
32.2833
 42
0.1105603156
  0
VERTEX
  8
LAYER_1
 10
192.422
 20
32.2261
 42
0.1068798085
  0
VERTEX
  8
LAYER_1
 10
192.2143
 20
32.0745
 42
0.09967936912
  0
VERTEX
  8
LAYER_1
 10
192.0834
 20
31.854
 42
0.0850902713
  0
VERTEX
  8
LAYER_1
 10
192.0382
 20
31.5888
 42
0.08622784552
  0
VERTEX
  8
LAYER_1
 10
192.0834
 20
31.3235
 42
0.1006724466
  0
VERTEX
  8
LAYER_1
 10
192.2143
 20
31.103
 42
0.1007610128
  0
VERTEX
  8
LAYER_1
 10
192.422
 20
30.9528
 42
0.1086218244
  0
VERTEX
  8
LAYER_1
 10
192.6976
 20
30.8963
 42
0.1105598463
  0
VERTEX
  8
LAYER_1
 10
192.9736
 20
30.9528
 42
0.1019986384
  0
VERTEX
  8
LAYER_1
 10
193.1817
 20
31.103
 42
0.09460507655
  0
VERTEX
  8
LAYER_1
 10
193.3126
 20
31.3235
 42
0.084884311
  0
SEQEND
  0
ENDBLK
  0
BLOCK
  8
LAYER_1
  2
AIGNBL01030020
 70
64
 10
0
 20
0
 30
0
  3
AIGNBL01030020
  0
POLYLINE
  8
LAYER_1
 40
0.05
 41
0.05
 66
1
 10
0
 20
0
 30
0
 70
1
  0
VERTEX
  8
LAYER_1
 10
194.723
 20
30.793
  0
VERTEX
  8
LAYER_1
 10
194.5614
 20
30.793
  0
VERTEX
  8
LAYER_1
 10
194.5614
 20
31.4799
  0
VERTEX
  8
LAYER_1
 10
193.9647
 20
32.386
  0
VERTEX
  8
LAYER_1
 10
194.1673
 20
32.386
  0
VERTEX
  8
LAYER_1
 10
194.6472
 20
31.615
  0
VERTEX
  8
LAYER_1
 10
195.1306
 20
32.386
  0
VERTEX
  8
LAYER_1
 10
195.319
 20
32.386
  0
VERTEX
  8
LAYER_1
 10
194.723
 20
31.4799
  0
SEQEND
  0
ENDBLK
  0
BLOCK
  8
LAYER_1
  2
AIGNBL01030021
 70
64
 10
0
 20
0
 30
0
  3
AIGNBL01030021
  0
POLYLINE
  8
LAYER_1
 40
0.05
 41
0.05
 66
1
 10
0
 20
0
 30
0
 70
1
  0
VERTEX
  8
LAYER_1
 10
196.715
 20
32.386
  0
VERTEX
  8
LAYER_1
 10
197.1893
 20
32.386
  0
VERTEX
  8
LAYER_1
 10
197.3719
 20
32.3674
 42
-0.09142804594
  0
VERTEX
  8
LAYER_1
 10
197.537
 20
32.3019
 42
-0.116286803
  0
VERTEX
  8
LAYER_1
 10
197.6568
 20
32.1772
 42
-0.1282536861
  0
VERTEX
  8
LAYER_1
 10
197.7027
 20
31.9794
 42
-0.1793128931
  0
VERTEX
  8
LAYER_1
 10
197.6255
 20
31.7596
 42
-0.1715864208
  0
VERTEX
  8
LAYER_1
 10
197.4198
 20
31.637
  0
VERTEX
  8
LAYER_1
 10
197.4198
 20
31.6329
 42
-0.1703048946
  0
VERTEX
  8
LAYER_1
 10
197.6772
 20
31.5123
 42
-0.2044854949
  0
VERTEX
  8
LAYER_1
 10
197.7791
 20
31.2339
 42
-0.1248794562
  0
VERTEX
  8
LAYER_1
 10
197.7371
 20
31.0534
 42
-0.118847866
  0
VERTEX
  8
LAYER_1
 10
197.6196
 20
30.9135
 42
-0.09022565528
  0
VERTEX
  8
LAYER_1
 10
197.4333
 20
30.8246
 42
-0.06743249441
  0
VERTEX
  8
LAYER_1
 10
197.1866
 20
30.793
  0
VERTEX
  8
LAYER_1
 10
196.715
 20
30.793
  0
SEQEND
  0
POLYLINE
  8
LAYER_1
 40
0.05
 41
0.05
 66
1
 10
0
 20
0
 30
0
 70
1
  0
VERTEX
  8
LAYER_1
 10
196.8769
 20
31.6887
  0
VERTEX
  8
LAYER_1
 10
197.2031
 20
31.6887
  0
VERTEX
  8
LAYER_1
 10
197.3216
 20
31.7025
 42
0.08792375838
  0
VERTEX
  8
LAYER_1
 10
197.4302
 20
31.7479
 42
0.1199675583
  0
VERTEX
  8
LAYER_1
 10
197.5101
 20
31.8354
 42
0.1228688743
  0
VERTEX
  8
LAYER_1
 10
197.5404
 20
31.9677
 42
0.1419005992
  0
VERTEX
  8
LAYER_1
 10
197.5101
 20
32.0973
 42
0.114615364
  0
VERTEX
  8
LAYER_1
 10
197.4284
 20
32.1841
 42
0.08796290272
  0
VERTEX
  8
LAYER_1
 10
197.3068
 20
32.2323
  0
VERTEX
  8
LAYER_1
 10
197.158
 20
32.2468
  0
VERTEX
  8
LAYER_1
 10
196.8769
 20
32.2468
  0
SEQEND
  0
POLYLINE
  8
LAYER_1
 40
0.05
 41
0.05
 66
1
 10
0
 20
0
 30
0
 70
1
  0
VERTEX
  8
LAYER_1
 10
196.8769
 20
30.9328
  0
VERTEX
  8
LAYER_1
 10
197.1787
 20
30.9328
  0
VERTEX
  8
LAYER_1
 10
197.3461
 20
30.9494
 42
0.08399443622
  0
VERTEX
  8
LAYER_1
 10
197.486
 20
31.0031
 42
0.1177225565
  0
VERTEX
  8
LAYER_1
 10
197.581
 20
31.1003
 42
0.1323016185
  0
VERTEX
  8
LAYER_1
 10
197.6169
 20
31.2436
 42
0.2442546113
  0
VERTEX
  8
LAYER_1
 10
197.5101
 20
31.4785
 42
0.1589312603
  0
VERTEX
  8
LAYER_1
 10
197.2079
 20
31.5557
  0
VERTEX
  8
LAYER_1
 10
196.8769
 20
31.5557
  0
SEQEND
  0
ENDBLK
  0
BLOCK
  8
LAYER_1
  2
AIGNBL01030022
 70
64
 10
0
 20
0
 30
0
  3
AIGNBL01030022
  0
POLYLINE
  8
LAYER_1
 40
0.05
 41
0.05
 66
1
 10
0
 20
0
 30
0
 70
1
  0
VERTEX
  8
LAYER_1
 10
198.4454
 20
30.793
  0
VERTEX
  8
LAYER_1
 10
198.2673
 20
30.793
  0
VERTEX
  8
LAYER_1
 10
198.9563
 20
32.386
  0
VERTEX
  8
LAYER_1
 10
199.1141
 20
32.386
  0
VERTEX
  8
LAYER_1
 10
199.798
 20
30.793
  0
VERTEX
  8
LAYER_1
 10
199.6178
 20
30.793
  0
VERTEX
  8
LAYER_1
 10
199.4421
 20
31.2112
  0
VERTEX
  8
LAYER_1
 10
198.6184
 20
31.2112
  0
SEQEND
  0
POLYLINE
  8
LAYER_1
 40
0.05
 41
0.05
 66
1
 10
0
 20
0
 30
0
 70
1
  0
VERTEX
  8
LAYER_1
 10
198.679
 20
31.36
  0
VERTEX
  8
LAYER_1
 10
199.3815
 20
31.36
  0
VERTEX
  8
LAYER_1
 10
199.0304
 20
32.2068
  0
SEQEND
  0
ENDBLK
  0
BLOCK
  8
LAYER_1
  2
AIGNBL01030023
 70
64
 10
0
 20
0
 30
0
  3
AIGNBL01030023
  0
POLYLINE
  8
LAYER_1
 40
0.05
 41
0.05
 66
1
 10
0
 20
0
 30
0
 70
1
  0
VERTEX
  8
LAYER_1
 10
200.8539
 20
30.793
  0
VERTEX
  8
LAYER_1
 10
200.6916
 20
30.793
  0
VERTEX
  8
LAYER_1
 10
200.6916
 20
32.242
  0
VERTEX
  8
LAYER_1
 10
200.1576
 20
32.242
  0
VERTEX
  8
LAYER_1
 10
200.1576
 20
32.386
  0
VERTEX
  8
LAYER_1
 10
201.3865
 20
32.386
  0
VERTEX
  8
LAYER_1
 10
201.3865
 20
32.242
  0
VERTEX
  8
LAYER_1
 10
200.8539
 20
32.242
  0
SEQEND
  0
ENDBLK
  0
BLOCK
  8
LAYER_1
  2
AIGNBL01030024
 70
64
 10
0
 20
0
 30
0
  3
AIGNBL01030024
  0
POLYLINE
  8
LAYER_1
 40
0.05
 41
0.05
 66
1
 10
0
 20
0
 30
0
 70
1
  0
VERTEX
  8
LAYER_1
 10
201.936
 20
32.386
  0
VERTEX
  8
LAYER_1
 10
202.0976
 20
32.386
  0
VERTEX
  8
LAYER_1
 10
202.0976
 20
31.6956
  0
VERTEX
  8
LAYER_1
 10
202.9668
 20
31.6956
  0
VERTEX
  8
LAYER_1
 10
202.9668
 20
32.386
  0
VERTEX
  8
LAYER_1
 10
203.1287
 20
32.386
  0
VERTEX
  8
LAYER_1
 10
203.1287
 20
30.793
  0
VERTEX
  8
LAYER_1
 10
202.9668
 20
30.793
  0
VERTEX
  8
LAYER_1
 10
202.9668
 20
31.5474
  0
VERTEX
  8
LAYER_1
 10
202.0976
 20
31.5474
  0
VERTEX
  8
LAYER_1
 10
202.0976
 20
30.793
  0
VERTEX
  8
LAYER_1
 10
201.936
 20
30.793
  0
SEQEND
  0
ENDBLK
  0
BLOCK
  8
LAYER_1
  2
AIGNBL01030025
 70
64
 10
0
 20
0
 30
0
  3
AIGNBL01030025
  0
POLYLINE
  8
LAYER_1
 40
0.05
 41
0.05
 66
1
 10
0
 20
0
 30
0
 70
1
  0
VERTEX
  8
LAYER_1
 10
204.0241
 20
30.793
  0
VERTEX
  8
LAYER_1
 10
203.8618
 20
30.793
  0
VERTEX
  8
LAYER_1
 10
203.8618
 20
32.386
  0
VERTEX
  8
LAYER_1
 10
204.3307
 20
32.386
 42
-0.06098978775
  0
VERTEX
  8
LAYER_1
 10
204.5474
 20
32.3639
 42
-0.09954771023
  0
VERTEX
  8
LAYER_1
 10
204.721
 20
32.2909
 42
-0.1292921921
  0
VERTEX
  8
LAYER_1
 10
204.8344
 20
32.1586
 42
-0.1123831242
  0
VERTEX
  8
LAYER_1
 10
204.8747
 20
31.9608
 42
-0.1055496362
  0
VERTEX
  8
LAYER_1
 10
204.8437
 20
31.801
 42
-0.09419191377
  0
VERTEX
  8
LAYER_1
 10
204.7582
 20
31.6763
 42
-0.09215125959
  0
VERTEX
  8
LAYER_1
 10
204.6297
 20
31.5922
 42
-0.07642864183
  0
VERTEX
  8
LAYER_1
 10
204.4678
 20
31.5516
  0
VERTEX
  8
LAYER_1
 10
204.9336
 20
30.793
  0
VERTEX
  8
LAYER_1
 10
204.7355
 20
30.793
  0
VERTEX
  8
LAYER_1
 10
204.2945
 20
31.5378
  0
VERTEX
  8
LAYER_1
 10
204.0241
 20
31.5378
  0
SEQEND
  0
POLYLINE
  8
LAYER_1
 40
0.05
 41
0.05
 66
1
 10
0
 20
0
 30
0
 70
1
  0
VERTEX
  8
LAYER_1
 10
204.0241
 20
31.6777
  0
VERTEX
  8
LAYER_1
 10
204.3055
 20
31.6777
 42
0.1458750428
  0
VERTEX
  8
LAYER_1
 10
204.6073
 20
31.7479
 42
0.2607374187
  0
VERTEX
  8
LAYER_1
 10
204.7131
 20
31.9608
 42
0.1386600416
  0
VERTEX
  8
LAYER_1
 10
204.6835
 20
32.0931
 42
0.1272201603
  0
VERTEX
  8
LAYER_1
 10
204.6025
 20
32.1813
 42
0.0951759018
  0
VERTEX
  8
LAYER_1
 10
204.4768
 20
32.2309
 42
0.04830030545
  0
VERTEX
  8
LAYER_1
 10
204.3124
 20
32.2468
  0
VERTEX
  8
LAYER_1
 10
204.0241
 20
32.2468
  0
SEQEND
  0
ENDBLK
  0
BLOCK
  8
LAYER_1
  2
AIGNBL01030026
 70
64
 10
0
 20
0
 30
0
  3
AIGNBL01030026
  0
POLYLINE
  8
LAYER_1
 40
0.05
 41
0.05
 66
1
 10
0
 20
0
 30
0
 70
1
  0
VERTEX
  8
LAYER_1
 10
207.0961
 20
31.5895
 42
-0.09738165361
  0
VERTEX
  8
LAYER_1
 10
207.0334
 20
31.2546
 42
-0.09937958046
  0
VERTEX
  8
LAYER_1
 10
206.8583
 20
30.99
 42
-0.09927456735
  0
VERTEX
  8
LAYER_1
 10
206.5955
 20
30.8157
 42
-0.09869790589
  0
VERTEX
  8
LAYER_1
 10
206.2654
 20
30.7523
 42
-0.09958627292
  0
VERTEX
  8
LAYER_1
 10
205.9358
 20
30.8157
 42
-0.0989504301
  0
VERTEX
  8
LAYER_1
 10
205.6725
 20
30.99
 42
-0.09912921316
  0
VERTEX
  8
LAYER_1
 10
205.4982
 20
31.2546
 42
-0.09742775703
  0
VERTEX
  8
LAYER_1
 10
205.4355
 20
31.5895
 42
-0.09843728748
  0
VERTEX
  8
LAYER_1
 10
205.4982
 20
31.925
 42
-0.09992202839
  0
VERTEX
  8
LAYER_1
 10
205.6725
 20
32.1896
 42
-0.09829062097
  0
VERTEX
  8
LAYER_1
 10
205.9358
 20
32.3639
 42
-0.09885173173
  0
VERTEX
  8
LAYER_1
 10
206.2654
 20
32.4273
 42
-0.09944413037
  0
VERTEX
  8
LAYER_1
 10
206.5955
 20
32.3639
 42
-0.1001667942
  0
VERTEX
  8
LAYER_1
 10
206.8583
 20
32.1896
 42
-0.09861040385
  0
VERTEX
  8
LAYER_1
 10
207.0334
 20
31.925
 42
-0.09663425783
  0
SEQEND
  0
POLYLINE
  8
LAYER_1
 40
0.05
 41
0.05
 66
1
 10
0
 20
0
 30
0
 70
1
  0
VERTEX
  8
LAYER_1
 10
206.9248
 20
31.5888
 42
0.08767639808
  0
VERTEX
  8
LAYER_1
 10
206.8797
 20
31.854
 42
0.1001642571
  0
VERTEX
  8
LAYER_1
 10
206.7491
 20
32.0745
 42
0.1043687526
  0
VERTEX
  8
LAYER_1
 10
206.5414
 20
32.2261
 42
0.1084314942
  0
VERTEX
  8
LAYER_1
 10
206.2654
 20
32.2833
 42
0.1105603156
  0
VERTEX
  8
LAYER_1
 10
205.9898
 20
32.2261
 42
0.106651076
  0
VERTEX
  8
LAYER_1
 10
205.7814
 20
32.0745
 42
0.09643877258
  0
VERTEX
  8
LAYER_1
 10
205.6508
 20
31.854
 42
0.08463245476
  0
VERTEX
  8
LAYER_1
 10
205.6061
 20
31.5888
 42
0.08617625918
  0
VERTEX
  8
LAYER_1
 10
205.6508
 20
31.3235
 42
0.09755692688
  0
VERTEX
  8
LAYER_1
 10
205.7814
 20
31.103
 42
0.1002225263
  0
VERTEX
  8
LAYER_1
 10
205.9898
 20
30.9528
 42
0.1086218244
  0
VERTEX
  8
LAYER_1
 10
206.2654
 20
30.8963
 42
0.1105598463
  0
VERTEX
  8
LAYER_1
 10
206.5414
 20
30.9528
 42
0.1018385555
  0
VERTEX
  8
LAYER_1
 10
206.7491
 20
31.103
 42
0.09976492042
  0
VERTEX
  8
LAYER_1
 10
206.8797
 20
31.3235
 42
0.08665879347
  0
SEQEND
  0
ENDBLK
  0
BLOCK
  8
LAYER_1
  2
AIGNBL01030027
 70
64
 10
0
 20
0
 30
0
  3
AIGNBL01030027
  0
POLYLINE
  8
LAYER_1
 40
0.05
 41
0.05
 66
1
 10
0
 20
0
 30
0
 70
1
  0
VERTEX
  8
LAYER_1
 10
209.3195
 20
31.5895
 42
-0.1008786777
  0
VERTEX
  8
LAYER_1
 10
209.2561
 20
31.2546
 42
-0.1001485064
  0
VERTEX
  8
LAYER_1
 10
209.0825
 20
30.99
 42
-0.09774550643
  0
VERTEX
  8
LAYER_1
 10
208.819
 20
30.8157
 42
-0.09865590752
  0
VERTEX
  8
LAYER_1
 10
208.4889
 20
30.7523
 42
-0.09970075153
  0
VERTEX
  8
LAYER_1
 10
208.1596
 20
30.8157
 42
-0.09988784752
  0
VERTEX
  8
LAYER_1
 10
207.896
 20
30.99
 42
-0.09790531107
  0
VERTEX
  8
LAYER_1
 10
207.7213
 20
31.2546
 42
-0.09810272871
  0
VERTEX
  8
LAYER_1
 10
207.6586
 20
31.5895
 42
-0.09915992422
  0
VERTEX
  8
LAYER_1
 10
207.7213
 20
31.925
 42
-0.09863158885
  0
VERTEX
  8
LAYER_1
 10
207.896
 20
32.1896
 42
-0.09908526933
  0
VERTEX
  8
LAYER_1
 10
208.1596
 20
32.3639
 42
-0.09898425003
  0
VERTEX
  8
LAYER_1
 10
208.4889
 20
32.4273
 42
-0.09940202975
  0
VERTEX
  8
LAYER_1
 10
208.819
 20
32.3639
 42
-0.09833631502
  0
VERTEX
  8
LAYER_1
 10
209.0825
 20
32.1896
 42
-0.09942662701
  0
VERTEX
  8
LAYER_1
 10
209.2561
 20
31.925
 42
-0.0999371451
  0
SEQEND
  0
POLYLINE
  8
LAYER_1
 40
0.05
 41
0.05
 66
1
 10
0
 20
0
 30
0
 70
1
  0
VERTEX
  8
LAYER_1
 10
209.1483
 20
31.5888
 42
0.08562037207
  0
VERTEX
  8
LAYER_1
 10
209.1039
 20
31.854
 42
0.09662947329
  0
VERTEX
  8
LAYER_1
 10
208.9729
 20
32.0745
 42
0.1047722034
  0
VERTEX
  8
LAYER_1
 10
208.7649
 20
32.2261
 42
0.1085929314
  0
VERTEX
  8
LAYER_1
 10
208.4889
 20
32.2833
 42
0.1103838916
  0
VERTEX
  8
LAYER_1
 10
208.2133
 20
32.2261
 42
0.1063604706
  0
VERTEX
  8
LAYER_1
 10
208.0056
 20
32.0745
 42
0.1005495528
  0
VERTEX
  8
LAYER_1
 10
207.875
 20
31.854
 42
0.08560972974
  0
VERTEX
  8
LAYER_1
 10
207.8299
 20
31.5888
 42
0.08737192508
  0
VERTEX
  8
LAYER_1
 10
207.875
 20
31.3235
 42
0.1013889259
  0
VERTEX
  8
LAYER_1
 10
208.0056
 20
31.103
 42
0.09998628835
  0
VERTEX
  8
LAYER_1
 10
208.2133
 20
30.9528
 42
0.1085463596
  0
VERTEX
  8
LAYER_1
 10
208.4889
 20
30.8963
 42
0.1107203863
  0
VERTEX
  8
LAYER_1
 10
208.7649
 20
30.9528
 42
0.1021709073
  0
VERTEX
  8
LAYER_1
 10
208.9729
 20
31.103
 42
0.09482407841
  0
VERTEX
  8
LAYER_1
 10
209.1039
 20
31.3235
 42
0.084884311
  0
SEQEND
  0
ENDBLK
  0
BLOCK
  8
LAYER_1
  2
AIGNBL01030028
 70
64
 10
0
 20
0
 30
0
  3
AIGNBL01030028
  0
POLYLINE
  8
LAYER_1
 40
0.05
 41
0.05
 66
1
 10
0
 20
0
 30
0
 70
1
  0
VERTEX
  8
LAYER_1
 10
210.7551
 20
31.0672
  0
VERTEX
  8
LAYER_1
 10
210.7579
 20
31.0672
  0
VERTEX
  8
LAYER_1
 10
211.2905
 20
32.386
  0
VERTEX
  8
LAYER_1
 10
211.5389
 20
32.386
  0
VERTEX
  8
LAYER_1
 10
211.5389
 20
30.793
  0
VERTEX
  8
LAYER_1
 10
211.3762
 20
30.793
  0
VERTEX
  8
LAYER_1
 10
211.3762
 20
32.1772
  0
VERTEX
  8
LAYER_1
 10
211.3718
 20
32.1772
  0
VERTEX
  8
LAYER_1
 10
210.7961
 20
30.793
  0
VERTEX
  8
LAYER_1
 10
210.7103
 20
30.793
  0
VERTEX
  8
LAYER_1
 10
210.1339
 20
32.1772
  0
VERTEX
  8
LAYER_1
 10
210.1298
 20
32.1772
  0
VERTEX
  8
LAYER_1
 10
210.1298
 20
30.793
  0
VERTEX
  8
LAYER_1
 10
209.9675
 20
30.793
  0
VERTEX
  8
LAYER_1
 10
209.9675
 20
32.386
  0
VERTEX
  8
LAYER_1
 10
210.2152
 20
32.386
  0
SEQEND
  0
ENDBLK
  0
BLOCK
  8
LAYER_1
  2
AIGNBL01030029
 70
64
 10
0
 20
0
 30
0
  3
AIGNBL01030029
  0
POLYLINE
  8
LAYER_1
 40
0.05
 41
0.05
 66
1
 10
0
 20
0
 30
0
 70
1
  0
VERTEX
  8
LAYER_1
 10
213.3069
 20
30.9376
  0
VERTEX
  8
LAYER_1
 10
214.1602
 20
30.9376
  0
VERTEX
  8
LAYER_1
 10
214.1602
 20
30.793
  0
VERTEX
  8
LAYER_1
 10
213.145
 20
30.793
  0
VERTEX
  8
LAYER_1
 10
213.145
 20
32.386
  0
VERTEX
  8
LAYER_1
 10
214.133
 20
32.386
  0
VERTEX
  8
LAYER_1
 10
214.133
 20
32.242
  0
VERTEX
  8
LAYER_1
 10
213.3069
 20
32.242
  0
VERTEX
  8
LAYER_1
 10
213.3069
 20
31.6956
  0
VERTEX
  8
LAYER_1
 10
214.0789
 20
31.6956
  0
VERTEX
  8
LAYER_1
 10
214.0789
 20
31.5516
  0
VERTEX
  8
LAYER_1
 10
213.3069
 20
31.5516
  0
SEQEND
  0
ENDBLK
  0
BLOCK
  8
LAYER_1
  2
AIGNBL0103002A
 70
64
 10
0
 20
0
 30
0
  3
AIGNBL0103002A
  0
POLYLINE
  8
LAYER_1
 40
0.05
 41
0.05
 66
1
 10
0
 20
0
 30
0
 70
1
  0
VERTEX
  8
LAYER_1
 10
215.3095
 20
31.7431
  0
VERTEX
  8
LAYER_1
 10
215.7446
 20
32.386
  0
VERTEX
  8
LAYER_1
 10
215.9376
 20
32.386
  0
VERTEX
  8
LAYER_1
 10
215.4094
 20
31.628
  0
VERTEX
  8
LAYER_1
 10
215.9944
 20
30.793
  0
VERTEX
  8
LAYER_1
 10
215.7918
 20
30.793
  0
VERTEX
  8
LAYER_1
 10
215.305
 20
31.5109
  0
VERTEX
  8
LAYER_1
 10
214.8217
 20
30.793
  0
VERTEX
  8
LAYER_1
 10
214.6188
 20
30.793
  0
VERTEX
  8
LAYER_1
 10
215.2041
 20
31.6301
  0
VERTEX
  8
LAYER_1
 10
214.6708
 20
32.386
  0
VERTEX
  8
LAYER_1
 10
214.8737
 20
32.386
  0
SEQEND
  0
ENDBLK
  0
BLOCK
  8
LAYER_1
  2
AIGNBL0103002B
 70
64
 10
0
 20
0
 30
0
  3
AIGNBL0103002B
  0
POLYLINE
  8
LAYER_1
 40
0.05
 41
0.05
 66
1
 10
0
 20
0
 30
0
 70
1
  0
VERTEX
  8
LAYER_1
 10
216.559
 20
32.386
  0
VERTEX
  8
LAYER_1
 10
217.0097
 20
32.386
 42
-0.06853702817
  0
VERTEX
  8
LAYER_1
 10
217.2302
 20
32.3605
 42
-0.1031848546
  0
VERTEX
  8
LAYER_1
 10
217.3997
 20
32.2812
 42
-0.1233769503
  0
VERTEX
  8
LAYER_1
 10
217.5089
 20
32.1489
 42
-0.1074397
  0
VERTEX
  8
LAYER_1
 10
217.5468
 20
31.9615
 42
-0.1205817103
  0
VERTEX
  8
LAYER_1
 10
217.5078
 20
31.7734
 42
-0.1200360171
  0
VERTEX
  8
LAYER_1
 10
217.3976
 20
31.6404
 42
-0.09043697356
  0
VERTEX
  8
LAYER_1
 10
217.2264
 20
31.5605
 42
-0.06239080926
  0
VERTEX
  8
LAYER_1
 10
217.0048
 20
31.5336
  0
VERTEX
  8
LAYER_1
 10
216.721
 20
31.5336
  0
VERTEX
  8
LAYER_1
 10
216.721
 20
30.793
  0
VERTEX
  8
LAYER_1
 10
216.559
 20
30.793
  0
SEQEND
  0
POLYLINE
  8
LAYER_1
 40
0.05
 41
0.05
 66
1
 10
0
 20
0
 30
0
 70
1
  0
VERTEX
  8
LAYER_1
 10
216.721
 20
31.6708
  0
VERTEX
  8
LAYER_1
 10
216.9952
 20
31.6708
 42
0.1607783643
  0
VERTEX
  8
LAYER_1
 10
217.286
 20
31.7452
 42
0.249839174
  0
VERTEX
  8
LAYER_1
 10
217.3852
 20
31.9615
 42
0.2531103661
  0
VERTEX
  8
LAYER_1
 10
217.2829
 20
32.1786
 42
0.1483342952
  0
VERTEX
  8
LAYER_1
 10
216.9952
 20
32.2468
  0
VERTEX
  8
LAYER_1
 10
216.721
 20
32.2468
  0
SEQEND
  0
ENDBLK
  0
BLOCK
  8
LAYER_1
  2
AIGNBL0103002C
 70
64
 10
0
 20
0
 30
0
  3
AIGNBL0103002C
  0
POLYLINE
  8
LAYER_1
 40
0.05
 41
0.05
 66
1
 10
0
 20
0
 30
0
 70
1
  0
VERTEX
  8
LAYER_1
 10
218.3367
 20
30.9376
  0
VERTEX
  8
LAYER_1
 10
219.1901
 20
30.9376
  0
VERTEX
  8
LAYER_1
 10
219.1901
 20
30.793
  0
VERTEX
  8
LAYER_1
 10
218.1748
 20
30.793
  0
VERTEX
  8
LAYER_1
 10
218.1748
 20
32.386
  0
VERTEX
  8
LAYER_1
 10
219.1628
 20
32.386
  0
VERTEX
  8
LAYER_1
 10
219.1628
 20
32.242
  0
VERTEX
  8
LAYER_1
 10
218.3367
 20
32.242
  0
VERTEX
  8
LAYER_1
 10
218.3367
 20
31.6956
  0
VERTEX
  8
LAYER_1
 10
219.1088
 20
31.6956
  0
VERTEX
  8
LAYER_1
 10
219.1088
 20
31.5516
  0
VERTEX
  8
LAYER_1
 10
218.3367
 20
31.5516
  0
SEQEND
  0
ENDBLK
  0
BLOCK
  8
LAYER_1
  2
AIGNBL0103002D
 70
64
 10
0
 20
0
 30
0
  3
AIGNBL0103002D
  0
POLYLINE
  8
LAYER_1
 40
0.05
 41
0.05
 66
1
 10
0
 20
0
 30
0
 70
1
  0
VERTEX
  8
LAYER_1
 10
219.9797
 20
30.793
  0
VERTEX
  8
LAYER_1
 10
219.8174
 20
30.793
  0
VERTEX
  8
LAYER_1
 10
219.8174
 20
32.386
  0
VERTEX
  8
LAYER_1
 10
220.2863
 20
32.386
 42
-0.06098978775
  0
VERTEX
  8
LAYER_1
 10
220.503
 20
32.3639
 42
-0.09981278935
  0
VERTEX
  8
LAYER_1
 10
220.6766
 20
32.2909
 42
-0.1266535871
  0
VERTEX
  8
LAYER_1
 10
220.7903
 20
32.1586
 42
-0.1110863801
  0
VERTEX
  8
LAYER_1
 10
220.8303
 20
31.9615
 42
-0.1030696856
  0
VERTEX
  8
LAYER_1
 10
220.7993
 20
31.801
 42
-0.09917859184
  0
VERTEX
  8
LAYER_1
 10
220.7138
 20
31.6763
 42
-0.09464925815
  0
VERTEX
  8
LAYER_1
 10
220.5853
 20
31.5922
 42
-0.07650524991
  0
VERTEX
  8
LAYER_1
 10
220.4231
 20
31.5516
  0
VERTEX
  8
LAYER_1
 10
220.8892
 20
30.793
  0
VERTEX
  8
LAYER_1
 10
220.6911
 20
30.793
  0
VERTEX
  8
LAYER_1
 10
220.2501
 20
31.5378
  0
VERTEX
  8
LAYER_1
 10
219.9797
 20
31.5378
  0
SEQEND
  0
POLYLINE
  8
LAYER_1
 40
0.05
 41
0.05
 66
1
 10
0
 20
0
 30
0
 70
1
  0
VERTEX
  8
LAYER_1
 10
219.9797
 20
31.6777
  0
VERTEX
  8
LAYER_1
 10
220.2611
 20
31.6777
 42
0.1461858404
  0
VERTEX
  8
LAYER_1
 10
220.5629
 20
31.7479
 42
0.2611132369
  0
VERTEX
  8
LAYER_1
 10
220.6687
 20
31.9615
 42
0.1333740999
  0
VERTEX
  8
LAYER_1
 10
220.6394
 20
32.0938
 42
0.1173009478
  0
VERTEX
  8
LAYER_1
 10
220.5581
 20
32.182
 42
0.09208663699
  0
VERTEX
  8
LAYER_1
 10
220.4324
 20
32.2309
 42
0.04830031494
  0
VERTEX
  8
LAYER_1
 10
220.268
 20
32.2468
  0
VERTEX
  8
LAYER_1
 10
219.9797
 20
32.2468
  0
SEQEND
  0
ENDBLK
  0
BLOCK
  8
LAYER_1
  2
AIGNBL0103002E
 70
64
 10
0
 20
0
 30
0
  3
AIGNBL0103002E
  0
POLYLINE
  8
LAYER_1
 40
0.05
 41
0.05
 66
1
 10
0
 20
0
 30
0
 70
1
  0
VERTEX
  8
LAYER_1
 10
221.6382
 20
30.793
  0
VERTEX
  8
LAYER_1
 10
221.4769
 20
30.793
  0
VERTEX
  8
LAYER_1
 10
221.4769
 20
32.386
  0
VERTEX
  8
LAYER_1
 10
221.6382
 20
32.386
  0
SEQEND
  0
ENDBLK
  0
BLOCK
  8
LAYER_1
  2
AIGNBL0103002F
 70
64
 10
0
 20
0
 30
0
  3
AIGNBL0103002F
  0
POLYLINE
  8
LAYER_1
 40
0.05
 41
0.05
 66
1
 10
0
 20
0
 30
0
 70
1
  0
VERTEX
  8
LAYER_1
 10
222.5342
 20
30.9376
  0
VERTEX
  8
LAYER_1
 10
223.3869
 20
30.9376
  0
VERTEX
  8
LAYER_1
 10
223.3869
 20
30.793
  0
VERTEX
  8
LAYER_1
 10
222.372
 20
30.793
  0
VERTEX
  8
LAYER_1
 10
222.372
 20
32.386
  0
VERTEX
  8
LAYER_1
 10
223.3604
 20
32.386
  0
VERTEX
  8
LAYER_1
 10
223.3604
 20
32.242
  0
VERTEX
  8
LAYER_1
 10
222.5342
 20
32.242
  0
VERTEX
  8
LAYER_1
 10
222.5342
 20
31.6956
  0
VERTEX
  8
LAYER_1
 10
223.3059
 20
31.6956
  0
VERTEX
  8
LAYER_1
 10
223.3059
 20
31.5516
  0
VERTEX
  8
LAYER_1
 10
222.5342
 20
31.5516
  0
SEQEND
  0
ENDBLK
  0
BLOCK
  8
LAYER_1
  2
AIGNBL01030030
 70
64
 10
0
 20
0
 30
0
  3
AIGNBL01030030
  0
POLYLINE
  8
LAYER_1
 40
0.05
 41
0.05
 66
1
 10
0
 20
0
 30
0
 70
1
  0
VERTEX
  8
LAYER_1
 10
225.1449
 20
31.0293
  0
VERTEX
  8
LAYER_1
 10
225.149
 20
31.0293
  0
VERTEX
  8
LAYER_1
 10
225.149
 20
32.386
  0
VERTEX
  8
LAYER_1
 10
225.3113
 20
32.386
  0
VERTEX
  8
LAYER_1
 10
225.3113
 20
30.793
  0
VERTEX
  8
LAYER_1
 10
225.1087
 20
30.793
  0
VERTEX
  8
LAYER_1
 10
224.1817
 20
32.1634
  0
VERTEX
  8
LAYER_1
 10
224.1768
 20
32.1634
  0
VERTEX
  8
LAYER_1
 10
224.1768
 20
30.793
  0
VERTEX
  8
LAYER_1
 10
224.0149
 20
30.793
  0
VERTEX
  8
LAYER_1
 10
224.0149
 20
32.386
  0
VERTEX
  8
LAYER_1
 10
224.2178
 20
32.386
  0
SEQEND
  0
ENDBLK
  0
BLOCK
  8
LAYER_1
  2
AIGNBL01030031
 70
64
 10
0
 20
0
 30
0
  3
AIGNBL01030031
  0
POLYLINE
  8
LAYER_1
 40
0.05
 41
0.05
 66
1
 10
0
 20
0
 30
0
 70
1
  0
VERTEX
  8
LAYER_1
 10
227.3866
 20
31.0513
  0
VERTEX
  8
LAYER_1
 10
227.2881
 20
30.937
 42
-0.06009536841
  0
VERTEX
  8
LAYER_1
 10
227.1555
 20
30.8419
 42
-0.06033998119
  0
VERTEX
  8
LAYER_1
 10
226.9884
 20
30.7764
 42
-0.06062183219
  0
VERTEX
  8
LAYER_1
 10
226.7899
 20
30.7523
 42
-0.09896051065
  0
VERTEX
  8
LAYER_1
 10
226.4568
 20
30.8157
 42
-0.1018118162
  0
VERTEX
  8
LAYER_1
 10
226.1936
 20
30.99
 42
-0.1011377718
  0
VERTEX
  8
LAYER_1
 10
226.0217
 20
31.2546
 42
-0.09812733647
  0
VERTEX
  8
LAYER_1
 10
225.9593
 20
31.5901
 42
-0.1006378372
  0
VERTEX
  8
LAYER_1
 10
226.0227
 20
31.925
 42
-0.09879626088
  0
VERTEX
  8
LAYER_1
 10
226.1964
 20
32.1896
 42
-0.09785486213
  0
VERTEX
  8
LAYER_1
 10
226.4599
 20
32.3639
 42
-0.09868805195
  0
VERTEX
  8
LAYER_1
 10
226.7899
 20
32.4273
  0
VERTEX
  8
LAYER_1
 10
226.9619
 20
32.4087
  0
VERTEX
  8
LAYER_1
 10
227.1207
 20
32.357
  0
VERTEX
  8
LAYER_1
 10
227.2557
 20
32.2771
 42
-0.08108562284
  0
VERTEX
  8
LAYER_1
 10
227.3574
 20
32.1724
  0
VERTEX
  8
LAYER_1
 10
227.2223
 20
32.0731
  0
VERTEX
  8
LAYER_1
 10
227.1555
 20
32.1503
  0
VERTEX
  8
LAYER_1
 10
227.0576
 20
32.2178
  0
VERTEX
  8
LAYER_1
 10
226.935
 20
32.2654
  0
VERTEX
  8
LAYER_1
 10
226.792
 20
32.2833
 42
0.1086830867
  0
VERTEX
  8
LAYER_1
 10
226.514
 20
32.2268
 42
0.1031568279
  0
VERTEX
  8
LAYER_1
 10
226.3059
 20
32.0752
 42
0.09566304343
  0
VERTEX
  8
LAYER_1
 10
226.175
 20
31.8547
 42
0.08473284183
  0
VERTEX
  8
LAYER_1
 10
226.1306
 20
31.5901
 42
0.09055348157
  0
VERTEX
  8
LAYER_1
 10
226.1767
 20
31.3256
 42
0.09829614736
  0
VERTEX
  8
LAYER_1
 10
226.3083
 20
31.1044
 42
0.1051222819
  0
VERTEX
  8
LAYER_1
 10
226.5168
 20
30.9528
 42
0.1090215557
  0
VERTEX
  8
LAYER_1
 10
226.792
 20
30.8963
 42
0.1096204258
  0
VERTEX
  8
LAYER_1
 10
227.0528
 20
30.9528
 42
0.1382090176
  0
VERTEX
  8
LAYER_1
 10
227.2599
 20
31.1326
  0
SEQEND
  0
ENDBLK
  0
BLOCK
  8
LAYER_1
  2
AIGNBL01030032
 70
64
 10
0
 20
0
 30
0
  3
AIGNBL01030032
  0
POLYLINE
  8
LAYER_1
 40
0.05
 41
0.05
 66
1
 10
0
 20
0
 30
0
 70
1
  0
VERTEX
  8
LAYER_1
 10
228.1377
 20
30.9376
  0
VERTEX
  8
LAYER_1
 10
228.991
 20
30.9376
  0
VERTEX
  8
LAYER_1
 10
228.991
 20
30.793
  0
VERTEX
  8
LAYER_1
 10
227.9757
 20
30.793
  0
VERTEX
  8
LAYER_1
 10
227.9757
 20
32.386
  0
VERTEX
  8
LAYER_1
 10
228.9638
 20
32.386
  0
VERTEX
  8
LAYER_1
 10
228.9638
 20
32.242
  0
VERTEX
  8
LAYER_1
 10
228.1377
 20
32.242
  0
VERTEX
  8
LAYER_1
 10
228.1377
 20
31.6956
  0
VERTEX
  8
LAYER_1
 10
228.9097
 20
31.6956
  0
VERTEX
  8
LAYER_1
 10
228.9097
 20
31.5516
  0
VERTEX
  8
LAYER_1
 10
228.1377
 20
31.5516
  0
SEQEND
  0
ENDBLK
  0
BLOCK
  8
LAYER_1
  2
AIGNBL01020003
 70
64
 10
0
 20
0
 30
0
  3
AIGNBL01020003
  0
POLYLINE
  8
LAYER_1
 40
0.05
 41
0.05
 66
1
 10
0
 20
0
 30
0
 70
1
  0
VERTEX
  8
LAYER_1
 10
281.4447
 20
399.202
  0
VERTEX
  8
LAYER_1
 10
280.7336
 20
399.202
  0
VERTEX
  8
LAYER_1
 10
278.4588
 20
396.9561
  0
VERTEX
  8
LAYER_1
 10
278.4588
 20
399.202
  0
VERTEX
  8
LAYER_1
 10
277.8683
 20
399.202
  0
VERTEX
  8
LAYER_1
 10
277.8683
 20
394.8307
  0
VERTEX
  8
LAYER_1
 10
278.4588
 20
394.8307
  0
VERTEX
  8
LAYER_1
 10
278.4588
 20
396.2647
  0
VERTEX
  8
LAYER_1
 10
279.1702
 20
396.9675
  0
VERTEX
  8
LAYER_1
 10
280.8669
 20
394.8307
  0
VERTEX
  8
LAYER_1
 10
281.578
 20
394.8307
  0
VERTEX
  8
LAYER_1
 10
279.5771
 20
397.3675
  0
SEQEND
  0
POLYLINE
  8
LAYER_1
 40
0.05
 41
0.05
 66
1
 10
0
 20
0
 30
0
  0
VERTEX
  8
LAYER_1
 10
286.9461
 20
397.2533
  0
VERTEX
  8
LAYER_1
 10
286.2602
 20
397.3618
 42
-0.06913007455
  0
VERTEX
  8
LAYER_1
 10
285.8361
 20
397.4842
 42
-0.1734388811
  0
VERTEX
  8
LAYER_1
 10
285.5032
 20
397.7972
 42
-0.1087484145
  0
VERTEX
  8
LAYER_1
 10
285.4472
 20
398.0875
 42
-0.2779971125
  0
VERTEX
  8
LAYER_1
 10
285.8222
 20
398.6976
 42
-0.1278420901
  0
VERTEX
  8
LAYER_1
 10
286.4175
 20
398.8412
 42
-0.006492643815
  0
VERTEX
  8
LAYER_1
 10
286.4635
 20
398.8418
 42
-0.1388619967
  0
VERTEX
  8
LAYER_1
 10
287.0944
 20
398.6808
 42
-0.1580474478
  0
VERTEX
  8
LAYER_1
 10
287.4068
 20
398.2923
 42
-0.06125421761
  0
VERTEX
  8
LAYER_1
 10
287.4736
 20
398.0303
  0
VERTEX
  8
LAYER_1
 10
288.0772
 20
398.0303
 42
0.1331872531
  0
VERTEX
  8
LAYER_1
 10
287.8666
 20
398.6848
 42
0.1320588866
  0
VERTEX
  8
LAYER_1
 10
287.4036
 20
399.0778
 42
0.1048501502
  0
VERTEX
  8
LAYER_1
 10
286.6572
 20
399.259
 42
0.01703281728
  0
VERTEX
  8
LAYER_1
 10
286.47
 20
399.2647
 42
0.1021277535
  0
VERTEX
  8
LAYER_1
 10
285.5606
 20
399.0879
 42
0.1198283036
  0
VERTEX
  8
LAYER_1
 10
285.0422
 20
398.6906
 42
0.1653837996
  0
VERTEX
  8
LAYER_1
 10
284.8246
 20
398.0417
 42
0.1470911156
  0
VERTEX
  8
LAYER_1
 10
284.9954
 20
397.4354
 42
0.1360793618
  0
VERTEX
  8
LAYER_1
 10
285.4501
 20
397.0547
 42
0.07792477994
  0
VERTEX
  8
LAYER_1
 10
286.1141
 20
396.8535
  0
VERTEX
  8
LAYER_1
 10
286.7939
 20
396.7448
 42
-0.06878601885
  0
VERTEX
  8
LAYER_1
 10
287.2039
 20
396.6325
 42
-0.169483501
  0
VERTEX
  8
LAYER_1
 10
287.5553
 20
396.3174
 42
-0.1164325627
  0
VERTEX
  8
LAYER_1
 10
287.6193
 20
396.0132
 42
-0.1724125422
  0
VERTEX
  8
LAYER_1
 10
287.4518
 20
395.503
 42
-0.1584721802
  0
VERTEX
  8
LAYER_1
 10
287.0141
 20
395.2393
 42
-0.07245656248
  0
VERTEX
  8
LAYER_1
 10
286.47
 20
395.1731
 42
-0.1216647888
  0
VERTEX
  8
LAYER_1
 10
285.7498
 20
395.3361
 42
-0.2350944637
  0
VERTEX
  8
LAYER_1
 10
285.2563
 20
396.059
  0
VERTEX
  8
LAYER_1
 10
284.6403
 20
396.059
 42
0.1333559319
  0
VERTEX
  8
LAYER_1
 10
284.8578
 20
395.4123
 42
0.1212214038
  0
VERTEX
  8
LAYER_1
 10
285.3332
 20
394.9923
 42
0.09874754593
  0
VERTEX
  8
LAYER_1
 10
286.0821
 20
394.7665
 42
0.02987283731
  0
VERTEX
  8
LAYER_1
 10
286.4573
 20
394.7446
 42
0.09226156506
  0
VERTEX
  8
LAYER_1
 10
287.4377
 20
394.9101
 42
0.1223159491
  0
VERTEX
  8
LAYER_1
 10
287.9708
 20
395.2915
 42
0.1355315453
  0
VERTEX
  8
LAYER_1
 10
288.2073
 20
395.8417
 42
0.03705162074
  0
VERTEX
  8
LAYER_1
 10
288.2232
 20
396.059
 42
0.1440889385
  0
VERTEX
  8
LAYER_1
 10
288.0549
 20
396.6914
 42
0.136499685
  0
VERTEX
  8
LAYER_1
 10
287.6338
 20
397.0479
 42
0.08070480146
  0
VERTEX
  8
LAYER_1
 10
286.9461
 20
397.2533
  0
SEQEND
  0
POLYLINE
  8
LAYER_1
 40
0.05
 41
0.05
 66
1
 10
0
 20
0
 30
0
 70
1
  0
VERTEX
  8
LAYER_1
 10
268.4977
 20
397.122
  0
VERTEX
  8
LAYER_1
 10
268.4977
 20
398.7677
  0
VERTEX
  8
LAYER_1
 10
269.6411
 20
398.7677
 42
-0.1360765863
  0
VERTEX
  8
LAYER_1
 10
270.2862
 20
398.6047
 42
-0.2642099653
  0
VERTEX
  8
LAYER_1
 10
270.6129
 20
397.9676
 42
-0.1653001469
  0
VERTEX
  8
LAYER_1
 10
270.4481
 20
397.4363
 42
-0.1616872832
  0
VERTEX
  8
LAYER_1
 10
270.0351
 20
397.176
 42
-0.07199661025
  0
VERTEX
  8
LAYER_1
 10
269.6156
 20
397.122
  0
SEQEND
  0
POLYLINE
  8
LAYER_1
 40
0.05
 41
0.05
 66
1
 10
0
 20
0
 30
0
 70
1
  0
VERTEX
  8
LAYER_1
 10
270.194
 20
396.7675
 42
0.1221867852
  0
VERTEX
  8
LAYER_1
 10
270.8819
 20
397.1005
 42
0.2053827054
  0
VERTEX
  8
LAYER_1
 10
271.2335
 20
397.8794
 42
0.0156744566
  0
VERTEX
  8
LAYER_1
 10
271.2362
 20
397.9733
 42
0.13949242
  0
VERTEX
  8
LAYER_1
 10
271.0669
 20
398.6063
 42
0.1368697471
  0
VERTEX
  8
LAYER_1
 10
270.6251
 20
398.9983
 42
0.003703867914
  0
VERTEX
  8
LAYER_1
 10
270.6071
 20
399.0075
 42
0.1052672577
  0
VERTEX
  8
LAYER_1
 10
269.7493
 20
399.2008
 42
0.007901396217
  0
VERTEX
  8
LAYER_1
 10
269.6666
 20
399.202
  0
VERTEX
  8
LAYER_1
 10
267.9068
 20
399.202
  0
VERTEX
  8
LAYER_1
 10
267.9068
 20
394.8307
  0
VERTEX
  8
LAYER_1
 10
268.4977
 20
394.8307
  0
VERTEX
  8
LAYER_1
 10
268.4977
 20
396.6821
  0
VERTEX
  8
LAYER_1
 10
269.5777
 20
396.6821
  0
VERTEX
  8
LAYER_1
 10
270.5812
 20
394.8307
  0
VERTEX
  8
LAYER_1
 10
271.2675
 20
394.8307
  0
VERTEX
  8
LAYER_1
 10
270.194
 20
396.7561
  0
SEQEND
  0
POLYLINE
  8
LAYER_1
 40
0.05
 41
0.05
 66
1
 10
0
 20
0
 30
0
 70
1
  0
VERTEX
  8
LAYER_1
 10
282.6515
 20
394.8307
  0
VERTEX
  8
LAYER_1
 10
283.2427
 20
394.8307
  0
VERTEX
  8
LAYER_1
 10
283.2427
 20
399.202
  0
VERTEX
  8
LAYER_1
 10
282.6515
 20
399.202
  0
SEQEND
  0
POLYLINE
  8
LAYER_1
 40
0.05
 41
0.05
 66
1
 10
0
 20
0
 30
0
  0
VERTEX
  8
LAYER_1
 10
274.4628
 20
395.1676
 42
-0.1201036245
  0
VERTEX
  8
LAYER_1
 10
273.709
 20
395.3422
 42
-0.1833995402
  0
VERTEX
  8
LAYER_1
 10
273.0692
 20
396.0826
 42
-0.09346695174
  0
VERTEX
  8
LAYER_1
 10
272.9139
 20
396.9133
 42
-0.006607646183
  0
VERTEX
  8
LAYER_1
 10
272.9129
 20
396.9964
 42
-0.09451233088
  0
VERTEX
  8
LAYER_1
 10
273.081
 20
397.9512
 42
-0.1136920143
  0
VERTEX
  8
LAYER_1
 10
273.4694
 20
398.5022
 42
-0.1233838019
  0
VERTEX
  8
LAYER_1
 10
274.058
 20
398.797
 42
-0.0578588559
  0
VERTEX
  8
LAYER_1
 10
274.4628
 20
398.8418
 42
-0.1204247159
  0
VERTEX
  8
LAYER_1
 10
275.2239
 20
398.6646
 42
-0.1821183244
  0
VERTEX
  8
LAYER_1
 10
275.8732
 20
397.916
 42
-0.09404686693
  0
VERTEX
  8
LAYER_1
 10
276.0314
 20
397.0798
 42
-0.006701039944
  0
VERTEX
  8
LAYER_1
 10
276.0324
 20
396.9964
 42
-0.09787375833
  0
VERTEX
  8
LAYER_1
 10
275.8612
 20
396.0703
 42
-0.1143705115
  0
VERTEX
  8
LAYER_1
 10
275.4521
 20
395.506
 42
-0.1174818689
  0
VERTEX
  8
LAYER_1
 10
274.871
 20
395.2148
 42
-0.05993966148
  0
VERTEX
  8
LAYER_1
 10
274.4628
 20
395.1676
  0
SEQEND
  0
POLYLINE
  8
LAYER_1
 40
0.05
 41
0.05
 66
1
 10
0
 20
0
 30
0
  0
VERTEX
  8
LAYER_1
 10
274.4628
 20
399.2647
 42
0.09380817421
  0
VERTEX
  8
LAYER_1
 10
273.54
 20
399.0955
 42
0.1009713649
  0
VERTEX
  8
LAYER_1
 10
272.888
 20
398.6671
 42
0.09914018748
  0
VERTEX
  8
LAYER_1
 10
272.478
 20
398.0427
 42
0.08801165144
  0
VERTEX
  8
LAYER_1
 10
272.295
 20
397.1816
 42
0.01380030723
  0
VERTEX
  8
LAYER_1
 10
272.2904
 20
397.0021
 42
0.08978712934
  0
VERTEX
  8
LAYER_1
 10
272.4619
 20
395.9903
 42
0.09632916679
  0
VERTEX
  8
LAYER_1
 10
272.8568
 20
395.3573
 42
0.1028034786
  0
VERTEX
  8
LAYER_1
 10
273.4764
 20
394.9289
 42
0.09013977037
  0
VERTEX
  8
LAYER_1
 10
274.2964
 20
394.7436
 42
0.01466939489
  0
VERTEX
  8
LAYER_1
 10
274.4628
 20
394.739
 42
0.09305512057
  0
VERTEX
  8
LAYER_1
 10
275.4034
 20
394.9093
 42
0.1015182123
  0
VERTEX
  8
LAYER_1
 10
276.0596
 20
395.3389
 42
0.09957407106
  0
VERTEX
  8
LAYER_1
 10
276.4688
 20
395.9637
 42
0.08770168348
  0
VERTEX
  8
LAYER_1
 10
276.6504
 20
396.8232
 42
0.01369252336
  0
VERTEX
  8
LAYER_1
 10
276.6549
 20
397.0021
 42
0.09193683062
  0
VERTEX
  8
LAYER_1
 10
276.4786
 20
398.0161
 42
0.09687042249
  0
VERTEX
  8
LAYER_1
 10
276.0753
 20
398.6488
 42
0.1014738264
  0
VERTEX
  8
LAYER_1
 10
275.448
 20
399.0759
 42
0.0914088598
  0
VERTEX
  8
LAYER_1
 10
274.6004
 20
399.2615
 42
0.01213375877
  0
VERTEX
  8
LAYER_1
 10
274.4628
 20
399.2647
  0
SEQEND
  0
POLYLINE
  8
LAYER_1
 40
0.05
 41
0.05
 66
1
 10
0
 20
0
 30
0
  0
VERTEX
  8
LAYER_1
 10
264.87
 20
395.2589
  0
VERTEX
  8
LAYER_1
 10
263.6883
 20
395.2589
  0
VERTEX
  8
LAYER_1
 10
263.6883
 20
396.9219
  0
VERTEX
  8
LAYER_1
 10
264.8193
 20
396.9219
 42
-0.05275806413
  0
VERTEX
  8
LAYER_1
 10
265.3631
 20
396.8743
 42
-0.1430657129
  0
VERTEX
  8
LAYER_1
 10
265.8747
 20
396.6211
 42
-0.1770511011
  0
VERTEX
  8
LAYER_1
 10
266.0421
 20
396.2122
 42
-0.02176307697
  0
VERTEX
  8
LAYER_1
 10
266.0451
 20
396.1334
 42
-0.1635613937
  0
VERTEX
  8
LAYER_1
 10
265.8826
 20
395.5937
 42
-0.1608951105
  0
VERTEX
  8
LAYER_1
 10
265.4704
 20
395.3331
 42
-0.07830107821
  0
VERTEX
  8
LAYER_1
 10
264.87
 20
395.2589
  0
SEQEND
  0
POLYLINE
  8
LAYER_1
 40
0.05
 41
0.05
 66
1
 10
0
 20
0
 30
0
 70
1
  0
VERTEX
  8
LAYER_1
 10
263.6883
 20
398.7732
  0
VERTEX
  8
LAYER_1
 10
264.9785
 20
398.7732
 42
-0.1381658882
  0
VERTEX
  8
LAYER_1
 10
265.6305
 20
398.6135
 42
-0.2604385785
  0
VERTEX
  8
LAYER_1
 10
265.8928
 20
398.0875
 42
-0.1867763055
  0
VERTEX
  8
LAYER_1
 10
265.7286
 20
397.6258
 42
-0.1639635045
  0
VERTEX
  8
LAYER_1
 10
265.2849
 20
397.3987
 42
-0.05311995908
  0
VERTEX
  8
LAYER_1
 10
264.902
 20
397.3618
  0
VERTEX
  8
LAYER_1
 10
263.6883
 20
397.3618
  0
SEQEND
  0
POLYLINE
  8
LAYER_1
 40
0.05
 41
0.05
 66
1
 10
0
 20
0
 30
0
  0
VERTEX
  8
LAYER_1
 10
265.6196
 20
397.1506
  0
VERTEX
  8
LAYER_1
 10
265.6196
 20
397.1618
 42
0.1370906713
  0
VERTEX
  8
LAYER_1
 10
266.2447
 20
397.464
 42
0.211814873
  0
VERTEX
  8
LAYER_1
 10
266.5095
 20
398.139
 42
0.1581789908
  0
VERTEX
  8
LAYER_1
 10
266.3379
 20
398.6906
 42
0.1384100717
  0
VERTEX
  8
LAYER_1
 10
265.8798
 20
399.0414
 42
0.1013642858
  0
VERTEX
  8
LAYER_1
 10
265.0873
 20
399.201
 42
0.006975573638
  0
VERTEX
  8
LAYER_1
 10
265.0098
 20
399.202
  0
VERTEX
  8
LAYER_1
 10
263.0975
 20
399.202
  0
VERTEX
  8
LAYER_1
 10
263.0975
 20
394.8307
  0
VERTEX
  8
LAYER_1
 10
264.8638
 20
394.8307
 42
0.08698062885
  0
VERTEX
  8
LAYER_1
 10
265.9157
 20
394.9927
 42
0.127478928
  0
VERTEX
  8
LAYER_1
 10
266.4309
 20
395.3556
 42
0.1417718506
  0
VERTEX
  8
LAYER_1
 10
266.6495
 20
395.9017
 42
0.03046965801
  0
VERTEX
  8
LAYER_1
 10
266.6614
 20
396.0988
 42
0.2294859749
  0
VERTEX
  8
LAYER_1
 10
266.2775
 20
396.8706
 42
0.1215377782
  0
VERTEX
  8
LAYER_1
 10
265.7042
 20
397.1355
 42
0.01431458495
  0
VERTEX
  8
LAYER_1
 10
265.6196
 20
397.1506
  0
SEQEND
  0
POLYLINE
  8
LAYER_1
 40
0.05
 41
0.05
 66
1
 10
0
 20
0
 30
0
  0
VERTEX
  8
LAYER_1
 10
255.3804
 20
385.2545
 42
-0.05827443014
  0
VERTEX
  8
LAYER_1
 10
254.1479
 20
384.4566
 42
-0.04511033051
  0
VERTEX
  8
LAYER_1
 10
252.4536
 20
383.791
 42
-0.03375494188
  0
VERTEX
  8
LAYER_1
 10
250.0651
 20
383.2464
 42
-0.01171791942
  0
VERTEX
  8
LAYER_1
 10
248.4852
 20
383.0206
 42
-0.008881956716
  0
VERTEX
  8
LAYER_1
 10
245.7221
 20
382.746
  0
VERTEX
  8
LAYER_1
 10
245.0589
 20
382.6871
 42
-0.02249235624
  0
VERTEX
  8
LAYER_1
 10
243.5011
 20
382.6168
 42
-0.03690341499
  0
VERTEX
  8
LAYER_1
 10
240.9484
 20
382.8048
 42
-0.03162874393
  0
VERTEX
  8
LAYER_1
 10
238.8643
 20
383.251
 42
-0.03174840645
  0
VERTEX
  8
LAYER_1
 10
236.8991
 20
383.9417
 42
-0.03205987389
  0
VERTEX
  8
LAYER_1
 10
235.075
 20
384.8589
 42
-0.03263071339
  0
VERTEX
  8
LAYER_1
 10
233.4137
 20
385.9847
 42
-0.03349006318
  0
VERTEX
  8
LAYER_1
 10
231.9374
 20
387.3011
 42
-0.03461650268
  0
VERTEX
  8
LAYER_1
 10
230.6679
 20
388.7905
 42
-0.03592435912
  0
VERTEX
  8
LAYER_1
 10
229.6272
 20
390.4347
 42
-0.0372535027
  0
VERTEX
  8
LAYER_1
 10
228.8372
 20
392.2161
 42
-0.05786282603
  0
VERTEX
  8
LAYER_1
 10
228.1704
 20
395.1059
 42
-0.02752751718
  0
VERTEX
  8
LAYER_1
 10
228.1263
 20
395.9021
 42
-0.05697968256
  0
VERTEX
  8
LAYER_1
 10
228.3139
 20
397.5309
 42
-0.04620439223
  0
VERTEX
  8
LAYER_1
 10
228.7934
 20
398.9776
 42
-0.04246009244
  0
VERTEX
  8
LAYER_1
 10
229.6503
 20
400.5657
 42
-0.03656192005
  0
VERTEX
  8
LAYER_1
 10
231.0249
 20
402.3772
 42
-0.0137605088
  0
VERTEX
  8
LAYER_1
 10
231.9381
 20
403.3714
 42
-0.01455498674
  0
VERTEX
  8
LAYER_1
 10
233.9454
 20
405.3134
  0
VERTEX
  8
LAYER_1
 10
235.0031
 20
406.3294
 42
-0.01776002607
  0
VERTEX
  8
LAYER_1
 10
236.6495
 20
407.8699
 42
-0.03948681369
  0
VERTEX
  8
LAYER_1
 10
238.2811
 20
409.079
 42
-0.0470648882
  0
VERTEX
  8
LAYER_1
 10
239.7518
 20
409.7982
 42
-0.04933993414
  0
VERTEX
  8
LAYER_1
 10
241.3242
 20
410.2137
 42
-0.01788807199
  0
VERTEX
  8
LAYER_1
 10
241.9794
 20
410.2964
 42
-0.02276715341
  0
VERTEX
  8
LAYER_1
 10
243.5366
 20
410.3667
 42
-0.03690759004
  0
VERTEX
  8
LAYER_1
 10
246.0891
 20
410.1787
 42
-0.03163073628
  0
VERTEX
  8
LAYER_1
 10
248.1732
 20
409.7324
 42
-0.03174900391
  0
VERTEX
  8
LAYER_1
 10
250.1383
 20
409.0417
 42
-0.03205930382
  0
VERTEX
  8
LAYER_1
 10
251.9625
 20
408.1245
 42
-0.03262928322
  0
VERTEX
  8
LAYER_1
 10
253.6237
 20
406.9987
 42
-0.03348814572
  0
VERTEX
  8
LAYER_1
 10
255.1001
 20
405.6821
 42
-0.03461452889
  0
VERTEX
  8
LAYER_1
 10
256.3696
 20
404.1927
 42
-0.03592280444
  0
VERTEX
  8
LAYER_1
 10
257.4104
 20
402.5484
 42
-0.03725284676
  0
VERTEX
  8
LAYER_1
 10
258.2004
 20
400.7671
 42
-0.05786411175
  0
VERTEX
  8
LAYER_1
 10
258.8672
 20
397.8772
 42
-0.02775302652
  0
VERTEX
  8
LAYER_1
 10
259.0164
 20
395.1976
 42
-0.03274993766
  0
VERTEX
  8
LAYER_1
 10
258.8392
 20
392.4209
 42
-0.03404497385
  0
VERTEX
  8
LAYER_1
 10
258.3978
 20
390.2396
 42
-0.04007547318
  0
VERTEX
  8
LAYER_1
 10
257.7085
 20
388.3565
 42
-0.04417216634
  0
VERTEX
  8
LAYER_1
 10
256.8318
 20
386.8365
 42
-0.04721463467
  0
VERTEX
  8
LAYER_1
 10
255.7875
 20
385.6196
 42
-0.01700971296
  0
VERTEX
  8
LAYER_1
 10
255.3804
 20
385.2545
  0
SEQEND
  0
POLYLINE
  8
LAYER_1
 40
0.05
 41
0.05
 66
1
 10
0
 20
0
 30
0
  0
VERTEX
  8
LAYER_1
 10
259.2455
 20
397.9111
 42
0.06045643612
  0
VERTEX
  8
LAYER_1
 10
258.5237
 20
400.9642
 42
0.03722199802
  0
VERTEX
  8
LAYER_1
 10
257.7003
 20
402.7738
 42
0.03634309149
  0
VERTEX
  8
LAYER_1
 10
256.6084
 20
404.4632
 42
0.03543677134
  0
VERTEX
  8
LAYER_1
 10
255.2613
 20
406.0088
 42
0.02593575174
  0
VERTEX
  8
LAYER_1
 10
254.0916
 20
407.0594
 42
0.03741535603
  0
VERTEX
  8
LAYER_1
 10
252.1441
 20
408.4051
 42
0.03497465995
  0
VERTEX
  8
LAYER_1
 10
250.0937
 20
409.4216
 42
0.03420811546
  0
VERTEX
  8
LAYER_1
 10
247.9069
 20
410.152
 42
0.03380635492
  0
VERTEX
  8
LAYER_1
 10
245.6182
 20
410.5843
 42
0.02985151976
  0
VERTEX
  8
LAYER_1
 10
243.5366
 20
410.7084
 42
0.02227717322
  0
VERTEX
  8
LAYER_1
 10
241.9411
 20
410.6364
 42
0.04964862375
  0
VERTEX
  8
LAYER_1
 10
240.1381
 20
410.2951
 42
0.04680569772
  0
VERTEX
  8
LAYER_1
 10
238.6567
 20
409.697
 42
0.04565220968
  0
VERTEX
  8
LAYER_1
 10
237.103
 20
408.7023
 42
0.01709579716
  0
VERTEX
  8
LAYER_1
 10
236.2716
 20
408.018
 42
0.01469603663
  0
VERTEX
  8
LAYER_1
 10
234.7271
 20
406.5643
  0
VERTEX
  8
LAYER_1
 10
233.6715
 20
405.5498
 42
0.01406740362
  0
VERTEX
  8
LAYER_1
 10
231.6911
 20
403.6365
 42
0.02972210799
  0
VERTEX
  8
LAYER_1
 10
229.9381
 20
401.6189
 42
0.03716251792
  0
VERTEX
  8
LAYER_1
 10
228.8278
 20
399.9061
 42
0.04424038633
  0
VERTEX
  8
LAYER_1
 10
228.1344
 20
398.2988
 42
0.04915627538
  0
VERTEX
  8
LAYER_1
 10
227.7963
 20
396.7593
 42
0.02875165725
  0
VERTEX
  8
LAYER_1
 10
227.747
 20
395.9052
 42
0.02747074167
  0
VERTEX
  8
LAYER_1
 10
227.7935
 20
395.072
 42
0.06042905997
  0
VERTEX
  8
LAYER_1
 10
228.5151
 20
392.0182
 42
0.03722706254
  0
VERTEX
  8
LAYER_1
 10
229.3383
 20
390.2086
 42
0.03636218909
  0
VERTEX
  8
LAYER_1
 10
230.4299
 20
388.5194
 42
0.03546648319
  0
VERTEX
  8
LAYER_1
 10
231.7766
 20
386.9744
 42
0.02596272846
  0
VERTEX
  8
LAYER_1
 10
232.946
 20
385.9244
 42
0.03741517953
  0
VERTEX
  8
LAYER_1
 10
234.8935
 20
384.5786
 42
0.03497862242
  0
VERTEX
  8
LAYER_1
 10
236.9438
 20
383.5619
 42
0.03421380376
  0
VERTEX
  8
LAYER_1
 10
239.1306
 20
382.8314
 42
0.03381123406
  0
VERTEX
  8
LAYER_1
 10
241.4194
 20
382.3992
 42
0.02985309434
  0
VERTEX
  8
LAYER_1
 10
243.5011
 20
382.275
 42
0.02243337254
  0
VERTEX
  8
LAYER_1
 10
245.0972
 20
382.347
  0
VERTEX
  8
LAYER_1
 10
245.7573
 20
382.4059
 42
0.01209709131
  0
VERTEX
  8
LAYER_1
 10
248.9111
 20
382.7291
 42
0.02667465712
  0
VERTEX
  8
LAYER_1
 10
251.7524
 20
383.2418
 42
0.03717421193
  0
VERTEX
  8
LAYER_1
 10
253.7402
 20
383.8847
 42
0.04664398126
  0
VERTEX
  8
LAYER_1
 10
255.1255
 20
384.6195
 42
0.02643428168
  0
VERTEX
  8
LAYER_1
 10
255.6395
 20
385.0041
 42
0.05228234641
  0
VERTEX
  8
LAYER_1
 10
256.886
 20
386.2922
 42
0.04478755371
  0
VERTEX
  8
LAYER_1
 10
257.8141
 20
387.7223
 42
0.04104964052
  0
VERTEX
  8
LAYER_1
 10
258.5523
 20
389.4392
 42
0.02613567289
  0
VERTEX
  8
LAYER_1
 10
258.952
 20
390.8559
 42
0.03626730167
  0
VERTEX
  8
LAYER_1
 10
259.3309
 20
393.3504
 42
0.02074344722
  0
VERTEX
  8
LAYER_1
 10
259.4029
 20
395.1428
 42
0.02791368813
  0
VERTEX
  8
LAYER_1
 10
259.2455
 20
397.9111
  0
SEQEND
  0
POLYLINE
  8
LAYER_1
 40
0.05
 41
0.05
 66
1
 10
0
 20
0
 30
0
 70
1
  0
VERTEX
  8
LAYER_1
 10
254.576
 20
396.3896
 42
-0.04032753284
  0
VERTEX
  8
LAYER_1
 10
254.3894
 20
394.0192
 42
-0.04012161219
  0
VERTEX
  8
LAYER_1
 10
253.9339
 20
392.1785
 42
-0.04238898037
  0
VERTEX
  8
LAYER_1
 10
253.2811
 20
390.6796
 42
-0.04766533917
  0
VERTEX
  8
LAYER_1
 10
252.4137
 20
389.3941
 42
-0.05216108607
  0
VERTEX
  8
LAYER_1
 10
251.34
 20
388.3427
 42
-0.06132027517
  0
VERTEX
  8
LAYER_1
 10
250.0904
 20
387.5944
 42
-0.04372997586
  0
VERTEX
  8
LAYER_1
 10
248.3291
 20
386.9731
 42
-0.03008929619
  0
VERTEX
  8
LAYER_1
 10
245.7612
 20
386.4505
 42
-0.008990725474
  0
VERTEX
  8
LAYER_1
 10
243.3454
 20
386.1318
  0
VERTEX
  8
LAYER_1
 10
243.1324
 20
386.1061
 42
-0.04222384689
  0
VERTEX
  8
LAYER_1
 10
240.9096
 20
386.0163
 42
-0.04179218311
  0
VERTEX
  8
LAYER_1
 10
238.9868
 20
386.267
 42
-0.001444224648
  0
VERTEX
  8
LAYER_1
 10
238.9246
 20
386.2808
 42
-0.08082836933
  0
VERTEX
  8
LAYER_1
 10
235.3868
 20
387.7048
 42
-0.1843096854
  0
VERTEX
  8
LAYER_1
 10
230.087
 20
394.5527
 42
-0.03418230846
  0
VERTEX
  8
LAYER_1
 10
229.7476
 20
396.0937
 42
-0.03659004632
  0
VERTEX
  8
LAYER_1
 10
229.6769
 20
397.039
 42
-0.06060583724
  0
VERTEX
  8
LAYER_1
 10
229.863
 20
398.5607
 42
-0.04987526961
  0
VERTEX
  8
LAYER_1
 10
230.3464
 20
399.9184
 42
-0.0463619724
  0
VERTEX
  8
LAYER_1
 10
231.2391
 20
401.435
 42
-0.03788267814
  0
VERTEX
  8
LAYER_1
 10
232.6393
 20
403.112
 42
-0.02443806133
  0
VERTEX
  8
LAYER_1
 10
234.5073
 20
404.8754
  0
VERTEX
  8
LAYER_1
 10
235.432
 20
405.7079
 42
-0.02104820943
  0
VERTEX
  8
LAYER_1
 10
236.928
 20
407.0131
 42
-0.0463007719
  0
VERTEX
  8
LAYER_1
 10
238.3581
 20
407.955
 42
-0.05408370526
  0
VERTEX
  8
LAYER_1
 10
239.6891
 20
408.4714
 42
-0.04458532955
  0
VERTEX
  8
LAYER_1
 10
240.9228
 20
408.6836
 42
-0.02156597693
  0
VERTEX
  8
LAYER_1
 10
242.0982
 20
408.7341
 42
-0.05799360853
  0
VERTEX
  8
LAYER_1
 10
245.1855
 20
408.3751
 42
-0.03911379441
  0
VERTEX
  8
LAYER_1
 10
247.144
 20
407.7466
 42
-0.04175291897
  0
VERTEX
  8
LAYER_1
 10
249.0576
 20
406.7687
 42
-0.04248080691
  0
VERTEX
  8
LAYER_1
 10
250.749
 20
405.506
 42
-0.04121647155
  0
VERTEX
  8
LAYER_1
 10
252.096
 20
404.0933
 42
-0.04015516692
  0
VERTEX
  8
LAYER_1
 10
253.1138
 20
402.5994
 42
-0.04205147242
  0
VERTEX
  8
LAYER_1
 10
253.8716
 20
400.9592
 42
-0.05016671586
  0
VERTEX
  8
LAYER_1
 10
254.3838
 20
398.9341
 42
-0.03627503264
  0
VERTEX
  8
LAYER_1
 10
254.576
 20
396.3903
  0
SEQEND
  0
POLYLINE
  8
LAYER_1
 40
0.05
 41
0.05
 66
1
 10
0
 20
0
 30
0
  0
VERTEX
  8
LAYER_1
 10
242.0982
 20
409.1633
 42
0.02054480718
  0
VERTEX
  8
LAYER_1
 10
240.8794
 20
409.1115
 42
0.05546189218
  0
VERTEX
  8
LAYER_1
 10
239.2409
 20
408.7902
 42
0.05251280522
  0
VERTEX
  8
LAYER_1
 10
237.8623
 20
408.1842
 42
0.04491440627
  0
VERTEX
  8
LAYER_1
 10
236.4245
 20
407.1817
 42
0.01589170313
  0
VERTEX
  8
LAYER_1
 10
235.0943
 20
406.0088
  0
VERTEX
  8
LAYER_1
 10
235.0516
 20
405.9704
  0
VERTEX
  8
LAYER_1
 10
234.1752
 20
405.1837
 42
0.0293495002
  0
VERTEX
  8
LAYER_1
 10
231.878
 20
402.9614
 42
0.03631513803
  0
VERTEX
  8
LAYER_1
 10
230.5921
 20
401.3103
 42
0.04483757134
  0
VERTEX
  8
LAYER_1
 10
229.767
 20
399.7758
 42
0.04994149557
  0
VERTEX
  8
LAYER_1
 10
229.3255
 20
398.3399
 42
0.04854188454
  0
VERTEX
  8
LAYER_1
 10
229.1984
 20
397.0412
 42
0.03715510951
  0
VERTEX
  8
LAYER_1
 10
229.2739
 20
396.0361
 42
0.06322709892
  0
VERTEX
  8
LAYER_1
 10
230.0921
 20
393.1338
 42
0.05619979524
  0
VERTEX
  8
LAYER_1
 10
231.441
 20
390.7396
 42
0.07329388279
  0
VERTEX
  8
LAYER_1
 10
233.9888
 20
388.1195
 42
0.07435656706
  0
VERTEX
  8
LAYER_1
 10
237.2245
 20
386.3329
 42
0.03356134389
  0
VERTEX
  8
LAYER_1
 10
238.8095
 20
385.8634
 42
0.04386441913
  0
VERTEX
  8
LAYER_1
 10
240.8889
 20
385.5883
 42
0.01154452605
  0
VERTEX
  8
LAYER_1
 10
241.4922
 20
385.5744
 42
0.03056722751
  0
VERTEX
  8
LAYER_1
 10
243.1958
 20
385.68
  0
VERTEX
  8
LAYER_1
 10
243.4036
 20
385.706
 42
0.01280223546
  0
VERTEX
  8
LAYER_1
 10
246.2314
 20
386.0896
 42
0.02992648603
  0
VERTEX
  8
LAYER_1
 10
248.8513
 20
386.672
 42
0.04180868802
  0
VERTEX
  8
LAYER_1
 10
250.5737
 20
387.3405
 42
0.04904239712
  0
VERTEX
  8
LAYER_1
 10
251.6556
 20
388.0202
 42
0.05429271357
  0
VERTEX
  8
LAYER_1
 10
252.8247
 20
389.1727
 42
0.04834550018
  0
VERTEX
  8
LAYER_1
 10
253.7261
 20
390.5238
 42
0.04348634732
  0
VERTEX
  8
LAYER_1
 10
254.402
 20
392.0928
 42
0.03859414124
  0
VERTEX
  8
LAYER_1
 10
254.8436
 20
393.8579
 42
0.03692242887
  0
VERTEX
  8
LAYER_1
 10
255.0473
 20
395.9664
 42
0.006640100582
  0
VERTEX
  8
LAYER_1
 10
255.0528
 20
396.393
 42
0.03635952888
  0
VERTEX
  8
LAYER_1
 10
254.8626
 20
398.9493
 42
0.0005512043621
  0
VERTEX
  8
LAYER_1
 10
254.8565
 20
398.9906
 42
0.06575546924
  0
VERTEX
  8
LAYER_1
 10
254.077
 20
401.7168
 42
0.04170143468
  0
VERTEX
  8
LAYER_1
 10
253.1905
 20
403.3677
 42
0.0398725754
  0
VERTEX
  8
LAYER_1
 10
252.0445
 20
404.8585
 42
0.0383116389
  0
VERTEX
  8
LAYER_1
 10
250.6679
 20
406.1659
 42
0.03721932665
  0
VERTEX
  8
LAYER_1
 10
249.0898
 20
407.2669
 42
0.03665710312
  0
VERTEX
  8
LAYER_1
 10
247.3392
 20
408.1382
 42
0.05502209764
  0
VERTEX
  8
LAYER_1
 10
244.4533
 20
408.9641
 42
0.04240805629
  0
VERTEX
  8
LAYER_1
 10
242.0982
 20
409.1633
  0
SEQEND
  0
POLYLINE
  8
LAYER_1
 40
0.05
 41
0.05
 66
1
 10
0
 20
0
 30
0
  0
VERTEX
  8
LAYER_1
 10
250.1163
 20
397.8038
 42
-0.04622281258
  0
VERTEX
  8
LAYER_1
 10
249.9379
 20
395.8631
 42
-0.04705775267
  0
VERTEX
  8
LAYER_1
 10
249.4872
 20
394.2945
 42
-0.05162027971
  0
VERTEX
  8
LAYER_1
 10
248.813
 20
393.0029
 42
-0.0545594093
  0
VERTEX
  8
LAYER_1
 10
247.9423
 20
391.963
 42
-0.03373583354
  0
VERTEX
  8
LAYER_1
 10
247.3086
 20
391.4342
 42
-0.06243616234
  0
VERTEX
  8
LAYER_1
 10
245.9572
 20
390.7079
 42
-0.02017897561
  0
VERTEX
  8
LAYER_1
 10
245.0848
 20
390.3946
 42
-0.01606019147
  0
VERTEX
  8
LAYER_1
 10
243.9868
 20
390.0879
 42
-0.01916045493
  0
VERTEX
  8
LAYER_1
 10
241.1942
 20
389.5228
 42
-0.04918783806
  0
VERTEX
  8
LAYER_1
 10
239.3557
 20
389.3775
 42
-0.04720000725
  0
VERTEX
  8
LAYER_1
 10
238.0726
 20
389.532
 42
-0.08100706076
  0
VERTEX
  8
LAYER_1
 10
235.8108
 20
390.4427
 42
-0.04850340653
  0
VERTEX
  8
LAYER_1
 10
234.5173
 20
391.4051
 42
-0.04464584876
  0
VERTEX
  8
LAYER_1
 10
233.3732
 20
392.641
 42
-0.04134609408
  0
VERTEX
  8
LAYER_1
 10
232.4185
 20
394.1081
 42
-0.06489896365
  0
VERTEX
  8
LAYER_1
 10
231.3894
 20
396.7914
 42
-0.007408240633
  0
VERTEX
  8
LAYER_1
 10
231.3237
 20
397.0881
 42
-0.05044871394
  0
VERTEX
  8
LAYER_1
 10
231.2103
 20
398.1862
 42
-0.06591018749
  0
VERTEX
  8
LAYER_1
 10
231.396
 20
399.5785
 42
-0.05740584793
  0
VERTEX
  8
LAYER_1
 10
231.9255
 20
400.9105
 42
-0.04923584891
  0
VERTEX
  8
LAYER_1
 10
232.8358
 20
402.2774
 42
-0.04002711752
  0
VERTEX
  8
LAYER_1
 10
234.164
 20
403.6736
 42
-0.0175241318
  0
VERTEX
  8
LAYER_1
 10
235.0637
 20
404.4341
  0
VERTEX
  8
LAYER_1
 10
235.7906
 20
405.0252
 42
-0.02483419191
  0
VERTEX
  8
LAYER_1
 10
237.0742
 20
406.0286
 42
-0.05459521348
  0
VERTEX
  8
LAYER_1
 10
238.3236
 20
406.7174
 42
-0.07759522182
  0
VERTEX
  8
LAYER_1
 10
239.8686
 20
407.0721
 42
-0.01858809044
  0
VERTEX
  8
LAYER_1
 10
240.6571
 20
407.1018
 42
-0.06661855202
  0
VERTEX
  8
LAYER_1
 10
243.3127
 20
406.7468
 42
-0.06097388439
  0
VERTEX
  8
LAYER_1
 10
245.5198
 20
405.8424
 42
-0.04116897752
  0
VERTEX
  8
LAYER_1
 10
246.8123
 20
404.9694
 42
-0.04221209418
  0
VERTEX
  8
LAYER_1
 10
247.9285
 20
403.9058
 42
-0.04379328941
  0
VERTEX
  8
LAYER_1
 10
248.8403
 20
402.6734
 42
-0.04565266617
  0
VERTEX
  8
LAYER_1
 10
249.5192
 20
401.2942
 42
-0.04133471862
  0
VERTEX
  8
LAYER_1
 10
249.9
 20
399.984
 42
-0.04640370182
  0
VERTEX
  8
LAYER_1
 10
250.1147
 20
397.9949
 42
-0.004219875223
  0
VERTEX
  8
LAYER_1
 10
250.1163
 20
397.8038
  0
SEQEND
  0
POLYLINE
  8
LAYER_1
 40
0.05
 41
0.05
 66
1
 10
0
 20
0
 30
0
  0
VERTEX
  8
LAYER_1
 10
240.6571
 20
407.6189
 42
0.01833415017
  0
VERTEX
  8
LAYER_1
 10
239.8196
 20
407.5872
 42
0.06117899948
  0
VERTEX
  8
LAYER_1
 10
238.4024
 20
407.3041
 42
0.05858943364
  0
VERTEX
  8
LAYER_1
 10
237.1222
 20
406.6982
 42
0.02218633762
  0
VERTEX
  8
LAYER_1
 10
236.4418
 20
406.2353
 42
0.01417419921
  0
VERTEX
  8
LAYER_1
 10
235.4079
 20
405.4099
  0
VERTEX
  8
LAYER_1
 10
234.6861
 20
404.8218
 42
0.03702044101
  0
VERTEX
  8
LAYER_1
 10
232.9347
 20
403.2281
 42
0.04226391319
  0
VERTEX
  8
LAYER_1
 10
231.7894
 20
401.7803
 42
0.05045770392
  0
VERTEX
  8
LAYER_1
 10
231.0576
 20
400.37
 42
0.05365197093
  0
VERTEX
  8
LAYER_1
 10
230.7039
 20
399.0662
 42
0.0901678658
  0
VERTEX
  8
LAYER_1
 10
230.7587
 20
396.9942
 42
0.04472560916
  0
VERTEX
  8
LAYER_1
 10
231.3307
 20
395.1046
 42
0.06002117723
  0
VERTEX
  8
LAYER_1
 10
232.6654
 20
392.6679
 42
0.04241753835
  0
VERTEX
  8
LAYER_1
 10
233.8213
 20
391.3167
 42
0.04580552842
  0
VERTEX
  8
LAYER_1
 10
235.1417
 20
390.2376
 42
0.04594228399
  0
VERTEX
  8
LAYER_1
 10
236.5023
 20
389.4948
 42
0.04653096864
  0
VERTEX
  8
LAYER_1
 10
237.9338
 20
389.0307
 42
0.05622371618
  0
VERTEX
  8
LAYER_1
 10
239.5761
 20
388.8571
 42
0.04392039405
  0
VERTEX
  8
LAYER_1
 10
241.3041
 20
389.0155
 42
0.01391541018
  0
VERTEX
  8
LAYER_1
 10
243.7006
 20
389.4853
 42
0.03320118206
  0
VERTEX
  8
LAYER_1
 10
246.006
 20
390.1632
 42
0.04940175457
  0
VERTEX
  8
LAYER_1
 10
247.4503
 20
390.882
 42
0.01170171089
  0
VERTEX
  8
LAYER_1
 10
247.6686
 20
391.0323
 42
0.1099895332
  0
VERTEX
  8
LAYER_1
 10
249.5993
 20
393.2201
 42
0.05053100551
  0
VERTEX
  8
LAYER_1
 10
250.2232
 20
394.6709
 42
0.04522023577
  0
VERTEX
  8
LAYER_1
 10
250.595
 20
396.3525
 42
0.032873338
  0
VERTEX
  8
LAYER_1
 10
250.6903
 20
397.8131
 42
0.04445364487
  0
VERTEX
  8
LAYER_1
 10
250.5096
 20
399.8527
 42
0.005163693233
  0
VERTEX
  8
LAYER_1
 10
250.4667
 20
400.0765
 42
0.07329658684
  0
VERTEX
  8
LAYER_1
 10
249.595
 20
402.4855
 42
0.04469139288
  0
VERTEX
  8
LAYER_1
 10
248.7013
 20
403.8425
 42
0.04296855473
  0
VERTEX
  8
LAYER_1
 10
247.5812
 20
405.0279
 42
0.04166344908
  0
VERTEX
  8
LAYER_1
 10
246.2647
 20
406.0186
 42
0.04094334999
  0
VERTEX
  8
LAYER_1
 10
244.7819
 20
406.7913
 42
0.06135981035
  0
VERTEX
  8
LAYER_1
 10
242.3116
 20
407.4914
 42
0.0386535247
  0
VERTEX
  8
LAYER_1
 10
240.6571
 20
407.6189
  0
SEQEND
  0
POLYLINE
  8
LAYER_1
 40
0.05
 41
0.05
 66
1
 10
0
 20
0
 30
0
  0
VERTEX
  8
LAYER_1
 10
243.2861
 20
394.533
 42
-0.02721129428
  0
VERTEX
  8
LAYER_1
 10
242.5304
 20
394.1206
 42
-0.0187044968
  0
VERTEX
  8
LAYER_1
 10
241.5764
 20
393.7075
 42
-0.02602760493
  0
VERTEX
  8
LAYER_1
 10
239.236
 20
392.9342
 42
-0.06622302198
  0
VERTEX
  8
LAYER_1
 10
237.8287
 20
392.7183
 42
-0.05300503049
  0
VERTEX
  8
LAYER_1
 10
237.2207
 20
392.7846
 42
-0.07724842316
  0
VERTEX
  8
LAYER_1
 10
236.1616
 20
393.2025
 42
-0.06692610415
  0
VERTEX
  8
LAYER_1
 10
235.1727
 20
393.9736
 42
-0.05267645642
  0
VERTEX
  8
LAYER_1
 10
234.2668
 20
395.1003
 42
-0.04370986176
  0
VERTEX
  8
LAYER_1
 10
233.4102
 20
396.6986
 42
-0.02876769454
  0
VERTEX
  8
LAYER_1
 10
232.8929
 20
398.0966
 42
-0.1083173289
  0
VERTEX
  8
LAYER_1
 10
232.7528
 20
399.8994
 42
-0.06388589218
  0
VERTEX
  8
LAYER_1
 10
233.0641
 20
401.052
 42
-0.05847781496
  0
VERTEX
  8
LAYER_1
 10
233.6719
 20
402.1491
 42
0.07960798064
  0
VERTEX
  8
LAYER_1
 10
233.3367
 20
401.034
 42
0.03262391564
  0
VERTEX
  8
LAYER_1
 10
233.3067
 20
400.5747
 42
0.1264142843
  0
VERTEX
  8
LAYER_1
 10
233.7535
 20
398.8418
 42
-0.02359670294
  0
VERTEX
  8
LAYER_1
 10
234.1514
 20
397.968
  0
VERTEX
  8
LAYER_1
 10
234.1638
 20
397.938
 42
0.0293434746
  0
VERTEX
  8
LAYER_1
 10
234.7363
 20
396.6998
 42
0.07178018796
  0
VERTEX
  8
LAYER_1
 10
235.3889
 20
395.8056
 42
0.1004357486
  0
VERTEX
  8
LAYER_1
 10
235.9959
 20
395.4194
 42
0.03258188139
  0
VERTEX
  8
LAYER_1
 10
236.1827
 20
395.3655
 42
0.0550575773
  0
VERTEX
  8
LAYER_1
 10
236.4434
 20
395.3373
 42
0.06106398123
  0
VERTEX
  8
LAYER_1
 10
236.8376
 20
395.3899
 42
0.04345568332
  0
VERTEX
  8
LAYER_1
 10
237.2601
 20
395.5408
 42
0.03069567626
  0
VERTEX
  8
LAYER_1
 10
237.7771
 20
395.8171
 42
0.01785508378
  0
VERTEX
  8
LAYER_1
 10
238.6263
 20
396.3861
 42
-0.05262222163
  0
VERTEX
  8
LAYER_1
 10
239.6381
 20
397.0264
 42
0.07214311704
  0
VERTEX
  8
LAYER_1
 10
240.7111
 20
397.6959
 42
0.06926298363
  0
VERTEX
  8
LAYER_1
 10
241.472
 20
398.5479
 42
0.07299808732
  0
VERTEX
  8
LAYER_1
 10
241.9496
 20
399.5546
 42
0.07330317032
  0
VERTEX
  8
LAYER_1
 10
242.1034
 20
400.5862
 42
0.1264622392
  0
VERTEX
  8
LAYER_1
 10
241.6562
 20
402.3188
 42
0.1120418197
  0
VERTEX
  8
LAYER_1
 10
240.4654
 20
403.6657
 42
0.06633480058
  0
VERTEX
  8
LAYER_1
 10
239.431
 20
404.2238
 42
0.06394471632
  0
VERTEX
  8
LAYER_1
 10
238.2499
 20
404.5077
 42
0.02748955872
  0
VERTEX
  8
LAYER_1
 10
237.7013
 20
404.5378
 42
0.06932538093
  0
VERTEX
  8
LAYER_1
 10
236.3833
 20
404.3556
 42
0.02537391146
  0
VERTEX
  8
LAYER_1
 10
235.9291
 20
404.2008
  0
VERTEX
  8
LAYER_1
 10
236.0032
 20
404.2516
 42
-0.03092924578
  0
VERTEX
  8
LAYER_1
 10
237.1072
 20
404.9528
 42
-0.06755899531
  0
VERTEX
  8
LAYER_1
 10
238.2034
 20
405.3748
 42
-0.04026593703
  0
VERTEX
  8
LAYER_1
 10
238.8071
 20
405.4588
  0
VERTEX
  8
LAYER_1
 10
239.2081
 20
405.4705
 42
-0.1642307932
  0
VERTEX
  8
LAYER_1
 10
243.3019
 20
404.0769
 42
-0.05430911819
  0
VERTEX
  8
LAYER_1
 10
244.2942
 20
403.1176
 42
-0.05688516926
  0
VERTEX
  8
LAYER_1
 10
245.0489
 20
401.9636
 42
-0.04327013929
  0
VERTEX
  8
LAYER_1
 10
245.4234
 20
401.0201
 42
-0.05896025715
  0
VERTEX
  8
LAYER_1
 10
245.6964
 20
399.4718
 42
-0.01337882599
  0
VERTEX
  8
LAYER_1
 10
245.7056
 20
399.1327
 42
-0.06299903198
  0
VERTEX
  8
LAYER_1
 10
245.5196
 20
397.6514
 42
-0.06135260942
  0
VERTEX
  8
LAYER_1
 10
245.0244
 20
396.3938
 42
-0.06213030658
  0
VERTEX
  8
LAYER_1
 10
244.2752
 20
395.3523
 42
-0.06488081123
  0
VERTEX
  8
LAYER_1
 10
243.2861
 20
394.533
  0
SEQEND
  0
POLYLINE
  8
LAYER_1
 40
0.05
 41
0.05
 66
1
 10
0
 20
0
 30
0
  0
VERTEX
  8
LAYER_1
 10
236.1093
 20
403.5132
 42
-0.1050367943
  0
VERTEX
  8
LAYER_1
 10
237.7013
 20
403.8458
 42
-0.07470966604
  0
VERTEX
  8
LAYER_1
 10
238.896
 20
403.6675
 42
-0.07307072888
  0
VERTEX
  8
LAYER_1
 10
239.8858
 20
403.1952
 42
-0.07565143839
  0
VERTEX
  8
LAYER_1
 10
240.6525
 20
402.4885
 42
-0.04347149853
  0
VERTEX
  8
LAYER_1
 10
240.9665
 20
402.0147
 42
-0.08734717228
  0
VERTEX
  8
LAYER_1
 10
241.3025
 20
401.0255
 42
-0.03736648513
  0
VERTEX
  8
LAYER_1
 10
241.3351
 20
400.5873
 42
-0.1282780795
  0
VERTEX
  8
LAYER_1
 10
240.9497
 20
399.1272
 42
-0.07969108633
  0
VERTEX
  8
LAYER_1
 10
240.2973
 20
398.3001
 42
-0.08362691552
  0
VERTEX
  8
LAYER_1
 10
239.2984
 20
397.6476
 42
0.03660909828
  0
VERTEX
  8
LAYER_1
 10
238.7747
 20
397.3569
 42
0.009559353919
  0
VERTEX
  8
LAYER_1
 10
238.1626
 20
396.9393
 42
-0.03364555526
  0
VERTEX
  8
LAYER_1
 10
237.1193
 20
396.2607
 42
-0.04979061979
  0
VERTEX
  8
LAYER_1
 10
236.6868
 20
396.071
 42
-0.07453091897
  0
VERTEX
  8
LAYER_1
 10
236.4434
 20
396.0294
  0
VERTEX
  8
LAYER_1
 10
236.3666
 20
396.0372
 42
-0.09253982565
  0
VERTEX
  8
LAYER_1
 10
236.108
 20
396.1521
 42
-0.05940361751
  0
VERTEX
  8
LAYER_1
 10
235.8663
 20
396.3655
 42
-0.04085398019
  0
VERTEX
  8
LAYER_1
 10
235.6055
 20
396.7091
 42
-0.02901746304
  0
VERTEX
  8
LAYER_1
 10
235.2925
 20
397.268
 42
-0.01544565071
  0
VERTEX
  8
LAYER_1
 10
234.8876
 20
398.1723
 42
0.03060944273
  0
VERTEX
  8
LAYER_1
 10
234.4432
 20
399.1458
 42
-0.08670487522
  0
VERTEX
  8
LAYER_1
 10
234.1074
 20
400.1358
 42
-0.03746431519
  0
VERTEX
  8
LAYER_1
 10
234.0746
 20
400.5747
 42
-0.1282226504
  0
VERTEX
  8
LAYER_1
 10
234.4597
 20
402.0342
 42
-0.0796639637
  0
VERTEX
  8
LAYER_1
 10
235.1115
 20
402.8609
 42
-0.08364240524
  0
VERTEX
  8
LAYER_1
 10
236.1093
 20
403.5132
  0
SEQEND
  0
POLYLINE
  8
LAYER_1
 40
0.05
 41
0.05
 66
1
 10
0
 20
0
 30
0
  0
VERTEX
  8
LAYER_1
 10
239.2081
 20
406.0748
  0
VERTEX
  8
LAYER_1
 10
238.7623
 20
406.062
 42
0.07190941391
  0
VERTEX
  8
LAYER_1
 10
237.5013
 20
405.8053
 42
0.05818515184
  0
VERTEX
  8
LAYER_1
 10
236.3078
 20
405.2048
 42
0.009037104496
  0
VERTEX
  8
LAYER_1
 10
235.6063
 20
404.7395
  0
VERTEX
  8
LAYER_1
 10
235.2073
 20
404.469
 42
0.05129523901
  0
VERTEX
  8
LAYER_1
 10
233.826
 20
403.3328
 42
0.05281546914
  0
VERTEX
  8
LAYER_1
 10
232.8932
 20
402.1581
 42
0.05583518202
  0
VERTEX
  8
LAYER_1
 10
232.3208
 20
400.9736
 42
0.06201351184
  0
VERTEX
  8
LAYER_1
 10
232.0555
 20
399.735
 42
0.02100659237
  0
VERTEX
  8
LAYER_1
 10
232.0385
 20
399.3303
 42
0.07383933055
  0
VERTEX
  8
LAYER_1
 10
232.2463
 20
397.9376
 42
0.04061820717
  0
VERTEX
  8
LAYER_1
 10
233.0345
 20
395.9513
 42
0.04356287975
  0
VERTEX
  8
LAYER_1
 10
233.986
 20
394.3813
 42
0.04996763323
  0
VERTEX
  8
LAYER_1
 10
234.9603
 20
393.3081
 42
0.0594143845
  0
VERTEX
  8
LAYER_1
 10
235.987
 20
392.5921
 42
0.06550461047
  0
VERTEX
  8
LAYER_1
 10
237.057
 20
392.1979
 42
0.05475395666
  0
VERTEX
  8
LAYER_1
 10
237.8525
 20
392.1142
 42
0.0653000991
  0
VERTEX
  8
LAYER_1
 10
239.2585
 20
392.31
 42
0.005854945987
  0
VERTEX
  8
LAYER_1
 10
239.4341
 20
392.3571
 42
0.02993081373
  0
VERTEX
  8
LAYER_1
 10
242.2474
 20
393.3187
 42
0.03710391947
  0
VERTEX
  8
LAYER_1
 10
243.6713
 20
394.0376
 42
0.1212869794
  0
VERTEX
  8
LAYER_1
 10
245.5469
 20
395.9859
 42
0.0547198612
  0
VERTEX
  8
LAYER_1
 10
246.0765
 20
397.1797
 42
0.05334914771
  0
VERTEX
  8
LAYER_1
 10
246.3461
 20
398.4936
 42
0.02426656451
  0
VERTEX
  8
LAYER_1
 10
246.377
 20
399.1336
 42
0.05760198177
  0
VERTEX
  8
LAYER_1
 10
246.1904
 20
400.7332
 42
0.015498624
  0
VERTEX
  8
LAYER_1
 10
246.0718
 20
401.1779
 42
0.08322493499
  0
VERTEX
  8
LAYER_1
 10
245.1216
 20
403.1035
 42
0.05055421011
  0
VERTEX
  8
LAYER_1
 10
244.207
 20
404.1377
 42
0.04879061922
  0
VERTEX
  8
LAYER_1
 10
243.0992
 20
404.9779
 42
0.07219337174
  0
VERTEX
  8
LAYER_1
 10
241.1557
 20
405.8167
 42
0.06605428465
  0
VERTEX
  8
LAYER_1
 10
239.2081
 20
406.0748
  0
SEQEND
  0
ENDBLK
  0
BLOCK
  8
LAYER_1
  2
AIGNBL01020007
 70
64
 10
0
 20
0
 30
0
  3
AIGNBL01020007
  0
POLYLINE
  8
LAYER_1
 40
0.1764
 41
0.1764
 66
1
 10
0
 20
0
 30
0
  0
VERTEX
  8
LAYER_1
 10
231.0522
 20
337.4039
 42
-0.008421790616
  0
VERTEX
  8
LAYER_1
 10
230.3346
 20
340.2187
 42
-0.00769515696
  0
VERTEX
  8
LAYER_1
 10
229.6804
 20
343.184
 42
-0.007158172272
  0
VERTEX
  8
LAYER_1
 10
229.083
 20
346.3398
  0
VERTEX
  8
LAYER_1
 10
228.7929
 20
348.0623
  0
VERTEX
  8
LAYER_1
 10
228.5359
 20
349.7302
  0
VERTEX
  8
LAYER_1
 10
228.2996
 20
351.4073
  0
VERTEX
  8
LAYER_1
 10
228.1098
 20
352.9116
  0
VERTEX
  8
LAYER_1
 10
227.962
 20
354.2605
  0
VERTEX
  8
LAYER_1
 10
227.8435
 20
355.5986
  0
VERTEX
  8
LAYER_1
 10
227.7746
 20
356.7234
  0
VERTEX
  8
LAYER_1
 10
227.748
 20
357.6936
  0
VERTEX
  8
LAYER_1
 10
227.7584
 20
358.5345
 42
-0.01611666258
  0
VERTEX
  8
LAYER_1
 10
227.8142
 20
359.3622
 42
-0.02188695452
  0
VERTEX
  8
LAYER_1
 10
227.9313
 20
360.1877
 42
-0.02437165208
  0
VERTEX
  8
LAYER_1
 10
228.0994
 20
360.8851
 42
-0.03007675764
  0
VERTEX
  8
LAYER_1
 10
228.3299
 20
361.5194
 42
-0.03359315737
  0
VERTEX
  8
LAYER_1
 10
228.6317
 20
362.1026
  0
VERTEX
  8
LAYER_1
 10
228.7912
 20
362.3462
  0
VERTEX
  8
LAYER_1
 10
229.0103
 20
362.6339
 42
-0.03308350945
  0
VERTEX
  8
LAYER_1
 10
229.4602
 20
363.1051
 42
-0.02997343096
  0
VERTEX
  8
LAYER_1
 10
229.9811
 20
363.5273
 42
-0.02767623998
  0
VERTEX
  8
LAYER_1
 10
230.6216
 20
363.933
  0
SEQEND
  0
POLYLINE
  8
LAYER_1
 40
0.1764
 41
0.1764
 66
1
 10
0
 20
0
 30
0
  0
VERTEX
  8
LAYER_1
 10
257.9725
 20
363.3627
 42
-0.0278047945
  0
VERTEX
  8
LAYER_1
 10
258.3673
 20
363.0099
 42
-0.02607142459
  0
VERTEX
  8
LAYER_1
 10
258.7125
 20
362.6302
 42
-0.02671260131
  0
VERTEX
  8
LAYER_1
 10
259.0061
 20
362.2249
 42
-0.02856253883
  0
VERTEX
  8
LAYER_1
 10
259.2665
 20
361.7688
 42
-0.02457510909
  0
VERTEX
  8
LAYER_1
 10
259.4842
 20
361.2742
 42
-0.02144511983
  0
VERTEX
  8
LAYER_1
 10
259.6555
 20
360.7566
 42
-0.0214824206
  0
VERTEX
  8
LAYER_1
 10
259.8046
 20
360.1334
 42
-0.01646596882
  0
VERTEX
  8
LAYER_1
 10
259.9083
 20
359.4895
 42
-0.01431440957
  0
VERTEX
  8
LAYER_1
 10
259.9852
 20
358.7085
 42
-0.01254655193
  0
VERTEX
  8
LAYER_1
 10
260.0248
 20
357.8279
  0
VERTEX
  8
LAYER_1
 10
260.0286
 20
356.8874
  0
VERTEX
  8
LAYER_1
 10
259.9945
 20
355.7635
  0
VERTEX
  8
LAYER_1
 10
259.9197
 20
354.4378
  0
VERTEX
  8
LAYER_1
 10
259.816
 20
353.0989
  0
VERTEX
  8
LAYER_1
 10
259.6761
 20
351.6089
  0
VERTEX
  8
LAYER_1
 10
259.496
 20
349.944
  0
VERTEX
  8
LAYER_1
 10
259.2934
 20
348.2871
  0
VERTEX
  8
LAYER_1
 10
259.0615
 20
346.5768
 42
-0.007483674069
  0
VERTEX
  8
LAYER_1
 10
258.5706
 20
343.4395
 42
-0.007686136426
  0
VERTEX
  8
LAYER_1
 10
258.0197
 20
340.4886
 42
-0.008213185829
  0
VERTEX
  8
LAYER_1
 10
257.3989
 20
337.6815
  0
SEQEND
  0
ENDBLK
  0
BLOCK
  8
LAYER_1
  2
AIGNBL01020008
 70
64
 10
0
 20
0
 30
0
  3
AIGNBL01020008
  0
POLYLINE
  8
LAYER_1
 40
0.1764
 41
0.1764
 66
1
 10
0
 20
0
 30
0
  0
VERTEX
  8
LAYER_1
 10
230.6695
 20
363.5554
 42
-0.03929179684
  0
VERTEX
  8
LAYER_1
 10
232.2005
 20
364.2703
 42
-0.02369886017
  0
VERTEX
  8
LAYER_1
 10
233.8117
 20
364.7843
 42
-0.02452526494
  0
VERTEX
  8
LAYER_1
 10
237.1197
 20
365.4929
 42
-0.02246384878
  0
VERTEX
  8
LAYER_1
 10
241.2596
 20
366.013
 42
-0.01845430631
  0
VERTEX
  8
LAYER_1
 10
243.8514
 20
366.116
  0
SEQEND
  0
POLYLINE
  8
LAYER_1
 40
0.1764
 41
0.1764
 66
1
 10
0
 20
0
 30
0
  0
VERTEX
  8
LAYER_1
 10
231.3929
 20
337.4195
 42
-0.01723383639
  0
VERTEX
  8
LAYER_1
 10
229.8451
 20
344.0782
 42
-0.01394878837
  0
VERTEX
  8
LAYER_1
 10
228.7226
 20
350.8244
 42
-0.01735475654
  0
VERTEX
  8
LAYER_1
 10
228.1502
 20
356.1471
 42
-0.01291625658
  0
VERTEX
  8
LAYER_1
 10
228.0925
 20
357.6305
 42
-0.04157658461
  0
VERTEX
  8
LAYER_1
 10
228.238
 20
359.9253
 42
-0.04088548807
  0
VERTEX
  8
LAYER_1
 10
228.5053
 20
361.0088
 42
-0.07096048637
  0
VERTEX
  8
LAYER_1
 10
229.0929
 20
362.1638
 42
-0.06647741316
  0
VERTEX
  8
LAYER_1
 10
229.8888
 20
363.0138
 42
-0.0410403877
  0
VERTEX
  8
LAYER_1
 10
230.6695
 20
363.5554
  0
SEQEND
  0
POLYLINE
  8
LAYER_1
 40
0.1764
 41
0.1764
 66
1
 10
0
 20
0
 30
0
  0
VERTEX
  8
LAYER_1
 10
257.8461
 20
363.0221
 42
-0.07277661307
  0
VERTEX
  8
LAYER_1
 10
258.7156
 20
362.0452
 42
-0.06463225661
  0
VERTEX
  8
LAYER_1
 10
259.2402
 20
360.9502
 42
-0.02721325477
  0
VERTEX
  8
LAYER_1
 10
259.4336
 20
360.2511
 42
-0.04536897887
  0
VERTEX
  8
LAYER_1
 10
259.6733
 20
358.2487
 42
-0.01347229714
  0
VERTEX
  8
LAYER_1
 10
259.6923
 20
357.0132
 42
-0.01179071834
  0
VERTEX
  8
LAYER_1
 10
259.6195
 20
355.0228
 42
-0.01353037701
  0
VERTEX
  8
LAYER_1
 10
259.2241
 20
350.5221
 42
-0.01325936703
  0
VERTEX
  8
LAYER_1
 10
258.3412
 20
344.0731
 42
-0.01645802217
  0
VERTEX
  8
LAYER_1
 10
257.0637
 20
337.6898
  0
SEQEND
  0
POLYLINE
  8
LAYER_1
 40
0.1764
 41
0.1764
 66
1
 10
0
 20
0
 30
0
  0
VERTEX
  8
LAYER_1
 10
243.8514
 20
366.116
 42
-0.02527685613
  0
VERTEX
  8
LAYER_1
 10
247.4774
 20
365.9284
 42
-0.01926969767
  0
VERTEX
  8
LAYER_1
 10
251.0717
 20
365.4313
 42
-0.02762354812
  0
VERTEX
  8
LAYER_1
 10
254.3896
 20
364.6777
 42
-0.002618913075
  0
VERTEX
  8
LAYER_1
 10
254.6077
 20
364.6117
 42
-0.03397850446
  0
VERTEX
  8
LAYER_1
 10
256.3058
 20
363.9731
 42
-0.02131933463
  0
VERTEX
  8
LAYER_1
 10
256.9118
 20
363.6638
  0
VERTEX
  8
LAYER_1
 10
257.2029
 20
363.4903
 42
-0.02022388241
  0
VERTEX
  8
LAYER_1
 10
257.8461
 20
363.0221
  0
SEQEND
  0
ENDBLK
  0
BLOCK
  8
LAYER_1
  2
AIGNBL01020009
 70
64
 10
0
 20
0
 30
0
  3
AIGNBL01020009
  0
POLYLINE
  8
LAYER_1
 40
0.1764
 41
0.1764
 62
115
 66
1
 10
0
 20
0
 30
0
  0
VERTEX
  8
LAYER_1
 10
246.508
 20
334.0657
  0
VERTEX
  8
LAYER_1
 10
246.4859
 20
334.016
  0
VERTEX
  8
LAYER_1
 10
246.4594
 20
333.9638
  0
VERTEX
  8
LAYER_1
 10
246.3987
 20
333.854
  0
VERTEX
  8
LAYER_1
 10
246.3236
 20
333.7352
  0
VERTEX
  8
LAYER_1
 10
246.2354
 20
333.6046
  0
SEQEND
  0
POLYLINE
  8
LAYER_1
 40
0.1764
 41
0.1764
 62
115
 66
1
 10
0
 20
0
 30
0
  0
VERTEX
  8
LAYER_1
 10
242.6853
 20
333.5454
 42
-0.05695130427
  0
VERTEX
  8
LAYER_1
 10
242.398
 20
333.9962
  0
SEQEND
  0
POLYLINE
  8
LAYER_1
 40
0.1764
 41
0.1764
 62
115
 66
1
 10
0
 20
0
 30
0
  0
VERTEX
  8
LAYER_1
 10
246.2175
 20
333.5834
  0
VERTEX
  8
LAYER_1
 10
245.6646
 20
332.9266
  0
SEQEND
  0
POLYLINE
  8
LAYER_1
 40
0.1764
 41
0.1764
 62
115
 66
1
 10
0
 20
0
 30
0
  0
VERTEX
  8
LAYER_1
 10
243.2778
 20
332.8839
 42
-0.01543361317
  0
VERTEX
  8
LAYER_1
 10
242.7035
 20
333.5242
  0
SEQEND
  0
POLYLINE
  8
LAYER_1
 40
0.1764
 41
0.1764
 62
115
 66
1
 10
0
 20
0
 30
0
  0
VERTEX
  8
LAYER_1
 10
231.5183
 20
335.9351
  0
VERTEX
  8
LAYER_1
 10
231.517
 20
335.9418
  0
SEQEND
  0
POLYLINE
  8
LAYER_1
 40
0.1764
 41
0.1764
 62
115
 66
1
 10
0
 20
0
 30
0
  0
VERTEX
  8
LAYER_1
 10
257.4634
 20
337.3398
  0
VERTEX
  8
LAYER_1
 10
257.2253
 20
336.3531
  0
SEQEND
  0
POLYLINE
  8
LAYER_1
 40
0.1764
 41
0.1764
 62
115
 66
1
 10
0
 20
0
 30
0
  0
VERTEX
  8
LAYER_1
 10
251.4479
 20
333.0632
 42
-0.1466526391
  0
VERTEX
  8
LAYER_1
 10
238.8777
 20
332.4231
 42
-0.07150915485
  0
VERTEX
  8
LAYER_1
 10
233.089
 20
334.7663
  0
SEQEND
  0
POLYLINE
  8
LAYER_1
 40
0.1764
 41
0.1764
 62
115
 66
1
 10
0
 20
0
 30
0
  0
VERTEX
  8
LAYER_1
 10
233.0635
 20
334.7808
 42
0.02951219897
  0
VERTEX
  8
LAYER_1
 10
233.7397
 20
334.443
 42
0.04217916127
  0
VERTEX
  8
LAYER_1
 10
235.5634
 20
333.8451
 42
0.02942083228
  0
VERTEX
  8
LAYER_1
 10
238.2867
 20
333.3346
 42
0.002908137362
  0
VERTEX
  8
LAYER_1
 10
238.6387
 20
333.2892
 42
0.03494462501
  0
VERTEX
  8
LAYER_1
 10
244.4347
 20
333.0031
 42
0.03497131982
  0
VERTEX
  8
LAYER_1
 10
250.2163
 20
333.4794
 42
0.02970121088
  0
VERTEX
  8
LAYER_1
 10
253.2723
 20
334.1376
 42
0.03865269293
  0
VERTEX
  8
LAYER_1
 10
255.1143
 20
334.8163
 42
0.02916527116
  0
VERTEX
  8
LAYER_1
 10
255.7377
 20
335.1587
  0
SEQEND
  0
POLYLINE
  8
LAYER_1
 40
0.1764
 41
0.1764
 62
115
 66
1
 10
0
 20
0
 30
0
  0
VERTEX
  8
LAYER_1
 10
255.7126
 20
335.142
 42
-0.05484721514
  0
VERTEX
  8
LAYER_1
 10
251.4479
 20
333.0632
  0
SEQEND
  0
POLYLINE
  8
LAYER_1
 40
0.1764
 41
0.1764
 62
115
 66
1
 10
0
 20
0
 30
0
  0
VERTEX
  8
LAYER_1
 10
246.3974
 20
327.399
 42
-0.2373183574
  0
VERTEX
  8
LAYER_1
 10
246.2162
 20
327.0519
 42
-0.0581928476
  0
VERTEX
  8
LAYER_1
 10
246.0184
 20
326.9261
 42
-0.06112444698
  0
VERTEX
  8
LAYER_1
 10
245.5168
 20
326.7558
 42
-0.06401849243
  0
VERTEX
  8
LAYER_1
 10
244.3534
 20
326.6486
 42
-0.07606735126
  0
VERTEX
  8
LAYER_1
 10
243.2017
 20
326.831
 42
-0.08487501427
  0
VERTEX
  8
LAYER_1
 10
242.8929
 20
327.0003
 42
-0.1238636496
  0
VERTEX
  8
LAYER_1
 10
242.7445
 20
327.1936
 42
-0.1054546942
  0
VERTEX
  8
LAYER_1
 10
242.7125
 20
327.4849
  0
VERTEX
  8
LAYER_1
 10
242.708
 20
327.7605
  0
VERTEX
  8
LAYER_1
 10
242.6656
 20
330.1027
  0
VERTEX
  8
LAYER_1
 10
242.6443
 20
331.2731
 42
0.09179894134
  0
VERTEX
  8
LAYER_1
 10
242.5764
 20
331.8285
 42
0.144903087
  0
VERTEX
  8
LAYER_1
 10
242.236
 20
332.3108
 42
0.004169550293
  0
VERTEX
  8
LAYER_1
 10
242.2285
 20
332.3156
  0
SEQEND
  0
POLYLINE
  8
LAYER_1
 40
0.1764
 41
0.1764
 62
115
 66
1
 10
0
 20
0
 30
0
  0
VERTEX
  8
LAYER_1
 10
242.2257
 20
332.3177
  0
VERTEX
  8
LAYER_1
 10
242.226
 20
332.317
  0
VERTEX
  8
LAYER_1
 10
242.2274
 20
332.317
  0
VERTEX
  8
LAYER_1
 10
242.2302
 20
332.3156
  0
VERTEX
  8
LAYER_1
 10
242.2347
 20
332.3127
  0
VERTEX
  8
LAYER_1
 10
242.2453
 20
332.3075
  0
VERTEX
  8
LAYER_1
 10
242.2739
 20
332.2944
  0
VERTEX
  8
LAYER_1
 10
242.3366
 20
332.2708
  0
VERTEX
  8
LAYER_1
 10
242.4903
 20
332.2231
  0
VERTEX
  8
LAYER_1
 10
242.6887
 20
332.1746
  0
VERTEX
  8
LAYER_1
 10
242.9033
 20
332.1329
  0
VERTEX
  8
LAYER_1
 10
243.1417
 20
332.0972
  0
VERTEX
  8
LAYER_1
 10
243.3739
 20
332.071
  0
VERTEX
  8
LAYER_1
 10
243.911
 20
332.0337
  0
VERTEX
  8
LAYER_1
 10
244.4471
 20
332.0269
  0
VERTEX
  8
LAYER_1
 10
244.7175
 20
332.0337
  0
VERTEX
  8
LAYER_1
 10
244.9852
 20
332.049
  0
VERTEX
  8
LAYER_1
 10
245.5275
 20
332.1007
  0
VERTEX
  8
LAYER_1
 10
245.7865
 20
332.1372
  0
VERTEX
  8
LAYER_1
 10
246.0267
 20
332.1813
  0
VERTEX
  8
LAYER_1
 10
246.2358
 20
332.2274
  0
VERTEX
  8
LAYER_1
 10
246.4301
 20
332.2803
  0
VERTEX
  8
LAYER_1
 10
246.4738
 20
332.2938
  0
VERTEX
  8
LAYER_1
 10
246.5238
 20
332.3093
  0
VERTEX
  8
LAYER_1
 10
246.6103
 20
332.341
  0
VERTEX
  8
LAYER_1
 10
246.6792
 20
332.3699
  0
VERTEX
  8
LAYER_1
 10
246.7102
 20
332.3844
  0
VERTEX
  8
LAYER_1
 10
246.7312
 20
332.3957
  0
SEQEND
  0
POLYLINE
  8
LAYER_1
 40
0.1764
 41
0.1764
 62
115
 66
1
 10
0
 20
0
 30
0
  0
VERTEX
  8
LAYER_1
 10
246.7288
 20
332.3942
 42
0.09095470114
  0
VERTEX
  8
LAYER_1
 10
246.5526
 20
332.2135
 42
0.07939275839
  0
VERTEX
  8
LAYER_1
 10
246.3881
 20
331.8666
 42
0.06567942567
  0
VERTEX
  8
LAYER_1
 10
246.3435
 20
331.5095
 42
0.02027482258
  0
VERTEX
  8
LAYER_1
 10
246.3474
 20
331.2318
  0
VERTEX
  8
LAYER_1
 10
246.3636
 20
329.9544
  0
VERTEX
  8
LAYER_1
 10
246.3974
 20
327.399
  0
SEQEND
  0
POLYLINE
  8
LAYER_1
 40
0.1764
 41
0.1764
 62
115
 66
1
 10
0
 20
0
 30
0
  0
VERTEX
  8
LAYER_1
 10
253.4136
 20
334.295
 42
0.03424017795
  0
VERTEX
  8
LAYER_1
 10
254.9481
 20
334.8602
 42
0.03326701615
  0
VERTEX
  8
LAYER_1
 10
255.6695
 20
335.244
  0
VERTEX
  8
LAYER_1
 10
255.6805
 20
335.2507
  0
VERTEX
  8
LAYER_1
 10
255.6843
 20
335.2536
  0
VERTEX
  8
LAYER_1
 10
255.6795
 20
335.2493
  0
VERTEX
  8
LAYER_1
 10
255.6574
 20
335.2362
  0
VERTEX
  8
LAYER_1
 10
255.6137
 20
335.2095
  0
VERTEX
  8
LAYER_1
 10
255.5272
 20
335.1558
  0
VERTEX
  8
LAYER_1
 10
255.3525
 20
335.0476
  0
VERTEX
  8
LAYER_1
 10
255.0018
 20
334.838
 42
-0.0378934009
  0
VERTEX
  8
LAYER_1
 10
252.059
 20
333.4107
 42
-0.07579320593
  0
VERTEX
  8
LAYER_1
 10
245.7015
 20
331.9565
 42
-0.1515887296
  0
VERTEX
  8
LAYER_1
 10
233.1386
 20
334.8659
  0
SEQEND
  0
POLYLINE
  8
LAYER_1
 40
0.1764
 41
0.1764
 62
115
 66
1
 10
0
 20
0
 30
0
  0
VERTEX
  8
LAYER_1
 10
233.1141
 20
334.8796
 42
0.0312311533
  0
VERTEX
  8
LAYER_1
 10
233.8254
 20
334.5273
 42
0.04240762335
  0
VERTEX
  8
LAYER_1
 10
235.7017
 20
333.9265
 42
0.0252815613
  0
VERTEX
  8
LAYER_1
 10
238.0527
 20
333.4808
 42
0.0330317255
  0
VERTEX
  8
LAYER_1
 10
243.1962
 20
333.1128
 42
0.02177931349
  0
VERTEX
  8
LAYER_1
 10
247.2528
 20
333.25
 42
0.0227302738
  0
VERTEX
  8
LAYER_1
 10
250.7303
 20
333.6764
 42
0.02740209526
  0
VERTEX
  8
LAYER_1
 10
253.342
 20
334.2737
 42
0.001010368256
  0
VERTEX
  8
LAYER_1
 10
253.4136
 20
334.295
  0
SEQEND
  0
POLYLINE
  8
LAYER_1
 40
0.1764
 41
0.1764
 62
115
 66
1
 10
0
 20
0
 30
0
  0
VERTEX
  8
LAYER_1
 10
246.2372
 20
331.5412
 42
0.0002091477031
  0
VERTEX
  8
LAYER_1
 10
246.2589
 20
329.8786
  0
VERTEX
  8
LAYER_1
 10
246.2809
 20
328.2173
  0
VERTEX
  8
LAYER_1
 10
246.2913
 20
327.4296
 42
-0.29868231
  0
VERTEX
  8
LAYER_1
 10
246.0756
 20
327.0782
 42
-0.0718565344
  0
VERTEX
  8
LAYER_1
 10
245.6722
 20
326.9068
 42
-0.07325230824
  0
VERTEX
  8
LAYER_1
 10
244.453
 20
326.7538
 42
-0.0217369322
  0
VERTEX
  8
LAYER_1
 10
244.0247
 20
326.7725
 42
-0.07499788339
  0
VERTEX
  8
LAYER_1
 10
243.2082
 20
326.9435
 42
-0.1727957316
  0
VERTEX
  8
LAYER_1
 10
242.8706
 20
327.1809
 42
-0.1513270064
  0
VERTEX
  8
LAYER_1
 10
242.821
 20
327.3795
  0
VERTEX
  8
LAYER_1
 10
242.8172
 20
327.5771
  0
VERTEX
  8
LAYER_1
 10
242.7872
 20
329.239
  0
VERTEX
  8
LAYER_1
 10
242.758
 20
330.8995
  0
VERTEX
  8
LAYER_1
 10
242.7494
 20
331.3694
 42
0.09455571434
  0
VERTEX
  8
LAYER_1
 10
242.6556
 20
331.9201
 42
0.1170108351
  0
VERTEX
  8
LAYER_1
 10
242.3752
 20
332.3365
  0
VERTEX
  8
LAYER_1
 10
242.2777
 20
332.4109
  0
SEQEND
  0
POLYLINE
  8
LAYER_1
 40
0.1764
 41
0.1764
 62
115
 66
1
 10
0
 20
0
 30
0
  0
VERTEX
  8
LAYER_1
 10
242.2774
 20
332.4109
  0
VERTEX
  8
LAYER_1
 10
242.296
 20
332.4024
  0
VERTEX
  8
LAYER_1
 10
242.3173
 20
332.3935
  0
VERTEX
  8
LAYER_1
 10
242.3745
 20
332.3713
  0
VERTEX
  8
LAYER_1
 10
242.5178
 20
332.3265
  0
VERTEX
  8
LAYER_1
 10
242.6009
 20
332.306
  0
VERTEX
  8
LAYER_1
 10
242.6736
 20
332.2881
  0
VERTEX
  8
LAYER_1
 10
242.8555
 20
332.2507
  0
VERTEX
  8
LAYER_1
 10
243.2578
 20
332.1918
  0
VERTEX
  8
LAYER_1
 10
243.4001
 20
332.1759
  0
VERTEX
  8
LAYER_1
 10
243.5428
 20
332.1632
  0
VERTEX
  8
LAYER_1
 10
243.8411
 20
332.1441
  0
VERTEX
  8
LAYER_1
 10
244.4457
 20
332.1342
  0
VERTEX
  8
LAYER_1
 10
244.5904
 20
332.1372
  0
VERTEX
  8
LAYER_1
 10
244.7699
 20
332.1441
  0
VERTEX
  8
LAYER_1
 10
245.0886
 20
332.1639
 42
0.0184917928
  0
VERTEX
  8
LAYER_1
 10
245.7059
 20
332.2345
  0
VERTEX
  8
LAYER_1
 10
245.8007
 20
332.2497
  0
VERTEX
  8
LAYER_1
 10
245.8989
 20
332.2659
  0
VERTEX
  8
LAYER_1
 10
246.0832
 20
332.3025
  0
VERTEX
  8
LAYER_1
 10
246.4005
 20
332.383
  0
VERTEX
  8
LAYER_1
 10
246.4421
 20
332.3964
  0
VERTEX
  8
LAYER_1
 10
246.4862
 20
332.4109
  0
VERTEX
  8
LAYER_1
 10
246.5638
 20
332.4376
  0
VERTEX
  8
LAYER_1
 10
246.6292
 20
332.4652
  0
VERTEX
  8
LAYER_1
 10
246.6561
 20
332.4762
  0
VERTEX
  8
LAYER_1
 10
246.6768
 20
332.4877
  0
SEQEND
  0
POLYLINE
  8
LAYER_1
 40
0.1764
 41
0.1764
 62
115
 66
1
 10
0
 20
0
 30
0
  0
VERTEX
  8
LAYER_1
 10
246.6761
 20
332.4863
 42
0.08641875259
  0
VERTEX
  8
LAYER_1
 10
246.4911
 20
332.3073
 42
0.05523657411
  0
VERTEX
  8
LAYER_1
 10
246.3474
 20
332.0655
 42
0.1076079821
  0
VERTEX
  8
LAYER_1
 10
246.2372
 20
331.5412
  0
SEQEND
  0
POLYLINE
  8
LAYER_1
 40
0.1764
 41
0.1764
 62
115
 66
1
 10
0
 20
0
 30
0
  0
VERTEX
  8
LAYER_1
 10
243.128
 20
327.4613
  0
VERTEX
  8
LAYER_1
 10
243.0325
 20
332.9273
  0
SEQEND
  0
POLYLINE
  8
LAYER_1
 40
0.1764
 41
0.1764
 62
115
 66
1
 10
0
 20
0
 30
0
  0
VERTEX
  8
LAYER_1
 10
245.9078
 20
332.9798
  0
VERTEX
  8
LAYER_1
 10
245.9815
 20
327.5161
  0
SEQEND
  0
POLYLINE
  8
LAYER_1
 40
0.1764
 41
0.1764
 62
115
 66
1
 10
0
 20
0
 30
0
  0
VERTEX
  8
LAYER_1
 10
253.7285
 20
326.5982
  0
VERTEX
  8
LAYER_1
 10
254.0586
 20
326.6038
  0
SEQEND
  0
POLYLINE
  8
LAYER_1
 40
0.1764
 41
0.1764
 62
115
 66
1
 10
0
 20
0
 30
0
  0
VERTEX
  8
LAYER_1
 10
253.7392
 20
325.5455
  0
VERTEX
  8
LAYER_1
 10
253.4078
 20
325.5405
  0
SEQEND
  0
POLYLINE
  8
LAYER_1
 40
0.1764
 41
0.1764
 62
115
 66
1
 10
0
 20
0
 30
0
  0
VERTEX
  8
LAYER_1
 10
257.1898
 20
336.3278
 42
-0.009734816335
  0
VERTEX
  8
LAYER_1
 10
257.0558
 20
335.7704
  0
SEQEND
  0
POLYLINE
  8
LAYER_1
 40
0.1764
 41
0.1764
 62
115
 66
1
 10
0
 20
0
 30
0
  0
VERTEX
  8
LAYER_1
 10
231.7099
 20
335.3533
  0
VERTEX
  8
LAYER_1
 10
231.5707
 20
335.8405
  0
SEQEND
  0
POLYLINE
  8
LAYER_1
 40
0.1764
 41
0.1764
 62
115
 66
1
 10
0
 20
0
 30
0
  0
VERTEX
  8
LAYER_1
 10
231.5562
 20
335.8999
  0
VERTEX
  8
LAYER_1
 10
231.5462
 20
335.9592
  0
SEQEND
  0
POLYLINE
  8
LAYER_1
 40
0.1764
 41
0.1764
 62
115
 66
1
 10
0
 20
0
 30
0
  0
VERTEX
  8
LAYER_1
 10
256.8446
 20
336.2561
 42
-0.0173131795
  0
VERTEX
  8
LAYER_1
 10
255.355
 20
331.0241
 42
-0.008246221974
  0
VERTEX
  8
LAYER_1
 10
253.5452
 20
325.721
  0
VERTEX
  8
LAYER_1
 10
253.1084
 20
324.4973
 42
-0.09554352398
  0
VERTEX
  8
LAYER_1
 10
252.2502
 20
323.1999
 42
-0.06663405682
  0
VERTEX
  8
LAYER_1
 10
251.1623
 20
322.3356
 42
-0.04273441217
  0
VERTEX
  8
LAYER_1
 10
250.0309
 20
321.7778
 42
-0.04442199649
  0
VERTEX
  8
LAYER_1
 10
248.0555
 20
321.1936
 42
-0.0338246797
  0
VERTEX
  8
LAYER_1
 10
245.7562
 20
320.8744
 42
-0.01404698096
  0
VERTEX
  8
LAYER_1
 10
244.6221
 20
320.8214
 42
-0.0342753294
  0
VERTEX
  8
LAYER_1
 10
241.9611
 20
320.9482
 42
-0.03678499074
  0
VERTEX
  8
LAYER_1
 10
239.9066
 20
321.346
 42
-0.01883314537
  0
VERTEX
  8
LAYER_1
 10
239.1816
 20
321.5774
 42
-0.05624409686
  0
VERTEX
  8
LAYER_1
 10
237.7314
 20
322.2806
 42
-0.05089560704
  0
VERTEX
  8
LAYER_1
 10
236.9189
 20
322.9338
 42
-0.07559575043
  0
VERTEX
  8
LAYER_1
 10
236.1672
 20
323.935
 42
-0.01872928005
  0
VERTEX
  8
LAYER_1
 10
236.0324
 20
324.2148
 42
-0.005876739755
  0
VERTEX
  8
LAYER_1
 10
235.5594
 20
325.4191
 42
-0.01426609652
  0
VERTEX
  8
LAYER_1
 10
232.8112
 20
332.8822
 42
-0.01006252518
  0
VERTEX
  8
LAYER_1
 10
231.9104
 20
335.8384
  0
SEQEND
  0
ENDBLK
  0
BLOCK
  8
LAYER_1
  2
AIGNBL0102000A
 70
64
 10
0
 20
0
 30
0
  3
AIGNBL0102000A
  0
POLYLINE
  8
LAYER_1
 40
0.1764
 41
0.1764
 62
115
 66
1
 10
0
 20
0
 30
0
  0
VERTEX
  8
LAYER_1
 10
244.4595
 20
332.6491
 42
0.03855126268
  0
VERTEX
  8
LAYER_1
 10
245.1206
 20
332.7119
 42
0.05989884163
  0
VERTEX
  8
LAYER_1
 10
245.5035
 20
332.8206
 42
0.09942725088
  0
VERTEX
  8
LAYER_1
 10
245.6646
 20
332.9266
  0
SEQEND
  0
POLYLINE
  8
LAYER_1
 40
0.1764
 41
0.1764
 62
115
 66
1
 10
0
 20
0
 30
0
  0
VERTEX
  8
LAYER_1
 10
243.2778
 20
332.8841
 42
0.09933102375
  0
VERTEX
  8
LAYER_1
 10
243.4732
 20
332.7723
 42
0.04999672287
  0
VERTEX
  8
LAYER_1
 10
243.8251
 20
332.6894
 42
0.03833429765
  0
VERTEX
  8
LAYER_1
 10
244.4595
 20
332.6491
  0
SEQEND
  0
POLYLINE
  8
LAYER_1
 40
0.1764
 41
0.1764
 62
115
 66
1
 10
0
 20
0
 30
0
  0
VERTEX
  8
LAYER_1
 10
244.4447
 20
333.1716
 42
0.04254461929
  0
VERTEX
  8
LAYER_1
 10
245.38
 20
333.2575
 42
0.05081091238
  0
VERTEX
  8
LAYER_1
 10
245.9309
 20
333.4053
 42
0.1258682998
  0
VERTEX
  8
LAYER_1
 10
246.2354
 20
333.6048
  0
SEQEND
  0
POLYLINE
  8
LAYER_1
 40
0.1764
 41
0.1764
 62
115
 66
1
 10
0
 20
0
 30
0
  0
VERTEX
  8
LAYER_1
 10
246.2399
 20
333.6132
 42
0.4021976658
  0
VERTEX
  8
LAYER_1
 10
246.1969
 20
333.8465
 42
0.08924230244
  0
VERTEX
  8
LAYER_1
 10
245.9778
 20
333.9762
 42
0.05171284035
  0
VERTEX
  8
LAYER_1
 10
245.4796
 20
334.1112
 42
0.04792181749
  0
VERTEX
  8
LAYER_1
 10
244.4478
 20
334.1822
 42
0.0464951082
  0
VERTEX
  8
LAYER_1
 10
243.4191
 20
334.0747
 42
0.05979719955
  0
VERTEX
  8
LAYER_1
 10
242.9251
 20
333.9219
 42
0.1131869152
  0
VERTEX
  8
LAYER_1
 10
242.6948
 20
333.7642
 42
0.3599985449
  0
VERTEX
  8
LAYER_1
 10
242.6839
 20
333.5469
  0
SEQEND
  0
POLYLINE
  8
LAYER_1
 40
0.1764
 41
0.1764
 62
115
 66
1
 10
0
 20
0
 30
0
  0
VERTEX
  8
LAYER_1
 10
242.6853
 20
333.5455
 42
0.1035828189
  0
VERTEX
  8
LAYER_1
 10
242.8521
 20
333.4178
 42
0.05357311684
  0
VERTEX
  8
LAYER_1
 10
243.1754
 20
333.3006
 42
0.02528492769
  0
VERTEX
  8
LAYER_1
 10
243.5293
 20
333.2286
 42
0.04040546416
  0
VERTEX
  8
LAYER_1
 10
244.4447
 20
333.1716
  0
SEQEND
  0
POLYLINE
  8
LAYER_1
 40
0.1764
 41
0.1764
 62
115
 66
1
 10
0
 20
0
 30
0
  0
VERTEX
  8
LAYER_1
 10
231.5239
 20
336.4492
 42
0.14359624
  0
VERTEX
  8
LAYER_1
 10
231.5166
 20
335.9419
  0
SEQEND
  0
POLYLINE
  8
LAYER_1
 40
0.1764
 41
0.1764
 62
115
 66
1
 10
0
 20
0
 30
0
 70
1
  0
VERTEX
  8
LAYER_1
 10
244.5649
 20
327.3333
 42
-0.05687193604
  0
VERTEX
  8
LAYER_1
 10
244.856
 20
327.309
 42
-0.1461509046
  0
VERTEX
  8
LAYER_1
 10
245.0679
 20
327.2273
 42
-0.249142923
  0
VERTEX
  8
LAYER_1
 10
245.091
 20
327.1714
 42
-0.2201843266
  0
VERTEX
  8
LAYER_1
 10
245.0286
 20
327.0938
 42
-0.08102972601
  0
VERTEX
  8
LAYER_1
 10
244.8467
 20
327.0343
 42
-0.04438764365
  0
VERTEX
  8
LAYER_1
 10
244.5563
 20
327.0024
 42
-0.05514211314
  0
VERTEX
  8
LAYER_1
 10
244.2645
 20
327.0267
 42
-0.1513769093
  0
VERTEX
  8
LAYER_1
 10
244.0513
 20
327.1103
 42
-0.2420727266
  0
VERTEX
  8
LAYER_1
 10
244.0299
 20
327.165
 42
-0.2220819282
  0
VERTEX
  8
LAYER_1
 10
244.0921
 20
327.2426
 42
-0.07844376949
  0
VERTEX
  8
LAYER_1
 10
244.2738
 20
327.3023
 42
-0.04831292107
  0
SEQEND
  0
POLYLINE
  8
LAYER_1
 40
0.1764
 41
0.1764
 62
115
 66
1
 10
0
 20
0
 30
0
 70
1
  0
VERTEX
  8
LAYER_1
 10
244.5628
 20
327.4332
 42
0.05218182034
  0
VERTEX
  8
LAYER_1
 10
244.2731
 20
327.4022
 42
0.2820894808
  0
VERTEX
  8
LAYER_1
 10
244.0289
 20
327.2656
 42
0.2697989239
  0
VERTEX
  8
LAYER_1
 10
244.0717
 20
327.1936
 42
0.1002165319
  0
VERTEX
  8
LAYER_1
 10
244.2638
 20
327.1273
 42
0.04677056892
  0
VERTEX
  8
LAYER_1
 10
244.5542
 20
327.103
 42
0.05212731109
  0
VERTEX
  8
LAYER_1
 10
244.8447
 20
327.1354
 42
0.2840991849
  0
VERTEX
  8
LAYER_1
 10
245.0899
 20
327.272
 42
0.2685153574
  0
VERTEX
  8
LAYER_1
 10
245.0467
 20
327.344
 42
0.09741446314
  0
VERTEX
  8
LAYER_1
 10
244.854
 20
327.4114
 42
0.04629659536
  0
SEQEND
  0
POLYLINE
  8
LAYER_1
 40
0.1764
 41
0.1764
 62
115
 66
1
 10
0
 20
0
 30
0
  0
VERTEX
  8
LAYER_1
 10
244.5442
 20
327.0479
 42
-0.05099121913
  0
VERTEX
  8
LAYER_1
 10
243.7712
 20
327.1073
 42
-0.05531148987
  0
VERTEX
  8
LAYER_1
 10
243.3984
 20
327.21
 42
-0.1246396888
  0
VERTEX
  8
LAYER_1
 10
243.1716
 20
327.3559
 42
-0.1744648579
  0
VERTEX
  8
LAYER_1
 10
243.1276
 20
327.4615
  0
SEQEND
  0
POLYLINE
  8
LAYER_1
 40
0.1764
 41
0.1764
 62
115
 66
1
 10
0
 20
0
 30
0
  0
VERTEX
  8
LAYER_1
 10
243.1276
 20
327.4663
 42
-0.1808957271
  0
VERTEX
  8
LAYER_1
 10
243.1825
 20
327.5911
 42
-0.1076441909
  0
VERTEX
  8
LAYER_1
 10
243.3963
 20
327.7261
 42
-0.04939792115
  0
VERTEX
  8
LAYER_1
 10
243.7694
 20
327.8439
 42
-0.05055918301
  0
VERTEX
  8
LAYER_1
 10
244.5477
 20
327.9299
 42
-0.0520181568
  0
VERTEX
  8
LAYER_1
 10
245.329
 20
327.8728
 42
-0.05600533741
  0
VERTEX
  8
LAYER_1
 10
245.7059
 20
327.7702
 42
-0.1354490458
  0
VERTEX
  8
LAYER_1
 10
245.9368
 20
327.6281
 42
-0.171675451
  0
VERTEX
  8
LAYER_1
 10
245.9812
 20
327.5178
  0
SEQEND
  0
POLYLINE
  8
LAYER_1
 40
0.1764
 41
0.1764
 62
115
 66
1
 10
0
 20
0
 30
0
  0
VERTEX
  8
LAYER_1
 10
245.9812
 20
327.5158
 42
-0.1803972839
  0
VERTEX
  8
LAYER_1
 10
245.9314
 20
327.3965
 42
-0.1105384384
  0
VERTEX
  8
LAYER_1
 10
245.7121
 20
327.2512
 42
-0.04882975735
  0
VERTEX
  8
LAYER_1
 10
245.3332
 20
327.1327
 42
-0.04921923608
  0
VERTEX
  8
LAYER_1
 10
244.5442
 20
327.0479
  0
SEQEND
  0
POLYLINE
  8
LAYER_1
 40
0.1764
 41
0.1764
 62
115
 66
1
 10
0
 20
0
 30
0
 70
1
  0
VERTEX
  8
LAYER_1
 10
244.4581
 20
332.5513
 42
0.04425091395
  0
VERTEX
  8
LAYER_1
 10
245.236
 20
332.6264
 42
0.07913215889
  0
VERTEX
  8
LAYER_1
 10
245.7263
 20
332.7805
 42
0.2467545106
  0
VERTEX
  8
LAYER_1
 10
245.9061
 20
332.964
 42
0.2084950209
  0
VERTEX
  8
LAYER_1
 10
245.8728
 20
333.0717
 42
0.1046798703
  0
VERTEX
  8
LAYER_1
 10
245.7371
 20
333.1706
 42
0.07506961349
  0
VERTEX
  8
LAYER_1
 10
245.2601
 20
333.3083
 42
0.04491524356
  0
VERTEX
  8
LAYER_1
 10
244.4819
 20
333.3638
 42
0.0432399706
  0
VERTEX
  8
LAYER_1
 10
243.7043
 20
333.2894
 42
0.07980274137
  0
VERTEX
  8
LAYER_1
 10
243.2144
 20
333.1342
 42
0.2413864138
  0
VERTEX
  8
LAYER_1
 10
243.0336
 20
332.9502
 42
0.2084608669
  0
VERTEX
  8
LAYER_1
 10
243.0672
 20
332.8429
 42
0.1040548523
  0
VERTEX
  8
LAYER_1
 10
243.203
 20
332.7442
 42
0.07357780209
  0
VERTEX
  8
LAYER_1
 10
243.6788
 20
332.6057
 42
0.04647550141
  0
SEQEND
  0
POLYLINE
  8
LAYER_1
 40
0.1764
 41
0.1764
 62
115
 66
1
 10
0
 20
0
 30
0
  0
VERTEX
  8
LAYER_1
 10
253.8729
 20
325.8182
  0
VERTEX
  8
LAYER_1
 10
254.0024
 20
326.208
  0
VERTEX
  8
LAYER_1
 10
254.0548
 20
326.408
  0
VERTEX
  8
LAYER_1
 10
254.073
 20
326.5086
 42
0.6645038597
  0
VERTEX
  8
LAYER_1
 10
254.0589
 20
326.6031
  0
SEQEND
  0
POLYLINE
  8
LAYER_1
 40
0.1764
 41
0.1764
 62
115
 66
1
 10
0
 20
0
 30
0
  0
VERTEX
  8
LAYER_1
 10
254.0579
 20
326.6031
 42
0.1877211119
  0
VERTEX
  8
LAYER_1
 10
253.9922
 20
326.5362
 42
0.03085877343
  0
VERTEX
  8
LAYER_1
 10
253.9132
 20
326.3653
  0
VERTEX
  8
LAYER_1
 10
253.8205
 20
326.0965
  0
VERTEX
  8
LAYER_1
 10
253.7523
 20
325.8225
  0
VERTEX
  8
LAYER_1
 10
253.7299
 20
325.6824
  0
VERTEX
  8
LAYER_1
 10
253.7268
 20
325.5624
  0
VERTEX
  8
LAYER_1
 10
253.7382
 20
325.5452
  0
SEQEND
  0
POLYLINE
  8
LAYER_1
 40
0.1764
 41
0.1764
 62
115
 66
1
 10
0
 20
0
 30
0
  0
VERTEX
  8
LAYER_1
 10
253.7392
 20
325.5452
  0
VERTEX
  8
LAYER_1
 10
253.743
 20
325.5452
  0
VERTEX
  8
LAYER_1
 10
253.7482
 20
325.5486
  0
VERTEX
  8
LAYER_1
 10
253.7544
 20
325.5536
  0
VERTEX
  8
LAYER_1
 10
253.7606
 20
325.5624
  0
VERTEX
  8
LAYER_1
 10
253.774
 20
325.5832
  0
VERTEX
  8
LAYER_1
 10
253.7895
 20
325.6122
  0
VERTEX
  8
LAYER_1
 10
253.8054
 20
325.6461
  0
VERTEX
  8
LAYER_1
 10
253.8271
 20
325.6962
  0
VERTEX
  8
LAYER_1
 10
253.8729
 20
325.8182
  0
SEQEND
  0
POLYLINE
  8
LAYER_1
 40
0.1764
 41
0.1764
 62
115
 66
1
 10
0
 20
0
 30
0
 70
1
  0
VERTEX
  8
LAYER_1
 10
253.5728
 20
325.9014
 42
0.04290668937
  0
VERTEX
  8
LAYER_1
 10
253.7302
 20
326.445
 42
0.204675547
  0
VERTEX
  8
LAYER_1
 10
253.7406
 20
326.5858
 42
0.5342880034
  0
VERTEX
  8
LAYER_1
 10
253.7051
 20
326.5851
 42
0.05610492294
  0
VERTEX
  8
LAYER_1
 10
253.65
 20
326.5058
 42
0.03541779373
  0
VERTEX
  8
LAYER_1
 10
253.538
 20
326.2461
 42
0.05359109326
  0
VERTEX
  8
LAYER_1
 10
253.4009
 20
325.6983
  0
VERTEX
  8
LAYER_1
 10
253.3961
 20
325.5536
 42
0.5841337708
  0
VERTEX
  8
LAYER_1
 10
253.4247
 20
325.5536
  0
VERTEX
  8
LAYER_1
 10
253.4698
 20
325.6383
  0
SEQEND
  0
POLYLINE
  8
LAYER_1
 40
0.1764
 41
0.1764
 62
115
 66
1
 10
0
 20
0
 30
0
 70
1
  0
VERTEX
  8
LAYER_1
 10
244.5208
 20
339.6826
 42
0.02213165127
  0
VERTEX
  8
LAYER_1
 10
240.4151
 20
339.4592
 42
0.01879403147
  0
VERTEX
  8
LAYER_1
 10
237.6241
 20
339.0699
 42
0.02603155692
  0
VERTEX
  8
LAYER_1
 10
235.1667
 20
338.5094
 42
0.03934332916
  0
VERTEX
  8
LAYER_1
 10
233.2581
 20
337.8106
 42
0.07093046694
  0
VERTEX
  8
LAYER_1
 10
232.0837
 20
337.072
 42
0.003485468777
  0
VERTEX
  8
LAYER_1
 10
232.0496
 20
337.0408
 42
0.1182943807
  0
VERTEX
  8
LAYER_1
 10
231.5911
 20
336.3927
 42
0.02876029437
  0
VERTEX
  8
LAYER_1
 10
231.558
 20
336.272
 42
0.1583831526
  0
VERTEX
  8
LAYER_1
 10
231.6227
 20
335.6923
 42
0.04928744516
  0
VERTEX
  8
LAYER_1
 10
231.7512
 20
335.466
 42
0.05511526209
  0
VERTEX
  8
LAYER_1
 10
232.0474
 20
335.1368
 42
0.06187102525
  0
VERTEX
  8
LAYER_1
 10
232.7675
 20
334.6457
 42
0.05330755798
  0
VERTEX
  8
LAYER_1
 10
234.4038
 20
333.9789
 42
0.004639169073
  0
VERTEX
  8
LAYER_1
 10
234.6647
 20
333.9004
 42
0.03136223726
  0
VERTEX
  8
LAYER_1
 10
237.3157
 20
333.3242
 42
0.02522533827
  0
VERTEX
  8
LAYER_1
 10
240.9252
 20
332.9433
 42
0.0176924793
  0
VERTEX
  8
LAYER_1
 10
244.2221
 20
332.8681
 42
0.04124718116
  0
VERTEX
  8
LAYER_1
 10
251.1127
 20
333.4802
 42
0.02678084517
  0
VERTEX
  8
LAYER_1
 10
253.6124
 20
334.0542
 42
0.04135764847
  0
VERTEX
  8
LAYER_1
 10
255.5189
 20
334.7591
 42
0.07302927587
  0
VERTEX
  8
LAYER_1
 10
256.6728
 20
335.4942
 42
0.003505416445
  0
VERTEX
  8
LAYER_1
 10
256.7061
 20
335.5253
 42
0.1203316937
  0
VERTEX
  8
LAYER_1
 10
257.1516
 20
336.1701
 42
0.02659964096
  0
VERTEX
  8
LAYER_1
 10
257.1812
 20
336.2816
 42
0.1604350519
  0
VERTEX
  8
LAYER_1
 10
257.1149
 20
336.8628
 42
0.05408603151
  0
VERTEX
  8
LAYER_1
 10
256.9673
 20
337.1134
 42
0.05354958618
  0
VERTEX
  8
LAYER_1
 10
256.6602
 20
337.4419
 42
0.05994018355
  0
VERTEX
  8
LAYER_1
 10
255.9224
 20
337.9325
 42
0.05258508951
  0
VERTEX
  8
LAYER_1
 10
254.2378
 20
338.6016
 42
0.003684401384
  0
VERTEX
  8
LAYER_1
 10
254.0231
 20
338.6649
 42
0.03000207171
  0
VERTEX
  8
LAYER_1
 10
251.4244
 20
339.2274
 42
0.02527730518
  0
VERTEX
  8
LAYER_1
 10
247.8169
 20
339.6081
 42
0.01776645836
  0
SEQEND
  0
POLYLINE
  8
LAYER_1
 40
0.1764
 41
0.1764
 62
115
 66
1
 10
0
 20
0
 30
0
 70
1
  0
VERTEX
  8
LAYER_1
 10
244.5181
 20
339.6048
 42
0.02281040837
  0
VERTEX
  8
LAYER_1
 10
240.414
 20
339.3768
 42
0.01806210441
  0
VERTEX
  8
LAYER_1
 10
237.7998
 20
339.0089
 42
0.02572554552
  0
VERTEX
  8
LAYER_1
 10
235.4048
 20
338.4617
 42
0.04039615474
  0
VERTEX
  8
LAYER_1
 10
233.5468
 20
337.7802
 42
0.07290572543
  0
VERTEX
  8
LAYER_1
 10
232.3944
 20
337.0534
 42
0.00258062401
  0
VERTEX
  8
LAYER_1
 10
232.3696
 20
337.0306
 42
0.1204624206
  0
VERTEX
  8
LAYER_1
 10
231.9214
 20
336.3919
 42
0.02706032516
  0
VERTEX
  8
LAYER_1
 10
231.8914
 20
336.2809
 42
0.1624566783
  0
VERTEX
  8
LAYER_1
 10
231.9601
 20
335.7056
 42
0.04585567705
  0
VERTEX
  8
LAYER_1
 10
232.0806
 20
335.4967
 42
0.05581409305
  0
VERTEX
  8
LAYER_1
 10
232.3772
 20
335.1691
 42
0.06114753772
  0
VERTEX
  8
LAYER_1
 10
233.071
 20
334.6983
 42
0.05404261382
  0
VERTEX
  8
LAYER_1
 10
234.6954
 20
334.0397
 42
0.004148937288
  0
VERTEX
  8
LAYER_1
 10
234.9197
 20
333.9727
 42
0.03105610017
  0
VERTEX
  8
LAYER_1
 10
237.5014
 20
333.411
 42
0.02559185031
  0
VERTEX
  8
LAYER_1
 10
241.071
 20
333.037
 42
0.01752174229
  0
VERTEX
  8
LAYER_1
 10
244.2294
 20
332.9683
 42
0.02270450937
  0
VERTEX
  8
LAYER_1
 10
248.3298
 20
333.1963
 42
0.01813885242
  0
VERTEX
  8
LAYER_1
 10
250.9418
 20
333.5641
 42
0.02602849495
  0
VERTEX
  8
LAYER_1
 10
253.3771
 20
334.1222
 42
0.04060148247
  0
VERTEX
  8
LAYER_1
 10
255.234
 20
334.8099
 42
0.07344663271
  0
VERTEX
  8
LAYER_1
 10
256.3659
 20
335.5332
 42
0.002618319171
  0
VERTEX
  8
LAYER_1
 10
256.3902
 20
335.5559
 42
0.1218003026
  0
VERTEX
  8
LAYER_1
 10
256.8271
 20
336.1915
 42
0.02516420881
  0
VERTEX
  8
LAYER_1
 10
256.8539
 20
336.294
 42
0.161406625
  0
VERTEX
  8
LAYER_1
 10
256.7854
 20
336.8651
 42
0.05337946458
  0
VERTEX
  8
LAYER_1
 10
256.6434
 20
337.1029
 42
0.05495520325
  0
VERTEX
  8
LAYER_1
 10
256.3369
 20
337.43
 42
0.05941003916
  0
VERTEX
  8
LAYER_1
 10
255.6264
 20
337.9001
 42
0.05255854116
  0
VERTEX
  8
LAYER_1
 10
253.9549
 20
338.5618
 42
0.003185313201
  0
VERTEX
  8
LAYER_1
 10
253.7754
 20
338.6145
 42
0.03069387038
  0
VERTEX
  8
LAYER_1
 10
251.2432
 20
339.161
 42
0.02562960725
  0
VERTEX
  8
LAYER_1
 10
247.6755
 20
339.5352
 42
0.01743537833
  0
SEQEND
  0
ENDBLK
  0
BLOCK
  8
LAYER_1
  2
AIGNBL0102000F
 70
64
 10
0
 20
0
 30
0
  3
AIGNBL0102000F
  0
POLYLINE
  8
LAYER_1
 40
0.1799
 41
0.1799
 66
1
 10
0
 20
0
 30
0
 70
1
  0
VERTEX
  8
LAYER_1
 10
124.8768
 20
298.1658
 42
0.3487570141
  0
VERTEX
  8
LAYER_1
 10
116.5212
 20
308.6842
 42
0.05716216123
  0
VERTEX
  8
LAYER_1
 10
92.6004
 20
311.4149
 42
0.05718308871
  0
VERTEX
  8
LAYER_1
 10
68.6807
 20
308.6842
 42
0.04498633396
  0
VERTEX
  8
LAYER_1
 10
66.8031
 20
308.0658
 42
0.08364278241
  0
VERTEX
  8
LAYER_1
 10
63.7912
 20
306.1106
 42
0.2077650947
  0
VERTEX
  8
LAYER_1
 10
60.3255
 20
298.1735
 42
0.01269404368
  0
VERTEX
  8
LAYER_1
 10
60.2549
 20
290.4488
 42
0.01201458239
  0
VERTEX
  8
LAYER_1
 10
60.5506
 20
283.107
 42
0.01195457353
  0
VERTEX
  8
LAYER_1
 10
61.197
 20
275.7943
 42
0.01191029748
  0
VERTEX
  8
LAYER_1
 10
62.191
 20
268.525
 42
0.0178202751
  0
VERTEX
  8
LAYER_1
 10
64.3262
 20
257.7334
 42
0.01009188548
  0
VERTEX
  8
LAYER_1
 10
65.8757
 20
251.6939
 42
0.01192820456
  0
VERTEX
  8
LAYER_1
 10
68.027
 20
244.6199
 42
0.01083622583
  0
VERTEX
  8
LAYER_1
 10
70.2603
 20
238.3219
 42
0.01090740227
  0
VERTEX
  8
LAYER_1
 10
72.7675
 20
232.1219
 42
0.01098825586
  0
VERTEX
  8
LAYER_1
 10
75.547
 20
226.0306
 42
0.005134603124
  0
VERTEX
  8
LAYER_1
 10
76.9297
 20
223.2424
 42
0.2821680156
  0
VERTEX
  8
LAYER_1
 10
79.9834
 20
221.3694
  0
VERTEX
  8
LAYER_1
 10
105.2179
 20
221.3694
 42
0.2817821246
  0
VERTEX
  8
LAYER_1
 10
108.2733
 20
223.2424
 42
0.012176394
  0
VERTEX
  8
LAYER_1
 10
111.473
 20
229.9334
 42
0.01092095959
  0
VERTEX
  8
LAYER_1
 10
114.0777
 20
236.0958
 42
0.01085686301
  0
VERTEX
  8
LAYER_1
 10
116.4095
 20
242.36
 42
0.01080365357
  0
VERTEX
  8
LAYER_1
 10
118.4667
 20
248.7153
 42
0.004999763722
  0
VERTEX
  8
LAYER_1
 10
119.3279
 20
251.6939
 42
0.02430156962
  0
VERTEX
  8
LAYER_1
 10
122.6457
 20
266.3527
 42
0.01188690772
  0
VERTEX
  8
LAYER_1
 10
123.7431
 20
273.6051
 42
0.01192992554
  0
VERTEX
  8
LAYER_1
 10
124.4943
 20
280.905
 42
0.01198909571
  0
VERTEX
  8
LAYER_1
 10
124.8957
 20
288.2382
 42
0.01145868047
  0
VERTEX
  8
LAYER_1
 10
124.95
 20
295.2227
 42
0.004850258233
  0
SEQEND
  0
POLYLINE
  8
LAYER_1
 40
0.1799
 41
0.1799
 66
1
 10
0
 20
0
 30
0
  0
VERTEX
  8
LAYER_1
 10
94.3774
 20
243.0298
  0
VERTEX
  8
LAYER_1
 10
94.3774
 20
237.6153
  0
VERTEX
  8
LAYER_1
 10
90.7731
 20
237.6153
  0
VERTEX
  8
LAYER_1
 10
90.7731
 20
243.0298
  0
SEQEND
  0
POLYLINE
  8
LAYER_1
 40
0.1799
 41
0.1799
 66
1
 10
0
 20
0
 30
0
 70
1
  0
VERTEX
  8
LAYER_1
 10
94.438
 20
242.9037
 42
-0.4072288626
  0
VERTEX
  8
LAYER_1
 10
94.4574
 20
242.9449
 42
-0.05001614005
  0
VERTEX
  8
LAYER_1
 10
94.7232
 20
243.0746
 42
1.045591875
  0
VERTEX
  8
LAYER_1
 10
94.8516
 20
243.1628
  0
VERTEX
  8
LAYER_1
 10
94.716
 20
243.185
  0
VERTEX
  8
LAYER_1
 10
94.3774
 20
242.975
  0
VERTEX
  8
LAYER_1
 10
90.6217
 20
243.185
  0
VERTEX
  8
LAYER_1
 10
90.4992
 20
243.185
 42
-0.5963833477
  0
VERTEX
  8
LAYER_1
 10
90.4992
 20
243.1554
 42
0.5599872967
  0
VERTEX
  8
LAYER_1
 10
90.5117
 20
243.1256
 42
-0.1107681588
  0
VERTEX
  8
LAYER_1
 10
90.7731
 20
242.9648
 42
-0.02251335353
  0
VERTEX
  8
LAYER_1
 10
86.6876
 20
243.3795
 42
-0.0196485244
  0
VERTEX
  8
LAYER_1
 10
83.0144
 20
244.0671
 42
-0.03901506945
  0
VERTEX
  8
LAYER_1
 10
75.8391
 20
246.3037
 42
-0.02021279072
  0
VERTEX
  8
LAYER_1
 10
72.4149
 20
247.8369
 42
-0.02115318722
  0
VERTEX
  8
LAYER_1
 10
69.1519
 20
249.6363
 42
-0.01989448452
  0
VERTEX
  8
LAYER_1
 10
66.418
 20
251.4528
 42
-0.002569225249
  0
VERTEX
  8
LAYER_1
 10
66.0888
 20
251.6939
  0
VERTEX
  8
LAYER_1
 10
119.1183
 20
251.6939
 42
-0.02348846338
  0
VERTEX
  8
LAYER_1
 10
115.8776
 20
249.5257
 42
-0.02100938697
  0
VERTEX
  8
LAYER_1
 10
112.6043
 20
247.7321
 42
-0.02014336196
  0
VERTEX
  8
LAYER_1
 10
109.1729
 20
246.202
 42
-0.01965975699
  0
VERTEX
  8
LAYER_1
 10
105.6222
 20
244.9453
 42
-0.01955777616
  0
VERTEX
  8
LAYER_1
 10
101.9908
 20
243.972
 42
-0.01984211888
  0
VERTEX
  8
LAYER_1
 10
98.3177
 20
243.2921
 42
-0.02052471167
  0
VERTEX
  8
LAYER_1
 10
94.6415
 20
242.9155
 42
-0.001168423618
  0
SEQEND
  0
POLYLINE
  8
LAYER_1
 40
0.1799
 41
0.1799
 66
1
 10
0
 20
0
 30
0
  0
VERTEX
  8
LAYER_1
 10
92.4812
 20
238.0775
 42
-0.02081610071
  0
VERTEX
  8
LAYER_1
 10
92.4855
 20
234.2024
 42
-0.0005961149296
  0
VERTEX
  8
LAYER_1
 10
92.4812
 20
234.102
 42
-0.02175632662
  0
VERTEX
  8
LAYER_1
 10
92.3777
 20
233.0995
 42
0.03854399057
  0
VERTEX
  8
LAYER_1
 10
92.2688
 20
231.9144
 42
0.0751166006
  0
VERTEX
  8
LAYER_1
 10
92.4016
 20
230.9472
 42
0.08640233256
  0
VERTEX
  8
LAYER_1
 10
92.8176
 20
230.1435
 42
0.0723870604
  0
VERTEX
  8
LAYER_1
 10
93.5682
 20
229.4055
 42
0.05158749703
  0
VERTEX
  8
LAYER_1
 10
94.761
 20
228.6877
 42
0.03220360624
  0
VERTEX
  8
LAYER_1
 10
96.3624
 20
228.0353
 42
0.01761867376
  0
VERTEX
  8
LAYER_1
 10
101.3436
 20
226.497
 42
0.01288756423
  0
VERTEX
  8
LAYER_1
 10
103.0426
 20
226.0944
 42
0.03626302016
  0
VERTEX
  8
LAYER_1
 10
105.2469
 20
225.7839
 42
0.06463652365
  0
VERTEX
  8
LAYER_1
 10
106.1602
 20
225.8539
 42
0.08816688434
  0
VERTEX
  8
LAYER_1
 10
106.4135
 20
225.9672
 42
0.3559360769
  0
VERTEX
  8
LAYER_1
 10
106.5201
 20
226.3796
 42
0.07299222509
  0
VERTEX
  8
LAYER_1
 10
106.3732
 20
226.6207
 42
0.04120837058
  0
VERTEX
  8
LAYER_1
 10
106.114
 20
226.8901
 42
0.03231069697
  0
VERTEX
  8
LAYER_1
 10
105.6397
 20
227.2584
 42
0.02170831452
  0
VERTEX
  8
LAYER_1
 10
105.0076
 20
227.6524
 42
0.03655950821
  0
VERTEX
  8
LAYER_1
 10
102.9059
 20
228.6413
 42
0.02784257958
  0
VERTEX
  8
LAYER_1
 10
100.0889
 20
229.5773
 42
0.02440217772
  0
VERTEX
  8
LAYER_1
 10
96.9949
 20
230.268
 42
0.0235022598
  0
VERTEX
  8
LAYER_1
 10
93.8487
 20
230.6625
 42
0.02326420057
  0
VERTEX
  8
LAYER_1
 10
90.8132
 20
230.7574
 42
0.01407188932
  0
VERTEX
  8
LAYER_1
 10
89.0655
 20
230.6807
 42
0.02429956881
  0
VERTEX
  8
LAYER_1
 10
85.393
 20
230.2451
 42
0.03199227366
  0
VERTEX
  8
LAYER_1
 10
83.1662
 20
229.7161
 42
0.05595009066
  0
VERTEX
  8
LAYER_1
 10
81.9626
 20
229.1836
 42
0.1017163512
  0
VERTEX
  8
LAYER_1
 10
81.4805
 20
228.7312
 42
0.1642047993
  0
VERTEX
  8
LAYER_1
 10
81.3823
 20
228.3234
 42
0.1516430325
  0
VERTEX
  8
LAYER_1
 10
81.5835
 20
227.8826
 42
0.04803442659
  0
VERTEX
  8
LAYER_1
 10
81.8358
 20
227.6238
 42
0.03745229337
  0
VERTEX
  8
LAYER_1
 10
82.2804
 20
227.3003
 42
0.02503964218
  0
VERTEX
  8
LAYER_1
 10
82.8882
 20
226.9631
 42
0.01765569347
  0
VERTEX
  8
LAYER_1
 10
83.6682
 20
226.6122
 42
0.01467612268
  0
VERTEX
  8
LAYER_1
 10
84.808
 20
226.1861
 42
0.01509808178
  0
VERTEX
  8
LAYER_1
 10
86.8929
 20
225.5468
 42
0.03476805993
  0
VERTEX
  8
LAYER_1
 10
89.3817
 20
225.035
 42
0.03316738336
  0
VERTEX
  8
LAYER_1
 10
91.4578
 20
224.9
 42
0.03929240238
  0
VERTEX
  8
LAYER_1
 10
93.7352
 20
225.0855
 42
0.03569536942
  0
VERTEX
  8
LAYER_1
 10
95.8021
 20
225.5739
 42
0.03366919971
  0
VERTEX
  8
LAYER_1
 10
97.9795
 20
226.4189
 42
0.02784892778
  0
VERTEX
  8
LAYER_1
 10
100.5976
 20
227.8202
 42
-0.003927331554
  0
VERTEX
  8
LAYER_1
 10
103.5999
 20
229.6142
 42
-0.03396497415
  0
VERTEX
  8
LAYER_1
 10
105.2424
 20
230.3881
 42
-0.04344161055
  0
VERTEX
  8
LAYER_1
 10
106.3005
 20
230.6807
 42
-0.04260664915
  0
VERTEX
  8
LAYER_1
 10
108.0368
 20
230.8361
 42
-0.03859689281
  0
VERTEX
  8
LAYER_1
 10
109.4751
 20
230.7276
 42
-0.04617948156
  0
VERTEX
  8
LAYER_1
 10
111.1404
 20
230.3098
 42
-0.04471203107
  0
VERTEX
  8
LAYER_1
 10
112.8105
 20
229.5488
 42
-0.03938610802
  0
VERTEX
  8
LAYER_1
 10
114.4512
 20
228.4411
 42
-0.03377427145
  0
VERTEX
  8
LAYER_1
 10
116.1437
 20
226.9052
 42
-0.02640930286
  0
VERTEX
  8
LAYER_1
 10
118.0018
 20
224.7746
 42
-0.007012928664
  0
VERTEX
  8
LAYER_1
 10
119.5441
 20
222.7628
 42
0.02022246771
  0
VERTEX
  8
LAYER_1
 10
120.6866
 20
221.3309
 42
0.04475668646
  0
VERTEX
  8
LAYER_1
 10
121.4224
 20
220.6174
 42
0.03413535546
  0
VERTEX
  8
LAYER_1
 10
123.5405
 20
219.2187
 42
0.03763158383
  0
VERTEX
  8
LAYER_1
 10
125.4158
 20
218.3443
 42
0.04160188514
  0
VERTEX
  8
LAYER_1
 10
127.1903
 20
217.8456
 42
0.04319916008
  0
VERTEX
  8
LAYER_1
 10
129.0728
 20
217.6549
 42
0.008305791421
  0
VERTEX
  8
LAYER_1
 10
130.4267
 20
217.6615
  0
SEQEND
  0
ENDBLK
  0
BLOCK
  8
LAYER_1
  2
AIGNBL01020012
 70
64
 10
0
 20
0
 30
0
  3
AIGNBL01020012
  0
INSERT
  8
LAYER_1
  2
AIGNBL01030013
 10
0
 20
0
 30
0
  0
ENDBLK
  0
BLOCK
  8
LAYER_1
  2
AIGNBL0102001B
 70
64
 10
0
 20
0
 30
0
  3
AIGNBL0102001B
  0
INSERT
  8
LAYER_1
  2
AIGNBL0103001C
 10
0
 20
0
 30
0
  0
INSERT
  8
LAYER_1
  2
AIGNBL0103001D
 10
0
 20
0
 30
0
  0
INSERT
  8
LAYER_1
  2
AIGNBL0103001E
 10
0
 20
0
 30
0
  0
INSERT
  8
LAYER_1
  2
AIGNBL0103001F
 10
0
 20
0
 30
0
  0
INSERT
  8
LAYER_1
  2
AIGNBL01030020
 10
0
 20
0
 30
0
  0
INSERT
  8
LAYER_1
  2
AIGNBL01030021
 10
0
 20
0
 30
0
  0
INSERT
  8
LAYER_1
  2
AIGNBL01030022
 10
0
 20
0
 30
0
  0
INSERT
  8
LAYER_1
  2
AIGNBL01030023
 10
0
 20
0
 30
0
  0
INSERT
  8
LAYER_1
  2
AIGNBL01030024
 10
0
 20
0
 30
0
  0
INSERT
  8
LAYER_1
  2
AIGNBL01030025
 10
0
 20
0
 30
0
  0
INSERT
  8
LAYER_1
  2
AIGNBL01030026
 10
0
 20
0
 30
0
  0
INSERT
  8
LAYER_1
  2
AIGNBL01030027
 10
0
 20
0
 30
0
  0
INSERT
  8
LAYER_1
  2
AIGNBL01030028
 10
0
 20
0
 30
0
  0
INSERT
  8
LAYER_1
  2
AIGNBL01030029
 10
0
 20
0
 30
0
  0
INSERT
  8
LAYER_1
  2
AIGNBL0103002A
 10
0
 20
0
 30
0
  0
INSERT
  8
LAYER_1
  2
AIGNBL0103002B
 10
0
 20
0
 30
0
  0
INSERT
  8
LAYER_1
  2
AIGNBL0103002C
 10
0
 20
0
 30
0
  0
INSERT
  8
LAYER_1
  2
AIGNBL0103002D
 10
0
 20
0
 30
0
  0
INSERT
  8
LAYER_1
  2
AIGNBL0103002E
 10
0
 20
0
 30
0
  0
INSERT
  8
LAYER_1
  2
AIGNBL0103002F
 10
0
 20
0
 30
0
  0
INSERT
  8
LAYER_1
  2
AIGNBL01030030
 10
0
 20
0
 30
0
  0
INSERT
  8
LAYER_1
  2
AIGNBL01030031
 10
0
 20
0
 30
0
  0
INSERT
  8
LAYER_1
  2
AIGNBL01030032
 10
0
 20
0
 30
0
  0
ENDBLK
  0
BLOCK
  8
LAYER_1
  2
AIGNBL01010002
 70
64
 10
0
 20
0
 30
0
  3
AIGNBL01010002
  0
INSERT
  8
LAYER_1
  2
AIGNBL01020003
 10
0
 20
0
 30
0
  0
POLYLINE
  8
LAYER_1
 40
0.05
 41
0.05
 66
1
 10
0
 20
0
 30
0
 70
1
  0
VERTEX
  8
LAYER_1
 10
227.747
 20
371.3737
  0
VERTEX
  8
LAYER_1
 10
302.9996
 20
371.3737
  0
VERTEX
  8
LAYER_1
 10
302.9996
 20
410.699
  0
VERTEX
  8
LAYER_1
 10
227.747
 20
410.699
  0
SEQEND
  0
ENDBLK
  0
BLOCK
  8
LAYER_1
  2
AIGNBL01010004
 70
64
 10
0
 20
0
 30
0
  3
AIGNBL01010004
  0
POLYLINE
  8
LAYER_1
 40
0.1799
 41
0.1799
 66
1
 10
0
 20
0
 30
0
  0
VERTEX
  8
LAYER_1
 10
65.971
 20
168.9661
  0
VERTEX
  8
LAYER_1
 10
65.9286
 20
169.6014
  0
VERTEX
  8
LAYER_1
 10
65.7805
 20
170.2153
 42
0.06983347895
  0
VERTEX
  8
LAYER_1
 10
65.1708
 20
171.3578
 42
0.06233737309
  0
VERTEX
  8
LAYER_1
 10
64.4738
 20
172.0923
 42
0.2053494329
  0
VERTEX
  8
LAYER_1
 10
61.4609
 20
172.9394
 42
0.3044678292
  0
VERTEX
  8
LAYER_1
 10
58.0582
 20
169.8345
 42
0.00983555049
  0
VERTEX
  8
LAYER_1
 10
58.012
 20
169.6434
  0
VERTEX
  8
LAYER_1
 10
57.9696
 20
169.0088
  0
VERTEX
  8
LAYER_1
 10
58.012
 20
168.3949
 42
0.07089814593
  0
VERTEX
  8
LAYER_1
 10
58.4019
 20
167.1683
 42
0.06840072295
  0
VERTEX
  8
LAYER_1
 10
59.0026
 20
166.2748
 42
0.1309764536
  0
VERTEX
  8
LAYER_1
 10
60.6802
 20
165.1814
 42
0.2270492274
  0
VERTEX
  8
LAYER_1
 10
64.2467
 20
165.6594
 42
0.1401158864
  0
VERTEX
  8
LAYER_1
 10
65.5832
 20
167.2845
 42
0.05552616633
  0
VERTEX
  8
LAYER_1
 10
65.8862
 20
168.2468
  0
VERTEX
  8
LAYER_1
 10
65.971
 20
168.8607
  0
VERTEX
  8
LAYER_1
 10
65.971
 20
168.9661
  0
SEQEND
  0
POLYLINE
  8
LAYER_1
 40
0.1799
 41
0.1799
 66
1
 10
0
 20
0
 30
0
  0
VERTEX
  8
LAYER_1
 10
76.2367
 20
177.8138
  0
VERTEX
  8
LAYER_1
 10
78.5862
 20
180.5867
  0
VERTEX
  8
LAYER_1
 10
75.1784
 20
179.3593
  0
SEQEND
  0
POLYLINE
  8
LAYER_1
 40
0.1799
 41
0.1799
 66
1
 10
0
 20
0
 30
0
  0
VERTEX
  8
LAYER_1
 10
65.2513
 20
171.2736
  0
VERTEX
  8
LAYER_1
 10
78.5862
 20
180.5867
  0
SEQEND
  0
POLYLINE
  8
LAYER_1
 40
0.05
 41
0.05
 66
1
 10
0
 20
0
 30
0
 70
1
  0
VERTEX
  8
LAYER_1
 10
0
 20
425.9997
  0
VERTEX
  8
LAYER_1
 10
302.9996
 20
425.9997
  0
VERTEX
  8
LAYER_1
 10
302.9996
 20
0
  0
VERTEX
  8
LAYER_1
 10
0
 20
0
  0
SEQEND
  0
ENDBLK
  0
BLOCK
  8
LAYER_1
  2
AIGNBL01010005
 70
64
 10
0
 20
0
 30
0
  3
AIGNBL01010005
  0
POLYLINE
  8
LAYER_1
 40
0.1799
 41
0.1799
 66
1
 10
0
 20
0
 30
0
  0
VERTEX
  8
LAYER_1
 10
81.7037
 20
166.9479
  0
VERTEX
  8
LAYER_1
 10
81.6613
 20
167.5832
  0
VERTEX
  8
LAYER_1
 10
81.5132
 20
168.1971
 42
0.06983233614
  0
VERTEX
  8
LAYER_1
 10
80.9035
 20
169.3396
 42
0.06233692726
  0
VERTEX
  8
LAYER_1
 10
80.2065
 20
170.0742
 42
0.2053505448
  0
VERTEX
  8
LAYER_1
 10
77.1936
 20
170.9213
 42
0.3044702785
  0
VERTEX
  8
LAYER_1
 10
73.7909
 20
167.8164
 42
0.009835551603
  0
VERTEX
  8
LAYER_1
 10
73.7447
 20
167.6253
  0
VERTEX
  8
LAYER_1
 10
73.7023
 20
166.9907
  0
VERTEX
  8
LAYER_1
 10
73.7447
 20
166.3768
 42
0.07089822849
  0
VERTEX
  8
LAYER_1
 10
74.1346
 20
165.1502
 42
0.06840086641
  0
VERTEX
  8
LAYER_1
 10
74.7353
 20
164.2567
 42
0.1309762516
  0
VERTEX
  8
LAYER_1
 10
76.4129
 20
163.1633
 42
0.2270436763
  0
VERTEX
  8
LAYER_1
 10
79.9795
 20
163.6412
 42
0.1401106973
  0
VERTEX
  8
LAYER_1
 10
81.3161
 20
165.2663
 42
0.05552579445
  0
VERTEX
  8
LAYER_1
 10
81.6191
 20
166.2286
  0
VERTEX
  8
LAYER_1
 10
81.7037
 20
166.8425
  0
VERTEX
  8
LAYER_1
 10
81.7037
 20
166.9479
  0
SEQEND
  0
POLYLINE
  8
LAYER_1
 40
0.1799
 41
0.1799
 66
1
 10
0
 20
0
 30
0
  0
VERTEX
  8
LAYER_1
 10
91.9694
 20
175.7956
  0
VERTEX
  8
LAYER_1
 10
94.319
 20
178.5686
  0
VERTEX
  8
LAYER_1
 10
90.9111
 20
177.3411
  0
SEQEND
  0
POLYLINE
  8
LAYER_1
 40
0.1799
 41
0.1799
 66
1
 10
0
 20
0
 30
0
  0
VERTEX
  8
LAYER_1
 10
80.984
 20
169.2555
  0
VERTEX
  8
LAYER_1
 10
94.319
 20
178.5686
  0
SEQEND
  0
POLYLINE
  8
LAYER_1
 40
0.05
 41
0.05
 66
1
 10
0
 20
0
 30
0
 70
1
  0
VERTEX
  8
LAYER_1
 10
0
 20
425.9997
  0
VERTEX
  8
LAYER_1
 10
302.9996
 20
425.9997
  0
VERTEX
  8
LAYER_1
 10
302.9996
 20
0
  0
VERTEX
  8
LAYER_1
 10
0
 20
0
  0
SEQEND
  0
ENDBLK
  0
BLOCK
  8
LAYER_1
  2
AIGNBL01010006
 70
64
 10
0
 20
0
 30
0
  3
AIGNBL01010006
  0
POLYLINE
  8
LAYER_1
 40
0.1764
 41
0.1764
 66
1
 10
0
 20
0
 30
0
  0
VERTEX
  8
LAYER_1
 10
243.8456
 20
366.4632
 42
-0.0253668996
  0
VERTEX
  8
LAYER_1
 10
247.5032
 20
366.2741
 42
-0.01927377334
  0
VERTEX
  8
LAYER_1
 10
251.1285
 20
365.7729
 42
-0.02751484676
  0
VERTEX
  8
LAYER_1
 10
254.4847
 20
365.0097
 42
-0.03579531407
  0
VERTEX
  8
LAYER_1
 10
256.5124
 20
364.252
 42
-0.0494256163
  0
VERTEX
  8
LAYER_1
 10
257.8491
 20
363.4594
 42
-0.006983505932
  0
VERTEX
  8
LAYER_1
 10
257.9725
 20
363.3627
  0
SEQEND
  0
INSERT
  8
LAYER_1
  2
AIGNBL01020007
 10
0
 20
0
 30
0
  0
POLYLINE
  8
LAYER_1
 40
0.1764
 41
0.1764
 66
1
 10
0
 20
0
 30
0
  0
VERTEX
  8
LAYER_1
 10
230.6216
 20
363.9339
 42
-0.04668013616
  0
VERTEX
  8
LAYER_1
 10
232.4715
 20
364.7394
 42
-0.03045301427
  0
VERTEX
  8
LAYER_1
 10
235.0897
 20
365.4579
 42
-0.01278266743
  0
VERTEX
  8
LAYER_1
 10
237.0987
 20
365.8431
 42
-0.02233513426
  0
VERTEX
  8
LAYER_1
 10
241.248
 20
366.3607
 42
-0.01831775731
  0
VERTEX
  8
LAYER_1
 10
243.8456
 20
366.4632
  0
SEQEND
  0
INSERT
  8
LAYER_1
  2
AIGNBL01020008
 10
0
 20
0
 30
0
  0
POLYLINE
  8
LAYER_1
 40
0.1764
 41
0.1764
 66
1
 10
0
 20
0
 30
0
  0
VERTEX
  8
LAYER_1
 10
231.517
 20
335.9419
  0
VERTEX
  8
LAYER_1
 10
231.3041
 20
336.7117
  0
VERTEX
  8
LAYER_1
 10
231.2507
 20
336.9047
  0
VERTEX
  8
LAYER_1
 10
231.2445
 20
336.9286
  0
VERTEX
  8
LAYER_1
 10
231.2434
 20
336.9343
  0
VERTEX
  8
LAYER_1
 10
231.2434
 20
336.9322
  0
VERTEX
  8
LAYER_1
 10
231.2479
 20
336.9178
  0
VERTEX
  8
LAYER_1
 10
231.2662
 20
336.8606
  0
VERTEX
  8
LAYER_1
 10
231.3134
 20
336.7522
 42
0.07920202982
  0
VERTEX
  8
LAYER_1
 10
231.5952
 20
336.3727
 42
0.04515471484
  0
VERTEX
  8
LAYER_1
 10
231.9881
 20
336.0465
 42
0.03185627128
  0
VERTEX
  8
LAYER_1
 10
232.5014
 20
335.7392
 42
0.02603938896
  0
VERTEX
  8
LAYER_1
 10
233.2223
 20
335.4135
 42
0.04044614362
  0
VERTEX
  8
LAYER_1
 10
235.419
 20
334.7612
 42
0.01316990468
  0
VERTEX
  8
LAYER_1
 10
236.706
 20
334.5093
 42
0.0256750017
  0
VERTEX
  8
LAYER_1
 10
240.3449
 20
334.09
 42
0.01846192286
  0
VERTEX
  8
LAYER_1
 10
243.8893
 20
333.9822
 42
0.02122778918
  0
VERTEX
  8
LAYER_1
 10
248.1065
 20
334.1816
 42
0.01853281148
  0
VERTEX
  8
LAYER_1
 10
251.0699
 20
334.5661
 42
0.03066447021
  0
VERTEX
  8
LAYER_1
 10
254.0875
 20
335.2487
 42
0.007104728137
  0
VERTEX
  8
LAYER_1
 10
254.5726
 20
335.4033
 42
0.04864111327
  0
VERTEX
  8
LAYER_1
 10
256.3414
 20
336.1697
 42
0.07348835598
  0
VERTEX
  8
LAYER_1
 10
257.172
 20
336.8198
 42
0.1134995954
  0
VERTEX
  8
LAYER_1
 10
257.4678
 20
337.3558
  0
SEQEND
  0
POLYLINE
  8
LAYER_1
 40
0.1764
 41
0.1764
 66
1
 10
0
 20
0
 30
0
  0
VERTEX
  8
LAYER_1
 10
257.2029
 20
323.7566
 42
0.04942317398
  0
VERTEX
  8
LAYER_1
 10
255.7209
 20
324.9355
 42
0.04512298554
  0
VERTEX
  8
LAYER_1
 10
254.1846
 20
325.7347
 42
0.006534886729
  0
VERTEX
  8
LAYER_1
 10
253.9228
 20
325.8395
  0
SEQEND
  0
POLYLINE
  8
LAYER_1
 40
0.1764
 41
0.1764
 66
1
 10
0
 20
0
 30
0
  0
VERTEX
  8
LAYER_1
 10
254.1333
 20
326.4369
 42
-0.04654121775
  0
VERTEX
  8
LAYER_1
 10
255.9171
 20
325.5542
 42
-0.05422315495
  0
VERTEX
  8
LAYER_1
 10
257.6394
 20
324.2095
  0
SEQEND
  0
POLYLINE
  8
LAYER_1
 40
0.1764
 41
0.1764
 66
1
 10
0
 20
0
 30
0
  0
VERTEX
  8
LAYER_1
 10
257.6394
 20
324.2093
 42
0.08078034173
  0
VERTEX
  8
LAYER_1
 10
257.8654
 20
324.0695
 42
0.03736165239
  0
VERTEX
  8
LAYER_1
 10
258.2891
 20
323.9236
 42
0.02254818361
  0
VERTEX
  8
LAYER_1
 10
259.0558
 20
323.7547
 42
0.01855713724
  0
VERTEX
  8
LAYER_1
 10
260.6235
 20
323.5384
 42
0.01322960351
  0
VERTEX
  8
LAYER_1
 10
263.6435
 20
323.3079
 42
0.009692176123
  0
VERTEX
  8
LAYER_1
 10
269.752
 20
323.1221
 42
0.007102931424
  0
VERTEX
  8
LAYER_1
 10
281.9735
 20
323.1537
  0
SEQEND
  0
POLYLINE
  8
LAYER_1
 40
0.1764
 41
0.1764
 66
1
 10
0
 20
0
 30
0
  0
VERTEX
  8
LAYER_1
 10
281.7496
 20
322.5267
 42
-0.007363984332
  0
VERTEX
  8
LAYER_1
 10
269.3985
 20
322.5006
 42
-0.01069664553
  0
VERTEX
  8
LAYER_1
 10
263.2267
 20
322.7038
 42
-0.01564507051
  0
VERTEX
  8
LAYER_1
 10
260.1512
 20
322.9589
 42
-0.02254631479
  0
VERTEX
  8
LAYER_1
 10
258.6257
 20
323.1977
 42
-0.03766114389
  0
VERTEX
  8
LAYER_1
 10
257.8131
 20
323.4177
 42
-0.09156055797
  0
VERTEX
  8
LAYER_1
 10
257.2029
 20
323.7565
  0
SEQEND
  0
POLYLINE
  8
LAYER_1
 40
0.1764
 41
0.1764
 66
1
 10
0
 20
0
 30
0
  0
VERTEX
  8
LAYER_1
 10
244.5201
 20
339.7915
 42
0.02231931164
  0
VERTEX
  8
LAYER_1
 10
240.3703
 20
339.5648
 42
0.01824834578
  0
VERTEX
  8
LAYER_1
 10
237.6386
 20
339.185
 42
0.03199908258
  0
VERTEX
  8
LAYER_1
 10
234.7248
 20
338.4953
 42
0.006775057706
  0
VERTEX
  8
LAYER_1
 10
234.2868
 20
338.3501
 42
0.04929667136
  0
VERTEX
  8
LAYER_1
 10
232.6062
 20
337.5926
 42
0.07659013984
  0
VERTEX
  8
LAYER_1
 10
231.7879
 20
336.9242
 42
0.09720046769
  0
VERTEX
  8
LAYER_1
 10
231.5239
 20
336.4482
  0
SEQEND
  0
POLYLINE
  8
LAYER_1
 40
0.1764
 41
0.1764
 66
1
 10
0
 20
0
 30
0
  0
VERTEX
  8
LAYER_1
 10
257.2046
 20
336.8625
 42
0.1275773019
  0
VERTEX
  8
LAYER_1
 10
256.8107
 20
337.4518
 42
0.0402950093
  0
VERTEX
  8
LAYER_1
 10
256.4472
 20
337.7477
 42
0.03198031091
  0
VERTEX
  8
LAYER_1
 10
255.9229
 20
338.0618
 42
0.0450256301
  0
VERTEX
  8
LAYER_1
 10
254.4809
 20
338.645
 42
0.03593715774
  0
VERTEX
  8
LAYER_1
 10
251.9085
 20
339.259
 42
0.006499207286
  0
VERTEX
  8
LAYER_1
 10
251.2088
 20
339.3717
 42
0.02502577909
  0
VERTEX
  8
LAYER_1
 10
247.5063
 20
339.738
 42
0.01603332033
  0
VERTEX
  8
LAYER_1
 10
244.5201
 20
339.7915
  0
SEQEND
  0
POLYLINE
  8
LAYER_1
 40
0.1764
 41
0.1764
 66
1
 10
0
 20
0
 30
0
  0
VERTEX
  8
LAYER_1
 10
257.0558
 20
335.7704
 42
-0.01705223552
  0
VERTEX
  8
LAYER_1
 10
255.5217
 20
330.4984
 42
-0.007334342357
  0
VERTEX
  8
LAYER_1
 10
253.5635
 20
324.8184
  0
VERTEX
  8
LAYER_1
 10
253.0867
 20
323.4623
  0
VERTEX
  8
LAYER_1
 10
252.848
 20
322.7849
 42
-0.05864939627
  0
VERTEX
  8
LAYER_1
 10
252.5531
 20
322.1312
 42
-0.08574411341
  0
VERTEX
  8
LAYER_1
 10
251.8282
 20
321.3296
 42
-0.06251897009
  0
VERTEX
  8
LAYER_1
 10
250.7304
 20
320.6576
 42
-0.01514916174
  0
VERTEX
  8
LAYER_1
 10
250.2724
 20
320.459
 42
-0.04391662271
  0
VERTEX
  8
LAYER_1
 10
248.3049
 20
319.8787
 42
-0.03304095365
  0
VERTEX
  8
LAYER_1
 10
245.9476
 20
319.5459
 42
-0.01491467529
  0
VERTEX
  8
LAYER_1
 10
244.6362
 20
319.4813
 42
-0.03231021039
  0
VERTEX
  8
LAYER_1
 10
241.9147
 20
319.6042
 42
-0.03594016912
  0
VERTEX
  8
LAYER_1
 10
239.761
 20
320.0008
 42
-0.02081832991
  0
VERTEX
  8
LAYER_1
 10
238.9718
 20
320.2475
 42
-0.06051532806
  0
VERTEX
  8
LAYER_1
 10
237.5943
 20
320.926
 42
-0.07419969157
  0
VERTEX
  8
LAYER_1
 10
236.8108
 20
321.6419
 42
-0.0251604102
  0
VERTEX
  8
LAYER_1
 10
236.6536
 20
321.8639
 42
-0.05232500509
  0
VERTEX
  8
LAYER_1
 10
236.348
 20
322.5136
  0
VERTEX
  8
LAYER_1
 10
236.0872
 20
323.1832
  0
VERTEX
  8
LAYER_1
 10
235.5639
 20
324.5242
 42
-0.01463532318
  0
VERTEX
  8
LAYER_1
 10
232.5264
 20
332.7089
 42
-0.008959353355
  0
VERTEX
  8
LAYER_1
 10
231.7099
 20
335.3533
  0
SEQEND
  0
POLYLINE
  8
LAYER_1
 40
0.1764
 41
0.1764
 66
1
 10
0
 20
0
 30
0
 70
1
  0
VERTEX
  8
LAYER_1
 10
244.507
 20
340.8436
 42
-0.02153630368
  0
VERTEX
  8
LAYER_1
 10
248.7003
 20
340.7168
 42
-0.02105098035
  0
VERTEX
  8
LAYER_1
 10
251.8327
 20
340.3505
 42
-0.01532642446
  0
VERTEX
  8
LAYER_1
 10
253.3575
 20
340.0549
 42
-0.04037276142
  0
VERTEX
  8
LAYER_1
 10
255.6284
 20
339.3652
 42
-0.0009024783206
  0
VERTEX
  8
LAYER_1
 10
255.6636
 20
339.3507
 42
-0.06338184971
  0
VERTEX
  8
LAYER_1
 10
256.9325
 20
338.6485
 42
-0.09521979889
  0
VERTEX
  8
LAYER_1
 10
257.4665
 20
338.0517
 42
-0.03128287251
  0
VERTEX
  8
LAYER_1
 10
257.5333
 20
337.905
 42
-0.1583225358
  0
VERTEX
  8
LAYER_1
 10
257.5634
 20
337.2843
 42
0.0001833079116
  0
VERTEX
  8
LAYER_1
 10
257.483
 20
336.9638
  0
VERTEX
  8
LAYER_1
 10
257.2911
 20
336.1912
 42
-0.123692036
  0
VERTEX
  8
LAYER_1
 10
256.8678
 20
335.5637
 42
-0.01688875791
  0
VERTEX
  8
LAYER_1
 10
256.7413
 20
335.4472
 42
-0.03796138242
  0
VERTEX
  8
LAYER_1
 10
256.2359
 20
335.0813
 42
-0.04313478321
  0
VERTEX
  8
LAYER_1
 10
255.12
 20
334.5246
 42
-0.0386150938
  0
VERTEX
  8
LAYER_1
 10
252.822
 20
333.8017
 42
-0.01253915023
  0
VERTEX
  8
LAYER_1
 10
251.5185
 20
333.5192
 42
-0.0252195621
  0
VERTEX
  8
LAYER_1
 10
247.8767
 20
333.0213
 42
-0.01951283767
  0
VERTEX
  8
LAYER_1
 10
244.208
 20
332.8381
 42
-0.02235521885
  0
VERTEX
  8
LAYER_1
 10
240.0128
 20
332.9751
 42
-0.02203283222
  0
VERTEX
  8
LAYER_1
 10
236.8851
 20
333.3588
 42
-0.03333289193
  0
VERTEX
  8
LAYER_1
 10
234.2005
 20
333.9958
 42
-0.02340171584
  0
VERTEX
  8
LAYER_1
 10
233.2467
 20
334.3496
 42
-0.06439995682
  0
VERTEX
  8
LAYER_1
 10
232.0274
 20
335.0474
 42
-0.05107030315
  0
VERTEX
  8
LAYER_1
 10
231.6861
 20
335.3826
 42
-0.07479340741
  0
VERTEX
  8
LAYER_1
 10
231.4777
 20
335.7174
 42
-0.03721411093
  0
VERTEX
  8
LAYER_1
 10
231.3371
 20
336.1817
  0
VERTEX
  8
LAYER_1
 10
231.2321
 20
336.5648
  0
VERTEX
  8
LAYER_1
 10
231.1246
 20
336.9557
 42
-0.1550832678
  0
VERTEX
  8
LAYER_1
 10
231.1782
 20
337.5491
 42
-0.1134805238
  0
VERTEX
  8
LAYER_1
 10
231.5971
 20
338.127
 42
-0.05179329365
  0
VERTEX
  8
LAYER_1
 10
232.1808
 20
338.5685
 42
-0.05626269475
  0
VERTEX
  8
LAYER_1
 10
233.703
 20
339.2862
 42
-0.006899783991
  0
VERTEX
  8
LAYER_1
 10
234.0529
 20
339.4086
 42
-0.03382704656
  0
VERTEX
  8
LAYER_1
 10
236.7199
 20
340.0996
 42
-0.004096056726
  0
VERTEX
  8
LAYER_1
 10
237.1931
 20
340.1892
 42
-0.0245498267
  0
VERTEX
  8
LAYER_1
 10
240.9531
 20
340.6776
 42
-0.01816345007
  0
SEQEND
  0
INSERT
  8
LAYER_1
  2
AIGNBL01020009
 10
0
 20
0
 30
0
  0
INSERT
  8
LAYER_1
  2
AIGNBL0102000A
 10
0
 20
0
 30
0
  0
POLYLINE
  8
LAYER_1
 40
0.1764
 41
0.1764
 62
115
 66
1
 10
0
 20
0
 30
0
  0
VERTEX
  8
LAYER_1
 10
231.5183
 20
335.9351
 42
0.1337970681
  0
VERTEX
  8
LAYER_1
 10
231.8877
 20
335.3372
 42
0.04966313047
  0
VERTEX
  8
LAYER_1
 10
232.3331
 20
334.9765
 42
0.06169577174
  0
VERTEX
  8
LAYER_1
 10
233.675
 20
334.3102
 42
0.01373379909
  0
VERTEX
  8
LAYER_1
 10
234.3354
 20
334.085
 42
0.03522531304
  0
VERTEX
  8
LAYER_1
 10
236.9012
 20
333.4822
 42
0.006411332718
  0
VERTEX
  8
LAYER_1
 10
237.735
 20
333.3519
 42
0.02487560106
  0
VERTEX
  8
LAYER_1
 10
241.4726
 20
333.0038
 42
0.01710156758
  0
VERTEX
  8
LAYER_1
 10
244.6821
 20
332.9709
 42
0.02207257388
  0
VERTEX
  8
LAYER_1
 10
248.7599
 20
333.2353
 42
0.01992457758
  0
VERTEX
  8
LAYER_1
 10
251.6043
 20
333.6635
 42
0.03338598417
  0
VERTEX
  8
LAYER_1
 10
254.3387
 20
334.3646
 42
0.01194981876
  0
VERTEX
  8
LAYER_1
 10
254.9546
 20
334.5913
 42
0.04664597652
  0
VERTEX
  8
LAYER_1
 10
256.2304
 20
335.2238
 42
0.08340977358
  0
VERTEX
  8
LAYER_1
 10
256.9841
 20
335.8744
 42
0.1475297619
  0
VERTEX
  8
LAYER_1
 10
257.2489
 20
336.4982
 42
0.001392705129
  0
VERTEX
  8
LAYER_1
 10
257.2494
 20
336.504
 42
0.0715854669
  0
VERTEX
  8
LAYER_1
 10
257.2305
 20
336.77
  0
VERTEX
  8
LAYER_1
 10
257.2046
 20
336.8625
  0
SEQEND
  0
POLYLINE
  8
LAYER_1
 40
0.1764
 41
0.1764
 62
115
 66
1
 10
0
 20
0
 30
0
  0
VERTEX
  8
LAYER_1
 10
253.9232
 20
325.8402
 42
0.04343327775
  0
VERTEX
  8
LAYER_1
 10
251.7998
 20
326.3571
 42
0.0002426997293
  0
VERTEX
  8
LAYER_1
 10
251.7827
 20
326.3599
 42
0.02291263721
  0
VERTEX
  8
LAYER_1
 10
250.6872
 20
326.4982
 42
0.03043399723
  0
VERTEX
  8
LAYER_1
 10
250.137
 20
326.5175
 42
0.05377352608
  0
VERTEX
  8
LAYER_1
 10
249.7594
 20
326.4784
  0
VERTEX
  8
LAYER_1
 10
249.6819
 20
326.4576
  0
VERTEX
  8
LAYER_1
 10
249.6003
 20
326.4176
  0
SEQEND
  0
POLYLINE
  8
LAYER_1
 40
0.1764
 41
0.1764
 62
115
 66
1
 10
0
 20
0
 30
0
  0
VERTEX
  8
LAYER_1
 10
249.0094
 20
326.6071
 42
-0.2027485735
  0
VERTEX
  8
LAYER_1
 10
249.3022
 20
326.9754
 42
-0.06619825818
  0
VERTEX
  8
LAYER_1
 10
249.5623
 20
327.0802
 42
-0.06457824431
  0
VERTEX
  8
LAYER_1
 10
250.1484
 20
327.1494
 42
-0.04262496026
  0
VERTEX
  8
LAYER_1
 10
251.4982
 20
327.0431
 42
-0.03938801607
  0
VERTEX
  8
LAYER_1
 10
253.83
 20
326.5365
 42
-0.00683701787
  0
VERTEX
  8
LAYER_1
 10
254.1333
 20
326.4371
  0
SEQEND
  0
POLYLINE
  8
LAYER_1
 40
0.1764
 41
0.1764
 62
115
 66
1
 10
0
 20
0
 30
0
  0
VERTEX
  8
LAYER_1
 10
245.2987
 20
330.8556
 42
-0.01934688091
  0
VERTEX
  8
LAYER_1
 10
244.6296
 20
326.1263
 42
-0.01964845355
  0
VERTEX
  8
LAYER_1
 10
244.2487
 20
324.4679
 42
-0.05664004968
  0
VERTEX
  8
LAYER_1
 10
243.6878
 20
322.9808
 42
-0.1103867179
  0
VERTEX
  8
LAYER_1
 10
243.1752
 20
322.3428
 42
-0.2204771176
  0
VERTEX
  8
LAYER_1
 10
242.3931
 20
322.1734
 42
-0.2001739086
  0
VERTEX
  8
LAYER_1
 10
241.5493
 20
322.7021
 42
-0.06546957004
  0
VERTEX
  8
LAYER_1
 10
241.2728
 20
323.1978
 42
-0.07421360308
  0
VERTEX
  8
LAYER_1
 10
240.9797
 20
324.4348
 42
-0.01166379207
  0
VERTEX
  8
LAYER_1
 10
240.9458
 20
324.8086
 42
-0.05045500798
  0
VERTEX
  8
LAYER_1
 10
240.9742
 20
326.5858
 42
-0.003140461766
  0
VERTEX
  8
LAYER_1
 10
240.9827
 20
326.6381
 42
-0.08563224733
  0
VERTEX
  8
LAYER_1
 10
241.3341
 20
327.6892
 42
-0.02718038526
  0
VERTEX
  8
LAYER_1
 10
241.4922
 20
327.9364
 42
-0.1914565309
  0
VERTEX
  8
LAYER_1
 10
243.0511
 20
328.9242
 42
-0.06732689038
  0
VERTEX
  8
LAYER_1
 10
244.2232
 20
329.0171
 42
-0.007051877742
  0
VERTEX
  8
LAYER_1
 10
244.3971
 20
329.0085
 42
-0.04383014102
  0
VERTEX
  8
LAYER_1
 10
246.3595
 20
328.7056
 42
-0.04043465894
  0
VERTEX
  8
LAYER_1
 10
247.548
 20
328.3159
 42
-0.07345966076
  0
VERTEX
  8
LAYER_1
 10
248.6267
 20
327.6531
 42
-0.04299332471
  0
VERTEX
  8
LAYER_1
 10
248.9891
 20
327.2803
 42
-0.02965278963
  0
VERTEX
  8
LAYER_1
 10
249.221
 20
326.9475
  0
SEQEND
  0
POLYLINE
  8
LAYER_1
 40
0.1764
 41
0.1764
 62
115
 66
1
 10
0
 20
0
 30
0
  0
VERTEX
  8
LAYER_1
 10
249.6444
 20
326.3598
  0
VERTEX
  8
LAYER_1
 10
249.8073
 20
326.0208
  0
VERTEX
  8
LAYER_1
 10
249.8342
 20
325.945
 42
-0.5988014148
  0
VERTEX
  8
LAYER_1
 10
249.3798
 20
325.5805
 42
-0.1058622847
  0
VERTEX
  8
LAYER_1
 10
249.2544
 20
325.7071
  0
VERTEX
  8
LAYER_1
 10
249.1049
 20
325.9413
  0
VERTEX
  8
LAYER_1
 10
248.72
 20
326.5883
 42
0.09715276305
  0
VERTEX
  8
LAYER_1
 10
248.0866
 20
327.2995
 42
0.07504806076
  0
VERTEX
  8
LAYER_1
 10
247.1355
 20
327.8217
 42
0.01416864462
  0
VERTEX
  8
LAYER_1
 10
246.7849
 20
327.9473
 42
0.04768493576
  0
VERTEX
  8
LAYER_1
 10
244.9526
 20
328.3347
 42
0.01452595362
  0
VERTEX
  8
LAYER_1
 10
244.4102
 20
328.3875
 42
0.0737682444
  0
VERTEX
  8
LAYER_1
 10
243.1479
 20
328.3056
 42
0.09482168484
  0
VERTEX
  8
LAYER_1
 10
242.3877
 20
327.9638
 42
0.04572458666
  0
VERTEX
  8
LAYER_1
 10
242.1547
 20
327.7578
  0
SEQEND
  0
POLYLINE
  8
LAYER_1
 40
0.1764
 41
0.1764
 62
115
 66
1
 10
0
 20
0
 30
0
  0
VERTEX
  8
LAYER_1
 10
242.1547
 20
327.7578
 42
0.1097191904
  0
VERTEX
  8
LAYER_1
 10
241.7265
 20
327.0249
 42
0.04920424905
  0
VERTEX
  8
LAYER_1
 10
241.588
 20
326.4261
 42
0.03368861868
  0
VERTEX
  8
LAYER_1
 10
241.547
 20
325.6923
 42
0.01777061637
  0
VERTEX
  8
LAYER_1
 10
241.5729
 20
324.9571
 42
0.03610717793
  0
VERTEX
  8
LAYER_1
 10
241.6795
 20
324.0699
 42
0.04036955089
  0
VERTEX
  8
LAYER_1
 10
241.8374
 20
323.5134
 42
0.1300499927
  0
VERTEX
  8
LAYER_1
 10
242.2265
 20
322.9199
 42
0.005753268085
  0
VERTEX
  8
LAYER_1
 10
242.2402
 20
322.9098
 42
0.1491369326
  0
VERTEX
  8
LAYER_1
 10
242.5847
 20
322.7948
 42
0.2553268623
  0
VERTEX
  8
LAYER_1
 10
242.9016
 20
322.9498
  0
SEQEND
  0
POLYLINE
  8
LAYER_1
 40
0.1764
 41
0.1764
 62
115
 66
1
 10
0
 20
0
 30
0
  0
VERTEX
  8
LAYER_1
 10
242.9016
 20
322.9498
 42
0.05721730374
  0
VERTEX
  8
LAYER_1
 10
243.138
 20
323.295
 42
0.0316457535
  0
VERTEX
  8
LAYER_1
 10
243.3576
 20
323.7776
 42
0.02199325958
  0
VERTEX
  8
LAYER_1
 10
243.599
 20
324.5026
 42
0.01630551861
  0
VERTEX
  8
LAYER_1
 10
243.8669
 20
325.5701
 42
0.01218406301
  0
VERTEX
  8
LAYER_1
 10
244.1521
 20
327.0553
 42
0.01656352534
  0
VERTEX
  8
LAYER_1
 10
244.6645
 20
330.9217
  0
SEQEND
  0
POLYLINE
  8
LAYER_1
 40
0.1764
 41
0.1764
 62
115
 66
1
 10
0
 20
0
 30
0
  0
VERTEX
  8
LAYER_1
 10
249.2475
 20
325.7562
 42
0.01928891237
  0
VERTEX
  8
LAYER_1
 10
249.0897
 20
326.075
  0
SEQEND
  0
POLYLINE
  8
LAYER_1
 40
0.1764
 41
0.1764
 62
115
 66
1
 10
0
 20
0
 30
0
  0
VERTEX
  8
LAYER_1
 10
249.0897
 20
326.0752
 42
-0.1932603263
  0
VERTEX
  8
LAYER_1
 10
249.0069
 20
326.5977
 42
-0.003502520585
  0
VERTEX
  8
LAYER_1
 10
249.0094
 20
326.6071
  0
SEQEND
  0
POLYLINE
  8
LAYER_1
 40
0.1764
 41
0.1764
 62
115
 66
1
 10
0
 20
0
 30
0
  0
VERTEX
  8
LAYER_1
 10
249.6003
 20
326.4176
  0
VERTEX
  8
LAYER_1
 10
249.613
 20
326.4473
  0
SEQEND
  0
POLYLINE
  8
LAYER_1
 40
0.1764
 41
0.1764
 62
115
 66
1
 10
0
 20
0
 30
0
  0
VERTEX
  8
LAYER_1
 10
249.613
 20
326.4473
 42
0.09208217398
  0
VERTEX
  8
LAYER_1
 10
249.6444
 20
326.3598
  0
SEQEND
  0
POLYLINE
  8
LAYER_1
 40
0.1764
 41
0.1764
 62
115
 66
1
 10
0
 20
0
 30
0
  0
VERTEX
  8
LAYER_1
 10
244.6645
 20
330.9217
 42
-0.3904123637
  0
VERTEX
  8
LAYER_1
 10
245.0142
 20
331.2058
  0
SEQEND
  0
POLYLINE
  8
LAYER_1
 40
0.1764
 41
0.1764
 62
115
 66
1
 10
0
 20
0
 30
0
  0
VERTEX
  8
LAYER_1
 10
245.0142
 20
331.2056
 42
-0.3685581311
  0
VERTEX
  8
LAYER_1
 10
245.3001
 20
330.8926
  0
SEQEND
  0
POLYLINE
  8
LAYER_1
 40
0.1764
 41
0.1764
 62
115
 66
1
 10
0
 20
0
 30
0
  0
VERTEX
  8
LAYER_1
 10
245.3001
 20
330.8928
  0
VERTEX
  8
LAYER_1
 10
245.2987
 20
330.8558
  0
SEQEND
  0
POLYLINE
  8
LAYER_1
 40
0.1799
 41
0.1799
 66
1
 10
0
 20
0
 30
0
  0
VERTEX
  8
LAYER_1
 10
243.7298
 20
341.735
 42
-0.07148526052
  0
VERTEX
  8
LAYER_1
 10
244.7792
 20
341.7287
 42
-0.07633967168
  0
VERTEX
  8
LAYER_1
 10
245.3149
 20
341.5685
 42
-0.06496994253
  0
VERTEX
  8
LAYER_1
 10
246.2344
 20
340.8993
 42
-0.06028928674
  0
VERTEX
  8
LAYER_1
 10
246.4304
 20
340.6246
 42
-0.08784929426
  0
VERTEX
  8
LAYER_1
 10
246.719
 20
339.8383
 42
-0.05726608573
  0
VERTEX
  8
LAYER_1
 10
246.7209
 20
339.6857
  0
VERTEX
  8
LAYER_1
 10
246.5445
 20
337.9134
 42
-0.03425764413
  0
VERTEX
  8
LAYER_1
 10
246.3747
 20
336.9355
 42
-0.002429734644
  0
VERTEX
  8
LAYER_1
 10
246.2344
 20
336.3305
  0
VERTEX
  8
LAYER_1
 10
245.9247
 20
334.7861
 42
-0.05200972293
  0
VERTEX
  8
LAYER_1
 10
245.7015
 20
333.8594
 42
-0.1623436541
  0
VERTEX
  8
LAYER_1
 10
245.3149
 20
333.4839
 42
-0.05193306952
  0
VERTEX
  8
LAYER_1
 10
245.0241
 20
333.4771
 42
-0.009526805431
  0
VERTEX
  8
LAYER_1
 10
243.3112
 20
333.5721
 42
-0.143534322
  0
VERTEX
  8
LAYER_1
 10
242.8968
 20
333.9528
 42
-0.1018750465
  0
VERTEX
  8
LAYER_1
 10
242.7387
 20
334.3892
 42
0.006627055886
  0
VERTEX
  8
LAYER_1
 10
242.3752
 20
336.3764
  0
VERTEX
  8
LAYER_1
 10
241.8622
 20
338.7364
 42
-0.05993588338
  0
VERTEX
  8
LAYER_1
 10
241.8472
 20
340.0886
 42
-0.008663555715
  0
VERTEX
  8
LAYER_1
 10
241.8622
 20
340.1711
 42
-0.1213130129
  0
VERTEX
  8
LAYER_1
 10
242.1744
 20
340.8679
 42
-0.05509068104
  0
VERTEX
  8
LAYER_1
 10
242.5609
 20
341.2305
 42
-0.04951318067
  0
VERTEX
  8
LAYER_1
 10
242.9257
 20
341.4504
 42
-0.03220258353
  0
VERTEX
  8
LAYER_1
 10
243.5036
 20
341.6923
 42
-0.4757226405
  0
VERTEX
  8
LAYER_1
 10
243.6868
 20
341.7211
 42
-0.07408111367
  0
VERTEX
  8
LAYER_1
 10
243.6571
 20
341.6942
  0
SEQEND
  0
POLYLINE
  8
LAYER_1
 40
0.1799
 41
0.1799
 66
1
 10
0
 20
0
 30
0
  0
VERTEX
  8
LAYER_1
 10
84.1862
 20
181.1369
  0
VERTEX
  8
LAYER_1
 10
74.9363
 20
181.1369
  0
SEQEND
  0
POLYLINE
  8
LAYER_1
 40
0.1799
 41
0.1799
 66
1
 10
0
 20
0
 30
0
  0
VERTEX
  8
LAYER_1
 10
84.1862
 20
182.5129
  0
VERTEX
  8
LAYER_1
 10
74.0051
 20
182.5129
  0
SEQEND
  0
POLYLINE
  8
LAYER_1
 40
0.1799
 41
0.1799
 66
1
 10
0
 20
0
 30
0
  0
VERTEX
  8
LAYER_1
 10
113.5443
 20
182.5129
  0
VERTEX
  8
LAYER_1
 10
106.0302
 20
182.5129
  0
SEQEND
  0
POLYLINE
  8
LAYER_1
 40
0.1799
 41
0.1799
 66
1
 10
0
 20
0
 30
0
  0
VERTEX
  8
LAYER_1
 10
113.5443
 20
181.1369
  0
VERTEX
  8
LAYER_1
 10
106.9402
 20
181.1369
  0
SEQEND
  0
POLYLINE
  8
LAYER_1
 40
0.1799
 41
0.1799
 66
1
 10
0
 20
0
 30
0
  0
VERTEX
  8
LAYER_1
 10
93.4994
 20
180.7773
  0
VERTEX
  8
LAYER_1
 10
93.7745
 20
180.7986
 42
0.1417838462
  0
VERTEX
  8
LAYER_1
 10
94.3181
 20
181.1402
 42
0.5101618545
  0
VERTEX
  8
LAYER_1
 10
93.7745
 20
182.8515
  0
VERTEX
  8
LAYER_1
 10
93.4994
 20
182.8939
  0
SEQEND
  0
POLYLINE
  8
LAYER_1
 40
0.1799
 41
0.1799
 66
1
 10
0
 20
0
 30
0
  0
VERTEX
  8
LAYER_1
 10
90.0705
 20
180.3328
  0
VERTEX
  8
LAYER_1
 10
94.5789
 20
180.3328
  0
SEQEND
  0
POLYLINE
  8
LAYER_1
 40
0.1799
 41
0.1799
 66
1
 10
0
 20
0
 30
0
  0
VERTEX
  8
LAYER_1
 10
90.0705
 20
183.3383
  0
VERTEX
  8
LAYER_1
 10
94.5789
 20
183.3383
  0
SEQEND
  0
POLYLINE
  8
LAYER_1
 40
0.1799
 41
0.1799
 66
1
 10
0
 20
0
 30
0
  0
VERTEX
  8
LAYER_1
 10
84.1859
 20
179.9518
  0
VERTEX
  8
LAYER_1
 10
85.7949
 20
179.6132
 42
0.09679121165
  0
VERTEX
  8
LAYER_1
 10
98.8336
 20
179.6132
  0
VERTEX
  8
LAYER_1
 10
100.4419
 20
179.9518
  0
SEQEND
  0
POLYLINE
  8
LAYER_1
 40
0.1799
 41
0.1799
 66
1
 10
0
 20
0
 30
0
  0
VERTEX
  8
LAYER_1
 10
100.4419
 20
183.6983
  0
VERTEX
  8
LAYER_1
 10
98.8332
 20
184.058
 42
0.02385695
  0
VERTEX
  8
LAYER_1
 10
95.1196
 20
184.5507
 42
0.02353202098
  0
VERTEX
  8
LAYER_1
 10
91.9146
 20
184.6633
 42
0.02330962036
  0
VERTEX
  8
LAYER_1
 10
88.6973
 20
184.4723
 42
0.0182345189
  0
VERTEX
  8
LAYER_1
 10
85.7946
 20
184.058
  0
VERTEX
  8
LAYER_1
 10
84.1859
 20
183.6983
  0
SEQEND
  0
POLYLINE
  8
LAYER_1
 40
0.1799
 41
0.1799
 66
1
 10
0
 20
0
 30
0
  0
VERTEX
  8
LAYER_1
 10
94.5791
 20
180.3328
  0
VERTEX
  8
LAYER_1
 10
94.8962
 20
180.3749
 42
0.1196769607
  0
VERTEX
  8
LAYER_1
 10
95.5574
 20
180.7008
 42
0.1731319424
  0
VERTEX
  8
LAYER_1
 10
96.0413
 20
181.5548
 42
0.2266944179
  0
VERTEX
  8
LAYER_1
 10
95.6803
 20
182.8446
 42
0.1116455689
  0
VERTEX
  8
LAYER_1
 10
95.1406
 20
183.2166
 42
0.03638550179
  0
VERTEX
  8
LAYER_1
 10
94.8962
 20
183.296
  0
VERTEX
  8
LAYER_1
 10
94.5791
 20
183.3383
  0
SEQEND
  0
POLYLINE
  8
LAYER_1
 40
0.1799
 41
0.1799
 66
1
 10
0
 20
0
 30
0
  0
VERTEX
  8
LAYER_1
 10
94.5791
 20
180.904
  0
VERTEX
  8
LAYER_1
 10
94.8538
 20
180.9464
 42
0.7293158927
  0
VERTEX
  8
LAYER_1
 10
94.8538
 20
182.7244
  0
VERTEX
  8
LAYER_1
 10
94.5791
 20
182.7668
  0
SEQEND
  0
POLYLINE
  8
LAYER_1
 40
0.1799
 41
0.1799
 66
1
 10
0
 20
0
 30
0
  0
VERTEX
  8
LAYER_1
 10
84.1859
 20
183.6983
  0
VERTEX
  8
LAYER_1
 10
84.1859
 20
179.9518
  0
SEQEND
  0
POLYLINE
  8
LAYER_1
 40
0.1799
 41
0.1799
 66
1
 10
0
 20
0
 30
0
  0
VERTEX
  8
LAYER_1
 10
90.1339
 20
180.7773
  0
VERTEX
  8
LAYER_1
 10
93.4994
 20
180.7773
  0
SEQEND
  0
POLYLINE
  8
LAYER_1
 40
0.1799
 41
0.1799
 66
1
 10
0
 20
0
 30
0
  0
VERTEX
  8
LAYER_1
 10
90.1339
 20
182.8939
  0
VERTEX
  8
LAYER_1
 10
93.4994
 20
182.8939
  0
SEQEND
  0
POLYLINE
  8
LAYER_1
 40
0.1799
 41
0.1799
 66
1
 10
0
 20
0
 30
0
  0
VERTEX
  8
LAYER_1
 10
90.0705
 20
183.3383
  0
VERTEX
  8
LAYER_1
 10
89.7318
 20
183.296
 42
0.11441691
  0
VERTEX
  8
LAYER_1
 10
89.0663
 20
182.9463
 42
0.2936003866
  0
VERTEX
  8
LAYER_1
 10
88.6471
 20
181.3576
 42
0.259226793
  0
VERTEX
  8
LAYER_1
 10
89.7318
 20
180.3749
  0
VERTEX
  8
LAYER_1
 10
90.0705
 20
180.3328
  0
SEQEND
  0
POLYLINE
  8
LAYER_1
 40
0.1799
 41
0.1799
 66
1
 10
0
 20
0
 30
0
  0
VERTEX
  8
LAYER_1
 10
90.1339
 20
182.8939
  0
VERTEX
  8
LAYER_1
 10
89.8588
 20
182.8515
 42
0.1464961591
  0
VERTEX
  8
LAYER_1
 10
89.3299
 20
182.5367
 42
0.2100152745
  0
VERTEX
  8
LAYER_1
 10
89.0735
 20
181.7229
 42
0.2029987898
  0
VERTEX
  8
LAYER_1
 10
89.4789
 20
180.9824
 42
0.09831945485
  0
VERTEX
  8
LAYER_1
 10
89.8588
 20
180.7986
  0
VERTEX
  8
LAYER_1
 10
90.1339
 20
180.7773
  0
SEQEND
  0
POLYLINE
  8
LAYER_1
 40
0.1799
 41
0.1799
 66
1
 10
0
 20
0
 30
0
  0
VERTEX
  8
LAYER_1
 10
94.0075
 20
180.904
  0
VERTEX
  8
LAYER_1
 10
94.5791
 20
180.904
  0
SEQEND
  0
POLYLINE
  8
LAYER_1
 40
0.1799
 41
0.1799
 66
1
 10
0
 20
0
 30
0
  0
VERTEX
  8
LAYER_1
 10
94.0075
 20
182.7668
  0
VERTEX
  8
LAYER_1
 10
94.5791
 20
182.7668
  0
SEQEND
  0
POLYLINE
  8
LAYER_1
 40
0.1799
 41
0.1799
 66
1
 10
0
 20
0
 30
0
  0
VERTEX
  8
LAYER_1
 10
100.4423
 20
183.6983
  0
VERTEX
  8
LAYER_1
 10
100.4423
 20
179.9518
  0
SEQEND
  0
POLYLINE
  8
LAYER_1
 40
0.1799
 41
0.1799
 66
1
 10
0
 20
0
 30
0
  0
VERTEX
  8
LAYER_1
 10
119.6828
 20
180.6925
  0
VERTEX
  8
LAYER_1
 10
120.3809
 20
180.2691
  0
VERTEX
  8
LAYER_1
 10
121.1433
 20
179.9094
  0
VERTEX
  8
LAYER_1
 10
121.9261
 20
179.6555
  0
VERTEX
  8
LAYER_1
 10
122.7308
 20
179.4654
  0
VERTEX
  8
LAYER_1
 10
123.5351
 20
179.3803
  0
VERTEX
  8
LAYER_1
 10
124.3814
 20
179.3803
  0
SEQEND
  0
POLYLINE
  8
LAYER_1
 40
0.1799
 41
0.1799
 66
1
 10
0
 20
0
 30
0
  0
VERTEX
  8
LAYER_1
 10
124.3816
 20
184.2909
  0
VERTEX
  8
LAYER_1
 10
123.5353
 20
184.2909
  0
VERTEX
  8
LAYER_1
 10
122.7305
 20
184.2062
  0
VERTEX
  8
LAYER_1
 10
121.9262
 20
184.0156
  0
VERTEX
  8
LAYER_1
 10
121.143
 20
183.7617
  0
VERTEX
  8
LAYER_1
 10
120.3811
 20
183.4014
  0
VERTEX
  8
LAYER_1
 10
119.683
 20
182.9573
  0
SEQEND
  0
POLYLINE
  8
LAYER_1
 40
0.1799
 41
0.1799
 66
1
 10
0
 20
0
 30
0
  0
VERTEX
  8
LAYER_1
 10
117.5448
 20
183.0844
  0
VERTEX
  8
LAYER_1
 10
113.5443
 20
182.5763
  0
SEQEND
  0
POLYLINE
  8
LAYER_1
 40
0.1799
 41
0.1799
 66
1
 10
0
 20
0
 30
0
  0
VERTEX
  8
LAYER_1
 10
117.5448
 20
180.5867
  0
VERTEX
  8
LAYER_1
 10
113.5443
 20
181.0735
  0
VERTEX
  8
LAYER_1
 10
113.5443
 20
182.5763
  0
SEQEND
  0
POLYLINE
  8
LAYER_1
 40
0.1799
 41
0.1799
 66
1
 10
0
 20
0
 30
0
  0
VERTEX
  8
LAYER_1
 10
114.7932
 20
181.2007
  0
VERTEX
  8
LAYER_1
 10
114.7716
 20
181.2851
  0
VERTEX
  8
LAYER_1
 10
114.6872
 20
181.3271
  0
VERTEX
  8
LAYER_1
 10
114.5811
 20
181.3064
  0
VERTEX
  8
LAYER_1
 10
114.5391
 20
181.2217
  0
SEQEND
  0
POLYLINE
  8
LAYER_1
 40
0.1799
 41
0.1799
 66
1
 10
0
 20
0
 30
0
  0
VERTEX
  8
LAYER_1
 10
115.4281
 20
181.2007
  0
VERTEX
  8
LAYER_1
 10
115.3857
 20
181.2851
  0
VERTEX
  8
LAYER_1
 10
115.3011
 20
181.3271
  0
VERTEX
  8
LAYER_1
 10
115.2164
 20
181.3064
  0
VERTEX
  8
LAYER_1
 10
115.1742
 20
181.2217
  0
SEQEND
  0
POLYLINE
  8
LAYER_1
 40
0.1799
 41
0.1799
 66
1
 10
0
 20
0
 30
0
  0
VERTEX
  8
LAYER_1
 10
114.5393
 20
181.2217
  0
VERTEX
  8
LAYER_1
 10
114.5393
 20
180.9464
  0
SEQEND
  0
POLYLINE
  8
LAYER_1
 40
0.1799
 41
0.1799
 66
1
 10
0
 20
0
 30
0
  0
VERTEX
  8
LAYER_1
 10
114.7932
 20
181.2007
  0
VERTEX
  8
LAYER_1
 10
114.7932
 20
180.9254
  0
SEQEND
  0
POLYLINE
  8
LAYER_1
 40
0.1799
 41
0.1799
 66
1
 10
0
 20
0
 30
0
  0
VERTEX
  8
LAYER_1
 10
115.4281
 20
181.2007
  0
VERTEX
  8
LAYER_1
 10
115.4281
 20
180.8403
  0
SEQEND
  0
POLYLINE
  8
LAYER_1
 40
0.1799
 41
0.1799
 66
1
 10
0
 20
0
 30
0
  0
VERTEX
  8
LAYER_1
 10
115.1742
 20
181.2217
  0
VERTEX
  8
LAYER_1
 10
115.1742
 20
180.883
  0
SEQEND
  0
POLYLINE
  8
LAYER_1
 40
0.1799
 41
0.1799
 66
1
 10
0
 20
0
 30
0
  0
VERTEX
  8
LAYER_1
 10
114.666
 20
181.3274
  0
VERTEX
  8
LAYER_1
 10
114.6876
 20
181.3274
  0
SEQEND
  0
POLYLINE
  8
LAYER_1
 40
0.1799
 41
0.1799
 66
1
 10
0
 20
0
 30
0
  0
VERTEX
  8
LAYER_1
 10
114.5393
 20
182.4495
  0
VERTEX
  8
LAYER_1
 10
114.5813
 20
182.3648
  0
VERTEX
  8
LAYER_1
 10
114.6874
 20
182.3224
  0
VERTEX
  8
LAYER_1
 10
114.7718
 20
182.3648
  0
VERTEX
  8
LAYER_1
 10
114.7932
 20
182.4495
  0
SEQEND
  0
POLYLINE
  8
LAYER_1
 40
0.1799
 41
0.1799
 66
1
 10
0
 20
0
 30
0
  0
VERTEX
  8
LAYER_1
 10
114.5393
 20
182.4495
  0
VERTEX
  8
LAYER_1
 10
114.5393
 20
182.7034
  0
SEQEND
  0
POLYLINE
  8
LAYER_1
 40
0.1799
 41
0.1799
 66
1
 10
0
 20
0
 30
0
  0
VERTEX
  8
LAYER_1
 10
114.666
 20
182.3224
  0
VERTEX
  8
LAYER_1
 10
114.6876
 20
182.3224
  0
SEQEND
  0
POLYLINE
  8
LAYER_1
 40
0.1799
 41
0.1799
 66
1
 10
0
 20
0
 30
0
  0
VERTEX
  8
LAYER_1
 10
114.7932
 20
182.4495
  0
VERTEX
  8
LAYER_1
 10
114.7932
 20
182.7458
  0
SEQEND
  0
POLYLINE
  8
LAYER_1
 40
0.1799
 41
0.1799
 66
1
 10
0
 20
0
 30
0
  0
VERTEX
  8
LAYER_1
 10
115.1742
 20
182.4495
  0
VERTEX
  8
LAYER_1
 10
115.2166
 20
182.3648
  0
VERTEX
  8
LAYER_1
 10
115.3008
 20
182.3224
  0
VERTEX
  8
LAYER_1
 10
115.3859
 20
182.3648
  0
VERTEX
  8
LAYER_1
 10
115.4281
 20
182.4495
  0
SEQEND
  0
POLYLINE
  8
LAYER_1
 40
0.1799
 41
0.1799
 66
1
 10
0
 20
0
 30
0
  0
VERTEX
  8
LAYER_1
 10
115.1742
 20
182.4495
  0
VERTEX
  8
LAYER_1
 10
115.1742
 20
182.7882
  0
SEQEND
  0
POLYLINE
  8
LAYER_1
 40
0.1799
 41
0.1799
 66
1
 10
0
 20
0
 30
0
  0
VERTEX
  8
LAYER_1
 10
115.4281
 20
182.4495
  0
VERTEX
  8
LAYER_1
 10
115.4281
 20
182.8092
  0
SEQEND
  0
POLYLINE
  8
LAYER_1
 40
0.1799
 41
0.1799
 66
1
 10
0
 20
0
 30
0
  0
VERTEX
  8
LAYER_1
 10
119.5343
 20
181.0312
  0
VERTEX
  8
LAYER_1
 10
119.238
 20
180.4386
  0
SEQEND
  0
POLYLINE
  8
LAYER_1
 40
0.1799
 41
0.1799
 66
1
 10
0
 20
0
 30
0
  0
VERTEX
  8
LAYER_1
 10
119.6824
 20
180.6925
  0
VERTEX
  8
LAYER_1
 10
119.5343
 20
180.7349
  0
VERTEX
  8
LAYER_1
 10
119.4077
 20
180.6925
  0
VERTEX
  8
LAYER_1
 10
119.3018
 20
180.5867
  0
SEQEND
  0
POLYLINE
  8
LAYER_1
 40
0.1799
 41
0.1799
 66
1
 10
0
 20
0
 30
0
  0
VERTEX
  8
LAYER_1
 10
119.5343
 20
182.6397
  0
VERTEX
  8
LAYER_1
 10
119.238
 20
183.2326
  0
SEQEND
  0
POLYLINE
  8
LAYER_1
 40
0.1799
 41
0.1799
 66
1
 10
0
 20
0
 30
0
  0
VERTEX
  8
LAYER_1
 10
119.3018
 20
183.0844
  0
VERTEX
  8
LAYER_1
 10
119.4075
 20
182.9573
  0
VERTEX
  8
LAYER_1
 10
119.5343
 20
182.9149
  0
VERTEX
  8
LAYER_1
 10
119.6824
 20
182.9573
  0
SEQEND
  0
POLYLINE
  8
LAYER_1
 40
0.1799
 41
0.1799
 66
1
 10
0
 20
0
 30
0
  0
VERTEX
  8
LAYER_1
 10
117.3119
 20
182.4495
  0
VERTEX
  8
LAYER_1
 10
117.3119
 20
183.0421
  0
SEQEND
  0
POLYLINE
  8
LAYER_1
 40
0.1799
 41
0.1799
 66
1
 10
0
 20
0
 30
0
  0
VERTEX
  8
LAYER_1
 10
118.0529
 20
181.8356
  0
VERTEX
  8
LAYER_1
 10
118.0529
 20
183.0844
  0
SEQEND
  0
POLYLINE
  8
LAYER_1
 40
0.1799
 41
0.1799
 66
1
 10
0
 20
0
 30
0
  0
VERTEX
  8
LAYER_1
 10
117.5448
 20
183.0844
  0
VERTEX
  8
LAYER_1
 10
117.5448
 20
181.8356
  0
SEQEND
  0
POLYLINE
  8
LAYER_1
 40
0.1799
 41
0.1799
 66
1
 10
0
 20
0
 30
0
  0
VERTEX
  8
LAYER_1
 10
118.0529
 20
180.5867
  0
VERTEX
  8
LAYER_1
 10
117.5449
 20
180.5867
  0
SEQEND
  0
POLYLINE
  8
LAYER_1
 40
0.1799
 41
0.1799
 66
1
 10
0
 20
0
 30
0
  0
VERTEX
  8
LAYER_1
 10
116.042
 20
181.2007
  0
VERTEX
  8
LAYER_1
 10
116.0205
 20
181.2851
  0
VERTEX
  8
LAYER_1
 10
115.9151
 20
181.3271
  0
VERTEX
  8
LAYER_1
 10
115.83
 20
181.3064
  0
VERTEX
  8
LAYER_1
 10
115.7876
 20
181.2217
  0
SEQEND
  0
POLYLINE
  8
LAYER_1
 40
0.1799
 41
0.1799
 66
1
 10
0
 20
0
 30
0
  0
VERTEX
  8
LAYER_1
 10
117.5448
 20
180.5867
  0
VERTEX
  8
LAYER_1
 10
117.5448
 20
181.8356
  0
SEQEND
  0
POLYLINE
  8
LAYER_1
 40
0.1799
 41
0.1799
 66
1
 10
0
 20
0
 30
0
  0
VERTEX
  8
LAYER_1
 10
117.3119
 20
181.2007
  0
VERTEX
  8
LAYER_1
 10
117.2695
 20
181.2851
  0
VERTEX
  8
LAYER_1
 10
117.1853
 20
181.3271
  0
VERTEX
  8
LAYER_1
 10
117.1002
 20
181.3064
  0
VERTEX
  8
LAYER_1
 10
117.0578
 20
181.2217
  0
SEQEND
  0
POLYLINE
  8
LAYER_1
 40
0.1799
 41
0.1799
 66
1
 10
0
 20
0
 30
0
  0
VERTEX
  8
LAYER_1
 10
116.6769
 20
181.2007
  0
VERTEX
  8
LAYER_1
 10
116.6346
 20
181.2851
  0
VERTEX
  8
LAYER_1
 10
116.55
 20
181.3271
  0
VERTEX
  8
LAYER_1
 10
116.4652
 20
181.3064
  0
VERTEX
  8
LAYER_1
 10
116.4229
 20
181.2217
  0
SEQEND
  0
POLYLINE
  8
LAYER_1
 40
0.1799
 41
0.1799
 66
1
 10
0
 20
0
 30
0
  0
VERTEX
  8
LAYER_1
 10
115.7878
 20
181.2217
  0
VERTEX
  8
LAYER_1
 10
115.7878
 20
180.7983
  0
SEQEND
  0
POLYLINE
  8
LAYER_1
 40
0.1799
 41
0.1799
 66
1
 10
0
 20
0
 30
0
  0
VERTEX
  8
LAYER_1
 10
116.042
 20
181.2007
  0
VERTEX
  8
LAYER_1
 10
116.042
 20
180.7773
  0
SEQEND
  0
POLYLINE
  8
LAYER_1
 40
0.1799
 41
0.1799
 66
1
 10
0
 20
0
 30
0
  0
VERTEX
  8
LAYER_1
 10
116.6769
 20
181.2007
  0
VERTEX
  8
LAYER_1
 10
116.6769
 20
180.6925
  0
SEQEND
  0
POLYLINE
  8
LAYER_1
 40
0.1799
 41
0.1799
 66
1
 10
0
 20
0
 30
0
  0
VERTEX
  8
LAYER_1
 10
116.423
 20
181.2217
  0
VERTEX
  8
LAYER_1
 10
116.423
 20
180.7135
  0
SEQEND
  0
POLYLINE
  8
LAYER_1
 40
0.1799
 41
0.1799
 66
1
 10
0
 20
0
 30
0
  0
VERTEX
  8
LAYER_1
 10
117.3119
 20
181.2007
  0
VERTEX
  8
LAYER_1
 10
117.3119
 20
180.6078
  0
SEQEND
  0
POLYLINE
  8
LAYER_1
 40
0.1799
 41
0.1799
 66
1
 10
0
 20
0
 30
0
  0
VERTEX
  8
LAYER_1
 10
117.058
 20
181.2217
  0
VERTEX
  8
LAYER_1
 10
117.058
 20
180.6501
  0
SEQEND
  0
POLYLINE
  8
LAYER_1
 40
0.1799
 41
0.1799
 66
1
 10
0
 20
0
 30
0
  0
VERTEX
  8
LAYER_1
 10
115.7878
 20
182.4495
  0
VERTEX
  8
LAYER_1
 10
115.8301
 20
182.3648
  0
VERTEX
  8
LAYER_1
 10
115.9147
 20
182.3224
  0
VERTEX
  8
LAYER_1
 10
116.0207
 20
182.3648
  0
VERTEX
  8
LAYER_1
 10
116.0422
 20
182.4495
  0
SEQEND
  0
POLYLINE
  8
LAYER_1
 40
0.1799
 41
0.1799
 66
1
 10
0
 20
0
 30
0
  0
VERTEX
  8
LAYER_1
 10
115.7878
 20
182.4495
  0
VERTEX
  8
LAYER_1
 10
115.7878
 20
182.8726
  0
SEQEND
  0
POLYLINE
  8
LAYER_1
 40
0.1799
 41
0.1799
 66
1
 10
0
 20
0
 30
0
  0
VERTEX
  8
LAYER_1
 10
116.042
 20
182.4495
  0
VERTEX
  8
LAYER_1
 10
116.042
 20
182.8939
  0
SEQEND
  0
POLYLINE
  8
LAYER_1
 40
0.1799
 41
0.1799
 66
1
 10
0
 20
0
 30
0
  0
VERTEX
  8
LAYER_1
 10
116.6769
 20
182.4495
  0
VERTEX
  8
LAYER_1
 10
116.6769
 20
182.9787
  0
SEQEND
  0
POLYLINE
  8
LAYER_1
 40
0.1799
 41
0.1799
 66
1
 10
0
 20
0
 30
0
  0
VERTEX
  8
LAYER_1
 10
116.423
 20
182.9363
  0
VERTEX
  8
LAYER_1
 10
116.423
 20
182.4495
  0
VERTEX
  8
LAYER_1
 10
116.4654
 20
182.3648
  0
VERTEX
  8
LAYER_1
 10
116.5496
 20
182.3224
  0
VERTEX
  8
LAYER_1
 10
116.6347
 20
182.3648
  0
VERTEX
  8
LAYER_1
 10
116.6771
 20
182.4495
  0
SEQEND
  0
POLYLINE
  8
LAYER_1
 40
0.1799
 41
0.1799
 66
1
 10
0
 20
0
 30
0
  0
VERTEX
  8
LAYER_1
 10
117.058
 20
182.4495
  0
VERTEX
  8
LAYER_1
 10
117.1003
 20
182.3648
  0
VERTEX
  8
LAYER_1
 10
117.1846
 20
182.3224
  0
VERTEX
  8
LAYER_1
 10
117.2697
 20
182.3648
  0
VERTEX
  8
LAYER_1
 10
117.312
 20
182.4495
  0
SEQEND
  0
POLYLINE
  8
LAYER_1
 40
0.1799
 41
0.1799
 66
1
 10
0
 20
0
 30
0
  0
VERTEX
  8
LAYER_1
 10
117.058
 20
182.4495
  0
VERTEX
  8
LAYER_1
 10
117.058
 20
183.0207
  0
SEQEND
  0
POLYLINE
  8
LAYER_1
 40
0.1799
 41
0.1799
 66
1
 10
0
 20
0
 30
0
  0
VERTEX
  8
LAYER_1
 10
118.0529
 20
181.8356
  0
VERTEX
  8
LAYER_1
 10
118.0529
 20
180.5867
  0
SEQEND
  0
POLYLINE
  8
LAYER_1
 40
0.1799
 41
0.1799
 66
1
 10
0
 20
0
 30
0
  0
VERTEX
  8
LAYER_1
 10
118.0949
 20
180.4596
  0
VERTEX
  8
LAYER_1
 10
118.2011
 20
180.2908
  0
VERTEX
  8
LAYER_1
 10
118.37
 20
180.1633
  0
VERTEX
  8
LAYER_1
 10
118.5605
 20
180.0999
  0
VERTEX
  8
LAYER_1
 10
118.7511
 20
180.0786
  0
VERTEX
  8
LAYER_1
 10
118.9628
 20
180.1423
  0
VERTEX
  8
LAYER_1
 10
119.1112
 20
180.2691
  0
VERTEX
  8
LAYER_1
 10
119.2379
 20
180.4386
  0
SEQEND
  0
POLYLINE
  8
LAYER_1
 40
0.1799
 41
0.1799
 66
1
 10
0
 20
0
 30
0
  0
VERTEX
  8
LAYER_1
 10
118.0529
 20
180.5867
  0
VERTEX
  8
LAYER_1
 10
118.0949
 20
180.4596
  0
SEQEND
  0
POLYLINE
  8
LAYER_1
 40
0.1799
 41
0.1799
 66
1
 10
0
 20
0
 30
0
  0
VERTEX
  8
LAYER_1
 10
118.0529
 20
183.0844
  0
VERTEX
  8
LAYER_1
 10
117.5449
 20
183.0844
  0
SEQEND
  0
POLYLINE
  8
LAYER_1
 40
0.1799
 41
0.1799
 66
1
 10
0
 20
0
 30
0
  0
VERTEX
  8
LAYER_1
 10
119.238
 20
183.2326
  0
VERTEX
  8
LAYER_1
 10
119.1114
 20
183.4014
  0
VERTEX
  8
LAYER_1
 10
118.9417
 20
183.5288
  0
VERTEX
  8
LAYER_1
 10
118.7512
 20
183.5712
  0
VERTEX
  8
LAYER_1
 10
118.5399
 20
183.5712
  0
VERTEX
  8
LAYER_1
 10
118.349
 20
183.4865
  0
VERTEX
  8
LAYER_1
 10
118.2012
 20
183.3594
  0
VERTEX
  8
LAYER_1
 10
118.0951
 20
183.1902
  0
SEQEND
  0
POLYLINE
  8
LAYER_1
 40
0.1799
 41
0.1799
 66
1
 10
0
 20
0
 30
0
  0
VERTEX
  8
LAYER_1
 10
118.0529
 20
183.0844
  0
VERTEX
  8
LAYER_1
 10
118.1165
 20
183.2112
  0
SEQEND
  0
POLYLINE
  8
LAYER_1
 40
0.1799
 41
0.1799
 66
1
 10
0
 20
0
 30
0
  0
VERTEX
  8
LAYER_1
 10
121.3547
 20
183.4231
  0
VERTEX
  8
LAYER_1
 10
120.8894
 20
183.317
  0
VERTEX
  8
LAYER_1
 10
120.4233
 20
183.1478
  0
VERTEX
  8
LAYER_1
 10
120.0001
 20
182.9153
  0
VERTEX
  8
LAYER_1
 10
119.6191
 20
182.6187
  0
SEQEND
  0
POLYLINE
  8
LAYER_1
 40
0.1799
 41
0.1799
 66
1
 10
0
 20
0
 30
0
  0
VERTEX
  8
LAYER_1
 10
122.5402
 20
181.8356
  0
VERTEX
  8
LAYER_1
 10
122.5402
 20
183.0844
  0
SEQEND
  0
POLYLINE
  8
LAYER_1
 40
0.1799
 41
0.1799
 66
1
 10
0
 20
0
 30
0
  0
VERTEX
  8
LAYER_1
 10
119.6191
 20
181.0522
  0
VERTEX
  8
LAYER_1
 10
120.0001
 20
180.7559
  0
VERTEX
  8
LAYER_1
 10
120.4233
 20
180.523
  0
VERTEX
  8
LAYER_1
 10
120.8891
 20
180.3538
  0
VERTEX
  8
LAYER_1
 10
121.3547
 20
180.2481
  0
SEQEND
  0
POLYLINE
  8
LAYER_1
 40
0.1799
 41
0.1799
 66
1
 10
0
 20
0
 30
0
  0
VERTEX
  8
LAYER_1
 10
119.5557
 20
181.8356
  0
VERTEX
  8
LAYER_1
 10
119.5557
 20
181.0522
  0
VERTEX
  8
LAYER_1
 10
119.6192
 20
181.0522
  0
SEQEND
  0
POLYLINE
  8
LAYER_1
 40
0.1799
 41
0.1799
 66
1
 10
0
 20
0
 30
0
  0
VERTEX
  8
LAYER_1
 10
119.5557
 20
181.0522
  0
VERTEX
  8
LAYER_1
 10
119.5133
 20
181.0308
  0
SEQEND
  0
POLYLINE
  8
LAYER_1
 40
0.1799
 41
0.1799
 66
1
 10
0
 20
0
 30
0
  0
VERTEX
  8
LAYER_1
 10
119.5557
 20
181.8356
  0
VERTEX
  8
LAYER_1
 10
119.5557
 20
182.6187
  0
SEQEND
  0
POLYLINE
  8
LAYER_1
 40
0.1799
 41
0.1799
 66
1
 10
0
 20
0
 30
0
  0
VERTEX
  8
LAYER_1
 10
119.5133
 20
182.6397
  0
VERTEX
  8
LAYER_1
 10
119.5557
 20
182.5976
  0
VERTEX
  8
LAYER_1
 10
119.6191
 20
182.6183
  0
SEQEND
  0
POLYLINE
  8
LAYER_1
 40
0.1799
 41
0.1799
 66
1
 10
0
 20
0
 30
0
  0
VERTEX
  8
LAYER_1
 10
122.5402
 20
181.8356
  0
VERTEX
  8
LAYER_1
 10
122.5402
 20
180.5867
  0
SEQEND
  0
POLYLINE
  8
LAYER_1
 40
0.1799
 41
0.1799
 66
1
 10
0
 20
0
 30
0
  0
VERTEX
  8
LAYER_1
 10
121.3547
 20
180.2481
  0
VERTEX
  8
LAYER_1
 10
121.7781
 20
180.2481
  0
VERTEX
  8
LAYER_1
 10
122.1801
 20
180.3749
  0
VERTEX
  8
LAYER_1
 10
122.54
 20
180.5867
  0
SEQEND
  0
POLYLINE
  8
LAYER_1
 40
0.1799
 41
0.1799
 66
1
 10
0
 20
0
 30
0
  0
VERTEX
  8
LAYER_1
 10
122.5402
 20
183.0844
  0
VERTEX
  8
LAYER_1
 10
122.18
 20
183.296
  0
VERTEX
  8
LAYER_1
 10
121.7781
 20
183.4231
  0
VERTEX
  8
LAYER_1
 10
121.3549
 20
183.4231
  0
SEQEND
  0
POLYLINE
  8
LAYER_1
 40
0.1799
 41
0.1799
 66
1
 10
0
 20
0
 30
0
  0
VERTEX
  8
LAYER_1
 10
124.805
 20
179.2108
  0
VERTEX
  8
LAYER_1
 10
124.805
 20
181.8356
  0
SEQEND
  0
POLYLINE
  8
LAYER_1
 40
0.1799
 41
0.1799
 66
1
 10
0
 20
0
 30
0
  0
VERTEX
  8
LAYER_1
 10
125.4189
 20
181.8356
  0
VERTEX
  8
LAYER_1
 10
125.4189
 20
179.2111
  0
VERTEX
  8
LAYER_1
 10
124.8051
 20
179.2111
  0
VERTEX
  8
LAYER_1
 10
124.6568
 20
179.3165
  0
VERTEX
  8
LAYER_1
 10
124.4871
 20
179.3589
  0
VERTEX
  8
LAYER_1
 10
124.3182
 20
179.3803
  0
SEQEND
  0
POLYLINE
  8
LAYER_1
 40
0.1799
 41
0.1799
 66
1
 10
0
 20
0
 30
0
  0
VERTEX
  8
LAYER_1
 10
125.4189
 20
183.5922
  0
VERTEX
  8
LAYER_1
 10
129.4402
 20
183.5922
  0
SEQEND
  0
POLYLINE
  8
LAYER_1
 40
0.1799
 41
0.1799
 66
1
 10
0
 20
0
 30
0
  0
VERTEX
  8
LAYER_1
 10
125.4189
 20
183.0844
  0
VERTEX
  8
LAYER_1
 10
129.4193
 20
183.0844
  0
SEQEND
  0
POLYLINE
  8
LAYER_1
 40
0.1799
 41
0.1799
 66
1
 10
0
 20
0
 30
0
  0
VERTEX
  8
LAYER_1
 10
125.4189
 20
180.5867
  0
VERTEX
  8
LAYER_1
 10
129.4193
 20
180.5867
  0
SEQEND
  0
POLYLINE
  8
LAYER_1
 40
0.1799
 41
0.1799
 66
1
 10
0
 20
0
 30
0
  0
VERTEX
  8
LAYER_1
 10
125.4189
 20
180.0786
  0
VERTEX
  8
LAYER_1
 10
129.4402
 20
180.0786
  0
SEQEND
  0
POLYLINE
  8
LAYER_1
 40
0.1799
 41
0.1799
 66
1
 10
0
 20
0
 30
0
  0
VERTEX
  8
LAYER_1
 10
124.805
 20
184.4601
  0
VERTEX
  8
LAYER_1
 10
124.805
 20
181.8356
  0
SEQEND
  0
POLYLINE
  8
LAYER_1
 40
0.1799
 41
0.1799
 66
1
 10
0
 20
0
 30
0
  0
VERTEX
  8
LAYER_1
 10
125.4189
 20
181.8356
  0
VERTEX
  8
LAYER_1
 10
125.4189
 20
184.4601
  0
VERTEX
  8
LAYER_1
 10
124.8051
 20
184.4601
  0
SEQEND
  0
POLYLINE
  8
LAYER_1
 40
0.1799
 41
0.1799
 66
1
 10
0
 20
0
 30
0
  0
VERTEX
  8
LAYER_1
 10
124.3182
 20
184.2909
  0
VERTEX
  8
LAYER_1
 10
124.4871
 20
184.2909
  0
VERTEX
  8
LAYER_1
 10
124.6568
 20
184.3543
  0
VERTEX
  8
LAYER_1
 10
124.805
 20
184.4597
  0
SEQEND
  0
POLYLINE
  8
LAYER_1
 40
0.1799
 41
0.1799
 66
1
 10
0
 20
0
 30
0
  0
VERTEX
  8
LAYER_1
 10
129.4193
 20
180.0786
  0
VERTEX
  8
LAYER_1
 10
129.5459
 20
180.121
  0
VERTEX
  8
LAYER_1
 10
129.631
 20
180.2057
  0
VERTEX
  8
LAYER_1
 10
129.6734
 20
180.3325
  0
VERTEX
  8
LAYER_1
 10
129.631
 20
180.4596
  0
VERTEX
  8
LAYER_1
 10
129.5459
 20
180.5444
  0
VERTEX
  8
LAYER_1
 10
129.4193
 20
180.5867
  0
SEQEND
  0
POLYLINE
  8
LAYER_1
 40
0.1799
 41
0.1799
 66
1
 10
0
 20
0
 30
0
  0
VERTEX
  8
LAYER_1
 10
129.4193
 20
183.0844
  0
VERTEX
  8
LAYER_1
 10
129.5459
 20
183.1268
  0
VERTEX
  8
LAYER_1
 10
129.631
 20
183.2112
  0
VERTEX
  8
LAYER_1
 10
129.6734
 20
183.3383
  0
VERTEX
  8
LAYER_1
 10
129.631
 20
183.4655
  0
VERTEX
  8
LAYER_1
 10
129.5459
 20
183.5499
  0
VERTEX
  8
LAYER_1
 10
129.4193
 20
183.5919
  0
SEQEND
  0
POLYLINE
  8
LAYER_1
 40
0.1799
 41
0.1799
 62
160
 66
1
 10
0
 20
0
 30
0
  0
VERTEX
  8
LAYER_1
 10
73.9626
 20
183.5288
  0
VERTEX
  8
LAYER_1
 10
73.6663
 20
183.3173
 42
0.05457703891
  0
VERTEX
  8
LAYER_1
 10
73.2478
 20
183.0085
 42
0.1596061094
  0
VERTEX
  8
LAYER_1
 10
73.0028
 20
182.5963
 42
0.1971567155
  0
VERTEX
  8
LAYER_1
 10
73.1191
 20
182.2141
 42
0.04388687502
  0
VERTEX
  8
LAYER_1
 10
73.3779
 20
181.911
 42
-0.09400818482
  0
VERTEX
  8
LAYER_1
 10
73.836
 20
181.3492
 42
-0.1576751518
  0
VERTEX
  8
LAYER_1
 10
73.9137
 20
180.9101
 42
-0.07672340943
  0
VERTEX
  8
LAYER_1
 10
73.8346
 20
180.6726
 42
-0.05774388366
  0
VERTEX
  8
LAYER_1
 10
73.6587
 20
180.4107
 42
-0.03997983745
  0
VERTEX
  8
LAYER_1
 10
73.3695
 20
180.121
  0
VERTEX
  8
LAYER_1
 10
73.1163
 20
179.8671
  0
SEQEND
  0
POLYLINE
  8
LAYER_1
 40
0.1799
 41
0.1799
 62
160
 66
1
 10
0
 20
0
 30
0
  0
VERTEX
  8
LAYER_1
 10
74.9785
 20
183.5288
  0
VERTEX
  8
LAYER_1
 10
74.6611
 20
183.3173
 42
0.05547015964
  0
VERTEX
  8
LAYER_1
 10
74.251
 20
183.0027
 42
0.1593994328
  0
VERTEX
  8
LAYER_1
 10
74.0142
 20
182.5841
 42
0.1925607451
  0
VERTEX
  8
LAYER_1
 10
74.1342
 20
182.1984
 42
0.04367115886
  0
VERTEX
  8
LAYER_1
 10
74.3935
 20
181.8946
 42
-0.09373548968
  0
VERTEX
  8
LAYER_1
 10
74.85
 20
181.3358
 42
-0.1583163551
  0
VERTEX
  8
LAYER_1
 10
74.9271
 20
180.9012
 42
-0.07703209475
  0
VERTEX
  8
LAYER_1
 10
74.8483
 20
180.6664
 42
-0.05779949331
  0
VERTEX
  8
LAYER_1
 10
74.6733
 20
180.4074
 42
-0.03990057951
  0
VERTEX
  8
LAYER_1
 10
74.3858
 20
180.121
  0
VERTEX
  8
LAYER_1
 10
74.1319
 20
179.8671
  0
SEQEND
  0
POLYLINE
  8
LAYER_1
 40
0.1799
 41
0.1799
 66
1
 10
0
 20
0
 30
0
  0
VERTEX
  8
LAYER_1
 10
73.9202
 20
181.1369
  0
VERTEX
  8
LAYER_1
 10
65.2418
 20
181.1369
  0
SEQEND
  0
POLYLINE
  8
LAYER_1
 40
0.1799
 41
0.1799
 66
1
 10
0
 20
0
 30
0
  0
VERTEX
  8
LAYER_1
 10
72.989
 20
182.5129
  0
VERTEX
  8
LAYER_1
 10
65.242
 20
182.5129
  0
SEQEND
  0
POLYLINE
  8
LAYER_1
 40
0.1799
 41
0.1799
 62
160
 66
1
 10
0
 20
0
 30
0
  0
VERTEX
  8
LAYER_1
 10
106.9824
 20
183.5288
  0
VERTEX
  8
LAYER_1
 10
106.6862
 20
183.3173
 42
0.05440153556
  0
VERTEX
  8
LAYER_1
 10
106.273
 20
183.0014
 42
0.1578571997
  0
VERTEX
  8
LAYER_1
 10
106.0328
 20
182.5841
 42
0.1956635187
  0
VERTEX
  8
LAYER_1
 10
106.1509
 20
182.2023
 42
0.04433720304
  0
VERTEX
  8
LAYER_1
 10
106.4097
 20
181.9023
 42
-0.094198612
  0
VERTEX
  8
LAYER_1
 10
106.8677
 20
181.3478
 42
-0.1578602015
  0
VERTEX
  8
LAYER_1
 10
106.9472
 20
180.912
 42
-0.076351682
  0
VERTEX
  8
LAYER_1
 10
106.87
 20
180.675
 42
-0.05736258408
  0
VERTEX
  8
LAYER_1
 10
106.6968
 20
180.4125
 42
-0.03970134302
  0
VERTEX
  8
LAYER_1
 10
106.4112
 20
180.121
  0
VERTEX
  8
LAYER_1
 10
106.157
 20
179.8671
  0
SEQEND
  0
POLYLINE
  8
LAYER_1
 40
0.1799
 41
0.1799
 62
160
 66
1
 10
0
 20
0
 30
0
  0
VERTEX
  8
LAYER_1
 10
105.9878
 20
183.5288
  0
VERTEX
  8
LAYER_1
 10
105.6704
 20
183.3173
 42
0.05472534237
  0
VERTEX
  8
LAYER_1
 10
105.2599
 20
183.0011
 42
0.1578607885
  0
VERTEX
  8
LAYER_1
 10
105.0217
 20
182.583
 42
0.1939782429
  0
VERTEX
  8
LAYER_1
 10
105.1399
 20
182.2
 42
0.0441568682
  0
VERTEX
  8
LAYER_1
 10
105.3977
 20
181.8991
 42
-0.09412887773
  0
VERTEX
  8
LAYER_1
 10
105.8531
 20
181.3439
 42
-0.1577003165
  0
VERTEX
  8
LAYER_1
 10
105.9311
 20
180.9088
 42
-0.07626837175
  0
VERTEX
  8
LAYER_1
 10
105.8535
 20
180.6725
 42
-0.05731384944
  0
VERTEX
  8
LAYER_1
 10
105.6801
 20
180.4111
 42
-0.03967642289
  0
VERTEX
  8
LAYER_1
 10
105.3948
 20
180.121
  0
VERTEX
  8
LAYER_1
 10
105.1412
 20
179.8671
  0
SEQEND
  0
POLYLINE
  8
LAYER_1
 40
0.1799
 41
0.1799
 66
1
 10
0
 20
0
 30
0
  0
VERTEX
  8
LAYER_1
 10
105.0143
 20
182.5129
  0
VERTEX
  8
LAYER_1
 10
100.4419
 20
182.5129
  0
SEQEND
  0
POLYLINE
  8
LAYER_1
 40
0.1799
 41
0.1799
 66
1
 10
0
 20
0
 30
0
  0
VERTEX
  8
LAYER_1
 10
105.9455
 20
181.1369
  0
VERTEX
  8
LAYER_1
 10
100.4418
 20
181.1369
  0
SEQEND
  0
POLYLINE
  8
LAYER_1
 40
0.1799
 41
0.1799
 66
1
 10
0
 20
0
 30
0
  0
VERTEX
  8
LAYER_1
 10
59.946
 20
229.6571
  0
VERTEX
  8
LAYER_1
 10
59.909
 20
230.2109
  0
VERTEX
  8
LAYER_1
 10
59.7798
 20
230.7465
 42
0.07485503869
  0
VERTEX
  8
LAYER_1
 10
59.2024
 20
231.8037
 42
0.07284469494
  0
VERTEX
  8
LAYER_1
 10
58.4711
 20
232.5131
 42
0.1944080885
  0
VERTEX
  8
LAYER_1
 10
55.9462
 20
233.1127
 42
0.2658042178
  0
VERTEX
  8
LAYER_1
 10
53.1993
 20
230.8854
 42
0.03927424962
  0
VERTEX
  8
LAYER_1
 10
53.0056
 20
230.2476
  0
VERTEX
  8
LAYER_1
 10
52.9685
 20
229.6942
  0
VERTEX
  8
LAYER_1
 10
53.0056
 20
229.159
 42
0.07681461422
  0
VERTEX
  8
LAYER_1
 10
53.3821
 20
228.0166
 42
0.06843514454
  0
VERTEX
  8
LAYER_1
 10
53.9205
 20
227.2541
 42
0.1147394602
  0
VERTEX
  8
LAYER_1
 10
55.1958
 20
226.4049
 42
0.2533387307
  0
VERTEX
  8
LAYER_1
 10
58.6204
 20
226.9047
 42
0.1049356103
  0
VERTEX
  8
LAYER_1
 10
59.4997
 20
227.9676
 42
0.06786168689
  0
VERTEX
  8
LAYER_1
 10
59.8531
 20
228.9394
 42
0.005404795467
  0
VERTEX
  8
LAYER_1
 10
59.8723
 20
229.0299
  0
VERTEX
  8
LAYER_1
 10
59.946
 20
229.565
  0
VERTEX
  8
LAYER_1
 10
59.946
 20
229.6571
  0
SEQEND
  0
POLYLINE
  8
LAYER_1
 40
0.1799
 41
0.1799
 66
1
 10
0
 20
0
 30
0
  0
VERTEX
  8
LAYER_1
 10
78.657
 20
242.5947
  0
VERTEX
  8
LAYER_1
 10
80.7064
 20
245.0126
  0
VERTEX
  8
LAYER_1
 10
77.7344
 20
243.9422
  0
SEQEND
  0
POLYLINE
  8
LAYER_1
 40
0.1799
 41
0.1799
 66
1
 10
0
 20
0
 30
0
  0
VERTEX
  8
LAYER_1
 10
59.7798
 20
230.7465
  0
VERTEX
  8
LAYER_1
 10
80.4978
 20
244.9906
  0
SEQEND
  0
POLYLINE
  8
LAYER_1
 40
0.05
 41
0.05
 66
1
 10
0
 20
0
 30
0
 70
1
  0
VERTEX
  8
LAYER_1
 10
0
 20
425.9997
  0
VERTEX
  8
LAYER_1
 10
302.9996
 20
425.9997
  0
VERTEX
  8
LAYER_1
 10
302.9996
 20
0
  0
VERTEX
  8
LAYER_1
 10
0
 20
0
  0
SEQEND
  0
ENDBLK
  0
BLOCK
  8
LAYER_1
  2
AIGNBL0101000B
 70
64
 10
0
 20
0
 30
0
  3
AIGNBL0101000B
  0
POLYLINE
  8
LAYER_1
 40
0.1799
 41
0.1799
 66
1
 10
0
 20
0
 30
0
  0
VERTEX
  8
LAYER_1
 10
128.3815
 20
234.6591
  0
VERTEX
  8
LAYER_1
 10
128.3448
 20
235.2129
  0
VERTEX
  8
LAYER_1
 10
128.2153
 20
235.7484
 42
0.07485020351
  0
VERTEX
  8
LAYER_1
 10
127.6378
 20
236.8055
 42
0.07283913313
  0
VERTEX
  8
LAYER_1
 10
126.9066
 20
237.5149
 42
0.1943958723
  0
VERTEX
  8
LAYER_1
 10
124.3817
 20
238.1145
 42
0.2657714949
  0
VERTEX
  8
LAYER_1
 10
121.6344
 20
235.8874
 42
0.03926762599
  0
VERTEX
  8
LAYER_1
 10
121.4406
 20
235.2496
  0
VERTEX
  8
LAYER_1
 10
121.4043
 20
234.6964
  0
VERTEX
  8
LAYER_1
 10
121.4406
 20
234.1609
 42
0.07680168987
  0
VERTEX
  8
LAYER_1
 10
121.8173
 20
233.0185
 42
0.06842021246
  0
VERTEX
  8
LAYER_1
 10
122.3558
 20
232.256
 42
0.1147176172
  0
VERTEX
  8
LAYER_1
 10
123.6312
 20
231.4068
 42
0.2533388297
  0
VERTEX
  8
LAYER_1
 10
127.0557
 20
231.9067
 42
0.1049438553
  0
VERTEX
  8
LAYER_1
 10
127.9349
 20
232.9696
 42
0.06786070523
  0
VERTEX
  8
LAYER_1
 10
128.2882
 20
233.9414
 42
0.005404508094
  0
VERTEX
  8
LAYER_1
 10
128.3074
 20
234.0319
  0
VERTEX
  8
LAYER_1
 10
128.3815
 20
234.5672
  0
VERTEX
  8
LAYER_1
 10
128.3815
 20
234.6591
  0
SEQEND
  0
POLYLINE
  8
LAYER_1
 40
0.1799
 41
0.1799
 66
1
 10
0
 20
0
 30
0
  0
VERTEX
  8
LAYER_1
 10
95.8267
 20
241.1667
  0
VERTEX
  8
LAYER_1
 10
92.6679
 20
240.9052
  0
VERTEX
  8
LAYER_1
 10
95.5261
 20
239.5613
  0
SEQEND
  0
POLYLINE
  8
LAYER_1
 40
0.1799
 41
0.1799
 66
1
 10
0
 20
0
 30
0
  0
VERTEX
  8
LAYER_1
 10
121.5991
 20
235.4023
  0
VERTEX
  8
LAYER_1
 10
92.6677
 20
240.9057
  0
SEQEND
  0
POLYLINE
  8
LAYER_1
 40
0.05
 41
0.05
 66
1
 10
0
 20
0
 30
0
 70
1
  0
VERTEX
  8
LAYER_1
 10
0
 20
425.9997
  0
VERTEX
  8
LAYER_1
 10
302.9996
 20
425.9997
  0
VERTEX
  8
LAYER_1
 10
302.9996
 20
0
  0
VERTEX
  8
LAYER_1
 10
0
 20
0
  0
SEQEND
  0
ENDBLK
  0
BLOCK
  8
LAYER_1
  2
AIGNBL0101000C
 70
64
 10
0
 20
0
 30
0
  3
AIGNBL0101000C
  0
POLYLINE
  8
LAYER_1
 40
0.1799
 41
0.1799
 66
1
 10
0
 20
0
 30
0
  0
VERTEX
  8
LAYER_1
 10
138.5886
 20
317.1789
  0
VERTEX
  8
LAYER_1
 10
138.5519
 20
317.7327
  0
VERTEX
  8
LAYER_1
 10
138.4227
 20
318.2683
 42
0.07484172712
  0
VERTEX
  8
LAYER_1
 10
137.8452
 20
319.3255
 42
0.07283680044
  0
VERTEX
  8
LAYER_1
 10
137.1139
 20
320.0349
 42
0.1944086959
  0
VERTEX
  8
LAYER_1
 10
134.5891
 20
320.6345
 42
0.2657762603
  0
VERTEX
  8
LAYER_1
 10
131.8419
 20
318.4072
 42
0.03926349572
  0
VERTEX
  8
LAYER_1
 10
131.6481
 20
317.7694
  0
VERTEX
  8
LAYER_1
 10
131.6118
 20
317.2163
  0
VERTEX
  8
LAYER_1
 10
131.6481
 20
316.6808
 42
0.07681423285
  0
VERTEX
  8
LAYER_1
 10
132.0247
 20
315.5385
 42
0.06842776596
  0
VERTEX
  8
LAYER_1
 10
132.5632
 20
314.776
 42
0.114719803
  0
VERTEX
  8
LAYER_1
 10
133.8385
 20
313.9268
 42
0.2533171724
  0
VERTEX
  8
LAYER_1
 10
137.2632
 20
314.4266
 42
0.1049499777
  0
VERTEX
  8
LAYER_1
 10
138.1424
 20
315.4893
 42
0.06786911934
  0
VERTEX
  8
LAYER_1
 10
138.4957
 20
316.4611
 42
0.00540522324
  0
VERTEX
  8
LAYER_1
 10
138.5149
 20
316.5516
  0
VERTEX
  8
LAYER_1
 10
138.5886
 20
317.0871
  0
VERTEX
  8
LAYER_1
 10
138.5886
 20
317.1789
  0
SEQEND
  0
POLYLINE
  8
LAYER_1
 40
0.1799
 41
0.1799
 66
1
 10
0
 20
0
 30
0
  0
VERTEX
  8
LAYER_1
 10
122.0311
 20
309.5821
  0
VERTEX
  8
LAYER_1
 10
119.9822
 20
307.1642
  0
VERTEX
  8
LAYER_1
 10
122.9541
 20
308.2346
  0
SEQEND
  0
POLYLINE
  8
LAYER_1
 40
0.1799
 41
0.1799
 66
1
 10
0
 20
0
 30
0
  0
VERTEX
  8
LAYER_1
 10
131.6116
 20
315.2857
  0
VERTEX
  8
LAYER_1
 10
119.9823
 20
307.164
  0
SEQEND
  0
POLYLINE
  8
LAYER_1
 40
0.05
 41
0.05
 66
1
 10
0
 20
0
 30
0
 70
1
  0
VERTEX
  8
LAYER_1
 10
0
 20
425.9997
  0
VERTEX
  8
LAYER_1
 10
302.9996
 20
425.9997
  0
VERTEX
  8
LAYER_1
 10
302.9996
 20
0
  0
VERTEX
  8
LAYER_1
 10
0
 20
0
  0
SEQEND
  0
ENDBLK
  0
BLOCK
  8
LAYER_1
  2
AIGNBL0101000D
 70
64
 10
0
 20
0
 30
0
  3
AIGNBL0101000D
  0
POLYLINE
  8
LAYER_1
 40
0.1799
 41
0.1799
 66
1
 10
0
 20
0
 30
0
  0
VERTEX
  8
LAYER_1
 10
112.872
 20
264.2983
  0
VERTEX
  8
LAYER_1
 10
112.8353
 20
264.8521
  0
VERTEX
  8
LAYER_1
 10
112.7061
 20
265.3876
 42
0.0748467171
  0
VERTEX
  8
LAYER_1
 10
112.1286
 20
266.4448
 42
0.07283820368
  0
VERTEX
  8
LAYER_1
 10
111.3973
 20
267.1542
 42
0.1944014768
  0
VERTEX
  8
LAYER_1
 10
108.8723
 20
267.7538
 42
0.2657888199
  0
VERTEX
  8
LAYER_1
 10
106.1252
 20
265.5265
 42
0.03926931106
  0
VERTEX
  8
LAYER_1
 10
105.9315
 20
264.8887
  0
VERTEX
  8
LAYER_1
 10
105.8947
 20
264.3353
  0
VERTEX
  8
LAYER_1
 10
105.9315
 20
263.8001
 42
0.07681429056
  0
VERTEX
  8
LAYER_1
 10
106.3081
 20
262.6578
 42
0.06842808074
  0
VERTEX
  8
LAYER_1
 10
106.8466
 20
261.8953
 42
0.1147212387
  0
VERTEX
  8
LAYER_1
 10
108.1219
 20
261.0462
 42
0.2533240836
  0
VERTEX
  8
LAYER_1
 10
111.5466
 20
261.5459
 42
0.1049488315
  0
VERTEX
  8
LAYER_1
 10
112.4258
 20
262.6088
 42
0.06786649389
  0
VERTEX
  8
LAYER_1
 10
112.7791
 20
263.5806
 42
0.005404975971
  0
VERTEX
  8
LAYER_1
 10
112.7983
 20
263.6711
  0
VERTEX
  8
LAYER_1
 10
112.872
 20
264.2061
  0
VERTEX
  8
LAYER_1
 10
112.872
 20
264.2983
  0
SEQEND
  0
POLYLINE
  8
LAYER_1
 40
0.1799
 41
0.1799
 66
1
 10
0
 20
0
 30
0
  0
VERTEX
  8
LAYER_1
 10
96.3145
 20
256.7015
  0
VERTEX
  8
LAYER_1
 10
94.2652
 20
254.2832
  0
VERTEX
  8
LAYER_1
 10
97.2375
 20
255.3539
  0
SEQEND
  0
POLYLINE
  8
LAYER_1
 40
0.1799
 41
0.1799
 66
1
 10
0
 20
0
 30
0
  0
VERTEX
  8
LAYER_1
 10
105.8947
 20
262.405
  0
VERTEX
  8
LAYER_1
 10
94.2654
 20
254.2834
  0
SEQEND
  0
POLYLINE
  8
LAYER_1
 40
0.05
 41
0.05
 66
1
 10
0
 20
0
 30
0
 70
1
  0
VERTEX
  8
LAYER_1
 10
0
 20
425.9997
  0
VERTEX
  8
LAYER_1
 10
302.9996
 20
425.9997
  0
VERTEX
  8
LAYER_1
 10
302.9996
 20
0
  0
VERTEX
  8
LAYER_1
 10
0
 20
0
  0
SEQEND
  0
ENDBLK
  0
BLOCK
  8
LAYER_1
  2
AIGNBL0101000E
 70
64
 10
0
 20
0
 30
0
  3
AIGNBL0101000E
  0
POLYLINE
  8
LAYER_1
 40
0.2893
 41
0.2893
 66
1
 10
0
 20
0
 30
0
  0
VERTEX
  8
LAYER_1
 10
65.8263
 20
207.5329
  0
VERTEX
  8
LAYER_1
 10
118.7743
 20
207.5329
  0
SEQEND
  0
POLYLINE
  8
LAYER_1
 40
0.2893
 41
0.2893
 66
1
 10
0
 20
0
 30
0
  0
VERTEX
  8
LAYER_1
 10
49.3214
 20
251.8332
  0
VERTEX
  8
LAYER_1
 10
49.3214
 20
311.1204
  0
SEQEND
  0
POLYLINE
  8
LAYER_1
 40
0.2893
 41
0.2893
 66
1
 10
0
 20
0
 30
0
  0
VERTEX
  8
LAYER_1
 10
140.1899
 20
221.2754
  0
VERTEX
  8
LAYER_1
 10
140.1899
 20
311.1216
  0
SEQEND
  0
POLYLINE
  8
LAYER_1
 40
0.2893
 41
0.2893
 66
1
 10
0
 20
0
 30
0
  0
VERTEX
  8
LAYER_1
 10
59.7664
 20
321.0951
  0
VERTEX
  8
LAYER_1
 10
124.893
 20
321.0951
  0
SEQEND
  0
INSERT
  8
LAYER_1
  2
AIGNBL0102000F
 10
0
 20
0
 30
0
  0
POLYLINE
  8
LAYER_1
 40
0.05
 41
0.05
 66
1
 10
0
 20
0
 30
0
 70
1
  0
VERTEX
  8
LAYER_1
 10
0
 20
425.9997
  0
VERTEX
  8
LAYER_1
 10
302.9996
 20
425.9997
  0
VERTEX
  8
LAYER_1
 10
302.9996
 20
0
  0
VERTEX
  8
LAYER_1
 10
0
 20
0
  0
SEQEND
  0
ENDBLK
  0
BLOCK
  8
LAYER_1
  2
AIGNBL01010010
 70
64
 10
0
 20
0
 30
0
  3
AIGNBL01010010
  0
POLYLINE
  8
LAYER_1
 40
0.1799
 41
0.1799
 66
1
 10
0
 20
0
 30
0
  0
VERTEX
  8
LAYER_1
 10
91.9661
 20
253.9733
 42
-0.06319680649
  0
VERTEX
  8
LAYER_1
 10
93.2591
 20
253.9808
 42
-0.009474369139
  0
VERTEX
  8
LAYER_1
 10
93.3359
 20
253.9652
 42
-0.07066080425
  0
VERTEX
  8
LAYER_1
 10
94.0353
 20
253.7559
 42
-0.06204448827
  0
VERTEX
  8
LAYER_1
 10
95.1761
 20
252.9395
 42
-0.004733741147
  0
VERTEX
  8
LAYER_1
 10
95.2367
 20
252.8824
 42
-0.0550085661
  0
VERTEX
  8
LAYER_1
 10
95.45
 20
252.5949
 42
-0.07453303087
  0
VERTEX
  8
LAYER_1
 10
95.8411
 20
251.6621
 42
-0.07791466245
  0
VERTEX
  8
LAYER_1
 10
95.8713
 20
251.2975
 42
-0.01096420382
  0
VERTEX
  8
LAYER_1
 10
95.641
 20
248.9833
 42
-0.02934462385
  0
VERTEX
  8
LAYER_1
 10
95.4512
 20
247.8409
 42
-0.008013037419
  0
VERTEX
  8
LAYER_1
 10
95.2367
 20
246.9171
 42
-0.006255857041
  0
VERTEX
  8
LAYER_1
 10
94.8314
 20
244.9001
 42
-0.03737963548
  0
VERTEX
  8
LAYER_1
 10
94.5407
 20
243.6902
 42
-0.1628192894
  0
VERTEX
  8
LAYER_1
 10
94.0353
 20
243.2001
 42
-0.05513634103
  0
VERTEX
  8
LAYER_1
 10
93.7592
 20
243.189
 42
-0.01294132906
  0
VERTEX
  8
LAYER_1
 10
91.4204
 20
243.3156
 42
-0.1273662181
  0
VERTEX
  8
LAYER_1
 10
90.9323
 20
243.7321
 42
-0.1174784711
  0
VERTEX
  8
LAYER_1
 10
90.6748
 20
244.3632
 42
-0.002851594411
  0
VERTEX
  8
LAYER_1
 10
90.6718
 20
244.382
 42
0.007329977209
  0
VERTEX
  8
LAYER_1
 10
90.1976
 20
246.9767
  0
VERTEX
  8
LAYER_1
 10
89.5284
 20
250.0581
 42
-0.05116001612
  0
VERTEX
  8
LAYER_1
 10
89.4862
 20
251.6549
 42
-0.02537027488
  0
VERTEX
  8
LAYER_1
 10
89.5284
 20
251.9314
 42
-0.103250479
  0
VERTEX
  8
LAYER_1
 10
89.8612
 20
252.7446
 42
-0.04812772504
  0
VERTEX
  8
LAYER_1
 10
90.1231
 20
253.0416
 42
-0.01694162121
  0
VERTEX
  8
LAYER_1
 10
90.4396
 20
253.3146
 42
-0.04532607005
  0
VERTEX
  8
LAYER_1
 10
90.8173
 20
253.5512
 42
-0.05657508705
  0
VERTEX
  8
LAYER_1
 10
91.8973
 20
253.9731
 42
-0.7525606354
  0
VERTEX
  8
LAYER_1
 10
91.9023
 20
253.9453
 42
-0.08627849979
  0
VERTEX
  8
LAYER_1
 10
91.8716
 20
253.9197
  0
SEQEND
  0
POLYLINE
  8
LAYER_1
 40
0.05
 41
0.05
 66
1
 10
0
 20
0
 30
0
 70
1
  0
VERTEX
  8
LAYER_1
 10
0
 20
425.9997
  0
VERTEX
  8
LAYER_1
 10
302.9996
 20
425.9997
  0
VERTEX
  8
LAYER_1
 10
302.9996
 20
0
  0
VERTEX
  8
LAYER_1
 10
0
 20
0
  0
SEQEND
  0
ENDBLK
  0
BLOCK
  8
LAYER_1
  2
AIGNBL01010011
 70
64
 10
0
 20
0
 30
0
  3
AIGNBL01010011
  0
INSERT
  8
LAYER_1
  2
AIGNBL01020012
 10
0
 20
0
 30
0
  0
INSERT
  8
LAYER_1
  2
AIGNBL0102001B
 10
0
 20
0
 30
0
  0
ENDBLK
  0
ENDSEC
  0
SECTION
  2
ENTITIES
  0
INSERT
  8
LAYER_1
  2
AIGNBL01010002
 10
0
 20
0
 30
0
  0
POLYLINE
  8
LAYER_1
 40
0.3528
 41
0.3528
 66
1
 10
0
 20
0
 30
0
 70
1
  0
VERTEX
  8
LAYER_1
 10
292.9103
 20
10.6064
  0
VERTEX
  8
LAYER_1
 10
9.6301
 20
10.6064
  0
VERTEX
  8
LAYER_1
 10
9.6301
 20
416.8042
  0
VERTEX
  8
LAYER_1
 10
292.9103
 20
416.8042
  0
SEQEND
  0
POLYLINE
  8
LAYER_1
 40
0.3528
 41
0.3528
 66
1
 10
0
 20
0
 30
0
  0
VERTEX
  8
LAYER_1
 10
9.6302
 20
110.086
  0
VERTEX
  8
LAYER_1
 10
292.9103
 20
110.086
  0
SEQEND
  0
POLYLINE
  8
LAYER_1
 40
0.3528
 41
0.3528
 66
1
 10
0
 20
0
 30
0
  0
VERTEX
  8
LAYER_1
 10
182.5649
 20
110.086
  0
VERTEX
  8
LAYER_1
 10
182.5649
 20
10.6064
  0
SEQEND
  0
POLYLINE
  8
LAYER_1
 40
0.3528
 41
0.3528
 66
1
 10
0
 20
0
 30
0
  0
VERTEX
  8
LAYER_1
 10
9.6302
 20
97.7894
  0
VERTEX
  8
LAYER_1
 10
182.5646
 20
97.7894
  0
SEQEND
  0
POLYLINE
  8
LAYER_1
 40
0.3528
 41
0.3528
 66
1
 10
0
 20
0
 30
0
  0
VERTEX
  8
LAYER_1
 10
9.6302
 20
85.3498
  0
VERTEX
  8
LAYER_1
 10
292.9103
 20
85.3498
  0
SEQEND
  0
POLYLINE
  8
LAYER_1
 40
0.3528
 41
0.3528
 66
1
 10
0
 20
0
 30
0
  0
VERTEX
  8
LAYER_1
 10
9.6302
 20
72.9099
  0
VERTEX
  8
LAYER_1
 10
292.9103
 20
72.9099
  0
SEQEND
  0
POLYLINE
  8
LAYER_1
 40
0.3528
 41
0.3528
 66
1
 10
0
 20
0
 30
0
  0
VERTEX
  8
LAYER_1
 10
9.6302
 20
60.4704
  0
VERTEX
  8
LAYER_1
 10
182.5646
 20
60.4704
  0
SEQEND
  0
POLYLINE
  8
LAYER_1
 40
0.3528
 41
0.3528
 66
1
 10
0
 20
0
 30
0
  0
VERTEX
  8
LAYER_1
 10
9.6302
 20
48.0308
  0
VERTEX
  8
LAYER_1
 10
292.9103
 20
48.0308
  0
SEQEND
  0
POLYLINE
  8
LAYER_1
 40
0.3528
 41
0.3528
 66
1
 10
0
 20
0
 30
0
  0
VERTEX
  8
LAYER_1
 10
9.6302
 20
35.5909
  0
VERTEX
  8
LAYER_1
 10
182.5646
 20
35.5909
  0
SEQEND
  0
POLYLINE
  8
LAYER_1
 40
0.3528
 41
0.3528
 66
1
 10
0
 20
0
 30
0
  0
VERTEX
  8
LAYER_1
 10
9.6302
 20
23.1514
  0
VERTEX
  8
LAYER_1
 10
182.5646
 20
23.1514
  0
SEQEND
  0
POLYLINE
  8
LAYER_1
 40
0.3528
 41
0.3528
 66
1
 10
0
 20
0
 30
0
  0
VERTEX
  8
LAYER_1
 10
31.2231
 20
110.086
  0
VERTEX
  8
LAYER_1
 10
31.2231
 20
10.6064
  0
SEQEND
  0
POLYLINE
  8
LAYER_1
 40
0.3528
 41
0.3528
 66
1
 10
0
 20
0
 30
0
  0
VERTEX
  8
LAYER_1
 10
80.2411
 20
110.086
  0
VERTEX
  8
LAYER_1
 10
80.2411
 20
10.6064
  0
SEQEND
  0
POLYLINE
  8
LAYER_1
 40
0.3528
 41
0.3528
 66
1
 10
0
 20
0
 30
0
  0
VERTEX
  8
LAYER_1
 10
118.8517
 20
110.0863
  0
VERTEX
  8
LAYER_1
 10
118.8517
 20
10.6064
  0
SEQEND
  0
POLYLINE
  8
LAYER_1
 40
0.3528
 41
0.3528
 66
1
 10
0
 20
0
 30
0
  0
VERTEX
  8
LAYER_1
 10
137.9079
 20
110.086
  0
VERTEX
  8
LAYER_1
 10
137.9079
 20
10.6061
  0
SEQEND
  0
TEXT
  8
LAYER_1
 10
45.8277
 20
14.1304
 11
45.8277
 21
14.1304
 40
6.2324
 41
0.5
  1
部品名
  0
TEXT
  8
LAYER_1
 10
15.134
 20
14.1304
 11
15.134
 21
14.1304
 40
6.2324
 41
0.5
  1
部番
  0
TEXT
  8
LAYER_1
 10
93.2958
 20
14.1304
 11
93.2958
 21
14.1304
 40
6.2324
 41
0.5
  1
材質
  0
TEXT
  8
LAYER_1
 10
122.4781
 20
14.1304
 11
122.4781
 21
14.1304
 40
6.2324
 41
0.5
  1
数量
  0
TEXT
  8
LAYER_1
 10
153.8618
 20
14.1304
 11
153.8618
 21
14.1304
 40
6.2324
 41
0.5
  1
摘要
  0
TEXT
  8
LAYER_1
 10
18.4564
 20
63.9975
 11
18.4564
 21
63.9975
 40
7.105
 41
0.5
  1
4
  0
TEXT
  8
LAYER_1
 10
18.4564
 20
52.0871
 11
18.4564
 21
52.0871
 40
7.105
 41
0.5
  1
3
  0
TEXT
  8
LAYER_1
 10
18.4564
 20
39.1328
 11
18.4564
 21
39.1328
 40
7.105
 41
0.5
  1
2
  0
TEXT
  8
LAYER_1
 10
18.4564
 20
26.9344
 11
18.4564
 21
26.9344
 40
7.105
 41
0.5
  1
1
  0
TEXT
  8
LAYER_1
 10
18.4564
 20
75.7701
 11
18.4564
 21
75.7701
 40
7.105
 41
0.5
  1
5
  0
TEXT
  8
LAYER_1
 10
33.8272
 20
26.4067
 11
33.8272
 21
26.4067
 40
6.2324
 41
0.5
  1
コード
  0
TEXT
  8
LAYER_1
 10
33.8272
 20
39.3068
 11
33.8272
 21
39.3068
 40
6.2324
 41
0.5
  1
中間スイッチ
  0
TEXT
  8
LAYER_1
 10
33.8272
 20
51.9069
 11
33.8272
 21
51.9069
 40
6.2324
 41
0.5
  1
ソケットカバー
  0
TEXT
  8
LAYER_1
 10
33.8272
 20
64.5191
 11
33.8272
 21
64.5191
 40
6.2324
 41
0.5
  1
ソケット
  0
TEXT
  8
LAYER_1
 10
33.8272
 20
89.5756
 11
33.8272
 21
89.5756
 40
6.2324
 41
0.5
  1
ランプ
  0
TEXT
  8
LAYER_1
 10
18.4564
 20
89.1198
 11
18.4564
 21
89.1198
 40
7.105
 41
0.5
  1
6
  0
TEXT
  8
LAYER_1
 10
18.4564
 20
100.8862
 11
18.4564
 21
100.8862
 40
7.105
 41
0.5
  1
7
  0
TEXT
  8
LAYER_1
 10
126.1065
 20
26.9286
 11
126.1065
 21
26.9286
 40
7.105
 41
0.5
  1
1
  0
TEXT
  8
LAYER_1
 10
126.1065
 20
39.127
 11
126.1065
 21
39.127
 40
7.105
 41
0.5
  1
1
  0
TEXT
  8
LAYER_1
 10
126.1065
 20
52.0809
 11
126.1065
 21
52.0809
 40
7.105
 41
0.5
  1
1
  0
TEXT
  8
LAYER_1
 10
126.1065
 20
64.3392
 11
126.1065
 21
64.3392
 40
7.105
 41
0.5
  1
1
  0
TEXT
  8
LAYER_1
 10
126.1065
 20
75.7639
 11
126.1065
 21
75.7639
 40
7.105
 41
0.5
  1
1
  0
TEXT
  8
LAYER_1
 10
126.1065
 20
89.1198
 11
126.1065
 21
89.1198
 40
7.105
 41
0.5
  1
1
  0
TEXT
  8
LAYER_1
 10
92.3062
 20
39.3068
 11
92.3062
 21
39.3068
 40
6.2324
 41
0.5
  1
樹脂
  0
TEXT
  8
LAYER_1
 10
92.456
 20
64.1652
 11
92.456
 21
64.1652
 40
6.2324
 41
0.5
  1
樹脂
  0
TEXT
  8
LAYER_1
 10
89.0617
 20
75.9437
 11
89.0617
 21
75.9437
 40
6.2324
 41
0.5
  1
ガラス
  0
TEXT
  8
LAYER_1
 10
154.9773
 20
63.9854
 11
154.9773
 21
63.9854
 40
7.105
 41
0.5
  1
E17
  0
TEXT
  8
LAYER_1
 10
187.5434
 20
64.8798
 11
187.5434
 21
64.8798
 40
4.766
 41
0.5
  1
品番
  0
TEXT
  8
LAYER_1
 10
193.2902
 20
53.0217
 11
193.2902
 21
53.0217
 40
12.5382
 41
0.5
  1
BRO-PC856
  0
TEXT
  8
LAYER_1
 10
187.5434
 20
101.4284
 11
187.5434
 21
101.4284
 40
4.766
 41
0.5
  1
適合ランプ
  0
TEXT
  8
LAYER_1
 10
206.3853
 20
89.4033
 11
206.3853
 21
89.4033
 40
7.105
 41
0.5
  1
Edison Bull SIGNATURE
  0
TEXT
  8
LAYER_1
 10
187.5434
 20
76.2076
 11
187.5434
 21
76.2076
 40
4.766
 41
0.5
  1
定格
  0
TEXT
  8
LAYER_1
 10
206.3853
 20
75.8259
 11
206.3853
 21
75.8259
 40
7.105
 41
0.5
  1
白熱電球100V 40W E17
  0
TEXT
  8
LAYER_1
 10
155.5051
 20
26.2351
 11
155.5051
 21
26.2351
 40
7.105
 41
0.5
  1
2m
  0
TEXT
  8
LAYER_1
 10
156.8666
 20
89.5835
 11
156.8666
 21
89.5835
 40
6.2324
 41
0.5
  1
黒
  0
TEXT
  8
LAYER_1
 10
156.8666
 20
39.3147
 11
156.8666
 21
39.3147
 40
6.2324
 41
0.5
  1
黒
  0
TEXT
  8
LAYER_1
 10
203.107
 20
197.2217
 11
203.107
 21
197.2217
 40
6.2324
 41
0.5
  1
安全に関するご注意
  0
TEXT
  8
LAYER_1
 10
182.6045
 20
184.6661
 11
182.6045
 21
184.6661
 40
4.766
 41
0.5
  1
不安定な場所で使用しないでください。
  0
TEXT
  8
LAYER_1
 10
182.6045
 20
176.6404
 11
182.6045
 21
176.6404
 40
4.766
 41
0.5
  1
屋内用器具です。屋内や水気、湿気のある所では
  0
TEXT
  8
LAYER_1
 10
182.6045
 20
168.6147
 11
182.6045
 21
168.6147
 40
4.766
 41
0.5
  1
使用しないでください。
  0
TEXT
  8
LAYER_1
 10
182.6045
 20
160.589
 11
182.6045
 21
160.589
 40
4.766
 41
0.5
  1
カーテンの近くや天井と接近させて使用しない
  0
TEXT
  8
LAYER_1
 10
182.6045
 20
152.5633
 11
182.6045
 21
152.5633
 40
4.766
 41
0.5
  1
でください。
  0
TEXT
  8
LAYER_1
 10
182.6045
 20
144.5376
 11
182.6045
 21
144.5376
 40
4.766
 41
0.5
  1
火災の原因となります。
  0
TEXT
  8
LAYER_1
 10
182.6045
 20
136.5119
 11
182.6045
 21
136.5119
 40
4.766
 41
0.5
  1
必ず電源を切ってランプ交換をしてください。
  0
TEXT
  8
LAYER_1
 10
182.6045
 20
128.4862
 11
182.6045
 21
128.4862
 40
4.766
 41
0.5
  1
点灯中や消灯直後のランプに触れないでください。
  0
TEXT
  8
LAYER_1
 10
182.6045
 20
120.4605
 11
182.6045
 21
120.4605
 40
4.766
 41
0.5
  1
やけどの原因となります。
  0
TEXT
  8
LAYER_1
 10
176.5188
 20
184.6661
 11
176.5188
 21
184.6661
 40
4.766
 41
0.5
  1
・
  0
TEXT
  8
LAYER_1
 10
176.5188
 20
176.7045
 11
176.5188
 21
176.7045
 40
4.766
 41
0.5
  1
・
  0
TEXT
  8
LAYER_1
 10
176.5188
 20
161.1805
 11
176.5188
 21
161.1805
 40
4.766
 41
0.5
  1
・
  0
TEXT
  8
LAYER_1
 10
176.5188
 20
128.7246
 11
176.5188
 21
128.7246
 40
4.766
 41
0.5
  1
・
  0
TEXT
  8
LAYER_1
 10
176.5188
 20
145.1474
 11
176.5188
 21
145.1474
 40
4.766
 41
0.5
  1
・
  0
POLYLINE
  8
LAYER_1
 40
0.3528
 41
0.3528
 66
1
 10
0
 20
0
 30
0
 70
1
  0
VERTEX
  8
LAYER_1
 10
174.45
 20
204.3686
  0
VERTEX
  8
LAYER_1
 10
287.3389
 20
204.3686
  0
VERTEX
  8
LAYER_1
 10
287.3389
 20
116.0825
  0
VERTEX
  8
LAYER_1
 10
174.45
 20
116.0825
  0
SEQEND
  0
POLYLINE
  8
LAYER_1
 40
0.3528
 41
0.3528
 66
1
 10
0
 20
0
 30
0
  0
VERTEX
  8
LAYER_1
 10
174.686
 20
193.0166
  0
VERTEX
  8
LAYER_1
 10
287.5749
 20
193.0166
  0
SEQEND
  0
TEXT
  8
LAYER_1
 10
33.8336
 20
76.2072
 11
33.8336
 21
76.2072
 40
6.2324
 41
0.5
  1
シェード
  0
INSERT
  8
LAYER_1
  2
AIGNBL01010004
 10
0
 20
0
 30
0
  0
TEXT
  8
LAYER_1
 10
60.0454
 20
166.1807
 11
60.0454
 21
166.1807
 40
7.9409
 41
0.5
  1
1
  0
INSERT
  8
LAYER_1
  2
AIGNBL01010005
 10
0
 20
0
 30
0
  0
TEXT
  8
LAYER_1
 10
75.7781
 20
164.1626
 11
75.7781
 21
164.1626
 40
7.9409
 41
0.5
  1
2
  0
INSERT
  8
LAYER_1
  2
AIGNBL01010006
 10
0
 20
0
 30
0
  0
TEXT
  8
LAYER_1
 10
54.7787
 20
227.2282
 11
54.7787
 21
227.2282
 40
6.925
 41
0.5
  1
3
  0
INSERT
  8
LAYER_1
  2
AIGNBL0101000B
 10
0
 20
0
 30
0
  0
TEXT
  8
LAYER_1
 10
123.2145
 20
232.2301
 11
123.2145
 21
232.2301
 40
6.925
 41
0.5
  1
4
  0
INSERT
  8
LAYER_1
  2
AIGNBL0101000C
 10
0
 20
0
 30
0
  0
TEXT
  8
LAYER_1
 10
133.4217
 20
314.7501
 11
133.4217
 21
314.7501
 40
6.925
 41
0.5
  1
5
  0
INSERT
  8
LAYER_1
  2
AIGNBL0101000D
 10
0
 20
0
 30
0
  0
TEXT
  8
LAYER_1
 10
107.7051
 20
261.8695
 11
107.7051
 21
261.8695
 40
6.925
 41
0.5
  1
6
  0
INSERT
  8
LAYER_1
  2
AIGNBL0101000E
 10
0
 20
0
 30
0
  0
TEXT
  8
LAYER_1
 10
46.0113
 20
275.71
 11
46.0113
 21
275.71
 40
8.3828
 41
0.5
 50
89.99999999
  1
2
  0
TEXT
  8
LAYER_1
 10
46.0113
 20
279.6088
 11
46.0113
 21
279.6088
 40
8.3828
 41
0.5
 50
89.99999999
  1
5
  0
TEXT
  8
LAYER_1
 10
46.0113
 20
283.479
 11
46.0113
 21
283.479
 40
8.3828
 41
0.5
 50
89.99999999
  1
5
  0
TEXT
  8
LAYER_1
 10
89.1915
 20
324.1552
 11
89.1915
 21
324.1552
 40
8.3828
 41
0.5
  1
2
  0
TEXT
  8
LAYER_1
 10
93.0903
 20
324.1552
 11
93.0903
 21
324.1552
 40
8.3828
 41
0.5
  1
8
  0
TEXT
  8
LAYER_1
 10
97.0244
 20
324.1552
 11
97.0244
 21
324.1552
 40
8.3828
 41
0.5
  1
5
  0
TEXT
  8
LAYER_1
 10
138.164
 20
264.4571
 11
138.164
 21
264.4571
 40
8.3828
 41
0.5
 50
89.99999999
  1
4
  0
TEXT
  8
LAYER_1
 10
138.164
 20
268.3559
 11
138.164
 21
268.3559
 40
8.3828
 41
0.5
 50
89.99999999
  1
0
  0
TEXT
  8
LAYER_1
 10
138.1638
 20
272.2898
 11
138.1638
 21
272.2898
 40
8.3828
 41
0.5
 50
89.99999999
  1
0
  0
TEXT
  8
LAYER_1
 10
89.3227
 20
209.5049
 11
89.3227
 21
209.5049
 40
8.3828
 41
0.5
  1
2
  0
TEXT
  8
LAYER_1
 10
93.2215
 20
209.5049
 11
93.2215
 21
209.5049
 40
8.3828
 41
0.5
  1
3
  0
TEXT
  8
LAYER_1
 10
97.1486
 20
209.5049
 11
97.1486
 21
209.5049
 40
8.3828
 41
0.5
  1
9
  0
INSERT
  8
LAYER_1
  2
AIGNBL01010010
 10
0
 20
0
 30
0
  0
TEXT
  8
LAYER_1
 10
188.0202
 20
21.6125
 11
188.0202
 21
21.6125
 40
5.2209
 41
0.5
  1
●TEL 0120-65-1232●FAX 06-6532-1580
  0
TEXT
  8
LAYER_1
 10
188.0202
 20
16.1919
 11
188.0202
 21
16.1919
 40
5.2209
 41
0.5
  1
hits@hiratatile.co.jp
  0
INSERT
  8
LAYER_1
  2
AIGNBL01010011
 10
0
 20
0
 30
0
  0
ENDSEC
  0
EOF
