  0
SECTION
  2
HEADER
  9
$ACADVER
  1
AC1009
  9
$LUNITS
 70
2
  9
$LUPREC
 70
4
  9
$LTSCALE
 40
1.0
  9
$EXTMIN
 10
0
 20
0
 30
0
  9
$EXTMAX
 10
302.9996
 20
425.9997
 30
0
  0
ENDSEC
  0
SECTION
  2
TABLES
  0
TABLE
  2
LTYPE
 70
256
  0
ENDTAB
  0
TABLE
  2
LAYER
 70
1
  0
LAYER
  2
LAYER_1
 70
64
 62
7
  6
CONTINUOUS
  0
ENDTAB
  0
TABLE
  2
STYLE
 70
6
  0
STYLE
  2
STANDARD
 70
0
 40
0
 50
0
 71
0
 41
0
 42
0
  3
TXT
  4
BIGFONT
  0
ENDTAB
  0
ENDSEC
  0
SECTION
  2
BLOCKS
  0
BLOCK
  8
LAYER_1
  2
AIGNBL01040015
 70
64
 10
0
 20
0
 30
0
  3
AIGNBL01040015
  0
POLYLINE
  8
LAYER_1
 40
0.05
 41
0.05
 66
1
 10
0
 20
0
 30
0
 70
1
  0
VERTEX
  8
LAYER_1
 10
190.4614
 20
38.4817
  0
VERTEX
  8
LAYER_1
 10
189.7073
 20
36.6544
  0
VERTEX
  8
LAYER_1
 10
188.7389
 20
36.6544
  0
VERTEX
  8
LAYER_1
 10
191.2056
 20
42.4622
  0
VERTEX
  8
LAYER_1
 10
192.3362
 20
42.4622
  0
VERTEX
  8
LAYER_1
 10
194.8139
 20
36.6544
  0
VERTEX
  8
LAYER_1
 10
193.8111
 20
36.6544
  0
VERTEX
  8
LAYER_1
 10
193.0359
 20
38.4817
  0
SEQEND
  0
POLYLINE
  8
LAYER_1
 40
0.05
 41
0.05
 66
1
 10
0
 20
0
 30
0
 70
1
  0
VERTEX
  8
LAYER_1
 10
192.842
 20
39.066
  0
VERTEX
  8
LAYER_1
 10
192.1313
 20
40.7396
 42
-0.0252121931
  0
VERTEX
  8
LAYER_1
 10
191.754
 20
41.7987
  0
VERTEX
  8
LAYER_1
 10
191.7327
 20
41.7987
 42
-0.01979858601
  0
VERTEX
  8
LAYER_1
 10
191.3661
 20
40.7465
  0
VERTEX
  8
LAYER_1
 10
190.6557
 20
39.066
  0
SEQEND
  0
ENDBLK
  0
BLOCK
  8
LAYER_1
  2
AIGNBL01040016
 70
64
 10
0
 20
0
 30
0
  3
AIGNBL01040016
  0
POLYLINE
  8
LAYER_1
 40
0.05
 41
0.05
 66
1
 10
0
 20
0
 30
0
 70
1
  0
VERTEX
  8
LAYER_1
 10
201.546
 20
35.8007
 42
-0.01512299395
  0
VERTEX
  8
LAYER_1
 10
198.7669
 20
36.4732
 42
0.08505911572
  0
VERTEX
  8
LAYER_1
 10
198.3245
 20
36.5594
 42
-0.07480007531
  0
VERTEX
  8
LAYER_1
 10
197.0982
 20
36.7769
 42
-0.07803401708
  0
VERTEX
  8
LAYER_1
 10
196.1915
 20
37.2561
 42
-0.08253816187
  0
VERTEX
  8
LAYER_1
 10
195.5792
 20
37.9056
 42
-0.0851833679
  0
VERTEX
  8
LAYER_1
 10
195.2197
 20
38.7209
 42
-0.06334354481
  0
VERTEX
  8
LAYER_1
 10
195.1261
 20
39.4966
 42
-0.08542845362
  0
VERTEX
  8
LAYER_1
 10
195.3076
 20
40.5812
 42
-0.202394645
  0
VERTEX
  8
LAYER_1
 10
196.8193
 20
42.2054
 42
-0.07335058282
  0
VERTEX
  8
LAYER_1
 10
197.8428
 20
42.5081
 42
-0.03729418479
  0
VERTEX
  8
LAYER_1
 10
198.5085
 20
42.5566
 42
-0.07558653402
  0
VERTEX
  8
LAYER_1
 10
199.7349
 20
42.3768
 42
-0.07835633417
  0
VERTEX
  8
LAYER_1
 10
200.6202
 20
41.9371
 42
-0.1260287891
  0
VERTEX
  8
LAYER_1
 10
201.4856
 20
40.8999
 42
-0.07823840187
  0
VERTEX
  8
LAYER_1
 10
201.733
 20
40.0488
 42
-0.03297580944
  0
VERTEX
  8
LAYER_1
 10
201.761
 20
39.6179
 42
-0.08288588676
  0
VERTEX
  8
LAYER_1
 10
201.5884
 20
38.5447
 42
-0.0868359805
  0
VERTEX
  8
LAYER_1
 10
201.1449
 20
37.7497
 42
-0.08482255437
  0
VERTEX
  8
LAYER_1
 10
200.4782
 20
37.1719
 42
-0.07066629397
  0
VERTEX
  8
LAYER_1
 10
199.6932
 20
36.835
  0
VERTEX
  8
LAYER_1
 10
199.6932
 20
36.8005
 42
0.01474109512
  0
VERTEX
  8
LAYER_1
 10
201.8158
 20
36.4298
  0
SEQEND
  0
POLYLINE
  8
LAYER_1
 40
0.05
 41
0.05
 66
1
 10
0
 20
0
 30
0
 70
1
  0
VERTEX
  8
LAYER_1
 10
200.7709
 20
39.5848
 42
0.09294884278
  0
VERTEX
  8
LAYER_1
 10
200.591
 20
40.5462
 42
0.09187354063
  0
VERTEX
  8
LAYER_1
 10
200.1459
 20
41.262
 42
0.1947353543
  0
VERTEX
  8
LAYER_1
 10
198.6868
 20
41.9369
 42
0.01946754028
  0
VERTEX
  8
LAYER_1
 10
198.4754
 20
41.9447
 42
0.09477948532
  0
VERTEX
  8
LAYER_1
 10
197.4951
 20
41.7656
 42
0.2441057995
  0
VERTEX
  8
LAYER_1
 10
196.2113
 20
40.2345
 42
0.06415171844
  0
VERTEX
  8
LAYER_1
 10
196.1276
 20
39.5159
 42
0.09462237015
  0
VERTEX
  8
LAYER_1
 10
196.2965
 20
38.5778
 42
0.0941967925
  0
VERTEX
  8
LAYER_1
 10
196.745
 20
37.8607
 42
0.1408148608
  0
VERTEX
  8
LAYER_1
 10
197.7621
 20
37.2554
 42
0.06670015515
  0
VERTEX
  8
LAYER_1
 10
198.4327
 20
37.1698
 42
0.09216419086
  0
VERTEX
  8
LAYER_1
 10
199.3748
 20
37.3382
 42
0.242005286
  0
VERTEX
  8
LAYER_1
 10
200.676
 20
38.8409
 42
0.06604593337
  0
SEQEND
  0
ENDBLK
  0
BLOCK
  8
LAYER_1
  2
AIGNBL01040017
 70
64
 10
0
 20
0
 30
0
  3
AIGNBL01040017
  0
POLYLINE
  8
LAYER_1
 40
0.05
 41
0.05
 66
1
 10
0
 20
0
 30
0
 70
1
  0
VERTEX
  8
LAYER_1
 10
203.8084
 20
42.4622
  0
VERTEX
  8
LAYER_1
 10
203.8084
 20
39.024
 42
0.09352737738
  0
VERTEX
  8
LAYER_1
 10
203.9691
 20
38.0988
 42
0.1122486996
  0
VERTEX
  8
LAYER_1
 10
204.3482
 20
37.554
 42
0.1179458884
  0
VERTEX
  8
LAYER_1
 10
204.9432
 20
37.2398
 42
0.0680002154
  0
VERTEX
  8
LAYER_1
 10
205.4993
 20
37.1698
 42
0.1038303664
  0
VERTEX
  8
LAYER_1
 10
206.3862
 20
37.3412
 42
0.1169393673
  0
VERTEX
  8
LAYER_1
 10
206.8952
 20
37.7364
 42
0.1129410044
  0
VERTEX
  8
LAYER_1
 10
207.1952
 20
38.3759
 42
0.06115980262
  0
VERTEX
  8
LAYER_1
 10
207.2659
 20
39.024
  0
VERTEX
  8
LAYER_1
 10
207.2659
 20
42.4622
  0
VERTEX
  8
LAYER_1
 10
208.2136
 20
42.4622
  0
VERTEX
  8
LAYER_1
 10
208.2136
 20
39.0757
 42
-0.08654677872
  0
VERTEX
  8
LAYER_1
 10
208.0418
 20
38.0217
 42
-0.09649554621
  0
VERTEX
  8
LAYER_1
 10
207.6248
 20
37.3335
 42
-0.1004151758
  0
VERTEX
  8
LAYER_1
 10
206.9441
 20
36.845
 42
-0.08189651331
  0
VERTEX
  8
LAYER_1
 10
206.0021
 20
36.5901
 42
-0.02973163431
  0
VERTEX
  8
LAYER_1
 10
205.4669
 20
36.5594
 42
-0.07964784669
  0
VERTEX
  8
LAYER_1
 10
204.3163
 20
36.7308
 42
-0.09129651749
  0
VERTEX
  8
LAYER_1
 10
203.6061
 20
37.1252
 42
-0.150799352
  0
VERTEX
  8
LAYER_1
 10
202.9829
 20
38.1111
 42
-0.07483297072
  0
VERTEX
  8
LAYER_1
 10
202.8603
 20
39.0412
  0
VERTEX
  8
LAYER_1
 10
202.8603
 20
42.4622
  0
SEQEND
  0
ENDBLK
  0
BLOCK
  8
LAYER_1
  2
AIGNBL01040018
 70
64
 10
0
 20
0
 30
0
  3
AIGNBL01040018
  0
POLYLINE
  8
LAYER_1
 40
0.05
 41
0.05
 66
1
 10
0
 20
0
 30
0
 70
1
  0
VERTEX
  8
LAYER_1
 10
210.907
 20
38.4817
  0
VERTEX
  8
LAYER_1
 10
210.1525
 20
36.6544
  0
VERTEX
  8
LAYER_1
 10
209.1841
 20
36.6544
  0
VERTEX
  8
LAYER_1
 10
211.6501
 20
42.4622
  0
VERTEX
  8
LAYER_1
 10
212.7808
 20
42.4622
  0
VERTEX
  8
LAYER_1
 10
215.2585
 20
36.6544
  0
VERTEX
  8
LAYER_1
 10
214.2567
 20
36.6544
  0
VERTEX
  8
LAYER_1
 10
213.4815
 20
38.4817
  0
SEQEND
  0
POLYLINE
  8
LAYER_1
 40
0.05
 41
0.05
 66
1
 10
0
 20
0
 30
0
 70
1
  0
VERTEX
  8
LAYER_1
 10
213.2872
 20
39.066
  0
VERTEX
  8
LAYER_1
 10
212.5758
 20
40.7396
 42
-0.02427488458
  0
VERTEX
  8
LAYER_1
 10
212.1986
 20
41.7987
  0
VERTEX
  8
LAYER_1
 10
212.1772
 20
41.7987
 42
-0.0201534181
  0
VERTEX
  8
LAYER_1
 10
211.8114
 20
40.7465
  0
VERTEX
  8
LAYER_1
 10
211.1003
 20
39.066
  0
SEQEND
  0
ENDBLK
  0
BLOCK
  8
LAYER_1
  2
AIGNBL01040019
 70
64
 10
0
 20
0
 30
0
  3
AIGNBL01040019
  0
POLYLINE
  8
LAYER_1
 40
0.05
 41
0.05
 66
1
 10
0
 20
0
 30
0
 70
1
  0
VERTEX
  8
LAYER_1
 10
216.8632
 20
42.3926
 42
-0.0337229386
  0
VERTEX
  8
LAYER_1
 10
218.663
 20
42.5056
 42
-0.06717150192
  0
VERTEX
  8
LAYER_1
 10
220.0208
 20
42.3392
 42
-0.08060255406
  0
VERTEX
  8
LAYER_1
 10
220.6983
 20
42.0233
 42
-0.1248706964
  0
VERTEX
  8
LAYER_1
 10
221.1807
 20
41.4767
 42
-0.1169646178
  0
VERTEX
  8
LAYER_1
 10
221.3333
 20
40.8193
 42
-0.00183441576
  0
VERTEX
  8
LAYER_1
 10
221.3333
 20
40.8072
 42
-0.1180641879
  0
VERTEX
  8
LAYER_1
 10
221.1583
 20
40.036
 42
-0.1036471676
  0
VERTEX
  8
LAYER_1
 10
220.7734
 20
39.5676
 42
-0.09997740243
  0
VERTEX
  8
LAYER_1
 10
219.9786
 20
39.1375
 42
-0.06912129152
  0
VERTEX
  8
LAYER_1
 10
218.8719
 20
38.9384
 42
-0.0147615364
  0
VERTEX
  8
LAYER_1
 10
218.5544
 20
38.9296
 42
-0.05252457235
  0
VERTEX
  8
LAYER_1
 10
217.801
 20
38.9806
  0
VERTEX
  8
LAYER_1
 10
217.801
 20
36.6544
  0
VERTEX
  8
LAYER_1
 10
216.8632
 20
36.6544
  0
SEQEND
  0
POLYLINE
  8
LAYER_1
 40
0.05
 41
0.05
 66
1
 10
0
 20
0
 30
0
 70
1
  0
VERTEX
  8
LAYER_1
 10
217.801
 20
39.5931
 42
0.05317186326
  0
VERTEX
  8
LAYER_1
 10
218.5758
 20
39.5325
 42
0.08788956177
  0
VERTEX
  8
LAYER_1
 10
219.6132
 20
39.699
 42
0.1189092167
  0
VERTEX
  8
LAYER_1
 10
220.1522
 20
40.0653
 42
0.1837788025
  0
VERTEX
  8
LAYER_1
 10
220.3972
 20
40.7727
 42
0.1524675076
  0
VERTEX
  8
LAYER_1
 10
220.2262
 20
41.3522
 42
0.1368008988
  0
VERTEX
  8
LAYER_1
 10
219.7791
 20
41.7109
 42
0.05022340939
  0
VERTEX
  8
LAYER_1
 10
219.4272
 20
41.8316
 42
0.0609315191
  0
VERTEX
  8
LAYER_1
 10
218.6847
 20
41.9103
 42
0.04673530274
  0
VERTEX
  8
LAYER_1
 10
217.801
 20
41.8496
  0
SEQEND
  0
ENDBLK
  0
BLOCK
  8
LAYER_1
  2
AIGNBL0104001A
 70
64
 10
0
 20
0
 30
0
  3
AIGNBL0104001A
  0
POLYLINE
  8
LAYER_1
 40
0.05
 41
0.05
 66
1
 10
0
 20
0
 30
0
 70
1
  0
VERTEX
  8
LAYER_1
 10
223.7269
 20
41.9964
 42
-0.2456127984
  0
VERTEX
  8
LAYER_1
 10
223.565
 20
41.6628
 42
-0.1752889855
  0
VERTEX
  8
LAYER_1
 10
223.1226
 20
41.5313
 42
-0.1918100975
  0
VERTEX
  8
LAYER_1
 10
222.6758
 20
41.6996
 42
-0.1947981421
  0
VERTEX
  8
LAYER_1
 10
222.5514
 20
41.9964
 42
-0.2325373791
  0
VERTEX
  8
LAYER_1
 10
222.7233
 20
42.3373
 42
-0.1734732649
  0
VERTEX
  8
LAYER_1
 10
223.144
 20
42.4698
 42
-0.1899395031
  0
VERTEX
  8
LAYER_1
 10
223.6005
 20
42.3043
 42
-0.1983354365
  0
SEQEND
  0
POLYLINE
  8
LAYER_1
 40
0.05
 41
0.05
 66
1
 10
0
 20
0
 30
0
 70
1
  0
VERTEX
  8
LAYER_1
 10
222.6696
 20
36.6544
  0
VERTEX
  8
LAYER_1
 10
222.6696
 20
40.8244
  0
VERTEX
  8
LAYER_1
 10
223.6174
 20
40.8244
  0
VERTEX
  8
LAYER_1
 10
223.6174
 20
36.6544
  0
SEQEND
  0
ENDBLK
  0
BLOCK
  8
LAYER_1
  2
AIGNBL0104001B
 70
64
 10
0
 20
0
 30
0
  3
AIGNBL0104001B
  0
POLYLINE
  8
LAYER_1
 40
0.05
 41
0.05
 66
1
 10
0
 20
0
 30
0
 70
1
  0
VERTEX
  8
LAYER_1
 10
226.504
 20
38.4817
  0
VERTEX
  8
LAYER_1
 10
225.7509
 20
36.6544
  0
VERTEX
  8
LAYER_1
 10
224.7808
 20
36.6544
  0
VERTEX
  8
LAYER_1
 10
227.2478
 20
42.4622
  0
VERTEX
  8
LAYER_1
 10
228.3795
 20
42.4622
  0
VERTEX
  8
LAYER_1
 10
230.8569
 20
36.6544
  0
VERTEX
  8
LAYER_1
 10
229.8547
 20
36.6544
  0
VERTEX
  8
LAYER_1
 10
229.0796
 20
38.4817
  0
SEQEND
  0
POLYLINE
  8
LAYER_1
 40
0.05
 41
0.05
 66
1
 10
0
 20
0
 30
0
 70
1
  0
VERTEX
  8
LAYER_1
 10
228.8853
 20
39.066
  0
VERTEX
  8
LAYER_1
 10
228.1742
 20
40.7396
 42
-0.02593297858
  0
VERTEX
  8
LAYER_1
 10
227.7983
 20
41.7987
  0
VERTEX
  8
LAYER_1
 10
227.7752
 20
41.7987
 42
-0.01993945184
  0
VERTEX
  8
LAYER_1
 10
227.4097
 20
40.7465
  0
VERTEX
  8
LAYER_1
 10
226.699
 20
39.066
  0
SEQEND
  0
ENDBLK
  0
BLOCK
  8
LAYER_1
  2
AIGNBL01030014
 70
64
 10
0
 20
0
 30
0
  3
AIGNBL01030014
  0
INSERT
  8
LAYER_1
  2
AIGNBL01040015
 10
0
 20
0
 30
0
  0
INSERT
  8
LAYER_1
  2
AIGNBL01040016
 10
0
 20
0
 30
0
  0
INSERT
  8
LAYER_1
  2
AIGNBL01040017
 10
0
 20
0
 30
0
  0
INSERT
  8
LAYER_1
  2
AIGNBL01040018
 10
0
 20
0
 30
0
  0
INSERT
  8
LAYER_1
  2
AIGNBL01040019
 10
0
 20
0
 30
0
  0
INSERT
  8
LAYER_1
  2
AIGNBL0104001A
 10
0
 20
0
 30
0
  0
INSERT
  8
LAYER_1
  2
AIGNBL0104001B
 10
0
 20
0
 30
0
  0
ENDBLK
  0
BLOCK
  8
LAYER_1
  2
AIGNBL0103001D
 70
64
 10
0
 20
0
 30
0
  3
AIGNBL0103001D
  0
POLYLINE
  8
LAYER_1
 40
0.05
 41
0.05
 66
1
 10
0
 20
0
 30
0
 70
1
  0
VERTEX
  8
LAYER_1
 10
188.9084
 20
33.7254
  0
VERTEX
  8
LAYER_1
 10
189.7617
 20
33.7254
  0
VERTEX
  8
LAYER_1
 10
189.7617
 20
33.5807
  0
VERTEX
  8
LAYER_1
 10
188.7464
 20
33.5807
  0
VERTEX
  8
LAYER_1
 10
188.7464
 20
35.1737
  0
VERTEX
  8
LAYER_1
 10
189.7345
 20
35.1737
  0
VERTEX
  8
LAYER_1
 10
189.7345
 20
35.0297
  0
VERTEX
  8
LAYER_1
 10
188.9084
 20
35.0297
  0
VERTEX
  8
LAYER_1
 10
188.9084
 20
34.4833
  0
VERTEX
  8
LAYER_1
 10
189.6804
 20
34.4833
  0
VERTEX
  8
LAYER_1
 10
189.6804
 20
34.3393
  0
VERTEX
  8
LAYER_1
 10
188.9084
 20
34.3393
  0
SEQEND
  0
ENDBLK
  0
BLOCK
  8
LAYER_1
  2
AIGNBL0103001E
 70
64
 10
0
 20
0
 30
0
  3
AIGNBL0103001E
  0
POLYLINE
  8
LAYER_1
 40
0.05
 41
0.05
 66
1
 10
0
 20
0
 30
0
 70
1
  0
VERTEX
  8
LAYER_1
 10
191.5191
 20
33.8171
  0
VERTEX
  8
LAYER_1
 10
191.5235
 20
33.8171
  0
VERTEX
  8
LAYER_1
 10
191.5235
 20
35.1737
  0
VERTEX
  8
LAYER_1
 10
191.6855
 20
35.1737
  0
VERTEX
  8
LAYER_1
 10
191.6855
 20
33.5807
  0
VERTEX
  8
LAYER_1
 10
191.4836
 20
33.5807
  0
VERTEX
  8
LAYER_1
 10
190.5565
 20
34.9512
  0
VERTEX
  8
LAYER_1
 10
190.551
 20
34.9512
  0
VERTEX
  8
LAYER_1
 10
190.551
 20
33.5807
  0
VERTEX
  8
LAYER_1
 10
190.3898
 20
33.5807
  0
VERTEX
  8
LAYER_1
 10
190.3898
 20
35.1737
  0
VERTEX
  8
LAYER_1
 10
190.592
 20
35.1737
  0
SEQEND
  0
ENDBLK
  0
BLOCK
  8
LAYER_1
  2
AIGNBL0103001F
 70
64
 10
0
 20
0
 30
0
  3
AIGNBL0103001F
  0
POLYLINE
  8
LAYER_1
 40
0.05
 41
0.05
 66
1
 10
0
 20
0
 30
0
 70
1
  0
VERTEX
  8
LAYER_1
 10
192.4148
 20
33.9073
 42
0.1541262994
  0
VERTEX
  8
LAYER_1
 10
192.4988
 20
33.7482
 42
0.1944006435
  0
VERTEX
  8
LAYER_1
 10
192.6739
 20
33.6841
 42
0.1377215696
  0
VERTEX
  8
LAYER_1
 10
192.8113
 20
33.7144
 42
0.1253172165
  0
VERTEX
  8
LAYER_1
 10
192.8978
 20
33.7971
 42
0.09395510689
  0
VERTEX
  8
LAYER_1
 10
192.9426
 20
33.9149
  0
VERTEX
  8
LAYER_1
 10
192.9553
 20
34.0527
  0
VERTEX
  8
LAYER_1
 10
192.9553
 20
35.1737
  0
VERTEX
  8
LAYER_1
 10
193.1172
 20
35.1737
  0
VERTEX
  8
LAYER_1
 10
193.1172
 20
34.0396
  0
VERTEX
  8
LAYER_1
 10
193.0997
 20
33.8736
 42
-0.0985358001
  0
VERTEX
  8
LAYER_1
 10
193.0359
 20
33.7109
 42
-0.1159216461
  0
VERTEX
  8
LAYER_1
 10
192.9054
 20
33.5883
 42
-0.130390731
  0
VERTEX
  8
LAYER_1
 10
192.6911
 20
33.5401
 42
-0.1749239512
  0
VERTEX
  8
LAYER_1
 10
192.4065
 20
33.6324
 42
-0.1760989268
  0
VERTEX
  8
LAYER_1
 10
192.2639
 20
33.8667
  0
SEQEND
  0
ENDBLK
  0
BLOCK
  8
LAYER_1
  2
AIGNBL01030020
 70
64
 10
0
 20
0
 30
0
  3
AIGNBL01030020
  0
POLYLINE
  8
LAYER_1
 40
0.05
 41
0.05
 66
1
 10
0
 20
0
 30
0
 70
1
  0
VERTEX
  8
LAYER_1
 10
195.4127
 20
34.3772
 42
-0.09995304247
  0
VERTEX
  8
LAYER_1
 10
195.3493
 20
34.0424
 42
-0.09877054803
  0
VERTEX
  8
LAYER_1
 10
195.1757
 20
33.7778
 42
-0.09628404905
  0
VERTEX
  8
LAYER_1
 10
194.9121
 20
33.6035
 42
-0.09878021502
  0
VERTEX
  8
LAYER_1
 10
194.5821
 20
33.5401
 42
-0.09961120919
  0
VERTEX
  8
LAYER_1
 10
194.2527
 20
33.6035
 42
-0.09929172255
  0
VERTEX
  8
LAYER_1
 10
193.9892
 20
33.7778
 42
-0.09842413213
  0
VERTEX
  8
LAYER_1
 10
193.8145
 20
34.0424
 42
-0.09812895876
  0
VERTEX
  8
LAYER_1
 10
193.7518
 20
34.3772
 42
-0.09917477792
  0
VERTEX
  8
LAYER_1
 10
193.8145
 20
34.7128
 42
-0.09929700111
  0
VERTEX
  8
LAYER_1
 10
193.9892
 20
34.9774
 42
-0.09998775454
  0
VERTEX
  8
LAYER_1
 10
194.2527
 20
35.1517
 42
-0.0987416262
  0
VERTEX
  8
LAYER_1
 10
194.5821
 20
35.2151
 42
-0.09926562475
  0
VERTEX
  8
LAYER_1
 10
194.9121
 20
35.1517
 42
-0.09796597525
  0
VERTEX
  8
LAYER_1
 10
195.1757
 20
34.9774
 42
-0.09806279503
  0
VERTEX
  8
LAYER_1
 10
195.3493
 20
34.7128
 42
-0.09905015664
  0
SEQEND
  0
POLYLINE
  8
LAYER_1
 40
0.05
 41
0.05
 66
1
 10
0
 20
0
 30
0
 70
1
  0
VERTEX
  8
LAYER_1
 10
195.2415
 20
34.3765
 42
0.08594279373
  0
VERTEX
  8
LAYER_1
 10
195.197
 20
34.6418
 42
0.09669672023
  0
VERTEX
  8
LAYER_1
 10
195.0661
 20
34.8623
 42
0.104906235
  0
VERTEX
  8
LAYER_1
 10
194.858
 20
35.0139
 42
0.1085169089
  0
VERTEX
  8
LAYER_1
 10
194.5821
 20
35.0711
 42
0.1106917346
  0
VERTEX
  8
LAYER_1
 10
194.3065
 20
35.0139
 42
0.1066475845
  0
VERTEX
  8
LAYER_1
 10
194.0987
 20
34.8623
 42
0.0991709836
  0
VERTEX
  8
LAYER_1
 10
193.9678
 20
34.6418
 42
0.08485064843
  0
VERTEX
  8
LAYER_1
 10
193.9227
 20
34.3765
 42
0.08603051087
  0
VERTEX
  8
LAYER_1
 10
193.9678
 20
34.1113
 42
0.1002093741
  0
VERTEX
  8
LAYER_1
 10
194.0987
 20
33.8908
 42
0.1005084906
  0
VERTEX
  8
LAYER_1
 10
194.3065
 20
33.7406
 42
0.1087184549
  0
VERTEX
  8
LAYER_1
 10
194.5821
 20
33.6841
 42
0.1106703841
  0
VERTEX
  8
LAYER_1
 10
194.858
 20
33.7406
 42
0.1023036151
  0
VERTEX
  8
LAYER_1
 10
195.0661
 20
33.8908
 42
0.09479161826
  0
VERTEX
  8
LAYER_1
 10
195.197
 20
34.1113
 42
0.08519180204
  0
SEQEND
  0
ENDBLK
  0
BLOCK
  8
LAYER_1
  2
AIGNBL01030021
 70
64
 10
0
 20
0
 30
0
  3
AIGNBL01030021
  0
POLYLINE
  8
LAYER_1
 40
0.05
 41
0.05
 66
1
 10
0
 20
0
 30
0
 70
1
  0
VERTEX
  8
LAYER_1
 10
196.6075
 20
33.5807
  0
VERTEX
  8
LAYER_1
 10
196.4459
 20
33.5807
  0
VERTEX
  8
LAYER_1
 10
196.4459
 20
34.2677
  0
VERTEX
  8
LAYER_1
 10
195.8492
 20
35.1737
  0
VERTEX
  8
LAYER_1
 10
196.0518
 20
35.1737
  0
VERTEX
  8
LAYER_1
 10
196.5317
 20
34.4027
  0
VERTEX
  8
LAYER_1
 10
197.015
 20
35.1737
  0
VERTEX
  8
LAYER_1
 10
197.2035
 20
35.1737
  0
VERTEX
  8
LAYER_1
 10
196.6075
 20
34.2677
  0
SEQEND
  0
ENDBLK
  0
BLOCK
  8
LAYER_1
  2
AIGNBL01030022
 70
64
 10
0
 20
0
 30
0
  3
AIGNBL01030022
  0
POLYLINE
  8
LAYER_1
 40
0.05
 41
0.05
 66
1
 10
0
 20
0
 30
0
 70
1
  0
VERTEX
  8
LAYER_1
 10
198.5994
 20
35.1737
  0
VERTEX
  8
LAYER_1
 10
199.0738
 20
35.1737
  0
VERTEX
  8
LAYER_1
 10
199.2564
 20
35.1551
 42
-0.09149099756
  0
VERTEX
  8
LAYER_1
 10
199.4214
 20
35.0897
 42
-0.1161660507
  0
VERTEX
  8
LAYER_1
 10
199.5413
 20
34.965
 42
-0.1279046505
  0
VERTEX
  8
LAYER_1
 10
199.5871
 20
34.7672
 42
-0.1791464288
  0
VERTEX
  8
LAYER_1
 10
199.51
 20
34.5474
 42
-0.1715864208
  0
VERTEX
  8
LAYER_1
 10
199.3043
 20
34.4248
  0
VERTEX
  8
LAYER_1
 10
199.3043
 20
34.4206
 42
-0.1703753954
  0
VERTEX
  8
LAYER_1
 10
199.5616
 20
34.3001
 42
-0.2046234028
  0
VERTEX
  8
LAYER_1
 10
199.6636
 20
34.0217
 42
-0.1243521367
  0
VERTEX
  8
LAYER_1
 10
199.6216
 20
33.8412
 42
-0.118847866
  0
VERTEX
  8
LAYER_1
 10
199.5041
 20
33.7013
 42
-0.0903240807
  0
VERTEX
  8
LAYER_1
 10
199.3177
 20
33.6124
 42
-0.06756603603
  0
VERTEX
  8
LAYER_1
 10
199.0711
 20
33.5807
  0
VERTEX
  8
LAYER_1
 10
198.5994
 20
33.5807
  0
SEQEND
  0
POLYLINE
  8
LAYER_1
 40
0.05
 41
0.05
 66
1
 10
0
 20
0
 30
0
 70
1
  0
VERTEX
  8
LAYER_1
 10
198.7613
 20
34.4764
  0
VERTEX
  8
LAYER_1
 10
199.0876
 20
34.4764
  0
VERTEX
  8
LAYER_1
 10
199.2061
 20
34.4902
 42
0.08842948985
  0
VERTEX
  8
LAYER_1
 10
199.3146
 20
34.5357
 42
0.120839462
  0
VERTEX
  8
LAYER_1
 10
199.3945
 20
34.6232
 42
0.1234884913
  0
VERTEX
  8
LAYER_1
 10
199.4249
 20
34.7555
 42
0.1429700321
  0
VERTEX
  8
LAYER_1
 10
199.3945
 20
34.885
 42
0.1153731971
  0
VERTEX
  8
LAYER_1
 10
199.3129
 20
34.9719
 42
0.08703888963
  0
VERTEX
  8
LAYER_1
 10
199.1913
 20
35.0201
  0
VERTEX
  8
LAYER_1
 10
199.0425
 20
35.0346
  0
VERTEX
  8
LAYER_1
 10
198.7613
 20
35.0346
  0
SEQEND
  0
POLYLINE
  8
LAYER_1
 40
0.05
 41
0.05
 66
1
 10
0
 20
0
 30
0
 70
1
  0
VERTEX
  8
LAYER_1
 10
198.7613
 20
33.7206
  0
VERTEX
  8
LAYER_1
 10
199.0631
 20
33.7206
  0
VERTEX
  8
LAYER_1
 10
199.2306
 20
33.7371
 42
0.0840361525
  0
VERTEX
  8
LAYER_1
 10
199.3704
 20
33.7909
 42
0.1177062894
  0
VERTEX
  8
LAYER_1
 10
199.4655
 20
33.888
 42
0.1321221887
  0
VERTEX
  8
LAYER_1
 10
199.5013
 20
34.0313
 42
0.2443970773
  0
VERTEX
  8
LAYER_1
 10
199.3945
 20
34.2663
 42
0.1590065208
  0
VERTEX
  8
LAYER_1
 10
199.0924
 20
34.3435
  0
VERTEX
  8
LAYER_1
 10
198.7613
 20
34.3435
  0
SEQEND
  0
ENDBLK
  0
BLOCK
  8
LAYER_1
  2
AIGNBL01030023
 70
64
 10
0
 20
0
 30
0
  3
AIGNBL01030023
  0
POLYLINE
  8
LAYER_1
 40
0.05
 41
0.05
 66
1
 10
0
 20
0
 30
0
 70
1
  0
VERTEX
  8
LAYER_1
 10
200.3299
 20
33.5807
  0
VERTEX
  8
LAYER_1
 10
200.1518
 20
33.5807
  0
VERTEX
  8
LAYER_1
 10
200.8408
 20
35.1737
  0
VERTEX
  8
LAYER_1
 10
200.9986
 20
35.1737
  0
VERTEX
  8
LAYER_1
 10
201.6824
 20
33.5807
  0
VERTEX
  8
LAYER_1
 10
201.5023
 20
33.5807
  0
VERTEX
  8
LAYER_1
 10
201.3266
 20
33.999
  0
VERTEX
  8
LAYER_1
 10
200.5028
 20
33.999
  0
SEQEND
  0
POLYLINE
  8
LAYER_1
 40
0.05
 41
0.05
 66
1
 10
0
 20
0
 30
0
 70
1
  0
VERTEX
  8
LAYER_1
 10
200.5635
 20
34.1478
  0
VERTEX
  8
LAYER_1
 10
201.2659
 20
34.1478
  0
VERTEX
  8
LAYER_1
 10
200.9149
 20
34.9946
  0
SEQEND
  0
ENDBLK
  0
BLOCK
  8
LAYER_1
  2
AIGNBL01030024
 70
64
 10
0
 20
0
 30
0
  3
AIGNBL01030024
  0
POLYLINE
  8
LAYER_1
 40
0.05
 41
0.05
 66
1
 10
0
 20
0
 30
0
 70
1
  0
VERTEX
  8
LAYER_1
 10
202.7384
 20
33.5807
  0
VERTEX
  8
LAYER_1
 10
202.5761
 20
33.5807
  0
VERTEX
  8
LAYER_1
 10
202.5761
 20
35.0297
  0
VERTEX
  8
LAYER_1
 10
202.0421
 20
35.0297
  0
VERTEX
  8
LAYER_1
 10
202.0421
 20
35.1737
  0
VERTEX
  8
LAYER_1
 10
203.271
 20
35.1737
  0
VERTEX
  8
LAYER_1
 10
203.271
 20
35.0297
  0
VERTEX
  8
LAYER_1
 10
202.7384
 20
35.0297
  0
SEQEND
  0
ENDBLK
  0
BLOCK
  8
LAYER_1
  2
AIGNBL01030025
 70
64
 10
0
 20
0
 30
0
  3
AIGNBL01030025
  0
POLYLINE
  8
LAYER_1
 40
0.05
 41
0.05
 66
1
 10
0
 20
0
 30
0
 70
1
  0
VERTEX
  8
LAYER_1
 10
203.8205
 20
35.1737
  0
VERTEX
  8
LAYER_1
 10
203.982
 20
35.1737
  0
VERTEX
  8
LAYER_1
 10
203.982
 20
34.4833
  0
VERTEX
  8
LAYER_1
 10
204.8512
 20
34.4833
  0
VERTEX
  8
LAYER_1
 10
204.8512
 20
35.1737
  0
VERTEX
  8
LAYER_1
 10
205.0132
 20
35.1737
  0
VERTEX
  8
LAYER_1
 10
205.0132
 20
33.5807
  0
VERTEX
  8
LAYER_1
 10
204.8512
 20
33.5807
  0
VERTEX
  8
LAYER_1
 10
204.8512
 20
34.3352
  0
VERTEX
  8
LAYER_1
 10
203.982
 20
34.3352
  0
VERTEX
  8
LAYER_1
 10
203.982
 20
33.5807
  0
VERTEX
  8
LAYER_1
 10
203.8205
 20
33.5807
  0
SEQEND
  0
ENDBLK
  0
BLOCK
  8
LAYER_1
  2
AIGNBL01030026
 70
64
 10
0
 20
0
 30
0
  3
AIGNBL01030026
  0
POLYLINE
  8
LAYER_1
 40
0.05
 41
0.05
 66
1
 10
0
 20
0
 30
0
 70
1
  0
VERTEX
  8
LAYER_1
 10
205.9085
 20
33.5807
  0
VERTEX
  8
LAYER_1
 10
205.7463
 20
33.5807
  0
VERTEX
  8
LAYER_1
 10
205.7463
 20
35.1737
  0
VERTEX
  8
LAYER_1
 10
206.2151
 20
35.1737
 42
-0.06066911876
  0
VERTEX
  8
LAYER_1
 10
206.4318
 20
35.1517
 42
-0.09953494556
  0
VERTEX
  8
LAYER_1
 10
206.6055
 20
35.0787
 42
-0.1297145661
  0
VERTEX
  8
LAYER_1
 10
206.7188
 20
34.9464
 42
-0.1126524822
  0
VERTEX
  8
LAYER_1
 10
206.7591
 20
34.7486
 42
-0.1056073151
  0
VERTEX
  8
LAYER_1
 10
206.7281
 20
34.5888
 42
-0.09399241868
  0
VERTEX
  8
LAYER_1
 10
206.6427
 20
34.464
 42
-0.09148909796
  0
VERTEX
  8
LAYER_1
 10
206.5142
 20
34.38
 42
-0.0767576436
  0
VERTEX
  8
LAYER_1
 10
206.3523
 20
34.3393
  0
VERTEX
  8
LAYER_1
 10
206.818
 20
33.5807
  0
VERTEX
  8
LAYER_1
 10
206.6199
 20
33.5807
  0
VERTEX
  8
LAYER_1
 10
206.179
 20
34.3256
  0
VERTEX
  8
LAYER_1
 10
205.9085
 20
34.3256
  0
SEQEND
  0
POLYLINE
  8
LAYER_1
 40
0.05
 41
0.05
 66
1
 10
0
 20
0
 30
0
 70
1
  0
VERTEX
  8
LAYER_1
 10
205.9085
 20
34.4654
  0
VERTEX
  8
LAYER_1
 10
206.19
 20
34.4654
 42
0.1458882633
  0
VERTEX
  8
LAYER_1
 10
206.4918
 20
34.5357
 42
0.2609235552
  0
VERTEX
  8
LAYER_1
 10
206.5976
 20
34.7486
 42
0.1393363969
  0
VERTEX
  8
LAYER_1
 10
206.5679
 20
34.8809
 42
0.1273858496
  0
VERTEX
  8
LAYER_1
 10
206.487
 20
34.9691
 42
0.09508134199
  0
VERTEX
  8
LAYER_1
 10
206.3612
 20
35.0187
  0
VERTEX
  8
LAYER_1
 10
206.1969
 20
35.0346
  0
VERTEX
  8
LAYER_1
 10
205.9085
 20
35.0346
  0
SEQEND
  0
ENDBLK
  0
BLOCK
  8
LAYER_1
  2
AIGNBL01030027
 70
64
 10
0
 20
0
 30
0
  3
AIGNBL01030027
  0
POLYLINE
  8
LAYER_1
 40
0.05
 41
0.05
 66
1
 10
0
 20
0
 30
0
 70
1
  0
VERTEX
  8
LAYER_1
 10
208.9805
 20
34.3772
 42
-0.09766011381
  0
VERTEX
  8
LAYER_1
 10
208.9178
 20
34.0424
 42
-0.09935449841
  0
VERTEX
  8
LAYER_1
 10
208.7428
 20
33.7778
 42
-0.09927456735
  0
VERTEX
  8
LAYER_1
 10
208.48
 20
33.6035
 42
-0.09891142118
  0
VERTEX
  8
LAYER_1
 10
208.1499
 20
33.5401
 42
-0.09975014214
  0
VERTEX
  8
LAYER_1
 10
207.8202
 20
33.6035
 42
-0.09900610129
  0
VERTEX
  8
LAYER_1
 10
207.557
 20
33.7778
 42
-0.09934846563
  0
VERTEX
  8
LAYER_1
 10
207.3827
 20
34.0424
 42
-0.09745306198
  0
VERTEX
  8
LAYER_1
 10
207.32
 20
34.3772
 42
-0.0984523054
  0
VERTEX
  8
LAYER_1
 10
207.3827
 20
34.7128
 42
-0.1000840271
  0
VERTEX
  8
LAYER_1
 10
207.557
 20
34.9774
 42
-0.0982976065
  0
VERTEX
  8
LAYER_1
 10
207.8202
 20
35.1517
 42
-0.0987846059
  0
VERTEX
  8
LAYER_1
 10
208.1499
 20
35.2151
 42
-0.09940202975
  0
VERTEX
  8
LAYER_1
 10
208.48
 20
35.1517
 42
-0.1001667942
  0
VERTEX
  8
LAYER_1
 10
208.7428
 20
34.9774
 42
-0.09865647206
  0
VERTEX
  8
LAYER_1
 10
208.9178
 20
34.7128
 42
-0.09683692051
  0
SEQEND
  0
POLYLINE
  8
LAYER_1
 40
0.05
 41
0.05
 66
1
 10
0
 20
0
 30
0
 70
1
  0
VERTEX
  8
LAYER_1
 10
208.8093
 20
34.3765
 42
0.08769980823
  0
VERTEX
  8
LAYER_1
 10
208.7642
 20
34.6418
 42
0.09998649981
  0
VERTEX
  8
LAYER_1
 10
208.6336
 20
34.8623
 42
0.1043687526
  0
VERTEX
  8
LAYER_1
 10
208.4259
 20
35.0139
 42
0.1084314942
  0
VERTEX
  8
LAYER_1
 10
208.1499
 20
35.0711
 42
0.1106147182
  0
VERTEX
  8
LAYER_1
 10
207.8743
 20
35.0139
 42
0.1068798402
  0
VERTEX
  8
LAYER_1
 10
207.6659
 20
34.8623
 42
0.09694774979
  0
VERTEX
  8
LAYER_1
 10
207.5353
 20
34.6418
 42
0.0846925851
  0
VERTEX
  8
LAYER_1
 10
207.4905
 20
34.3765
 42
0.08621583874
  0
VERTEX
  8
LAYER_1
 10
207.5353
 20
34.1113
 42
0.09801998234
  0
VERTEX
  8
LAYER_1
 10
207.6659
 20
33.8908
 42
0.1003461121
  0
VERTEX
  8
LAYER_1
 10
207.8743
 20
33.7406
 42
0.1086754191
  0
VERTEX
  8
LAYER_1
 10
208.1499
 20
33.6841
 42
0.1105598463
  0
VERTEX
  8
LAYER_1
 10
208.4259
 20
33.7406
 42
0.1018385555
  0
VERTEX
  8
LAYER_1
 10
208.6336
 20
33.8908
 42
0.09944245512
  0
VERTEX
  8
LAYER_1
 10
208.7642
 20
34.1113
 42
0.08672139302
  0
SEQEND
  0
ENDBLK
  0
BLOCK
  8
LAYER_1
  2
AIGNBL01030028
 70
64
 10
0
 20
0
 30
0
  3
AIGNBL01030028
  0
POLYLINE
  8
LAYER_1
 40
0.05
 41
0.05
 66
1
 10
0
 20
0
 30
0
 70
1
  0
VERTEX
  8
LAYER_1
 10
211.204
 20
34.3772
 42
-0.1006758747
  0
VERTEX
  8
LAYER_1
 10
211.1406
 20
34.0424
 42
-0.09989242595
  0
VERTEX
  8
LAYER_1
 10
210.967
 20
33.7778
 42
-0.09784806531
  0
VERTEX
  8
LAYER_1
 10
210.7034
 20
33.6035
 42
-0.09894327545
  0
VERTEX
  8
LAYER_1
 10
210.3734
 20
33.5401
 42
-0.09986466406
  0
VERTEX
  8
LAYER_1
 10
210.044
 20
33.6035
 42
-0.1000592518
  0
VERTEX
  8
LAYER_1
 10
209.7805
 20
33.7778
 42
-0.09790531107
  0
VERTEX
  8
LAYER_1
 10
209.6058
 20
34.0424
 42
-0.09812895876
  0
VERTEX
  8
LAYER_1
 10
209.5431
 20
34.3772
 42
-0.09917477792
  0
VERTEX
  8
LAYER_1
 10
209.6058
 20
34.7128
 42
-0.09863158885
  0
VERTEX
  8
LAYER_1
 10
209.7805
 20
34.9774
 42
-0.09923447691
  0
VERTEX
  8
LAYER_1
 10
210.044
 20
35.1517
 42
-0.09891612187
  0
VERTEX
  8
LAYER_1
 10
210.3734
 20
35.2151
 42
-0.09942799664
  0
VERTEX
  8
LAYER_1
 10
210.7034
 20
35.1517
 42
-0.09843860012
  0
VERTEX
  8
LAYER_1
 10
210.967
 20
34.9774
 42
-0.09925303174
  0
VERTEX
  8
LAYER_1
 10
211.1406
 20
34.7128
 42
-0.09965032528
  0
SEQEND
  0
POLYLINE
  8
LAYER_1
 40
0.05
 41
0.05
 66
1
 10
0
 20
0
 30
0
 70
1
  0
VERTEX
  8
LAYER_1
 10
211.0328
 20
34.3765
 42
0.08594279373
  0
VERTEX
  8
LAYER_1
 10
210.9883
 20
34.6418
 42
0.09669672023
  0
VERTEX
  8
LAYER_1
 10
210.8574
 20
34.8623
 42
0.104906235
  0
VERTEX
  8
LAYER_1
 10
210.6493
 20
35.0139
 42
0.1086365864
  0
VERTEX
  8
LAYER_1
 10
210.3734
 20
35.0711
 42
0.1103838916
  0
VERTEX
  8
LAYER_1
 10
210.0978
 20
35.0139
 42
0.1062645758
  0
VERTEX
  8
LAYER_1
 10
209.89
 20
34.8623
 42
0.1003307055
  0
VERTEX
  8
LAYER_1
 10
209.7595
 20
34.6418
 42
0.08566957267
  0
VERTEX
  8
LAYER_1
 10
209.7143
 20
34.3765
 42
0.08741228692
  0
VERTEX
  8
LAYER_1
 10
209.7595
 20
34.1113
 42
0.1011442312
  0
VERTEX
  8
LAYER_1
 10
209.89
 20
33.8908
 42
0.09999686415
  0
VERTEX
  8
LAYER_1
 10
210.0978
 20
33.7406
 42
0.1085463596
  0
VERTEX
  8
LAYER_1
 10
210.3734
 20
33.6841
 42
0.1107527855
  0
VERTEX
  8
LAYER_1
 10
210.6493
 20
33.7406
 42
0.1023036151
  0
VERTEX
  8
LAYER_1
 10
210.8574
 20
33.8908
 42
0.09479161826
  0
VERTEX
  8
LAYER_1
 10
210.9883
 20
34.1113
 42
0.08519180204
  0
SEQEND
  0
ENDBLK
  0
BLOCK
  8
LAYER_1
  2
AIGNBL01030029
 70
64
 10
0
 20
0
 30
0
  3
AIGNBL01030029
  0
POLYLINE
  8
LAYER_1
 40
0.05
 41
0.05
 66
1
 10
0
 20
0
 30
0
 70
1
  0
VERTEX
  8
LAYER_1
 10
212.6396
 20
33.855
  0
VERTEX
  8
LAYER_1
 10
212.6423
 20
33.855
  0
VERTEX
  8
LAYER_1
 10
213.1749
 20
35.1737
  0
VERTEX
  8
LAYER_1
 10
213.4233
 20
35.1737
  0
VERTEX
  8
LAYER_1
 10
213.4233
 20
33.5807
  0
VERTEX
  8
LAYER_1
 10
213.2607
 20
33.5807
  0
VERTEX
  8
LAYER_1
 10
213.2607
 20
34.965
  0
VERTEX
  8
LAYER_1
 10
213.2562
 20
34.965
  0
VERTEX
  8
LAYER_1
 10
212.6806
 20
33.5807
  0
VERTEX
  8
LAYER_1
 10
212.5948
 20
33.5807
  0
VERTEX
  8
LAYER_1
 10
212.0184
 20
34.965
  0
VERTEX
  8
LAYER_1
 10
212.0143
 20
34.965
  0
VERTEX
  8
LAYER_1
 10
212.0143
 20
33.5807
  0
VERTEX
  8
LAYER_1
 10
211.852
 20
33.5807
  0
VERTEX
  8
LAYER_1
 10
211.852
 20
35.1737
  0
VERTEX
  8
LAYER_1
 10
212.0997
 20
35.1737
  0
SEQEND
  0
ENDBLK
  0
BLOCK
  8
LAYER_1
  2
AIGNBL0103002A
 70
64
 10
0
 20
0
 30
0
  3
AIGNBL0103002A
  0
POLYLINE
  8
LAYER_1
 40
0.05
 41
0.05
 66
1
 10
0
 20
0
 30
0
 70
1
  0
VERTEX
  8
LAYER_1
 10
215.1913
 20
33.7254
  0
VERTEX
  8
LAYER_1
 10
216.0447
 20
33.7254
  0
VERTEX
  8
LAYER_1
 10
216.0447
 20
33.5807
  0
VERTEX
  8
LAYER_1
 10
215.0294
 20
33.5807
  0
VERTEX
  8
LAYER_1
 10
215.0294
 20
35.1737
  0
VERTEX
  8
LAYER_1
 10
216.0175
 20
35.1737
  0
VERTEX
  8
LAYER_1
 10
216.0175
 20
35.0297
  0
VERTEX
  8
LAYER_1
 10
215.1913
 20
35.0297
  0
VERTEX
  8
LAYER_1
 10
215.1913
 20
34.4833
  0
VERTEX
  8
LAYER_1
 10
215.9634
 20
34.4833
  0
VERTEX
  8
LAYER_1
 10
215.9634
 20
34.3393
  0
VERTEX
  8
LAYER_1
 10
215.1913
 20
34.3393
  0
SEQEND
  0
ENDBLK
  0
BLOCK
  8
LAYER_1
  2
AIGNBL0103002B
 70
64
 10
0
 20
0
 30
0
  3
AIGNBL0103002B
  0
POLYLINE
  8
LAYER_1
 40
0.05
 41
0.05
 66
1
 10
0
 20
0
 30
0
 70
1
  0
VERTEX
  8
LAYER_1
 10
217.194
 20
34.5309
  0
VERTEX
  8
LAYER_1
 10
217.6291
 20
35.1737
  0
VERTEX
  8
LAYER_1
 10
217.822
 20
35.1737
  0
VERTEX
  8
LAYER_1
 10
217.2939
 20
34.4158
  0
VERTEX
  8
LAYER_1
 10
217.8789
 20
33.5807
  0
VERTEX
  8
LAYER_1
 10
217.6763
 20
33.5807
  0
VERTEX
  8
LAYER_1
 10
217.1895
 20
34.2987
  0
VERTEX
  8
LAYER_1
 10
216.7062
 20
33.5807
  0
VERTEX
  8
LAYER_1
 10
216.5032
 20
33.5807
  0
VERTEX
  8
LAYER_1
 10
217.0886
 20
34.4179
  0
VERTEX
  8
LAYER_1
 10
216.5553
 20
35.1737
  0
VERTEX
  8
LAYER_1
 10
216.7582
 20
35.1737
  0
SEQEND
  0
ENDBLK
  0
BLOCK
  8
LAYER_1
  2
AIGNBL0103002C
 70
64
 10
0
 20
0
 30
0
  3
AIGNBL0103002C
  0
POLYLINE
  8
LAYER_1
 40
0.05
 41
0.05
 66
1
 10
0
 20
0
 30
0
 70
1
  0
VERTEX
  8
LAYER_1
 10
218.4435
 20
35.1737
  0
VERTEX
  8
LAYER_1
 10
218.8941
 20
35.1737
 42
-0.0691754704
  0
VERTEX
  8
LAYER_1
 10
219.1146
 20
35.1482
 42
-0.102941833
  0
VERTEX
  8
LAYER_1
 10
219.2841
 20
35.069
 42
-0.1236034878
  0
VERTEX
  8
LAYER_1
 10
219.3933
 20
34.9367
 42
-0.1076956505
  0
VERTEX
  8
LAYER_1
 10
219.4312
 20
34.7493
 42
-0.1206859882
  0
VERTEX
  8
LAYER_1
 10
219.3923
 20
34.5612
 42
-0.1196116731
  0
VERTEX
  8
LAYER_1
 10
219.2821
 20
34.4282
 42
-0.09034400426
  0
VERTEX
  8
LAYER_1
 10
219.1108
 20
34.3483
 42
-0.0624003382
  0
VERTEX
  8
LAYER_1
 10
218.8893
 20
34.3214
  0
VERTEX
  8
LAYER_1
 10
218.6054
 20
34.3214
  0
VERTEX
  8
LAYER_1
 10
218.6054
 20
33.5807
  0
VERTEX
  8
LAYER_1
 10
218.4435
 20
33.5807
  0
SEQEND
  0
POLYLINE
  8
LAYER_1
 40
0.05
 41
0.05
 66
1
 10
0
 20
0
 30
0
 70
1
  0
VERTEX
  8
LAYER_1
 10
218.6054
 20
34.4585
  0
VERTEX
  8
LAYER_1
 10
218.8797
 20
34.4585
 42
0.1607680339
  0
VERTEX
  8
LAYER_1
 10
219.1704
 20
34.5329
 42
0.2495820316
  0
VERTEX
  8
LAYER_1
 10
219.2696
 20
34.7493
 42
0.2534255779
  0
VERTEX
  8
LAYER_1
 10
219.1673
 20
34.9663
 42
0.1486796804
  0
VERTEX
  8
LAYER_1
 10
218.8797
 20
35.0346
  0
VERTEX
  8
LAYER_1
 10
218.6054
 20
35.0346
  0
SEQEND
  0
ENDBLK
  0
BLOCK
  8
LAYER_1
  2
AIGNBL0103002D
 70
64
 10
0
 20
0
 30
0
  3
AIGNBL0103002D
  0
POLYLINE
  8
LAYER_1
 40
0.05
 41
0.05
 66
1
 10
0
 20
0
 30
0
 70
1
  0
VERTEX
  8
LAYER_1
 10
220.2212
 20
33.7254
  0
VERTEX
  8
LAYER_1
 10
221.0745
 20
33.7254
  0
VERTEX
  8
LAYER_1
 10
221.0745
 20
33.5807
  0
VERTEX
  8
LAYER_1
 10
220.0593
 20
33.5807
  0
VERTEX
  8
LAYER_1
 10
220.0593
 20
35.1737
  0
VERTEX
  8
LAYER_1
 10
221.0473
 20
35.1737
  0
VERTEX
  8
LAYER_1
 10
221.0473
 20
35.0297
  0
VERTEX
  8
LAYER_1
 10
220.2212
 20
35.0297
  0
VERTEX
  8
LAYER_1
 10
220.2212
 20
34.4833
  0
VERTEX
  8
LAYER_1
 10
220.9932
 20
34.4833
  0
VERTEX
  8
LAYER_1
 10
220.9932
 20
34.3393
  0
VERTEX
  8
LAYER_1
 10
220.2212
 20
34.3393
  0
SEQEND
  0
ENDBLK
  0
BLOCK
  8
LAYER_1
  2
AIGNBL0103002E
 70
64
 10
0
 20
0
 30
0
  3
AIGNBL0103002E
  0
POLYLINE
  8
LAYER_1
 40
0.05
 41
0.05
 66
1
 10
0
 20
0
 30
0
 70
1
  0
VERTEX
  8
LAYER_1
 10
221.8641
 20
33.5807
  0
VERTEX
  8
LAYER_1
 10
221.7019
 20
33.5807
  0
VERTEX
  8
LAYER_1
 10
221.7019
 20
35.1737
  0
VERTEX
  8
LAYER_1
 10
222.1708
 20
35.1737
 42
-0.06051589446
  0
VERTEX
  8
LAYER_1
 10
222.3875
 20
35.1517
 42
-0.0996565073
  0
VERTEX
  8
LAYER_1
 10
222.5611
 20
35.0787
 42
-0.1266535871
  0
VERTEX
  8
LAYER_1
 10
222.6748
 20
34.9464
 42
-0.1110038898
  0
VERTEX
  8
LAYER_1
 10
222.7147
 20
34.7493
 42
-0.1038388446
  0
VERTEX
  8
LAYER_1
 10
222.6837
 20
34.5888
 42
-0.09892509868
  0
VERTEX
  8
LAYER_1
 10
222.5983
 20
34.464
 42
-0.09426423663
  0
VERTEX
  8
LAYER_1
 10
222.4698
 20
34.38
 42
-0.07690440524
  0
VERTEX
  8
LAYER_1
 10
222.3075
 20
34.3393
  0
VERTEX
  8
LAYER_1
 10
222.7737
 20
33.5807
  0
VERTEX
  8
LAYER_1
 10
222.5756
 20
33.5807
  0
VERTEX
  8
LAYER_1
 10
222.1346
 20
34.3256
  0
VERTEX
  8
LAYER_1
 10
221.8641
 20
34.3256
  0
SEQEND
  0
POLYLINE
  8
LAYER_1
 40
0.05
 41
0.05
 66
1
 10
0
 20
0
 30
0
 70
1
  0
VERTEX
  8
LAYER_1
 10
221.8641
 20
34.4654
  0
VERTEX
  8
LAYER_1
 10
222.1456
 20
34.4654
 42
0.1461993605
  0
VERTEX
  8
LAYER_1
 10
222.4474
 20
34.5357
 42
0.2612989562
  0
VERTEX
  8
LAYER_1
 10
222.5532
 20
34.7493
 42
0.1333740999
  0
VERTEX
  8
LAYER_1
 10
222.5239
 20
34.8816
 42
0.1165419042
  0
VERTEX
  8
LAYER_1
 10
222.4426
 20
34.9698
 42
0.09183286793
  0
VERTEX
  8
LAYER_1
 10
222.3168
 20
35.0187
  0
VERTEX
  8
LAYER_1
 10
222.1525
 20
35.0346
  0
VERTEX
  8
LAYER_1
 10
221.8641
 20
35.0346
  0
SEQEND
  0
ENDBLK
  0
BLOCK
  8
LAYER_1
  2
AIGNBL0103002F
 70
64
 10
0
 20
0
 30
0
  3
AIGNBL0103002F
  0
POLYLINE
  8
LAYER_1
 40
0.05
 41
0.05
 66
1
 10
0
 20
0
 30
0
 70
1
  0
VERTEX
  8
LAYER_1
 10
223.5226
 20
33.5807
  0
VERTEX
  8
LAYER_1
 10
223.3614
 20
33.5807
  0
VERTEX
  8
LAYER_1
 10
223.3614
 20
35.1737
  0
VERTEX
  8
LAYER_1
 10
223.5226
 20
35.1737
  0
SEQEND
  0
ENDBLK
  0
BLOCK
  8
LAYER_1
  2
AIGNBL01030030
 70
64
 10
0
 20
0
 30
0
  3
AIGNBL01030030
  0
POLYLINE
  8
LAYER_1
 40
0.05
 41
0.05
 66
1
 10
0
 20
0
 30
0
 70
1
  0
VERTEX
  8
LAYER_1
 10
224.4187
 20
33.7254
  0
VERTEX
  8
LAYER_1
 10
225.2713
 20
33.7254
  0
VERTEX
  8
LAYER_1
 10
225.2713
 20
33.5807
  0
VERTEX
  8
LAYER_1
 10
224.2564
 20
33.5807
  0
VERTEX
  8
LAYER_1
 10
224.2564
 20
35.1737
  0
VERTEX
  8
LAYER_1
 10
225.2448
 20
35.1737
  0
VERTEX
  8
LAYER_1
 10
225.2448
 20
35.0297
  0
VERTEX
  8
LAYER_1
 10
224.4187
 20
35.0297
  0
VERTEX
  8
LAYER_1
 10
224.4187
 20
34.4833
  0
VERTEX
  8
LAYER_1
 10
225.1904
 20
34.4833
  0
VERTEX
  8
LAYER_1
 10
225.1904
 20
34.3393
  0
VERTEX
  8
LAYER_1
 10
224.4187
 20
34.3393
  0
SEQEND
  0
ENDBLK
  0
BLOCK
  8
LAYER_1
  2
AIGNBL01030031
 70
64
 10
0
 20
0
 30
0
  3
AIGNBL01030031
  0
POLYLINE
  8
LAYER_1
 40
0.05
 41
0.05
 66
1
 10
0
 20
0
 30
0
 70
1
  0
VERTEX
  8
LAYER_1
 10
227.0294
 20
33.8171
  0
VERTEX
  8
LAYER_1
 10
227.0335
 20
33.8171
  0
VERTEX
  8
LAYER_1
 10
227.0335
 20
35.1737
  0
VERTEX
  8
LAYER_1
 10
227.1958
 20
35.1737
  0
VERTEX
  8
LAYER_1
 10
227.1958
 20
33.5807
  0
VERTEX
  8
LAYER_1
 10
226.9932
 20
33.5807
  0
VERTEX
  8
LAYER_1
 10
226.0661
 20
34.9512
  0
VERTEX
  8
LAYER_1
 10
226.0613
 20
34.9512
  0
VERTEX
  8
LAYER_1
 10
226.0613
 20
33.5807
  0
VERTEX
  8
LAYER_1
 10
225.8994
 20
33.5807
  0
VERTEX
  8
LAYER_1
 10
225.8994
 20
35.1737
  0
VERTEX
  8
LAYER_1
 10
226.1023
 20
35.1737
  0
SEQEND
  0
ENDBLK
  0
BLOCK
  8
LAYER_1
  2
AIGNBL01030032
 70
64
 10
0
 20
0
 30
0
  3
AIGNBL01030032
  0
POLYLINE
  8
LAYER_1
 40
0.05
 41
0.05
 66
1
 10
0
 20
0
 30
0
 70
1
  0
VERTEX
  8
LAYER_1
 10
229.2711
 20
33.8391
  0
VERTEX
  8
LAYER_1
 10
229.1726
 20
33.7247
 42
-0.0594515839
  0
VERTEX
  8
LAYER_1
 10
229.0399
 20
33.6296
 42
-0.0608425684
  0
VERTEX
  8
LAYER_1
 10
228.8729
 20
33.5642
 42
-0.06071577326
  0
VERTEX
  8
LAYER_1
 10
228.6744
 20
33.5401
 42
-0.09925590931
  0
VERTEX
  8
LAYER_1
 10
228.3413
 20
33.6035
 42
-0.1019674319
  0
VERTEX
  8
LAYER_1
 10
228.0781
 20
33.7778
 42
-0.1013472051
  0
VERTEX
  8
LAYER_1
 10
227.9062
 20
34.0424
 42
-0.09836348789
  0
VERTEX
  8
LAYER_1
 10
227.8438
 20
34.3779
 42
-0.1006378372
  0
VERTEX
  8
LAYER_1
 10
227.9072
 20
34.7128
 42
-0.09877054803
  0
VERTEX
  8
LAYER_1
 10
228.0808
 20
34.9774
 42
-0.09784806531
  0
VERTEX
  8
LAYER_1
 10
228.3444
 20
35.1517
 42
-0.09868805195
  0
VERTEX
  8
LAYER_1
 10
228.6744
 20
35.2151
  0
VERTEX
  8
LAYER_1
 10
228.8463
 20
35.1965
  0
VERTEX
  8
LAYER_1
 10
229.0051
 20
35.1448
  0
VERTEX
  8
LAYER_1
 10
229.1402
 20
35.0649
 42
-0.08202930821
  0
VERTEX
  8
LAYER_1
 10
229.2418
 20
34.9601
  0
VERTEX
  8
LAYER_1
 10
229.1068
 20
34.8609
  0
VERTEX
  8
LAYER_1
 10
229.0399
 20
34.9381
  0
VERTEX
  8
LAYER_1
 10
228.9421
 20
35.0056
  0
VERTEX
  8
LAYER_1
 10
228.8195
 20
35.0532
  0
VERTEX
  8
LAYER_1
 10
228.6765
 20
35.0711
 42
0.1086830867
  0
VERTEX
  8
LAYER_1
 10
228.3985
 20
35.0146
 42
0.1033898285
  0
VERTEX
  8
LAYER_1
 10
228.1904
 20
34.863
 42
0.09584999149
  0
VERTEX
  8
LAYER_1
 10
228.0595
 20
34.6425
 42
0.08491467955
  0
VERTEX
  8
LAYER_1
 10
228.015
 20
34.3779
 42
0.09038942465
  0
VERTEX
  8
LAYER_1
 10
228.0612
 20
34.1133
 42
0.09818289041
  0
VERTEX
  8
LAYER_1
 10
228.1928
 20
33.8922
 42
0.1053069792
  0
VERTEX
  8
LAYER_1
 10
228.4012
 20
33.7406
 42
0.1089780197
  0
VERTEX
  8
LAYER_1
 10
228.6765
 20
33.6841
 42
0.1095371994
  0
VERTEX
  8
LAYER_1
 10
228.9373
 20
33.7406
 42
0.1384175185
  0
VERTEX
  8
LAYER_1
 10
229.1443
 20
33.9204
  0
SEQEND
  0
ENDBLK
  0
BLOCK
  8
LAYER_1
  2
AIGNBL01030033
 70
64
 10
0
 20
0
 30
0
  3
AIGNBL01030033
  0
POLYLINE
  8
LAYER_1
 40
0.05
 41
0.05
 66
1
 10
0
 20
0
 30
0
 70
1
  0
VERTEX
  8
LAYER_1
 10
230.0221
 20
33.7254
  0
VERTEX
  8
LAYER_1
 10
230.8755
 20
33.7254
  0
VERTEX
  8
LAYER_1
 10
230.8755
 20
33.5807
  0
VERTEX
  8
LAYER_1
 10
229.8602
 20
33.5807
  0
VERTEX
  8
LAYER_1
 10
229.8602
 20
35.1737
  0
VERTEX
  8
LAYER_1
 10
230.8483
 20
35.1737
  0
VERTEX
  8
LAYER_1
 10
230.8483
 20
35.0297
  0
VERTEX
  8
LAYER_1
 10
230.0221
 20
35.0297
  0
VERTEX
  8
LAYER_1
 10
230.0221
 20
34.4833
  0
VERTEX
  8
LAYER_1
 10
230.7942
 20
34.4833
  0
VERTEX
  8
LAYER_1
 10
230.7942
 20
34.3393
  0
VERTEX
  8
LAYER_1
 10
230.0221
 20
34.3393
  0
SEQEND
  0
ENDBLK
  0
BLOCK
  8
LAYER_1
  2
AIGNBL01020003
 70
64
 10
0
 20
0
 30
0
  3
AIGNBL01020003
  0
POLYLINE
  8
LAYER_1
 40
0.05
 41
0.05
 66
1
 10
0
 20
0
 30
0
 70
1
  0
VERTEX
  8
LAYER_1
 10
281.4447
 20
399.202
  0
VERTEX
  8
LAYER_1
 10
280.7336
 20
399.202
  0
VERTEX
  8
LAYER_1
 10
278.4588
 20
396.9561
  0
VERTEX
  8
LAYER_1
 10
278.4588
 20
399.202
  0
VERTEX
  8
LAYER_1
 10
277.8683
 20
399.202
  0
VERTEX
  8
LAYER_1
 10
277.8683
 20
394.8307
  0
VERTEX
  8
LAYER_1
 10
278.4588
 20
394.8307
  0
VERTEX
  8
LAYER_1
 10
278.4588
 20
396.2647
  0
VERTEX
  8
LAYER_1
 10
279.1702
 20
396.9675
  0
VERTEX
  8
LAYER_1
 10
280.8669
 20
394.8307
  0
VERTEX
  8
LAYER_1
 10
281.578
 20
394.8307
  0
VERTEX
  8
LAYER_1
 10
279.5771
 20
397.3675
  0
SEQEND
  0
POLYLINE
  8
LAYER_1
 40
0.05
 41
0.05
 66
1
 10
0
 20
0
 30
0
  0
VERTEX
  8
LAYER_1
 10
286.9461
 20
397.2533
  0
VERTEX
  8
LAYER_1
 10
286.2602
 20
397.3618
 42
-0.06913007455
  0
VERTEX
  8
LAYER_1
 10
285.8361
 20
397.4842
 42
-0.1734388811
  0
VERTEX
  8
LAYER_1
 10
285.5032
 20
397.7972
 42
-0.1087484145
  0
VERTEX
  8
LAYER_1
 10
285.4472
 20
398.0875
 42
-0.2779971125
  0
VERTEX
  8
LAYER_1
 10
285.8222
 20
398.6976
 42
-0.1278420901
  0
VERTEX
  8
LAYER_1
 10
286.4175
 20
398.8412
 42
-0.006492643815
  0
VERTEX
  8
LAYER_1
 10
286.4635
 20
398.8418
 42
-0.1388619967
  0
VERTEX
  8
LAYER_1
 10
287.0944
 20
398.6808
 42
-0.1580474478
  0
VERTEX
  8
LAYER_1
 10
287.4068
 20
398.2923
 42
-0.06125421761
  0
VERTEX
  8
LAYER_1
 10
287.4736
 20
398.0303
  0
VERTEX
  8
LAYER_1
 10
288.0772
 20
398.0303
 42
0.1331872531
  0
VERTEX
  8
LAYER_1
 10
287.8666
 20
398.6848
 42
0.1320588866
  0
VERTEX
  8
LAYER_1
 10
287.4036
 20
399.0778
 42
0.1048501502
  0
VERTEX
  8
LAYER_1
 10
286.6572
 20
399.259
 42
0.01703281728
  0
VERTEX
  8
LAYER_1
 10
286.47
 20
399.2647
 42
0.1021277535
  0
VERTEX
  8
LAYER_1
 10
285.5606
 20
399.0879
 42
0.1198283036
  0
VERTEX
  8
LAYER_1
 10
285.0422
 20
398.6906
 42
0.1653837996
  0
VERTEX
  8
LAYER_1
 10
284.8246
 20
398.0417
 42
0.1470911156
  0
VERTEX
  8
LAYER_1
 10
284.9954
 20
397.4354
 42
0.1360793618
  0
VERTEX
  8
LAYER_1
 10
285.4501
 20
397.0547
 42
0.07792477994
  0
VERTEX
  8
LAYER_1
 10
286.1141
 20
396.8535
  0
VERTEX
  8
LAYER_1
 10
286.7939
 20
396.7448
 42
-0.06878601885
  0
VERTEX
  8
LAYER_1
 10
287.2039
 20
396.6325
 42
-0.169483501
  0
VERTEX
  8
LAYER_1
 10
287.5553
 20
396.3174
 42
-0.1164325627
  0
VERTEX
  8
LAYER_1
 10
287.6193
 20
396.0132
 42
-0.1724125422
  0
VERTEX
  8
LAYER_1
 10
287.4518
 20
395.503
 42
-0.1584721802
  0
VERTEX
  8
LAYER_1
 10
287.0141
 20
395.2393
 42
-0.07245656248
  0
VERTEX
  8
LAYER_1
 10
286.47
 20
395.1731
 42
-0.1216647888
  0
VERTEX
  8
LAYER_1
 10
285.7498
 20
395.3361
 42
-0.2350944637
  0
VERTEX
  8
LAYER_1
 10
285.2563
 20
396.059
  0
VERTEX
  8
LAYER_1
 10
284.6403
 20
396.059
 42
0.1333559319
  0
VERTEX
  8
LAYER_1
 10
284.8578
 20
395.4123
 42
0.1212214038
  0
VERTEX
  8
LAYER_1
 10
285.3332
 20
394.9923
 42
0.09874754593
  0
VERTEX
  8
LAYER_1
 10
286.0821
 20
394.7665
 42
0.02987283731
  0
VERTEX
  8
LAYER_1
 10
286.4573
 20
394.7446
 42
0.09226156506
  0
VERTEX
  8
LAYER_1
 10
287.4377
 20
394.9101
 42
0.1223159491
  0
VERTEX
  8
LAYER_1
 10
287.9708
 20
395.2915
 42
0.1355315453
  0
VERTEX
  8
LAYER_1
 10
288.2073
 20
395.8417
 42
0.03705162074
  0
VERTEX
  8
LAYER_1
 10
288.2232
 20
396.059
 42
0.1440889385
  0
VERTEX
  8
LAYER_1
 10
288.0549
 20
396.6914
 42
0.136499685
  0
VERTEX
  8
LAYER_1
 10
287.6338
 20
397.0479
 42
0.08070480146
  0
VERTEX
  8
LAYER_1
 10
286.9461
 20
397.2533
  0
SEQEND
  0
POLYLINE
  8
LAYER_1
 40
0.05
 41
0.05
 66
1
 10
0
 20
0
 30
0
 70
1
  0
VERTEX
  8
LAYER_1
 10
268.4977
 20
397.122
  0
VERTEX
  8
LAYER_1
 10
268.4977
 20
398.7677
  0
VERTEX
  8
LAYER_1
 10
269.6411
 20
398.7677
 42
-0.1360765863
  0
VERTEX
  8
LAYER_1
 10
270.2862
 20
398.6047
 42
-0.2642099653
  0
VERTEX
  8
LAYER_1
 10
270.6129
 20
397.9676
 42
-0.1653001469
  0
VERTEX
  8
LAYER_1
 10
270.4481
 20
397.4363
 42
-0.1616872832
  0
VERTEX
  8
LAYER_1
 10
270.0351
 20
397.176
 42
-0.07199661025
  0
VERTEX
  8
LAYER_1
 10
269.6156
 20
397.122
  0
SEQEND
  0
POLYLINE
  8
LAYER_1
 40
0.05
 41
0.05
 66
1
 10
0
 20
0
 30
0
 70
1
  0
VERTEX
  8
LAYER_1
 10
270.194
 20
396.7675
 42
0.1221867852
  0
VERTEX
  8
LAYER_1
 10
270.8819
 20
397.1005
 42
0.2053827054
  0
VERTEX
  8
LAYER_1
 10
271.2335
 20
397.8794
 42
0.0156744566
  0
VERTEX
  8
LAYER_1
 10
271.2362
 20
397.9733
 42
0.13949242
  0
VERTEX
  8
LAYER_1
 10
271.0669
 20
398.6063
 42
0.1368697471
  0
VERTEX
  8
LAYER_1
 10
270.6251
 20
398.9983
 42
0.003703867914
  0
VERTEX
  8
LAYER_1
 10
270.6071
 20
399.0075
 42
0.1052672577
  0
VERTEX
  8
LAYER_1
 10
269.7493
 20
399.2008
 42
0.007901396217
  0
VERTEX
  8
LAYER_1
 10
269.6666
 20
399.202
  0
VERTEX
  8
LAYER_1
 10
267.9068
 20
399.202
  0
VERTEX
  8
LAYER_1
 10
267.9068
 20
394.8307
  0
VERTEX
  8
LAYER_1
 10
268.4977
 20
394.8307
  0
VERTEX
  8
LAYER_1
 10
268.4977
 20
396.6821
  0
VERTEX
  8
LAYER_1
 10
269.5777
 20
396.6821
  0
VERTEX
  8
LAYER_1
 10
270.5812
 20
394.8307
  0
VERTEX
  8
LAYER_1
 10
271.2675
 20
394.8307
  0
VERTEX
  8
LAYER_1
 10
270.194
 20
396.7561
  0
SEQEND
  0
POLYLINE
  8
LAYER_1
 40
0.05
 41
0.05
 66
1
 10
0
 20
0
 30
0
 70
1
  0
VERTEX
  8
LAYER_1
 10
282.6515
 20
394.8307
  0
VERTEX
  8
LAYER_1
 10
283.2427
 20
394.8307
  0
VERTEX
  8
LAYER_1
 10
283.2427
 20
399.202
  0
VERTEX
  8
LAYER_1
 10
282.6515
 20
399.202
  0
SEQEND
  0
POLYLINE
  8
LAYER_1
 40
0.05
 41
0.05
 66
1
 10
0
 20
0
 30
0
  0
VERTEX
  8
LAYER_1
 10
274.4628
 20
395.1676
 42
-0.1201036245
  0
VERTEX
  8
LAYER_1
 10
273.709
 20
395.3422
 42
-0.1833995402
  0
VERTEX
  8
LAYER_1
 10
273.0692
 20
396.0826
 42
-0.09346695174
  0
VERTEX
  8
LAYER_1
 10
272.9139
 20
396.9133
 42
-0.006607646183
  0
VERTEX
  8
LAYER_1
 10
272.9129
 20
396.9964
 42
-0.09451233088
  0
VERTEX
  8
LAYER_1
 10
273.081
 20
397.9512
 42
-0.1136920143
  0
VERTEX
  8
LAYER_1
 10
273.4694
 20
398.5022
 42
-0.1233838019
  0
VERTEX
  8
LAYER_1
 10
274.058
 20
398.797
 42
-0.0578588559
  0
VERTEX
  8
LAYER_1
 10
274.4628
 20
398.8418
 42
-0.1204247159
  0
VERTEX
  8
LAYER_1
 10
275.2239
 20
398.6646
 42
-0.1821183244
  0
VERTEX
  8
LAYER_1
 10
275.8732
 20
397.916
 42
-0.09404686693
  0
VERTEX
  8
LAYER_1
 10
276.0314
 20
397.0798
 42
-0.006701039944
  0
VERTEX
  8
LAYER_1
 10
276.0324
 20
396.9964
 42
-0.09787375833
  0
VERTEX
  8
LAYER_1
 10
275.8612
 20
396.0703
 42
-0.1143705115
  0
VERTEX
  8
LAYER_1
 10
275.4521
 20
395.506
 42
-0.1174818689
  0
VERTEX
  8
LAYER_1
 10
274.871
 20
395.2148
 42
-0.05993966148
  0
VERTEX
  8
LAYER_1
 10
274.4628
 20
395.1676
  0
SEQEND
  0
POLYLINE
  8
LAYER_1
 40
0.05
 41
0.05
 66
1
 10
0
 20
0
 30
0
  0
VERTEX
  8
LAYER_1
 10
274.4628
 20
399.2647
 42
0.09380817421
  0
VERTEX
  8
LAYER_1
 10
273.54
 20
399.0955
 42
0.1009713649
  0
VERTEX
  8
LAYER_1
 10
272.888
 20
398.6671
 42
0.09914018748
  0
VERTEX
  8
LAYER_1
 10
272.478
 20
398.0427
 42
0.08801165144
  0
VERTEX
  8
LAYER_1
 10
272.295
 20
397.1816
 42
0.01380030723
  0
VERTEX
  8
LAYER_1
 10
272.2904
 20
397.0021
 42
0.08978712934
  0
VERTEX
  8
LAYER_1
 10
272.4619
 20
395.9903
 42
0.09632916679
  0
VERTEX
  8
LAYER_1
 10
272.8568
 20
395.3573
 42
0.1028034786
  0
VERTEX
  8
LAYER_1
 10
273.4764
 20
394.9289
 42
0.09013977037
  0
VERTEX
  8
LAYER_1
 10
274.2964
 20
394.7436
 42
0.01466939489
  0
VERTEX
  8
LAYER_1
 10
274.4628
 20
394.739
 42
0.09305512057
  0
VERTEX
  8
LAYER_1
 10
275.4034
 20
394.9093
 42
0.1015182123
  0
VERTEX
  8
LAYER_1
 10
276.0596
 20
395.3389
 42
0.09957407106
  0
VERTEX
  8
LAYER_1
 10
276.4688
 20
395.9637
 42
0.08770168348
  0
VERTEX
  8
LAYER_1
 10
276.6504
 20
396.8232
 42
0.01369252336
  0
VERTEX
  8
LAYER_1
 10
276.6549
 20
397.0021
 42
0.09193683062
  0
VERTEX
  8
LAYER_1
 10
276.4786
 20
398.0161
 42
0.09687042249
  0
VERTEX
  8
LAYER_1
 10
276.0753
 20
398.6488
 42
0.1014738264
  0
VERTEX
  8
LAYER_1
 10
275.448
 20
399.0759
 42
0.0914088598
  0
VERTEX
  8
LAYER_1
 10
274.6004
 20
399.2615
 42
0.01213375877
  0
VERTEX
  8
LAYER_1
 10
274.4628
 20
399.2647
  0
SEQEND
  0
POLYLINE
  8
LAYER_1
 40
0.05
 41
0.05
 66
1
 10
0
 20
0
 30
0
  0
VERTEX
  8
LAYER_1
 10
264.87
 20
395.2589
  0
VERTEX
  8
LAYER_1
 10
263.6883
 20
395.2589
  0
VERTEX
  8
LAYER_1
 10
263.6883
 20
396.9219
  0
VERTEX
  8
LAYER_1
 10
264.8193
 20
396.9219
 42
-0.05275806413
  0
VERTEX
  8
LAYER_1
 10
265.3631
 20
396.8743
 42
-0.1430657129
  0
VERTEX
  8
LAYER_1
 10
265.8747
 20
396.6211
 42
-0.1770511011
  0
VERTEX
  8
LAYER_1
 10
266.0421
 20
396.2122
 42
-0.02176307697
  0
VERTEX
  8
LAYER_1
 10
266.0451
 20
396.1334
 42
-0.1635613937
  0
VERTEX
  8
LAYER_1
 10
265.8826
 20
395.5937
 42
-0.1608951105
  0
VERTEX
  8
LAYER_1
 10
265.4704
 20
395.3331
 42
-0.07830107821
  0
VERTEX
  8
LAYER_1
 10
264.87
 20
395.2589
  0
SEQEND
  0
POLYLINE
  8
LAYER_1
 40
0.05
 41
0.05
 66
1
 10
0
 20
0
 30
0
 70
1
  0
VERTEX
  8
LAYER_1
 10
263.6883
 20
398.7732
  0
VERTEX
  8
LAYER_1
 10
264.9785
 20
398.7732
 42
-0.1381658882
  0
VERTEX
  8
LAYER_1
 10
265.6305
 20
398.6135
 42
-0.2604385785
  0
VERTEX
  8
LAYER_1
 10
265.8928
 20
398.0875
 42
-0.1867763055
  0
VERTEX
  8
LAYER_1
 10
265.7286
 20
397.6258
 42
-0.1639635045
  0
VERTEX
  8
LAYER_1
 10
265.2849
 20
397.3987
 42
-0.05311995908
  0
VERTEX
  8
LAYER_1
 10
264.902
 20
397.3618
  0
VERTEX
  8
LAYER_1
 10
263.6883
 20
397.3618
  0
SEQEND
  0
POLYLINE
  8
LAYER_1
 40
0.05
 41
0.05
 66
1
 10
0
 20
0
 30
0
  0
VERTEX
  8
LAYER_1
 10
265.6196
 20
397.1506
  0
VERTEX
  8
LAYER_1
 10
265.6196
 20
397.1618
 42
0.1370906713
  0
VERTEX
  8
LAYER_1
 10
266.2447
 20
397.464
 42
0.211814873
  0
VERTEX
  8
LAYER_1
 10
266.5095
 20
398.139
 42
0.1581789908
  0
VERTEX
  8
LAYER_1
 10
266.3379
 20
398.6906
 42
0.1384100717
  0
VERTEX
  8
LAYER_1
 10
265.8798
 20
399.0414
 42
0.1013642858
  0
VERTEX
  8
LAYER_1
 10
265.0873
 20
399.201
 42
0.006975573638
  0
VERTEX
  8
LAYER_1
 10
265.0098
 20
399.202
  0
VERTEX
  8
LAYER_1
 10
263.0975
 20
399.202
  0
VERTEX
  8
LAYER_1
 10
263.0975
 20
394.8307
  0
VERTEX
  8
LAYER_1
 10
264.8638
 20
394.8307
 42
0.08698062885
  0
VERTEX
  8
LAYER_1
 10
265.9157
 20
394.9927
 42
0.127478928
  0
VERTEX
  8
LAYER_1
 10
266.4309
 20
395.3556
 42
0.1417718506
  0
VERTEX
  8
LAYER_1
 10
266.6495
 20
395.9017
 42
0.03046965801
  0
VERTEX
  8
LAYER_1
 10
266.6614
 20
396.0988
 42
0.2294859749
  0
VERTEX
  8
LAYER_1
 10
266.2775
 20
396.8706
 42
0.1215377782
  0
VERTEX
  8
LAYER_1
 10
265.7042
 20
397.1355
 42
0.01431458495
  0
VERTEX
  8
LAYER_1
 10
265.6196
 20
397.1506
  0
SEQEND
  0
POLYLINE
  8
LAYER_1
 40
0.05
 41
0.05
 66
1
 10
0
 20
0
 30
0
  0
VERTEX
  8
LAYER_1
 10
255.3804
 20
385.2545
 42
-0.05827443014
  0
VERTEX
  8
LAYER_1
 10
254.1479
 20
384.4566
 42
-0.04511033051
  0
VERTEX
  8
LAYER_1
 10
252.4536
 20
383.791
 42
-0.03375494188
  0
VERTEX
  8
LAYER_1
 10
250.0651
 20
383.2464
 42
-0.01171791942
  0
VERTEX
  8
LAYER_1
 10
248.4852
 20
383.0206
 42
-0.008881956716
  0
VERTEX
  8
LAYER_1
 10
245.7221
 20
382.746
  0
VERTEX
  8
LAYER_1
 10
245.0589
 20
382.6871
 42
-0.02249235624
  0
VERTEX
  8
LAYER_1
 10
243.5011
 20
382.6168
 42
-0.03690341499
  0
VERTEX
  8
LAYER_1
 10
240.9484
 20
382.8048
 42
-0.03162874393
  0
VERTEX
  8
LAYER_1
 10
238.8643
 20
383.251
 42
-0.03174840645
  0
VERTEX
  8
LAYER_1
 10
236.8991
 20
383.9417
 42
-0.03205987389
  0
VERTEX
  8
LAYER_1
 10
235.075
 20
384.8589
 42
-0.03263071339
  0
VERTEX
  8
LAYER_1
 10
233.4137
 20
385.9847
 42
-0.03349006318
  0
VERTEX
  8
LAYER_1
 10
231.9374
 20
387.3011
 42
-0.03461650268
  0
VERTEX
  8
LAYER_1
 10
230.6679
 20
388.7905
 42
-0.03592435912
  0
VERTEX
  8
LAYER_1
 10
229.6272
 20
390.4347
 42
-0.0372535027
  0
VERTEX
  8
LAYER_1
 10
228.8372
 20
392.2161
 42
-0.05786282603
  0
VERTEX
  8
LAYER_1
 10
228.1704
 20
395.1059
 42
-0.02752751718
  0
VERTEX
  8
LAYER_1
 10
228.1263
 20
395.9021
 42
-0.05697968256
  0
VERTEX
  8
LAYER_1
 10
228.3139
 20
397.5309
 42
-0.04620439223
  0
VERTEX
  8
LAYER_1
 10
228.7934
 20
398.9776
 42
-0.04246009244
  0
VERTEX
  8
LAYER_1
 10
229.6503
 20
400.5657
 42
-0.03656192005
  0
VERTEX
  8
LAYER_1
 10
231.0249
 20
402.3772
 42
-0.0137605088
  0
VERTEX
  8
LAYER_1
 10
231.9381
 20
403.3714
 42
-0.01455498674
  0
VERTEX
  8
LAYER_1
 10
233.9454
 20
405.3134
  0
VERTEX
  8
LAYER_1
 10
235.0031
 20
406.3294
 42
-0.01776002607
  0
VERTEX
  8
LAYER_1
 10
236.6495
 20
407.8699
 42
-0.03948681369
  0
VERTEX
  8
LAYER_1
 10
238.2811
 20
409.079
 42
-0.0470648882
  0
VERTEX
  8
LAYER_1
 10
239.7518
 20
409.7982
 42
-0.04933993414
  0
VERTEX
  8
LAYER_1
 10
241.3242
 20
410.2137
 42
-0.01788807199
  0
VERTEX
  8
LAYER_1
 10
241.9794
 20
410.2964
 42
-0.02276715341
  0
VERTEX
  8
LAYER_1
 10
243.5366
 20
410.3667
 42
-0.03690759004
  0
VERTEX
  8
LAYER_1
 10
246.0891
 20
410.1787
 42
-0.03163073628
  0
VERTEX
  8
LAYER_1
 10
248.1732
 20
409.7324
 42
-0.03174900391
  0
VERTEX
  8
LAYER_1
 10
250.1383
 20
409.0417
 42
-0.03205930382
  0
VERTEX
  8
LAYER_1
 10
251.9625
 20
408.1245
 42
-0.03262928322
  0
VERTEX
  8
LAYER_1
 10
253.6237
 20
406.9987
 42
-0.03348814572
  0
VERTEX
  8
LAYER_1
 10
255.1001
 20
405.6821
 42
-0.03461452889
  0
VERTEX
  8
LAYER_1
 10
256.3696
 20
404.1927
 42
-0.03592280444
  0
VERTEX
  8
LAYER_1
 10
257.4104
 20
402.5484
 42
-0.03725284676
  0
VERTEX
  8
LAYER_1
 10
258.2004
 20
400.7671
 42
-0.05786411175
  0
VERTEX
  8
LAYER_1
 10
258.8672
 20
397.8772
 42
-0.02775302652
  0
VERTEX
  8
LAYER_1
 10
259.0164
 20
395.1976
 42
-0.03274993766
  0
VERTEX
  8
LAYER_1
 10
258.8392
 20
392.4209
 42
-0.03404497385
  0
VERTEX
  8
LAYER_1
 10
258.3978
 20
390.2396
 42
-0.04007547318
  0
VERTEX
  8
LAYER_1
 10
257.7085
 20
388.3565
 42
-0.04417216634
  0
VERTEX
  8
LAYER_1
 10
256.8318
 20
386.8365
 42
-0.04721463467
  0
VERTEX
  8
LAYER_1
 10
255.7875
 20
385.6196
 42
-0.01700971296
  0
VERTEX
  8
LAYER_1
 10
255.3804
 20
385.2545
  0
SEQEND
  0
POLYLINE
  8
LAYER_1
 40
0.05
 41
0.05
 66
1
 10
0
 20
0
 30
0
  0
VERTEX
  8
LAYER_1
 10
259.2455
 20
397.9111
 42
0.06045643612
  0
VERTEX
  8
LAYER_1
 10
258.5237
 20
400.9642
 42
0.03722199802
  0
VERTEX
  8
LAYER_1
 10
257.7003
 20
402.7738
 42
0.03634309149
  0
VERTEX
  8
LAYER_1
 10
256.6084
 20
404.4632
 42
0.03543677134
  0
VERTEX
  8
LAYER_1
 10
255.2613
 20
406.0088
 42
0.02593575174
  0
VERTEX
  8
LAYER_1
 10
254.0916
 20
407.0594
 42
0.03741535603
  0
VERTEX
  8
LAYER_1
 10
252.1441
 20
408.4051
 42
0.03497465995
  0
VERTEX
  8
LAYER_1
 10
250.0937
 20
409.4216
 42
0.03420811546
  0
VERTEX
  8
LAYER_1
 10
247.9069
 20
410.152
 42
0.03380635492
  0
VERTEX
  8
LAYER_1
 10
245.6182
 20
410.5843
 42
0.02985151976
  0
VERTEX
  8
LAYER_1
 10
243.5366
 20
410.7084
 42
0.02227717322
  0
VERTEX
  8
LAYER_1
 10
241.9411
 20
410.6364
 42
0.04964862375
  0
VERTEX
  8
LAYER_1
 10
240.1381
 20
410.2951
 42
0.04680569772
  0
VERTEX
  8
LAYER_1
 10
238.6567
 20
409.697
 42
0.04565220968
  0
VERTEX
  8
LAYER_1
 10
237.103
 20
408.7023
 42
0.01709579716
  0
VERTEX
  8
LAYER_1
 10
236.2716
 20
408.018
 42
0.01469603663
  0
VERTEX
  8
LAYER_1
 10
234.7271
 20
406.5643
  0
VERTEX
  8
LAYER_1
 10
233.6715
 20
405.5498
 42
0.01406740362
  0
VERTEX
  8
LAYER_1
 10
231.6911
 20
403.6365
 42
0.02972210799
  0
VERTEX
  8
LAYER_1
 10
229.9381
 20
401.6189
 42
0.03716251792
  0
VERTEX
  8
LAYER_1
 10
228.8278
 20
399.9061
 42
0.04424038633
  0
VERTEX
  8
LAYER_1
 10
228.1344
 20
398.2988
 42
0.04915627538
  0
VERTEX
  8
LAYER_1
 10
227.7963
 20
396.7593
 42
0.02875165725
  0
VERTEX
  8
LAYER_1
 10
227.747
 20
395.9052
 42
0.02747074167
  0
VERTEX
  8
LAYER_1
 10
227.7935
 20
395.072
 42
0.06042905997
  0
VERTEX
  8
LAYER_1
 10
228.5151
 20
392.0182
 42
0.03722706254
  0
VERTEX
  8
LAYER_1
 10
229.3383
 20
390.2086
 42
0.03636218909
  0
VERTEX
  8
LAYER_1
 10
230.4299
 20
388.5194
 42
0.03546648319
  0
VERTEX
  8
LAYER_1
 10
231.7766
 20
386.9744
 42
0.02596272846
  0
VERTEX
  8
LAYER_1
 10
232.946
 20
385.9244
 42
0.03741517953
  0
VERTEX
  8
LAYER_1
 10
234.8935
 20
384.5786
 42
0.03497862242
  0
VERTEX
  8
LAYER_1
 10
236.9438
 20
383.5619
 42
0.03421380376
  0
VERTEX
  8
LAYER_1
 10
239.1306
 20
382.8314
 42
0.03381123406
  0
VERTEX
  8
LAYER_1
 10
241.4194
 20
382.3992
 42
0.02985309434
  0
VERTEX
  8
LAYER_1
 10
243.5011
 20
382.275
 42
0.02243337254
  0
VERTEX
  8
LAYER_1
 10
245.0972
 20
382.347
  0
VERTEX
  8
LAYER_1
 10
245.7573
 20
382.4059
 42
0.01209709131
  0
VERTEX
  8
LAYER_1
 10
248.9111
 20
382.7291
 42
0.02667465712
  0
VERTEX
  8
LAYER_1
 10
251.7524
 20
383.2418
 42
0.03717421193
  0
VERTEX
  8
LAYER_1
 10
253.7402
 20
383.8847
 42
0.04664398126
  0
VERTEX
  8
LAYER_1
 10
255.1255
 20
384.6195
 42
0.02643428168
  0
VERTEX
  8
LAYER_1
 10
255.6395
 20
385.0041
 42
0.05228234641
  0
VERTEX
  8
LAYER_1
 10
256.886
 20
386.2922
 42
0.04478755371
  0
VERTEX
  8
LAYER_1
 10
257.8141
 20
387.7223
 42
0.04104964052
  0
VERTEX
  8
LAYER_1
 10
258.5523
 20
389.4392
 42
0.02613567289
  0
VERTEX
  8
LAYER_1
 10
258.952
 20
390.8559
 42
0.03626730167
  0
VERTEX
  8
LAYER_1
 10
259.3309
 20
393.3504
 42
0.02074344722
  0
VERTEX
  8
LAYER_1
 10
259.4029
 20
395.1428
 42
0.02791368813
  0
VERTEX
  8
LAYER_1
 10
259.2455
 20
397.9111
  0
SEQEND
  0
POLYLINE
  8
LAYER_1
 40
0.05
 41
0.05
 66
1
 10
0
 20
0
 30
0
 70
1
  0
VERTEX
  8
LAYER_1
 10
254.576
 20
396.3896
 42
-0.04032753284
  0
VERTEX
  8
LAYER_1
 10
254.3894
 20
394.0192
 42
-0.04012161219
  0
VERTEX
  8
LAYER_1
 10
253.9339
 20
392.1785
 42
-0.04238898037
  0
VERTEX
  8
LAYER_1
 10
253.2811
 20
390.6796
 42
-0.04766533917
  0
VERTEX
  8
LAYER_1
 10
252.4137
 20
389.3941
 42
-0.05216108607
  0
VERTEX
  8
LAYER_1
 10
251.34
 20
388.3427
 42
-0.06132027517
  0
VERTEX
  8
LAYER_1
 10
250.0904
 20
387.5944
 42
-0.04372997586
  0
VERTEX
  8
LAYER_1
 10
248.3291
 20
386.9731
 42
-0.03008929619
  0
VERTEX
  8
LAYER_1
 10
245.7612
 20
386.4505
 42
-0.008990725474
  0
VERTEX
  8
LAYER_1
 10
243.3454
 20
386.1318
  0
VERTEX
  8
LAYER_1
 10
243.1324
 20
386.1061
 42
-0.04222384689
  0
VERTEX
  8
LAYER_1
 10
240.9096
 20
386.0163
 42
-0.04179218311
  0
VERTEX
  8
LAYER_1
 10
238.9868
 20
386.267
 42
-0.001444224648
  0
VERTEX
  8
LAYER_1
 10
238.9246
 20
386.2808
 42
-0.08082836933
  0
VERTEX
  8
LAYER_1
 10
235.3868
 20
387.7048
 42
-0.1843096854
  0
VERTEX
  8
LAYER_1
 10
230.087
 20
394.5527
 42
-0.03418230846
  0
VERTEX
  8
LAYER_1
 10
229.7476
 20
396.0937
 42
-0.03659004632
  0
VERTEX
  8
LAYER_1
 10
229.6769
 20
397.039
 42
-0.06060583724
  0
VERTEX
  8
LAYER_1
 10
229.863
 20
398.5607
 42
-0.04987526961
  0
VERTEX
  8
LAYER_1
 10
230.3464
 20
399.9184
 42
-0.0463619724
  0
VERTEX
  8
LAYER_1
 10
231.2391
 20
401.435
 42
-0.03788267814
  0
VERTEX
  8
LAYER_1
 10
232.6393
 20
403.112
 42
-0.02443806133
  0
VERTEX
  8
LAYER_1
 10
234.5073
 20
404.8754
  0
VERTEX
  8
LAYER_1
 10
235.432
 20
405.7079
 42
-0.02104820943
  0
VERTEX
  8
LAYER_1
 10
236.928
 20
407.0131
 42
-0.0463007719
  0
VERTEX
  8
LAYER_1
 10
238.3581
 20
407.955
 42
-0.05408370526
  0
VERTEX
  8
LAYER_1
 10
239.6891
 20
408.4714
 42
-0.04458532955
  0
VERTEX
  8
LAYER_1
 10
240.9228
 20
408.6836
 42
-0.02156597693
  0
VERTEX
  8
LAYER_1
 10
242.0982
 20
408.7341
 42
-0.05799360853
  0
VERTEX
  8
LAYER_1
 10
245.1855
 20
408.3751
 42
-0.03911379441
  0
VERTEX
  8
LAYER_1
 10
247.144
 20
407.7466
 42
-0.04175291897
  0
VERTEX
  8
LAYER_1
 10
249.0576
 20
406.7687
 42
-0.04248080691
  0
VERTEX
  8
LAYER_1
 10
250.749
 20
405.506
 42
-0.04121647155
  0
VERTEX
  8
LAYER_1
 10
252.096
 20
404.0933
 42
-0.04015516692
  0
VERTEX
  8
LAYER_1
 10
253.1138
 20
402.5994
 42
-0.04205147242
  0
VERTEX
  8
LAYER_1
 10
253.8716
 20
400.9592
 42
-0.05016671586
  0
VERTEX
  8
LAYER_1
 10
254.3838
 20
398.9341
 42
-0.03627503264
  0
VERTEX
  8
LAYER_1
 10
254.576
 20
396.3903
  0
SEQEND
  0
POLYLINE
  8
LAYER_1
 40
0.05
 41
0.05
 66
1
 10
0
 20
0
 30
0
  0
VERTEX
  8
LAYER_1
 10
242.0982
 20
409.1633
 42
0.02054480718
  0
VERTEX
  8
LAYER_1
 10
240.8794
 20
409.1115
 42
0.05546189218
  0
VERTEX
  8
LAYER_1
 10
239.2409
 20
408.7902
 42
0.05251280522
  0
VERTEX
  8
LAYER_1
 10
237.8623
 20
408.1842
 42
0.04491440627
  0
VERTEX
  8
LAYER_1
 10
236.4245
 20
407.1817
 42
0.01589170313
  0
VERTEX
  8
LAYER_1
 10
235.0943
 20
406.0088
  0
VERTEX
  8
LAYER_1
 10
235.0516
 20
405.9704
  0
VERTEX
  8
LAYER_1
 10
234.1752
 20
405.1837
 42
0.0293495002
  0
VERTEX
  8
LAYER_1
 10
231.878
 20
402.9614
 42
0.03631513803
  0
VERTEX
  8
LAYER_1
 10
230.5921
 20
401.3103
 42
0.04483757134
  0
VERTEX
  8
LAYER_1
 10
229.767
 20
399.7758
 42
0.04994149557
  0
VERTEX
  8
LAYER_1
 10
229.3255
 20
398.3399
 42
0.04854188454
  0
VERTEX
  8
LAYER_1
 10
229.1984
 20
397.0412
 42
0.03715510951
  0
VERTEX
  8
LAYER_1
 10
229.2739
 20
396.0361
 42
0.06322709892
  0
VERTEX
  8
LAYER_1
 10
230.0921
 20
393.1338
 42
0.05619979524
  0
VERTEX
  8
LAYER_1
 10
231.441
 20
390.7396
 42
0.07329388279
  0
VERTEX
  8
LAYER_1
 10
233.9888
 20
388.1195
 42
0.07435656706
  0
VERTEX
  8
LAYER_1
 10
237.2245
 20
386.3329
 42
0.03356134389
  0
VERTEX
  8
LAYER_1
 10
238.8095
 20
385.8634
 42
0.04386441913
  0
VERTEX
  8
LAYER_1
 10
240.8889
 20
385.5883
 42
0.01154452605
  0
VERTEX
  8
LAYER_1
 10
241.4922
 20
385.5744
 42
0.03056722751
  0
VERTEX
  8
LAYER_1
 10
243.1958
 20
385.68
  0
VERTEX
  8
LAYER_1
 10
243.4036
 20
385.706
 42
0.01280223546
  0
VERTEX
  8
LAYER_1
 10
246.2314
 20
386.0896
 42
0.02992648603
  0
VERTEX
  8
LAYER_1
 10
248.8513
 20
386.672
 42
0.04180868802
  0
VERTEX
  8
LAYER_1
 10
250.5737
 20
387.3405
 42
0.04904239712
  0
VERTEX
  8
LAYER_1
 10
251.6556
 20
388.0202
 42
0.05429271357
  0
VERTEX
  8
LAYER_1
 10
252.8247
 20
389.1727
 42
0.04834550018
  0
VERTEX
  8
LAYER_1
 10
253.7261
 20
390.5238
 42
0.04348634732
  0
VERTEX
  8
LAYER_1
 10
254.402
 20
392.0928
 42
0.03859414124
  0
VERTEX
  8
LAYER_1
 10
254.8436
 20
393.8579
 42
0.03692242887
  0
VERTEX
  8
LAYER_1
 10
255.0473
 20
395.9664
 42
0.006640100582
  0
VERTEX
  8
LAYER_1
 10
255.0528
 20
396.393
 42
0.03635952888
  0
VERTEX
  8
LAYER_1
 10
254.8626
 20
398.9493
 42
0.0005512043621
  0
VERTEX
  8
LAYER_1
 10
254.8565
 20
398.9906
 42
0.06575546924
  0
VERTEX
  8
LAYER_1
 10
254.077
 20
401.7168
 42
0.04170143468
  0
VERTEX
  8
LAYER_1
 10
253.1905
 20
403.3677
 42
0.0398725754
  0
VERTEX
  8
LAYER_1
 10
252.0445
 20
404.8585
 42
0.0383116389
  0
VERTEX
  8
LAYER_1
 10
250.6679
 20
406.1659
 42
0.03721932665
  0
VERTEX
  8
LAYER_1
 10
249.0898
 20
407.2669
 42
0.03665710312
  0
VERTEX
  8
LAYER_1
 10
247.3392
 20
408.1382
 42
0.05502209764
  0
VERTEX
  8
LAYER_1
 10
244.4533
 20
408.9641
 42
0.04240805629
  0
VERTEX
  8
LAYER_1
 10
242.0982
 20
409.1633
  0
SEQEND
  0
POLYLINE
  8
LAYER_1
 40
0.05
 41
0.05
 66
1
 10
0
 20
0
 30
0
  0
VERTEX
  8
LAYER_1
 10
250.1163
 20
397.8038
 42
-0.04622281258
  0
VERTEX
  8
LAYER_1
 10
249.9379
 20
395.8631
 42
-0.04705775267
  0
VERTEX
  8
LAYER_1
 10
249.4872
 20
394.2945
 42
-0.05162027971
  0
VERTEX
  8
LAYER_1
 10
248.813
 20
393.0029
 42
-0.0545594093
  0
VERTEX
  8
LAYER_1
 10
247.9423
 20
391.963
 42
-0.03373583354
  0
VERTEX
  8
LAYER_1
 10
247.3086
 20
391.4342
 42
-0.06243616234
  0
VERTEX
  8
LAYER_1
 10
245.9572
 20
390.7079
 42
-0.02017897561
  0
VERTEX
  8
LAYER_1
 10
245.0848
 20
390.3946
 42
-0.01606019147
  0
VERTEX
  8
LAYER_1
 10
243.9868
 20
390.0879
 42
-0.01916045493
  0
VERTEX
  8
LAYER_1
 10
241.1942
 20
389.5228
 42
-0.04918783806
  0
VERTEX
  8
LAYER_1
 10
239.3557
 20
389.3775
 42
-0.04720000725
  0
VERTEX
  8
LAYER_1
 10
238.0726
 20
389.532
 42
-0.08100706076
  0
VERTEX
  8
LAYER_1
 10
235.8108
 20
390.4427
 42
-0.04850340653
  0
VERTEX
  8
LAYER_1
 10
234.5173
 20
391.4051
 42
-0.04464584876
  0
VERTEX
  8
LAYER_1
 10
233.3732
 20
392.641
 42
-0.04134609408
  0
VERTEX
  8
LAYER_1
 10
232.4185
 20
394.1081
 42
-0.06489896365
  0
VERTEX
  8
LAYER_1
 10
231.3894
 20
396.7914
 42
-0.007408240633
  0
VERTEX
  8
LAYER_1
 10
231.3237
 20
397.0881
 42
-0.05044871394
  0
VERTEX
  8
LAYER_1
 10
231.2103
 20
398.1862
 42
-0.06591018749
  0
VERTEX
  8
LAYER_1
 10
231.396
 20
399.5785
 42
-0.05740584793
  0
VERTEX
  8
LAYER_1
 10
231.9255
 20
400.9105
 42
-0.04923584891
  0
VERTEX
  8
LAYER_1
 10
232.8358
 20
402.2774
 42
-0.04002711752
  0
VERTEX
  8
LAYER_1
 10
234.164
 20
403.6736
 42
-0.0175241318
  0
VERTEX
  8
LAYER_1
 10
235.0637
 20
404.4341
  0
VERTEX
  8
LAYER_1
 10
235.7906
 20
405.0252
 42
-0.02483419191
  0
VERTEX
  8
LAYER_1
 10
237.0742
 20
406.0286
 42
-0.05459521348
  0
VERTEX
  8
LAYER_1
 10
238.3236
 20
406.7174
 42
-0.07759522182
  0
VERTEX
  8
LAYER_1
 10
239.8686
 20
407.0721
 42
-0.01858809044
  0
VERTEX
  8
LAYER_1
 10
240.6571
 20
407.1018
 42
-0.06661855202
  0
VERTEX
  8
LAYER_1
 10
243.3127
 20
406.7468
 42
-0.06097388439
  0
VERTEX
  8
LAYER_1
 10
245.5198
 20
405.8424
 42
-0.04116897752
  0
VERTEX
  8
LAYER_1
 10
246.8123
 20
404.9694
 42
-0.04221209418
  0
VERTEX
  8
LAYER_1
 10
247.9285
 20
403.9058
 42
-0.04379328941
  0
VERTEX
  8
LAYER_1
 10
248.8403
 20
402.6734
 42
-0.04565266617
  0
VERTEX
  8
LAYER_1
 10
249.5192
 20
401.2942
 42
-0.04133471862
  0
VERTEX
  8
LAYER_1
 10
249.9
 20
399.984
 42
-0.04640370182
  0
VERTEX
  8
LAYER_1
 10
250.1147
 20
397.9949
 42
-0.004219875223
  0
VERTEX
  8
LAYER_1
 10
250.1163
 20
397.8038
  0
SEQEND
  0
POLYLINE
  8
LAYER_1
 40
0.05
 41
0.05
 66
1
 10
0
 20
0
 30
0
  0
VERTEX
  8
LAYER_1
 10
240.6571
 20
407.6189
 42
0.01833415017
  0
VERTEX
  8
LAYER_1
 10
239.8196
 20
407.5872
 42
0.06117899948
  0
VERTEX
  8
LAYER_1
 10
238.4024
 20
407.3041
 42
0.05858943364
  0
VERTEX
  8
LAYER_1
 10
237.1222
 20
406.6982
 42
0.02218633762
  0
VERTEX
  8
LAYER_1
 10
236.4418
 20
406.2353
 42
0.01417419921
  0
VERTEX
  8
LAYER_1
 10
235.4079
 20
405.4099
  0
VERTEX
  8
LAYER_1
 10
234.6861
 20
404.8218
 42
0.03702044101
  0
VERTEX
  8
LAYER_1
 10
232.9347
 20
403.2281
 42
0.04226391319
  0
VERTEX
  8
LAYER_1
 10
231.7894
 20
401.7803
 42
0.05045770392
  0
VERTEX
  8
LAYER_1
 10
231.0576
 20
400.37
 42
0.05365197093
  0
VERTEX
  8
LAYER_1
 10
230.7039
 20
399.0662
 42
0.0901678658
  0
VERTEX
  8
LAYER_1
 10
230.7587
 20
396.9942
 42
0.04472560916
  0
VERTEX
  8
LAYER_1
 10
231.3307
 20
395.1046
 42
0.06002117723
  0
VERTEX
  8
LAYER_1
 10
232.6654
 20
392.6679
 42
0.04241753835
  0
VERTEX
  8
LAYER_1
 10
233.8213
 20
391.3167
 42
0.04580552842
  0
VERTEX
  8
LAYER_1
 10
235.1417
 20
390.2376
 42
0.04594228399
  0
VERTEX
  8
LAYER_1
 10
236.5023
 20
389.4948
 42
0.04653096864
  0
VERTEX
  8
LAYER_1
 10
237.9338
 20
389.0307
 42
0.05622371618
  0
VERTEX
  8
LAYER_1
 10
239.5761
 20
388.8571
 42
0.04392039405
  0
VERTEX
  8
LAYER_1
 10
241.3041
 20
389.0155
 42
0.01391541018
  0
VERTEX
  8
LAYER_1
 10
243.7006
 20
389.4853
 42
0.03320118206
  0
VERTEX
  8
LAYER_1
 10
246.006
 20
390.1632
 42
0.04940175457
  0
VERTEX
  8
LAYER_1
 10
247.4503
 20
390.882
 42
0.01170171089
  0
VERTEX
  8
LAYER_1
 10
247.6686
 20
391.0323
 42
0.1099895332
  0
VERTEX
  8
LAYER_1
 10
249.5993
 20
393.2201
 42
0.05053100551
  0
VERTEX
  8
LAYER_1
 10
250.2232
 20
394.6709
 42
0.04522023577
  0
VERTEX
  8
LAYER_1
 10
250.595
 20
396.3525
 42
0.032873338
  0
VERTEX
  8
LAYER_1
 10
250.6903
 20
397.8131
 42
0.04445364487
  0
VERTEX
  8
LAYER_1
 10
250.5096
 20
399.8527
 42
0.005163693233
  0
VERTEX
  8
LAYER_1
 10
250.4667
 20
400.0765
 42
0.07329658684
  0
VERTEX
  8
LAYER_1
 10
249.595
 20
402.4855
 42
0.04469139288
  0
VERTEX
  8
LAYER_1
 10
248.7013
 20
403.8425
 42
0.04296855473
  0
VERTEX
  8
LAYER_1
 10
247.5812
 20
405.0279
 42
0.04166344908
  0
VERTEX
  8
LAYER_1
 10
246.2647
 20
406.0186
 42
0.04094334999
  0
VERTEX
  8
LAYER_1
 10
244.7819
 20
406.7913
 42
0.06135981035
  0
VERTEX
  8
LAYER_1
 10
242.3116
 20
407.4914
 42
0.0386535247
  0
VERTEX
  8
LAYER_1
 10
240.6571
 20
407.6189
  0
SEQEND
  0
POLYLINE
  8
LAYER_1
 40
0.05
 41
0.05
 66
1
 10
0
 20
0
 30
0
  0
VERTEX
  8
LAYER_1
 10
243.2861
 20
394.533
 42
-0.02721129428
  0
VERTEX
  8
LAYER_1
 10
242.5304
 20
394.1206
 42
-0.0187044968
  0
VERTEX
  8
LAYER_1
 10
241.5764
 20
393.7075
 42
-0.02602760493
  0
VERTEX
  8
LAYER_1
 10
239.236
 20
392.9342
 42
-0.06622302198
  0
VERTEX
  8
LAYER_1
 10
237.8287
 20
392.7183
 42
-0.05300503049
  0
VERTEX
  8
LAYER_1
 10
237.2207
 20
392.7846
 42
-0.07724842316
  0
VERTEX
  8
LAYER_1
 10
236.1616
 20
393.2025
 42
-0.06692610415
  0
VERTEX
  8
LAYER_1
 10
235.1727
 20
393.9736
 42
-0.05267645642
  0
VERTEX
  8
LAYER_1
 10
234.2668
 20
395.1003
 42
-0.04370986176
  0
VERTEX
  8
LAYER_1
 10
233.4102
 20
396.6986
 42
-0.02876769454
  0
VERTEX
  8
LAYER_1
 10
232.8929
 20
398.0966
 42
-0.1083173289
  0
VERTEX
  8
LAYER_1
 10
232.7528
 20
399.8994
 42
-0.06388589218
  0
VERTEX
  8
LAYER_1
 10
233.0641
 20
401.052
 42
-0.05847781496
  0
VERTEX
  8
LAYER_1
 10
233.6719
 20
402.1491
 42
0.07960798064
  0
VERTEX
  8
LAYER_1
 10
233.3367
 20
401.034
 42
0.03262391564
  0
VERTEX
  8
LAYER_1
 10
233.3067
 20
400.5747
 42
0.1264142843
  0
VERTEX
  8
LAYER_1
 10
233.7535
 20
398.8418
 42
-0.02359670294
  0
VERTEX
  8
LAYER_1
 10
234.1514
 20
397.968
  0
VERTEX
  8
LAYER_1
 10
234.1638
 20
397.938
 42
0.0293434746
  0
VERTEX
  8
LAYER_1
 10
234.7363
 20
396.6998
 42
0.07178018796
  0
VERTEX
  8
LAYER_1
 10
235.3889
 20
395.8056
 42
0.1004357486
  0
VERTEX
  8
LAYER_1
 10
235.9959
 20
395.4194
 42
0.03258188139
  0
VERTEX
  8
LAYER_1
 10
236.1827
 20
395.3655
 42
0.0550575773
  0
VERTEX
  8
LAYER_1
 10
236.4434
 20
395.3373
 42
0.06106398123
  0
VERTEX
  8
LAYER_1
 10
236.8376
 20
395.3899
 42
0.04345568332
  0
VERTEX
  8
LAYER_1
 10
237.2601
 20
395.5408
 42
0.03069567626
  0
VERTEX
  8
LAYER_1
 10
237.7771
 20
395.8171
 42
0.01785508378
  0
VERTEX
  8
LAYER_1
 10
238.6263
 20
396.3861
 42
-0.05262222163
  0
VERTEX
  8
LAYER_1
 10
239.6381
 20
397.0264
 42
0.07214311704
  0
VERTEX
  8
LAYER_1
 10
240.7111
 20
397.6959
 42
0.06926298363
  0
VERTEX
  8
LAYER_1
 10
241.472
 20
398.5479
 42
0.07299808732
  0
VERTEX
  8
LAYER_1
 10
241.9496
 20
399.5546
 42
0.07330317032
  0
VERTEX
  8
LAYER_1
 10
242.1034
 20
400.5862
 42
0.1264622392
  0
VERTEX
  8
LAYER_1
 10
241.6562
 20
402.3188
 42
0.1120418197
  0
VERTEX
  8
LAYER_1
 10
240.4654
 20
403.6657
 42
0.06633480058
  0
VERTEX
  8
LAYER_1
 10
239.431
 20
404.2238
 42
0.06394471632
  0
VERTEX
  8
LAYER_1
 10
238.2499
 20
404.5077
 42
0.02748955872
  0
VERTEX
  8
LAYER_1
 10
237.7013
 20
404.5378
 42
0.06932538093
  0
VERTEX
  8
LAYER_1
 10
236.3833
 20
404.3556
 42
0.02537391146
  0
VERTEX
  8
LAYER_1
 10
235.9291
 20
404.2008
  0
VERTEX
  8
LAYER_1
 10
236.0032
 20
404.2516
 42
-0.03092924578
  0
VERTEX
  8
LAYER_1
 10
237.1072
 20
404.9528
 42
-0.06755899531
  0
VERTEX
  8
LAYER_1
 10
238.2034
 20
405.3748
 42
-0.04026593703
  0
VERTEX
  8
LAYER_1
 10
238.8071
 20
405.4588
  0
VERTEX
  8
LAYER_1
 10
239.2081
 20
405.4705
 42
-0.1642307932
  0
VERTEX
  8
LAYER_1
 10
243.3019
 20
404.0769
 42
-0.05430911819
  0
VERTEX
  8
LAYER_1
 10
244.2942
 20
403.1176
 42
-0.05688516926
  0
VERTEX
  8
LAYER_1
 10
245.0489
 20
401.9636
 42
-0.04327013929
  0
VERTEX
  8
LAYER_1
 10
245.4234
 20
401.0201
 42
-0.05896025715
  0
VERTEX
  8
LAYER_1
 10
245.6964
 20
399.4718
 42
-0.01337882599
  0
VERTEX
  8
LAYER_1
 10
245.7056
 20
399.1327
 42
-0.06299903198
  0
VERTEX
  8
LAYER_1
 10
245.5196
 20
397.6514
 42
-0.06135260942
  0
VERTEX
  8
LAYER_1
 10
245.0244
 20
396.3938
 42
-0.06213030658
  0
VERTEX
  8
LAYER_1
 10
244.2752
 20
395.3523
 42
-0.06488081123
  0
VERTEX
  8
LAYER_1
 10
243.2861
 20
394.533
  0
SEQEND
  0
POLYLINE
  8
LAYER_1
 40
0.05
 41
0.05
 66
1
 10
0
 20
0
 30
0
  0
VERTEX
  8
LAYER_1
 10
236.1093
 20
403.5132
 42
-0.1050367943
  0
VERTEX
  8
LAYER_1
 10
237.7013
 20
403.8458
 42
-0.07470966604
  0
VERTEX
  8
LAYER_1
 10
238.896
 20
403.6675
 42
-0.07307072888
  0
VERTEX
  8
LAYER_1
 10
239.8858
 20
403.1952
 42
-0.07565143839
  0
VERTEX
  8
LAYER_1
 10
240.6525
 20
402.4885
 42
-0.04347149853
  0
VERTEX
  8
LAYER_1
 10
240.9665
 20
402.0147
 42
-0.08734717228
  0
VERTEX
  8
LAYER_1
 10
241.3025
 20
401.0255
 42
-0.03736648513
  0
VERTEX
  8
LAYER_1
 10
241.3351
 20
400.5873
 42
-0.1282780795
  0
VERTEX
  8
LAYER_1
 10
240.9497
 20
399.1272
 42
-0.07969108633
  0
VERTEX
  8
LAYER_1
 10
240.2973
 20
398.3001
 42
-0.08362691552
  0
VERTEX
  8
LAYER_1
 10
239.2984
 20
397.6476
 42
0.03660909828
  0
VERTEX
  8
LAYER_1
 10
238.7747
 20
397.3569
 42
0.009559353919
  0
VERTEX
  8
LAYER_1
 10
238.1626
 20
396.9393
 42
-0.03364555526
  0
VERTEX
  8
LAYER_1
 10
237.1193
 20
396.2607
 42
-0.04979061979
  0
VERTEX
  8
LAYER_1
 10
236.6868
 20
396.071
 42
-0.07453091897
  0
VERTEX
  8
LAYER_1
 10
236.4434
 20
396.0294
  0
VERTEX
  8
LAYER_1
 10
236.3666
 20
396.0372
 42
-0.09253982565
  0
VERTEX
  8
LAYER_1
 10
236.108
 20
396.1521
 42
-0.05940361751
  0
VERTEX
  8
LAYER_1
 10
235.8663
 20
396.3655
 42
-0.04085398019
  0
VERTEX
  8
LAYER_1
 10
235.6055
 20
396.7091
 42
-0.02901746304
  0
VERTEX
  8
LAYER_1
 10
235.2925
 20
397.268
 42
-0.01544565071
  0
VERTEX
  8
LAYER_1
 10
234.8876
 20
398.1723
 42
0.03060944273
  0
VERTEX
  8
LAYER_1
 10
234.4432
 20
399.1458
 42
-0.08670487522
  0
VERTEX
  8
LAYER_1
 10
234.1074
 20
400.1358
 42
-0.03746431519
  0
VERTEX
  8
LAYER_1
 10
234.0746
 20
400.5747
 42
-0.1282226504
  0
VERTEX
  8
LAYER_1
 10
234.4597
 20
402.0342
 42
-0.0796639637
  0
VERTEX
  8
LAYER_1
 10
235.1115
 20
402.8609
 42
-0.08364240524
  0
VERTEX
  8
LAYER_1
 10
236.1093
 20
403.5132
  0
SEQEND
  0
POLYLINE
  8
LAYER_1
 40
0.05
 41
0.05
 66
1
 10
0
 20
0
 30
0
  0
VERTEX
  8
LAYER_1
 10
239.2081
 20
406.0748
  0
VERTEX
  8
LAYER_1
 10
238.7623
 20
406.062
 42
0.07190941391
  0
VERTEX
  8
LAYER_1
 10
237.5013
 20
405.8053
 42
0.05818515184
  0
VERTEX
  8
LAYER_1
 10
236.3078
 20
405.2048
 42
0.009037104496
  0
VERTEX
  8
LAYER_1
 10
235.6063
 20
404.7395
  0
VERTEX
  8
LAYER_1
 10
235.2073
 20
404.469
 42
0.05129523901
  0
VERTEX
  8
LAYER_1
 10
233.826
 20
403.3328
 42
0.05281546914
  0
VERTEX
  8
LAYER_1
 10
232.8932
 20
402.1581
 42
0.05583518202
  0
VERTEX
  8
LAYER_1
 10
232.3208
 20
400.9736
 42
0.06201351184
  0
VERTEX
  8
LAYER_1
 10
232.0555
 20
399.735
 42
0.02100659237
  0
VERTEX
  8
LAYER_1
 10
232.0385
 20
399.3303
 42
0.07383933055
  0
VERTEX
  8
LAYER_1
 10
232.2463
 20
397.9376
 42
0.04061820717
  0
VERTEX
  8
LAYER_1
 10
233.0345
 20
395.9513
 42
0.04356287975
  0
VERTEX
  8
LAYER_1
 10
233.986
 20
394.3813
 42
0.04996763323
  0
VERTEX
  8
LAYER_1
 10
234.9603
 20
393.3081
 42
0.0594143845
  0
VERTEX
  8
LAYER_1
 10
235.987
 20
392.5921
 42
0.06550461047
  0
VERTEX
  8
LAYER_1
 10
237.057
 20
392.1979
 42
0.05475395666
  0
VERTEX
  8
LAYER_1
 10
237.8525
 20
392.1142
 42
0.0653000991
  0
VERTEX
  8
LAYER_1
 10
239.2585
 20
392.31
 42
0.005854945987
  0
VERTEX
  8
LAYER_1
 10
239.4341
 20
392.3571
 42
0.02993081373
  0
VERTEX
  8
LAYER_1
 10
242.2474
 20
393.3187
 42
0.03710391947
  0
VERTEX
  8
LAYER_1
 10
243.6713
 20
394.0376
 42
0.1212869794
  0
VERTEX
  8
LAYER_1
 10
245.5469
 20
395.9859
 42
0.0547198612
  0
VERTEX
  8
LAYER_1
 10
246.0765
 20
397.1797
 42
0.05334914771
  0
VERTEX
  8
LAYER_1
 10
246.3461
 20
398.4936
 42
0.02426656451
  0
VERTEX
  8
LAYER_1
 10
246.377
 20
399.1336
 42
0.05760198177
  0
VERTEX
  8
LAYER_1
 10
246.1904
 20
400.7332
 42
0.015498624
  0
VERTEX
  8
LAYER_1
 10
246.0718
 20
401.1779
 42
0.08322493499
  0
VERTEX
  8
LAYER_1
 10
245.1216
 20
403.1035
 42
0.05055421011
  0
VERTEX
  8
LAYER_1
 10
244.207
 20
404.1377
 42
0.04879061922
  0
VERTEX
  8
LAYER_1
 10
243.0992
 20
404.9779
 42
0.07219337174
  0
VERTEX
  8
LAYER_1
 10
241.1557
 20
405.8167
 42
0.06605428465
  0
VERTEX
  8
LAYER_1
 10
239.2081
 20
406.0748
  0
SEQEND
  0
ENDBLK
  0
BLOCK
  8
LAYER_1
  2
AIGNBL01020006
 70
64
 10
0
 20
0
 30
0
  3
AIGNBL01020006
  0
POLYLINE
  8
LAYER_1
 40
0.1799
 41
0.1799
 66
1
 10
0
 20
0
 30
0
  0
VERTEX
  8
LAYER_1
 10
134.687
 20
308.268
  0
VERTEX
  8
LAYER_1
 10
134.687
 20
209.9355
  0
SEQEND
  0
POLYLINE
  8
LAYER_1
 40
0.1799
 41
0.1799
 66
1
 10
0
 20
0
 30
0
  0
VERTEX
  8
LAYER_1
 10
51.9341
 20
147.4511
  0
VERTEX
  8
LAYER_1
 10
120.785
 20
147.4511
  0
SEQEND
  0
ENDBLK
  0
BLOCK
  8
LAYER_1
  2
AIGNBL01020007
 70
64
 10
0
 20
0
 30
0
  3
AIGNBL01020007
  0
POLYLINE
  8
LAYER_1
 40
0.1799
 41
0.1799
 66
1
 10
0
 20
0
 30
0
 70
1
  0
VERTEX
  8
LAYER_1
 10
78.0734
 20
306.1732
  0
VERTEX
  8
LAYER_1
 10
78.0734
 20
292.2127
 42
0.02664346515
  0
VERTEX
  8
LAYER_1
 10
78.6986
 20
291.9431
 42
0.037512112
  0
VERTEX
  8
LAYER_1
 10
80.6908
 20
291.3672
 42
0.02945249274
  0
VERTEX
  8
LAYER_1
 10
83.255
 20
290.9642
 42
0.02487805058
  0
VERTEX
  8
LAYER_1
 10
86.202
 20
290.8149
 42
0.0009840154837
  0
VERTEX
  8
LAYER_1
 10
86.3344
 20
290.8146
 42
0.02780865267
  0
VERTEX
  8
LAYER_1
 10
89.7214
 20
290.9974
 42
0.02966081521
  0
VERTEX
  8
LAYER_1
 10
92.3302
 20
291.4482
 42
0.03783553246
  0
VERTEX
  8
LAYER_1
 10
94.296
 20
292.0735
 42
0.01254872896
  0
VERTEX
  8
LAYER_1
 10
94.5958
 20
292.2127
  0
VERTEX
  8
LAYER_1
 10
94.5958
 20
306.1732
 42
-0.04407364784
  0
VERTEX
  8
LAYER_1
 10
94.2505
 20
305.9905
 42
-0.02772031336
  0
VERTEX
  8
LAYER_1
 10
93.6358
 20
305.7642
 42
-0.02022103831
  0
VERTEX
  8
LAYER_1
 10
92.8187
 20
305.5474
 42
-0.03267707262
  0
VERTEX
  8
LAYER_1
 10
90.3982
 20
305.1763
 42
-0.02346767096
  0
VERTEX
  8
LAYER_1
 10
86.8922
 20
305.0057
 42
-0.002223512967
  0
VERTEX
  8
LAYER_1
 10
86.4357
 20
305.0038
 42
-0.02311250687
  0
VERTEX
  8
LAYER_1
 10
82.4447
 20
305.1763
 42
-0.02941943846
  0
VERTEX
  8
LAYER_1
 10
79.8365
 20
305.5748
 42
-0.04720786639
  0
VERTEX
  8
LAYER_1
 10
78.2446
 20
306.0814
 42
-0.01657131193
  0
SEQEND
  0
POLYLINE
  8
LAYER_1
 40
0.1799
 41
0.1799
 66
1
 10
0
 20
0
 30
0
 70
1
  0
VERTEX
  8
LAYER_1
 10
86.3207
 20
304.9685
 42
0.02182804961
  0
VERTEX
  8
LAYER_1
 10
90.35
 20
305.1384
 42
0.02863501147
  0
VERTEX
  8
LAYER_1
 10
93.006
 20
305.5208
 42
0.02630850956
  0
VERTEX
  8
LAYER_1
 10
93.7742
 20
305.729
 42
0.04325051042
  0
VERTEX
  8
LAYER_1
 10
94.2473
 20
305.9276
 42
0.07855983516
  0
VERTEX
  8
LAYER_1
 10
94.4941
 20
306.1066
 42
0.1812554846
  0
VERTEX
  8
LAYER_1
 10
94.5894
 20
306.311
 42
0.1384930271
  0
VERTEX
  8
LAYER_1
 10
94.5467
 20
306.4487
 42
0.08448964749
  0
VERTEX
  8
LAYER_1
 10
94.4214
 20
306.5823
 42
0.05493520419
  0
VERTEX
  8
LAYER_1
 10
94.155
 20
306.7426
 42
0.03458646438
  0
VERTEX
  8
LAYER_1
 10
93.685
 20
306.9233
 42
0.02304205356
  0
VERTEX
  8
LAYER_1
 10
92.9469
 20
307.1155
 42
0.01668398612
  0
VERTEX
  8
LAYER_1
 10
91.8807
 20
307.3059
 42
0.02504575696
  0
VERTEX
  8
LAYER_1
 10
88.7799
 20
307.5939
 42
0.01258933897
  0
VERTEX
  8
LAYER_1
 10
86.3207
 20
307.6541
 42
0.02179140087
  0
VERTEX
  8
LAYER_1
 10
82.2921
 20
307.4846
 42
0.02865779829
  0
VERTEX
  8
LAYER_1
 10
79.6361
 20
307.1025
 42
0.02636557528
  0
VERTEX
  8
LAYER_1
 10
78.8679
 20
306.8942
 42
0.0433518578
  0
VERTEX
  8
LAYER_1
 10
78.3947
 20
306.6953
 42
0.07868523558
  0
VERTEX
  8
LAYER_1
 10
78.1479
 20
306.516
 42
0.1810805127
  0
VERTEX
  8
LAYER_1
 10
78.0526
 20
306.311
 42
0.1387757157
  0
VERTEX
  8
LAYER_1
 10
78.0953
 20
306.1737
 42
0.08443397622
  0
VERTEX
  8
LAYER_1
 10
78.2206
 20
306.0405
 42
0.05481433957
  0
VERTEX
  8
LAYER_1
 10
78.487
 20
305.8804
 42
0.03449523395
  0
VERTEX
  8
LAYER_1
 10
78.9571
 20
305.6998
 42
0.02298652837
  0
VERTEX
  8
LAYER_1
 10
79.6952
 20
305.5078
 42
0.01665540772
  0
VERTEX
  8
LAYER_1
 10
80.7614
 20
305.3173
 42
0.02504064329
  0
VERTEX
  8
LAYER_1
 10
83.862
 20
305.0289
 42
0.01261860564
  0
SEQEND
  0
ENDBLK
  0
BLOCK
  8
LAYER_1
  2
AIGNBL01020008
 70
64
 10
0
 20
0
 30
0
  3
AIGNBL01020008
  0
POLYLINE
  8
LAYER_1
 40
0.1799
 41
0.1799
 66
1
 10
0
 20
0
 30
0
  0
VERTEX
  8
LAYER_1
 10
86.5158
 20
201.6301
 42
0.007143392245
  0
VERTEX
  8
LAYER_1
 10
82.912
 20
201.4549
 42
0.01407364853
  0
VERTEX
  8
LAYER_1
 10
81.1154
 20
201.2996
 42
0.03586043907
  0
VERTEX
  8
LAYER_1
 10
80.5455
 20
201.2015
 42
0.0754864983
  0
VERTEX
  8
LAYER_1
 10
79.4111
 20
200.7125
 42
0.0887747472
  0
VERTEX
  8
LAYER_1
 10
78.7864
 20
200.1285
 42
0.1481908095
  0
VERTEX
  8
LAYER_1
 10
78.4087
 20
199.0218
 42
0.01366248757
  0
VERTEX
  8
LAYER_1
 10
78.4052
 20
198.8878
  0
VERTEX
  8
LAYER_1
 10
78.4052
 20
191.9438
 42
-0.03093648545
  0
VERTEX
  8
LAYER_1
 10
78.3521
 20
191.2128
 42
-0.01897633749
  0
VERTEX
  8
LAYER_1
 10
78.1871
 20
190.2616
 42
-0.01420150215
  0
VERTEX
  8
LAYER_1
 10
77.6351
 20
188.002
 42
0.005107427019
  0
VERTEX
  8
LAYER_1
 10
76.8629
 20
184.7734
 42
0.001230994383
  0
VERTEX
  8
LAYER_1
 10
75.5813
 20
179.1736
 42
-0.0682046328
  0
VERTEX
  8
LAYER_1
 10
75.0257
 20
178.1552
 42
-0.05747841383
  0
VERTEX
  8
LAYER_1
 10
74.1411
 20
177.1702
 42
-0.05655154059
  0
VERTEX
  8
LAYER_1
 10
73.0141
 20
176.3793
 42
-0.05277382316
  0
VERTEX
  8
LAYER_1
 10
71.6931
 20
175.8296
 42
-0.01061822758
  0
VERTEX
  8
LAYER_1
 10
71.3874
 20
175.7443
 42
0.01297575856
  0
VERTEX
  8
LAYER_1
 10
69.7191
 20
175.2521
 42
0.006533505022
  0
VERTEX
  8
LAYER_1
 10
66.9783
 20
174.3312
 42
0.00748004649
  0
VERTEX
  8
LAYER_1
 10
57.524
 20
170.8592
 42
0.05368352483
  0
VERTEX
  8
LAYER_1
 10
56.1957
 20
170.3672
 42
0.05045941634
  0
VERTEX
  8
LAYER_1
 10
54.9617
 20
169.6079
 42
0.05553666555
  0
VERTEX
  8
LAYER_1
 10
54.0034
 20
168.6853
 42
0.05818559381
  0
VERTEX
  8
LAYER_1
 10
53.3371
 20
167.6528
 42
0.06045888041
  0
VERTEX
  8
LAYER_1
 10
52.9194
 20
166.448
 42
0.02783029109
  0
VERTEX
  8
LAYER_1
 10
52.8157
 20
165.8011
 42
0.02418878296
  0
VERTEX
  8
LAYER_1
 10
52.6004
 20
162.0235
 42
0.03093890718
  0
VERTEX
  8
LAYER_1
 10
52.7379
 20
159.532
 42
0.04853924101
  0
VERTEX
  8
LAYER_1
 10
53.0648
 20
158.0786
 42
0.08293277661
  0
VERTEX
  8
LAYER_1
 10
53.4728
 20
157.328
 42
0.132153642
  0
VERTEX
  8
LAYER_1
 10
53.9227
 20
157.0121
 42
0.07927406102
  0
VERTEX
  8
LAYER_1
 10
54.1891
 20
156.9706
  0
VERTEX
  8
LAYER_1
 10
118.6462
 20
156.9706
 42
0.1686576986
  0
VERTEX
  8
LAYER_1
 10
119.1823
 20
157.1564
 42
0.05946397204
  0
VERTEX
  8
LAYER_1
 10
119.3897
 20
157.3616
 42
0.0487578941
  0
VERTEX
  8
LAYER_1
 10
119.5954
 20
157.6794
 42
0.03800936762
  0
VERTEX
  8
LAYER_1
 10
119.7887
 20
158.1338
 42
0.02841702173
  0
VERTEX
  8
LAYER_1
 10
119.9589
 20
158.7459
 42
0.02318582995
  0
VERTEX
  8
LAYER_1
 10
120.1054
 20
159.6086
 42
0.01753634109
  0
VERTEX
  8
LAYER_1
 10
120.1992
 20
160.6722
 42
0.02756971088
  0
VERTEX
  8
LAYER_1
 10
120.1904
 20
163.5561
 42
0.01349115101
  0
VERTEX
  8
LAYER_1
 10
120.0161
 20
165.8011
 42
0.06367104253
  0
VERTEX
  8
LAYER_1
 10
119.6913
 20
167.1996
 42
0.08966048435
  0
VERTEX
  8
LAYER_1
 10
118.7355
 20
168.7973
 42
0.05805597416
  0
VERTEX
  8
LAYER_1
 10
117.714
 20
169.7262
 42
0.05265694901
  0
VERTEX
  8
LAYER_1
 10
116.4051
 20
170.4756
 42
0.04211591766
  0
VERTEX
  8
LAYER_1
 10
115.3103
 20
170.8592
 42
0.007273991059
  0
VERTEX
  8
LAYER_1
 10
105.0202
 20
174.6197
 42
0.01535484462
  0
VERTEX
  8
LAYER_1
 10
101.4458
 20
175.7443
 42
-0.05422722026
  0
VERTEX
  8
LAYER_1
 10
99.9966
 20
176.286
 42
-0.05651733813
  0
VERTEX
  8
LAYER_1
 10
98.8179
 20
177.0623
 42
-0.0583394078
  0
VERTEX
  8
LAYER_1
 10
97.8799
 20
178.0558
 42
-0.06153596216
  0
VERTEX
  8
LAYER_1
 10
97.2681
 20
179.1286
 42
-0.004569704229
  0
VERTEX
  8
LAYER_1
 10
97.2516
 20
179.1736
 42
0.005476370109
  0
VERTEX
  8
LAYER_1
 10
95.1975
 20
188.002
 42
-0.01615355219
  0
VERTEX
  8
LAYER_1
 10
94.6212
 20
190.3846
 42
-0.04405445308
  0
VERTEX
  8
LAYER_1
 10
94.4273
 20
191.9438
  0
VERTEX
  8
LAYER_1
 10
94.4273
 20
198.8878
 42
0.1035774342
  0
VERTEX
  8
LAYER_1
 10
94.2488
 20
199.7771
 42
0.09965630036
  0
VERTEX
  8
LAYER_1
 10
93.788
 20
200.4242
 42
0.08393654727
  0
VERTEX
  8
LAYER_1
 10
93.0203
 20
200.9363
 42
0.04405001963
  0
VERTEX
  8
LAYER_1
 10
92.2888
 20
201.2015
 42
0.03119340206
  0
VERTEX
  8
LAYER_1
 10
91.6745
 20
201.3051
 42
0.01212407881
  0
VERTEX
  8
LAYER_1
 10
90.239
 20
201.4334
 42
0.008568009944
  0
VERTEX
  8
LAYER_1
 10
86.3172
 20
201.6301
  0
SEQEND
  0
POLYLINE
  8
LAYER_1
 40
0.1799
 41
0.1799
 66
1
 10
0
 20
0
 30
0
  0
VERTEX
  8
LAYER_1
 10
79.4134
 20
201.2918
  0
VERTEX
  8
LAYER_1
 10
93.2525
 20
201.2918
  0
SEQEND
  0
POLYLINE
  8
LAYER_1
 40
0.1799
 41
0.1799
 66
1
 10
0
 20
0
 30
0
 70
1
  0
VERTEX
  8
LAYER_1
 10
92.9075
 20
201.5364
  0
VERTEX
  8
LAYER_1
 10
92.9075
 20
204.0465
 42
0.1243885089
  0
VERTEX
  8
LAYER_1
 10
92.2593
 20
206.5992
 42
0.05705759946
  0
VERTEX
  8
LAYER_1
 10
91.5055
 20
207.6819
 42
0.0538658905
  0
VERTEX
  8
LAYER_1
 10
90.5151
 20
208.5904
 42
0.05754901239
  0
VERTEX
  8
LAYER_1
 10
89.1832
 20
209.3546
 42
0.05107510787
  0
VERTEX
  8
LAYER_1
 10
87.817
 20
209.7846
 42
0.05117927577
  0
VERTEX
  8
LAYER_1
 10
86.3313
 20
209.9355
 42
0.05102031918
  0
VERTEX
  8
LAYER_1
 10
84.662
 20
209.7678
 42
0.0517975054
  0
VERTEX
  8
LAYER_1
 10
83.2668
 20
209.3232
 42
0.05460180206
  0
VERTEX
  8
LAYER_1
 10
82.0746
 20
208.6351
 42
0.05669379563
  0
VERTEX
  8
LAYER_1
 10
81.1065
 20
207.7372
 42
0.1791254515
  0
VERTEX
  8
LAYER_1
 10
79.7591
 20
204.0465
  0
VERTEX
  8
LAYER_1
 10
79.7591
 20
201.5364
  0
SEQEND
  0
ENDBLK
  0
BLOCK
  8
LAYER_1
  2
AIGNBL01020013
 70
64
 10
0
 20
0
 30
0
  3
AIGNBL01020013
  0
INSERT
  8
LAYER_1
  2
AIGNBL01030014
 10
0
 20
0
 30
0
  0
ENDBLK
  0
BLOCK
  8
LAYER_1
  2
AIGNBL0102001C
 70
64
 10
0
 20
0
 30
0
  3
AIGNBL0102001C
  0
INSERT
  8
LAYER_1
  2
AIGNBL0103001D
 10
0
 20
0
 30
0
  0
INSERT
  8
LAYER_1
  2
AIGNBL0103001E
 10
0
 20
0
 30
0
  0
INSERT
  8
LAYER_1
  2
AIGNBL0103001F
 10
0
 20
0
 30
0
  0
INSERT
  8
LAYER_1
  2
AIGNBL01030020
 10
0
 20
0
 30
0
  0
INSERT
  8
LAYER_1
  2
AIGNBL01030021
 10
0
 20
0
 30
0
  0
INSERT
  8
LAYER_1
  2
AIGNBL01030022
 10
0
 20
0
 30
0
  0
INSERT
  8
LAYER_1
  2
AIGNBL01030023
 10
0
 20
0
 30
0
  0
INSERT
  8
LAYER_1
  2
AIGNBL01030024
 10
0
 20
0
 30
0
  0
INSERT
  8
LAYER_1
  2
AIGNBL01030025
 10
0
 20
0
 30
0
  0
INSERT
  8
LAYER_1
  2
AIGNBL01030026
 10
0
 20
0
 30
0
  0
INSERT
  8
LAYER_1
  2
AIGNBL01030027
 10
0
 20
0
 30
0
  0
INSERT
  8
LAYER_1
  2
AIGNBL01030028
 10
0
 20
0
 30
0
  0
INSERT
  8
LAYER_1
  2
AIGNBL01030029
 10
0
 20
0
 30
0
  0
INSERT
  8
LAYER_1
  2
AIGNBL0103002A
 10
0
 20
0
 30
0
  0
INSERT
  8
LAYER_1
  2
AIGNBL0103002B
 10
0
 20
0
 30
0
  0
INSERT
  8
LAYER_1
  2
AIGNBL0103002C
 10
0
 20
0
 30
0
  0
INSERT
  8
LAYER_1
  2
AIGNBL0103002D
 10
0
 20
0
 30
0
  0
INSERT
  8
LAYER_1
  2
AIGNBL0103002E
 10
0
 20
0
 30
0
  0
INSERT
  8
LAYER_1
  2
AIGNBL0103002F
 10
0
 20
0
 30
0
  0
INSERT
  8
LAYER_1
  2
AIGNBL01030030
 10
0
 20
0
 30
0
  0
INSERT
  8
LAYER_1
  2
AIGNBL01030031
 10
0
 20
0
 30
0
  0
INSERT
  8
LAYER_1
  2
AIGNBL01030032
 10
0
 20
0
 30
0
  0
INSERT
  8
LAYER_1
  2
AIGNBL01030033
 10
0
 20
0
 30
0
  0
ENDBLK
  0
BLOCK
  8
LAYER_1
  2
AIGNBL01010002
 70
64
 10
0
 20
0
 30
0
  3
AIGNBL01010002
  0
INSERT
  8
LAYER_1
  2
AIGNBL01020003
 10
0
 20
0
 30
0
  0
POLYLINE
  8
LAYER_1
 40
0.05
 41
0.05
 66
1
 10
0
 20
0
 30
0
 70
1
  0
VERTEX
  8
LAYER_1
 10
227.747
 20
371.3737
  0
VERTEX
  8
LAYER_1
 10
302.9996
 20
371.3737
  0
VERTEX
  8
LAYER_1
 10
302.9996
 20
410.699
  0
VERTEX
  8
LAYER_1
 10
227.747
 20
410.699
  0
SEQEND
  0
ENDBLK
  0
BLOCK
  8
LAYER_1
  2
AIGNBL01010004
 70
64
 10
0
 20
0
 30
0
  3
AIGNBL01010004
  0
POLYLINE
  8
LAYER_1
 40
0.1764
 41
0.1764
 66
1
 10
0
 20
0
 30
0
 70
1
  0
VERTEX
  8
LAYER_1
 10
261.0886
 20
313.2818
 42
-0.01883127473
  0
VERTEX
  8
LAYER_1
 10
262.7402
 20
313.0119
 42
-0.03625588311
  0
VERTEX
  8
LAYER_1
 10
263.482
 20
312.8145
 42
-0.08245632307
  0
VERTEX
  8
LAYER_1
 10
263.7475
 20
312.6802
 42
-0.2134865775
  0
VERTEX
  8
LAYER_1
 10
263.8132
 20
312.5769
 42
-0.1995538058
  0
VERTEX
  8
LAYER_1
 10
263.7822
 20
312.5017
 42
-0.09732863879
  0
VERTEX
  8
LAYER_1
 10
263.6403
 20
312.4047
 42
-0.04706366882
  0
VERTEX
  8
LAYER_1
 10
263.228
 20
312.266
 42
-0.02185637958
  0
VERTEX
  8
LAYER_1
 10
262.4771
 20
312.1146
 42
-0.01288192508
  0
VERTEX
  8
LAYER_1
 10
261.1504
 20
311.9364
 42
-0.008023176326
  0
VERTEX
  8
LAYER_1
 10
259.1012
 20
311.7442
 42
-0.005951247752
  0
VERTEX
  8
LAYER_1
 10
255.8333
 20
311.5275
 42
-0.008778025061
  0
VERTEX
  8
LAYER_1
 10
247.1745
 20
311.2051
 42
-0.001330448931
  0
VERTEX
  8
LAYER_1
 10
246.3753
 20
311.1938
 42
-0.01113037589
  0
VERTEX
  8
LAYER_1
 10
235.3039
 20
311.2347
 42
-0.01406727677
  0
VERTEX
  8
LAYER_1
 10
229.774
 20
311.5706
 42
-0.01048131107
  0
VERTEX
  8
LAYER_1
 10
226.6983
 20
311.9169
 42
-0.01883256311
  0
VERTEX
  8
LAYER_1
 10
225.0473
 20
312.1864
 42
-0.03625978757
  0
VERTEX
  8
LAYER_1
 10
224.3057
 20
312.3836
 42
-0.08247068416
  0
VERTEX
  8
LAYER_1
 10
224.0404
 20
312.5178
 42
-0.2135238844
  0
VERTEX
  8
LAYER_1
 10
223.9747
 20
312.6211
 42
-0.199529618
  0
VERTEX
  8
LAYER_1
 10
224.0057
 20
312.6963
 42
-0.09730986018
  0
VERTEX
  8
LAYER_1
 10
224.1476
 20
312.7933
 42
-0.04705774335
  0
VERTEX
  8
LAYER_1
 10
224.5597
 20
312.932
 42
-0.02185454962
  0
VERTEX
  8
LAYER_1
 10
225.3104
 20
313.0835
 42
-0.01288109555
  0
VERTEX
  8
LAYER_1
 10
226.6366
 20
313.2618
 42
-0.008022651806
  0
VERTEX
  8
LAYER_1
 10
228.6851
 20
313.4543
 42
-0.005950649698
  0
VERTEX
  8
LAYER_1
 10
231.952
 20
313.6715
 42
-0.008774895598
  0
VERTEX
  8
LAYER_1
 10
240.6081
 20
313.9953
 42
-0.001329074527
  0
VERTEX
  8
LAYER_1
 10
241.4071
 20
314.0068
 42
-0.01110061224
  0
VERTEX
  8
LAYER_1
 10
252.4808
 20
313.965
 42
-0.01408089257
  0
VERTEX
  8
LAYER_1
 10
258.0121
 20
313.6286
 42
-0.01049830061
  0
SEQEND
  0
POLYLINE
  8
LAYER_1
 40
0.1764
 41
0.1764
 66
1
 10
0
 20
0
 30
0
  0
VERTEX
  8
LAYER_1
 10
244.497
 20
368.8324
 42
0.002575911488
  0
VERTEX
  8
LAYER_1
 10
244.5418
 20
353.1598
  0
SEQEND
  0
POLYLINE
  8
LAYER_1
 40
0.1764
 41
0.1764
 66
1
 10
0
 20
0
 30
0
  0
VERTEX
  8
LAYER_1
 10
263.1033
 20
312.8643
 42
-0.1357486224
  0
VERTEX
  8
LAYER_1
 10
263.0317
 20
312.7335
 42
-0.07787601478
  0
VERTEX
  8
LAYER_1
 10
262.8531
 20
312.6021
 42
-0.04780928191
  0
VERTEX
  8
LAYER_1
 10
262.4805
 20
312.4512
 42
-0.02801673076
  0
VERTEX
  8
LAYER_1
 10
261.8525
 20
312.2983
 42
-0.01821004444
  0
VERTEX
  8
LAYER_1
 10
260.8563
 20
312.1484
 42
-0.01743400677
  0
VERTEX
  8
LAYER_1
 10
258.4118
 20
311.9577
 42
-0.01040499896
  0
VERTEX
  8
LAYER_1
 10
253.5763
 20
311.6599
 42
-0.01063950901
  0
VERTEX
  8
LAYER_1
 10
243.8907
 20
311.4623
 42
-0.01075738768
  0
VERTEX
  8
LAYER_1
 10
234.2045
 20
311.649
 42
-0.01038811062
  0
VERTEX
  8
LAYER_1
 10
229.37
 20
311.9396
 42
-0.02417535556
  0
VERTEX
  8
LAYER_1
 10
226.0555
 20
312.3365
 42
-0.06925682698
  0
VERTEX
  8
LAYER_1
 10
225.0101
 20
312.5681
 42
-0.08713642164
  0
VERTEX
  8
LAYER_1
 10
224.7612
 20
312.708
 42
-0.1632379215
  0
VERTEX
  8
LAYER_1
 10
224.676
 20
312.841
  0
SEQEND
  0
POLYLINE
  8
LAYER_1
 40
0.1764
 41
0.1764
 66
1
 10
0
 20
0
 30
0
  0
VERTEX
  8
LAYER_1
 10
247.9525
 20
338.9857
 42
-0.02324173158
  0
VERTEX
  8
LAYER_1
 10
248.4963
 20
338.91
 42
-0.1271974509
  0
VERTEX
  8
LAYER_1
 10
248.5636
 20
338.8281
 42
-0.1118049179
  0
VERTEX
  8
LAYER_1
 10
248.5967
 20
338.6537
  0
SEQEND
  0
POLYLINE
  8
LAYER_1
 40
0.1764
 41
0.1764
 66
1
 10
0
 20
0
 30
0
  0
VERTEX
  8
LAYER_1
 10
239.0593
 20
338.6426
 42
-0.199250446
  0
VERTEX
  8
LAYER_1
 10
239.1118
 20
338.7445
 42
-0.084026033
  0
VERTEX
  8
LAYER_1
 10
239.2847
 20
338.8492
 42
-0.04235669091
  0
VERTEX
  8
LAYER_1
 10
239.6684
 20
338.971
 42
-0.01593172766
  0
VERTEX
  8
LAYER_1
 10
240.0694
 20
339.0518
 42
-0.02111353205
  0
VERTEX
  8
LAYER_1
 10
241.1908
 20
339.1977
 42
-0.02072840186
  0
VERTEX
  8
LAYER_1
 10
243.4491
 20
339.3088
 42
-0.01796375374
  0
VERTEX
  8
LAYER_1
 10
245.6703
 20
339.2908
 42
-0.0394732195
  0
VERTEX
  8
LAYER_1
 10
247.7413
 20
339.0337
 42
-0.005233998382
  0
VERTEX
  8
LAYER_1
 10
247.9525
 20
338.9857
  0
SEQEND
  0
POLYLINE
  8
LAYER_1
 40
0.1764
 41
0.1764
 66
1
 10
0
 20
0
 30
0
  0
VERTEX
  8
LAYER_1
 10
244.6162
 20
353.1414
 42
0.05487749166
  0
VERTEX
  8
LAYER_1
 10
244.1738
 20
353.2163
 42
0.01980613766
  0
VERTEX
  8
LAYER_1
 10
243.7143
 20
353.2215
 42
0.01976541956
  0
VERTEX
  8
LAYER_1
 10
243.069
 20
353.2692
 42
0.1129787567
  0
VERTEX
  8
LAYER_1
 10
242.9246
 20
353.2188
 42
0.2590890929
  0
VERTEX
  8
LAYER_1
 10
242.8455
 20
353.0532
  0
SEQEND
  0
POLYLINE
  8
LAYER_1
 40
0.1764
 41
0.1764
 66
1
 10
0
 20
0
 30
0
  0
VERTEX
  8
LAYER_1
 10
244.7492
 20
353.0573
 42
0.3549139295
  0
VERTEX
  8
LAYER_1
 10
244.7028
 20
353.1258
 42
-0.0239952672
  0
VERTEX
  8
LAYER_1
 10
244.6162
 20
353.1412
  0
SEQEND
  0
POLYLINE
  8
LAYER_1
 40
0.1764
 41
0.1764
 66
1
 10
0
 20
0
 30
0
  0
VERTEX
  8
LAYER_1
 10
224.3991
 20
312.5053
 42
-0.07825930706
  0
VERTEX
  8
LAYER_1
 10
223.7846
 20
313.4807
 42
-0.07915407743
  0
VERTEX
  8
LAYER_1
 10
223.5335
 20
314.5291
 42
-0.0289625219
  0
VERTEX
  8
LAYER_1
 10
223.5169
 20
315.146
 42
-0.01910085059
  0
VERTEX
  8
LAYER_1
 10
223.5853
 20
316.0838
 42
-0.00288303581
  0
VERTEX
  8
LAYER_1
 10
223.6446
 20
316.6751
 42
-0.03474981414
  0
VERTEX
  8
LAYER_1
 10
223.8522
 20
318.4624
 42
-0.06714089404
  0
VERTEX
  8
LAYER_1
 10
224.2441
 20
319.6459
 42
-0.0731830249
  0
VERTEX
  8
LAYER_1
 10
224.8835
 20
320.5492
 42
-0.0139716956
  0
VERTEX
  8
LAYER_1
 10
225.0512
 20
320.7175
 42
-0.04743383347
  0
VERTEX
  8
LAYER_1
 10
225.3792
 20
320.9606
 42
-0.02645903765
  0
VERTEX
  8
LAYER_1
 10
225.9719
 20
321.2792
 42
-0.01646706494
  0
VERTEX
  8
LAYER_1
 10
226.9487
 20
321.7039
 42
-0.01123969252
  0
VERTEX
  8
LAYER_1
 10
228.5067
 20
322.2835
 42
-0.007669093883
  0
VERTEX
  8
LAYER_1
 10
230.7871
 20
323.0374
 42
-0.0008545368921
  0
VERTEX
  8
LAYER_1
 10
233.2288
 20
323.7914
 42
-0.02066254083
  0
VERTEX
  8
LAYER_1
 10
234.2141
 20
324.0463
 42
0.0377429231
  0
VERTEX
  8
LAYER_1
 10
235.3672
 20
324.3603
 42
0.07658456068
  0
VERTEX
  8
LAYER_1
 10
236.3034
 20
324.8645
 42
0.08006090771
  0
VERTEX
  8
LAYER_1
 10
236.9613
 20
325.5749
 42
0.01182783175
  0
VERTEX
  8
LAYER_1
 10
237.0522
 20
325.7157
 42
0.08249033133
  0
VERTEX
  8
LAYER_1
 10
237.4764
 20
326.7911
 42
0.003594353161
  0
VERTEX
  8
LAYER_1
 10
237.7009
 20
327.807
  0
VERTEX
  8
LAYER_1
 10
238.2197
 20
329.9445
 42
0.006636608212
  0
VERTEX
  8
LAYER_1
 10
238.843
 20
332.392
 42
0.04274488791
  0
VERTEX
  8
LAYER_1
 10
239.0527
 20
334.0319
 42
0.007266201194
  0
VERTEX
  8
LAYER_1
 10
239.0555
 20
334.2439
  0
VERTEX
  8
LAYER_1
 10
239.0593
 20
338.6419
  0
SEQEND
  0
POLYLINE
  8
LAYER_1
 40
0.1764
 41
0.1764
 66
1
 10
0
 20
0
 30
0
  0
VERTEX
  8
LAYER_1
 10
248.5967
 20
338.6536
  0
VERTEX
  8
LAYER_1
 10
248.6184
 20
334.2473
 42
0.05399711001
  0
VERTEX
  8
LAYER_1
 10
248.8165
 20
332.4954
 42
0.01505979682
  0
VERTEX
  8
LAYER_1
 10
249.0929
 20
331.3696
 42
0.003025762272
  0
VERTEX
  8
LAYER_1
 10
249.4745
 20
329.9506
  0
VERTEX
  8
LAYER_1
 10
250.0023
 20
327.8131
 42
0.1049557085
  0
VERTEX
  8
LAYER_1
 10
250.6631
 20
325.7236
 42
0.08567939525
  0
VERTEX
  8
LAYER_1
 10
251.3892
 20
324.8966
 42
0.0784054133
  0
VERTEX
  8
LAYER_1
 10
252.2635
 20
324.4079
 42
0.0283614654
  0
VERTEX
  8
LAYER_1
 10
252.8933
 20
324.2088
 42
-0.004793807368
  0
VERTEX
  8
LAYER_1
 10
254.4988
 20
323.808
 42
-0.005591318752
  0
VERTEX
  8
LAYER_1
 10
258.152
 20
322.6707
 42
-0.009924492647
  0
VERTEX
  8
LAYER_1
 10
260.1895
 20
321.9624
 42
-0.01607708357
  0
VERTEX
  8
LAYER_1
 10
261.529
 20
321.4198
 42
-0.02571540139
  0
VERTEX
  8
LAYER_1
 10
262.2763
 20
321.0439
 42
-0.05446416162
  0
VERTEX
  8
LAYER_1
 10
262.6899
 20
320.7515
 42
-0.07579897338
  0
VERTEX
  8
LAYER_1
 10
263.4391
 20
319.8022
 42
-0.06906761173
  0
VERTEX
  8
LAYER_1
 10
263.8446
 20
318.7561
 42
-0.02637367649
  0
VERTEX
  8
LAYER_1
 10
263.9796
 20
318.0432
 42
-0.01237293205
  0
VERTEX
  8
LAYER_1
 10
264.1189
 20
316.7118
 42
-0.04101371262
  0
VERTEX
  8
LAYER_1
 10
264.2598
 20
314.888
 42
-0.0715580482
  0
VERTEX
  8
LAYER_1
 10
264.0916
 20
313.767
 42
-0.07497736356
  0
VERTEX
  8
LAYER_1
 10
263.6556
 20
312.8823
 42
-0.02679773314
  0
VERTEX
  8
LAYER_1
 10
263.3872
 20
312.5342
  0
SEQEND
  0
POLYLINE
  8
LAYER_1
 40
0.1764
 41
0.1764
 66
1
 10
0
 20
0
 30
0
  0
VERTEX
  8
LAYER_1
 10
244.7492
 20
353.056
  0
VERTEX
  8
LAYER_1
 10
244.7733
 20
344.2112
  0
SEQEND
  0
POLYLINE
  8
LAYER_1
 40
0.1764
 41
0.1764
 66
1
 10
0
 20
0
 30
0
  0
VERTEX
  8
LAYER_1
 10
242.8586
 20
344.2091
  0
VERTEX
  8
LAYER_1
 10
242.8458
 20
353.0532
  0
SEQEND
  0
POLYLINE
  8
LAYER_1
 40
0.1764
 41
0.1764
 66
1
 10
0
 20
0
 30
0
  0
VERTEX
  8
LAYER_1
 10
244.9304
 20
344.174
 42
-0.07049922259
  0
VERTEX
  8
LAYER_1
 10
246.1474
 20
343.6825
 42
-0.07388975968
  0
VERTEX
  8
LAYER_1
 10
246.9578
 20
343.0149
 42
-0.05350704653
  0
VERTEX
  8
LAYER_1
 10
247.5501
 20
342.1967
 42
-0.07644168726
  0
VERTEX
  8
LAYER_1
 10
247.9973
 20
341.0717
 42
-0.03106409628
  0
VERTEX
  8
LAYER_1
 10
248.102
 20
340.4407
 42
-0.02222685549
  0
VERTEX
  8
LAYER_1
 10
248.1465
 20
339.6447
 42
-0.00174528844
  0
VERTEX
  8
LAYER_1
 10
248.1509
 20
338.9335
  0
SEQEND
  0
POLYLINE
  8
LAYER_1
 40
0.1764
 41
0.1764
 66
1
 10
0
 20
0
 30
0
  0
VERTEX
  8
LAYER_1
 10
239.5044
 20
338.923
 42
-0.04590537526
  0
VERTEX
  8
LAYER_1
 10
239.6619
 20
340.8572
 42
-0.05839151801
  0
VERTEX
  8
LAYER_1
 10
240.0428
 20
342.0784
 42
-0.07194994885
  0
VERTEX
  8
LAYER_1
 10
240.6309
 20
342.9886
 42
-0.07416274056
  0
VERTEX
  8
LAYER_1
 10
241.416
 20
343.6466
 42
-0.06864060939
  0
VERTEX
  8
LAYER_1
 10
242.4795
 20
344.1117
 42
-0.01704628324
  0
VERTEX
  8
LAYER_1
 10
242.8586
 20
344.209
  0
SEQEND
  0
POLYLINE
  8
LAYER_1
 40
0.1764
 41
0.1764
 66
1
 10
0
 20
0
 30
0
  0
VERTEX
  8
LAYER_1
 10
244.7733
 20
344.2112
  0
VERTEX
  8
LAYER_1
 10
244.9304
 20
344.1742
  0
SEQEND
  0
POLYLINE
  8
LAYER_1
 40
0.1764
 41
0.1764
 66
1
 10
0
 20
0
 30
0
  0
VERTEX
  8
LAYER_1
 10
243.2747
 20
353.2103
 42
0.0261049116
  0
VERTEX
  8
LAYER_1
 10
243.4199
 20
356.6476
 42
0.008785332842
  0
VERTEX
  8
LAYER_1
 10
243.3714
 20
358.7065
 42
-0.007613623876
  0
VERTEX
  8
LAYER_1
 10
243.1091
 20
366.5029
 42
-0.01775812621
  0
VERTEX
  8
LAYER_1
 10
243.2434
 20
368.8965
  0
SEQEND
  0
POLYLINE
  8
LAYER_1
 40
0.05
 41
0.05
 66
1
 10
0
 20
0
 30
0
 70
1
  0
VERTEX
  8
LAYER_1
 10
0
 20
425.9997
  0
VERTEX
  8
LAYER_1
 10
302.9996
 20
425.9997
  0
VERTEX
  8
LAYER_1
 10
302.9996
 20
0
  0
VERTEX
  8
LAYER_1
 10
0
 20
0
  0
SEQEND
  0
ENDBLK
  0
BLOCK
  8
LAYER_1
  2
AIGNBL01010005
 70
64
 10
0
 20
0
 30
0
  3
AIGNBL01010005
  0
INSERT
  8
LAYER_1
  2
AIGNBL01020006
 10
0
 20
0
 30
0
  0
POLYLINE
  8
LAYER_1
 40
0.1799
 41
0.1799
 66
1
 10
0
 20
0
 30
0
  0
VERTEX
  8
LAYER_1
 10
45.0217
 20
211.4376
  0
VERTEX
  8
LAYER_1
 10
45.0217
 20
156.4284
  0
SEQEND
  0
POLYLINE
  8
LAYER_1
 40
0.1799
 41
0.1799
 66
1
 10
0
 20
0
 30
0
  0
VERTEX
  8
LAYER_1
 10
70.4538
 20
307.6543
  0
VERTEX
  8
LAYER_1
 10
70.4538
 20
290.8148
  0
SEQEND
  0
INSERT
  8
LAYER_1
  2
AIGNBL01020007
 10
0
 20
0
 30
0
  0
POLYLINE
  8
LAYER_1
 40
0.1799
 41
0.1799
 66
1
 10
0
 20
0
 30
0
  0
VERTEX
  8
LAYER_1
 10
78.0528
 20
313.3607
  0
VERTEX
  8
LAYER_1
 10
94.5956
 20
313.3607
  0
SEQEND
  0
INSERT
  8
LAYER_1
  2
AIGNBL01020008
 10
0
 20
0
 30
0
  0
POLYLINE
  8
LAYER_1
 40
0.05
 41
0.05
 66
1
 10
0
 20
0
 30
0
 70
1
  0
VERTEX
  8
LAYER_1
 10
0
 20
425.9997
  0
VERTEX
  8
LAYER_1
 10
302.9996
 20
425.9997
  0
VERTEX
  8
LAYER_1
 10
302.9996
 20
0
  0
VERTEX
  8
LAYER_1
 10
0
 20
0
  0
SEQEND
  0
ENDBLK
  0
BLOCK
  8
LAYER_1
  2
AIGNBL01010009
 70
64
 10
0
 20
0
 30
0
  3
AIGNBL01010009
  0
POLYLINE
  8
LAYER_1
 40
0.1764
 41
0.1764
 66
1
 10
0
 20
0
 30
0
  0
VERTEX
  8
LAYER_1
 10
87.1309
 20
290.8338
  0
VERTEX
  8
LAYER_1
 10
87.3265
 20
222.5582
  0
SEQEND
  0
POLYLINE
  8
LAYER_1
 40
0.1764
 41
0.1764
 66
1
 10
0
 20
0
 30
0
  0
VERTEX
  8
LAYER_1
 10
87.5461
 20
222.5316
 42
0.04776948297
  0
VERTEX
  8
LAYER_1
 10
87.0346
 20
222.628
 42
0.03069099165
  0
VERTEX
  8
LAYER_1
 10
86.2828
 20
222.6438
 42
0.01143242271
  0
VERTEX
  8
LAYER_1
 10
85.3903
 20
222.7121
 42
0.08660114651
  0
VERTEX
  8
LAYER_1
 10
85.2092
 20
222.6598
 42
0.292784516
  0
VERTEX
  8
LAYER_1
 10
85.0665
 20
222.4081
  0
SEQEND
  0
POLYLINE
  8
LAYER_1
 40
0.1764
 41
0.1764
 66
1
 10
0
 20
0
 30
0
  0
VERTEX
  8
LAYER_1
 10
87.7325
 20
222.4142
 42
0.3044495949
  0
VERTEX
  8
LAYER_1
 10
87.6838
 20
222.5037
 42
0.05373811099
  0
VERTEX
  8
LAYER_1
 10
87.5462
 20
222.5316
  0
SEQEND
  0
POLYLINE
  8
LAYER_1
 40
0.1764
 41
0.1764
 66
1
 10
0
 20
0
 30
0
  0
VERTEX
  8
LAYER_1
 10
87.7325
 20
222.4123
  0
VERTEX
  8
LAYER_1
 10
87.7664
 20
210.023
  0
SEQEND
  0
POLYLINE
  8
LAYER_1
 40
0.1764
 41
0.1764
 66
1
 10
0
 20
0
 30
0
  0
VERTEX
  8
LAYER_1
 10
85.084
 20
210.0203
  0
VERTEX
  8
LAYER_1
 10
85.0665
 20
222.4081
  0
SEQEND
  0
POLYLINE
  8
LAYER_1
 40
0.1764
 41
0.1764
 66
1
 10
0
 20
0
 30
0
  0
VERTEX
  8
LAYER_1
 10
85.5862
 20
222.6283
  0
VERTEX
  8
LAYER_1
 10
85.4496
 20
290.8336
  0
SEQEND
  0
POLYLINE
  8
LAYER_1
 40
0.05
 41
0.05
 66
1
 10
0
 20
0
 30
0
 70
1
  0
VERTEX
  8
LAYER_1
 10
0
 20
425.9997
  0
VERTEX
  8
LAYER_1
 10
302.9996
 20
425.9997
  0
VERTEX
  8
LAYER_1
 10
302.9996
 20
0
  0
VERTEX
  8
LAYER_1
 10
0
 20
0
  0
SEQEND
  0
ENDBLK
  0
BLOCK
  8
LAYER_1
  2
AIGNBL0101000A
 70
64
 10
0
 20
0
 30
0
  3
AIGNBL0101000A
  0
POLYLINE
  8
LAYER_1
 40
0.1799
 41
0.1799
 66
1
 10
0
 20
0
 30
0
  0
VERTEX
  8
LAYER_1
 10
87.7983
 20
379.5367
  0
VERTEX
  8
LAYER_1
 10
87.7983
 20
375.7478
  0
SEQEND
  0
POLYLINE
  8
LAYER_1
 40
0.1799
 41
0.1799
 66
1
 10
0
 20
0
 30
0
  0
VERTEX
  8
LAYER_1
 10
89.0471
 20
364.3815
  0
VERTEX
  8
LAYER_1
 10
86.4857
 20
364.3815
  0
SEQEND
  0
POLYLINE
  8
LAYER_1
 40
0.1799
 41
0.1799
 66
1
 10
0
 20
0
 30
0
  0
VERTEX
  8
LAYER_1
 10
86.4857
 20
370.6468
  0
VERTEX
  8
LAYER_1
 10
89.0471
 20
370.6468
  0
SEQEND
  0
POLYLINE
  8
LAYER_1
 40
0.1799
 41
0.1799
 66
1
 10
0
 20
0
 30
0
  0
VERTEX
  8
LAYER_1
 10
87.7983
 20
375.2398
  0
VERTEX
  8
LAYER_1
 10
87.7983
 20
374.9649
  0
SEQEND
  0
POLYLINE
  8
LAYER_1
 40
0.1799
 41
0.1799
 66
1
 10
0
 20
0
 30
0
  0
VERTEX
  8
LAYER_1
 10
87.7983
 20
374.4567
  0
VERTEX
  8
LAYER_1
 10
87.7983
 20
370.6887
  0
SEQEND
  0
POLYLINE
  8
LAYER_1
 40
0.1799
 41
0.1799
 66
1
 10
0
 20
0
 30
0
  0
VERTEX
  8
LAYER_1
 10
87.7983
 20
370.181
  0
VERTEX
  8
LAYER_1
 10
87.7983
 20
369.9061
  0
SEQEND
  0
POLYLINE
  8
LAYER_1
 40
0.1799
 41
0.1799
 66
1
 10
0
 20
0
 30
0
  0
VERTEX
  8
LAYER_1
 10
87.7983
 20
369.419
  0
VERTEX
  8
LAYER_1
 10
87.7983
 20
365.6512
  0
SEQEND
  0
POLYLINE
  8
LAYER_1
 40
0.1799
 41
0.1799
 66
1
 10
0
 20
0
 30
0
  0
VERTEX
  8
LAYER_1
 10
87.7983
 20
365.1436
  0
VERTEX
  8
LAYER_1
 10
87.7983
 20
364.8683
  0
SEQEND
  0
POLYLINE
  8
LAYER_1
 40
0.1799
 41
0.1799
 66
1
 10
0
 20
0
 30
0
  0
VERTEX
  8
LAYER_1
 10
87.7983
 20
364.3602
  0
VERTEX
  8
LAYER_1
 10
87.7983
 20
360.5925
  0
SEQEND
  0
POLYLINE
  8
LAYER_1
 40
0.1799
 41
0.1799
 66
1
 10
0
 20
0
 30
0
  0
VERTEX
  8
LAYER_1
 10
87.7983
 20
360.0848
  0
VERTEX
  8
LAYER_1
 10
87.7983
 20
359.8092
  0
SEQEND
  0
POLYLINE
  8
LAYER_1
 40
0.1799
 41
0.1799
 66
1
 10
0
 20
0
 30
0
  0
VERTEX
  8
LAYER_1
 10
87.7983
 20
359.3228
  0
VERTEX
  8
LAYER_1
 10
87.7983
 20
355.5339
  0
SEQEND
  0
POLYLINE
  8
LAYER_1
 40
0.1799
 41
0.1799
 66
1
 10
0
 20
0
 30
0
  0
VERTEX
  8
LAYER_1
 10
99.7996
 20
367.5352
  0
VERTEX
  8
LAYER_1
 10
95.9897
 20
367.5352
  0
SEQEND
  0
POLYLINE
  8
LAYER_1
 40
0.1799
 41
0.1799
 66
1
 10
0
 20
0
 30
0
  0
VERTEX
  8
LAYER_1
 10
95.4815
 20
367.5352
  0
VERTEX
  8
LAYER_1
 10
95.2066
 20
367.5352
  0
SEQEND
  0
POLYLINE
  8
LAYER_1
 40
0.1799
 41
0.1799
 66
1
 10
0
 20
0
 30
0
  0
VERTEX
  8
LAYER_1
 10
94.7195
 20
367.5352
  0
VERTEX
  8
LAYER_1
 10
90.9309
 20
367.5352
  0
SEQEND
  0
POLYLINE
  8
LAYER_1
 40
0.1799
 41
0.1799
 66
1
 10
0
 20
0
 30
0
  0
VERTEX
  8
LAYER_1
 10
90.4441
 20
367.5352
  0
VERTEX
  8
LAYER_1
 10
90.169
 20
367.5352
  0
SEQEND
  0
POLYLINE
  8
LAYER_1
 40
0.1799
 41
0.1799
 66
1
 10
0
 20
0
 30
0
  0
VERTEX
  8
LAYER_1
 10
89.6607
 20
367.5352
  0
VERTEX
  8
LAYER_1
 10
85.8929
 20
367.5352
  0
SEQEND
  0
POLYLINE
  8
LAYER_1
 40
0.1799
 41
0.1799
 66
1
 10
0
 20
0
 30
0
  0
VERTEX
  8
LAYER_1
 10
85.385
 20
367.5352
  0
VERTEX
  8
LAYER_1
 10
85.1102
 20
367.5352
  0
SEQEND
  0
POLYLINE
  8
LAYER_1
 40
0.1799
 41
0.1799
 66
1
 10
0
 20
0
 30
0
  0
VERTEX
  8
LAYER_1
 10
84.6233
 20
367.5352
  0
VERTEX
  8
LAYER_1
 10
80.8345
 20
367.5352
  0
SEQEND
  0
POLYLINE
  8
LAYER_1
 40
0.1799
 41
0.1799
 66
1
 10
0
 20
0
 30
0
  0
VERTEX
  8
LAYER_1
 10
80.3476
 20
367.5352
  0
VERTEX
  8
LAYER_1
 10
80.0723
 20
367.5352
  0
SEQEND
  0
POLYLINE
  8
LAYER_1
 40
0.1799
 41
0.1799
 66
1
 10
0
 20
0
 30
0
  0
VERTEX
  8
LAYER_1
 10
79.5641
 20
367.5352
  0
VERTEX
  8
LAYER_1
 10
75.7964
 20
367.5352
  0
SEQEND
  0
POLYLINE
  8
LAYER_1
 40
0.1799
 41
0.1799
 66
1
 10
0
 20
0
 30
0
  0
VERTEX
  8
LAYER_1
 10
90.9733
 20
362.2649
  0
VERTEX
  8
LAYER_1
 10
90.9733
 20
372.7635
  0
SEQEND
  0
POLYLINE
  8
LAYER_1
 40
0.1799
 41
0.1799
 66
1
 10
0
 20
0
 30
0
  0
VERTEX
  8
LAYER_1
 10
84.5809
 20
372.7635
  0
VERTEX
  8
LAYER_1
 10
84.5809
 20
362.2649
  0
SEQEND
  0
POLYLINE
  8
LAYER_1
 40
0.1799
 41
0.1799
 66
1
 10
0
 20
0
 30
0
  0
VERTEX
  8
LAYER_1
 10
86.0836
 20
374.2662
  0
VERTEX
  8
LAYER_1
 10
89.4707
 20
374.2662
  0
SEQEND
  0
POLYLINE
  8
LAYER_1
 40
0.1799
 41
0.1799
 66
1
 10
0
 20
0
 30
0
  0
VERTEX
  8
LAYER_1
 10
89.4705
 20
360.7621
  0
VERTEX
  8
LAYER_1
 10
86.0835
 20
360.7621
  0
SEQEND
  0
POLYLINE
  8
LAYER_1
 40
0.1799
 41
0.1799
 66
1
 10
0
 20
0
 30
0
  0
VERTEX
  8
LAYER_1
 10
97.0056
 20
367.5352
  0
VERTEX
  8
LAYER_1
 10
97.7889
 20
367.5352
  0
SEQEND
  0
POLYLINE
  8
LAYER_1
 40
0.1799
 41
0.1799
 66
1
 10
0
 20
0
 30
0
  0
VERTEX
  8
LAYER_1
 10
78.5482
 20
367.5352
  0
VERTEX
  8
LAYER_1
 10
77.7865
 20
367.5352
  0
SEQEND
  0
POLYLINE
  8
LAYER_1
 40
0.1799
 41
0.1799
 66
1
 10
0
 20
0
 30
0
  0
VERTEX
  8
LAYER_1
 10
97.7887
 20
367.5565
  0
VERTEX
  8
LAYER_1
 10
97.7467
 20
368.5513
  0
VERTEX
  8
LAYER_1
 10
97.5982
 20
369.5251
 42
0.07032422428
  0
VERTEX
  8
LAYER_1
 10
96.7114
 20
372.0834
 42
0.04133491551
  0
VERTEX
  8
LAYER_1
 10
95.8428
 20
373.481
 42
0.06030634061
  0
VERTEX
  8
LAYER_1
 10
94.1536
 20
375.262
 42
0.08041084032
  0
VERTEX
  8
LAYER_1
 10
91.3322
 20
376.919
 42
0.04189564772
  0
VERTEX
  8
LAYER_1
 10
89.7429
 20
377.3849
 42
0.03790152221
  0
VERTEX
  8
LAYER_1
 10
88.2852
 20
377.5683
  0
VERTEX
  8
LAYER_1
 10
87.3115
 20
377.5683
  0
VERTEX
  8
LAYER_1
 10
86.3375
 20
377.4626
 42
0.07065189268
  0
VERTEX
  8
LAYER_1
 10
83.7335
 20
376.7165
 42
0.04154699669
  0
VERTEX
  8
LAYER_1
 10
82.29
 20
375.9235
 42
0.1627350027
  0
VERTEX
  8
LAYER_1
 10
78.3283
 20
370.8212
 42
0.06024670226
  0
VERTEX
  8
LAYER_1
 10
77.8497
 20
368.5725
  0
VERTEX
  8
LAYER_1
 10
77.7865
 20
367.5989
  0
VERTEX
  8
LAYER_1
 10
77.7865
 20
367.5565
  0
VERTEX
  8
LAYER_1
 10
77.8497
 20
366.583
  0
VERTEX
  8
LAYER_1
 10
77.9978
 20
365.6092
 42
0.04935411546
  0
VERTEX
  8
LAYER_1
 10
78.474
 20
363.9135
 42
0.04364806108
  0
VERTEX
  8
LAYER_1
 10
79.2044
 20
362.4357
 42
0.04131651819
  0
VERTEX
  8
LAYER_1
 10
80.1733
 20
361.1013
 42
0.05974166554
  0
VERTEX
  8
LAYER_1
 10
81.9989
 20
359.4298
 42
0.03997560229
  0
VERTEX
  8
LAYER_1
 10
83.414
 20
358.5766
 42
0.04145450847
  0
VERTEX
  8
LAYER_1
 10
84.9475
 20
357.9651
 42
0.043847542
  0
VERTEX
  8
LAYER_1
 10
86.5649
 20
357.6234
 42
0.02016280768
  0
VERTEX
  8
LAYER_1
 10
87.2901
 20
357.5659
  0
VERTEX
  8
LAYER_1
 10
88.2637
 20
357.5659
  0
VERTEX
  8
LAYER_1
 10
89.2376
 20
357.6717
 42
0.09117042747
  0
VERTEX
  8
LAYER_1
 10
92.5888
 20
358.789
 42
0.06142330043
  0
VERTEX
  8
LAYER_1
 10
94.5775
 20
360.2267
 42
0.1216730171
  0
VERTEX
  8
LAYER_1
 10
97.2497
 20
364.3105
 42
0.05850900398
  0
VERTEX
  8
LAYER_1
 10
97.7467
 20
366.5616
  0
VERTEX
  8
LAYER_1
 10
97.7887
 20
367.535
  0
VERTEX
  8
LAYER_1
 10
97.7887
 20
367.5565
  0
SEQEND
  0
POLYLINE
  8
LAYER_1
 40
0.1799
 41
0.1799
 66
1
 10
0
 20
0
 30
0
  0
VERTEX
  8
LAYER_1
 10
86.0836
 20
374.2876
  0
VERTEX
  8
LAYER_1
 10
85.7238
 20
374.2452
  0
VERTEX
  8
LAYER_1
 10
85.3428
 20
374.0971
  0
VERTEX
  8
LAYER_1
 10
84.9617
 20
373.8004
  0
VERTEX
  8
LAYER_1
 10
84.7082
 20
373.4194
  0
VERTEX
  8
LAYER_1
 10
84.6231
 20
373.0387
  0
VERTEX
  8
LAYER_1
 10
84.5809
 20
372.7848
  0
SEQEND
  0
POLYLINE
  8
LAYER_1
 40
0.1799
 41
0.1799
 66
1
 10
0
 20
0
 30
0
  0
VERTEX
  8
LAYER_1
 10
90.9733
 20
372.7848
  0
VERTEX
  8
LAYER_1
 10
90.9094
 20
373.1659
  0
VERTEX
  8
LAYER_1
 10
90.7612
 20
373.5469
  0
VERTEX
  8
LAYER_1
 10
90.4653
 20
373.9065
  0
VERTEX
  8
LAYER_1
 10
90.0839
 20
374.1603
  0
VERTEX
  8
LAYER_1
 10
89.7244
 20
374.2662
  0
VERTEX
  8
LAYER_1
 10
89.4705
 20
374.2876
  0
SEQEND
  0
POLYLINE
  8
LAYER_1
 40
0.1799
 41
0.1799
 66
1
 10
0
 20
0
 30
0
  0
VERTEX
  8
LAYER_1
 10
84.5809
 20
362.2859
  0
VERTEX
  8
LAYER_1
 10
84.6444
 20
361.9261
  0
VERTEX
  8
LAYER_1
 10
84.7926
 20
361.545
  0
VERTEX
  8
LAYER_1
 10
85.0885
 20
361.164
  0
VERTEX
  8
LAYER_1
 10
85.4699
 20
360.9104
  0
VERTEX
  8
LAYER_1
 10
85.8509
 20
360.8253
  0
VERTEX
  8
LAYER_1
 10
86.0836
 20
360.7831
  0
SEQEND
  0
POLYLINE
  8
LAYER_1
 40
0.1799
 41
0.1799
 66
1
 10
0
 20
0
 30
0
  0
VERTEX
  8
LAYER_1
 10
89.4705
 20
360.7831
  0
VERTEX
  8
LAYER_1
 10
89.8303
 20
360.8471
  0
VERTEX
  8
LAYER_1
 10
90.2114
 20
360.9952
  0
VERTEX
  8
LAYER_1
 10
90.5924
 20
361.2911
  0
VERTEX
  8
LAYER_1
 10
90.846
 20
361.6725
  0
VERTEX
  8
LAYER_1
 10
90.9311
 20
362.032
  0
VERTEX
  8
LAYER_1
 10
90.9733
 20
362.2859
  0
SEQEND
  0
POLYLINE
  8
LAYER_1
 40
0.1799
 41
0.1799
 66
1
 10
0
 20
0
 30
0
  0
VERTEX
  8
LAYER_1
 10
87.7559
 20
364.9317
  0
VERTEX
  8
LAYER_1
 10
87.5438
 20
364.8894
  0
VERTEX
  8
LAYER_1
 10
87.3325
 20
364.72
  0
VERTEX
  8
LAYER_1
 10
87.2479
 20
364.4873
  0
VERTEX
  8
LAYER_1
 10
87.2691
 20
364.2754
  0
VERTEX
  8
LAYER_1
 10
87.3957
 20
364.0427
  0
VERTEX
  8
LAYER_1
 10
87.6077
 20
363.9158
  0
VERTEX
  8
LAYER_1
 10
87.8405
 20
363.8946
  0
VERTEX
  8
LAYER_1
 10
88.073
 20
364.0003
  0
VERTEX
  8
LAYER_1
 10
88.2427
 20
364.1909
  0
VERTEX
  8
LAYER_1
 10
88.2851
 20
364.4238
  0
VERTEX
  8
LAYER_1
 10
88.2427
 20
364.6355
  0
VERTEX
  8
LAYER_1
 10
88.073
 20
364.8473
  0
VERTEX
  8
LAYER_1
 10
87.8405
 20
364.9317
  0
VERTEX
  8
LAYER_1
 10
87.7559
 20
364.9317
  0
SEQEND
  0
POLYLINE
  8
LAYER_1
 40
0.1799
 41
0.1799
 66
1
 10
0
 20
0
 30
0
  0
VERTEX
  8
LAYER_1
 10
87.7559
 20
370.139
  0
VERTEX
  8
LAYER_1
 10
87.9888
 20
370.181
  0
VERTEX
  8
LAYER_1
 10
88.2003
 20
370.3719
  0
VERTEX
  8
LAYER_1
 10
88.2851
 20
370.5834
  0
VERTEX
  8
LAYER_1
 10
88.2635
 20
370.8163
  0
VERTEX
  8
LAYER_1
 10
88.1369
 20
371.0492
  0
VERTEX
  8
LAYER_1
 10
87.9249
 20
371.1758
  0
VERTEX
  8
LAYER_1
 10
87.692
 20
371.1973
  0
VERTEX
  8
LAYER_1
 10
87.4596
 20
371.0912
  0
VERTEX
  8
LAYER_1
 10
87.2903
 20
370.901
  0
VERTEX
  8
LAYER_1
 10
87.2479
 20
370.6682
  0
VERTEX
  8
LAYER_1
 10
87.2903
 20
370.4353
  0
VERTEX
  8
LAYER_1
 10
87.4596
 20
370.2444
  0
VERTEX
  8
LAYER_1
 10
87.692
 20
370.139
  0
VERTEX
  8
LAYER_1
 10
87.7559
 20
370.139
  0
SEQEND
  0
POLYLINE
  8
LAYER_1
 40
0.1799
 41
0.1799
 66
1
 10
0
 20
0
 30
0
  0
VERTEX
  8
LAYER_1
 10
107.2079
 20
370.6468
  0
VERTEX
  8
LAYER_1
 10
87.9889
 20
370.6468
  0
SEQEND
  0
POLYLINE
  8
LAYER_1
 40
0.1799
 41
0.1799
 66
1
 10
0
 20
0
 30
0
  0
VERTEX
  8
LAYER_1
 10
87.9888
 20
364.3815
  0
VERTEX
  8
LAYER_1
 10
107.2078
 20
364.3815
  0
SEQEND
  0
POLYLINE
  8
LAYER_1
 40
0.1799
 41
0.1799
 66
1
 10
0
 20
0
 30
0
  0
VERTEX
  8
LAYER_1
 10
105.7052
 20
370.6468
  0
VERTEX
  8
LAYER_1
 10
105.7052
 20
368.7634
  0
VERTEX
  8
LAYER_1
 10
105.7052
 20
366.2963
  0
VERTEX
  8
LAYER_1
 10
105.7052
 20
364.4132
  0
SEQEND
  0
POLYLINE
  8
LAYER_1
 40
0.1799
 41
0.1799
 66
1
 10
0
 20
0
 30
0
  0
VERTEX
  8
LAYER_1
 10
71.9656
 20
353.6921
  0
VERTEX
  8
LAYER_1
 10
71.9233
 20
354.3274
  0
VERTEX
  8
LAYER_1
 10
71.7751
 20
354.9413
 42
0.06983168036
  0
VERTEX
  8
LAYER_1
 10
71.1654
 20
356.0838
 42
0.06233625386
  0
VERTEX
  8
LAYER_1
 10
70.4684
 20
356.8184
 42
0.2053509856
  0
VERTEX
  8
LAYER_1
 10
67.4555
 20
357.6655
 42
0.3044784232
  0
VERTEX
  8
LAYER_1
 10
64.0528
 20
354.5605
 42
0.009835217762
  0
VERTEX
  8
LAYER_1
 10
64.0066
 20
354.3694
  0
VERTEX
  8
LAYER_1
 10
63.9642
 20
353.7348
  0
VERTEX
  8
LAYER_1
 10
64.0066
 20
353.1209
 42
0.07090110315
  0
VERTEX
  8
LAYER_1
 10
64.3965
 20
351.8943
 42
0.06840138658
  0
VERTEX
  8
LAYER_1
 10
64.9972
 20
351.0009
 42
0.1309729565
  0
VERTEX
  8
LAYER_1
 10
66.6748
 20
349.9074
 42
0.2270383096
  0
VERTEX
  8
LAYER_1
 10
70.2415
 20
350.3854
 42
0.1401137277
  0
VERTEX
  8
LAYER_1
 10
71.5781
 20
352.0105
 42
0.05552634161
  0
VERTEX
  8
LAYER_1
 10
71.8811
 20
352.9728
  0
VERTEX
  8
LAYER_1
 10
71.9656
 20
353.5867
  0
VERTEX
  8
LAYER_1
 10
71.9656
 20
353.6921
  0
SEQEND
  0
POLYLINE
  8
LAYER_1
 40
0.1799
 41
0.1799
 66
1
 10
0
 20
0
 30
0
  0
VERTEX
  8
LAYER_1
 10
82.2313
 20
362.5398
  0
VERTEX
  8
LAYER_1
 10
84.5809
 20
365.3126
  0
VERTEX
  8
LAYER_1
 10
81.173
 20
364.0853
  0
SEQEND
  0
POLYLINE
  8
LAYER_1
 40
0.1799
 41
0.1799
 66
1
 10
0
 20
0
 30
0
  0
VERTEX
  8
LAYER_1
 10
71.246
 20
355.9996
  0
VERTEX
  8
LAYER_1
 10
84.5809
 20
365.3126
  0
SEQEND
  0
POLYLINE
  8
LAYER_1
 40
0.05
 41
0.05
 66
1
 10
0
 20
0
 30
0
 70
1
  0
VERTEX
  8
LAYER_1
 10
0
 20
425.9997
  0
VERTEX
  8
LAYER_1
 10
302.9996
 20
425.9997
  0
VERTEX
  8
LAYER_1
 10
302.9996
 20
0
  0
VERTEX
  8
LAYER_1
 10
0
 20
0
  0
SEQEND
  0
ENDBLK
  0
BLOCK
  8
LAYER_1
  2
AIGNBL0101000B
 70
64
 10
0
 20
0
 30
0
  3
AIGNBL0101000B
  0
POLYLINE
  8
LAYER_1
 40
0.1799
 41
0.1799
 66
1
 10
0
 20
0
 30
0
  0
VERTEX
  8
LAYER_1
 10
66.9489
 20
279.2131
  0
VERTEX
  8
LAYER_1
 10
66.9065
 20
279.8484
  0
VERTEX
  8
LAYER_1
 10
66.7584
 20
280.4623
 42
0.06982933763
  0
VERTEX
  8
LAYER_1
 10
66.1487
 20
281.6048
 42
0.06233438714
  0
VERTEX
  8
LAYER_1
 10
65.4517
 20
282.3394
 42
0.2053483383
  0
VERTEX
  8
LAYER_1
 10
62.4387
 20
283.1865
 42
0.3044803557
  0
VERTEX
  8
LAYER_1
 10
59.0361
 20
280.0815
 42
0.009835043142
  0
VERTEX
  8
LAYER_1
 10
58.9899
 20
279.8904
  0
VERTEX
  8
LAYER_1
 10
58.9475
 20
279.2558
  0
VERTEX
  8
LAYER_1
 10
58.9899
 20
278.6419
 42
0.0709008917
  0
VERTEX
  8
LAYER_1
 10
59.3798
 20
277.4154
 42
0.06840227085
  0
VERTEX
  8
LAYER_1
 10
59.9805
 20
276.5219
 42
0.1309755663
  0
VERTEX
  8
LAYER_1
 10
61.6581
 20
275.4285
 42
0.2270366121
  0
VERTEX
  8
LAYER_1
 10
65.2247
 20
275.9065
 42
0.1401102123
  0
VERTEX
  8
LAYER_1
 10
66.5613
 20
277.5316
 42
0.05552677325
  0
VERTEX
  8
LAYER_1
 10
66.8643
 20
278.4938
  0
VERTEX
  8
LAYER_1
 10
66.9489
 20
279.1077
  0
VERTEX
  8
LAYER_1
 10
66.9489
 20
279.2131
  0
SEQEND
  0
POLYLINE
  8
LAYER_1
 40
0.1799
 41
0.1799
 66
1
 10
0
 20
0
 30
0
  0
VERTEX
  8
LAYER_1
 10
77.2146
 20
288.0608
  0
VERTEX
  8
LAYER_1
 10
79.5641
 20
290.8336
  0
VERTEX
  8
LAYER_1
 10
76.1562
 20
289.6063
  0
SEQEND
  0
POLYLINE
  8
LAYER_1
 40
0.1799
 41
0.1799
 66
1
 10
0
 20
0
 30
0
  0
VERTEX
  8
LAYER_1
 10
66.2292
 20
281.5206
  0
VERTEX
  8
LAYER_1
 10
79.5641
 20
290.8336
  0
SEQEND
  0
POLYLINE
  8
LAYER_1
 40
0.05
 41
0.05
 66
1
 10
0
 20
0
 30
0
 70
1
  0
VERTEX
  8
LAYER_1
 10
0
 20
425.9997
  0
VERTEX
  8
LAYER_1
 10
302.9996
 20
425.9997
  0
VERTEX
  8
LAYER_1
 10
302.9996
 20
0
  0
VERTEX
  8
LAYER_1
 10
0
 20
0
  0
SEQEND
  0
ENDBLK
  0
BLOCK
  8
LAYER_1
  2
AIGNBL0101000C
 70
64
 10
0
 20
0
 30
0
  3
AIGNBL0101000C
  0
POLYLINE
  8
LAYER_1
 40
0.1799
 41
0.1799
 66
1
 10
0
 20
0
 30
0
  0
VERTEX
  8
LAYER_1
 10
72.0854
 20
239.6236
  0
VERTEX
  8
LAYER_1
 10
72.043
 20
240.2589
  0
VERTEX
  8
LAYER_1
 10
71.8948
 20
240.8728
 42
0.06983168036
  0
VERTEX
  8
LAYER_1
 10
71.2851
 20
242.0153
 42
0.06233625386
  0
VERTEX
  8
LAYER_1
 10
70.5881
 20
242.7499
 42
0.2053509856
  0
VERTEX
  8
LAYER_1
 10
67.5752
 20
243.597
 42
0.3044784232
  0
VERTEX
  8
LAYER_1
 10
64.1725
 20
240.492
 42
0.009835217762
  0
VERTEX
  8
LAYER_1
 10
64.1263
 20
240.3009
  0
VERTEX
  8
LAYER_1
 10
64.0839
 20
239.6663
  0
VERTEX
  8
LAYER_1
 10
64.1263
 20
239.0524
 42
0.07089911402
  0
VERTEX
  8
LAYER_1
 10
64.5162
 20
237.8258
 42
0.06839924296
  0
VERTEX
  8
LAYER_1
 10
65.1169
 20
236.9324
 42
0.1309700554
  0
VERTEX
  8
LAYER_1
 10
66.7946
 20
235.8389
 42
0.2270422706
  0
VERTEX
  8
LAYER_1
 10
70.3611
 20
236.3169
 42
0.1401193194
  0
VERTEX
  8
LAYER_1
 10
71.6976
 20
237.942
 42
0.05552696299
  0
VERTEX
  8
LAYER_1
 10
72.0006
 20
238.9043
  0
VERTEX
  8
LAYER_1
 10
72.0854
 20
239.5182
  0
VERTEX
  8
LAYER_1
 10
72.0854
 20
239.6236
  0
SEQEND
  0
POLYLINE
  8
LAYER_1
 40
0.1799
 41
0.1799
 66
1
 10
0
 20
0
 30
0
  0
VERTEX
  8
LAYER_1
 10
82.351
 20
248.4713
  0
VERTEX
  8
LAYER_1
 10
84.7006
 20
251.2441
  0
VERTEX
  8
LAYER_1
 10
81.2927
 20
250.0168
  0
SEQEND
  0
POLYLINE
  8
LAYER_1
 40
0.1799
 41
0.1799
 66
1
 10
0
 20
0
 30
0
  0
VERTEX
  8
LAYER_1
 10
71.3657
 20
241.9311
  0
VERTEX
  8
LAYER_1
 10
84.7006
 20
251.2441
  0
SEQEND
  0
POLYLINE
  8
LAYER_1
 40
0.05
 41
0.05
 66
1
 10
0
 20
0
 30
0
 70
1
  0
VERTEX
  8
LAYER_1
 10
0
 20
425.9997
  0
VERTEX
  8
LAYER_1
 10
302.9996
 20
425.9997
  0
VERTEX
  8
LAYER_1
 10
302.9996
 20
0
  0
VERTEX
  8
LAYER_1
 10
0
 20
0
  0
SEQEND
  0
ENDBLK
  0
BLOCK
  8
LAYER_1
  2
AIGNBL0101000D
 70
64
 10
0
 20
0
 30
0
  3
AIGNBL0101000D
  0
POLYLINE
  8
LAYER_1
 40
0.1799
 41
0.1799
 66
1
 10
0
 20
0
 30
0
  0
VERTEX
  8
LAYER_1
 10
115.9318
 20
205.9278
  0
VERTEX
  8
LAYER_1
 10
115.8894
 20
206.5631
  0
VERTEX
  8
LAYER_1
 10
115.7413
 20
207.177
 42
0.06983078321
  0
VERTEX
  8
LAYER_1
 10
115.1316
 20
208.3195
 42
0.06233618365
  0
VERTEX
  8
LAYER_1
 10
114.4346
 20
209.0541
 42
0.205350949
  0
VERTEX
  8
LAYER_1
 10
111.4216
 20
209.9011
 42
0.304462636
  0
VERTEX
  8
LAYER_1
 10
108.0189
 20
206.7962
 42
0.00983517693
  0
VERTEX
  8
LAYER_1
 10
107.9727
 20
206.6051
  0
VERTEX
  8
LAYER_1
 10
107.9304
 20
205.9705
  0
VERTEX
  8
LAYER_1
 10
107.9727
 20
205.3566
 42
0.0708977366
  0
VERTEX
  8
LAYER_1
 10
108.3626
 20
204.13
 42
0.068400214
  0
VERTEX
  8
LAYER_1
 10
108.9633
 20
203.2365
 42
0.1309751016
  0
VERTEX
  8
LAYER_1
 10
110.641
 20
202.1431
 42
0.2270449046
  0
VERTEX
  8
LAYER_1
 10
114.2075
 20
202.6211
 42
0.1401145369
  0
VERTEX
  8
LAYER_1
 10
115.544
 20
204.2462
 42
0.05552682193
  0
VERTEX
  8
LAYER_1
 10
115.847
 20
205.2085
  0
VERTEX
  8
LAYER_1
 10
115.9318
 20
205.8224
  0
VERTEX
  8
LAYER_1
 10
115.9318
 20
205.9278
  0
SEQEND
  0
POLYLINE
  8
LAYER_1
 40
0.1799
 41
0.1799
 66
1
 10
0
 20
0
 30
0
  0
VERTEX
  8
LAYER_1
 10
96.9452
 20
197.2166
  0
VERTEX
  8
LAYER_1
 10
94.5956
 20
194.4436
  0
VERTEX
  8
LAYER_1
 10
98.0035
 20
195.6711
  0
SEQEND
  0
POLYLINE
  8
LAYER_1
 40
0.1799
 41
0.1799
 66
1
 10
0
 20
0
 30
0
  0
VERTEX
  8
LAYER_1
 10
107.9305
 20
203.7567
  0
VERTEX
  8
LAYER_1
 10
94.5954
 20
194.4436
  0
SEQEND
  0
POLYLINE
  8
LAYER_1
 40
0.05
 41
0.05
 66
1
 10
0
 20
0
 30
0
 70
1
  0
VERTEX
  8
LAYER_1
 10
0
 20
425.9997
  0
VERTEX
  8
LAYER_1
 10
302.9996
 20
425.9997
  0
VERTEX
  8
LAYER_1
 10
302.9996
 20
0
  0
VERTEX
  8
LAYER_1
 10
0
 20
0
  0
SEQEND
  0
ENDBLK
  0
BLOCK
  8
LAYER_1
  2
AIGNBL0101000E
 70
64
 10
0
 20
0
 30
0
  3
AIGNBL0101000E
  0
POLYLINE
  8
LAYER_1
 40
0.1799
 41
0.1799
 66
1
 10
0
 20
0
 30
0
  0
VERTEX
  8
LAYER_1
 10
109.6665
 20
187.6712
  0
VERTEX
  8
LAYER_1
 10
109.6241
 20
188.3065
  0
VERTEX
  8
LAYER_1
 10
109.476
 20
188.9204
 42
0.06983306604
  0
VERTEX
  8
LAYER_1
 10
108.8663
 20
190.0629
 42
0.06233792487
  0
VERTEX
  8
LAYER_1
 10
108.1693
 20
190.7975
 42
0.2053534543
  0
VERTEX
  8
LAYER_1
 10
105.1564
 20
191.6445
 42
0.3044662828
  0
VERTEX
  8
LAYER_1
 10
101.7537
 20
188.5396
 42
0.009835489891
  0
VERTEX
  8
LAYER_1
 10
101.7075
 20
188.3485
  0
VERTEX
  8
LAYER_1
 10
101.6651
 20
187.714
  0
VERTEX
  8
LAYER_1
 10
101.7075
 20
187.1
 42
0.07089962365
  0
VERTEX
  8
LAYER_1
 10
102.0974
 20
185.8734
 42
0.06840208951
  0
VERTEX
  8
LAYER_1
 10
102.6981
 20
184.9799
 42
0.1309774917
  0
VERTEX
  8
LAYER_1
 10
104.3757
 20
183.8865
 42
0.227043793
  0
VERTEX
  8
LAYER_1
 10
107.9423
 20
184.3645
 42
0.1401146389
  0
VERTEX
  8
LAYER_1
 10
109.2788
 20
185.9896
 42
0.05552758521
  0
VERTEX
  8
LAYER_1
 10
109.5818
 20
186.9519
  0
VERTEX
  8
LAYER_1
 10
109.6665
 20
187.5658
  0
VERTEX
  8
LAYER_1
 10
109.6665
 20
187.6712
  0
SEQEND
  0
POLYLINE
  8
LAYER_1
 40
0.1799
 41
0.1799
 66
1
 10
0
 20
0
 30
0
  0
VERTEX
  8
LAYER_1
 10
90.6799
 20
178.96
  0
VERTEX
  8
LAYER_1
 10
88.3304
 20
176.187
  0
VERTEX
  8
LAYER_1
 10
91.7382
 20
177.4145
  0
SEQEND
  0
POLYLINE
  8
LAYER_1
 40
0.1799
 41
0.1799
 66
1
 10
0
 20
0
 30
0
  0
VERTEX
  8
LAYER_1
 10
101.6653
 20
185.5001
  0
VERTEX
  8
LAYER_1
 10
88.3304
 20
176.187
  0
SEQEND
  0
POLYLINE
  8
LAYER_1
 40
0.05
 41
0.05
 66
1
 10
0
 20
0
 30
0
 70
1
  0
VERTEX
  8
LAYER_1
 10
0
 20
425.9997
  0
VERTEX
  8
LAYER_1
 10
302.9996
 20
425.9997
  0
VERTEX
  8
LAYER_1
 10
302.9996
 20
0
  0
VERTEX
  8
LAYER_1
 10
0
 20
0
  0
SEQEND
  0
ENDBLK
  0
BLOCK
  8
LAYER_1
  2
AIGNBL0101000F
 70
64
 10
0
 20
0
 30
0
  3
AIGNBL0101000F
  0
POLYLINE
  8
LAYER_1
 40
0.1799
 41
0.1799
 66
1
 10
0
 20
0
 30
0
  0
VERTEX
  8
LAYER_1
 10
117.6678
 20
187.6712
  0
VERTEX
  8
LAYER_1
 10
117.6254
 20
188.3065
  0
VERTEX
  8
LAYER_1
 10
117.4772
 20
188.9204
 42
0.06983306604
  0
VERTEX
  8
LAYER_1
 10
116.8675
 20
190.0629
 42
0.06233792487
  0
VERTEX
  8
LAYER_1
 10
116.1705
 20
190.7975
 42
0.2053534543
  0
VERTEX
  8
LAYER_1
 10
113.1576
 20
191.6445
 42
0.3044662828
  0
VERTEX
  8
LAYER_1
 10
109.7549
 20
188.5396
 42
0.009835489891
  0
VERTEX
  8
LAYER_1
 10
109.7087
 20
188.3485
  0
VERTEX
  8
LAYER_1
 10
109.6663
 20
187.714
  0
VERTEX
  8
LAYER_1
 10
109.7087
 20
187.1
 42
0.0708977366
  0
VERTEX
  8
LAYER_1
 10
110.0986
 20
185.8734
 42
0.068400214
  0
VERTEX
  8
LAYER_1
 10
110.6993
 20
184.9799
 42
0.1309751016
  0
VERTEX
  8
LAYER_1
 10
112.377
 20
183.8865
 42
0.2270449046
  0
VERTEX
  8
LAYER_1
 10
115.9435
 20
184.3645
 42
0.1401145369
  0
VERTEX
  8
LAYER_1
 10
117.28
 20
185.9896
 42
0.05552682193
  0
VERTEX
  8
LAYER_1
 10
117.583
 20
186.9519
  0
VERTEX
  8
LAYER_1
 10
117.6678
 20
187.5658
  0
VERTEX
  8
LAYER_1
 10
117.6678
 20
187.6712
  0
SEQEND
  0
POLYLINE
  8
LAYER_1
 40
0.05
 41
0.05
 66
1
 10
0
 20
0
 30
0
 70
1
  0
VERTEX
  8
LAYER_1
 10
0
 20
425.9997
  0
VERTEX
  8
LAYER_1
 10
302.9996
 20
425.9997
  0
VERTEX
  8
LAYER_1
 10
302.9996
 20
0
  0
VERTEX
  8
LAYER_1
 10
0
 20
0
  0
SEQEND
  0
ENDBLK
  0
BLOCK
  8
LAYER_1
  2
AIGNBL01010010
 70
64
 10
0
 20
0
 30
0
  3
AIGNBL01010010
  0
POLYLINE
  8
LAYER_1
 40
0.1799
 41
0.1799
 66
1
 10
0
 20
0
 30
0
  0
VERTEX
  8
LAYER_1
 10
112.7816
 20
220.6615
  0
VERTEX
  8
LAYER_1
 10
112.7392
 20
221.2967
  0
VERTEX
  8
LAYER_1
 10
112.5911
 20
221.9107
 42
0.06983050315
  0
VERTEX
  8
LAYER_1
 10
111.9814
 20
223.0532
 42
0.06233479635
  0
VERTEX
  8
LAYER_1
 10
111.2844
 20
223.7877
 42
0.2053456932
  0
VERTEX
  8
LAYER_1
 10
108.2714
 20
224.6348
 42
0.3044702527
  0
VERTEX
  8
LAYER_1
 10
104.8687
 20
221.5299
 42
0.009835101479
  0
VERTEX
  8
LAYER_1
 10
104.8225
 20
221.3388
  0
VERTEX
  8
LAYER_1
 10
104.7802
 20
220.7042
  0
VERTEX
  8
LAYER_1
 10
104.8225
 20
220.0903
 42
0.07089909467
  0
VERTEX
  8
LAYER_1
 10
105.2124
 20
218.8637
 42
0.06839911838
  0
VERTEX
  8
LAYER_1
 10
105.8131
 20
217.9703
 42
0.1309693423
  0
VERTEX
  8
LAYER_1
 10
107.4908
 20
216.8768
 42
0.2270395691
  0
VERTEX
  8
LAYER_1
 10
111.0573
 20
217.3548
 42
0.140119824
  0
VERTEX
  8
LAYER_1
 10
112.3938
 20
218.9798
 42
0.05552797588
  0
VERTEX
  8
LAYER_1
 10
112.6968
 20
219.9421
  0
VERTEX
  8
LAYER_1
 10
112.7816
 20
220.556
  0
VERTEX
  8
LAYER_1
 10
112.7816
 20
220.6615
  0
SEQEND
  0
POLYLINE
  8
LAYER_1
 40
0.1799
 41
0.1799
 66
1
 10
0
 20
0
 30
0
  0
VERTEX
  8
LAYER_1
 10
93.795
 20
211.9502
  0
VERTEX
  8
LAYER_1
 10
91.4454
 20
209.1772
  0
VERTEX
  8
LAYER_1
 10
94.8533
 20
210.4047
  0
SEQEND
  0
POLYLINE
  8
LAYER_1
 40
0.1799
 41
0.1799
 66
1
 10
0
 20
0
 30
0
  0
VERTEX
  8
LAYER_1
 10
104.7803
 20
218.4904
  0
VERTEX
  8
LAYER_1
 10
91.4452
 20
209.1772
  0
SEQEND
  0
POLYLINE
  8
LAYER_1
 40
0.05
 41
0.05
 66
1
 10
0
 20
0
 30
0
 70
1
  0
VERTEX
  8
LAYER_1
 10
0
 20
425.9997
  0
VERTEX
  8
LAYER_1
 10
302.9996
 20
425.9997
  0
VERTEX
  8
LAYER_1
 10
302.9996
 20
0
  0
VERTEX
  8
LAYER_1
 10
0
 20
0
  0
SEQEND
  0
ENDBLK
  0
BLOCK
  8
LAYER_1
  2
AIGNBL01010011
 70
64
 10
0
 20
0
 30
0
  3
AIGNBL01010011
  0
POLYLINE
  8
LAYER_1
 40
0.1764
 41
0.1764
 66
1
 10
0
 20
0
 30
0
  0
VERTEX
  8
LAYER_1
 10
249.3657
 20
329.8813
 42
0.1010209219
  0
VERTEX
  8
LAYER_1
 10
249.2694
 20
330.1214
 42
0.06856568664
  0
VERTEX
  8
LAYER_1
 10
249.0826
 20
330.3325
 42
0.04928724981
  0
VERTEX
  8
LAYER_1
 10
248.7777
 20
330.5467
 42
0.03548662914
  0
VERTEX
  8
LAYER_1
 10
248.3251
 20
330.7627
 42
0.03390744025
  0
VERTEX
  8
LAYER_1
 10
247.4557
 20
331.038
  0
SEQEND
  0
POLYLINE
  8
LAYER_1
 40
0.1764
 41
0.1764
 66
1
 10
0
 20
0
 30
0
  0
VERTEX
  8
LAYER_1
 10
247.4557
 20
331.0382
 42
0.04280998762
  0
VERTEX
  8
LAYER_1
 10
245.2949
 20
331.3982
 42
0.0344492097
  0
VERTEX
  8
LAYER_1
 10
242.9697
 20
331.4249
 42
0.002503395665
  0
VERTEX
  8
LAYER_1
 10
242.7449
 20
331.4128
 42
0.04133181497
  0
VERTEX
  8
LAYER_1
 10
240.4715
 20
331.1058
 42
0.001734726152
  0
VERTEX
  8
LAYER_1
 10
240.3988
 20
331.0887
 42
0.03260297076
  0
VERTEX
  8
LAYER_1
 10
239.5243
 20
330.8295
 42
0.08177986479
  0
VERTEX
  8
LAYER_1
 10
238.6911
 20
330.3705
 42
0.1541099015
  0
VERTEX
  8
LAYER_1
 10
238.4223
 20
329.9399
  0
SEQEND
  0
POLYLINE
  8
LAYER_1
 40
0.05
 41
0.05
 66
1
 10
0
 20
0
 30
0
 70
1
  0
VERTEX
  8
LAYER_1
 10
0
 20
425.9997
  0
VERTEX
  8
LAYER_1
 10
302.9996
 20
425.9997
  0
VERTEX
  8
LAYER_1
 10
302.9996
 20
0
  0
VERTEX
  8
LAYER_1
 10
0
 20
0
  0
SEQEND
  0
ENDBLK
  0
BLOCK
  8
LAYER_1
  2
AIGNBL01010012
 70
64
 10
0
 20
0
 30
0
  3
AIGNBL01010012
  0
INSERT
  8
LAYER_1
  2
AIGNBL01020013
 10
0
 20
0
 30
0
  0
INSERT
  8
LAYER_1
  2
AIGNBL0102001C
 10
0
 20
0
 30
0
  0
ENDBLK
  0
ENDSEC
  0
SECTION
  2
ENTITIES
  0
INSERT
  8
LAYER_1
  2
AIGNBL01010002
 10
0
 20
0
 30
0
  0
POLYLINE
  8
LAYER_1
 40
0.3528
 41
0.3528
 66
1
 10
0
 20
0
 30
0
 70
1
  0
VERTEX
  8
LAYER_1
 10
292.9103
 20
10.6064
  0
VERTEX
  8
LAYER_1
 10
9.6301
 20
10.6064
  0
VERTEX
  8
LAYER_1
 10
9.6301
 20
416.8042
  0
VERTEX
  8
LAYER_1
 10
292.9103
 20
416.8042
  0
SEQEND
  0
POLYLINE
  8
LAYER_1
 40
0.3528
 41
0.3528
 66
1
 10
0
 20
0
 30
0
  0
VERTEX
  8
LAYER_1
 10
9.6302
 20
110.086
  0
VERTEX
  8
LAYER_1
 10
292.9103
 20
110.086
  0
SEQEND
  0
POLYLINE
  8
LAYER_1
 40
0.3528
 41
0.3528
 66
1
 10
0
 20
0
 30
0
  0
VERTEX
  8
LAYER_1
 10
182.5649
 20
110.086
  0
VERTEX
  8
LAYER_1
 10
182.5649
 20
10.6064
  0
SEQEND
  0
POLYLINE
  8
LAYER_1
 40
0.3528
 41
0.3528
 66
1
 10
0
 20
0
 30
0
  0
VERTEX
  8
LAYER_1
 10
9.6302
 20
97.7894
  0
VERTEX
  8
LAYER_1
 10
182.5646
 20
97.7894
  0
SEQEND
  0
POLYLINE
  8
LAYER_1
 40
0.3528
 41
0.3528
 66
1
 10
0
 20
0
 30
0
  0
VERTEX
  8
LAYER_1
 10
9.6302
 20
85.3498
  0
VERTEX
  8
LAYER_1
 10
292.9103
 20
85.3498
  0
SEQEND
  0
POLYLINE
  8
LAYER_1
 40
0.3528
 41
0.3528
 66
1
 10
0
 20
0
 30
0
  0
VERTEX
  8
LAYER_1
 10
9.6302
 20
72.9099
  0
VERTEX
  8
LAYER_1
 10
292.9103
 20
72.9099
  0
SEQEND
  0
POLYLINE
  8
LAYER_1
 40
0.3528
 41
0.3528
 66
1
 10
0
 20
0
 30
0
  0
VERTEX
  8
LAYER_1
 10
9.6302
 20
60.4704
  0
VERTEX
  8
LAYER_1
 10
182.5646
 20
60.4704
  0
SEQEND
  0
POLYLINE
  8
LAYER_1
 40
0.3528
 41
0.3528
 66
1
 10
0
 20
0
 30
0
  0
VERTEX
  8
LAYER_1
 10
9.6302
 20
48.0308
  0
VERTEX
  8
LAYER_1
 10
292.9103
 20
48.0308
  0
SEQEND
  0
POLYLINE
  8
LAYER_1
 40
0.3528
 41
0.3528
 66
1
 10
0
 20
0
 30
0
  0
VERTEX
  8
LAYER_1
 10
9.6302
 20
35.5909
  0
VERTEX
  8
LAYER_1
 10
182.5646
 20
35.5909
  0
SEQEND
  0
POLYLINE
  8
LAYER_1
 40
0.3528
 41
0.3528
 66
1
 10
0
 20
0
 30
0
  0
VERTEX
  8
LAYER_1
 10
9.6302
 20
23.1514
  0
VERTEX
  8
LAYER_1
 10
182.5646
 20
23.1514
  0
SEQEND
  0
POLYLINE
  8
LAYER_1
 40
0.3528
 41
0.3528
 66
1
 10
0
 20
0
 30
0
  0
VERTEX
  8
LAYER_1
 10
31.2231
 20
110.086
  0
VERTEX
  8
LAYER_1
 10
31.2231
 20
10.6064
  0
SEQEND
  0
POLYLINE
  8
LAYER_1
 40
0.3528
 41
0.3528
 66
1
 10
0
 20
0
 30
0
  0
VERTEX
  8
LAYER_1
 10
80.2411
 20
110.086
  0
VERTEX
  8
LAYER_1
 10
80.2411
 20
10.6064
  0
SEQEND
  0
POLYLINE
  8
LAYER_1
 40
0.3528
 41
0.3528
 66
1
 10
0
 20
0
 30
0
  0
VERTEX
  8
LAYER_1
 10
118.8517
 20
110.0863
  0
VERTEX
  8
LAYER_1
 10
118.8517
 20
10.6064
  0
SEQEND
  0
POLYLINE
  8
LAYER_1
 40
0.3528
 41
0.3528
 66
1
 10
0
 20
0
 30
0
  0
VERTEX
  8
LAYER_1
 10
137.9079
 20
110.086
  0
VERTEX
  8
LAYER_1
 10
137.9079
 20
10.6061
  0
SEQEND
  0
TEXT
  8
LAYER_1
 10
45.8277
 20
14.1304
 11
45.8277
 21
14.1304
 40
6.2324
 41
0.5
  1
部品名
  0
TEXT
  8
LAYER_1
 10
15.134
 20
14.1304
 11
15.134
 21
14.1304
 40
6.2324
 41
0.5
  1
部番
  0
TEXT
  8
LAYER_1
 10
93.2958
 20
14.1304
 11
93.2958
 21
14.1304
 40
6.2324
 41
0.5
  1
材質
  0
TEXT
  8
LAYER_1
 10
122.4781
 20
14.1304
 11
122.4781
 21
14.1304
 40
6.2324
 41
0.5
  1
数量
  0
TEXT
  8
LAYER_1
 10
153.8618
 20
14.1304
 11
153.8618
 21
14.1304
 40
6.2324
 41
0.5
  1
摘要
  0
TEXT
  8
LAYER_1
 10
18.4564
 20
63.9975
 11
18.4564
 21
63.9975
 40
7.105
 41
0.5
  1
4
  0
TEXT
  8
LAYER_1
 10
18.4564
 20
52.0871
 11
18.4564
 21
52.0871
 40
7.105
 41
0.5
  1
3
  0
TEXT
  8
LAYER_1
 10
18.4564
 20
39.1328
 11
18.4564
 21
39.1328
 40
7.105
 41
0.5
  1
2
  0
TEXT
  8
LAYER_1
 10
18.4564
 20
26.9344
 11
18.4564
 21
26.9344
 40
7.105
 41
0.5
  1
1
  0
TEXT
  8
LAYER_1
 10
18.4564
 20
75.7701
 11
18.4564
 21
75.7701
 40
7.105
 41
0.5
  1
5
  0
TEXT
  8
LAYER_1
 10
33.8272
 20
26.4067
 11
33.8272
 21
26.4067
 40
6.2324
 41
0.5
  1
引掛シーリング
  0
TEXT
  8
LAYER_1
 10
33.8272
 20
39.3068
 11
33.8272
 21
39.3068
 40
6.2324
 41
0.5
  1
フランジ
  0
TEXT
  8
LAYER_1
 10
33.8272
 20
51.9069
 11
33.8272
 21
51.9069
 40
6.2324
 41
0.5
  1
コード
  0
TEXT
  8
LAYER_1
 10
33.8272
 20
64.5191
 11
33.8272
 21
64.5191
 40
6.2324
 41
0.5
  1
シェード
  0
TEXT
  8
LAYER_1
 10
33.8272
 20
75.9437
 11
33.8272
 21
75.9437
 40
6.2324
 41
0.5
  1
ソケット
  0
TEXT
  8
LAYER_1
 10
18.4564
 20
89.1198
 11
18.4564
 21
89.1198
 40
7.105
 41
0.5
  1
6
  0
TEXT
  8
LAYER_1
 10
33.8272
 20
101.2462
 11
33.8272
 21
101.2462
 40
6.2324
 41
0.5
  1
ランプ
  0
TEXT
  8
LAYER_1
 10
33.8272
 20
89.2996
 11
33.8272
 21
89.2996
 40
6.2324
 41
0.5
  1
ソケットカバー
  0
TEXT
  8
LAYER_1
 10
18.4564
 20
100.8862
 11
18.4564
 21
100.8862
 40
7.105
 41
0.5
  1
7
  0
TEXT
  8
LAYER_1
 10
126.1065
 20
26.9286
 11
126.1065
 21
26.9286
 40
7.105
 41
0.5
  1
1
  0
TEXT
  8
LAYER_1
 10
126.1065
 20
39.127
 11
126.1065
 21
39.127
 40
7.105
 41
0.5
  1
1
  0
TEXT
  8
LAYER_1
 10
126.1065
 20
52.0809
 11
126.1065
 21
52.0809
 40
7.105
 41
0.5
  1
1
  0
TEXT
  8
LAYER_1
 10
126.1065
 20
64.3392
 11
126.1065
 21
64.3392
 40
7.105
 41
0.5
  1
1
  0
TEXT
  8
LAYER_1
 10
126.1065
 20
75.7639
 11
126.1065
 21
75.7639
 40
7.105
 41
0.5
  1
1
  0
TEXT
  8
LAYER_1
 10
126.1065
 20
89.1198
 11
126.1065
 21
89.1198
 40
7.105
 41
0.5
  1
1
  0
TEXT
  8
LAYER_1
 10
126.1065
 20
101.0664
 11
126.1065
 21
101.0664
 40
7.105
 41
0.5
  1
1
  0
TEXT
  8
LAYER_1
 10
93.2958
 20
26.4067
 11
93.2958
 21
26.4067
 40
6.2324
 41
0.5
  1
樹脂
  0
TEXT
  8
LAYER_1
 10
96.2944
 20
39.3068
 11
96.2944
 21
39.3068
 40
6.2324
 41
0.5
  1
木
  0
TEXT
  8
LAYER_1
 10
90.2972
 20
64.1652
 11
90.2972
 21
64.1652
 40
6.2324
 41
0.5
  1
ガラス
  0
TEXT
  8
LAYER_1
 10
93.2958
 20
75.9437
 11
93.2958
 21
75.9437
 40
6.2324
 41
0.5
  1
樹脂
  0
TEXT
  8
LAYER_1
 10
96.2944
 20
88.8676
 11
96.2944
 21
88.8676
 40
6.2324
 41
0.5
  1
木
  0
TEXT
  8
LAYER_1
 10
154.9831
 20
75.7639
 11
154.9831
 21
75.7639
 40
7.105
 41
0.5
  1
E11
  0
TEXT
  8
LAYER_1
 10
187.5434
 20
64.8798
 11
187.5434
 21
64.8798
 40
4.766
 41
0.5
  1
品番
  0
TEXT
  8
LAYER_1
 10
194.2159
 20
53.0217
 11
194.2159
 21
53.0217
 40
12.5382
 41
0.5
  1
BRO-PC894
  0
TEXT
  8
LAYER_1
 10
187.5434
 20
101.4284
 11
187.5434
 21
101.4284
 40
4.766
 41
0.5
  1
適合ランプ
  0
TEXT
  8
LAYER_1
 10
197.6996
 20
89.3082
 11
197.6996
 21
89.3082
 40
6.2324
 41
0.5
  1
大光電機株式会社
  0
TEXT
  8
LAYER_1
 10
144.1931
 20
101.2486
 11
144.1931
 21
101.2486
 40
7.105
 41
0.5
  1
DECO-S50C
  0
TEXT
  8
LAYER_1
 10
250.3882
 20
75.8259
 11
250.3882
 21
75.8259
 40
7.105
 41
0.5
  1
長寿長30,000h
  0
TEXT
  8
LAYER_1
 10
187.5434
 20
76.2076
 11
187.5434
 21
76.2076
 40
4.766
 41
0.5
  1
定格
  0
TEXT
  8
LAYER_1
 10
202.152
 20
75.646
 11
202.152
 21
75.646
 40
7.105
 41
0.5
  1
LED 100V 6.2W
  0
TEXT
  8
LAYER_1
 10
155.5051
 20
51.3812
 11
155.5051
 21
51.3812
 40
7.105
 41
0.5
  1
2m
  0
TEXT
  8
LAYER_1
 10
156.8666
 20
26.4149
 11
156.8666
 21
26.4149
 40
6.2324
 41
0.5
  1
黒
  0
TEXT
  8
LAYER_1
 10
156.8666
 20
89.5835
 11
156.8666
 21
89.5835
 40
6.2324
 41
0.5
  1
黒
  0
TEXT
  8
LAYER_1
 10
156.8666
 20
39.3147
 11
156.8666
 21
39.3147
 40
6.2324
 41
0.5
  1
黒
  0
TEXT
  8
LAYER_1
 10
250.3882
 20
89.1284
 11
250.3882
 21
89.1284
 40
7.105
 41
0.5
  1
DECO-S50C
  0
TEXT
  8
LAYER_1
 10
203.108
 20
190.1097
 11
203.108
 21
190.1097
 40
6.2324
 41
0.5
  1
安全に関するご注意
  0
TEXT
  8
LAYER_1
 10
182.6045
 20
177.809
 11
182.6045
 21
177.809
 40
4.766
 41
0.5
  1
天井面取付け専用器具です。
  0
TEXT
  8
LAYER_1
 10
182.6045
 20
169.7833
 11
182.6045
 21
169.7833
 40
4.766
 41
0.5
  1
器具の取付けは、取り付ける天井の強度を確認し
  0
TEXT
  8
LAYER_1
 10
182.6045
 20
161.7576
 11
182.6045
 21
161.7576
 40
4.766
 41
0.5
  1
質量に耐える所に確実に行ってください。強度が
  0
TEXT
  8
LAYER_1
 10
182.6045
 20
153.7319
 11
182.6045
 21
153.7319
 40
4.766
 41
0.5
  1
不足している場合は補強工事をしてから取付けて
  0
TEXT
  8
LAYER_1
 10
182.6045
 20
145.7062
 11
182.6045
 21
145.7062
 40
4.766
 41
0.5
  1
ください。
  0
TEXT
  8
LAYER_1
 10
182.6045
 20
137.6805
 11
182.6045
 21
137.6805
 40
4.766
 41
0.5
  1
屋内用器具です。屋内や水気、湿気のある所では
  0
TEXT
  8
LAYER_1
 10
182.6045
 20
129.6548
 11
182.6045
 21
129.6548
 40
4.766
 41
0.5
  1
使用しないでください。
  0
TEXT
  8
LAYER_1
 10
182.6045
 20
121.6291
 11
182.6045
 21
121.6291
 40
4.766
 41
0.5
  1
指定外の取付けは、落下の原因になります。
  0
TEXT
  8
LAYER_1
 10
176.5188
 20
177.809
 11
176.5188
 21
177.809
 40
4.766
 41
0.5
  1
・
  0
TEXT
  8
LAYER_1
 10
176.5188
 20
169.8473
 11
176.5188
 21
169.8473
 40
4.766
 41
0.5
  1
・
  0
TEXT
  8
LAYER_1
 10
176.5188
 20
137.7446
 11
176.5188
 21
137.7446
 40
4.766
 41
0.5
  1
・
  0
TEXT
  8
LAYER_1
 10
176.5188
 20
121.8675
 11
176.5188
 21
121.8675
 40
4.766
 41
0.5
  1
・
  0
POLYLINE
  8
LAYER_1
 40
0.3528
 41
0.3528
 66
1
 10
0
 20
0
 30
0
 70
1
  0
VERTEX
  8
LAYER_1
 10
174.45
 20
198.6328
  0
VERTEX
  8
LAYER_1
 10
287.3389
 20
198.6328
  0
VERTEX
  8
LAYER_1
 10
287.3389
 20
116.0828
  0
VERTEX
  8
LAYER_1
 10
174.45
 20
116.0828
  0
SEQEND
  0
POLYLINE
  8
LAYER_1
 40
0.3528
 41
0.3528
 66
1
 10
0
 20
0
 30
0
  0
VERTEX
  8
LAYER_1
 10
174.45
 20
186.2856
  0
VERTEX
  8
LAYER_1
 10
287.3389
 20
186.2856
  0
SEQEND
  0
INSERT
  8
LAYER_1
  2
AIGNBL01010004
 10
0
 20
0
 30
0
  0
TEXT
  8
LAYER_1
 10
78.3856
 20
319.7266
 11
78.3856
 21
319.7266
 40
10.8616
 41
0.5
  1
100
  0
TEXT
  8
LAYER_1
 10
138.8267
 20
270.3997
 11
138.8267
 21
270.3997
 40
10.8616
 41
0.5
 50
270
  1
2000
  0
INSERT
  8
LAYER_1
  2
AIGNBL01010005
 10
0
 20
0
 30
0
  0
TEXT
  8
LAYER_1
 10
35.121
 20
198.0034
 11
35.121
 21
198.0034
 40
10.8616
 41
0.5
 50
270
  1
1
  0
TEXT
  8
LAYER_1
 10
35.121
 20
192.9519
 11
35.121
 21
192.9519
 40
10.8616
 41
0.5
 50
270
  1
5
  0
TEXT
  8
LAYER_1
 10
35.1214
 20
187.992
 11
35.1214
 21
187.992
 40
10.8616
 41
0.5
 50
270
  1
9
  0
TEXT
  8
LAYER_1
 10
78.5151
 20
138.4508
 11
78.5151
 21
138.4508
 40
10.8616
 41
0.5
  1
2
  0
TEXT
  8
LAYER_1
 10
83.5301
 20
138.4508
 11
83.5301
 21
138.4508
 40
10.8616
 41
0.5
  1
50
  0
TEXT
  8
LAYER_1
 10
59.8337
 20
304.3873
 11
59.8337
 21
304.3873
 40
10.8616
 41
0.5
 50
270
  1
50
  0
INSERT
  8
LAYER_1
  2
AIGNBL01010009
 10
0
 20
0
 30
0
  0
TEXT
  8
LAYER_1
 10
108.0332
 20
364.0851
 11
108.0332
 21
364.0851
 40
10.8616
 41
0.5
  1
25
  0
INSERT
  8
LAYER_1
  2
AIGNBL0101000A
 10
0
 20
0
 30
0
  0
TEXT
  8
LAYER_1
 10
66.0401
 20
350.9069
 11
66.0401
 21
350.9069
 40
7.9409
 41
0.5
  1
1
  0
INSERT
  8
LAYER_1
  2
AIGNBL0101000B
 10
0
 20
0
 30
0
  0
TEXT
  8
LAYER_1
 10
61.0233
 20
276.4277
 11
61.0233
 21
276.4277
 40
7.9409
 41
0.5
  1
2
  0
INSERT
  8
LAYER_1
  2
AIGNBL0101000C
 10
0
 20
0
 30
0
  0
TEXT
  8
LAYER_1
 10
66.1598
 20
236.8384
 11
66.1598
 21
236.8384
 40
7.9409
 41
0.5
  1
3
  0
INSERT
  8
LAYER_1
  2
AIGNBL0101000D
 10
0
 20
0
 30
0
  0
TEXT
  8
LAYER_1
 10
110.0062
 20
203.1425
 11
110.0062
 21
203.1425
 40
7.9409
 41
0.5
  1
4
  0
INSERT
  8
LAYER_1
  2
AIGNBL0101000E
 10
0
 20
0
 30
0
  0
TEXT
  8
LAYER_1
 10
103.741
 20
184.8859
 11
103.741
 21
184.8859
 40
7.9409
 41
0.5
  1
5
  0
INSERT
  8
LAYER_1
  2
AIGNBL0101000F
 10
0
 20
0
 30
0
  0
TEXT
  8
LAYER_1
 10
111.7422
 20
184.8859
 11
111.7422
 21
184.8859
 40
7.9409
 41
0.5
  1
7
  0
INSERT
  8
LAYER_1
  2
AIGNBL01010010
 10
0
 20
0
 30
0
  0
TEXT
  8
LAYER_1
 10
106.856
 20
217.8763
 11
106.856
 21
217.8763
 40
7.9409
 41
0.5
  1
6
  0
INSERT
  8
LAYER_1
  2
AIGNBL01010011
 10
0
 20
0
 30
0
  0
TEXT
  8
LAYER_1
 10
189.9047
 20
24.3999
 11
189.9047
 21
24.3999
 40
5.2209
 41
0.5
  1
●TEL 0120-65-1232●FAX 06-6532-1580
  0
TEXT
  8
LAYER_1
 10
189.9047
 20
18.9794
 11
189.9047
 21
18.9794
 40
5.2209
 41
0.5
  1
hits@hiratatile.co.jp
  0
INSERT
  8
LAYER_1
  2
AIGNBL01010012
 10
0
 20
0
 30
0
  0
ENDSEC
  0
EOF
