  0
SECTION
  2
HEADER
  9
$ACADVER
  1
AC1009
  9
$LUNITS
 70
2
  9
$LUPREC
 70
4
  9
$LTSCALE
 40
1.0
  9
$EXTMIN
 10
0
 20
0
 30
0
  9
$EXTMAX
 10
302.9996
 20
425.9997
 30
0
  0
ENDSEC
  0
SECTION
  2
TABLES
  0
TABLE
  2
LTYPE
 70
256
  0
ENDTAB
  0
TABLE
  2
LAYER
 70
1
  0
LAYER
  2
LAYER_1
 70
64
 62
7
  6
CONTINUOUS
  0
ENDTAB
  0
TABLE
  2
STYLE
 70
6
  0
STYLE
  2
STANDARD
 70
0
 40
0
 50
0
 71
0
 41
0
 42
0
  3
TXT
  4
BIGFONT
  0
ENDTAB
  0
ENDSEC
  0
SECTION
  2
BLOCKS
  0
BLOCK
  8
LAYER_1
  2
AIGNBL01040012
 70
64
 10
0
 20
0
 30
0
  3
AIGNBL01040012
  0
POLYLINE
  8
LAYER_1
 40
0.05
 41
0.05
 66
1
 10
0
 20
0
 30
0
 70
1
  0
VERTEX
  8
LAYER_1
 10
190.2785
 20
37.0038
  0
VERTEX
  8
LAYER_1
 10
189.5243
 20
35.1765
  0
VERTEX
  8
LAYER_1
 10
188.5559
 20
35.1765
  0
VERTEX
  8
LAYER_1
 10
191.0226
 20
40.9842
  0
VERTEX
  8
LAYER_1
 10
192.1533
 20
40.9842
  0
VERTEX
  8
LAYER_1
 10
194.631
 20
35.1765
  0
VERTEX
  8
LAYER_1
 10
193.6281
 20
35.1765
  0
VERTEX
  8
LAYER_1
 10
192.853
 20
37.0038
  0
SEQEND
  0
POLYLINE
  8
LAYER_1
 40
0.05
 41
0.05
 66
1
 10
0
 20
0
 30
0
 70
1
  0
VERTEX
  8
LAYER_1
 10
192.659
 20
37.5881
  0
VERTEX
  8
LAYER_1
 10
191.9483
 20
39.2617
 42
-0.02519780196
  0
VERTEX
  8
LAYER_1
 10
191.5711
 20
40.3207
  0
VERTEX
  8
LAYER_1
 10
191.5497
 20
40.3207
 42
-0.01987978422
  0
VERTEX
  8
LAYER_1
 10
191.1832
 20
39.2686
  0
VERTEX
  8
LAYER_1
 10
190.4728
 20
37.5881
  0
SEQEND
  0
ENDBLK
  0
BLOCK
  8
LAYER_1
  2
AIGNBL01040013
 70
64
 10
0
 20
0
 30
0
  3
AIGNBL01040013
  0
POLYLINE
  8
LAYER_1
 40
0.05
 41
0.05
 66
1
 10
0
 20
0
 30
0
 70
1
  0
VERTEX
  8
LAYER_1
 10
201.3631
 20
34.3228
 42
-0.01511615515
  0
VERTEX
  8
LAYER_1
 10
198.5839
 20
34.9953
 42
0.08496266682
  0
VERTEX
  8
LAYER_1
 10
198.1416
 20
35.0814
 42
-0.07479211561
  0
VERTEX
  8
LAYER_1
 10
196.9153
 20
35.299
 42
-0.07802624599
  0
VERTEX
  8
LAYER_1
 10
196.0086
 20
35.7782
 42
-0.08253382458
  0
VERTEX
  8
LAYER_1
 10
195.3963
 20
36.4277
 42
-0.08518431173
  0
VERTEX
  8
LAYER_1
 10
195.0367
 20
37.243
 42
-0.06334713527
  0
VERTEX
  8
LAYER_1
 10
194.9431
 20
38.0187
 42
-0.08543190404
  0
VERTEX
  8
LAYER_1
 10
195.1246
 20
39.1032
 42
-0.2023945908
  0
VERTEX
  8
LAYER_1
 10
196.6363
 20
40.7274
 42
-0.07334929783
  0
VERTEX
  8
LAYER_1
 10
197.6598
 20
41.0301
 42
-0.03729399728
  0
VERTEX
  8
LAYER_1
 10
198.3255
 20
41.0786
 42
-0.07558589813
  0
VERTEX
  8
LAYER_1
 10
199.5519
 20
40.8988
 42
-0.07835464528
  0
VERTEX
  8
LAYER_1
 10
200.4372
 20
40.4591
 42
-0.1260266732
  0
VERTEX
  8
LAYER_1
 10
201.3026
 20
39.4219
 42
-0.078240071
  0
VERTEX
  8
LAYER_1
 10
201.55
 20
38.5709
 42
-0.03297749984
  0
VERTEX
  8
LAYER_1
 10
201.578
 20
38.14
 42
-0.08288272301
  0
VERTEX
  8
LAYER_1
 10
201.4054
 20
37.0668
 42
-0.08683453136
  0
VERTEX
  8
LAYER_1
 10
200.9619
 20
36.2718
 42
-0.08481598232
  0
VERTEX
  8
LAYER_1
 10
200.2952
 20
35.694
 42
-0.07065332072
  0
VERTEX
  8
LAYER_1
 10
199.5103
 20
35.357
  0
VERTEX
  8
LAYER_1
 10
199.5103
 20
35.3226
 42
0.01478302251
  0
VERTEX
  8
LAYER_1
 10
201.6328
 20
34.9519
  0
SEQEND
  0
POLYLINE
  8
LAYER_1
 40
0.05
 41
0.05
 66
1
 10
0
 20
0
 30
0
 70
1
  0
VERTEX
  8
LAYER_1
 10
200.5879
 20
38.1069
 42
0.09294016112
  0
VERTEX
  8
LAYER_1
 10
200.408
 20
39.0683
 42
0.09187317272
  0
VERTEX
  8
LAYER_1
 10
199.9629
 20
39.7841
 42
0.1947450502
  0
VERTEX
  8
LAYER_1
 10
198.5039
 20
40.459
 42
0.01946782978
  0
VERTEX
  8
LAYER_1
 10
198.2925
 20
40.4668
 42
0.09477682582
  0
VERTEX
  8
LAYER_1
 10
197.3122
 20
40.2877
 42
0.2441062278
  0
VERTEX
  8
LAYER_1
 10
196.0283
 20
38.7566
 42
0.06413941179
  0
VERTEX
  8
LAYER_1
 10
195.9446
 20
38.038
 42
0.09460919564
  0
VERTEX
  8
LAYER_1
 10
196.1136
 20
37.0999
 42
0.09419156281
  0
VERTEX
  8
LAYER_1
 10
196.5621
 20
36.3828
 42
0.1408119564
  0
VERTEX
  8
LAYER_1
 10
197.5791
 20
35.7775
 42
0.06669888162
  0
VERTEX
  8
LAYER_1
 10
198.2497
 20
35.6919
 42
0.09215813655
  0
VERTEX
  8
LAYER_1
 10
199.1918
 20
35.8603
 42
0.2420134196
  0
VERTEX
  8
LAYER_1
 10
200.493
 20
37.363
 42
0.06604475412
  0
SEQEND
  0
ENDBLK
  0
BLOCK
  8
LAYER_1
  2
AIGNBL01040014
 70
64
 10
0
 20
0
 30
0
  3
AIGNBL01040014
  0
POLYLINE
  8
LAYER_1
 40
0.05
 41
0.05
 66
1
 10
0
 20
0
 30
0
 70
1
  0
VERTEX
  8
LAYER_1
 10
203.6255
 20
40.9842
  0
VERTEX
  8
LAYER_1
 10
203.6255
 20
37.546
 42
0.09353123773
  0
VERTEX
  8
LAYER_1
 10
203.7862
 20
36.6209
 42
0.1122452342
  0
VERTEX
  8
LAYER_1
 10
204.1653
 20
36.0761
 42
0.1179417588
  0
VERTEX
  8
LAYER_1
 10
204.7602
 20
35.7619
 42
0.06800355252
  0
VERTEX
  8
LAYER_1
 10
205.3163
 20
35.6919
 42
0.1038218017
  0
VERTEX
  8
LAYER_1
 10
206.2033
 20
35.8632
 42
0.1169361545
  0
VERTEX
  8
LAYER_1
 10
206.7123
 20
36.2585
 42
0.112945955
  0
VERTEX
  8
LAYER_1
 10
207.0123
 20
36.898
 42
0.06116440932
  0
VERTEX
  8
LAYER_1
 10
207.083
 20
37.546
  0
VERTEX
  8
LAYER_1
 10
207.083
 20
40.9842
  0
VERTEX
  8
LAYER_1
 10
208.0307
 20
40.9842
  0
VERTEX
  8
LAYER_1
 10
208.0307
 20
37.5977
 42
-0.08655282725
  0
VERTEX
  8
LAYER_1
 10
207.8589
 20
36.5437
 42
-0.09649736902
  0
VERTEX
  8
LAYER_1
 10
207.4419
 20
35.8555
 42
-0.1004118405
  0
VERTEX
  8
LAYER_1
 10
206.7611
 20
35.367
 42
-0.08189283823
  0
VERTEX
  8
LAYER_1
 10
205.8191
 20
35.1121
 42
-0.02973123421
  0
VERTEX
  8
LAYER_1
 10
205.2839
 20
35.0814
 42
-0.07965267883
  0
VERTEX
  8
LAYER_1
 10
204.1334
 20
35.2528
 42
-0.09129962799
  0
VERTEX
  8
LAYER_1
 10
203.4232
 20
35.6472
 42
-0.1507972657
  0
VERTEX
  8
LAYER_1
 10
202.8
 20
36.6331
 42
-0.07482904497
  0
VERTEX
  8
LAYER_1
 10
202.6774
 20
37.5633
  0
VERTEX
  8
LAYER_1
 10
202.6774
 20
40.9842
  0
SEQEND
  0
ENDBLK
  0
BLOCK
  8
LAYER_1
  2
AIGNBL01040015
 70
64
 10
0
 20
0
 30
0
  3
AIGNBL01040015
  0
POLYLINE
  8
LAYER_1
 40
0.05
 41
0.05
 66
1
 10
0
 20
0
 30
0
 70
1
  0
VERTEX
  8
LAYER_1
 10
210.7241
 20
37.0038
  0
VERTEX
  8
LAYER_1
 10
209.9696
 20
35.1765
  0
VERTEX
  8
LAYER_1
 10
209.0012
 20
35.1765
  0
VERTEX
  8
LAYER_1
 10
211.4672
 20
40.9842
  0
VERTEX
  8
LAYER_1
 10
212.5979
 20
40.9842
  0
VERTEX
  8
LAYER_1
 10
215.0756
 20
35.1765
  0
VERTEX
  8
LAYER_1
 10
214.0738
 20
35.1765
  0
VERTEX
  8
LAYER_1
 10
213.2986
 20
37.0038
  0
SEQEND
  0
POLYLINE
  8
LAYER_1
 40
0.05
 41
0.05
 66
1
 10
0
 20
0
 30
0
 70
1
  0
VERTEX
  8
LAYER_1
 10
213.1043
 20
37.5881
  0
VERTEX
  8
LAYER_1
 10
212.3929
 20
39.2617
 42
-0.02425369923
  0
VERTEX
  8
LAYER_1
 10
212.0157
 20
40.3207
  0
VERTEX
  8
LAYER_1
 10
211.9943
 20
40.3207
 42
-0.02015868917
  0
VERTEX
  8
LAYER_1
 10
211.6284
 20
39.2686
  0
VERTEX
  8
LAYER_1
 10
210.9174
 20
37.5881
  0
SEQEND
  0
ENDBLK
  0
BLOCK
  8
LAYER_1
  2
AIGNBL01040016
 70
64
 10
0
 20
0
 30
0
  3
AIGNBL01040016
  0
POLYLINE
  8
LAYER_1
 40
0.05
 41
0.05
 66
1
 10
0
 20
0
 30
0
 70
1
  0
VERTEX
  8
LAYER_1
 10
216.6803
 20
40.9146
 42
-0.03377306948
  0
VERTEX
  8
LAYER_1
 10
218.48
 20
41.0276
 42
-0.06715871709
  0
VERTEX
  8
LAYER_1
 10
219.8379
 20
40.8613
 42
-0.08064624059
  0
VERTEX
  8
LAYER_1
 10
220.5154
 20
40.5453
 42
-0.1248455216
  0
VERTEX
  8
LAYER_1
 10
220.9977
 20
39.9987
 42
-0.1169648295
  0
VERTEX
  8
LAYER_1
 10
221.1503
 20
39.3413
 42
-0.001834186202
  0
VERTEX
  8
LAYER_1
 10
221.1503
 20
39.3292
 42
-0.1180422142
  0
VERTEX
  8
LAYER_1
 10
220.9753
 20
38.5581
 42
-0.1036658403
  0
VERTEX
  8
LAYER_1
 10
220.5905
 20
38.0897
 42
-0.09999716655
  0
VERTEX
  8
LAYER_1
 10
219.7957
 20
37.6595
 42
-0.06913220623
  0
VERTEX
  8
LAYER_1
 10
218.689
 20
37.4604
 42
-0.0147623322
  0
VERTEX
  8
LAYER_1
 10
218.3715
 20
37.4516
 42
-0.05238395079
  0
VERTEX
  8
LAYER_1
 10
217.6181
 20
37.5026
  0
VERTEX
  8
LAYER_1
 10
217.6181
 20
35.1765
  0
VERTEX
  8
LAYER_1
 10
216.6803
 20
35.1765
  0
SEQEND
  0
POLYLINE
  8
LAYER_1
 40
0.05
 41
0.05
 66
1
 10
0
 20
0
 30
0
 70
1
  0
VERTEX
  8
LAYER_1
 10
217.6181
 20
38.1152
 42
0.05295677593
  0
VERTEX
  8
LAYER_1
 10
218.3929
 20
38.0545
 42
0.0878926489
  0
VERTEX
  8
LAYER_1
 10
219.4303
 20
38.221
 42
0.1189162872
  0
VERTEX
  8
LAYER_1
 10
219.9693
 20
38.5873
 42
0.183772464
  0
VERTEX
  8
LAYER_1
 10
220.2143
 20
39.2948
 42
0.1524833824
  0
VERTEX
  8
LAYER_1
 10
220.0433
 20
39.8743
 42
0.1367987858
  0
VERTEX
  8
LAYER_1
 10
219.5962
 20
40.2329
 42
0.05021899002
  0
VERTEX
  8
LAYER_1
 10
219.2442
 20
40.3536
 42
0.06092565979
  0
VERTEX
  8
LAYER_1
 10
218.5017
 20
40.4323
 42
0.04662565168
  0
VERTEX
  8
LAYER_1
 10
217.6181
 20
40.3717
  0
SEQEND
  0
ENDBLK
  0
BLOCK
  8
LAYER_1
  2
AIGNBL01040017
 70
64
 10
0
 20
0
 30
0
  3
AIGNBL01040017
  0
POLYLINE
  8
LAYER_1
 40
0.05
 41
0.05
 66
1
 10
0
 20
0
 30
0
 70
1
  0
VERTEX
  8
LAYER_1
 10
223.544
 20
40.5185
 42
-0.2456355398
  0
VERTEX
  8
LAYER_1
 10
223.3821
 20
40.1849
 42
-0.1752601542
  0
VERTEX
  8
LAYER_1
 10
222.9397
 20
40.0534
 42
-0.1918260056
  0
VERTEX
  8
LAYER_1
 10
222.4929
 20
40.2217
 42
-0.1947897346
  0
VERTEX
  8
LAYER_1
 10
222.3685
 20
40.5185
 42
-0.2325814035
  0
VERTEX
  8
LAYER_1
 10
222.5404
 20
40.8593
 42
-0.1734429631
  0
VERTEX
  8
LAYER_1
 10
222.9611
 20
40.9918
 42
-0.1898794872
  0
VERTEX
  8
LAYER_1
 10
223.4176
 20
40.8264
 42
-0.1983871905
  0
SEQEND
  0
POLYLINE
  8
LAYER_1
 40
0.05
 41
0.05
 66
1
 10
0
 20
0
 30
0
 70
1
  0
VERTEX
  8
LAYER_1
 10
222.4867
 20
35.1765
  0
VERTEX
  8
LAYER_1
 10
222.4867
 20
39.3464
  0
VERTEX
  8
LAYER_1
 10
223.4344
 20
39.3464
  0
VERTEX
  8
LAYER_1
 10
223.4344
 20
35.1765
  0
SEQEND
  0
ENDBLK
  0
BLOCK
  8
LAYER_1
  2
AIGNBL01040018
 70
64
 10
0
 20
0
 30
0
  3
AIGNBL01040018
  0
POLYLINE
  8
LAYER_1
 40
0.05
 41
0.05
 66
1
 10
0
 20
0
 30
0
 70
1
  0
VERTEX
  8
LAYER_1
 10
226.3211
 20
37.0038
  0
VERTEX
  8
LAYER_1
 10
225.568
 20
35.1765
  0
VERTEX
  8
LAYER_1
 10
224.5978
 20
35.1765
  0
VERTEX
  8
LAYER_1
 10
227.0649
 20
40.9842
  0
VERTEX
  8
LAYER_1
 10
228.1966
 20
40.9842
  0
VERTEX
  8
LAYER_1
 10
230.6739
 20
35.1765
  0
VERTEX
  8
LAYER_1
 10
229.6718
 20
35.1765
  0
VERTEX
  8
LAYER_1
 10
228.8966
 20
37.0038
  0
SEQEND
  0
POLYLINE
  8
LAYER_1
 40
0.05
 41
0.05
 66
1
 10
0
 20
0
 30
0
 70
1
  0
VERTEX
  8
LAYER_1
 10
228.7023
 20
37.5881
  0
VERTEX
  8
LAYER_1
 10
227.9913
 20
39.2617
 42
-0.02597772238
  0
VERTEX
  8
LAYER_1
 10
227.6154
 20
40.3207
  0
VERTEX
  8
LAYER_1
 10
227.5923
 20
40.3207
 42
-0.01996777423
  0
VERTEX
  8
LAYER_1
 10
227.2268
 20
39.2686
  0
VERTEX
  8
LAYER_1
 10
226.5161
 20
37.5881
  0
SEQEND
  0
ENDBLK
  0
BLOCK
  8
LAYER_1
  2
AIGNBL01030011
 70
64
 10
0
 20
0
 30
0
  3
AIGNBL01030011
  0
INSERT
  8
LAYER_1
  2
AIGNBL01040012
 10
0
 20
0
 30
0
  0
INSERT
  8
LAYER_1
  2
AIGNBL01040013
 10
0
 20
0
 30
0
  0
INSERT
  8
LAYER_1
  2
AIGNBL01040014
 10
0
 20
0
 30
0
  0
INSERT
  8
LAYER_1
  2
AIGNBL01040015
 10
0
 20
0
 30
0
  0
INSERT
  8
LAYER_1
  2
AIGNBL01040016
 10
0
 20
0
 30
0
  0
INSERT
  8
LAYER_1
  2
AIGNBL01040017
 10
0
 20
0
 30
0
  0
INSERT
  8
LAYER_1
  2
AIGNBL01040018
 10
0
 20
0
 30
0
  0
ENDBLK
  0
BLOCK
  8
LAYER_1
  2
AIGNBL0103001A
 70
64
 10
0
 20
0
 30
0
  3
AIGNBL0103001A
  0
POLYLINE
  8
LAYER_1
 40
0.05
 41
0.05
 66
1
 10
0
 20
0
 30
0
 70
1
  0
VERTEX
  8
LAYER_1
 10
188.7254
 20
32.2475
  0
VERTEX
  8
LAYER_1
 10
189.5788
 20
32.2475
  0
VERTEX
  8
LAYER_1
 10
189.5788
 20
32.1028
  0
VERTEX
  8
LAYER_1
 10
188.5635
 20
32.1028
  0
VERTEX
  8
LAYER_1
 10
188.5635
 20
33.6958
  0
VERTEX
  8
LAYER_1
 10
189.5516
 20
33.6958
  0
VERTEX
  8
LAYER_1
 10
189.5516
 20
33.5518
  0
VERTEX
  8
LAYER_1
 10
188.7254
 20
33.5518
  0
VERTEX
  8
LAYER_1
 10
188.7254
 20
33.0054
  0
VERTEX
  8
LAYER_1
 10
189.4975
 20
33.0054
  0
VERTEX
  8
LAYER_1
 10
189.4975
 20
32.8614
  0
VERTEX
  8
LAYER_1
 10
188.7254
 20
32.8614
  0
SEQEND
  0
ENDBLK
  0
BLOCK
  8
LAYER_1
  2
AIGNBL0103001B
 70
64
 10
0
 20
0
 30
0
  3
AIGNBL0103001B
  0
POLYLINE
  8
LAYER_1
 40
0.05
 41
0.05
 66
1
 10
0
 20
0
 30
0
 70
1
  0
VERTEX
  8
LAYER_1
 10
191.3361
 20
32.3391
  0
VERTEX
  8
LAYER_1
 10
191.3406
 20
32.3391
  0
VERTEX
  8
LAYER_1
 10
191.3406
 20
33.6958
  0
VERTEX
  8
LAYER_1
 10
191.5025
 20
33.6958
  0
VERTEX
  8
LAYER_1
 10
191.5025
 20
32.1028
  0
VERTEX
  8
LAYER_1
 10
191.3006
 20
32.1028
  0
VERTEX
  8
LAYER_1
 10
190.3736
 20
33.4732
  0
VERTEX
  8
LAYER_1
 10
190.3681
 20
33.4732
  0
VERTEX
  8
LAYER_1
 10
190.3681
 20
32.1028
  0
VERTEX
  8
LAYER_1
 10
190.2068
 20
32.1028
  0
VERTEX
  8
LAYER_1
 10
190.2068
 20
33.6958
  0
VERTEX
  8
LAYER_1
 10
190.409
 20
33.6958
  0
SEQEND
  0
ENDBLK
  0
BLOCK
  8
LAYER_1
  2
AIGNBL0103001C
 70
64
 10
0
 20
0
 30
0
  3
AIGNBL0103001C
  0
POLYLINE
  8
LAYER_1
 40
0.05
 41
0.05
 66
1
 10
0
 20
0
 30
0
 70
1
  0
VERTEX
  8
LAYER_1
 10
192.2318
 20
32.4294
 42
0.1537275239
  0
VERTEX
  8
LAYER_1
 10
192.3159
 20
32.2702
 42
0.1940233907
  0
VERTEX
  8
LAYER_1
 10
192.4909
 20
32.2061
 42
0.1365801514
  0
VERTEX
  8
LAYER_1
 10
192.6284
 20
32.2364
 42
0.1240154156
  0
VERTEX
  8
LAYER_1
 10
192.7149
 20
32.3191
 42
0.09448200065
  0
VERTEX
  8
LAYER_1
 10
192.7596
 20
32.437
  0
VERTEX
  8
LAYER_1
 10
192.7724
 20
32.5748
  0
VERTEX
  8
LAYER_1
 10
192.7724
 20
33.6958
  0
VERTEX
  8
LAYER_1
 10
192.9343
 20
33.6958
  0
VERTEX
  8
LAYER_1
 10
192.9343
 20
32.5617
  0
VERTEX
  8
LAYER_1
 10
192.9167
 20
32.3956
 42
-0.09828618826
  0
VERTEX
  8
LAYER_1
 10
192.853
 20
32.233
 42
-0.1164047564
  0
VERTEX
  8
LAYER_1
 10
192.7224
 20
32.1104
 42
-0.1305794723
  0
VERTEX
  8
LAYER_1
 10
192.5081
 20
32.0621
 42
-0.1751319434
  0
VERTEX
  8
LAYER_1
 10
192.2236
 20
32.1545
 42
-0.1765957264
  0
VERTEX
  8
LAYER_1
 10
192.081
 20
32.3887
  0
SEQEND
  0
ENDBLK
  0
BLOCK
  8
LAYER_1
  2
AIGNBL0103001D
 70
64
 10
0
 20
0
 30
0
  3
AIGNBL0103001D
  0
POLYLINE
  8
LAYER_1
 40
0.05
 41
0.05
 66
1
 10
0
 20
0
 30
0
 70
1
  0
VERTEX
  8
LAYER_1
 10
195.2298
 20
32.8993
 42
-0.0999152039
  0
VERTEX
  8
LAYER_1
 10
195.1664
 20
32.5644
 42
-0.09880174955
  0
VERTEX
  8
LAYER_1
 10
194.9927
 20
32.2998
 42
-0.096181125
  0
VERTEX
  8
LAYER_1
 10
194.7292
 20
32.1255
 42
-0.09858362812
  0
VERTEX
  8
LAYER_1
 10
194.3992
 20
32.0621
 42
-0.09946337484
  0
VERTEX
  8
LAYER_1
 10
194.0698
 20
32.1255
 42
-0.09929172255
  0
VERTEX
  8
LAYER_1
 10
193.8063
 20
32.2998
 42
-0.09848828498
  0
VERTEX
  8
LAYER_1
 10
193.6316
 20
32.5644
 42
-0.09810272871
  0
VERTEX
  8
LAYER_1
 10
193.5689
 20
32.8993
 42
-0.09921238314
  0
VERTEX
  8
LAYER_1
 10
193.6316
 20
33.2348
 42
-0.09951874865
  0
VERTEX
  8
LAYER_1
 10
193.8063
 20
33.4994
 42
-0.09998775454
  0
VERTEX
  8
LAYER_1
 10
194.0698
 20
33.6737
 42
-0.09901560058
  0
VERTEX
  8
LAYER_1
 10
194.3992
 20
33.7371
 42
-0.09950956293
  0
VERTEX
  8
LAYER_1
 10
194.7292
 20
33.6737
 42
-0.09786351832
  0
VERTEX
  8
LAYER_1
 10
194.9927
 20
33.4994
 42
-0.09824005769
  0
VERTEX
  8
LAYER_1
 10
195.1664
 20
33.2348
 42
-0.09907662354
  0
SEQEND
  0
POLYLINE
  8
LAYER_1
 40
0.05
 41
0.05
 66
1
 10
0
 20
0
 30
0
 70
1
  0
VERTEX
  8
LAYER_1
 10
195.0586
 20
32.8986
 42
0.08545335971
  0
VERTEX
  8
LAYER_1
 10
195.0141
 20
33.1639
 42
0.0962671808
  0
VERTEX
  8
LAYER_1
 10
194.8832
 20
33.3844
 42
0.1047026381
  0
VERTEX
  8
LAYER_1
 10
194.6751
 20
33.5359
 42
0.108421208
  0
VERTEX
  8
LAYER_1
 10
194.3992
 20
33.5931
 42
0.1106917346
  0
VERTEX
  8
LAYER_1
 10
194.1236
 20
33.5359
 42
0.1064271188
  0
VERTEX
  8
LAYER_1
 10
193.9158
 20
33.3844
 42
0.09900208634
  0
VERTEX
  8
LAYER_1
 10
193.7849
 20
33.1639
 42
0.08478795569
  0
VERTEX
  8
LAYER_1
 10
193.7398
 20
32.8986
 42
0.08592890171
  0
VERTEX
  8
LAYER_1
 10
193.7849
 20
32.6333
 42
0.1000923535
  0
VERTEX
  8
LAYER_1
 10
193.9158
 20
32.4128
 42
0.1005084906
  0
VERTEX
  8
LAYER_1
 10
194.1236
 20
32.2626
 42
0.1087184549
  0
VERTEX
  8
LAYER_1
 10
194.3992
 20
32.2061
 42
0.1105386329
  0
VERTEX
  8
LAYER_1
 10
194.6751
 20
32.2626
 42
0.1023036151
  0
VERTEX
  8
LAYER_1
 10
194.8832
 20
32.4128
 42
0.09443431789
  0
VERTEX
  8
LAYER_1
 10
195.0141
 20
32.6333
 42
0.08490155302
  0
SEQEND
  0
ENDBLK
  0
BLOCK
  8
LAYER_1
  2
AIGNBL0103001E
 70
64
 10
0
 20
0
 30
0
  3
AIGNBL0103001E
  0
POLYLINE
  8
LAYER_1
 40
0.05
 41
0.05
 66
1
 10
0
 20
0
 30
0
 70
1
  0
VERTEX
  8
LAYER_1
 10
196.4245
 20
32.1028
  0
VERTEX
  8
LAYER_1
 10
196.263
 20
32.1028
  0
VERTEX
  8
LAYER_1
 10
196.263
 20
32.7897
  0
VERTEX
  8
LAYER_1
 10
195.6663
 20
33.6958
  0
VERTEX
  8
LAYER_1
 10
195.8688
 20
33.6958
  0
VERTEX
  8
LAYER_1
 10
196.3487
 20
32.9248
  0
VERTEX
  8
LAYER_1
 10
196.8321
 20
33.6958
  0
VERTEX
  8
LAYER_1
 10
197.0205
 20
33.6958
  0
VERTEX
  8
LAYER_1
 10
196.4245
 20
32.7897
  0
SEQEND
  0
ENDBLK
  0
BLOCK
  8
LAYER_1
  2
AIGNBL0103001F
 70
64
 10
0
 20
0
 30
0
  3
AIGNBL0103001F
  0
POLYLINE
  8
LAYER_1
 40
0.05
 41
0.05
 66
1
 10
0
 20
0
 30
0
 70
1
  0
VERTEX
  8
LAYER_1
 10
198.4165
 20
33.6958
  0
VERTEX
  8
LAYER_1
 10
198.8909
 20
33.6958
  0
VERTEX
  8
LAYER_1
 10
199.0735
 20
33.6772
 42
-0.09131819756
  0
VERTEX
  8
LAYER_1
 10
199.2385
 20
33.6117
 42
-0.1160737072
  0
VERTEX
  8
LAYER_1
 10
199.3584
 20
33.487
 42
-0.1279559918
  0
VERTEX
  8
LAYER_1
 10
199.4042
 20
33.2893
 42
-0.1795256557
  0
VERTEX
  8
LAYER_1
 10
199.327
 20
33.0695
 42
-0.1716189459
  0
VERTEX
  8
LAYER_1
 10
199.1214
 20
32.9468
  0
VERTEX
  8
LAYER_1
 10
199.1214
 20
32.9427
 42
-0.1703646004
  0
VERTEX
  8
LAYER_1
 10
199.3787
 20
32.8221
 42
-0.20471047
  0
VERTEX
  8
LAYER_1
 10
199.4807
 20
32.5437
 42
-0.1245956566
  0
VERTEX
  8
LAYER_1
 10
199.4386
 20
32.3632
 42
-0.1189396122
  0
VERTEX
  8
LAYER_1
 10
199.3212
 20
32.2234
 42
-0.09077330084
  0
VERTEX
  8
LAYER_1
 10
199.1348
 20
32.1345
 42
-0.06772437962
  0
VERTEX
  8
LAYER_1
 10
198.8881
 20
32.1028
  0
VERTEX
  8
LAYER_1
 10
198.4165
 20
32.1028
  0
SEQEND
  0
POLYLINE
  8
LAYER_1
 40
0.05
 41
0.05
 66
1
 10
0
 20
0
 30
0
 70
1
  0
VERTEX
  8
LAYER_1
 10
198.5784
 20
32.9985
  0
VERTEX
  8
LAYER_1
 10
198.9047
 20
32.9985
  0
VERTEX
  8
LAYER_1
 10
199.0232
 20
33.0123
 42
0.08843246957
  0
VERTEX
  8
LAYER_1
 10
199.1317
 20
33.0578
 42
0.1206551639
  0
VERTEX
  8
LAYER_1
 10
199.2116
 20
33.1453
 42
0.1230128427
  0
VERTEX
  8
LAYER_1
 10
199.2419
 20
33.2776
 42
0.1422181681
  0
VERTEX
  8
LAYER_1
 10
199.2116
 20
33.4071
 42
0.1156851026
  0
VERTEX
  8
LAYER_1
 10
199.13
 20
33.4939
 42
0.08770034366
  0
VERTEX
  8
LAYER_1
 10
199.0084
 20
33.5421
  0
VERTEX
  8
LAYER_1
 10
198.8595
 20
33.5566
  0
VERTEX
  8
LAYER_1
 10
198.5784
 20
33.5566
  0
SEQEND
  0
POLYLINE
  8
LAYER_1
 40
0.05
 41
0.05
 66
1
 10
0
 20
0
 30
0
 70
1
  0
VERTEX
  8
LAYER_1
 10
198.5784
 20
32.2426
  0
VERTEX
  8
LAYER_1
 10
198.8802
 20
32.2426
  0
VERTEX
  8
LAYER_1
 10
199.0476
 20
32.2592
 42
0.08404187183
  0
VERTEX
  8
LAYER_1
 10
199.1875
 20
32.3129
 42
0.1178392492
  0
VERTEX
  8
LAYER_1
 10
199.2826
 20
32.4101
 42
0.1321221887
  0
VERTEX
  8
LAYER_1
 10
199.3184
 20
32.5534
 42
0.2440661398
  0
VERTEX
  8
LAYER_1
 10
199.2116
 20
32.7884
 42
0.1587463494
  0
VERTEX
  8
LAYER_1
 10
198.9095
 20
32.8655
  0
VERTEX
  8
LAYER_1
 10
198.5784
 20
32.8655
  0
SEQEND
  0
ENDBLK
  0
BLOCK
  8
LAYER_1
  2
AIGNBL01030020
 70
64
 10
0
 20
0
 30
0
  3
AIGNBL01030020
  0
POLYLINE
  8
LAYER_1
 40
0.05
 41
0.05
 66
1
 10
0
 20
0
 30
0
 70
1
  0
VERTEX
  8
LAYER_1
 10
200.147
 20
32.1028
  0
VERTEX
  8
LAYER_1
 10
199.9688
 20
32.1028
  0
VERTEX
  8
LAYER_1
 10
200.6579
 20
33.6958
  0
VERTEX
  8
LAYER_1
 10
200.8156
 20
33.6958
  0
VERTEX
  8
LAYER_1
 10
201.4995
 20
32.1028
  0
VERTEX
  8
LAYER_1
 10
201.3193
 20
32.1028
  0
VERTEX
  8
LAYER_1
 10
201.1436
 20
32.521
  0
VERTEX
  8
LAYER_1
 10
200.3199
 20
32.521
  0
SEQEND
  0
POLYLINE
  8
LAYER_1
 40
0.05
 41
0.05
 66
1
 10
0
 20
0
 30
0
 70
1
  0
VERTEX
  8
LAYER_1
 10
200.3805
 20
32.6698
  0
VERTEX
  8
LAYER_1
 10
201.083
 20
32.6698
  0
VERTEX
  8
LAYER_1
 10
200.7319
 20
33.5166
  0
SEQEND
  0
ENDBLK
  0
BLOCK
  8
LAYER_1
  2
AIGNBL01030021
 70
64
 10
0
 20
0
 30
0
  3
AIGNBL01030021
  0
POLYLINE
  8
LAYER_1
 40
0.05
 41
0.05
 66
1
 10
0
 20
0
 30
0
 70
1
  0
VERTEX
  8
LAYER_1
 10
202.5554
 20
32.1028
  0
VERTEX
  8
LAYER_1
 10
202.3932
 20
32.1028
  0
VERTEX
  8
LAYER_1
 10
202.3932
 20
33.5518
  0
VERTEX
  8
LAYER_1
 10
201.8592
 20
33.5518
  0
VERTEX
  8
LAYER_1
 10
201.8592
 20
33.6958
  0
VERTEX
  8
LAYER_1
 10
203.088
 20
33.6958
  0
VERTEX
  8
LAYER_1
 10
203.088
 20
33.5518
  0
VERTEX
  8
LAYER_1
 10
202.5554
 20
33.5518
  0
SEQEND
  0
ENDBLK
  0
BLOCK
  8
LAYER_1
  2
AIGNBL01030022
 70
64
 10
0
 20
0
 30
0
  3
AIGNBL01030022
  0
POLYLINE
  8
LAYER_1
 40
0.05
 41
0.05
 66
1
 10
0
 20
0
 30
0
 70
1
  0
VERTEX
  8
LAYER_1
 10
203.6375
 20
33.6958
  0
VERTEX
  8
LAYER_1
 10
203.7991
 20
33.6958
  0
VERTEX
  8
LAYER_1
 10
203.7991
 20
33.0054
  0
VERTEX
  8
LAYER_1
 10
204.6683
 20
33.0054
  0
VERTEX
  8
LAYER_1
 10
204.6683
 20
33.6958
  0
VERTEX
  8
LAYER_1
 10
204.8302
 20
33.6958
  0
VERTEX
  8
LAYER_1
 10
204.8302
 20
32.1028
  0
VERTEX
  8
LAYER_1
 10
204.6683
 20
32.1028
  0
VERTEX
  8
LAYER_1
 10
204.6683
 20
32.8573
  0
VERTEX
  8
LAYER_1
 10
203.7991
 20
32.8573
  0
VERTEX
  8
LAYER_1
 10
203.7991
 20
32.1028
  0
VERTEX
  8
LAYER_1
 10
203.6375
 20
32.1028
  0
SEQEND
  0
ENDBLK
  0
BLOCK
  8
LAYER_1
  2
AIGNBL01030023
 70
64
 10
0
 20
0
 30
0
  3
AIGNBL01030023
  0
POLYLINE
  8
LAYER_1
 40
0.05
 41
0.05
 66
1
 10
0
 20
0
 30
0
 70
1
  0
VERTEX
  8
LAYER_1
 10
205.7256
 20
32.1028
  0
VERTEX
  8
LAYER_1
 10
205.5633
 20
32.1028
  0
VERTEX
  8
LAYER_1
 10
205.5633
 20
33.6958
  0
VERTEX
  8
LAYER_1
 10
206.0322
 20
33.6958
 42
-0.06098978775
  0
VERTEX
  8
LAYER_1
 10
206.2489
 20
33.6737
 42
-0.1001054077
  0
VERTEX
  8
LAYER_1
 10
206.4225
 20
33.6007
 42
-0.1299769832
  0
VERTEX
  8
LAYER_1
 10
206.5359
 20
33.4684
 42
-0.1126944285
  0
VERTEX
  8
LAYER_1
 10
206.5762
 20
33.2707
 42
-0.1056020148
  0
VERTEX
  8
LAYER_1
 10
206.5452
 20
33.1108
 42
-0.09410749627
  0
VERTEX
  8
LAYER_1
 10
206.4597
 20
32.9861
 42
-0.09207773719
  0
VERTEX
  8
LAYER_1
 10
206.3312
 20
32.902
 42
-0.07642864183
  0
VERTEX
  8
LAYER_1
 10
206.1693
 20
32.8614
  0
VERTEX
  8
LAYER_1
 10
206.6351
 20
32.1028
  0
VERTEX
  8
LAYER_1
 10
206.437
 20
32.1028
  0
VERTEX
  8
LAYER_1
 10
205.996
 20
32.8476
  0
VERTEX
  8
LAYER_1
 10
205.7256
 20
32.8476
  0
SEQEND
  0
POLYLINE
  8
LAYER_1
 40
0.05
 41
0.05
 66
1
 10
0
 20
0
 30
0
 70
1
  0
VERTEX
  8
LAYER_1
 10
205.7256
 20
32.9875
  0
VERTEX
  8
LAYER_1
 10
206.0071
 20
32.9875
 42
0.1460654446
  0
VERTEX
  8
LAYER_1
 10
206.3089
 20
33.0578
 42
0.2607021565
  0
VERTEX
  8
LAYER_1
 10
206.4146
 20
33.2707
 42
0.1381874466
  0
VERTEX
  8
LAYER_1
 10
206.385
 20
33.403
 42
0.1264539277
  0
VERTEX
  8
LAYER_1
 10
206.304
 20
33.4912
 42
0.09422389046
  0
VERTEX
  8
LAYER_1
 10
206.1783
 20
33.5408
 42
0.0480259264
  0
VERTEX
  8
LAYER_1
 10
206.014
 20
33.5566
  0
VERTEX
  8
LAYER_1
 10
205.7256
 20
33.5566
  0
SEQEND
  0
ENDBLK
  0
BLOCK
  8
LAYER_1
  2
AIGNBL01030024
 70
64
 10
0
 20
0
 30
0
  3
AIGNBL01030024
  0
POLYLINE
  8
LAYER_1
 40
0.05
 41
0.05
 66
1
 10
0
 20
0
 30
0
 70
1
  0
VERTEX
  8
LAYER_1
 10
208.7976
 20
32.8993
 42
-0.09738165361
  0
VERTEX
  8
LAYER_1
 10
208.7349
 20
32.5644
 42
-0.09903552292
  0
VERTEX
  8
LAYER_1
 10
208.5599
 20
32.2998
 42
-0.09937684681
  0
VERTEX
  8
LAYER_1
 10
208.297
 20
32.1255
 42
-0.09868805195
  0
VERTEX
  8
LAYER_1
 10
207.967
 20
32.0621
 42
-0.09950597382
  0
VERTEX
  8
LAYER_1
 10
207.6373
 20
32.1255
 42
-0.09912139565
  0
VERTEX
  8
LAYER_1
 10
207.3741
 20
32.2998
 42
-0.09919227223
  0
VERTEX
  8
LAYER_1
 10
207.1998
 20
32.5644
 42
-0.09742775703
  0
VERTEX
  8
LAYER_1
 10
207.1371
 20
32.8993
 42
-0.09848971109
  0
VERTEX
  8
LAYER_1
 10
207.1998
 20
33.2348
 42
-0.1000840271
  0
VERTEX
  8
LAYER_1
 10
207.3741
 20
33.4994
 42
-0.09843839836
  0
VERTEX
  8
LAYER_1
 10
207.6373
 20
33.6737
 42
-0.09903895652
  0
VERTEX
  8
LAYER_1
 10
207.967
 20
33.7371
 42
-0.09967196834
  0
VERTEX
  8
LAYER_1
 10
208.297
 20
33.6737
 42
-0.1002688857
  0
VERTEX
  8
LAYER_1
 10
208.5599
 20
33.4994
 42
-0.09843432409
  0
VERTEX
  8
LAYER_1
 10
208.7349
 20
33.2348
 42
-0.09666783648
  0
SEQEND
  0
POLYLINE
  8
LAYER_1
 40
0.05
 41
0.05
 66
1
 10
0
 20
0
 30
0
 70
1
  0
VERTEX
  8
LAYER_1
 10
208.6264
 20
32.8986
 42
0.08787089228
  0
VERTEX
  8
LAYER_1
 10
208.5812
 20
33.1639
 42
0.1001063887
  0
VERTEX
  8
LAYER_1
 10
208.4507
 20
33.3844
 42
0.1039803422
  0
VERTEX
  8
LAYER_1
 10
208.2429
 20
33.5359
 42
0.1084750353
  0
VERTEX
  8
LAYER_1
 10
207.967
 20
33.5931
 42
0.1106917346
  0
VERTEX
  8
LAYER_1
 10
207.6914
 20
33.5359
 42
0.1064255967
  0
VERTEX
  8
LAYER_1
 10
207.4829
 20
33.3844
 42
0.09655880758
  0
VERTEX
  8
LAYER_1
 10
207.3524
 20
33.1639
 42
0.08481684884
  0
VERTEX
  8
LAYER_1
 10
207.3076
 20
32.8986
 42
0.08647542323
  0
VERTEX
  8
LAYER_1
 10
207.3524
 20
32.6333
 42
0.09767714163
  0
VERTEX
  8
LAYER_1
 10
207.4829
 20
32.4128
 42
0.1001635084
  0
VERTEX
  8
LAYER_1
 10
207.6914
 20
32.2626
 42
0.1087184549
  0
VERTEX
  8
LAYER_1
 10
207.967
 20
32.2061
 42
0.1105921433
  0
VERTEX
  8
LAYER_1
 10
208.2429
 20
32.2626
 42
0.1016003305
  0
VERTEX
  8
LAYER_1
 10
208.4507
 20
32.4128
 42
0.09956443743
  0
VERTEX
  8
LAYER_1
 10
208.5812
 20
32.6333
 42
0.08690625822
  0
SEQEND
  0
ENDBLK
  0
BLOCK
  8
LAYER_1
  2
AIGNBL01030025
 70
64
 10
0
 20
0
 30
0
  3
AIGNBL01030025
  0
POLYLINE
  8
LAYER_1
 40
0.05
 41
0.05
 66
1
 10
0
 20
0
 30
0
 70
1
  0
VERTEX
  8
LAYER_1
 10
211.0211
 20
32.8993
 42
-0.100637837
  0
VERTEX
  8
LAYER_1
 10
210.9577
 20
32.5644
 42
-0.09992542073
  0
VERTEX
  8
LAYER_1
 10
210.784
 20
32.2998
 42
-0.09785486213
  0
VERTEX
  8
LAYER_1
 10
210.5205
 20
32.1255
 42
-0.09869790589
  0
VERTEX
  8
LAYER_1
 10
210.1904
 20
32.0621
 42
-0.09965845134
  0
VERTEX
  8
LAYER_1
 10
209.8611
 20
32.1255
 42
-0.09988784752
  0
VERTEX
  8
LAYER_1
 10
209.5975
 20
32.2998
 42
-0.09761988709
  0
VERTEX
  8
LAYER_1
 10
209.4229
 20
32.5644
 42
-0.0983033912
  0
VERTEX
  8
LAYER_1
 10
209.3602
 20
32.8993
 42
-0.0994532371
  0
VERTEX
  8
LAYER_1
 10
209.4229
 20
33.2348
 42
-0.09844414687
  0
VERTEX
  8
LAYER_1
 10
209.5975
 20
33.4994
 42
-0.09908526933
  0
VERTEX
  8
LAYER_1
 10
209.8611
 20
33.6737
 42
-0.09914227074
  0
VERTEX
  8
LAYER_1
 10
210.1904
 20
33.7371
 42
-0.09968804533
  0
VERTEX
  8
LAYER_1
 10
210.5205
 20
33.6737
 42
-0.09849396964
  0
VERTEX
  8
LAYER_1
 10
210.784
 20
33.4994
 42
-0.09942994064
  0
VERTEX
  8
LAYER_1
 10
210.9577
 20
33.2348
 42
-0.09967695704
  0
SEQEND
  0
POLYLINE
  8
LAYER_1
 40
0.05
 41
0.05
 66
1
 10
0
 20
0
 30
0
 70
1
  0
VERTEX
  8
LAYER_1
 10
210.8498
 20
32.8986
 42
0.0855192252
  0
VERTEX
  8
LAYER_1
 10
210.8054
 20
33.1639
 42
0.0962671808
  0
VERTEX
  8
LAYER_1
 10
210.6745
 20
33.3844
 42
0.1043838461
  0
VERTEX
  8
LAYER_1
 10
210.4664
 20
33.5359
 42
0.108646767
  0
VERTEX
  8
LAYER_1
 10
210.1904
 20
33.5931
 42
0.1103295677
  0
VERTEX
  8
LAYER_1
 10
209.9148
 20
33.5359
 42
0.1061395762
  0
VERTEX
  8
LAYER_1
 10
209.7071
 20
33.3844
 42
0.09987194123
  0
VERTEX
  8
LAYER_1
 10
209.5765
 20
33.1639
 42
0.08536145747
  0
VERTEX
  8
LAYER_1
 10
209.5314
 20
32.8986
 42
0.08701125897
  0
VERTEX
  8
LAYER_1
 10
209.5765
 20
32.6333
 42
0.100786356
  0
VERTEX
  8
LAYER_1
 10
209.7071
 20
32.4128
 42
0.09998628835
  0
VERTEX
  8
LAYER_1
 10
209.9148
 20
32.2626
 42
0.1084927945
  0
VERTEX
  8
LAYER_1
 10
210.1904
 20
32.2061
 42
0.1107739367
  0
VERTEX
  8
LAYER_1
 10
210.4664
 20
32.2626
 42
0.1019986384
  0
VERTEX
  8
LAYER_1
 10
210.6745
 20
32.4128
 42
0.09443431789
  0
VERTEX
  8
LAYER_1
 10
210.8054
 20
32.6333
 42
0.084884311
  0
SEQEND
  0
ENDBLK
  0
BLOCK
  8
LAYER_1
  2
AIGNBL01030026
 70
64
 10
0
 20
0
 30
0
  3
AIGNBL01030026
  0
POLYLINE
  8
LAYER_1
 40
0.05
 41
0.05
 66
1
 10
0
 20
0
 30
0
 70
1
  0
VERTEX
  8
LAYER_1
 10
212.4566
 20
32.377
  0
VERTEX
  8
LAYER_1
 10
212.4594
 20
32.377
  0
VERTEX
  8
LAYER_1
 10
212.992
 20
33.6958
  0
VERTEX
  8
LAYER_1
 10
213.2404
 20
33.6958
  0
VERTEX
  8
LAYER_1
 10
213.2404
 20
32.1028
  0
VERTEX
  8
LAYER_1
 10
213.0778
 20
32.1028
  0
VERTEX
  8
LAYER_1
 10
213.0778
 20
33.487
  0
VERTEX
  8
LAYER_1
 10
213.0733
 20
33.487
  0
VERTEX
  8
LAYER_1
 10
212.4976
 20
32.1028
  0
VERTEX
  8
LAYER_1
 10
212.4118
 20
32.1028
  0
VERTEX
  8
LAYER_1
 10
211.8355
 20
33.487
  0
VERTEX
  8
LAYER_1
 10
211.8313
 20
33.487
  0
VERTEX
  8
LAYER_1
 10
211.8313
 20
32.1028
  0
VERTEX
  8
LAYER_1
 10
211.6691
 20
32.1028
  0
VERTEX
  8
LAYER_1
 10
211.6691
 20
33.6958
  0
VERTEX
  8
LAYER_1
 10
211.9168
 20
33.6958
  0
SEQEND
  0
ENDBLK
  0
BLOCK
  8
LAYER_1
  2
AIGNBL01030027
 70
64
 10
0
 20
0
 30
0
  3
AIGNBL01030027
  0
POLYLINE
  8
LAYER_1
 40
0.05
 41
0.05
 66
1
 10
0
 20
0
 30
0
 70
1
  0
VERTEX
  8
LAYER_1
 10
215.0084
 20
32.2475
  0
VERTEX
  8
LAYER_1
 10
215.8618
 20
32.2475
  0
VERTEX
  8
LAYER_1
 10
215.8618
 20
32.1028
  0
VERTEX
  8
LAYER_1
 10
214.8465
 20
32.1028
  0
VERTEX
  8
LAYER_1
 10
214.8465
 20
33.6958
  0
VERTEX
  8
LAYER_1
 10
215.8345
 20
33.6958
  0
VERTEX
  8
LAYER_1
 10
215.8345
 20
33.5518
  0
VERTEX
  8
LAYER_1
 10
215.0084
 20
33.5518
  0
VERTEX
  8
LAYER_1
 10
215.0084
 20
33.0054
  0
VERTEX
  8
LAYER_1
 10
215.7805
 20
33.0054
  0
VERTEX
  8
LAYER_1
 10
215.7805
 20
32.8614
  0
VERTEX
  8
LAYER_1
 10
215.0084
 20
32.8614
  0
SEQEND
  0
ENDBLK
  0
BLOCK
  8
LAYER_1
  2
AIGNBL01030028
 70
64
 10
0
 20
0
 30
0
  3
AIGNBL01030028
  0
POLYLINE
  8
LAYER_1
 40
0.05
 41
0.05
 66
1
 10
0
 20
0
 30
0
 70
1
  0
VERTEX
  8
LAYER_1
 10
217.011
 20
33.0529
  0
VERTEX
  8
LAYER_1
 10
217.4462
 20
33.6958
  0
VERTEX
  8
LAYER_1
 10
217.6391
 20
33.6958
  0
VERTEX
  8
LAYER_1
 10
217.111
 20
32.9379
  0
VERTEX
  8
LAYER_1
 10
217.6959
 20
32.1028
  0
VERTEX
  8
LAYER_1
 10
217.4934
 20
32.1028
  0
VERTEX
  8
LAYER_1
 10
217.0066
 20
32.8207
  0
VERTEX
  8
LAYER_1
 10
216.5232
 20
32.1028
  0
VERTEX
  8
LAYER_1
 10
216.3203
 20
32.1028
  0
VERTEX
  8
LAYER_1
 10
216.9056
 20
32.9399
  0
VERTEX
  8
LAYER_1
 10
216.3723
 20
33.6958
  0
VERTEX
  8
LAYER_1
 10
216.5752
 20
33.6958
  0
SEQEND
  0
ENDBLK
  0
BLOCK
  8
LAYER_1
  2
AIGNBL01030029
 70
64
 10
0
 20
0
 30
0
  3
AIGNBL01030029
  0
POLYLINE
  8
LAYER_1
 40
0.05
 41
0.05
 66
1
 10
0
 20
0
 30
0
 70
1
  0
VERTEX
  8
LAYER_1
 10
218.2606
 20
33.6958
  0
VERTEX
  8
LAYER_1
 10
218.7112
 20
33.6958
 42
-0.0685556442
  0
VERTEX
  8
LAYER_1
 10
218.9317
 20
33.6703
 42
-0.102941833
  0
VERTEX
  8
LAYER_1
 10
219.1012
 20
33.5911
 42
-0.1231169293
  0
VERTEX
  8
LAYER_1
 10
219.2104
 20
33.4588
 42
-0.1073325788
  0
VERTEX
  8
LAYER_1
 10
219.2483
 20
33.2714
 42
-0.120388443
  0
VERTEX
  8
LAYER_1
 10
219.2094
 20
33.0833
 42
-0.1203333785
  0
VERTEX
  8
LAYER_1
 10
219.0991
 20
32.9503
 42
-0.09040046297
  0
VERTEX
  8
LAYER_1
 10
218.9279
 20
32.8703
 42
-0.06233969657
  0
VERTEX
  8
LAYER_1
 10
218.7064
 20
32.8435
  0
VERTEX
  8
LAYER_1
 10
218.4225
 20
32.8435
  0
VERTEX
  8
LAYER_1
 10
218.4225
 20
32.1028
  0
VERTEX
  8
LAYER_1
 10
218.2606
 20
32.1028
  0
SEQEND
  0
POLYLINE
  8
LAYER_1
 40
0.05
 41
0.05
 66
1
 10
0
 20
0
 30
0
 70
1
  0
VERTEX
  8
LAYER_1
 10
218.4225
 20
32.9806
  0
VERTEX
  8
LAYER_1
 10
218.6967
 20
32.9806
 42
0.1607783643
  0
VERTEX
  8
LAYER_1
 10
218.9875
 20
33.055
 42
0.2497608382
  0
VERTEX
  8
LAYER_1
 10
219.0867
 20
33.2714
 42
0.2533251704
  0
VERTEX
  8
LAYER_1
 10
218.9844
 20
33.4884
 42
0.1486070017
  0
VERTEX
  8
LAYER_1
 10
218.6967
 20
33.5566
  0
VERTEX
  8
LAYER_1
 10
218.4225
 20
33.5566
  0
SEQEND
  0
ENDBLK
  0
BLOCK
  8
LAYER_1
  2
AIGNBL0103002A
 70
64
 10
0
 20
0
 30
0
  3
AIGNBL0103002A
  0
POLYLINE
  8
LAYER_1
 40
0.05
 41
0.05
 66
1
 10
0
 20
0
 30
0
 70
1
  0
VERTEX
  8
LAYER_1
 10
220.0382
 20
32.2475
  0
VERTEX
  8
LAYER_1
 10
220.8916
 20
32.2475
  0
VERTEX
  8
LAYER_1
 10
220.8916
 20
32.1028
  0
VERTEX
  8
LAYER_1
 10
219.8763
 20
32.1028
  0
VERTEX
  8
LAYER_1
 10
219.8763
 20
33.6958
  0
VERTEX
  8
LAYER_1
 10
220.8644
 20
33.6958
  0
VERTEX
  8
LAYER_1
 10
220.8644
 20
33.5518
  0
VERTEX
  8
LAYER_1
 10
220.0382
 20
33.5518
  0
VERTEX
  8
LAYER_1
 10
220.0382
 20
33.0054
  0
VERTEX
  8
LAYER_1
 10
220.8103
 20
33.0054
  0
VERTEX
  8
LAYER_1
 10
220.8103
 20
32.8614
  0
VERTEX
  8
LAYER_1
 10
220.0382
 20
32.8614
  0
SEQEND
  0
ENDBLK
  0
BLOCK
  8
LAYER_1
  2
AIGNBL0103002B
 70
64
 10
0
 20
0
 30
0
  3
AIGNBL0103002B
  0
POLYLINE
  8
LAYER_1
 40
0.05
 41
0.05
 66
1
 10
0
 20
0
 30
0
 70
1
  0
VERTEX
  8
LAYER_1
 10
221.6812
 20
32.1028
  0
VERTEX
  8
LAYER_1
 10
221.519
 20
32.1028
  0
VERTEX
  8
LAYER_1
 10
221.519
 20
33.6958
  0
VERTEX
  8
LAYER_1
 10
221.9878
 20
33.6958
 42
-0.06098978775
  0
VERTEX
  8
LAYER_1
 10
222.2045
 20
33.6737
 42
-0.1001632582
  0
VERTEX
  8
LAYER_1
 10
222.3782
 20
33.6007
 42
-0.1266144196
  0
VERTEX
  8
LAYER_1
 10
222.4918
 20
33.4684
 42
-0.1113916164
  0
VERTEX
  8
LAYER_1
 10
222.5318
 20
33.2714
 42
-0.1038337479
  0
VERTEX
  8
LAYER_1
 10
222.5008
 20
33.1108
 42
-0.0986670371
  0
VERTEX
  8
LAYER_1
 10
222.4154
 20
32.9861
 42
-0.09408762853
  0
VERTEX
  8
LAYER_1
 10
222.2869
 20
32.902
 42
-0.07653038381
  0
VERTEX
  8
LAYER_1
 10
222.1246
 20
32.8614
  0
VERTEX
  8
LAYER_1
 10
222.5907
 20
32.1028
  0
VERTEX
  8
LAYER_1
 10
222.3926
 20
32.1028
  0
VERTEX
  8
LAYER_1
 10
221.9517
 20
32.8476
  0
VERTEX
  8
LAYER_1
 10
221.6812
 20
32.8476
  0
SEQEND
  0
POLYLINE
  8
LAYER_1
 40
0.05
 41
0.05
 66
1
 10
0
 20
0
 30
0
 70
1
  0
VERTEX
  8
LAYER_1
 10
221.6812
 20
32.9875
  0
VERTEX
  8
LAYER_1
 10
221.9627
 20
32.9875
 42
0.1463133722
  0
VERTEX
  8
LAYER_1
 10
222.2645
 20
33.0578
 42
0.2610772962
  0
VERTEX
  8
LAYER_1
 10
222.3702
 20
33.2714
 42
0.132630855
  0
VERTEX
  8
LAYER_1
 10
222.341
 20
33.4036
 42
0.1170889673
  0
VERTEX
  8
LAYER_1
 10
222.2596
 20
33.4918
 42
0.09170769327
  0
VERTEX
  8
LAYER_1
 10
222.1339
 20
33.5408
 42
0.0480259264
  0
VERTEX
  8
LAYER_1
 10
221.9696
 20
33.5566
  0
VERTEX
  8
LAYER_1
 10
221.6812
 20
33.5566
  0
SEQEND
  0
ENDBLK
  0
BLOCK
  8
LAYER_1
  2
AIGNBL0103002C
 70
64
 10
0
 20
0
 30
0
  3
AIGNBL0103002C
  0
POLYLINE
  8
LAYER_1
 40
0.05
 41
0.05
 66
1
 10
0
 20
0
 30
0
 70
1
  0
VERTEX
  8
LAYER_1
 10
223.3397
 20
32.1028
  0
VERTEX
  8
LAYER_1
 10
223.1785
 20
32.1028
  0
VERTEX
  8
LAYER_1
 10
223.1785
 20
33.6958
  0
VERTEX
  8
LAYER_1
 10
223.3397
 20
33.6958
  0
SEQEND
  0
ENDBLK
  0
BLOCK
  8
LAYER_1
  2
AIGNBL0103002D
 70
64
 10
0
 20
0
 30
0
  3
AIGNBL0103002D
  0
POLYLINE
  8
LAYER_1
 40
0.05
 41
0.05
 66
1
 10
0
 20
0
 30
0
 70
1
  0
VERTEX
  8
LAYER_1
 10
224.2358
 20
32.2475
  0
VERTEX
  8
LAYER_1
 10
225.0884
 20
32.2475
  0
VERTEX
  8
LAYER_1
 10
225.0884
 20
32.1028
  0
VERTEX
  8
LAYER_1
 10
224.0735
 20
32.1028
  0
VERTEX
  8
LAYER_1
 10
224.0735
 20
33.6958
  0
VERTEX
  8
LAYER_1
 10
225.0619
 20
33.6958
  0
VERTEX
  8
LAYER_1
 10
225.0619
 20
33.5518
  0
VERTEX
  8
LAYER_1
 10
224.2358
 20
33.5518
  0
VERTEX
  8
LAYER_1
 10
224.2358
 20
33.0054
  0
VERTEX
  8
LAYER_1
 10
225.0075
 20
33.0054
  0
VERTEX
  8
LAYER_1
 10
225.0075
 20
32.8614
  0
VERTEX
  8
LAYER_1
 10
224.2358
 20
32.8614
  0
SEQEND
  0
ENDBLK
  0
BLOCK
  8
LAYER_1
  2
AIGNBL0103002E
 70
64
 10
0
 20
0
 30
0
  3
AIGNBL0103002E
  0
POLYLINE
  8
LAYER_1
 40
0.05
 41
0.05
 66
1
 10
0
 20
0
 30
0
 70
1
  0
VERTEX
  8
LAYER_1
 10
226.8464
 20
32.3391
  0
VERTEX
  8
LAYER_1
 10
226.8506
 20
32.3391
  0
VERTEX
  8
LAYER_1
 10
226.8506
 20
33.6958
  0
VERTEX
  8
LAYER_1
 10
227.0128
 20
33.6958
  0
VERTEX
  8
LAYER_1
 10
227.0128
 20
32.1028
  0
VERTEX
  8
LAYER_1
 10
226.8103
 20
32.1028
  0
VERTEX
  8
LAYER_1
 10
225.8832
 20
33.4732
  0
VERTEX
  8
LAYER_1
 10
225.8784
 20
33.4732
  0
VERTEX
  8
LAYER_1
 10
225.8784
 20
32.1028
  0
VERTEX
  8
LAYER_1
 10
225.7165
 20
32.1028
  0
VERTEX
  8
LAYER_1
 10
225.7165
 20
33.6958
  0
VERTEX
  8
LAYER_1
 10
225.9194
 20
33.6958
  0
SEQEND
  0
ENDBLK
  0
BLOCK
  8
LAYER_1
  2
AIGNBL0103002F
 70
64
 10
0
 20
0
 30
0
  3
AIGNBL0103002F
  0
POLYLINE
  8
LAYER_1
 40
0.05
 41
0.05
 66
1
 10
0
 20
0
 30
0
 70
1
  0
VERTEX
  8
LAYER_1
 10
229.0882
 20
32.3612
  0
VERTEX
  8
LAYER_1
 10
228.9896
 20
32.2468
 42
-0.05973710282
  0
VERTEX
  8
LAYER_1
 10
228.857
 20
32.1517
 42
-0.06035673724
  0
VERTEX
  8
LAYER_1
 10
228.6899
 20
32.0862
 42
-0.06064279015
  0
VERTEX
  8
LAYER_1
 10
228.4915
 20
32.0621
 42
-0.09897623072
  0
VERTEX
  8
LAYER_1
 10
228.1583
 20
32.1255
 42
-0.1016945886
  0
VERTEX
  8
LAYER_1
 10
227.8951
 20
32.2998
 42
-0.1008053911
  0
VERTEX
  8
LAYER_1
 10
227.7232
 20
32.5644
 42
-0.09812544234
  0
VERTEX
  8
LAYER_1
 10
227.6609
 20
32.9
 42
-0.100916782
  0
VERTEX
  8
LAYER_1
 10
227.7243
 20
33.2348
 42
-0.09877054803
  0
VERTEX
  8
LAYER_1
 10
227.8979
 20
33.4994
 42
-0.09785486213
  0
VERTEX
  8
LAYER_1
 10
228.1614
 20
33.6737
 42
-0.09891142118
  0
VERTEX
  8
LAYER_1
 10
228.4915
 20
33.7371
  0
VERTEX
  8
LAYER_1
 10
228.6634
 20
33.7185
  0
VERTEX
  8
LAYER_1
 10
228.8222
 20
33.6669
  0
VERTEX
  8
LAYER_1
 10
228.9573
 20
33.5869
 42
-0.08224683404
  0
VERTEX
  8
LAYER_1
 10
229.0589
 20
33.4822
  0
VERTEX
  8
LAYER_1
 10
228.9238
 20
33.383
  0
VERTEX
  8
LAYER_1
 10
228.857
 20
33.4601
  0
VERTEX
  8
LAYER_1
 10
228.7592
 20
33.5277
  0
VERTEX
  8
LAYER_1
 10
228.6365
 20
33.5752
  0
VERTEX
  8
LAYER_1
 10
228.4935
 20
33.5931
 42
0.1086830867
  0
VERTEX
  8
LAYER_1
 10
228.2155
 20
33.5366
 42
0.1030216663
  0
VERTEX
  8
LAYER_1
 10
228.0074
 20
33.385
 42
0.09564993012
  0
VERTEX
  8
LAYER_1
 10
227.8765
 20
33.1646
 42
0.08466958162
  0
VERTEX
  8
LAYER_1
 10
227.8321
 20
32.9
 42
0.09074553723
  0
VERTEX
  8
LAYER_1
 10
227.8783
 20
32.6354
 42
0.09829614736
  0
VERTEX
  8
LAYER_1
 10
228.0099
 20
32.4142
 42
0.1053069792
  0
VERTEX
  8
LAYER_1
 10
228.2183
 20
32.2626
 42
0.1089677693
  0
VERTEX
  8
LAYER_1
 10
228.4935
 20
32.2061
 42
0.1096204258
  0
VERTEX
  8
LAYER_1
 10
228.7543
 20
32.2626
 42
0.1383406249
  0
VERTEX
  8
LAYER_1
 10
228.9614
 20
32.4425
  0
SEQEND
  0
ENDBLK
  0
BLOCK
  8
LAYER_1
  2
AIGNBL01030030
 70
64
 10
0
 20
0
 30
0
  3
AIGNBL01030030
  0
POLYLINE
  8
LAYER_1
 40
0.05
 41
0.05
 66
1
 10
0
 20
0
 30
0
 70
1
  0
VERTEX
  8
LAYER_1
 10
229.8392
 20
32.2475
  0
VERTEX
  8
LAYER_1
 10
230.6926
 20
32.2475
  0
VERTEX
  8
LAYER_1
 10
230.6926
 20
32.1028
  0
VERTEX
  8
LAYER_1
 10
229.6773
 20
32.1028
  0
VERTEX
  8
LAYER_1
 10
229.6773
 20
33.6958
  0
VERTEX
  8
LAYER_1
 10
230.6653
 20
33.6958
  0
VERTEX
  8
LAYER_1
 10
230.6653
 20
33.5518
  0
VERTEX
  8
LAYER_1
 10
229.8392
 20
33.5518
  0
VERTEX
  8
LAYER_1
 10
229.8392
 20
33.0054
  0
VERTEX
  8
LAYER_1
 10
230.6112
 20
33.0054
  0
VERTEX
  8
LAYER_1
 10
230.6112
 20
32.8614
  0
VERTEX
  8
LAYER_1
 10
229.8392
 20
32.8614
  0
SEQEND
  0
ENDBLK
  0
BLOCK
  8
LAYER_1
  2
AIGNBL01020003
 70
64
 10
0
 20
0
 30
0
  3
AIGNBL01020003
  0
POLYLINE
  8
LAYER_1
 40
0.05
 41
0.05
 66
1
 10
0
 20
0
 30
0
 70
1
  0
VERTEX
  8
LAYER_1
 10
281.4447
 20
399.202
  0
VERTEX
  8
LAYER_1
 10
280.7336
 20
399.202
  0
VERTEX
  8
LAYER_1
 10
278.4588
 20
396.9561
  0
VERTEX
  8
LAYER_1
 10
278.4588
 20
399.202
  0
VERTEX
  8
LAYER_1
 10
277.8683
 20
399.202
  0
VERTEX
  8
LAYER_1
 10
277.8683
 20
394.8307
  0
VERTEX
  8
LAYER_1
 10
278.4588
 20
394.8307
  0
VERTEX
  8
LAYER_1
 10
278.4588
 20
396.2647
  0
VERTEX
  8
LAYER_1
 10
279.1702
 20
396.9675
  0
VERTEX
  8
LAYER_1
 10
280.8669
 20
394.8307
  0
VERTEX
  8
LAYER_1
 10
281.578
 20
394.8307
  0
VERTEX
  8
LAYER_1
 10
279.5771
 20
397.3675
  0
SEQEND
  0
POLYLINE
  8
LAYER_1
 40
0.05
 41
0.05
 66
1
 10
0
 20
0
 30
0
  0
VERTEX
  8
LAYER_1
 10
286.9461
 20
397.2533
  0
VERTEX
  8
LAYER_1
 10
286.2602
 20
397.3618
 42
-0.06913007455
  0
VERTEX
  8
LAYER_1
 10
285.8361
 20
397.4842
 42
-0.1734388811
  0
VERTEX
  8
LAYER_1
 10
285.5032
 20
397.7972
 42
-0.1087484145
  0
VERTEX
  8
LAYER_1
 10
285.4472
 20
398.0875
 42
-0.2779971125
  0
VERTEX
  8
LAYER_1
 10
285.8222
 20
398.6976
 42
-0.1278420901
  0
VERTEX
  8
LAYER_1
 10
286.4175
 20
398.8412
 42
-0.006492643815
  0
VERTEX
  8
LAYER_1
 10
286.4635
 20
398.8418
 42
-0.1388619967
  0
VERTEX
  8
LAYER_1
 10
287.0944
 20
398.6808
 42
-0.1580474478
  0
VERTEX
  8
LAYER_1
 10
287.4068
 20
398.2923
 42
-0.06125421761
  0
VERTEX
  8
LAYER_1
 10
287.4736
 20
398.0303
  0
VERTEX
  8
LAYER_1
 10
288.0772
 20
398.0303
 42
0.1331872531
  0
VERTEX
  8
LAYER_1
 10
287.8666
 20
398.6848
 42
0.1320588866
  0
VERTEX
  8
LAYER_1
 10
287.4036
 20
399.0778
 42
0.1048501502
  0
VERTEX
  8
LAYER_1
 10
286.6572
 20
399.259
 42
0.01703281728
  0
VERTEX
  8
LAYER_1
 10
286.47
 20
399.2647
 42
0.1021277535
  0
VERTEX
  8
LAYER_1
 10
285.5606
 20
399.0879
 42
0.1198283036
  0
VERTEX
  8
LAYER_1
 10
285.0422
 20
398.6906
 42
0.1653837996
  0
VERTEX
  8
LAYER_1
 10
284.8246
 20
398.0417
 42
0.1470911156
  0
VERTEX
  8
LAYER_1
 10
284.9954
 20
397.4354
 42
0.1360793618
  0
VERTEX
  8
LAYER_1
 10
285.4501
 20
397.0547
 42
0.07792477994
  0
VERTEX
  8
LAYER_1
 10
286.1141
 20
396.8535
  0
VERTEX
  8
LAYER_1
 10
286.7939
 20
396.7448
 42
-0.06878601885
  0
VERTEX
  8
LAYER_1
 10
287.2039
 20
396.6325
 42
-0.169483501
  0
VERTEX
  8
LAYER_1
 10
287.5553
 20
396.3174
 42
-0.1164325627
  0
VERTEX
  8
LAYER_1
 10
287.6193
 20
396.0132
 42
-0.1724125422
  0
VERTEX
  8
LAYER_1
 10
287.4518
 20
395.503
 42
-0.1584721802
  0
VERTEX
  8
LAYER_1
 10
287.0141
 20
395.2393
 42
-0.07245656248
  0
VERTEX
  8
LAYER_1
 10
286.47
 20
395.1731
 42
-0.1216647888
  0
VERTEX
  8
LAYER_1
 10
285.7498
 20
395.3361
 42
-0.2350944637
  0
VERTEX
  8
LAYER_1
 10
285.2563
 20
396.059
  0
VERTEX
  8
LAYER_1
 10
284.6403
 20
396.059
 42
0.1333559319
  0
VERTEX
  8
LAYER_1
 10
284.8578
 20
395.4123
 42
0.1212214038
  0
VERTEX
  8
LAYER_1
 10
285.3332
 20
394.9923
 42
0.09874754593
  0
VERTEX
  8
LAYER_1
 10
286.0821
 20
394.7665
 42
0.02987283731
  0
VERTEX
  8
LAYER_1
 10
286.4573
 20
394.7446
 42
0.09226156506
  0
VERTEX
  8
LAYER_1
 10
287.4377
 20
394.9101
 42
0.1223159491
  0
VERTEX
  8
LAYER_1
 10
287.9708
 20
395.2915
 42
0.1355315453
  0
VERTEX
  8
LAYER_1
 10
288.2073
 20
395.8417
 42
0.03705162074
  0
VERTEX
  8
LAYER_1
 10
288.2232
 20
396.059
 42
0.1440889385
  0
VERTEX
  8
LAYER_1
 10
288.0549
 20
396.6914
 42
0.136499685
  0
VERTEX
  8
LAYER_1
 10
287.6338
 20
397.0479
 42
0.08070480146
  0
VERTEX
  8
LAYER_1
 10
286.9461
 20
397.2533
  0
SEQEND
  0
POLYLINE
  8
LAYER_1
 40
0.05
 41
0.05
 66
1
 10
0
 20
0
 30
0
 70
1
  0
VERTEX
  8
LAYER_1
 10
268.4977
 20
397.122
  0
VERTEX
  8
LAYER_1
 10
268.4977
 20
398.7677
  0
VERTEX
  8
LAYER_1
 10
269.6411
 20
398.7677
 42
-0.1360765863
  0
VERTEX
  8
LAYER_1
 10
270.2862
 20
398.6047
 42
-0.2642099653
  0
VERTEX
  8
LAYER_1
 10
270.6129
 20
397.9676
 42
-0.1653001469
  0
VERTEX
  8
LAYER_1
 10
270.4481
 20
397.4363
 42
-0.1616872832
  0
VERTEX
  8
LAYER_1
 10
270.0351
 20
397.176
 42
-0.07199661025
  0
VERTEX
  8
LAYER_1
 10
269.6156
 20
397.122
  0
SEQEND
  0
POLYLINE
  8
LAYER_1
 40
0.05
 41
0.05
 66
1
 10
0
 20
0
 30
0
 70
1
  0
VERTEX
  8
LAYER_1
 10
270.194
 20
396.7675
 42
0.1221867852
  0
VERTEX
  8
LAYER_1
 10
270.8819
 20
397.1005
 42
0.2053827054
  0
VERTEX
  8
LAYER_1
 10
271.2335
 20
397.8794
 42
0.0156744566
  0
VERTEX
  8
LAYER_1
 10
271.2362
 20
397.9733
 42
0.13949242
  0
VERTEX
  8
LAYER_1
 10
271.0669
 20
398.6063
 42
0.1368697471
  0
VERTEX
  8
LAYER_1
 10
270.6251
 20
398.9983
 42
0.003703867914
  0
VERTEX
  8
LAYER_1
 10
270.6071
 20
399.0075
 42
0.1052672577
  0
VERTEX
  8
LAYER_1
 10
269.7493
 20
399.2008
 42
0.007901396217
  0
VERTEX
  8
LAYER_1
 10
269.6666
 20
399.202
  0
VERTEX
  8
LAYER_1
 10
267.9068
 20
399.202
  0
VERTEX
  8
LAYER_1
 10
267.9068
 20
394.8307
  0
VERTEX
  8
LAYER_1
 10
268.4977
 20
394.8307
  0
VERTEX
  8
LAYER_1
 10
268.4977
 20
396.6821
  0
VERTEX
  8
LAYER_1
 10
269.5777
 20
396.6821
  0
VERTEX
  8
LAYER_1
 10
270.5812
 20
394.8307
  0
VERTEX
  8
LAYER_1
 10
271.2675
 20
394.8307
  0
VERTEX
  8
LAYER_1
 10
270.194
 20
396.7561
  0
SEQEND
  0
POLYLINE
  8
LAYER_1
 40
0.05
 41
0.05
 66
1
 10
0
 20
0
 30
0
 70
1
  0
VERTEX
  8
LAYER_1
 10
282.6515
 20
394.8307
  0
VERTEX
  8
LAYER_1
 10
283.2427
 20
394.8307
  0
VERTEX
  8
LAYER_1
 10
283.2427
 20
399.202
  0
VERTEX
  8
LAYER_1
 10
282.6515
 20
399.202
  0
SEQEND
  0
POLYLINE
  8
LAYER_1
 40
0.05
 41
0.05
 66
1
 10
0
 20
0
 30
0
  0
VERTEX
  8
LAYER_1
 10
274.4628
 20
395.1676
 42
-0.1201036245
  0
VERTEX
  8
LAYER_1
 10
273.709
 20
395.3422
 42
-0.1833995402
  0
VERTEX
  8
LAYER_1
 10
273.0692
 20
396.0826
 42
-0.09346695174
  0
VERTEX
  8
LAYER_1
 10
272.9139
 20
396.9133
 42
-0.006607646183
  0
VERTEX
  8
LAYER_1
 10
272.9129
 20
396.9964
 42
-0.09451233088
  0
VERTEX
  8
LAYER_1
 10
273.081
 20
397.9512
 42
-0.1136920143
  0
VERTEX
  8
LAYER_1
 10
273.4694
 20
398.5022
 42
-0.1233838019
  0
VERTEX
  8
LAYER_1
 10
274.058
 20
398.797
 42
-0.0578588559
  0
VERTEX
  8
LAYER_1
 10
274.4628
 20
398.8418
 42
-0.1204247159
  0
VERTEX
  8
LAYER_1
 10
275.2239
 20
398.6646
 42
-0.1821183244
  0
VERTEX
  8
LAYER_1
 10
275.8732
 20
397.916
 42
-0.09404686693
  0
VERTEX
  8
LAYER_1
 10
276.0314
 20
397.0798
 42
-0.006701039944
  0
VERTEX
  8
LAYER_1
 10
276.0324
 20
396.9964
 42
-0.09787375833
  0
VERTEX
  8
LAYER_1
 10
275.8612
 20
396.0703
 42
-0.1143705115
  0
VERTEX
  8
LAYER_1
 10
275.4521
 20
395.506
 42
-0.1174818689
  0
VERTEX
  8
LAYER_1
 10
274.871
 20
395.2148
 42
-0.05993966148
  0
VERTEX
  8
LAYER_1
 10
274.4628
 20
395.1676
  0
SEQEND
  0
POLYLINE
  8
LAYER_1
 40
0.05
 41
0.05
 66
1
 10
0
 20
0
 30
0
  0
VERTEX
  8
LAYER_1
 10
274.4628
 20
399.2647
 42
0.09380817421
  0
VERTEX
  8
LAYER_1
 10
273.54
 20
399.0955
 42
0.1009713649
  0
VERTEX
  8
LAYER_1
 10
272.888
 20
398.6671
 42
0.09914018748
  0
VERTEX
  8
LAYER_1
 10
272.478
 20
398.0427
 42
0.08801165144
  0
VERTEX
  8
LAYER_1
 10
272.295
 20
397.1816
 42
0.01380030723
  0
VERTEX
  8
LAYER_1
 10
272.2904
 20
397.0021
 42
0.08978712934
  0
VERTEX
  8
LAYER_1
 10
272.4619
 20
395.9903
 42
0.09632916679
  0
VERTEX
  8
LAYER_1
 10
272.8568
 20
395.3573
 42
0.1028034786
  0
VERTEX
  8
LAYER_1
 10
273.4764
 20
394.9289
 42
0.09013977037
  0
VERTEX
  8
LAYER_1
 10
274.2964
 20
394.7436
 42
0.01466939489
  0
VERTEX
  8
LAYER_1
 10
274.4628
 20
394.739
 42
0.09305512057
  0
VERTEX
  8
LAYER_1
 10
275.4034
 20
394.9093
 42
0.1015182123
  0
VERTEX
  8
LAYER_1
 10
276.0596
 20
395.3389
 42
0.09957407106
  0
VERTEX
  8
LAYER_1
 10
276.4688
 20
395.9637
 42
0.08770168348
  0
VERTEX
  8
LAYER_1
 10
276.6504
 20
396.8232
 42
0.01369252336
  0
VERTEX
  8
LAYER_1
 10
276.6549
 20
397.0021
 42
0.09193683062
  0
VERTEX
  8
LAYER_1
 10
276.4786
 20
398.0161
 42
0.09687042249
  0
VERTEX
  8
LAYER_1
 10
276.0753
 20
398.6488
 42
0.1014738264
  0
VERTEX
  8
LAYER_1
 10
275.448
 20
399.0759
 42
0.0914088598
  0
VERTEX
  8
LAYER_1
 10
274.6004
 20
399.2615
 42
0.01213375877
  0
VERTEX
  8
LAYER_1
 10
274.4628
 20
399.2647
  0
SEQEND
  0
POLYLINE
  8
LAYER_1
 40
0.05
 41
0.05
 66
1
 10
0
 20
0
 30
0
  0
VERTEX
  8
LAYER_1
 10
264.87
 20
395.2589
  0
VERTEX
  8
LAYER_1
 10
263.6883
 20
395.2589
  0
VERTEX
  8
LAYER_1
 10
263.6883
 20
396.9219
  0
VERTEX
  8
LAYER_1
 10
264.8193
 20
396.9219
 42
-0.05275806413
  0
VERTEX
  8
LAYER_1
 10
265.3631
 20
396.8743
 42
-0.1430657129
  0
VERTEX
  8
LAYER_1
 10
265.8747
 20
396.6211
 42
-0.1770511011
  0
VERTEX
  8
LAYER_1
 10
266.0421
 20
396.2122
 42
-0.02176307697
  0
VERTEX
  8
LAYER_1
 10
266.0451
 20
396.1334
 42
-0.1635613937
  0
VERTEX
  8
LAYER_1
 10
265.8826
 20
395.5937
 42
-0.1608951105
  0
VERTEX
  8
LAYER_1
 10
265.4704
 20
395.3331
 42
-0.07830107821
  0
VERTEX
  8
LAYER_1
 10
264.87
 20
395.2589
  0
SEQEND
  0
POLYLINE
  8
LAYER_1
 40
0.05
 41
0.05
 66
1
 10
0
 20
0
 30
0
 70
1
  0
VERTEX
  8
LAYER_1
 10
263.6883
 20
398.7732
  0
VERTEX
  8
LAYER_1
 10
264.9785
 20
398.7732
 42
-0.1381658882
  0
VERTEX
  8
LAYER_1
 10
265.6305
 20
398.6135
 42
-0.2604385785
  0
VERTEX
  8
LAYER_1
 10
265.8928
 20
398.0875
 42
-0.1867763055
  0
VERTEX
  8
LAYER_1
 10
265.7286
 20
397.6258
 42
-0.1639635045
  0
VERTEX
  8
LAYER_1
 10
265.2849
 20
397.3987
 42
-0.05311995908
  0
VERTEX
  8
LAYER_1
 10
264.902
 20
397.3618
  0
VERTEX
  8
LAYER_1
 10
263.6883
 20
397.3618
  0
SEQEND
  0
POLYLINE
  8
LAYER_1
 40
0.05
 41
0.05
 66
1
 10
0
 20
0
 30
0
  0
VERTEX
  8
LAYER_1
 10
265.6196
 20
397.1506
  0
VERTEX
  8
LAYER_1
 10
265.6196
 20
397.1618
 42
0.1370906713
  0
VERTEX
  8
LAYER_1
 10
266.2447
 20
397.464
 42
0.211814873
  0
VERTEX
  8
LAYER_1
 10
266.5095
 20
398.139
 42
0.1581789908
  0
VERTEX
  8
LAYER_1
 10
266.3379
 20
398.6906
 42
0.1384100717
  0
VERTEX
  8
LAYER_1
 10
265.8798
 20
399.0414
 42
0.1013642858
  0
VERTEX
  8
LAYER_1
 10
265.0873
 20
399.201
 42
0.006975573638
  0
VERTEX
  8
LAYER_1
 10
265.0098
 20
399.202
  0
VERTEX
  8
LAYER_1
 10
263.0975
 20
399.202
  0
VERTEX
  8
LAYER_1
 10
263.0975
 20
394.8307
  0
VERTEX
  8
LAYER_1
 10
264.8638
 20
394.8307
 42
0.08698062885
  0
VERTEX
  8
LAYER_1
 10
265.9157
 20
394.9927
 42
0.127478928
  0
VERTEX
  8
LAYER_1
 10
266.4309
 20
395.3556
 42
0.1417718506
  0
VERTEX
  8
LAYER_1
 10
266.6495
 20
395.9017
 42
0.03046965801
  0
VERTEX
  8
LAYER_1
 10
266.6614
 20
396.0988
 42
0.2294859749
  0
VERTEX
  8
LAYER_1
 10
266.2775
 20
396.8706
 42
0.1215377782
  0
VERTEX
  8
LAYER_1
 10
265.7042
 20
397.1355
 42
0.01431458495
  0
VERTEX
  8
LAYER_1
 10
265.6196
 20
397.1506
  0
SEQEND
  0
POLYLINE
  8
LAYER_1
 40
0.05
 41
0.05
 66
1
 10
0
 20
0
 30
0
  0
VERTEX
  8
LAYER_1
 10
255.3804
 20
385.2545
 42
-0.05827443014
  0
VERTEX
  8
LAYER_1
 10
254.1479
 20
384.4566
 42
-0.04511033051
  0
VERTEX
  8
LAYER_1
 10
252.4536
 20
383.791
 42
-0.03375494188
  0
VERTEX
  8
LAYER_1
 10
250.0651
 20
383.2464
 42
-0.01171791942
  0
VERTEX
  8
LAYER_1
 10
248.4852
 20
383.0206
 42
-0.008881956716
  0
VERTEX
  8
LAYER_1
 10
245.7221
 20
382.746
  0
VERTEX
  8
LAYER_1
 10
245.0589
 20
382.6871
 42
-0.02249235624
  0
VERTEX
  8
LAYER_1
 10
243.5011
 20
382.6168
 42
-0.03690341499
  0
VERTEX
  8
LAYER_1
 10
240.9484
 20
382.8048
 42
-0.03162874393
  0
VERTEX
  8
LAYER_1
 10
238.8643
 20
383.251
 42
-0.03174840645
  0
VERTEX
  8
LAYER_1
 10
236.8991
 20
383.9417
 42
-0.03205987389
  0
VERTEX
  8
LAYER_1
 10
235.075
 20
384.8589
 42
-0.03263071339
  0
VERTEX
  8
LAYER_1
 10
233.4137
 20
385.9847
 42
-0.03349006318
  0
VERTEX
  8
LAYER_1
 10
231.9374
 20
387.3011
 42
-0.03461650268
  0
VERTEX
  8
LAYER_1
 10
230.6679
 20
388.7905
 42
-0.03592435912
  0
VERTEX
  8
LAYER_1
 10
229.6272
 20
390.4347
 42
-0.0372535027
  0
VERTEX
  8
LAYER_1
 10
228.8372
 20
392.2161
 42
-0.05786282603
  0
VERTEX
  8
LAYER_1
 10
228.1704
 20
395.1059
 42
-0.02752751718
  0
VERTEX
  8
LAYER_1
 10
228.1263
 20
395.9021
 42
-0.05697968256
  0
VERTEX
  8
LAYER_1
 10
228.3139
 20
397.5309
 42
-0.04620439223
  0
VERTEX
  8
LAYER_1
 10
228.7934
 20
398.9776
 42
-0.04246009244
  0
VERTEX
  8
LAYER_1
 10
229.6503
 20
400.5657
 42
-0.03656192005
  0
VERTEX
  8
LAYER_1
 10
231.0249
 20
402.3772
 42
-0.0137605088
  0
VERTEX
  8
LAYER_1
 10
231.9381
 20
403.3714
 42
-0.01455498674
  0
VERTEX
  8
LAYER_1
 10
233.9454
 20
405.3134
  0
VERTEX
  8
LAYER_1
 10
235.0031
 20
406.3294
 42
-0.01776002607
  0
VERTEX
  8
LAYER_1
 10
236.6495
 20
407.8699
 42
-0.03948681369
  0
VERTEX
  8
LAYER_1
 10
238.2811
 20
409.079
 42
-0.0470648882
  0
VERTEX
  8
LAYER_1
 10
239.7518
 20
409.7982
 42
-0.04933993414
  0
VERTEX
  8
LAYER_1
 10
241.3242
 20
410.2137
 42
-0.01788807199
  0
VERTEX
  8
LAYER_1
 10
241.9794
 20
410.2964
 42
-0.02276715341
  0
VERTEX
  8
LAYER_1
 10
243.5366
 20
410.3667
 42
-0.03690759004
  0
VERTEX
  8
LAYER_1
 10
246.0891
 20
410.1787
 42
-0.03163073628
  0
VERTEX
  8
LAYER_1
 10
248.1732
 20
409.7324
 42
-0.03174900391
  0
VERTEX
  8
LAYER_1
 10
250.1383
 20
409.0417
 42
-0.03205930382
  0
VERTEX
  8
LAYER_1
 10
251.9625
 20
408.1245
 42
-0.03262928322
  0
VERTEX
  8
LAYER_1
 10
253.6237
 20
406.9987
 42
-0.03348814572
  0
VERTEX
  8
LAYER_1
 10
255.1001
 20
405.6821
 42
-0.03461452889
  0
VERTEX
  8
LAYER_1
 10
256.3696
 20
404.1927
 42
-0.03592280444
  0
VERTEX
  8
LAYER_1
 10
257.4104
 20
402.5484
 42
-0.03725284676
  0
VERTEX
  8
LAYER_1
 10
258.2004
 20
400.7671
 42
-0.05786411175
  0
VERTEX
  8
LAYER_1
 10
258.8672
 20
397.8772
 42
-0.02775302652
  0
VERTEX
  8
LAYER_1
 10
259.0164
 20
395.1976
 42
-0.03274993766
  0
VERTEX
  8
LAYER_1
 10
258.8392
 20
392.4209
 42
-0.03404497385
  0
VERTEX
  8
LAYER_1
 10
258.3978
 20
390.2396
 42
-0.04007547318
  0
VERTEX
  8
LAYER_1
 10
257.7085
 20
388.3565
 42
-0.04417216634
  0
VERTEX
  8
LAYER_1
 10
256.8318
 20
386.8365
 42
-0.04721463467
  0
VERTEX
  8
LAYER_1
 10
255.7875
 20
385.6196
 42
-0.01700971296
  0
VERTEX
  8
LAYER_1
 10
255.3804
 20
385.2545
  0
SEQEND
  0
POLYLINE
  8
LAYER_1
 40
0.05
 41
0.05
 66
1
 10
0
 20
0
 30
0
  0
VERTEX
  8
LAYER_1
 10
259.2455
 20
397.9111
 42
0.06045643612
  0
VERTEX
  8
LAYER_1
 10
258.5237
 20
400.9642
 42
0.03722199802
  0
VERTEX
  8
LAYER_1
 10
257.7003
 20
402.7738
 42
0.03634309149
  0
VERTEX
  8
LAYER_1
 10
256.6084
 20
404.4632
 42
0.03543677134
  0
VERTEX
  8
LAYER_1
 10
255.2613
 20
406.0088
 42
0.02593575174
  0
VERTEX
  8
LAYER_1
 10
254.0916
 20
407.0594
 42
0.03741535603
  0
VERTEX
  8
LAYER_1
 10
252.1441
 20
408.4051
 42
0.03497465995
  0
VERTEX
  8
LAYER_1
 10
250.0937
 20
409.4216
 42
0.03420811546
  0
VERTEX
  8
LAYER_1
 10
247.9069
 20
410.152
 42
0.03380635492
  0
VERTEX
  8
LAYER_1
 10
245.6182
 20
410.5843
 42
0.02985151976
  0
VERTEX
  8
LAYER_1
 10
243.5366
 20
410.7084
 42
0.02227717322
  0
VERTEX
  8
LAYER_1
 10
241.9411
 20
410.6364
 42
0.04964862375
  0
VERTEX
  8
LAYER_1
 10
240.1381
 20
410.2951
 42
0.04680569772
  0
VERTEX
  8
LAYER_1
 10
238.6567
 20
409.697
 42
0.04565220968
  0
VERTEX
  8
LAYER_1
 10
237.103
 20
408.7023
 42
0.01709579716
  0
VERTEX
  8
LAYER_1
 10
236.2716
 20
408.018
 42
0.01469603663
  0
VERTEX
  8
LAYER_1
 10
234.7271
 20
406.5643
  0
VERTEX
  8
LAYER_1
 10
233.6715
 20
405.5498
 42
0.01406740362
  0
VERTEX
  8
LAYER_1
 10
231.6911
 20
403.6365
 42
0.02972210799
  0
VERTEX
  8
LAYER_1
 10
229.9381
 20
401.6189
 42
0.03716251792
  0
VERTEX
  8
LAYER_1
 10
228.8278
 20
399.9061
 42
0.04424038633
  0
VERTEX
  8
LAYER_1
 10
228.1344
 20
398.2988
 42
0.04915627538
  0
VERTEX
  8
LAYER_1
 10
227.7963
 20
396.7593
 42
0.02875165725
  0
VERTEX
  8
LAYER_1
 10
227.747
 20
395.9052
 42
0.02747074167
  0
VERTEX
  8
LAYER_1
 10
227.7935
 20
395.072
 42
0.06042905997
  0
VERTEX
  8
LAYER_1
 10
228.5151
 20
392.0182
 42
0.03722706254
  0
VERTEX
  8
LAYER_1
 10
229.3383
 20
390.2086
 42
0.03636218909
  0
VERTEX
  8
LAYER_1
 10
230.4299
 20
388.5194
 42
0.03546648319
  0
VERTEX
  8
LAYER_1
 10
231.7766
 20
386.9744
 42
0.02596272846
  0
VERTEX
  8
LAYER_1
 10
232.946
 20
385.9244
 42
0.03741517953
  0
VERTEX
  8
LAYER_1
 10
234.8935
 20
384.5786
 42
0.03497862242
  0
VERTEX
  8
LAYER_1
 10
236.9438
 20
383.5619
 42
0.03421380376
  0
VERTEX
  8
LAYER_1
 10
239.1306
 20
382.8314
 42
0.03381123406
  0
VERTEX
  8
LAYER_1
 10
241.4194
 20
382.3992
 42
0.02985309434
  0
VERTEX
  8
LAYER_1
 10
243.5011
 20
382.275
 42
0.02243337254
  0
VERTEX
  8
LAYER_1
 10
245.0972
 20
382.347
  0
VERTEX
  8
LAYER_1
 10
245.7573
 20
382.4059
 42
0.01209709131
  0
VERTEX
  8
LAYER_1
 10
248.9111
 20
382.7291
 42
0.02667465712
  0
VERTEX
  8
LAYER_1
 10
251.7524
 20
383.2418
 42
0.03717421193
  0
VERTEX
  8
LAYER_1
 10
253.7402
 20
383.8847
 42
0.04664398126
  0
VERTEX
  8
LAYER_1
 10
255.1255
 20
384.6195
 42
0.02643428168
  0
VERTEX
  8
LAYER_1
 10
255.6395
 20
385.0041
 42
0.05228234641
  0
VERTEX
  8
LAYER_1
 10
256.886
 20
386.2922
 42
0.04478755371
  0
VERTEX
  8
LAYER_1
 10
257.8141
 20
387.7223
 42
0.04104964052
  0
VERTEX
  8
LAYER_1
 10
258.5523
 20
389.4392
 42
0.02613567289
  0
VERTEX
  8
LAYER_1
 10
258.952
 20
390.8559
 42
0.03626730167
  0
VERTEX
  8
LAYER_1
 10
259.3309
 20
393.3504
 42
0.02074344722
  0
VERTEX
  8
LAYER_1
 10
259.4029
 20
395.1428
 42
0.02791368813
  0
VERTEX
  8
LAYER_1
 10
259.2455
 20
397.9111
  0
SEQEND
  0
POLYLINE
  8
LAYER_1
 40
0.05
 41
0.05
 66
1
 10
0
 20
0
 30
0
 70
1
  0
VERTEX
  8
LAYER_1
 10
254.576
 20
396.3896
 42
-0.04032753284
  0
VERTEX
  8
LAYER_1
 10
254.3894
 20
394.0192
 42
-0.04012161219
  0
VERTEX
  8
LAYER_1
 10
253.9339
 20
392.1785
 42
-0.04238898037
  0
VERTEX
  8
LAYER_1
 10
253.2811
 20
390.6796
 42
-0.04766533917
  0
VERTEX
  8
LAYER_1
 10
252.4137
 20
389.3941
 42
-0.05216108607
  0
VERTEX
  8
LAYER_1
 10
251.34
 20
388.3427
 42
-0.06132027517
  0
VERTEX
  8
LAYER_1
 10
250.0904
 20
387.5944
 42
-0.04372997586
  0
VERTEX
  8
LAYER_1
 10
248.3291
 20
386.9731
 42
-0.03008929619
  0
VERTEX
  8
LAYER_1
 10
245.7612
 20
386.4505
 42
-0.008990725474
  0
VERTEX
  8
LAYER_1
 10
243.3454
 20
386.1318
  0
VERTEX
  8
LAYER_1
 10
243.1324
 20
386.1061
 42
-0.04222384689
  0
VERTEX
  8
LAYER_1
 10
240.9096
 20
386.0163
 42
-0.04179218311
  0
VERTEX
  8
LAYER_1
 10
238.9868
 20
386.267
 42
-0.001444224648
  0
VERTEX
  8
LAYER_1
 10
238.9246
 20
386.2808
 42
-0.08082836933
  0
VERTEX
  8
LAYER_1
 10
235.3868
 20
387.7048
 42
-0.1843096854
  0
VERTEX
  8
LAYER_1
 10
230.087
 20
394.5527
 42
-0.03418230846
  0
VERTEX
  8
LAYER_1
 10
229.7476
 20
396.0937
 42
-0.03659004632
  0
VERTEX
  8
LAYER_1
 10
229.6769
 20
397.039
 42
-0.06060583724
  0
VERTEX
  8
LAYER_1
 10
229.863
 20
398.5607
 42
-0.04987526961
  0
VERTEX
  8
LAYER_1
 10
230.3464
 20
399.9184
 42
-0.0463619724
  0
VERTEX
  8
LAYER_1
 10
231.2391
 20
401.435
 42
-0.03788267814
  0
VERTEX
  8
LAYER_1
 10
232.6393
 20
403.112
 42
-0.02443806133
  0
VERTEX
  8
LAYER_1
 10
234.5073
 20
404.8754
  0
VERTEX
  8
LAYER_1
 10
235.432
 20
405.7079
 42
-0.02104820943
  0
VERTEX
  8
LAYER_1
 10
236.928
 20
407.0131
 42
-0.0463007719
  0
VERTEX
  8
LAYER_1
 10
238.3581
 20
407.955
 42
-0.05408370526
  0
VERTEX
  8
LAYER_1
 10
239.6891
 20
408.4714
 42
-0.04458532955
  0
VERTEX
  8
LAYER_1
 10
240.9228
 20
408.6836
 42
-0.02156597693
  0
VERTEX
  8
LAYER_1
 10
242.0982
 20
408.7341
 42
-0.05799360853
  0
VERTEX
  8
LAYER_1
 10
245.1855
 20
408.3751
 42
-0.03911379441
  0
VERTEX
  8
LAYER_1
 10
247.144
 20
407.7466
 42
-0.04175291897
  0
VERTEX
  8
LAYER_1
 10
249.0576
 20
406.7687
 42
-0.04248080691
  0
VERTEX
  8
LAYER_1
 10
250.749
 20
405.506
 42
-0.04121647155
  0
VERTEX
  8
LAYER_1
 10
252.096
 20
404.0933
 42
-0.04015516692
  0
VERTEX
  8
LAYER_1
 10
253.1138
 20
402.5994
 42
-0.04205147242
  0
VERTEX
  8
LAYER_1
 10
253.8716
 20
400.9592
 42
-0.05016671586
  0
VERTEX
  8
LAYER_1
 10
254.3838
 20
398.9341
 42
-0.03627503264
  0
VERTEX
  8
LAYER_1
 10
254.576
 20
396.3903
  0
SEQEND
  0
POLYLINE
  8
LAYER_1
 40
0.05
 41
0.05
 66
1
 10
0
 20
0
 30
0
  0
VERTEX
  8
LAYER_1
 10
242.0982
 20
409.1633
 42
0.02054480718
  0
VERTEX
  8
LAYER_1
 10
240.8794
 20
409.1115
 42
0.05546189218
  0
VERTEX
  8
LAYER_1
 10
239.2409
 20
408.7902
 42
0.05251280522
  0
VERTEX
  8
LAYER_1
 10
237.8623
 20
408.1842
 42
0.04491440627
  0
VERTEX
  8
LAYER_1
 10
236.4245
 20
407.1817
 42
0.01589170313
  0
VERTEX
  8
LAYER_1
 10
235.0943
 20
406.0088
  0
VERTEX
  8
LAYER_1
 10
235.0516
 20
405.9704
  0
VERTEX
  8
LAYER_1
 10
234.1752
 20
405.1837
 42
0.0293495002
  0
VERTEX
  8
LAYER_1
 10
231.878
 20
402.9614
 42
0.03631513803
  0
VERTEX
  8
LAYER_1
 10
230.5921
 20
401.3103
 42
0.04483757134
  0
VERTEX
  8
LAYER_1
 10
229.767
 20
399.7758
 42
0.04994149557
  0
VERTEX
  8
LAYER_1
 10
229.3255
 20
398.3399
 42
0.04854188454
  0
VERTEX
  8
LAYER_1
 10
229.1984
 20
397.0412
 42
0.03715510951
  0
VERTEX
  8
LAYER_1
 10
229.2739
 20
396.0361
 42
0.06322709892
  0
VERTEX
  8
LAYER_1
 10
230.0921
 20
393.1338
 42
0.05619979524
  0
VERTEX
  8
LAYER_1
 10
231.441
 20
390.7396
 42
0.07329388279
  0
VERTEX
  8
LAYER_1
 10
233.9888
 20
388.1195
 42
0.07435656706
  0
VERTEX
  8
LAYER_1
 10
237.2245
 20
386.3329
 42
0.03356134389
  0
VERTEX
  8
LAYER_1
 10
238.8095
 20
385.8634
 42
0.04386441913
  0
VERTEX
  8
LAYER_1
 10
240.8889
 20
385.5883
 42
0.01154452605
  0
VERTEX
  8
LAYER_1
 10
241.4922
 20
385.5744
 42
0.03056722751
  0
VERTEX
  8
LAYER_1
 10
243.1958
 20
385.68
  0
VERTEX
  8
LAYER_1
 10
243.4036
 20
385.706
 42
0.01280223546
  0
VERTEX
  8
LAYER_1
 10
246.2314
 20
386.0896
 42
0.02992648603
  0
VERTEX
  8
LAYER_1
 10
248.8513
 20
386.672
 42
0.04180868802
  0
VERTEX
  8
LAYER_1
 10
250.5737
 20
387.3405
 42
0.04904239712
  0
VERTEX
  8
LAYER_1
 10
251.6556
 20
388.0202
 42
0.05429271357
  0
VERTEX
  8
LAYER_1
 10
252.8247
 20
389.1727
 42
0.04834550018
  0
VERTEX
  8
LAYER_1
 10
253.7261
 20
390.5238
 42
0.04348634732
  0
VERTEX
  8
LAYER_1
 10
254.402
 20
392.0928
 42
0.03859414124
  0
VERTEX
  8
LAYER_1
 10
254.8436
 20
393.8579
 42
0.03692242887
  0
VERTEX
  8
LAYER_1
 10
255.0473
 20
395.9664
 42
0.006640100582
  0
VERTEX
  8
LAYER_1
 10
255.0528
 20
396.393
 42
0.03635952888
  0
VERTEX
  8
LAYER_1
 10
254.8626
 20
398.9493
 42
0.0005512043621
  0
VERTEX
  8
LAYER_1
 10
254.8565
 20
398.9906
 42
0.06575546924
  0
VERTEX
  8
LAYER_1
 10
254.077
 20
401.7168
 42
0.04170143468
  0
VERTEX
  8
LAYER_1
 10
253.1905
 20
403.3677
 42
0.0398725754
  0
VERTEX
  8
LAYER_1
 10
252.0445
 20
404.8585
 42
0.0383116389
  0
VERTEX
  8
LAYER_1
 10
250.6679
 20
406.1659
 42
0.03721932665
  0
VERTEX
  8
LAYER_1
 10
249.0898
 20
407.2669
 42
0.03665710312
  0
VERTEX
  8
LAYER_1
 10
247.3392
 20
408.1382
 42
0.05502209764
  0
VERTEX
  8
LAYER_1
 10
244.4533
 20
408.9641
 42
0.04240805629
  0
VERTEX
  8
LAYER_1
 10
242.0982
 20
409.1633
  0
SEQEND
  0
POLYLINE
  8
LAYER_1
 40
0.05
 41
0.05
 66
1
 10
0
 20
0
 30
0
  0
VERTEX
  8
LAYER_1
 10
250.1163
 20
397.8038
 42
-0.04622281258
  0
VERTEX
  8
LAYER_1
 10
249.9379
 20
395.8631
 42
-0.04705775267
  0
VERTEX
  8
LAYER_1
 10
249.4872
 20
394.2945
 42
-0.05162027971
  0
VERTEX
  8
LAYER_1
 10
248.813
 20
393.0029
 42
-0.0545594093
  0
VERTEX
  8
LAYER_1
 10
247.9423
 20
391.963
 42
-0.03373583354
  0
VERTEX
  8
LAYER_1
 10
247.3086
 20
391.4342
 42
-0.06243616234
  0
VERTEX
  8
LAYER_1
 10
245.9572
 20
390.7079
 42
-0.02017897561
  0
VERTEX
  8
LAYER_1
 10
245.0848
 20
390.3946
 42
-0.01606019147
  0
VERTEX
  8
LAYER_1
 10
243.9868
 20
390.0879
 42
-0.01916045493
  0
VERTEX
  8
LAYER_1
 10
241.1942
 20
389.5228
 42
-0.04918783806
  0
VERTEX
  8
LAYER_1
 10
239.3557
 20
389.3775
 42
-0.04720000725
  0
VERTEX
  8
LAYER_1
 10
238.0726
 20
389.532
 42
-0.08100706076
  0
VERTEX
  8
LAYER_1
 10
235.8108
 20
390.4427
 42
-0.04850340653
  0
VERTEX
  8
LAYER_1
 10
234.5173
 20
391.4051
 42
-0.04464584876
  0
VERTEX
  8
LAYER_1
 10
233.3732
 20
392.641
 42
-0.04134609408
  0
VERTEX
  8
LAYER_1
 10
232.4185
 20
394.1081
 42
-0.06489896365
  0
VERTEX
  8
LAYER_1
 10
231.3894
 20
396.7914
 42
-0.007408240633
  0
VERTEX
  8
LAYER_1
 10
231.3237
 20
397.0881
 42
-0.05044871394
  0
VERTEX
  8
LAYER_1
 10
231.2103
 20
398.1862
 42
-0.06591018749
  0
VERTEX
  8
LAYER_1
 10
231.396
 20
399.5785
 42
-0.05740584793
  0
VERTEX
  8
LAYER_1
 10
231.9255
 20
400.9105
 42
-0.04923584891
  0
VERTEX
  8
LAYER_1
 10
232.8358
 20
402.2774
 42
-0.04002711752
  0
VERTEX
  8
LAYER_1
 10
234.164
 20
403.6736
 42
-0.0175241318
  0
VERTEX
  8
LAYER_1
 10
235.0637
 20
404.4341
  0
VERTEX
  8
LAYER_1
 10
235.7906
 20
405.0252
 42
-0.02483419191
  0
VERTEX
  8
LAYER_1
 10
237.0742
 20
406.0286
 42
-0.05459521348
  0
VERTEX
  8
LAYER_1
 10
238.3236
 20
406.7174
 42
-0.07759522182
  0
VERTEX
  8
LAYER_1
 10
239.8686
 20
407.0721
 42
-0.01858809044
  0
VERTEX
  8
LAYER_1
 10
240.6571
 20
407.1018
 42
-0.06661855202
  0
VERTEX
  8
LAYER_1
 10
243.3127
 20
406.7468
 42
-0.06097388439
  0
VERTEX
  8
LAYER_1
 10
245.5198
 20
405.8424
 42
-0.04116897752
  0
VERTEX
  8
LAYER_1
 10
246.8123
 20
404.9694
 42
-0.04221209418
  0
VERTEX
  8
LAYER_1
 10
247.9285
 20
403.9058
 42
-0.04379328941
  0
VERTEX
  8
LAYER_1
 10
248.8403
 20
402.6734
 42
-0.04565266617
  0
VERTEX
  8
LAYER_1
 10
249.5192
 20
401.2942
 42
-0.04133471862
  0
VERTEX
  8
LAYER_1
 10
249.9
 20
399.984
 42
-0.04640370182
  0
VERTEX
  8
LAYER_1
 10
250.1147
 20
397.9949
 42
-0.004219875223
  0
VERTEX
  8
LAYER_1
 10
250.1163
 20
397.8038
  0
SEQEND
  0
POLYLINE
  8
LAYER_1
 40
0.05
 41
0.05
 66
1
 10
0
 20
0
 30
0
  0
VERTEX
  8
LAYER_1
 10
240.6571
 20
407.6189
 42
0.01833415017
  0
VERTEX
  8
LAYER_1
 10
239.8196
 20
407.5872
 42
0.06117899948
  0
VERTEX
  8
LAYER_1
 10
238.4024
 20
407.3041
 42
0.05858943364
  0
VERTEX
  8
LAYER_1
 10
237.1222
 20
406.6982
 42
0.02218633762
  0
VERTEX
  8
LAYER_1
 10
236.4418
 20
406.2353
 42
0.01417419921
  0
VERTEX
  8
LAYER_1
 10
235.4079
 20
405.4099
  0
VERTEX
  8
LAYER_1
 10
234.6861
 20
404.8218
 42
0.03702044101
  0
VERTEX
  8
LAYER_1
 10
232.9347
 20
403.2281
 42
0.04226391319
  0
VERTEX
  8
LAYER_1
 10
231.7894
 20
401.7803
 42
0.05045770392
  0
VERTEX
  8
LAYER_1
 10
231.0576
 20
400.37
 42
0.05365197093
  0
VERTEX
  8
LAYER_1
 10
230.7039
 20
399.0662
 42
0.0901678658
  0
VERTEX
  8
LAYER_1
 10
230.7587
 20
396.9942
 42
0.04472560916
  0
VERTEX
  8
LAYER_1
 10
231.3307
 20
395.1046
 42
0.06002117723
  0
VERTEX
  8
LAYER_1
 10
232.6654
 20
392.6679
 42
0.04241753835
  0
VERTEX
  8
LAYER_1
 10
233.8213
 20
391.3167
 42
0.04580552842
  0
VERTEX
  8
LAYER_1
 10
235.1417
 20
390.2376
 42
0.04594228399
  0
VERTEX
  8
LAYER_1
 10
236.5023
 20
389.4948
 42
0.04653096864
  0
VERTEX
  8
LAYER_1
 10
237.9338
 20
389.0307
 42
0.05622371618
  0
VERTEX
  8
LAYER_1
 10
239.5761
 20
388.8571
 42
0.04392039405
  0
VERTEX
  8
LAYER_1
 10
241.3041
 20
389.0155
 42
0.01391541018
  0
VERTEX
  8
LAYER_1
 10
243.7006
 20
389.4853
 42
0.03320118206
  0
VERTEX
  8
LAYER_1
 10
246.006
 20
390.1632
 42
0.04940175457
  0
VERTEX
  8
LAYER_1
 10
247.4503
 20
390.882
 42
0.01170171089
  0
VERTEX
  8
LAYER_1
 10
247.6686
 20
391.0323
 42
0.1099895332
  0
VERTEX
  8
LAYER_1
 10
249.5993
 20
393.2201
 42
0.05053100551
  0
VERTEX
  8
LAYER_1
 10
250.2232
 20
394.6709
 42
0.04522023577
  0
VERTEX
  8
LAYER_1
 10
250.595
 20
396.3525
 42
0.032873338
  0
VERTEX
  8
LAYER_1
 10
250.6903
 20
397.8131
 42
0.04445364487
  0
VERTEX
  8
LAYER_1
 10
250.5096
 20
399.8527
 42
0.005163693233
  0
VERTEX
  8
LAYER_1
 10
250.4667
 20
400.0765
 42
0.07329658684
  0
VERTEX
  8
LAYER_1
 10
249.595
 20
402.4855
 42
0.04469139288
  0
VERTEX
  8
LAYER_1
 10
248.7013
 20
403.8425
 42
0.04296855473
  0
VERTEX
  8
LAYER_1
 10
247.5812
 20
405.0279
 42
0.04166344908
  0
VERTEX
  8
LAYER_1
 10
246.2647
 20
406.0186
 42
0.04094334999
  0
VERTEX
  8
LAYER_1
 10
244.7819
 20
406.7913
 42
0.06135981035
  0
VERTEX
  8
LAYER_1
 10
242.3116
 20
407.4914
 42
0.0386535247
  0
VERTEX
  8
LAYER_1
 10
240.6571
 20
407.6189
  0
SEQEND
  0
POLYLINE
  8
LAYER_1
 40
0.05
 41
0.05
 66
1
 10
0
 20
0
 30
0
  0
VERTEX
  8
LAYER_1
 10
243.2861
 20
394.533
 42
-0.02721129428
  0
VERTEX
  8
LAYER_1
 10
242.5304
 20
394.1206
 42
-0.0187044968
  0
VERTEX
  8
LAYER_1
 10
241.5764
 20
393.7075
 42
-0.02602760493
  0
VERTEX
  8
LAYER_1
 10
239.236
 20
392.9342
 42
-0.06622302198
  0
VERTEX
  8
LAYER_1
 10
237.8287
 20
392.7183
 42
-0.05300503049
  0
VERTEX
  8
LAYER_1
 10
237.2207
 20
392.7846
 42
-0.07724842316
  0
VERTEX
  8
LAYER_1
 10
236.1616
 20
393.2025
 42
-0.06692610415
  0
VERTEX
  8
LAYER_1
 10
235.1727
 20
393.9736
 42
-0.05267645642
  0
VERTEX
  8
LAYER_1
 10
234.2668
 20
395.1003
 42
-0.04370986176
  0
VERTEX
  8
LAYER_1
 10
233.4102
 20
396.6986
 42
-0.02876769454
  0
VERTEX
  8
LAYER_1
 10
232.8929
 20
398.0966
 42
-0.1083173289
  0
VERTEX
  8
LAYER_1
 10
232.7528
 20
399.8994
 42
-0.06388589218
  0
VERTEX
  8
LAYER_1
 10
233.0641
 20
401.052
 42
-0.05847781496
  0
VERTEX
  8
LAYER_1
 10
233.6719
 20
402.1491
 42
0.07960798064
  0
VERTEX
  8
LAYER_1
 10
233.3367
 20
401.034
 42
0.03262391564
  0
VERTEX
  8
LAYER_1
 10
233.3067
 20
400.5747
 42
0.1264142843
  0
VERTEX
  8
LAYER_1
 10
233.7535
 20
398.8418
 42
-0.02359670294
  0
VERTEX
  8
LAYER_1
 10
234.1514
 20
397.968
  0
VERTEX
  8
LAYER_1
 10
234.1638
 20
397.938
 42
0.0293434746
  0
VERTEX
  8
LAYER_1
 10
234.7363
 20
396.6998
 42
0.07178018796
  0
VERTEX
  8
LAYER_1
 10
235.3889
 20
395.8056
 42
0.1004357486
  0
VERTEX
  8
LAYER_1
 10
235.9959
 20
395.4194
 42
0.03258188139
  0
VERTEX
  8
LAYER_1
 10
236.1827
 20
395.3655
 42
0.0550575773
  0
VERTEX
  8
LAYER_1
 10
236.4434
 20
395.3373
 42
0.06106398123
  0
VERTEX
  8
LAYER_1
 10
236.8376
 20
395.3899
 42
0.04345568332
  0
VERTEX
  8
LAYER_1
 10
237.2601
 20
395.5408
 42
0.03069567626
  0
VERTEX
  8
LAYER_1
 10
237.7771
 20
395.8171
 42
0.01785508378
  0
VERTEX
  8
LAYER_1
 10
238.6263
 20
396.3861
 42
-0.05262222163
  0
VERTEX
  8
LAYER_1
 10
239.6381
 20
397.0264
 42
0.07214311704
  0
VERTEX
  8
LAYER_1
 10
240.7111
 20
397.6959
 42
0.06926298363
  0
VERTEX
  8
LAYER_1
 10
241.472
 20
398.5479
 42
0.07299808732
  0
VERTEX
  8
LAYER_1
 10
241.9496
 20
399.5546
 42
0.07330317032
  0
VERTEX
  8
LAYER_1
 10
242.1034
 20
400.5862
 42
0.1264622392
  0
VERTEX
  8
LAYER_1
 10
241.6562
 20
402.3188
 42
0.1120418197
  0
VERTEX
  8
LAYER_1
 10
240.4654
 20
403.6657
 42
0.06633480058
  0
VERTEX
  8
LAYER_1
 10
239.431
 20
404.2238
 42
0.06394471632
  0
VERTEX
  8
LAYER_1
 10
238.2499
 20
404.5077
 42
0.02748955872
  0
VERTEX
  8
LAYER_1
 10
237.7013
 20
404.5378
 42
0.06932538093
  0
VERTEX
  8
LAYER_1
 10
236.3833
 20
404.3556
 42
0.02537391146
  0
VERTEX
  8
LAYER_1
 10
235.9291
 20
404.2008
  0
VERTEX
  8
LAYER_1
 10
236.0032
 20
404.2516
 42
-0.03092924578
  0
VERTEX
  8
LAYER_1
 10
237.1072
 20
404.9528
 42
-0.06755899531
  0
VERTEX
  8
LAYER_1
 10
238.2034
 20
405.3748
 42
-0.04026593703
  0
VERTEX
  8
LAYER_1
 10
238.8071
 20
405.4588
  0
VERTEX
  8
LAYER_1
 10
239.2081
 20
405.4705
 42
-0.1642307932
  0
VERTEX
  8
LAYER_1
 10
243.3019
 20
404.0769
 42
-0.05430911819
  0
VERTEX
  8
LAYER_1
 10
244.2942
 20
403.1176
 42
-0.05688516926
  0
VERTEX
  8
LAYER_1
 10
245.0489
 20
401.9636
 42
-0.04327013929
  0
VERTEX
  8
LAYER_1
 10
245.4234
 20
401.0201
 42
-0.05896025715
  0
VERTEX
  8
LAYER_1
 10
245.6964
 20
399.4718
 42
-0.01337882599
  0
VERTEX
  8
LAYER_1
 10
245.7056
 20
399.1327
 42
-0.06299903198
  0
VERTEX
  8
LAYER_1
 10
245.5196
 20
397.6514
 42
-0.06135260942
  0
VERTEX
  8
LAYER_1
 10
245.0244
 20
396.3938
 42
-0.06213030658
  0
VERTEX
  8
LAYER_1
 10
244.2752
 20
395.3523
 42
-0.06488081123
  0
VERTEX
  8
LAYER_1
 10
243.2861
 20
394.533
  0
SEQEND
  0
POLYLINE
  8
LAYER_1
 40
0.05
 41
0.05
 66
1
 10
0
 20
0
 30
0
  0
VERTEX
  8
LAYER_1
 10
236.1093
 20
403.5132
 42
-0.1050367943
  0
VERTEX
  8
LAYER_1
 10
237.7013
 20
403.8458
 42
-0.07470966604
  0
VERTEX
  8
LAYER_1
 10
238.896
 20
403.6675
 42
-0.07307072888
  0
VERTEX
  8
LAYER_1
 10
239.8858
 20
403.1952
 42
-0.07565143839
  0
VERTEX
  8
LAYER_1
 10
240.6525
 20
402.4885
 42
-0.04347149853
  0
VERTEX
  8
LAYER_1
 10
240.9665
 20
402.0147
 42
-0.08734717228
  0
VERTEX
  8
LAYER_1
 10
241.3025
 20
401.0255
 42
-0.03736648513
  0
VERTEX
  8
LAYER_1
 10
241.3351
 20
400.5873
 42
-0.1282780795
  0
VERTEX
  8
LAYER_1
 10
240.9497
 20
399.1272
 42
-0.07969108633
  0
VERTEX
  8
LAYER_1
 10
240.2973
 20
398.3001
 42
-0.08362691552
  0
VERTEX
  8
LAYER_1
 10
239.2984
 20
397.6476
 42
0.03660909828
  0
VERTEX
  8
LAYER_1
 10
238.7747
 20
397.3569
 42
0.009559353919
  0
VERTEX
  8
LAYER_1
 10
238.1626
 20
396.9393
 42
-0.03364555526
  0
VERTEX
  8
LAYER_1
 10
237.1193
 20
396.2607
 42
-0.04979061979
  0
VERTEX
  8
LAYER_1
 10
236.6868
 20
396.071
 42
-0.07453091897
  0
VERTEX
  8
LAYER_1
 10
236.4434
 20
396.0294
  0
VERTEX
  8
LAYER_1
 10
236.3666
 20
396.0372
 42
-0.09253982565
  0
VERTEX
  8
LAYER_1
 10
236.108
 20
396.1521
 42
-0.05940361751
  0
VERTEX
  8
LAYER_1
 10
235.8663
 20
396.3655
 42
-0.04085398019
  0
VERTEX
  8
LAYER_1
 10
235.6055
 20
396.7091
 42
-0.02901746304
  0
VERTEX
  8
LAYER_1
 10
235.2925
 20
397.268
 42
-0.01544565071
  0
VERTEX
  8
LAYER_1
 10
234.8876
 20
398.1723
 42
0.03060944273
  0
VERTEX
  8
LAYER_1
 10
234.4432
 20
399.1458
 42
-0.08670487522
  0
VERTEX
  8
LAYER_1
 10
234.1074
 20
400.1358
 42
-0.03746431519
  0
VERTEX
  8
LAYER_1
 10
234.0746
 20
400.5747
 42
-0.1282226504
  0
VERTEX
  8
LAYER_1
 10
234.4597
 20
402.0342
 42
-0.0796639637
  0
VERTEX
  8
LAYER_1
 10
235.1115
 20
402.8609
 42
-0.08364240524
  0
VERTEX
  8
LAYER_1
 10
236.1093
 20
403.5132
  0
SEQEND
  0
POLYLINE
  8
LAYER_1
 40
0.05
 41
0.05
 66
1
 10
0
 20
0
 30
0
  0
VERTEX
  8
LAYER_1
 10
239.2081
 20
406.0748
  0
VERTEX
  8
LAYER_1
 10
238.7623
 20
406.062
 42
0.07190941391
  0
VERTEX
  8
LAYER_1
 10
237.5013
 20
405.8053
 42
0.05818515184
  0
VERTEX
  8
LAYER_1
 10
236.3078
 20
405.2048
 42
0.009037104496
  0
VERTEX
  8
LAYER_1
 10
235.6063
 20
404.7395
  0
VERTEX
  8
LAYER_1
 10
235.2073
 20
404.469
 42
0.05129523901
  0
VERTEX
  8
LAYER_1
 10
233.826
 20
403.3328
 42
0.05281546914
  0
VERTEX
  8
LAYER_1
 10
232.8932
 20
402.1581
 42
0.05583518202
  0
VERTEX
  8
LAYER_1
 10
232.3208
 20
400.9736
 42
0.06201351184
  0
VERTEX
  8
LAYER_1
 10
232.0555
 20
399.735
 42
0.02100659237
  0
VERTEX
  8
LAYER_1
 10
232.0385
 20
399.3303
 42
0.07383933055
  0
VERTEX
  8
LAYER_1
 10
232.2463
 20
397.9376
 42
0.04061820717
  0
VERTEX
  8
LAYER_1
 10
233.0345
 20
395.9513
 42
0.04356287975
  0
VERTEX
  8
LAYER_1
 10
233.986
 20
394.3813
 42
0.04996763323
  0
VERTEX
  8
LAYER_1
 10
234.9603
 20
393.3081
 42
0.0594143845
  0
VERTEX
  8
LAYER_1
 10
235.987
 20
392.5921
 42
0.06550461047
  0
VERTEX
  8
LAYER_1
 10
237.057
 20
392.1979
 42
0.05475395666
  0
VERTEX
  8
LAYER_1
 10
237.8525
 20
392.1142
 42
0.0653000991
  0
VERTEX
  8
LAYER_1
 10
239.2585
 20
392.31
 42
0.005854945987
  0
VERTEX
  8
LAYER_1
 10
239.4341
 20
392.3571
 42
0.02993081373
  0
VERTEX
  8
LAYER_1
 10
242.2474
 20
393.3187
 42
0.03710391947
  0
VERTEX
  8
LAYER_1
 10
243.6713
 20
394.0376
 42
0.1212869794
  0
VERTEX
  8
LAYER_1
 10
245.5469
 20
395.9859
 42
0.0547198612
  0
VERTEX
  8
LAYER_1
 10
246.0765
 20
397.1797
 42
0.05334914771
  0
VERTEX
  8
LAYER_1
 10
246.3461
 20
398.4936
 42
0.02426656451
  0
VERTEX
  8
LAYER_1
 10
246.377
 20
399.1336
 42
0.05760198177
  0
VERTEX
  8
LAYER_1
 10
246.1904
 20
400.7332
 42
0.015498624
  0
VERTEX
  8
LAYER_1
 10
246.0718
 20
401.1779
 42
0.08322493499
  0
VERTEX
  8
LAYER_1
 10
245.1216
 20
403.1035
 42
0.05055421011
  0
VERTEX
  8
LAYER_1
 10
244.207
 20
404.1377
 42
0.04879061922
  0
VERTEX
  8
LAYER_1
 10
243.0992
 20
404.9779
 42
0.07219337174
  0
VERTEX
  8
LAYER_1
 10
241.1557
 20
405.8167
 42
0.06605428465
  0
VERTEX
  8
LAYER_1
 10
239.2081
 20
406.0748
  0
SEQEND
  0
ENDBLK
  0
BLOCK
  8
LAYER_1
  2
AIGNBL01020007
 70
64
 10
0
 20
0
 30
0
  3
AIGNBL01020007
  0
POLYLINE
  8
LAYER_1
 40
0.1799
 41
0.1799
 66
1
 10
0
 20
0
 30
0
 70
1
  0
VERTEX
  8
LAYER_1
 10
255.6454
 20
323.3339
 42
-0.3920788248
  0
VERTEX
  8
LAYER_1
 10
255.3322
 20
323.0192
  0
VERTEX
  8
LAYER_1
 10
234.1852
 20
323.0192
 42
-0.3925665806
  0
VERTEX
  8
LAYER_1
 10
233.8713
 20
323.3339
  0
VERTEX
  8
LAYER_1
 10
233.8713
 20
338.7521
 42
-0.3916946254
  0
VERTEX
  8
LAYER_1
 10
234.1852
 20
339.0673
  0
VERTEX
  8
LAYER_1
 10
255.3322
 20
339.0673
 42
-0.3936158741
  0
VERTEX
  8
LAYER_1
 10
255.6454
 20
338.7521
  0
SEQEND
  0
POLYLINE
  8
LAYER_1
 40
0.1799
 41
0.1799
 66
1
 10
0
 20
0
 30
0
  0
VERTEX
  8
LAYER_1
 10
263.4017
 20
359.9694
 42
0.01759262308
  0
VERTEX
  8
LAYER_1
 10
258.613
 20
361.1199
 42
0.01525357415
  0
VERTEX
  8
LAYER_1
 10
253.5352
 20
362.0084
 42
0.01628012776
  0
VERTEX
  8
LAYER_1
 10
248.7788
 20
362.5346
 42
0.01753833362
  0
VERTEX
  8
LAYER_1
 10
244.7606
 20
362.701
 42
0.02019746043
  0
VERTEX
  8
LAYER_1
 10
240.2403
 20
362.4946
 42
0.0164059861
  0
VERTEX
  8
LAYER_1
 10
235.5086
 20
361.9389
 42
0.01512261432
  0
VERTEX
  8
LAYER_1
 10
230.4973
 20
361.0345
 42
0.01538400011
  0
VERTEX
  8
LAYER_1
 10
226.1164
 20
359.9694
 42
0.1188459971
  0
VERTEX
  8
LAYER_1
 10
224.7432
 20
359.0687
 42
0.06756239939
  0
VERTEX
  8
LAYER_1
 10
224.0851
 20
358.1554
 42
0.06394345599
  0
VERTEX
  8
LAYER_1
 10
223.6471
 20
357.0124
 42
0.05879480867
  0
VERTEX
  8
LAYER_1
 10
223.5137
 20
355.9359
 42
0.02950941827
  0
VERTEX
  8
LAYER_1
 10
223.5967
 20
355.1192
 42
0.09022060018
  0
VERTEX
  8
LAYER_1
 10
224.1813
 20
353.6365
 42
0.00905342545
  0
VERTEX
  8
LAYER_1
 10
225.2965
 20
351.9552
 42
0.003115787409
  0
VERTEX
  8
LAYER_1
 10
228.3159
 20
347.6051
 42
0.001652451448
  0
VERTEX
  8
LAYER_1
 10
234.3402
 20
339.084
  0
VERTEX
  8
LAYER_1
 10
255.1768
 20
339.084
 42
0.004835116276
  0
VERTEX
  8
LAYER_1
 10
264.9494
 20
353.0339
 42
0.003131878405
  0
VERTEX
  8
LAYER_1
 10
265.3385
 20
353.6365
 42
0.08773072386
  0
VERTEX
  8
LAYER_1
 10
265.9231
 20
355.1192
 42
0.02931391844
  0
VERTEX
  8
LAYER_1
 10
266.0041
 20
355.9359
 42
0.07026454364
  0
VERTEX
  8
LAYER_1
 10
265.8215
 20
357.2007
 42
0.06434061449
  0
VERTEX
  8
LAYER_1
 10
265.3346
 20
358.33
 42
0.06786781378
  0
VERTEX
  8
LAYER_1
 10
264.6317
 20
359.2117
 42
0.0720670535
  0
VERTEX
  8
LAYER_1
 10
263.793
 20
359.8022
 42
0.03115643485
  0
VERTEX
  8
LAYER_1
 10
263.4017
 20
359.9694
  0
SEQEND
  0
POLYLINE
  8
LAYER_1
 40
0.1799
 41
0.1799
 66
1
 10
0
 20
0
 30
0
 70
1
  0
VERTEX
  8
LAYER_1
 10
233.8155
 20
339.1845
  0
VERTEX
  8
LAYER_1
 10
255.6199
 20
339.1845
  0
VERTEX
  8
LAYER_1
 10
255.6199
 20
323.0192
  0
VERTEX
  8
LAYER_1
 10
233.8155
 20
323.0192
  0
SEQEND
  0
ENDBLK
  0
BLOCK
  8
LAYER_1
  2
AIGNBL0102000C
 70
64
 10
0
 20
0
 30
0
  3
AIGNBL0102000C
  0
POLYLINE
  8
LAYER_1
 40
0.1799
 41
0.1799
 66
1
 10
0
 20
0
 30
0
 70
1
  0
VERTEX
  8
LAYER_1
 10
106.3523
 20
245.0726
 42
-0.391889581
  0
VERTEX
  8
LAYER_1
 10
105.8471
 20
244.5646
  0
VERTEX
  8
LAYER_1
 10
71.7455
 20
244.5646
 42
-0.3928159662
  0
VERTEX
  8
LAYER_1
 10
71.2392
 20
245.0726
  0
VERTEX
  8
LAYER_1
 10
71.2392
 20
269.9349
 42
-0.3917377568
  0
VERTEX
  8
LAYER_1
 10
71.7455
 20
270.444
  0
VERTEX
  8
LAYER_1
 10
105.8471
 20
270.444
 42
-0.3944481801
  0
VERTEX
  8
LAYER_1
 10
106.3523
 20
269.9349
  0
SEQEND
  0
POLYLINE
  8
LAYER_1
 40
0.1799
 41
0.1799
 66
1
 10
0
 20
0
 30
0
  0
VERTEX
  8
LAYER_1
 10
118.8599
 20
304.1503
 42
0.01434238904
  0
VERTEX
  8
LAYER_1
 10
112.8636
 20
305.6371
 42
0.01197999207
  0
VERTEX
  8
LAYER_1
 10
106.4634
 20
306.8867
 42
0.01181224754
  0
VERTEX
  8
LAYER_1
 10
100.3495
 20
307.7829
 42
0.01313999528
  0
VERTEX
  8
LAYER_1
 10
94.4696
 20
308.345
 42
0.0148228006
  0
VERTEX
  8
LAYER_1
 10
89.0683
 20
308.5538
 42
0.0008337096702
  0
VERTEX
  8
LAYER_1
 10
88.7997
 20
308.5553
 42
0.01617711729
  0
VERTEX
  8
LAYER_1
 10
83.1284
 20
308.345
 42
0.01299129013
  0
VERTEX
  8
LAYER_1
 10
77.5101
 20
307.8147
 42
0.01213782065
  0
VERTEX
  8
LAYER_1
 10
71.3769
 20
306.9284
 42
0.01197424363
  0
VERTEX
  8
LAYER_1
 10
64.9411
 20
305.6833
 42
0.01301447328
  0
VERTEX
  8
LAYER_1
 10
59.0384
 20
304.2351
 42
0.000892983344
  0
VERTEX
  8
LAYER_1
 10
58.7341
 20
304.1503
 42
0.09363769173
  0
VERTEX
  8
LAYER_1
 10
56.9462
 20
303.1042
 42
0.05487163843
  0
VERTEX
  8
LAYER_1
 10
56.0157
 20
302.1
 42
0.05220524932
  0
VERTEX
  8
LAYER_1
 10
55.2562
 20
300.8209
 42
0.04883862563
  0
VERTEX
  8
LAYER_1
 10
54.7528
 20
299.3815
 42
0.04831132797
  0
VERTEX
  8
LAYER_1
 10
54.5442
 20
297.9372
 42
0.01056627511
  0
VERTEX
  8
LAYER_1
 10
54.5378
 20
297.6452
 42
0.02973441943
  0
VERTEX
  8
LAYER_1
 10
54.6711
 20
296.3287
 42
0.08299715211
  0
VERTEX
  8
LAYER_1
 10
55.5068
 20
294.1163
 42
0.007113485259
  0
VERTEX
  8
LAYER_1
 10
55.614
 20
293.9373
 42
0.008617488776
  0
VERTEX
  8
LAYER_1
 10
56.9403
 20
291.9212
 42
0.003240430446
  0
VERTEX
  8
LAYER_1
 10
60.0428
 20
287.4151
 42
0.002696530912
  0
VERTEX
  8
LAYER_1
 10
71.9966
 20
270.4708
  0
VERTEX
  8
LAYER_1
 10
105.5963
 20
270.4708
 42
0.003239502728
  0
VERTEX
  8
LAYER_1
 10
119.798
 20
290.6633
 42
0.009344251133
  0
VERTEX
  8
LAYER_1
 10
121.9824
 20
293.9373
 42
0.08773710264
  0
VERTEX
  8
LAYER_1
 10
122.9258
 20
296.3287
 42
0.02933099967
  0
VERTEX
  8
LAYER_1
 10
123.0555
 20
297.6452
 42
0.05628476889
  0
VERTEX
  8
LAYER_1
 10
122.8706
 20
299.2599
 42
0.07373861509
  0
VERTEX
  8
LAYER_1
 10
122.0422
 20
301.3946
 42
0.05430419515
  0
VERTEX
  8
LAYER_1
 10
121.1645
 20
302.6022
 42
0.05446754098
  0
VERTEX
  8
LAYER_1
 10
120.1803
 20
303.4688
 42
0.06706747768
  0
VERTEX
  8
LAYER_1
 10
118.8599
 20
304.1503
  0
SEQEND
  0
POLYLINE
  8
LAYER_1
 40
0.1799
 41
0.1799
 66
1
 10
0
 20
0
 30
0
 70
1
  0
VERTEX
  8
LAYER_1
 10
71.1493
 20
270.6327
  0
VERTEX
  8
LAYER_1
 10
106.3113
 20
270.6327
  0
VERTEX
  8
LAYER_1
 10
106.3113
 20
244.5646
  0
VERTEX
  8
LAYER_1
 10
71.1493
 20
244.5646
  0
SEQEND
  0
ENDBLK
  0
BLOCK
  8
LAYER_1
  2
AIGNBL01020010
 70
64
 10
0
 20
0
 30
0
  3
AIGNBL01020010
  0
INSERT
  8
LAYER_1
  2
AIGNBL01030011
 10
0
 20
0
 30
0
  0
ENDBLK
  0
BLOCK
  8
LAYER_1
  2
AIGNBL01020019
 70
64
 10
0
 20
0
 30
0
  3
AIGNBL01020019
  0
INSERT
  8
LAYER_1
  2
AIGNBL0103001A
 10
0
 20
0
 30
0
  0
INSERT
  8
LAYER_1
  2
AIGNBL0103001B
 10
0
 20
0
 30
0
  0
INSERT
  8
LAYER_1
  2
AIGNBL0103001C
 10
0
 20
0
 30
0
  0
INSERT
  8
LAYER_1
  2
AIGNBL0103001D
 10
0
 20
0
 30
0
  0
INSERT
  8
LAYER_1
  2
AIGNBL0103001E
 10
0
 20
0
 30
0
  0
INSERT
  8
LAYER_1
  2
AIGNBL0103001F
 10
0
 20
0
 30
0
  0
INSERT
  8
LAYER_1
  2
AIGNBL01030020
 10
0
 20
0
 30
0
  0
INSERT
  8
LAYER_1
  2
AIGNBL01030021
 10
0
 20
0
 30
0
  0
INSERT
  8
LAYER_1
  2
AIGNBL01030022
 10
0
 20
0
 30
0
  0
INSERT
  8
LAYER_1
  2
AIGNBL01030023
 10
0
 20
0
 30
0
  0
INSERT
  8
LAYER_1
  2
AIGNBL01030024
 10
0
 20
0
 30
0
  0
INSERT
  8
LAYER_1
  2
AIGNBL01030025
 10
0
 20
0
 30
0
  0
INSERT
  8
LAYER_1
  2
AIGNBL01030026
 10
0
 20
0
 30
0
  0
INSERT
  8
LAYER_1
  2
AIGNBL01030027
 10
0
 20
0
 30
0
  0
INSERT
  8
LAYER_1
  2
AIGNBL01030028
 10
0
 20
0
 30
0
  0
INSERT
  8
LAYER_1
  2
AIGNBL01030029
 10
0
 20
0
 30
0
  0
INSERT
  8
LAYER_1
  2
AIGNBL0103002A
 10
0
 20
0
 30
0
  0
INSERT
  8
LAYER_1
  2
AIGNBL0103002B
 10
0
 20
0
 30
0
  0
INSERT
  8
LAYER_1
  2
AIGNBL0103002C
 10
0
 20
0
 30
0
  0
INSERT
  8
LAYER_1
  2
AIGNBL0103002D
 10
0
 20
0
 30
0
  0
INSERT
  8
LAYER_1
  2
AIGNBL0103002E
 10
0
 20
0
 30
0
  0
INSERT
  8
LAYER_1
  2
AIGNBL0103002F
 10
0
 20
0
 30
0
  0
INSERT
  8
LAYER_1
  2
AIGNBL01030030
 10
0
 20
0
 30
0
  0
ENDBLK
  0
BLOCK
  8
LAYER_1
  2
AIGNBL01010002
 70
64
 10
0
 20
0
 30
0
  3
AIGNBL01010002
  0
INSERT
  8
LAYER_1
  2
AIGNBL01020003
 10
0
 20
0
 30
0
  0
POLYLINE
  8
LAYER_1
 40
0.05
 41
0.05
 66
1
 10
0
 20
0
 30
0
 70
1
  0
VERTEX
  8
LAYER_1
 10
227.747
 20
371.3737
  0
VERTEX
  8
LAYER_1
 10
302.9996
 20
371.3737
  0
VERTEX
  8
LAYER_1
 10
302.9996
 20
410.699
  0
VERTEX
  8
LAYER_1
 10
227.747
 20
410.699
  0
SEQEND
  0
ENDBLK
  0
BLOCK
  8
LAYER_1
  2
AIGNBL01010004
 70
64
 10
0
 20
0
 30
0
  3
AIGNBL01010004
  0
POLYLINE
  8
LAYER_1
 40
0.1799
 41
0.1799
 66
1
 10
0
 20
0
 30
0
  0
VERTEX
  8
LAYER_1
 10
65.9314
 20
168.0056
  0
VERTEX
  8
LAYER_1
 10
65.8838
 20
168.7184
  0
VERTEX
  8
LAYER_1
 10
65.7176
 20
169.4074
 42
0.06450807498
  0
VERTEX
  8
LAYER_1
 10
65.0912
 20
170.6097
 42
0.06226328845
  0
VERTEX
  8
LAYER_1
 10
64.322
 20
171.4552
 42
0.2106143392
  0
VERTEX
  8
LAYER_1
 10
60.8695
 20
172.4652
 42
0.1786063833
  0
VERTEX
  8
LAYER_1
 10
58.1056
 20
170.9993
 42
0.06241190617
  0
VERTEX
  8
LAYER_1
 10
57.4575
 20
170.0491
 42
0.06068908727
  0
VERTEX
  8
LAYER_1
 10
57.0238
 20
168.8739
 42
0.004889266576
  0
VERTEX
  8
LAYER_1
 10
56.9988
 20
168.7659
  0
VERTEX
  8
LAYER_1
 10
56.9507
 20
168.0535
  0
VERTEX
  8
LAYER_1
 10
56.9988
 20
167.3645
 42
0.06541702936
  0
VERTEX
  8
LAYER_1
 10
57.3909
 20
166.0828
 42
0.06835568099
  0
VERTEX
  8
LAYER_1
 10
58.0458
 20
165.0584
 42
0.1315230632
  0
VERTEX
  8
LAYER_1
 10
59.9051
 20
163.7877
 42
0.09023614307
  0
VERTEX
  8
LAYER_1
 10
61.5453
 20
163.522
 42
0.09087571399
  0
VERTEX
  8
LAYER_1
 10
63.1722
 20
163.8517
 42
0.09924019621
  0
VERTEX
  8
LAYER_1
 10
64.5843
 20
164.7822
 42
0.06999873787
  0
VERTEX
  8
LAYER_1
 10
65.3068
 20
165.7392
 42
0.06824876113
  0
VERTEX
  8
LAYER_1
 10
65.7845
 20
166.9672
 42
0.01089514942
  0
VERTEX
  8
LAYER_1
 10
65.8361
 20
167.1984
  0
VERTEX
  8
LAYER_1
 10
65.9314
 20
167.8871
  0
VERTEX
  8
LAYER_1
 10
65.9314
 20
168.0056
  0
SEQEND
  0
POLYLINE
  8
LAYER_1
 40
0.05
 41
0.05
 66
1
 10
0
 20
0
 30
0
 70
1
  0
VERTEX
  8
LAYER_1
 10
0
 20
425.9997
  0
VERTEX
  8
LAYER_1
 10
302.9996
 20
425.9997
  0
VERTEX
  8
LAYER_1
 10
302.9996
 20
0
  0
VERTEX
  8
LAYER_1
 10
0
 20
0
  0
SEQEND
  0
ENDBLK
  0
BLOCK
  8
LAYER_1
  2
AIGNBL01010005
 70
64
 10
0
 20
0
 30
0
  3
AIGNBL01010005
  0
POLYLINE
  8
LAYER_1
 40
0.1799
 41
0.1799
 66
1
 10
0
 20
0
 30
0
  0
VERTEX
  8
LAYER_1
 10
91.9694
 20
175.7956
  0
VERTEX
  8
LAYER_1
 10
94.319
 20
178.5686
  0
VERTEX
  8
LAYER_1
 10
90.9111
 20
177.3411
  0
SEQEND
  0
POLYLINE
  8
LAYER_1
 40
0.1799
 41
0.1799
 66
1
 10
0
 20
0
 30
0
  0
VERTEX
  8
LAYER_1
 10
80.984
 20
169.2555
  0
VERTEX
  8
LAYER_1
 10
94.319
 20
178.5686
  0
SEQEND
  0
POLYLINE
  8
LAYER_1
 40
0.1799
 41
0.1799
 66
1
 10
0
 20
0
 30
0
  0
VERTEX
  8
LAYER_1
 10
83.0766
 20
165.0983
  0
VERTEX
  8
LAYER_1
 10
83.029
 20
165.8111
  0
VERTEX
  8
LAYER_1
 10
82.8628
 20
166.5004
 42
0.06450798701
  0
VERTEX
  8
LAYER_1
 10
82.2364
 20
167.7026
 42
0.06226123707
  0
VERTEX
  8
LAYER_1
 10
81.4672
 20
168.5481
 42
0.2154692035
  0
VERTEX
  8
LAYER_1
 10
77.9288
 20
169.5458
 42
0.1790950171
  0
VERTEX
  8
LAYER_1
 10
75.1898
 20
168.0216
 42
0.06238029847
  0
VERTEX
  8
LAYER_1
 10
74.5578
 20
167.0525
 42
0.06040139318
  0
VERTEX
  8
LAYER_1
 10
74.144
 20
165.8586
  0
VERTEX
  8
LAYER_1
 10
74.0959
 20
165.1465
  0
VERTEX
  8
LAYER_1
 10
74.144
 20
164.4571
 42
0.06541813913
  0
VERTEX
  8
LAYER_1
 10
74.5361
 20
163.1755
 42
0.06835640739
  0
VERTEX
  8
LAYER_1
 10
75.191
 20
162.151
 42
0.1315231578
  0
VERTEX
  8
LAYER_1
 10
77.0503
 20
160.8803
 42
0.09023535333
  0
VERTEX
  8
LAYER_1
 10
78.6905
 20
160.6147
 42
0.09087490307
  0
VERTEX
  8
LAYER_1
 10
80.3174
 20
160.9444
 42
0.09923963434
  0
VERTEX
  8
LAYER_1
 10
81.7295
 20
161.8749
 42
0.06999857931
  0
VERTEX
  8
LAYER_1
 10
82.452
 20
162.8319
 42
0.06824872291
  0
VERTEX
  8
LAYER_1
 10
82.9297
 20
164.0599
 42
0.01089514852
  0
VERTEX
  8
LAYER_1
 10
82.9813
 20
164.2911
  0
VERTEX
  8
LAYER_1
 10
83.0766
 20
164.9798
  0
VERTEX
  8
LAYER_1
 10
83.0766
 20
165.0983
  0
SEQEND
  0
POLYLINE
  8
LAYER_1
 40
0.05
 41
0.05
 66
1
 10
0
 20
0
 30
0
 70
1
  0
VERTEX
  8
LAYER_1
 10
0
 20
425.9997
  0
VERTEX
  8
LAYER_1
 10
302.9996
 20
425.9997
  0
VERTEX
  8
LAYER_1
 10
302.9996
 20
0
  0
VERTEX
  8
LAYER_1
 10
0
 20
0
  0
SEQEND
  0
ENDBLK
  0
BLOCK
  8
LAYER_1
  2
AIGNBL01010006
 70
64
 10
0
 20
0
 30
0
  3
AIGNBL01010006
  0
POLYLINE
  8
LAYER_1
 40
0.1799
 41
0.1799
 66
1
 10
0
 20
0
 30
0
  0
VERTEX
  8
LAYER_1
 10
84.1862
 20
181.1369
  0
VERTEX
  8
LAYER_1
 10
74.9363
 20
181.1369
  0
SEQEND
  0
POLYLINE
  8
LAYER_1
 40
0.1799
 41
0.1799
 66
1
 10
0
 20
0
 30
0
  0
VERTEX
  8
LAYER_1
 10
84.1862
 20
182.5129
  0
VERTEX
  8
LAYER_1
 10
74.0051
 20
182.5129
  0
SEQEND
  0
POLYLINE
  8
LAYER_1
 40
0.1799
 41
0.1799
 66
1
 10
0
 20
0
 30
0
  0
VERTEX
  8
LAYER_1
 10
113.5443
 20
182.5129
  0
VERTEX
  8
LAYER_1
 10
106.0302
 20
182.5129
  0
SEQEND
  0
POLYLINE
  8
LAYER_1
 40
0.1799
 41
0.1799
 66
1
 10
0
 20
0
 30
0
  0
VERTEX
  8
LAYER_1
 10
113.5443
 20
181.1369
  0
VERTEX
  8
LAYER_1
 10
106.9402
 20
181.1369
  0
SEQEND
  0
POLYLINE
  8
LAYER_1
 40
0.1799
 41
0.1799
 66
1
 10
0
 20
0
 30
0
  0
VERTEX
  8
LAYER_1
 10
93.4994
 20
180.7773
  0
VERTEX
  8
LAYER_1
 10
93.7745
 20
180.7986
 42
0.1417838462
  0
VERTEX
  8
LAYER_1
 10
94.3181
 20
181.1402
 42
0.5101618545
  0
VERTEX
  8
LAYER_1
 10
93.7745
 20
182.8515
  0
VERTEX
  8
LAYER_1
 10
93.4994
 20
182.8939
  0
SEQEND
  0
POLYLINE
  8
LAYER_1
 40
0.1799
 41
0.1799
 66
1
 10
0
 20
0
 30
0
  0
VERTEX
  8
LAYER_1
 10
90.0705
 20
180.3328
  0
VERTEX
  8
LAYER_1
 10
94.5789
 20
180.3328
  0
SEQEND
  0
POLYLINE
  8
LAYER_1
 40
0.1799
 41
0.1799
 66
1
 10
0
 20
0
 30
0
  0
VERTEX
  8
LAYER_1
 10
90.0705
 20
183.3383
  0
VERTEX
  8
LAYER_1
 10
94.5789
 20
183.3383
  0
SEQEND
  0
POLYLINE
  8
LAYER_1
 40
0.1799
 41
0.1799
 66
1
 10
0
 20
0
 30
0
  0
VERTEX
  8
LAYER_1
 10
84.1859
 20
179.9518
  0
VERTEX
  8
LAYER_1
 10
85.7949
 20
179.6132
 42
0.09679121165
  0
VERTEX
  8
LAYER_1
 10
98.8336
 20
179.6132
  0
VERTEX
  8
LAYER_1
 10
100.4419
 20
179.9518
  0
SEQEND
  0
POLYLINE
  8
LAYER_1
 40
0.1799
 41
0.1799
 66
1
 10
0
 20
0
 30
0
  0
VERTEX
  8
LAYER_1
 10
100.4419
 20
183.6983
  0
VERTEX
  8
LAYER_1
 10
98.8332
 20
184.058
 42
0.02385695
  0
VERTEX
  8
LAYER_1
 10
95.1196
 20
184.5507
 42
0.02353202098
  0
VERTEX
  8
LAYER_1
 10
91.9146
 20
184.6633
 42
0.02330962036
  0
VERTEX
  8
LAYER_1
 10
88.6973
 20
184.4723
 42
0.0182345189
  0
VERTEX
  8
LAYER_1
 10
85.7946
 20
184.058
  0
VERTEX
  8
LAYER_1
 10
84.1859
 20
183.6983
  0
SEQEND
  0
POLYLINE
  8
LAYER_1
 40
0.1799
 41
0.1799
 66
1
 10
0
 20
0
 30
0
  0
VERTEX
  8
LAYER_1
 10
94.5791
 20
180.3328
  0
VERTEX
  8
LAYER_1
 10
94.8962
 20
180.3749
 42
0.1196769607
  0
VERTEX
  8
LAYER_1
 10
95.5574
 20
180.7008
 42
0.1731319424
  0
VERTEX
  8
LAYER_1
 10
96.0413
 20
181.5548
 42
0.2266944179
  0
VERTEX
  8
LAYER_1
 10
95.6803
 20
182.8446
 42
0.1116455689
  0
VERTEX
  8
LAYER_1
 10
95.1406
 20
183.2166
 42
0.03638550179
  0
VERTEX
  8
LAYER_1
 10
94.8962
 20
183.296
  0
VERTEX
  8
LAYER_1
 10
94.5791
 20
183.3383
  0
SEQEND
  0
POLYLINE
  8
LAYER_1
 40
0.1799
 41
0.1799
 66
1
 10
0
 20
0
 30
0
  0
VERTEX
  8
LAYER_1
 10
94.5791
 20
180.904
  0
VERTEX
  8
LAYER_1
 10
94.8538
 20
180.9464
 42
0.7293158927
  0
VERTEX
  8
LAYER_1
 10
94.8538
 20
182.7244
  0
VERTEX
  8
LAYER_1
 10
94.5791
 20
182.7668
  0
SEQEND
  0
POLYLINE
  8
LAYER_1
 40
0.1799
 41
0.1799
 66
1
 10
0
 20
0
 30
0
  0
VERTEX
  8
LAYER_1
 10
84.1859
 20
183.6983
  0
VERTEX
  8
LAYER_1
 10
84.1859
 20
179.9518
  0
SEQEND
  0
POLYLINE
  8
LAYER_1
 40
0.1799
 41
0.1799
 66
1
 10
0
 20
0
 30
0
  0
VERTEX
  8
LAYER_1
 10
90.1339
 20
180.7773
  0
VERTEX
  8
LAYER_1
 10
93.4994
 20
180.7773
  0
SEQEND
  0
POLYLINE
  8
LAYER_1
 40
0.1799
 41
0.1799
 66
1
 10
0
 20
0
 30
0
  0
VERTEX
  8
LAYER_1
 10
90.1339
 20
182.8939
  0
VERTEX
  8
LAYER_1
 10
93.4994
 20
182.8939
  0
SEQEND
  0
POLYLINE
  8
LAYER_1
 40
0.1799
 41
0.1799
 66
1
 10
0
 20
0
 30
0
  0
VERTEX
  8
LAYER_1
 10
90.0705
 20
183.3383
  0
VERTEX
  8
LAYER_1
 10
89.7318
 20
183.296
 42
0.11441691
  0
VERTEX
  8
LAYER_1
 10
89.0663
 20
182.9463
 42
0.2936003866
  0
VERTEX
  8
LAYER_1
 10
88.6471
 20
181.3576
 42
0.259226793
  0
VERTEX
  8
LAYER_1
 10
89.7318
 20
180.3749
  0
VERTEX
  8
LAYER_1
 10
90.0705
 20
180.3328
  0
SEQEND
  0
POLYLINE
  8
LAYER_1
 40
0.1799
 41
0.1799
 66
1
 10
0
 20
0
 30
0
  0
VERTEX
  8
LAYER_1
 10
90.1339
 20
182.8939
  0
VERTEX
  8
LAYER_1
 10
89.8588
 20
182.8515
 42
0.1464961591
  0
VERTEX
  8
LAYER_1
 10
89.3299
 20
182.5367
 42
0.2100152745
  0
VERTEX
  8
LAYER_1
 10
89.0735
 20
181.7229
 42
0.2029987898
  0
VERTEX
  8
LAYER_1
 10
89.4789
 20
180.9824
 42
0.09831945485
  0
VERTEX
  8
LAYER_1
 10
89.8588
 20
180.7986
  0
VERTEX
  8
LAYER_1
 10
90.1339
 20
180.7773
  0
SEQEND
  0
POLYLINE
  8
LAYER_1
 40
0.1799
 41
0.1799
 66
1
 10
0
 20
0
 30
0
  0
VERTEX
  8
LAYER_1
 10
94.0075
 20
180.904
  0
VERTEX
  8
LAYER_1
 10
94.5791
 20
180.904
  0
SEQEND
  0
POLYLINE
  8
LAYER_1
 40
0.1799
 41
0.1799
 66
1
 10
0
 20
0
 30
0
  0
VERTEX
  8
LAYER_1
 10
94.0075
 20
182.7668
  0
VERTEX
  8
LAYER_1
 10
94.5791
 20
182.7668
  0
SEQEND
  0
POLYLINE
  8
LAYER_1
 40
0.1799
 41
0.1799
 66
1
 10
0
 20
0
 30
0
  0
VERTEX
  8
LAYER_1
 10
100.4423
 20
183.6983
  0
VERTEX
  8
LAYER_1
 10
100.4423
 20
179.9518
  0
SEQEND
  0
POLYLINE
  8
LAYER_1
 40
0.1799
 41
0.1799
 66
1
 10
0
 20
0
 30
0
  0
VERTEX
  8
LAYER_1
 10
119.6828
 20
180.6925
  0
VERTEX
  8
LAYER_1
 10
120.3809
 20
180.2691
  0
VERTEX
  8
LAYER_1
 10
121.1433
 20
179.9094
  0
VERTEX
  8
LAYER_1
 10
121.9261
 20
179.6555
  0
VERTEX
  8
LAYER_1
 10
122.7308
 20
179.4654
  0
VERTEX
  8
LAYER_1
 10
123.5351
 20
179.3803
  0
VERTEX
  8
LAYER_1
 10
124.3814
 20
179.3803
  0
SEQEND
  0
POLYLINE
  8
LAYER_1
 40
0.1799
 41
0.1799
 66
1
 10
0
 20
0
 30
0
  0
VERTEX
  8
LAYER_1
 10
124.3816
 20
184.2909
  0
VERTEX
  8
LAYER_1
 10
123.5353
 20
184.2909
  0
VERTEX
  8
LAYER_1
 10
122.7305
 20
184.2062
  0
VERTEX
  8
LAYER_1
 10
121.9262
 20
184.0156
  0
VERTEX
  8
LAYER_1
 10
121.143
 20
183.7617
  0
VERTEX
  8
LAYER_1
 10
120.3811
 20
183.4014
  0
VERTEX
  8
LAYER_1
 10
119.683
 20
182.9573
  0
SEQEND
  0
POLYLINE
  8
LAYER_1
 40
0.1799
 41
0.1799
 66
1
 10
0
 20
0
 30
0
  0
VERTEX
  8
LAYER_1
 10
117.5448
 20
183.0844
  0
VERTEX
  8
LAYER_1
 10
113.5443
 20
182.5763
  0
SEQEND
  0
POLYLINE
  8
LAYER_1
 40
0.1799
 41
0.1799
 66
1
 10
0
 20
0
 30
0
  0
VERTEX
  8
LAYER_1
 10
117.5448
 20
180.5867
  0
VERTEX
  8
LAYER_1
 10
113.5443
 20
181.0735
  0
VERTEX
  8
LAYER_1
 10
113.5443
 20
182.5763
  0
SEQEND
  0
POLYLINE
  8
LAYER_1
 40
0.1799
 41
0.1799
 66
1
 10
0
 20
0
 30
0
  0
VERTEX
  8
LAYER_1
 10
114.7932
 20
181.2007
  0
VERTEX
  8
LAYER_1
 10
114.7716
 20
181.2851
  0
VERTEX
  8
LAYER_1
 10
114.6872
 20
181.3271
  0
VERTEX
  8
LAYER_1
 10
114.5811
 20
181.3064
  0
VERTEX
  8
LAYER_1
 10
114.5391
 20
181.2217
  0
SEQEND
  0
POLYLINE
  8
LAYER_1
 40
0.1799
 41
0.1799
 66
1
 10
0
 20
0
 30
0
  0
VERTEX
  8
LAYER_1
 10
115.4281
 20
181.2007
  0
VERTEX
  8
LAYER_1
 10
115.3857
 20
181.2851
  0
VERTEX
  8
LAYER_1
 10
115.3011
 20
181.3271
  0
VERTEX
  8
LAYER_1
 10
115.2164
 20
181.3064
  0
VERTEX
  8
LAYER_1
 10
115.1742
 20
181.2217
  0
SEQEND
  0
POLYLINE
  8
LAYER_1
 40
0.1799
 41
0.1799
 66
1
 10
0
 20
0
 30
0
  0
VERTEX
  8
LAYER_1
 10
114.5393
 20
181.2217
  0
VERTEX
  8
LAYER_1
 10
114.5393
 20
180.9464
  0
SEQEND
  0
POLYLINE
  8
LAYER_1
 40
0.1799
 41
0.1799
 66
1
 10
0
 20
0
 30
0
  0
VERTEX
  8
LAYER_1
 10
114.7932
 20
181.2007
  0
VERTEX
  8
LAYER_1
 10
114.7932
 20
180.9254
  0
SEQEND
  0
POLYLINE
  8
LAYER_1
 40
0.1799
 41
0.1799
 66
1
 10
0
 20
0
 30
0
  0
VERTEX
  8
LAYER_1
 10
115.4281
 20
181.2007
  0
VERTEX
  8
LAYER_1
 10
115.4281
 20
180.8403
  0
SEQEND
  0
POLYLINE
  8
LAYER_1
 40
0.1799
 41
0.1799
 66
1
 10
0
 20
0
 30
0
  0
VERTEX
  8
LAYER_1
 10
115.1742
 20
181.2217
  0
VERTEX
  8
LAYER_1
 10
115.1742
 20
180.883
  0
SEQEND
  0
POLYLINE
  8
LAYER_1
 40
0.1799
 41
0.1799
 66
1
 10
0
 20
0
 30
0
  0
VERTEX
  8
LAYER_1
 10
114.666
 20
181.3274
  0
VERTEX
  8
LAYER_1
 10
114.6876
 20
181.3274
  0
SEQEND
  0
POLYLINE
  8
LAYER_1
 40
0.1799
 41
0.1799
 66
1
 10
0
 20
0
 30
0
  0
VERTEX
  8
LAYER_1
 10
114.5393
 20
182.4495
  0
VERTEX
  8
LAYER_1
 10
114.5813
 20
182.3648
  0
VERTEX
  8
LAYER_1
 10
114.6874
 20
182.3224
  0
VERTEX
  8
LAYER_1
 10
114.7718
 20
182.3648
  0
VERTEX
  8
LAYER_1
 10
114.7932
 20
182.4495
  0
SEQEND
  0
POLYLINE
  8
LAYER_1
 40
0.1799
 41
0.1799
 66
1
 10
0
 20
0
 30
0
  0
VERTEX
  8
LAYER_1
 10
114.5393
 20
182.4495
  0
VERTEX
  8
LAYER_1
 10
114.5393
 20
182.7034
  0
SEQEND
  0
POLYLINE
  8
LAYER_1
 40
0.1799
 41
0.1799
 66
1
 10
0
 20
0
 30
0
  0
VERTEX
  8
LAYER_1
 10
114.666
 20
182.3224
  0
VERTEX
  8
LAYER_1
 10
114.6876
 20
182.3224
  0
SEQEND
  0
POLYLINE
  8
LAYER_1
 40
0.1799
 41
0.1799
 66
1
 10
0
 20
0
 30
0
  0
VERTEX
  8
LAYER_1
 10
114.7932
 20
182.4495
  0
VERTEX
  8
LAYER_1
 10
114.7932
 20
182.7458
  0
SEQEND
  0
POLYLINE
  8
LAYER_1
 40
0.1799
 41
0.1799
 66
1
 10
0
 20
0
 30
0
  0
VERTEX
  8
LAYER_1
 10
115.1742
 20
182.4495
  0
VERTEX
  8
LAYER_1
 10
115.2166
 20
182.3648
  0
VERTEX
  8
LAYER_1
 10
115.3008
 20
182.3224
  0
VERTEX
  8
LAYER_1
 10
115.3859
 20
182.3648
  0
VERTEX
  8
LAYER_1
 10
115.4281
 20
182.4495
  0
SEQEND
  0
POLYLINE
  8
LAYER_1
 40
0.1799
 41
0.1799
 66
1
 10
0
 20
0
 30
0
  0
VERTEX
  8
LAYER_1
 10
115.1742
 20
182.4495
  0
VERTEX
  8
LAYER_1
 10
115.1742
 20
182.7882
  0
SEQEND
  0
POLYLINE
  8
LAYER_1
 40
0.1799
 41
0.1799
 66
1
 10
0
 20
0
 30
0
  0
VERTEX
  8
LAYER_1
 10
115.4281
 20
182.4495
  0
VERTEX
  8
LAYER_1
 10
115.4281
 20
182.8092
  0
SEQEND
  0
POLYLINE
  8
LAYER_1
 40
0.1799
 41
0.1799
 66
1
 10
0
 20
0
 30
0
  0
VERTEX
  8
LAYER_1
 10
119.5343
 20
181.0312
  0
VERTEX
  8
LAYER_1
 10
119.238
 20
180.4386
  0
SEQEND
  0
POLYLINE
  8
LAYER_1
 40
0.1799
 41
0.1799
 66
1
 10
0
 20
0
 30
0
  0
VERTEX
  8
LAYER_1
 10
119.6824
 20
180.6925
  0
VERTEX
  8
LAYER_1
 10
119.5343
 20
180.7349
  0
VERTEX
  8
LAYER_1
 10
119.4077
 20
180.6925
  0
VERTEX
  8
LAYER_1
 10
119.3018
 20
180.5867
  0
SEQEND
  0
POLYLINE
  8
LAYER_1
 40
0.1799
 41
0.1799
 66
1
 10
0
 20
0
 30
0
  0
VERTEX
  8
LAYER_1
 10
119.5343
 20
182.6397
  0
VERTEX
  8
LAYER_1
 10
119.238
 20
183.2326
  0
SEQEND
  0
POLYLINE
  8
LAYER_1
 40
0.1799
 41
0.1799
 66
1
 10
0
 20
0
 30
0
  0
VERTEX
  8
LAYER_1
 10
119.3018
 20
183.0844
  0
VERTEX
  8
LAYER_1
 10
119.4075
 20
182.9573
  0
VERTEX
  8
LAYER_1
 10
119.5343
 20
182.9149
  0
VERTEX
  8
LAYER_1
 10
119.6824
 20
182.9573
  0
SEQEND
  0
POLYLINE
  8
LAYER_1
 40
0.1799
 41
0.1799
 66
1
 10
0
 20
0
 30
0
  0
VERTEX
  8
LAYER_1
 10
117.3119
 20
182.4495
  0
VERTEX
  8
LAYER_1
 10
117.3119
 20
183.0421
  0
SEQEND
  0
POLYLINE
  8
LAYER_1
 40
0.1799
 41
0.1799
 66
1
 10
0
 20
0
 30
0
  0
VERTEX
  8
LAYER_1
 10
118.0529
 20
181.8356
  0
VERTEX
  8
LAYER_1
 10
118.0529
 20
183.0844
  0
SEQEND
  0
POLYLINE
  8
LAYER_1
 40
0.1799
 41
0.1799
 66
1
 10
0
 20
0
 30
0
  0
VERTEX
  8
LAYER_1
 10
117.5448
 20
183.0844
  0
VERTEX
  8
LAYER_1
 10
117.5448
 20
181.8356
  0
SEQEND
  0
POLYLINE
  8
LAYER_1
 40
0.1799
 41
0.1799
 66
1
 10
0
 20
0
 30
0
  0
VERTEX
  8
LAYER_1
 10
118.0529
 20
180.5867
  0
VERTEX
  8
LAYER_1
 10
117.5449
 20
180.5867
  0
SEQEND
  0
POLYLINE
  8
LAYER_1
 40
0.1799
 41
0.1799
 66
1
 10
0
 20
0
 30
0
  0
VERTEX
  8
LAYER_1
 10
116.042
 20
181.2007
  0
VERTEX
  8
LAYER_1
 10
116.0205
 20
181.2851
  0
VERTEX
  8
LAYER_1
 10
115.9151
 20
181.3271
  0
VERTEX
  8
LAYER_1
 10
115.83
 20
181.3064
  0
VERTEX
  8
LAYER_1
 10
115.7876
 20
181.2217
  0
SEQEND
  0
POLYLINE
  8
LAYER_1
 40
0.1799
 41
0.1799
 66
1
 10
0
 20
0
 30
0
  0
VERTEX
  8
LAYER_1
 10
117.5448
 20
180.5867
  0
VERTEX
  8
LAYER_1
 10
117.5448
 20
181.8356
  0
SEQEND
  0
POLYLINE
  8
LAYER_1
 40
0.1799
 41
0.1799
 66
1
 10
0
 20
0
 30
0
  0
VERTEX
  8
LAYER_1
 10
117.3119
 20
181.2007
  0
VERTEX
  8
LAYER_1
 10
117.2695
 20
181.2851
  0
VERTEX
  8
LAYER_1
 10
117.1853
 20
181.3271
  0
VERTEX
  8
LAYER_1
 10
117.1002
 20
181.3064
  0
VERTEX
  8
LAYER_1
 10
117.0578
 20
181.2217
  0
SEQEND
  0
POLYLINE
  8
LAYER_1
 40
0.1799
 41
0.1799
 66
1
 10
0
 20
0
 30
0
  0
VERTEX
  8
LAYER_1
 10
116.6769
 20
181.2007
  0
VERTEX
  8
LAYER_1
 10
116.6346
 20
181.2851
  0
VERTEX
  8
LAYER_1
 10
116.55
 20
181.3271
  0
VERTEX
  8
LAYER_1
 10
116.4652
 20
181.3064
  0
VERTEX
  8
LAYER_1
 10
116.4229
 20
181.2217
  0
SEQEND
  0
POLYLINE
  8
LAYER_1
 40
0.1799
 41
0.1799
 66
1
 10
0
 20
0
 30
0
  0
VERTEX
  8
LAYER_1
 10
115.7878
 20
181.2217
  0
VERTEX
  8
LAYER_1
 10
115.7878
 20
180.7983
  0
SEQEND
  0
POLYLINE
  8
LAYER_1
 40
0.1799
 41
0.1799
 66
1
 10
0
 20
0
 30
0
  0
VERTEX
  8
LAYER_1
 10
116.042
 20
181.2007
  0
VERTEX
  8
LAYER_1
 10
116.042
 20
180.7773
  0
SEQEND
  0
POLYLINE
  8
LAYER_1
 40
0.1799
 41
0.1799
 66
1
 10
0
 20
0
 30
0
  0
VERTEX
  8
LAYER_1
 10
116.6769
 20
181.2007
  0
VERTEX
  8
LAYER_1
 10
116.6769
 20
180.6925
  0
SEQEND
  0
POLYLINE
  8
LAYER_1
 40
0.1799
 41
0.1799
 66
1
 10
0
 20
0
 30
0
  0
VERTEX
  8
LAYER_1
 10
116.423
 20
181.2217
  0
VERTEX
  8
LAYER_1
 10
116.423
 20
180.7135
  0
SEQEND
  0
POLYLINE
  8
LAYER_1
 40
0.1799
 41
0.1799
 66
1
 10
0
 20
0
 30
0
  0
VERTEX
  8
LAYER_1
 10
117.3119
 20
181.2007
  0
VERTEX
  8
LAYER_1
 10
117.3119
 20
180.6078
  0
SEQEND
  0
POLYLINE
  8
LAYER_1
 40
0.1799
 41
0.1799
 66
1
 10
0
 20
0
 30
0
  0
VERTEX
  8
LAYER_1
 10
117.058
 20
181.2217
  0
VERTEX
  8
LAYER_1
 10
117.058
 20
180.6501
  0
SEQEND
  0
POLYLINE
  8
LAYER_1
 40
0.1799
 41
0.1799
 66
1
 10
0
 20
0
 30
0
  0
VERTEX
  8
LAYER_1
 10
115.7878
 20
182.4495
  0
VERTEX
  8
LAYER_1
 10
115.8301
 20
182.3648
  0
VERTEX
  8
LAYER_1
 10
115.9147
 20
182.3224
  0
VERTEX
  8
LAYER_1
 10
116.0207
 20
182.3648
  0
VERTEX
  8
LAYER_1
 10
116.0422
 20
182.4495
  0
SEQEND
  0
POLYLINE
  8
LAYER_1
 40
0.1799
 41
0.1799
 66
1
 10
0
 20
0
 30
0
  0
VERTEX
  8
LAYER_1
 10
115.7878
 20
182.4495
  0
VERTEX
  8
LAYER_1
 10
115.7878
 20
182.8726
  0
SEQEND
  0
POLYLINE
  8
LAYER_1
 40
0.1799
 41
0.1799
 66
1
 10
0
 20
0
 30
0
  0
VERTEX
  8
LAYER_1
 10
116.042
 20
182.4495
  0
VERTEX
  8
LAYER_1
 10
116.042
 20
182.8939
  0
SEQEND
  0
POLYLINE
  8
LAYER_1
 40
0.1799
 41
0.1799
 66
1
 10
0
 20
0
 30
0
  0
VERTEX
  8
LAYER_1
 10
116.6769
 20
182.4495
  0
VERTEX
  8
LAYER_1
 10
116.6769
 20
182.9787
  0
SEQEND
  0
POLYLINE
  8
LAYER_1
 40
0.1799
 41
0.1799
 66
1
 10
0
 20
0
 30
0
  0
VERTEX
  8
LAYER_1
 10
116.423
 20
182.9363
  0
VERTEX
  8
LAYER_1
 10
116.423
 20
182.4495
  0
VERTEX
  8
LAYER_1
 10
116.4654
 20
182.3648
  0
VERTEX
  8
LAYER_1
 10
116.5496
 20
182.3224
  0
VERTEX
  8
LAYER_1
 10
116.6347
 20
182.3648
  0
VERTEX
  8
LAYER_1
 10
116.6771
 20
182.4495
  0
SEQEND
  0
POLYLINE
  8
LAYER_1
 40
0.1799
 41
0.1799
 66
1
 10
0
 20
0
 30
0
  0
VERTEX
  8
LAYER_1
 10
117.058
 20
182.4495
  0
VERTEX
  8
LAYER_1
 10
117.1003
 20
182.3648
  0
VERTEX
  8
LAYER_1
 10
117.1846
 20
182.3224
  0
VERTEX
  8
LAYER_1
 10
117.2697
 20
182.3648
  0
VERTEX
  8
LAYER_1
 10
117.312
 20
182.4495
  0
SEQEND
  0
POLYLINE
  8
LAYER_1
 40
0.1799
 41
0.1799
 66
1
 10
0
 20
0
 30
0
  0
VERTEX
  8
LAYER_1
 10
117.058
 20
182.4495
  0
VERTEX
  8
LAYER_1
 10
117.058
 20
183.0207
  0
SEQEND
  0
POLYLINE
  8
LAYER_1
 40
0.1799
 41
0.1799
 66
1
 10
0
 20
0
 30
0
  0
VERTEX
  8
LAYER_1
 10
118.0529
 20
181.8356
  0
VERTEX
  8
LAYER_1
 10
118.0529
 20
180.5867
  0
SEQEND
  0
POLYLINE
  8
LAYER_1
 40
0.1799
 41
0.1799
 66
1
 10
0
 20
0
 30
0
  0
VERTEX
  8
LAYER_1
 10
118.0949
 20
180.4596
  0
VERTEX
  8
LAYER_1
 10
118.2011
 20
180.2908
  0
VERTEX
  8
LAYER_1
 10
118.37
 20
180.1633
  0
VERTEX
  8
LAYER_1
 10
118.5605
 20
180.0999
  0
VERTEX
  8
LAYER_1
 10
118.7511
 20
180.0786
  0
VERTEX
  8
LAYER_1
 10
118.9628
 20
180.1423
  0
VERTEX
  8
LAYER_1
 10
119.1112
 20
180.2691
  0
VERTEX
  8
LAYER_1
 10
119.2379
 20
180.4386
  0
SEQEND
  0
POLYLINE
  8
LAYER_1
 40
0.1799
 41
0.1799
 66
1
 10
0
 20
0
 30
0
  0
VERTEX
  8
LAYER_1
 10
118.0529
 20
180.5867
  0
VERTEX
  8
LAYER_1
 10
118.0949
 20
180.4596
  0
SEQEND
  0
POLYLINE
  8
LAYER_1
 40
0.1799
 41
0.1799
 66
1
 10
0
 20
0
 30
0
  0
VERTEX
  8
LAYER_1
 10
118.0529
 20
183.0844
  0
VERTEX
  8
LAYER_1
 10
117.5449
 20
183.0844
  0
SEQEND
  0
POLYLINE
  8
LAYER_1
 40
0.1799
 41
0.1799
 66
1
 10
0
 20
0
 30
0
  0
VERTEX
  8
LAYER_1
 10
119.238
 20
183.2326
  0
VERTEX
  8
LAYER_1
 10
119.1114
 20
183.4014
  0
VERTEX
  8
LAYER_1
 10
118.9417
 20
183.5288
  0
VERTEX
  8
LAYER_1
 10
118.7512
 20
183.5712
  0
VERTEX
  8
LAYER_1
 10
118.5399
 20
183.5712
  0
VERTEX
  8
LAYER_1
 10
118.349
 20
183.4865
  0
VERTEX
  8
LAYER_1
 10
118.2012
 20
183.3594
  0
VERTEX
  8
LAYER_1
 10
118.0951
 20
183.1902
  0
SEQEND
  0
POLYLINE
  8
LAYER_1
 40
0.1799
 41
0.1799
 66
1
 10
0
 20
0
 30
0
  0
VERTEX
  8
LAYER_1
 10
118.0529
 20
183.0844
  0
VERTEX
  8
LAYER_1
 10
118.1165
 20
183.2112
  0
SEQEND
  0
POLYLINE
  8
LAYER_1
 40
0.1799
 41
0.1799
 66
1
 10
0
 20
0
 30
0
  0
VERTEX
  8
LAYER_1
 10
121.3547
 20
183.4231
  0
VERTEX
  8
LAYER_1
 10
120.8894
 20
183.317
  0
VERTEX
  8
LAYER_1
 10
120.4233
 20
183.1478
  0
VERTEX
  8
LAYER_1
 10
120.0001
 20
182.9153
  0
VERTEX
  8
LAYER_1
 10
119.6191
 20
182.6187
  0
SEQEND
  0
POLYLINE
  8
LAYER_1
 40
0.1799
 41
0.1799
 66
1
 10
0
 20
0
 30
0
  0
VERTEX
  8
LAYER_1
 10
122.5402
 20
181.8356
  0
VERTEX
  8
LAYER_1
 10
122.5402
 20
183.0844
  0
SEQEND
  0
POLYLINE
  8
LAYER_1
 40
0.1799
 41
0.1799
 66
1
 10
0
 20
0
 30
0
  0
VERTEX
  8
LAYER_1
 10
119.6191
 20
181.0522
  0
VERTEX
  8
LAYER_1
 10
120.0001
 20
180.7559
  0
VERTEX
  8
LAYER_1
 10
120.4233
 20
180.523
  0
VERTEX
  8
LAYER_1
 10
120.8891
 20
180.3538
  0
VERTEX
  8
LAYER_1
 10
121.3547
 20
180.2481
  0
SEQEND
  0
POLYLINE
  8
LAYER_1
 40
0.1799
 41
0.1799
 66
1
 10
0
 20
0
 30
0
  0
VERTEX
  8
LAYER_1
 10
119.5557
 20
181.8356
  0
VERTEX
  8
LAYER_1
 10
119.5557
 20
181.0522
  0
VERTEX
  8
LAYER_1
 10
119.6192
 20
181.0522
  0
SEQEND
  0
POLYLINE
  8
LAYER_1
 40
0.1799
 41
0.1799
 66
1
 10
0
 20
0
 30
0
  0
VERTEX
  8
LAYER_1
 10
119.5557
 20
181.0522
  0
VERTEX
  8
LAYER_1
 10
119.5133
 20
181.0308
  0
SEQEND
  0
POLYLINE
  8
LAYER_1
 40
0.1799
 41
0.1799
 66
1
 10
0
 20
0
 30
0
  0
VERTEX
  8
LAYER_1
 10
119.5557
 20
181.8356
  0
VERTEX
  8
LAYER_1
 10
119.5557
 20
182.6187
  0
SEQEND
  0
POLYLINE
  8
LAYER_1
 40
0.1799
 41
0.1799
 66
1
 10
0
 20
0
 30
0
  0
VERTEX
  8
LAYER_1
 10
119.5133
 20
182.6397
  0
VERTEX
  8
LAYER_1
 10
119.5557
 20
182.5976
  0
VERTEX
  8
LAYER_1
 10
119.6191
 20
182.6183
  0
SEQEND
  0
POLYLINE
  8
LAYER_1
 40
0.1799
 41
0.1799
 66
1
 10
0
 20
0
 30
0
  0
VERTEX
  8
LAYER_1
 10
122.5402
 20
181.8356
  0
VERTEX
  8
LAYER_1
 10
122.5402
 20
180.5867
  0
SEQEND
  0
POLYLINE
  8
LAYER_1
 40
0.1799
 41
0.1799
 66
1
 10
0
 20
0
 30
0
  0
VERTEX
  8
LAYER_1
 10
121.3547
 20
180.2481
  0
VERTEX
  8
LAYER_1
 10
121.7781
 20
180.2481
  0
VERTEX
  8
LAYER_1
 10
122.1801
 20
180.3749
  0
VERTEX
  8
LAYER_1
 10
122.54
 20
180.5867
  0
SEQEND
  0
POLYLINE
  8
LAYER_1
 40
0.1799
 41
0.1799
 66
1
 10
0
 20
0
 30
0
  0
VERTEX
  8
LAYER_1
 10
122.5402
 20
183.0844
  0
VERTEX
  8
LAYER_1
 10
122.18
 20
183.296
  0
VERTEX
  8
LAYER_1
 10
121.7781
 20
183.4231
  0
VERTEX
  8
LAYER_1
 10
121.3549
 20
183.4231
  0
SEQEND
  0
POLYLINE
  8
LAYER_1
 40
0.1799
 41
0.1799
 66
1
 10
0
 20
0
 30
0
  0
VERTEX
  8
LAYER_1
 10
124.805
 20
179.2108
  0
VERTEX
  8
LAYER_1
 10
124.805
 20
181.8356
  0
SEQEND
  0
POLYLINE
  8
LAYER_1
 40
0.1799
 41
0.1799
 66
1
 10
0
 20
0
 30
0
  0
VERTEX
  8
LAYER_1
 10
125.4189
 20
181.8356
  0
VERTEX
  8
LAYER_1
 10
125.4189
 20
179.2111
  0
VERTEX
  8
LAYER_1
 10
124.8051
 20
179.2111
  0
VERTEX
  8
LAYER_1
 10
124.6568
 20
179.3165
  0
VERTEX
  8
LAYER_1
 10
124.4871
 20
179.3589
  0
VERTEX
  8
LAYER_1
 10
124.3182
 20
179.3803
  0
SEQEND
  0
POLYLINE
  8
LAYER_1
 40
0.1799
 41
0.1799
 66
1
 10
0
 20
0
 30
0
  0
VERTEX
  8
LAYER_1
 10
125.4189
 20
183.5922
  0
VERTEX
  8
LAYER_1
 10
129.4402
 20
183.5922
  0
SEQEND
  0
POLYLINE
  8
LAYER_1
 40
0.1799
 41
0.1799
 66
1
 10
0
 20
0
 30
0
  0
VERTEX
  8
LAYER_1
 10
125.4189
 20
183.0844
  0
VERTEX
  8
LAYER_1
 10
129.4193
 20
183.0844
  0
SEQEND
  0
POLYLINE
  8
LAYER_1
 40
0.1799
 41
0.1799
 66
1
 10
0
 20
0
 30
0
  0
VERTEX
  8
LAYER_1
 10
125.4189
 20
180.5867
  0
VERTEX
  8
LAYER_1
 10
129.4193
 20
180.5867
  0
SEQEND
  0
POLYLINE
  8
LAYER_1
 40
0.1799
 41
0.1799
 66
1
 10
0
 20
0
 30
0
  0
VERTEX
  8
LAYER_1
 10
125.4189
 20
180.0786
  0
VERTEX
  8
LAYER_1
 10
129.4402
 20
180.0786
  0
SEQEND
  0
POLYLINE
  8
LAYER_1
 40
0.1799
 41
0.1799
 66
1
 10
0
 20
0
 30
0
  0
VERTEX
  8
LAYER_1
 10
124.805
 20
184.4601
  0
VERTEX
  8
LAYER_1
 10
124.805
 20
181.8356
  0
SEQEND
  0
POLYLINE
  8
LAYER_1
 40
0.1799
 41
0.1799
 66
1
 10
0
 20
0
 30
0
  0
VERTEX
  8
LAYER_1
 10
125.4189
 20
181.8356
  0
VERTEX
  8
LAYER_1
 10
125.4189
 20
184.4601
  0
VERTEX
  8
LAYER_1
 10
124.8051
 20
184.4601
  0
SEQEND
  0
POLYLINE
  8
LAYER_1
 40
0.1799
 41
0.1799
 66
1
 10
0
 20
0
 30
0
  0
VERTEX
  8
LAYER_1
 10
124.3182
 20
184.2909
  0
VERTEX
  8
LAYER_1
 10
124.4871
 20
184.2909
  0
VERTEX
  8
LAYER_1
 10
124.6568
 20
184.3543
  0
VERTEX
  8
LAYER_1
 10
124.805
 20
184.4597
  0
SEQEND
  0
POLYLINE
  8
LAYER_1
 40
0.1799
 41
0.1799
 66
1
 10
0
 20
0
 30
0
  0
VERTEX
  8
LAYER_1
 10
129.4193
 20
180.0786
  0
VERTEX
  8
LAYER_1
 10
129.5459
 20
180.121
  0
VERTEX
  8
LAYER_1
 10
129.631
 20
180.2057
  0
VERTEX
  8
LAYER_1
 10
129.6734
 20
180.3325
  0
VERTEX
  8
LAYER_1
 10
129.631
 20
180.4596
  0
VERTEX
  8
LAYER_1
 10
129.5459
 20
180.5444
  0
VERTEX
  8
LAYER_1
 10
129.4193
 20
180.5867
  0
SEQEND
  0
POLYLINE
  8
LAYER_1
 40
0.1799
 41
0.1799
 66
1
 10
0
 20
0
 30
0
  0
VERTEX
  8
LAYER_1
 10
129.4193
 20
183.0844
  0
VERTEX
  8
LAYER_1
 10
129.5459
 20
183.1268
  0
VERTEX
  8
LAYER_1
 10
129.631
 20
183.2112
  0
VERTEX
  8
LAYER_1
 10
129.6734
 20
183.3383
  0
VERTEX
  8
LAYER_1
 10
129.631
 20
183.4655
  0
VERTEX
  8
LAYER_1
 10
129.5459
 20
183.5499
  0
VERTEX
  8
LAYER_1
 10
129.4193
 20
183.5919
  0
SEQEND
  0
POLYLINE
  8
LAYER_1
 40
0.1799
 41
0.1799
 62
160
 66
1
 10
0
 20
0
 30
0
  0
VERTEX
  8
LAYER_1
 10
73.9626
 20
183.5288
  0
VERTEX
  8
LAYER_1
 10
73.6663
 20
183.3173
 42
0.05457703891
  0
VERTEX
  8
LAYER_1
 10
73.2478
 20
183.0085
 42
0.1596061094
  0
VERTEX
  8
LAYER_1
 10
73.0028
 20
182.5963
 42
0.1971567155
  0
VERTEX
  8
LAYER_1
 10
73.1191
 20
182.2141
 42
0.04388687502
  0
VERTEX
  8
LAYER_1
 10
73.3779
 20
181.911
 42
-0.09400818482
  0
VERTEX
  8
LAYER_1
 10
73.836
 20
181.3492
 42
-0.1576751518
  0
VERTEX
  8
LAYER_1
 10
73.9137
 20
180.9101
 42
-0.07672340943
  0
VERTEX
  8
LAYER_1
 10
73.8346
 20
180.6726
 42
-0.05774388366
  0
VERTEX
  8
LAYER_1
 10
73.6587
 20
180.4107
 42
-0.03997983745
  0
VERTEX
  8
LAYER_1
 10
73.3695
 20
180.121
  0
VERTEX
  8
LAYER_1
 10
73.1163
 20
179.8671
  0
SEQEND
  0
POLYLINE
  8
LAYER_1
 40
0.1799
 41
0.1799
 62
160
 66
1
 10
0
 20
0
 30
0
  0
VERTEX
  8
LAYER_1
 10
74.9785
 20
183.5288
  0
VERTEX
  8
LAYER_1
 10
74.6611
 20
183.3173
 42
0.05547015964
  0
VERTEX
  8
LAYER_1
 10
74.251
 20
183.0027
 42
0.1593994328
  0
VERTEX
  8
LAYER_1
 10
74.0142
 20
182.5841
 42
0.1925607451
  0
VERTEX
  8
LAYER_1
 10
74.1342
 20
182.1984
 42
0.04367115886
  0
VERTEX
  8
LAYER_1
 10
74.3935
 20
181.8946
 42
-0.09373548968
  0
VERTEX
  8
LAYER_1
 10
74.85
 20
181.3358
 42
-0.1583163551
  0
VERTEX
  8
LAYER_1
 10
74.9271
 20
180.9012
 42
-0.07703209475
  0
VERTEX
  8
LAYER_1
 10
74.8483
 20
180.6664
 42
-0.05779949331
  0
VERTEX
  8
LAYER_1
 10
74.6733
 20
180.4074
 42
-0.03990057951
  0
VERTEX
  8
LAYER_1
 10
74.3858
 20
180.121
  0
VERTEX
  8
LAYER_1
 10
74.1319
 20
179.8671
  0
SEQEND
  0
POLYLINE
  8
LAYER_1
 40
0.1799
 41
0.1799
 66
1
 10
0
 20
0
 30
0
  0
VERTEX
  8
LAYER_1
 10
73.9202
 20
181.1369
  0
VERTEX
  8
LAYER_1
 10
65.2418
 20
181.1369
  0
SEQEND
  0
POLYLINE
  8
LAYER_1
 40
0.1799
 41
0.1799
 66
1
 10
0
 20
0
 30
0
  0
VERTEX
  8
LAYER_1
 10
72.989
 20
182.5129
  0
VERTEX
  8
LAYER_1
 10
65.242
 20
182.5129
  0
SEQEND
  0
POLYLINE
  8
LAYER_1
 40
0.1799
 41
0.1799
 62
160
 66
1
 10
0
 20
0
 30
0
  0
VERTEX
  8
LAYER_1
 10
106.9824
 20
183.5288
  0
VERTEX
  8
LAYER_1
 10
106.6862
 20
183.3173
 42
0.05440153556
  0
VERTEX
  8
LAYER_1
 10
106.273
 20
183.0014
 42
0.1578571997
  0
VERTEX
  8
LAYER_1
 10
106.0328
 20
182.5841
 42
0.1956635187
  0
VERTEX
  8
LAYER_1
 10
106.1509
 20
182.2023
 42
0.04433720304
  0
VERTEX
  8
LAYER_1
 10
106.4097
 20
181.9023
 42
-0.094198612
  0
VERTEX
  8
LAYER_1
 10
106.8677
 20
181.3478
 42
-0.1578602015
  0
VERTEX
  8
LAYER_1
 10
106.9472
 20
180.912
 42
-0.076351682
  0
VERTEX
  8
LAYER_1
 10
106.87
 20
180.675
 42
-0.05736258408
  0
VERTEX
  8
LAYER_1
 10
106.6968
 20
180.4125
 42
-0.03970134302
  0
VERTEX
  8
LAYER_1
 10
106.4112
 20
180.121
  0
VERTEX
  8
LAYER_1
 10
106.157
 20
179.8671
  0
SEQEND
  0
POLYLINE
  8
LAYER_1
 40
0.1799
 41
0.1799
 62
160
 66
1
 10
0
 20
0
 30
0
  0
VERTEX
  8
LAYER_1
 10
105.9878
 20
183.5288
  0
VERTEX
  8
LAYER_1
 10
105.6704
 20
183.3173
 42
0.05472534237
  0
VERTEX
  8
LAYER_1
 10
105.2599
 20
183.0011
 42
0.1578607885
  0
VERTEX
  8
LAYER_1
 10
105.0217
 20
182.583
 42
0.1939782429
  0
VERTEX
  8
LAYER_1
 10
105.1399
 20
182.2
 42
0.0441568682
  0
VERTEX
  8
LAYER_1
 10
105.3977
 20
181.8991
 42
-0.09412887773
  0
VERTEX
  8
LAYER_1
 10
105.8531
 20
181.3439
 42
-0.1577003165
  0
VERTEX
  8
LAYER_1
 10
105.9311
 20
180.9088
 42
-0.07626837175
  0
VERTEX
  8
LAYER_1
 10
105.8535
 20
180.6725
 42
-0.05731384944
  0
VERTEX
  8
LAYER_1
 10
105.6801
 20
180.4111
 42
-0.03967642289
  0
VERTEX
  8
LAYER_1
 10
105.3948
 20
180.121
  0
VERTEX
  8
LAYER_1
 10
105.1412
 20
179.8671
  0
SEQEND
  0
POLYLINE
  8
LAYER_1
 40
0.1799
 41
0.1799
 66
1
 10
0
 20
0
 30
0
  0
VERTEX
  8
LAYER_1
 10
105.0143
 20
182.5129
  0
VERTEX
  8
LAYER_1
 10
100.4419
 20
182.5129
  0
SEQEND
  0
POLYLINE
  8
LAYER_1
 40
0.1799
 41
0.1799
 66
1
 10
0
 20
0
 30
0
  0
VERTEX
  8
LAYER_1
 10
105.9455
 20
181.1369
  0
VERTEX
  8
LAYER_1
 10
100.4418
 20
181.1369
  0
SEQEND
  0
INSERT
  8
LAYER_1
  2
AIGNBL01020007
 10
0
 20
0
 30
0
  0
POLYLINE
  8
LAYER_1
 40
0.1799
 41
0.1799
 66
1
 10
0
 20
0
 30
0
  0
VERTEX
  8
LAYER_1
 10
244.3544
 20
347.0482
 42
-0.07174555591
  0
VERTEX
  8
LAYER_1
 10
245.3731
 20
347.0419
 42
-0.0774693561
  0
VERTEX
  8
LAYER_1
 10
245.8933
 20
346.8863
 42
-0.06437743554
  0
VERTEX
  8
LAYER_1
 10
246.7873
 20
346.2369
 42
-0.05996003726
  0
VERTEX
  8
LAYER_1
 10
246.9822
 20
345.9606
 42
-0.09023467135
  0
VERTEX
  8
LAYER_1
 10
247.2588
 20
345.1861
 42
-0.05236550916
  0
VERTEX
  8
LAYER_1
 10
247.2586
 20
345.0575
  0
VERTEX
  8
LAYER_1
 10
247.0874
 20
343.3363
 42
-0.03444848682
  0
VERTEX
  8
LAYER_1
 10
246.9183
 20
342.3682
 42
-0.001575883665
  0
VERTEX
  8
LAYER_1
 10
246.7873
 20
341.7996
  0
VERTEX
  8
LAYER_1
 10
246.4852
 20
340.2993
  0
VERTEX
  8
LAYER_1
 10
246.2689
 20
339.3993
 42
-0.1632215248
  0
VERTEX
  8
LAYER_1
 10
245.8933
 20
339.0346
 42
-0.05234413702
  0
VERTEX
  8
LAYER_1
 10
245.6112
 20
339.0279
 42
-0.009582613703
  0
VERTEX
  8
LAYER_1
 10
243.9482
 20
339.1206
 42
-0.1457999135
  0
VERTEX
  8
LAYER_1
 10
243.5396
 20
339.4992
 42
-0.09928062006
  0
VERTEX
  8
LAYER_1
 10
243.3912
 20
339.9136
 42
0.006609578204
  0
VERTEX
  8
LAYER_1
 10
243.0391
 20
341.8437
  0
VERTEX
  8
LAYER_1
 10
242.5406
 20
344.1361
 42
-0.0601536165
  0
VERTEX
  8
LAYER_1
 10
242.526
 20
345.449
 42
-0.008690172349
  0
VERTEX
  8
LAYER_1
 10
242.5406
 20
345.5291
 42
-0.1254816816
  0
VERTEX
  8
LAYER_1
 10
242.8548
 20
346.2196
 42
-0.05043161376
  0
VERTEX
  8
LAYER_1
 10
243.2186
 20
346.5582
 42
-0.04949359084
  0
VERTEX
  8
LAYER_1
 10
243.5731
 20
346.7718
 42
-0.03228651844
  0
VERTEX
  8
LAYER_1
 10
244.1344
 20
347.0067
 42
-0.4748128673
  0
VERTEX
  8
LAYER_1
 10
244.3125
 20
347.0344
 42
-0.07464652265
  0
VERTEX
  8
LAYER_1
 10
244.2838
 20
347.0083
  0
SEQEND
  0
POLYLINE
  8
LAYER_1
 40
0.1799
 41
0.1799
 66
1
 10
0
 20
0
 30
0
  0
VERTEX
  8
LAYER_1
 10
68.33
 20
248.0105
  0
VERTEX
  8
LAYER_1
 10
68.2825
 20
248.7235
  0
VERTEX
  8
LAYER_1
 10
68.1163
 20
249.4125
 42
0.06450977335
  0
VERTEX
  8
LAYER_1
 10
67.4899
 20
250.6147
 42
0.06226207003
  0
VERTEX
  8
LAYER_1
 10
66.7207
 20
251.4602
 42
0.2154668122
  0
VERTEX
  8
LAYER_1
 10
63.1822
 20
252.4579
 42
0.1790941556
  0
VERTEX
  8
LAYER_1
 10
60.4432
 20
250.9337
 42
0.06238252812
  0
VERTEX
  8
LAYER_1
 10
59.8112
 20
249.9646
 42
0.06040405082
  0
VERTEX
  8
LAYER_1
 10
59.3974
 20
248.7707
  0
VERTEX
  8
LAYER_1
 10
59.3493
 20
248.0586
  0
VERTEX
  8
LAYER_1
 10
59.3974
 20
247.3692
 42
0.06542109639
  0
VERTEX
  8
LAYER_1
 10
59.7895
 20
246.0876
 42
0.06835754677
  0
VERTEX
  8
LAYER_1
 10
60.4444
 20
245.0633
 42
0.131519515
  0
VERTEX
  8
LAYER_1
 10
62.3037
 20
243.7926
 42
0.09022884333
  0
VERTEX
  8
LAYER_1
 10
63.9439
 20
243.527
 42
0.09086835334
  0
VERTEX
  8
LAYER_1
 10
65.5708
 20
243.8566
 42
0.09923588035
  0
VERTEX
  8
LAYER_1
 10
66.9829
 20
244.787
 42
0.06999965282
  0
VERTEX
  8
LAYER_1
 10
67.7054
 20
245.7439
 42
0.06825223331
  0
VERTEX
  8
LAYER_1
 10
68.1832
 20
246.9719
 42
0.01089585801
  0
VERTEX
  8
LAYER_1
 10
68.2348
 20
247.203
  0
VERTEX
  8
LAYER_1
 10
68.33
 20
247.892
  0
VERTEX
  8
LAYER_1
 10
68.33
 20
248.0105
  0
SEQEND
  0
POLYLINE
  8
LAYER_1
 40
0.05
 41
0.05
 66
1
 10
0
 20
0
 30
0
 70
1
  0
VERTEX
  8
LAYER_1
 10
0
 20
425.9997
  0
VERTEX
  8
LAYER_1
 10
302.9996
 20
425.9997
  0
VERTEX
  8
LAYER_1
 10
302.9996
 20
0
  0
VERTEX
  8
LAYER_1
 10
0
 20
0
  0
SEQEND
  0
ENDBLK
  0
BLOCK
  8
LAYER_1
  2
AIGNBL01010008
 70
64
 10
0
 20
0
 30
0
  3
AIGNBL01010008
  0
POLYLINE
  8
LAYER_1
 40
0.1799
 41
0.1799
 66
1
 10
0
 20
0
 30
0
  0
VERTEX
  8
LAYER_1
 10
137.4381
 20
256.9929
  0
VERTEX
  8
LAYER_1
 10
137.3909
 20
257.7059
  0
VERTEX
  8
LAYER_1
 10
137.2244
 20
258.3949
 42
0.06450150998
  0
VERTEX
  8
LAYER_1
 10
136.5979
 20
259.5971
 42
0.06225570195
  0
VERTEX
  8
LAYER_1
 10
135.8287
 20
260.4426
 42
0.2154588412
  0
VERTEX
  8
LAYER_1
 10
132.2901
 20
261.4403
 42
0.1790815039
  0
VERTEX
  8
LAYER_1
 10
129.5509
 20
259.9161
 42
0.0623709285
  0
VERTEX
  8
LAYER_1
 10
128.9188
 20
258.947
 42
0.06039268575
  0
VERTEX
  8
LAYER_1
 10
128.5048
 20
257.7531
  0
VERTEX
  8
LAYER_1
 10
128.4578
 20
257.0413
  0
VERTEX
  8
LAYER_1
 10
128.5048
 20
256.352
 42
0.06540559438
  0
VERTEX
  8
LAYER_1
 10
128.8972
 20
255.0703
 42
0.0683397616
  0
VERTEX
  8
LAYER_1
 10
129.5522
 20
254.0459
 42
0.1314930582
  0
VERTEX
  8
LAYER_1
 10
131.4118
 20
252.7751
 42
0.09022639868
  0
VERTEX
  8
LAYER_1
 10
133.052
 20
252.5094
 42
0.09087569805
  0
VERTEX
  8
LAYER_1
 10
134.6789
 20
252.839
 42
0.09924736568
  0
VERTEX
  8
LAYER_1
 10
136.0909
 20
253.7694
 42
0.07000504952
  0
VERTEX
  8
LAYER_1
 10
136.8133
 20
254.7263
 42
0.06825351167
  0
VERTEX
  8
LAYER_1
 10
137.2909
 20
255.9543
 42
0.01089569907
  0
VERTEX
  8
LAYER_1
 10
137.3425
 20
256.1854
  0
VERTEX
  8
LAYER_1
 10
137.4381
 20
256.8748
  0
VERTEX
  8
LAYER_1
 10
137.4381
 20
256.9929
  0
SEQEND
  0
POLYLINE
  8
LAYER_1
 40
0.1799
 41
0.1799
 66
1
 10
0
 20
0
 30
0
  0
VERTEX
  8
LAYER_1
 10
95.5385
 20
265.3685
  0
VERTEX
  8
LAYER_1
 10
91.4731
 20
265.0322
  0
VERTEX
  8
LAYER_1
 10
95.1518
 20
263.3023
  0
SEQEND
  0
POLYLINE
  8
LAYER_1
 40
0.1799
 41
0.1799
 66
1
 10
0
 20
0
 30
0
  0
VERTEX
  8
LAYER_1
 10
128.7088
 20
257.9496
  0
VERTEX
  8
LAYER_1
 10
91.473
 20
265.0324
  0
SEQEND
  0
POLYLINE
  8
LAYER_1
 40
0.05
 41
0.05
 66
1
 10
0
 20
0
 30
0
 70
1
  0
VERTEX
  8
LAYER_1
 10
0
 20
425.9997
  0
VERTEX
  8
LAYER_1
 10
302.9996
 20
425.9997
  0
VERTEX
  8
LAYER_1
 10
302.9996
 20
0
  0
VERTEX
  8
LAYER_1
 10
0
 20
0
  0
SEQEND
  0
ENDBLK
  0
BLOCK
  8
LAYER_1
  2
AIGNBL01010009
 70
64
 10
0
 20
0
 30
0
  3
AIGNBL01010009
  0
POLYLINE
  8
LAYER_1
 40
0.1799
 41
0.1799
 66
1
 10
0
 20
0
 30
0
  0
VERTEX
  8
LAYER_1
 10
146.4483
 20
315.616
  0
VERTEX
  8
LAYER_1
 10
146.4014
 20
316.329
  0
VERTEX
  8
LAYER_1
 10
146.2352
 20
317.0184
 42
0.0644989033
  0
VERTEX
  8
LAYER_1
 10
145.6086
 20
318.2206
 42
0.06225447498
  0
VERTEX
  8
LAYER_1
 10
144.8393
 20
319.066
 42
0.2154608212
  0
VERTEX
  8
LAYER_1
 10
141.3007
 20
320.0636
 42
0.1790798071
  0
VERTEX
  8
LAYER_1
 10
138.5616
 20
318.5392
 42
0.06236808039
  0
VERTEX
  8
LAYER_1
 10
137.9295
 20
317.5701
 42
0.06039000113
  0
VERTEX
  8
LAYER_1
 10
137.5156
 20
316.3762
  0
VERTEX
  8
LAYER_1
 10
137.4683
 20
315.6641
  0
VERTEX
  8
LAYER_1
 10
137.5156
 20
314.9751
 42
0.06542159603
  0
VERTEX
  8
LAYER_1
 10
137.9078
 20
313.6936
 42
0.0683510065
  0
VERTEX
  8
LAYER_1
 10
138.5628
 20
312.6692
 42
0.1314964922
  0
VERTEX
  8
LAYER_1
 10
140.4223
 20
311.3985
 42
0.09021753258
  0
VERTEX
  8
LAYER_1
 10
142.0625
 20
311.1328
 42
0.09087012638
  0
VERTEX
  8
LAYER_1
 10
143.6895
 20
311.4623
 42
0.09925288168
  0
VERTEX
  8
LAYER_1
 10
145.1014
 20
312.3926
 42
0.07001562306
  0
VERTEX
  8
LAYER_1
 10
145.8238
 20
313.3494
 42
0.06826494663
  0
VERTEX
  8
LAYER_1
 10
146.3014
 20
314.5774
 42
0.01089737716
  0
VERTEX
  8
LAYER_1
 10
146.353
 20
314.8085
  0
VERTEX
  8
LAYER_1
 10
146.4483
 20
315.4979
  0
VERTEX
  8
LAYER_1
 10
146.4483
 20
315.616
  0
SEQEND
  0
POLYLINE
  8
LAYER_1
 40
0.1799
 41
0.1799
 66
1
 10
0
 20
0
 30
0
  0
VERTEX
  8
LAYER_1
 10
125.1381
 20
305.8385
  0
VERTEX
  8
LAYER_1
 10
122.501
 20
302.7262
  0
VERTEX
  8
LAYER_1
 10
126.326
 20
304.1039
  0
SEQEND
  0
POLYLINE
  8
LAYER_1
 40
0.1799
 41
0.1799
 66
1
 10
0
 20
0
 30
0
  0
VERTEX
  8
LAYER_1
 10
137.4683
 20
313.1792
  0
VERTEX
  8
LAYER_1
 10
122.5012
 20
302.7264
  0
SEQEND
  0
POLYLINE
  8
LAYER_1
 40
0.05
 41
0.05
 66
1
 10
0
 20
0
 30
0
 70
1
  0
VERTEX
  8
LAYER_1
 10
0
 20
425.9997
  0
VERTEX
  8
LAYER_1
 10
302.9996
 20
425.9997
  0
VERTEX
  8
LAYER_1
 10
302.9996
 20
0
  0
VERTEX
  8
LAYER_1
 10
0
 20
0
  0
SEQEND
  0
ENDBLK
  0
BLOCK
  8
LAYER_1
  2
AIGNBL0101000A
 70
64
 10
0
 20
0
 30
0
  3
AIGNBL0101000A
  0
POLYLINE
  8
LAYER_1
 40
0.1799
 41
0.1799
 66
1
 10
0
 20
0
 30
0
  0
VERTEX
  8
LAYER_1
 10
117.0032
 20
294.3352
  0
VERTEX
  8
LAYER_1
 10
116.9563
 20
295.0481
  0
VERTEX
  8
LAYER_1
 10
116.7901
 20
295.7375
 42
0.06449840439
  0
VERTEX
  8
LAYER_1
 10
116.1635
 20
296.9397
 42
0.06225213135
  0
VERTEX
  8
LAYER_1
 10
115.3942
 20
297.7852
 42
0.2397608535
  0
VERTEX
  8
LAYER_1
 10
111.4295
 20
298.6973
 42
0.2473470115
  0
VERTEX
  8
LAYER_1
 10
108.2828
 20
295.819
 42
0.03434199708
  0
VERTEX
  8
LAYER_1
 10
108.0706
 20
295.0953
  0
VERTEX
  8
LAYER_1
 10
108.0232
 20
294.3831
  0
VERTEX
  8
LAYER_1
 10
108.0706
 20
293.6942
 42
0.06542310382
  0
VERTEX
  8
LAYER_1
 10
108.4628
 20
292.4127
 42
0.06835257559
  0
VERTEX
  8
LAYER_1
 10
109.1177
 20
291.3883
 42
0.1314984884
  0
VERTEX
  8
LAYER_1
 10
110.9772
 20
290.1176
 42
0.09021771133
  0
VERTEX
  8
LAYER_1
 10
112.6175
 20
289.8519
 42
0.09087024802
  0
VERTEX
  8
LAYER_1
 10
114.2444
 20
290.1814
 42
0.09925396654
  0
VERTEX
  8
LAYER_1
 10
115.6564
 20
291.1117
 42
0.07001710423
  0
VERTEX
  8
LAYER_1
 10
116.3788
 20
292.0685
 42
0.0682665688
  0
VERTEX
  8
LAYER_1
 10
116.8563
 20
293.2965
 42
0.01089762499
  0
VERTEX
  8
LAYER_1
 10
116.9079
 20
293.5276
  0
VERTEX
  8
LAYER_1
 10
117.0032
 20
294.217
  0
VERTEX
  8
LAYER_1
 10
117.0032
 20
294.3352
  0
SEQEND
  0
POLYLINE
  8
LAYER_1
 40
0.1799
 41
0.1799
 66
1
 10
0
 20
0
 30
0
  0
VERTEX
  8
LAYER_1
 10
96.046
 20
284.558
  0
VERTEX
  8
LAYER_1
 10
93.4083
 20
281.4454
  0
VERTEX
  8
LAYER_1
 10
97.2333
 20
282.8234
  0
SEQEND
  0
POLYLINE
  8
LAYER_1
 40
0.1799
 41
0.1799
 66
1
 10
0
 20
0
 30
0
  0
VERTEX
  8
LAYER_1
 10
108.376
 20
291.8986
  0
VERTEX
  8
LAYER_1
 10
93.4083
 20
281.4455
  0
SEQEND
  0
POLYLINE
  8
LAYER_1
 40
0.05
 41
0.05
 66
1
 10
0
 20
0
 30
0
 70
1
  0
VERTEX
  8
LAYER_1
 10
0
 20
425.9997
  0
VERTEX
  8
LAYER_1
 10
302.9996
 20
425.9997
  0
VERTEX
  8
LAYER_1
 10
302.9996
 20
0
  0
VERTEX
  8
LAYER_1
 10
0
 20
0
  0
SEQEND
  0
ENDBLK
  0
BLOCK
  8
LAYER_1
  2
AIGNBL0101000B
 70
64
 10
0
 20
0
 30
0
  3
AIGNBL0101000B
  0
POLYLINE
  8
LAYER_1
 40
0.1799
 41
0.1799
 66
1
 10
0
 20
0
 30
0
  0
VERTEX
  8
LAYER_1
 10
70.0147
 20
240.1943
  0
VERTEX
  8
LAYER_1
 10
72.3642
 20
242.9671
  0
VERTEX
  8
LAYER_1
 10
68.9563
 20
241.7398
  0
SEQEND
  0
POLYLINE
  8
LAYER_1
 40
0.1799
 41
0.1799
 66
1
 10
0
 20
0
 30
0
  0
VERTEX
  8
LAYER_1
 10
59.0296
 20
233.6541
  0
VERTEX
  8
LAYER_1
 10
72.3642
 20
242.9671
  0
SEQEND
  0
INSERT
  8
LAYER_1
  2
AIGNBL0102000C
 10
0
 20
0
 30
0
  0
POLYLINE
  8
LAYER_1
 40
0.1799
 41
0.1799
 66
1
 10
0
 20
0
 30
0
  0
VERTEX
  8
LAYER_1
 10
71.1262
 20
225.975
  0
VERTEX
  8
LAYER_1
 10
106.4672
 20
225.975
  0
SEQEND
  0
POLYLINE
  8
LAYER_1
 40
0.1799
 41
0.1799
 66
1
 10
0
 20
0
 30
0
  0
VERTEX
  8
LAYER_1
 10
143.5923
 20
244.4362
  0
VERTEX
  8
LAYER_1
 10
143.5923
 20
309.0542
  0
SEQEND
  0
POLYLINE
  8
LAYER_1
 40
0.1799
 41
0.1799
 66
1
 10
0
 20
0
 30
0
  0
VERTEX
  8
LAYER_1
 10
46.4704
 20
308.8766
  0
VERTEX
  8
LAYER_1
 10
46.4704
 20
270.6965
  0
SEQEND
  0
POLYLINE
  8
LAYER_1
 40
0.1799
 41
0.1799
 66
1
 10
0
 20
0
 30
0
  0
VERTEX
  8
LAYER_1
 10
123.4335
 20
320.1141
  0
VERTEX
  8
LAYER_1
 10
54.5378
 20
320.1141
  0
SEQEND
  0
POLYLINE
  8
LAYER_1
 40
0.05
 41
0.05
 66
1
 10
0
 20
0
 30
0
 70
1
  0
VERTEX
  8
LAYER_1
 10
0
 20
425.9997
  0
VERTEX
  8
LAYER_1
 10
302.9996
 20
425.9997
  0
VERTEX
  8
LAYER_1
 10
302.9996
 20
0
  0
VERTEX
  8
LAYER_1
 10
0
 20
0
  0
SEQEND
  0
ENDBLK
  0
BLOCK
  8
LAYER_1
  2
AIGNBL0101000D
 70
64
 10
0
 20
0
 30
0
  3
AIGNBL0101000D
  0
POLYLINE
  8
LAYER_1
 40
0.1799
 41
0.1799
 66
1
 10
0
 20
0
 30
0
  0
VERTEX
  8
LAYER_1
 10
88.144
 20
283.3135
 42
-0.05550396493
  0
VERTEX
  8
LAYER_1
 10
89.5822
 20
283.34
 42
-0.01847900577
  0
VERTEX
  8
LAYER_1
 10
89.7868
 20
283.3036
 42
-0.06763495105
  0
VERTEX
  8
LAYER_1
 10
90.6258
 20
283.0525
 42
-0.03164907958
  0
VERTEX
  8
LAYER_1
 10
91.2428
 20
282.6714
 42
-0.03533850536
  0
VERTEX
  8
LAYER_1
 10
92.0666
 20
282.005
 42
-0.05327821707
  0
VERTEX
  8
LAYER_1
 10
92.3058
 20
281.6874
 42
-0.06746025979
  0
VERTEX
  8
LAYER_1
 10
92.762
 20
280.6617
 42
-0.08530227808
  0
VERTEX
  8
LAYER_1
 10
92.8281
 20
280.1035
 42
-0.009211262365
  0
VERTEX
  8
LAYER_1
 10
92.552
 20
277.3279
 42
-0.02682785275
  0
VERTEX
  8
LAYER_1
 10
92.341
 20
276.0313
 42
0.006240332855
  0
VERTEX
  8
LAYER_1
 10
92.0666
 20
274.8497
 42
-0.00405569541
  0
VERTEX
  8
LAYER_1
 10
91.5811
 20
272.4306
 42
-0.01463659489
  0
VERTEX
  8
LAYER_1
 10
91.2921
 20
271.1188
 42
-0.03298643272
  0
VERTEX
  8
LAYER_1
 10
91.2318
 20
270.9793
 42
-0.1628821166
  0
VERTEX
  8
LAYER_1
 10
90.6258
 20
270.3912
 42
-0.05582893996
  0
VERTEX
  8
LAYER_1
 10
90.3615
 20
270.3772
 42
-0.01137941542
  0
VERTEX
  8
LAYER_1
 10
88.992
 20
270.4345
 42
-0.004244973248
  0
VERTEX
  8
LAYER_1
 10
87.4896
 20
270.5296
 42
-0.1160490234
  0
VERTEX
  8
LAYER_1
 10
86.9515
 20
270.9665
 42
-0.133069051
  0
VERTEX
  8
LAYER_1
 10
86.5914
 20
271.8087
 42
0.007475583464
  0
VERTEX
  8
LAYER_1
 10
86.0227
 20
274.9209
  0
VERTEX
  8
LAYER_1
 10
85.2194
 20
278.6173
 42
-0.044696035
  0
VERTEX
  8
LAYER_1
 10
85.1543
 20
280.3702
 42
-0.03234680052
  0
VERTEX
  8
LAYER_1
 10
85.2194
 20
280.8642
 42
-0.09586129464
  0
VERTEX
  8
LAYER_1
 10
85.5851
 20
281.7908
 42
-0.0459129957
  0
VERTEX
  8
LAYER_1
 10
85.8517
 20
282.1155
 42
-0.02954877698
  0
VERTEX
  8
LAYER_1
 10
86.3131
 20
282.5233
 42
-0.04377750582
  0
VERTEX
  8
LAYER_1
 10
86.7276
 20
282.7867
 42
-0.05145544037
  0
VERTEX
  8
LAYER_1
 10
88.0084
 20
283.3076
 42
-0.8137922023
  0
VERTEX
  8
LAYER_1
 10
88.0771
 20
283.2911
 42
-0.07486779483
  0
VERTEX
  8
LAYER_1
 10
88.0308
 20
283.2489
  0
SEQEND
  0
POLYLINE
  8
LAYER_1
 40
0.1799
 41
0.1799
 66
1
 10
0
 20
0
 30
0
 70
1
  0
VERTEX
  8
LAYER_1
 10
90.9578
 20
262.9951
  0
VERTEX
  8
LAYER_1
 10
87.0426
 20
262.9951
  0
VERTEX
  8
LAYER_1
 10
87.0426
 20
270.251
  0
VERTEX
  8
LAYER_1
 10
90.9578
 20
270.251
  0
SEQEND
  0
POLYLINE
  8
LAYER_1
 40
0.1799
 41
0.1799
 66
1
 10
0
 20
0
 30
0
 70
1
  0
VERTEX
  8
LAYER_1
 10
86.1639
 20
261.0604
  0
VERTEX
  8
LAYER_1
 10
86.1639
 20
270.2512
  0
VERTEX
  8
LAYER_1
 10
91.8669
 20
270.2512
  0
VERTEX
  8
LAYER_1
 10
91.8669
 20
261.0604
  0
VERTEX
  8
LAYER_1
 10
99.102
 20
261.0604
  0
VERTEX
  8
LAYER_1
 10
99.102
 20
260.4821
  0
VERTEX
  8
LAYER_1
 10
78.8987
 20
260.4821
  0
VERTEX
  8
LAYER_1
 10
78.8987
 20
261.0604
  0
SEQEND
  0
POLYLINE
  8
LAYER_1
 40
0.1799
 41
0.1799
 66
1
 10
0
 20
0
 30
0
  0
VERTEX
  8
LAYER_1
 10
61.0883
 20
228.9249
  0
VERTEX
  8
LAYER_1
 10
61.0407
 20
229.6378
  0
VERTEX
  8
LAYER_1
 10
60.8745
 20
230.3269
 42
0.06450860657
  0
VERTEX
  8
LAYER_1
 10
60.2481
 20
231.5291
 42
0.06226221825
  0
VERTEX
  8
LAYER_1
 10
59.4789
 20
232.3746
 42
0.215472094
  0
VERTEX
  8
LAYER_1
 10
55.9405
 20
233.3723
 42
0.1790907489
  0
VERTEX
  8
LAYER_1
 10
53.2014
 20
231.848
 42
0.06237826782
  0
VERTEX
  8
LAYER_1
 10
52.5694
 20
230.8789
 42
0.0603999996
  0
VERTEX
  8
LAYER_1
 10
52.1556
 20
229.685
  0
VERTEX
  8
LAYER_1
 10
52.1076
 20
228.9728
  0
VERTEX
  8
LAYER_1
 10
52.1556
 20
228.2836
 42
0.06541927315
  0
VERTEX
  8
LAYER_1
 10
52.5477
 20
227.002
 42
0.06835560745
  0
VERTEX
  8
LAYER_1
 10
53.2026
 20
225.9776
 42
0.1315168694
  0
VERTEX
  8
LAYER_1
 10
55.062
 20
224.7069
 42
0.09022890188
  0
VERTEX
  8
LAYER_1
 10
56.7022
 20
224.4413
 42
0.09086969585
  0
VERTEX
  8
LAYER_1
 10
58.3291
 20
224.7709
 42
0.09923814703
  0
VERTEX
  8
LAYER_1
 10
59.7412
 20
225.7013
 42
0.07000116202
  0
VERTEX
  8
LAYER_1
 10
60.4637
 20
226.6582
 42
0.06825323147
  0
VERTEX
  8
LAYER_1
 10
60.9414
 20
227.8862
 42
0.01089596289
  0
VERTEX
  8
LAYER_1
 10
60.993
 20
228.1173
  0
VERTEX
  8
LAYER_1
 10
61.0883
 20
228.8064
  0
VERTEX
  8
LAYER_1
 10
61.0883
 20
228.9249
  0
SEQEND
  0
POLYLINE
  8
LAYER_1
 40
0.05
 41
0.05
 66
1
 10
0
 20
0
 30
0
 70
1
  0
VERTEX
  8
LAYER_1
 10
0
 20
425.9997
  0
VERTEX
  8
LAYER_1
 10
302.9996
 20
425.9997
  0
VERTEX
  8
LAYER_1
 10
302.9996
 20
0
  0
VERTEX
  8
LAYER_1
 10
0
 20
0
  0
SEQEND
  0
ENDBLK
  0
BLOCK
  8
LAYER_1
  2
AIGNBL0101000E
 70
64
 10
0
 20
0
 30
0
  3
AIGNBL0101000E
  0
POLYLINE
  8
LAYER_1
 40
0.1799
 41
0.1799
 66
1
 10
0
 20
0
 30
0
  0
VERTEX
  8
LAYER_1
 10
78.641
 20
257.7093
  0
VERTEX
  8
LAYER_1
 10
80.9906
 20
260.4821
  0
VERTEX
  8
LAYER_1
 10
77.5827
 20
259.2548
  0
SEQEND
  0
POLYLINE
  8
LAYER_1
 40
0.1799
 41
0.1799
 66
1
 10
0
 20
0
 30
0
  0
VERTEX
  8
LAYER_1
 10
67.656
 20
251.1692
  0
VERTEX
  8
LAYER_1
 10
80.9906
 20
260.4821
  0
SEQEND
  0
POLYLINE
  8
LAYER_1
 40
0.05
 41
0.05
 66
1
 10
0
 20
0
 30
0
 70
1
  0
VERTEX
  8
LAYER_1
 10
0
 20
425.9997
  0
VERTEX
  8
LAYER_1
 10
302.9996
 20
425.9997
  0
VERTEX
  8
LAYER_1
 10
302.9996
 20
0
  0
VERTEX
  8
LAYER_1
 10
0
 20
0
  0
SEQEND
  0
ENDBLK
  0
BLOCK
  8
LAYER_1
  2
AIGNBL0101000F
 70
64
 10
0
 20
0
 30
0
  3
AIGNBL0101000F
  0
INSERT
  8
LAYER_1
  2
AIGNBL01020010
 10
0
 20
0
 30
0
  0
INSERT
  8
LAYER_1
  2
AIGNBL01020019
 10
0
 20
0
 30
0
  0
ENDBLK
  0
ENDSEC
  0
SECTION
  2
ENTITIES
  0
INSERT
  8
LAYER_1
  2
AIGNBL01010002
 10
0
 20
0
 30
0
  0
POLYLINE
  8
LAYER_1
 40
0.3528
 41
0.3528
 66
1
 10
0
 20
0
 30
0
 70
1
  0
VERTEX
  8
LAYER_1
 10
292.9103
 20
10.6064
  0
VERTEX
  8
LAYER_1
 10
9.6301
 20
10.6064
  0
VERTEX
  8
LAYER_1
 10
9.6301
 20
416.8042
  0
VERTEX
  8
LAYER_1
 10
292.9103
 20
416.8042
  0
SEQEND
  0
POLYLINE
  8
LAYER_1
 40
0.3528
 41
0.3528
 66
1
 10
0
 20
0
 30
0
  0
VERTEX
  8
LAYER_1
 10
9.6302
 20
110.086
  0
VERTEX
  8
LAYER_1
 10
292.9103
 20
110.086
  0
SEQEND
  0
POLYLINE
  8
LAYER_1
 40
0.3528
 41
0.3528
 66
1
 10
0
 20
0
 30
0
  0
VERTEX
  8
LAYER_1
 10
182.5649
 20
110.086
  0
VERTEX
  8
LAYER_1
 10
182.5649
 20
10.6064
  0
SEQEND
  0
POLYLINE
  8
LAYER_1
 40
0.3528
 41
0.3528
 66
1
 10
0
 20
0
 30
0
  0
VERTEX
  8
LAYER_1
 10
9.6302
 20
97.7894
  0
VERTEX
  8
LAYER_1
 10
182.5646
 20
97.7894
  0
SEQEND
  0
POLYLINE
  8
LAYER_1
 40
0.3528
 41
0.3528
 66
1
 10
0
 20
0
 30
0
  0
VERTEX
  8
LAYER_1
 10
9.6302
 20
85.3498
  0
VERTEX
  8
LAYER_1
 10
292.9103
 20
85.3498
  0
SEQEND
  0
POLYLINE
  8
LAYER_1
 40
0.3528
 41
0.3528
 66
1
 10
0
 20
0
 30
0
  0
VERTEX
  8
LAYER_1
 10
9.6302
 20
72.9099
  0
VERTEX
  8
LAYER_1
 10
292.9103
 20
72.9099
  0
SEQEND
  0
POLYLINE
  8
LAYER_1
 40
0.3528
 41
0.3528
 66
1
 10
0
 20
0
 30
0
  0
VERTEX
  8
LAYER_1
 10
9.6302
 20
60.4704
  0
VERTEX
  8
LAYER_1
 10
182.5646
 20
60.4704
  0
SEQEND
  0
POLYLINE
  8
LAYER_1
 40
0.3528
 41
0.3528
 66
1
 10
0
 20
0
 30
0
  0
VERTEX
  8
LAYER_1
 10
9.6302
 20
48.0308
  0
VERTEX
  8
LAYER_1
 10
292.9103
 20
48.0308
  0
SEQEND
  0
POLYLINE
  8
LAYER_1
 40
0.3528
 41
0.3528
 66
1
 10
0
 20
0
 30
0
  0
VERTEX
  8
LAYER_1
 10
9.6302
 20
35.5909
  0
VERTEX
  8
LAYER_1
 10
182.5646
 20
35.5909
  0
SEQEND
  0
POLYLINE
  8
LAYER_1
 40
0.3528
 41
0.3528
 66
1
 10
0
 20
0
 30
0
  0
VERTEX
  8
LAYER_1
 10
9.6302
 20
23.1514
  0
VERTEX
  8
LAYER_1
 10
182.5646
 20
23.1514
  0
SEQEND
  0
POLYLINE
  8
LAYER_1
 40
0.3528
 41
0.3528
 66
1
 10
0
 20
0
 30
0
  0
VERTEX
  8
LAYER_1
 10
31.2231
 20
110.086
  0
VERTEX
  8
LAYER_1
 10
31.2231
 20
10.6064
  0
SEQEND
  0
POLYLINE
  8
LAYER_1
 40
0.3528
 41
0.3528
 66
1
 10
0
 20
0
 30
0
  0
VERTEX
  8
LAYER_1
 10
80.2411
 20
110.086
  0
VERTEX
  8
LAYER_1
 10
80.2411
 20
10.6064
  0
SEQEND
  0
POLYLINE
  8
LAYER_1
 40
0.3528
 41
0.3528
 66
1
 10
0
 20
0
 30
0
  0
VERTEX
  8
LAYER_1
 10
118.8517
 20
110.0863
  0
VERTEX
  8
LAYER_1
 10
118.8517
 20
10.6064
  0
SEQEND
  0
POLYLINE
  8
LAYER_1
 40
0.3528
 41
0.3528
 66
1
 10
0
 20
0
 30
0
  0
VERTEX
  8
LAYER_1
 10
137.9079
 20
110.086
  0
VERTEX
  8
LAYER_1
 10
137.9079
 20
10.6061
  0
SEQEND
  0
TEXT
  8
LAYER_1
 10
45.8277
 20
14.1304
 11
45.8277
 21
14.1304
 40
6.2324
 41
0.5
  1
部品名
  0
TEXT
  8
LAYER_1
 10
15.134
 20
14.1304
 11
15.134
 21
14.1304
 40
6.2324
 41
0.5
  1
部番
  0
TEXT
  8
LAYER_1
 10
93.2958
 20
14.1304
 11
93.2958
 21
14.1304
 40
6.2324
 41
0.5
  1
材質
  0
TEXT
  8
LAYER_1
 10
122.4781
 20
14.1304
 11
122.4781
 21
14.1304
 40
6.2324
 41
0.5
  1
数量
  0
TEXT
  8
LAYER_1
 10
153.8618
 20
14.1304
 11
153.8618
 21
14.1304
 40
6.2324
 41
0.5
  1
摘要
  0
TEXT
  8
LAYER_1
 10
18.4564
 20
63.9975
 11
18.4564
 21
63.9975
 40
7.105
 41
0.5
  1
4
  0
TEXT
  8
LAYER_1
 10
18.4564
 20
52.0871
 11
18.4564
 21
52.0871
 40
7.105
 41
0.5
  1
3
  0
TEXT
  8
LAYER_1
 10
18.4564
 20
39.1328
 11
18.4564
 21
39.1328
 40
7.105
 41
0.5
  1
2
  0
TEXT
  8
LAYER_1
 10
18.4564
 20
26.9344
 11
18.4564
 21
26.9344
 40
7.105
 41
0.5
  1
1
  0
TEXT
  8
LAYER_1
 10
18.4564
 20
75.7701
 11
18.4564
 21
75.7701
 40
7.105
 41
0.5
  1
5
  0
TEXT
  8
LAYER_1
 10
33.8272
 20
26.4067
 11
33.8272
 21
26.4067
 40
6.2324
 41
0.5
  1
コード
  0
TEXT
  8
LAYER_1
 10
33.8272
 20
39.3068
 11
33.8272
 21
39.3068
 40
6.2324
 41
0.5
  1
中間スイッチ
  0
TEXT
  8
LAYER_1
 10
33.8272
 20
51.9069
 11
33.8272
 21
51.9069
 40
6.2324
 41
0.5
  1
ソケットカバー
  0
TEXT
  8
LAYER_1
 10
33.8272
 20
64.5191
 11
33.8272
 21
64.5191
 40
6.2324
 41
0.5
  1
ソケット
  0
TEXT
  8
LAYER_1
 10
33.8272
 20
101.4202
 11
33.8272
 21
101.4202
 40
6.2324
 41
0.5
  1
ランプ
  0
TEXT
  8
LAYER_1
 10
18.4564
 20
89.1198
 11
18.4564
 21
89.1198
 40
7.105
 41
0.5
  1
6
  0
TEXT
  8
LAYER_1
 10
18.4564
 20
100.8862
 11
18.4564
 21
100.8862
 40
7.105
 41
0.5
  1
7
  0
TEXT
  8
LAYER_1
 10
126.1065
 20
26.9286
 11
126.1065
 21
26.9286
 40
7.105
 41
0.5
  1
1
  0
TEXT
  8
LAYER_1
 10
126.1065
 20
39.127
 11
126.1065
 21
39.127
 40
7.105
 41
0.5
  1
1
  0
TEXT
  8
LAYER_1
 10
126.1065
 20
52.0809
 11
126.1065
 21
52.0809
 40
7.105
 41
0.5
  1
1
  0
TEXT
  8
LAYER_1
 10
126.1065
 20
64.3392
 11
126.1065
 21
64.3392
 40
7.105
 41
0.5
  1
1
  0
TEXT
  8
LAYER_1
 10
126.1065
 20
75.7639
 11
126.1065
 21
75.7639
 40
7.105
 41
0.5
  1
1
  0
TEXT
  8
LAYER_1
 10
126.1065
 20
89.1198
 11
126.1065
 21
89.1198
 40
7.105
 41
0.5
  1
1
  0
TEXT
  8
LAYER_1
 10
126.1065
 20
101.0664
 11
126.1065
 21
101.0664
 40
7.105
 41
0.5
  1
1
  0
TEXT
  8
LAYER_1
 10
92.3062
 20
39.3068
 11
92.3062
 21
39.3068
 40
6.2324
 41
0.5
  1
樹脂
  0
TEXT
  8
LAYER_1
 10
92.456
 20
64.1652
 11
92.456
 21
64.1652
 40
6.2324
 41
0.5
  1
樹脂
  0
TEXT
  8
LAYER_1
 10
89.0617
 20
75.9437
 11
89.0617
 21
75.9437
 40
6.2324
 41
0.5
  1
ガラス
  0
TEXT
  8
LAYER_1
 10
154.9773
 20
63.9854
 11
154.9773
 21
63.9854
 40
7.105
 41
0.5
  1
E17
  0
TEXT
  8
LAYER_1
 10
187.5434
 20
64.8798
 11
187.5434
 21
64.8798
 40
4.766
 41
0.5
  1
品番
  0
TEXT
  8
LAYER_1
 10
197.8511
 20
53.0217
 11
197.8511
 21
53.0217
 40
12.5382
 41
0.5
  1
BRO-PC910
  0
TEXT
  8
LAYER_1
 10
187.5434
 20
101.4284
 11
187.5434
 21
101.4284
 40
4.766
 41
0.5
  1
適合ランプ
  0
TEXT
  8
LAYER_1
 10
206.3853
 20
89.4033
 11
206.3853
 21
89.4033
 40
7.105
 41
0.5
  1
Edison Bull SIGNATURE
  0
TEXT
  8
LAYER_1
 10
187.5434
 20
76.2076
 11
187.5434
 21
76.2076
 40
4.766
 41
0.5
  1
定格
  0
TEXT
  8
LAYER_1
 10
206.3853
 20
75.8259
 11
206.3853
 21
75.8259
 40
7.105
 41
0.5
  1
白熱電球100V 40W E17
  0
TEXT
  8
LAYER_1
 10
155.5051
 20
26.2351
 11
155.5051
 21
26.2351
 40
7.105
 41
0.5
  1
2m
  0
TEXT
  8
LAYER_1
 10
156.8666
 20
39.3147
 11
156.8666
 21
39.3147
 40
6.2324
 41
0.5
  1
黒
  0
TEXT
  8
LAYER_1
 10
203.107
 20
197.2217
 11
203.107
 21
197.2217
 40
6.2324
 41
0.5
  1
安全に関するご注意
  0
TEXT
  8
LAYER_1
 10
182.6045
 20
184.6661
 11
182.6045
 21
184.6661
 40
4.766
 41
0.5
  1
不安定な場所で使用しないでください。
  0
TEXT
  8
LAYER_1
 10
182.6045
 20
176.6404
 11
182.6045
 21
176.6404
 40
4.766
 41
0.5
  1
屋内用器具です。屋内や水気、湿気のある所では
  0
TEXT
  8
LAYER_1
 10
182.6045
 20
168.6147
 11
182.6045
 21
168.6147
 40
4.766
 41
0.5
  1
使用しないでください。
  0
TEXT
  8
LAYER_1
 10
182.6045
 20
160.589
 11
182.6045
 21
160.589
 40
4.766
 41
0.5
  1
カーテンの近くや天井と接近させて使用しない
  0
TEXT
  8
LAYER_1
 10
182.6045
 20
152.5633
 11
182.6045
 21
152.5633
 40
4.766
 41
0.5
  1
でください。
  0
TEXT
  8
LAYER_1
 10
182.6045
 20
144.5376
 11
182.6045
 21
144.5376
 40
4.766
 41
0.5
  1
火災の原因となります。
  0
TEXT
  8
LAYER_1
 10
182.6045
 20
136.5119
 11
182.6045
 21
136.5119
 40
4.766
 41
0.5
  1
必ず電源を切ってランプ交換をしてください。
  0
TEXT
  8
LAYER_1
 10
182.6045
 20
128.4862
 11
182.6045
 21
128.4862
 40
4.766
 41
0.5
  1
点灯中や消灯直後のランプに触れないでください。
  0
TEXT
  8
LAYER_1
 10
182.6045
 20
120.4605
 11
182.6045
 21
120.4605
 40
4.766
 41
0.5
  1
やけどの原因となります。
  0
TEXT
  8
LAYER_1
 10
176.5188
 20
184.6661
 11
176.5188
 21
184.6661
 40
4.766
 41
0.5
  1
・
  0
TEXT
  8
LAYER_1
 10
176.5188
 20
176.7045
 11
176.5188
 21
176.7045
 40
4.766
 41
0.5
  1
・
  0
TEXT
  8
LAYER_1
 10
176.5188
 20
161.1805
 11
176.5188
 21
161.1805
 40
4.766
 41
0.5
  1
・
  0
TEXT
  8
LAYER_1
 10
176.5188
 20
128.7246
 11
176.5188
 21
128.7246
 40
4.766
 41
0.5
  1
・
  0
TEXT
  8
LAYER_1
 10
176.5188
 20
145.1474
 11
176.5188
 21
145.1474
 40
4.766
 41
0.5
  1
・
  0
POLYLINE
  8
LAYER_1
 40
0.3528
 41
0.3528
 66
1
 10
0
 20
0
 30
0
 70
1
  0
VERTEX
  8
LAYER_1
 10
174.45
 20
204.3686
  0
VERTEX
  8
LAYER_1
 10
287.3389
 20
204.3686
  0
VERTEX
  8
LAYER_1
 10
287.3389
 20
116.0825
  0
VERTEX
  8
LAYER_1
 10
174.45
 20
116.0825
  0
SEQEND
  0
POLYLINE
  8
LAYER_1
 40
0.3528
 41
0.3528
 66
1
 10
0
 20
0
 30
0
  0
VERTEX
  8
LAYER_1
 10
174.686
 20
193.0166
  0
VERTEX
  8
LAYER_1
 10
287.5749
 20
193.0166
  0
SEQEND
  0
TEXT
  8
LAYER_1
 10
33.8336
 20
76.2072
 11
33.8336
 21
76.2072
 40
6.2324
 41
0.5
  1
シェード
  0
TEXT
  8
LAYER_1
 10
33.8336
 20
89.311
 11
33.8336
 21
89.311
 40
6.2324
 41
0.5
  1
ベース
  0
TEXT
  8
LAYER_1
 10
94.5794
 20
89.311
 11
94.5794
 21
89.311
 40
6.2324
 41
0.5
  1
木
  0
POLYLINE
  8
LAYER_1
 40
0.1799
 41
0.1799
 66
1
 10
0
 20
0
 30
0
  0
VERTEX
  8
LAYER_1
 10
76.2367
 20
177.8138
  0
VERTEX
  8
LAYER_1
 10
78.5862
 20
180.5867
  0
VERTEX
  8
LAYER_1
 10
75.1784
 20
179.3593
  0
SEQEND
  0
POLYLINE
  8
LAYER_1
 40
0.1799
 41
0.1799
 66
1
 10
0
 20
0
 30
0
  0
VERTEX
  8
LAYER_1
 10
65.2513
 20
171.2736
  0
VERTEX
  8
LAYER_1
 10
78.5862
 20
180.5867
  0
SEQEND
  0
INSERT
  8
LAYER_1
  2
AIGNBL01010004
 10
0
 20
0
 30
0
  0
TEXT
  8
LAYER_1
 10
59.2806
 20
164.8795
 11
59.2806
 21
164.8795
 40
8.9127
 41
0.5
  1
1
  0
INSERT
  8
LAYER_1
  2
AIGNBL01010005
 10
0
 20
0
 30
0
  0
TEXT
  8
LAYER_1
 10
76.4258
 20
161.9722
 11
76.4258
 21
161.9722
 40
8.9127
 41
0.5
  1
2
  0
INSERT
  8
LAYER_1
  2
AIGNBL01010006
 10
0
 20
0
 30
0
  0
TEXT
  8
LAYER_1
 10
61.6793
 20
244.8844
 11
61.6793
 21
244.8844
 40
8.9127
 41
0.5
  1
3
  0
INSERT
  8
LAYER_1
  2
AIGNBL01010008
 10
0
 20
0
 30
0
  0
TEXT
  8
LAYER_1
 10
130.7877
 20
253.8668
 11
130.7877
 21
253.8668
 40
8.9127
 41
0.5
  1
4
  0
INSERT
  8
LAYER_1
  2
AIGNBL01010009
 10
0
 20
0
 30
0
  0
TEXT
  8
LAYER_1
 10
139.7978
 20
312.4898
 11
139.7978
 21
312.4898
 40
8.9127
 41
0.5
  1
5
  0
INSERT
  8
LAYER_1
  2
AIGNBL0101000A
 10
0
 20
0
 30
0
  0
TEXT
  8
LAYER_1
 10
110.4337
 20
291.3202
 11
110.4337
 21
291.3202
 40
8.9127
 41
0.5
  1
7
  0
INSERT
  8
LAYER_1
  2
AIGNBL0101000B
 10
0
 20
0
 30
0
  0
TEXT
  8
LAYER_1
 10
139.8555
 20
270.6968
 11
139.8555
 21
270.6968
 40
10.055
 41
0.5
 50
89.99999999
  1
260
  0
TEXT
  8
LAYER_1
 10
81.4781
 20
228.677
 11
81.4781
 21
228.677
 40
10.0551
 41
0.5
  1
145
  0
TEXT
  8
LAYER_1
 10
81.6308
 20
322.0041
 11
81.6308
 21
322.0041
 40
10.0551
 41
0.5
  1
275
  0
TEXT
  8
LAYER_1
 10
42.3931
 20
283.3868
 11
42.3931
 21
283.3868
 40
10.055
 41
0.5
 50
89.99999999
  1
156
  0
INSERT
  8
LAYER_1
  2
AIGNBL0101000D
 10
0
 20
0
 30
0
  0
TEXT
  8
LAYER_1
 10
54.4375
 20
225.7986
 11
54.4375
 21
225.7986
 40
8.9127
 41
0.5
  1
6
  0
INSERT
  8
LAYER_1
  2
AIGNBL0101000E
 10
0
 20
0
 30
0
  0
TEXT
  8
LAYER_1
 10
189.7218
 20
22.9223
 11
189.7218
 21
22.9223
 40
5.2209
 41
0.5
  1
●TEL 0120-65-1232●FAX 06-6532-1580
  0
TEXT
  8
LAYER_1
 10
189.7218
 20
17.5018
 11
189.7218
 21
17.5018
 40
5.2209
 41
0.5
  1
hits@hiratatile.co.jp
  0
INSERT
  8
LAYER_1
  2
AIGNBL0101000F
 10
0
 20
0
 30
0
  0
ENDSEC
  0
EOF
