  0
SECTION
  2
HEADER
  9
$ACADVER
  1
AC1009
  9
$LUNITS
 70
2
  9
$LUPREC
 70
4
  9
$LTSCALE
 40
1.0
  9
$EXTMIN
 10
-30.3177
 20
33.3285
 30
0
  9
$EXTMAX
 10
251.6749
 20
230.337
 30
0
  0
ENDSEC
  0
SECTION
  2
TABLES
  0
TABLE
  2
LTYPE
 70
256
  0
LTYPE
  2
AIGENLINE001
 70
64
  3
generate AI->DXF Converter
 72
65
 73
2
 40
0.3669
 49
0.1834
 49
-0.1834
  0
LTYPE
  2
AIGENLINE002
 70
64
  3
generate AI->DXF Converter
 72
65
 73
2
 40
0.0183
 49
0.0092
 49
-0.0092
  0
LTYPE
  2
AIGENLINE003
 70
64
  3
generate AI->DXF Converter
 72
65
 73
2
 40
1.107
 49
0.5535
 49
-0.5535
  0
LTYPE
  2
AIGENLINE004
 70
64
  3
generate AI->DXF Converter
 72
65
 73
2
 40
1.2227
 49
0.6114
 49
-0.6114
  0
LTYPE
  2
AIGENLINE005
 70
64
  3
generate AI->DXF Converter
 72
65
 73
2
 40
1.143
 49
0.5715
 49
-0.5715
  0
LTYPE
  2
AIGENLINE006
 70
64
  3
generate AI->DXF Converter
 72
65
 73
2
 40
1.1148
 49
0.5574
 49
-0.5574
  0
LTYPE
  2
AIGENLINE007
 70
64
  3
generate AI->DXF Converter
 72
65
 73
2
 40
0.592
 49
0.296
 49
-0.296
  0
LTYPE
  2
AIGENLINE008
 70
64
  3
generate AI->DXF Converter
 72
65
 73
2
 40
1.1077
 49
0.5539
 49
-0.5539
  0
LTYPE
  2
AIGENLINE009
 70
64
  3
generate AI->DXF Converter
 72
65
 73
2
 40
1.119
 49
0.5595
 49
-0.5595
  0
LTYPE
  2
AIGENLINE010
 70
64
  3
generate AI->DXF Converter
 72
65
 73
2
 40
0.3761
 49
0.188
 49
-0.188
  0
LTYPE
  2
AIGENLINE011
 70
64
  3
generate AI->DXF Converter
 72
65
 73
2
 40
0.3224
 49
0.1612
 49
-0.1612
  0
LTYPE
  2
AIGENLINE012
 70
64
  3
generate AI->DXF Converter
 72
65
 73
2
 40
0.8283
 49
0.4142
 49
-0.4142
  0
LTYPE
  2
AIGENLINE013
 70
64
  3
generate AI->DXF Converter
 72
65
 73
2
 40
0.5757
 49
0.2879
 49
-0.2879
  0
LTYPE
  2
AIGENLINE014
 70
64
  3
generate AI->DXF Converter
 72
65
 73
2
 40
0.0113
 49
0.0056
 49
-0.0056
  0
LTYPE
  2
AIGENLINE015
 70
64
  3
generate AI->DXF Converter
 72
65
 73
2
 40
0.4501
 49
0.2251
 49
-0.2251
  0
LTYPE
  2
AIGENLINE016
 70
64
  3
generate AI->DXF Converter
 72
65
 73
2
 40
0.0106
 49
0.0053
 49
-0.0053
  0
LTYPE
  2
AIGENLINE017
 70
64
  3
generate AI->DXF Converter
 72
65
 73
2
 40
1.1049
 49
0.5524
 49
-0.5524
  0
LTYPE
  2
AIGENLINE018
 70
64
  3
generate AI->DXF Converter
 72
65
 73
2
 40
0.7902
 49
0.3951
 49
-0.3951
  0
LTYPE
  2
AIGENLINE019
 70
64
  3
generate AI->DXF Converter
 72
65
 73
2
 40
0.6399
 49
0.32
 49
-0.32
  0
LTYPE
  2
AIGENLINE020
 70
64
  3
generate AI->DXF Converter
 72
65
 73
2
 40
1.0957
 49
0.5479
 49
-0.5479
  0
LTYPE
  2
AIGENLINE021
 70
64
  3
generate AI->DXF Converter
 72
65
 73
2
 40
1.1388
 49
0.5694
 49
-0.5694
  0
LTYPE
  2
AIGENLINE022
 70
64
  3
generate AI->DXF Converter
 72
65
 73
2
 40
0.2208
 49
0.1104
 49
-0.1104
  0
LTYPE
  2
AIGENLINE023
 70
64
  3
generate AI->DXF Converter
 72
65
 73
2
 40
0.2561
 49
0.1281
 49
-0.1281
  0
LTYPE
  2
AIGENLINE024
 70
64
  3
generate AI->DXF Converter
 72
65
 73
2
 40
0.7211
 49
0.3605
 49
-0.3605
  0
LTYPE
  2
AIGENLINE025
 70
64
  3
generate AI->DXF Converter
 72
65
 73
2
 40
0.3838
 49
0.1919
 49
-0.1919
  0
LTYPE
  2
AIGENLINE026
 70
64
  3
generate AI->DXF Converter
 72
65
 73
2
 40
1.0929
 49
0.5465
 49
-0.5465
  0
LTYPE
  2
AIGENLINE027
 70
64
  3
generate AI->DXF Converter
 72
65
 73
2
 40
0.3627
 49
0.1813
 49
-0.1813
  0
LTYPE
  2
AIGENLINE028
 70
64
  3
generate AI->DXF Converter
 72
65
 73
2
 40
0.7437
 49
0.3718
 49
-0.3718
  0
LTYPE
  2
AIGENLINE029
 70
64
  3
generate AI->DXF Converter
 72
65
 73
2
 40
0.3859
 49
0.193
 49
-0.193
  0
LTYPE
  2
AIGENLINE030
 70
64
  3
generate AI->DXF Converter
 72
65
 73
2
 40
0.2201
 49
0.1101
 49
-0.1101
  0
LTYPE
  2
AIGENLINE031
 70
64
  3
generate AI->DXF Converter
 72
65
 73
2
 40
1.0936
 49
0.5468
 49
-0.5468
  0
LTYPE
  2
AIGENLINE032
 70
64
  3
generate AI->DXF Converter
 72
65
 73
2
 40
1.0068
 49
0.5034
 49
-0.5034
  0
LTYPE
  2
AIGENLINE033
 70
64
  3
generate AI->DXF Converter
 72
65
 73
2
 40
0.4614
 49
0.2307
 49
-0.2307
  0
LTYPE
  2
AIGENLINE034
 70
64
  3
generate AI->DXF Converter
 72
65
 73
2
 40
1.0915
 49
0.5457
 49
-0.5457
  0
LTYPE
  2
AIGENLINE035
 70
64
  3
generate AI->DXF Converter
 72
65
 73
2
 40
1.1465
 49
0.5733
 49
-0.5733
  0
LTYPE
  2
AIGENLINE036
 70
64
  3
generate AI->DXF Converter
 72
65
 73
2
 40
0.4995
 49
0.2498
 49
-0.2498
  0
LTYPE
  2
AIGENLINE037
 70
64
  3
generate AI->DXF Converter
 72
65
 73
2
 40
1.0633
 49
0.5316
 49
-0.5316
  0
LTYPE
  2
AIGENLINE038
 70
64
  3
generate AI->DXF Converter
 72
65
 73
2
 40
1.1818
 49
0.5909
 49
-0.5909
  0
LTYPE
  2
AIGENLINE039
 70
64
  3
generate AI->DXF Converter
 72
65
 73
2
 40
1.0901
 49
0.545
 49
-0.545
  0
LTYPE
  2
AIGENLINE040
 70
64
  3
generate AI->DXF Converter
 72
65
 73
2
 40
1.1592
 49
0.5796
 49
-0.5796
  0
LTYPE
  2
AIGENLINE041
 70
64
  3
generate AI->DXF Converter
 72
65
 73
2
 40
0.5602
 49
0.2801
 49
-0.2801
  0
LTYPE
  2
AIGENLINE042
 70
64
  3
generate AI->DXF Converter
 72
65
 73
2
 40
0.5623
 49
0.2812
 49
-0.2812
  0
LTYPE
  2
AIGENLINE043
 70
64
  3
generate AI->DXF Converter
 72
65
 73
2
 40
1.3935
 49
0.6967
 49
-0.6967
  0
LTYPE
  2
AIGENLINE044
 70
64
  3
generate AI->DXF Converter
 72
65
 73
2
 40
0.5913
 49
0.2956
 49
-0.2956
  0
LTYPE
  2
AIGENLINE045
 70
64
  3
generate AI->DXF Converter
 72
65
 73
2
 40
0.9821
 49
0.4911
 49
-0.4911
  0
LTYPE
  2
AIGENLINE046
 70
64
  3
generate AI->DXF Converter
 72
65
 73
2
 40
0.5616
 49
0.2808
 49
-0.2808
  0
LTYPE
  2
AIGENLINE047
 70
64
  3
generate AI->DXF Converter
 72
65
 73
2
 40
1.1613
 49
0.5807
 49
-0.5807
  0
LTYPE
  2
AIGENLINE048
 70
64
  3
generate AI->DXF Converter
 72
65
 73
2
 40
1.2848
 49
0.6424
 49
-0.6424
  0
LTYPE
  2
AIGENLINE049
 70
64
  3
generate AI->DXF Converter
 72
65
 73
2
 40
1.2453
 49
0.6227
 49
-0.6227
  0
LTYPE
  2
AIGENLINE050
 70
64
  3
generate AI->DXF Converter
 72
65
 73
2
 40
0.9567
 49
0.4784
 49
-0.4784
  0
LTYPE
  2
AIGENLINE051
 70
64
  3
generate AI->DXF Converter
 72
65
 73
2
 40
1.1113
 49
0.5556
 49
-0.5556
  0
LTYPE
  2
AIGENLINE052
 70
64
  3
generate AI->DXF Converter
 72
65
 73
2
 40
0.956
 49
0.478
 49
-0.478
  0
LTYPE
  2
AIGENLINE053
 70
64
  3
generate AI->DXF Converter
 72
65
 73
2
 40
1.1211
 49
0.5606
 49
-0.5606
  0
LTYPE
  2
AIGENLINE054
 70
64
  3
generate AI->DXF Converter
 72
65
 73
2
 40
1.0534
 49
0.5267
 49
-0.5267
  0
LTYPE
  2
AIGENLINE055
 70
64
  3
generate AI->DXF Converter
 72
65
 73
2
 40
1.1409
 49
0.5704
 49
-0.5704
  0
LTYPE
  2
AIGENLINE056
 70
64
  3
generate AI->DXF Converter
 72
65
 73
2
 40
1.2778
 49
0.6389
 49
-0.6389
  0
LTYPE
  2
AIGENLINE057
 70
64
  3
generate AI->DXF Converter
 72
65
 73
2
 40
0.9581
 49
0.4791
 49
-0.4791
  0
LTYPE
  2
AIGENLINE058
 70
64
  3
generate AI->DXF Converter
 72
65
 73
2
 40
0.925
 49
0.4625
 49
-0.4625
  0
LTYPE
  2
AIGENLINE059
 70
64
  3
generate AI->DXF Converter
 72
65
 73
2
 40
1.0597
 49
0.5299
 49
-0.5299
  0
LTYPE
  2
AIGENLINE060
 70
64
  3
generate AI->DXF Converter
 72
65
 73
2
 40
0.3852
 49
0.1926
 49
-0.1926
  0
LTYPE
  2
AIGENLINE061
 70
64
  3
generate AI->DXF Converter
 72
65
 73
2
 40
1.3272
 49
0.6636
 49
-0.6636
  0
LTYPE
  2
AIGENLINE062
 70
64
  3
generate AI->DXF Converter
 72
65
 73
2
 40
1.1486
 49
0.5743
 49
-0.5743
  0
LTYPE
  2
AIGENLINE063
 70
64
  3
generate AI->DXF Converter
 72
65
 73
2
 40
1.1966
 49
0.5983
 49
-0.5983
  0
LTYPE
  2
AIGENLINE064
 70
64
  3
generate AI->DXF Converter
 72
65
 73
2
 40
1.1578
 49
0.5789
 49
-0.5789
  0
LTYPE
  2
AIGENLINE065
 70
64
  3
generate AI->DXF Converter
 72
65
 73
2
 40
1.3942
 49
0.6971
 49
-0.6971
  0
LTYPE
  2
AIGENLINE066
 70
64
  3
generate AI->DXF Converter
 72
65
 73
2
 40
1.1395
 49
0.5697
 49
-0.5697
  0
LTYPE
  2
AIGENLINE067
 70
64
  3
generate AI->DXF Converter
 72
65
 73
2
 40
1.1381
 49
0.569
 49
-0.569
  0
LTYPE
  2
AIGENLINE068
 70
64
  3
generate AI->DXF Converter
 72
65
 73
2
 40
1.1042
 49
0.5521
 49
-0.5521
  0
LTYPE
  2
AIGENLINE069
 70
64
  3
generate AI->DXF Converter
 72
65
 73
2
 40
1.1247
 49
0.5623
 49
-0.5623
  0
LTYPE
  2
AIGENLINE070
 70
64
  3
generate AI->DXF Converter
 72
65
 73
2
 40
1.1098
 49
0.5549
 49
-0.5549
  0
ENDTAB
  0
TABLE
  2
LAYER
 70
1
  0
LAYER
  2
LAYER_1
 70
64
 62
7
  6
CONTINUOUS
  0
ENDTAB
  0
TABLE
  2
STYLE
 70
6
  0
STYLE
  2
STANDARD
 70
0
 40
0
 50
0
 71
0
 41
0
 42
0
  3
TXT
  4
BIGFONT
  0
ENDTAB
  0
ENDSEC
  0
SECTION
  2
BLOCKS
  0
BLOCK
  8
LAYER_1
  2
AIGNBL01040009
 70
64
 10
0
 20
0
 30
0
  3
AIGNBL01040009
  0
POLYLINE
  8
LAYER_1
 40
0.05
 41
0.05
 66
1
 10
0
 20
0
 30
0
 70
1
  0
VERTEX
  8
LAYER_1
 10
105.4311
 20
39.1418
  0
VERTEX
  8
LAYER_1
 10
104.9422
 20
37.9567
  0
VERTEX
  8
LAYER_1
 10
104.3142
 20
37.9567
  0
VERTEX
  8
LAYER_1
 10
105.9137
 20
41.7225
  0
VERTEX
  8
LAYER_1
 10
106.6468
 20
41.7225
  0
VERTEX
  8
LAYER_1
 10
108.2533
 20
37.9567
  0
VERTEX
  8
LAYER_1
 10
107.6032
 20
37.9567
  0
VERTEX
  8
LAYER_1
 10
107.1006
 20
39.1418
  0
SEQEND
  0
POLYLINE
  8
LAYER_1
 40
0.05
 41
0.05
 66
1
 10
0
 20
0
 30
0
 70
1
  0
VERTEX
  8
LAYER_1
 10
106.9748
 20
39.5207
  0
VERTEX
  8
LAYER_1
 10
106.5138
 20
40.6056
  0
VERTEX
  8
LAYER_1
 10
106.2692
 20
41.2926
  0
VERTEX
  8
LAYER_1
 10
106.2555
 20
41.2926
  0
VERTEX
  8
LAYER_1
 10
106.0178
 20
40.6101
  0
VERTEX
  8
LAYER_1
 10
105.5571
 20
39.5207
  0
SEQEND
  0
ENDBLK
  0
BLOCK
  8
LAYER_1
  2
AIGNBL0104000A
 70
64
 10
0
 20
0
 30
0
  3
AIGNBL0104000A
  0
POLYLINE
  8
LAYER_1
 40
0.05
 41
0.05
 66
1
 10
0
 20
0
 30
0
 70
1
  0
VERTEX
  8
LAYER_1
 10
112.6186
 20
37.4034
 42
-0.0155848755
  0
VERTEX
  8
LAYER_1
 10
110.8164
 20
37.8395
  0
VERTEX
  8
LAYER_1
 10
110.5298
 20
37.895
 42
-0.08356944747
  0
VERTEX
  8
LAYER_1
 10
109.6658
 20
38.0612
 42
-0.0975043791
  0
VERTEX
  8
LAYER_1
 10
109.0046
 20
38.4671
 42
-0.2129077902
  0
VERTEX
  8
LAYER_1
 10
108.4559
 20
39.7998
 42
-0.0968494152
  0
VERTEX
  8
LAYER_1
 10
108.6005
 20
40.5732
 42
-0.2046438079
  0
VERTEX
  8
LAYER_1
 10
109.648
 20
41.5974
 42
-0.09824750395
  0
VERTEX
  8
LAYER_1
 10
110.649
 20
41.7838
 42
-0.08554009695
  0
VERTEX
  8
LAYER_1
 10
111.5176
 20
41.6425
 42
-0.1004336034
  0
VERTEX
  8
LAYER_1
 10
112.1827
 20
41.2483
 42
-0.2141019095
  0
VERTEX
  8
LAYER_1
 10
112.7581
 20
39.8784
 42
-0.09540850229
  0
VERTEX
  8
LAYER_1
 10
112.6192
 20
39.1106
 42
-0.2143210227
  0
VERTEX
  8
LAYER_1
 10
111.5963
 20
38.1321
 42
-0.02338900436
  0
VERTEX
  8
LAYER_1
 10
111.4172
 20
38.0738
  0
VERTEX
  8
LAYER_1
 10
111.4172
 20
38.0514
 42
0.01711211955
  0
VERTEX
  8
LAYER_1
 10
112.7936
 20
37.8113
  0
SEQEND
  0
POLYLINE
  8
LAYER_1
 40
0.05
 41
0.05
 66
1
 10
0
 20
0
 30
0
 70
1
  0
VERTEX
  8
LAYER_1
 10
112.1159
 20
39.857
 42
0.1071543648
  0
VERTEX
  8
LAYER_1
 10
111.9646
 20
40.5618
 42
0.2976507644
  0
VERTEX
  8
LAYER_1
 10
110.6276
 20
41.3873
 42
0.1072356843
  0
VERTEX
  8
LAYER_1
 10
109.9378
 20
41.2478
 42
0.2385874916
  0
VERTEX
  8
LAYER_1
 10
109.1508
 20
40.2422
 42
0.05751786988
  0
VERTEX
  8
LAYER_1
 10
109.1052
 20
39.8122
 42
0.2180663696
  0
VERTEX
  8
LAYER_1
 10
109.6358
 20
38.6168
 42
0.1772758138
  0
VERTEX
  8
LAYER_1
 10
110.5997
 20
38.2912
 42
0.1075185771
  0
VERTEX
  8
LAYER_1
 10
111.2811
 20
38.4302
 42
0.2370926009
  0
VERTEX
  8
LAYER_1
 10
112.0682
 20
39.4298
 42
0.05601310134
  0
SEQEND
  0
ENDBLK
  0
BLOCK
  8
LAYER_1
  2
AIGNBL0104000B
 70
64
 10
0
 20
0
 30
0
  3
AIGNBL0104000B
  0
POLYLINE
  8
LAYER_1
 40
0.05
 41
0.05
 66
1
 10
0
 20
0
 30
0
 70
1
  0
VERTEX
  8
LAYER_1
 10
114.0855
 20
41.7225
  0
VERTEX
  8
LAYER_1
 10
114.0855
 20
39.4932
 42
0.1145199457
  0
VERTEX
  8
LAYER_1
 10
114.2194
 20
38.8274
 42
0.1464896694
  0
VERTEX
  8
LAYER_1
 10
114.5697
 20
38.4422
 42
0.1362580474
  0
VERTEX
  8
LAYER_1
 10
115.1821
 20
38.2912
 42
0.1219300979
  0
VERTEX
  8
LAYER_1
 10
115.8052
 20
38.4259
 42
0.1503016186
  0
VERTEX
  8
LAYER_1
 10
116.177
 20
38.7949
 42
0.1256239276
  0
VERTEX
  8
LAYER_1
 10
116.3276
 20
39.4932
  0
VERTEX
  8
LAYER_1
 10
116.3276
 20
41.7225
  0
VERTEX
  8
LAYER_1
 10
116.9422
 20
41.7225
  0
VERTEX
  8
LAYER_1
 10
116.9422
 20
39.5266
 42
-0.09997665689
  0
VERTEX
  8
LAYER_1
 10
116.8073
 20
38.7839
 42
-0.1215019174
  0
VERTEX
  8
LAYER_1
 10
116.434
 20
38.2772
 42
-0.1106228669
  0
VERTEX
  8
LAYER_1
 10
115.8085
 20
37.9706
 42
-0.06128517916
  0
VERTEX
  8
LAYER_1
 10
115.161
 20
37.895
 42
-0.09418763513
  0
VERTEX
  8
LAYER_1
 10
114.3419
 20
38.0331
 42
-0.2431628294
  0
VERTEX
  8
LAYER_1
 10
113.5384
 20
38.9438
 42
-0.06320488118
  0
VERTEX
  8
LAYER_1
 10
113.4709
 20
39.5045
  0
VERTEX
  8
LAYER_1
 10
113.4709
 20
41.7225
  0
SEQEND
  0
ENDBLK
  0
BLOCK
  8
LAYER_1
  2
AIGNBL0104000C
 70
64
 10
0
 20
0
 30
0
  3
AIGNBL0104000C
  0
POLYLINE
  8
LAYER_1
 40
0.05
 41
0.05
 66
1
 10
0
 20
0
 30
0
 70
1
  0
VERTEX
  8
LAYER_1
 10
118.6885
 20
39.1418
  0
VERTEX
  8
LAYER_1
 10
118.1993
 20
37.9567
  0
VERTEX
  8
LAYER_1
 10
117.5712
 20
37.9567
  0
VERTEX
  8
LAYER_1
 10
119.1705
 20
41.7225
  0
VERTEX
  8
LAYER_1
 10
119.9036
 20
41.7225
  0
VERTEX
  8
LAYER_1
 10
121.51
 20
37.9567
  0
VERTEX
  8
LAYER_1
 10
120.8606
 20
37.9567
  0
VERTEX
  8
LAYER_1
 10
120.358
 20
39.1418
  0
SEQEND
  0
POLYLINE
  8
LAYER_1
 40
0.05
 41
0.05
 66
1
 10
0
 20
0
 30
0
 70
1
  0
VERTEX
  8
LAYER_1
 10
120.2319
 20
39.5207
  0
VERTEX
  8
LAYER_1
 10
119.7706
 20
40.6056
  0
VERTEX
  8
LAYER_1
 10
119.526
 20
41.2926
  0
VERTEX
  8
LAYER_1
 10
119.5122
 20
41.2926
  0
VERTEX
  8
LAYER_1
 10
119.2748
 20
40.6101
  0
VERTEX
  8
LAYER_1
 10
118.8139
 20
39.5207
  0
SEQEND
  0
ENDBLK
  0
BLOCK
  8
LAYER_1
  2
AIGNBL0104000D
 70
64
 10
0
 20
0
 30
0
  3
AIGNBL0104000D
  0
POLYLINE
  8
LAYER_1
 40
0.05
 41
0.05
 66
1
 10
0
 20
0
 30
0
 70
1
  0
VERTEX
  8
LAYER_1
 10
122.5508
 20
41.6777
 42
-0.03246092253
  0
VERTEX
  8
LAYER_1
 10
123.7176
 20
41.7508
 42
-0.08084549745
  0
VERTEX
  8
LAYER_1
 10
124.6741
 20
41.619
 42
-0.07819914268
  0
VERTEX
  8
LAYER_1
 10
125.0374
 20
41.4379
 42
-0.2484709269
  0
VERTEX
  8
LAYER_1
 10
125.4491
 20
40.6497
 42
-0.226147
  0
VERTEX
  8
LAYER_1
 10
125.086
 20
39.8456
 42
-0.109727648
  0
VERTEX
  8
LAYER_1
 10
124.4577
 20
39.5323
 42
-0.06565380896
  0
VERTEX
  8
LAYER_1
 10
123.6473
 20
39.4319
 42
-0.06238309955
  0
VERTEX
  8
LAYER_1
 10
123.1588
 20
39.4653
  0
VERTEX
  8
LAYER_1
 10
123.1588
 20
37.9567
  0
VERTEX
  8
LAYER_1
 10
122.5508
 20
37.9567
  0
SEQEND
  0
POLYLINE
  8
LAYER_1
 40
0.05
 41
0.05
 66
1
 10
0
 20
0
 30
0
 70
1
  0
VERTEX
  8
LAYER_1
 10
123.1588
 20
39.8622
 42
0.04203451964
  0
VERTEX
  8
LAYER_1
 10
123.6611
 20
39.8229
 42
0.1032111168
  0
VERTEX
  8
LAYER_1
 10
124.3803
 20
39.9502
 42
0.1555938032
  0
VERTEX
  8
LAYER_1
 10
124.7451
 20
40.2546
 42
0.1352673748
  0
VERTEX
  8
LAYER_1
 10
124.8421
 20
40.6273
 42
0.1737047371
  0
VERTEX
  8
LAYER_1
 10
124.7073
 20
41.0346
 42
0.1517050813
  0
VERTEX
  8
LAYER_1
 10
124.2862
 20
41.2941
 42
0.06879756253
  0
VERTEX
  8
LAYER_1
 10
123.7317
 20
41.3649
 42
0.06336983159
  0
VERTEX
  8
LAYER_1
 10
123.1588
 20
41.3257
  0
SEQEND
  0
ENDBLK
  0
BLOCK
  8
LAYER_1
  2
AIGNBL0104000E
 70
64
 10
0
 20
0
 30
0
  3
AIGNBL0104000E
  0
POLYLINE
  8
LAYER_1
 40
0.05
 41
0.05
 66
1
 10
0
 20
0
 30
0
 70
1
  0
VERTEX
  8
LAYER_1
 10
127.0011
 20
41.4207
 42
-0.2767461975
  0
VERTEX
  8
LAYER_1
 10
126.8616
 20
41.1806
 42
-0.1265294091
  0
VERTEX
  8
LAYER_1
 10
126.6094
 20
41.1189
 42
-0.2237518698
  0
VERTEX
  8
LAYER_1
 10
126.2991
 20
41.2513
 42
-0.1708341408
  0
VERTEX
  8
LAYER_1
 10
126.2391
 20
41.4207
 42
-0.2643879937
  0
VERTEX
  8
LAYER_1
 10
126.3885
 20
41.6678
 42
-0.1290073663
  0
VERTEX
  8
LAYER_1
 10
126.6232
 20
41.7277
 42
-0.225342086
  0
VERTEX
  8
LAYER_1
 10
126.94
 20
41.597
 42
-0.1691136206
  0
SEQEND
  0
POLYLINE
  8
LAYER_1
 40
0.05
 41
0.05
 66
1
 10
0
 20
0
 30
0
 70
1
  0
VERTEX
  8
LAYER_1
 10
126.3156
 20
37.9567
  0
VERTEX
  8
LAYER_1
 10
126.3156
 20
40.6607
  0
VERTEX
  8
LAYER_1
 10
126.9302
 20
40.6607
  0
VERTEX
  8
LAYER_1
 10
126.9302
 20
37.9567
  0
SEQEND
  0
ENDBLK
  0
BLOCK
  8
LAYER_1
  2
AIGNBL0104000F
 70
64
 10
0
 20
0
 30
0
  3
AIGNBL0104000F
  0
POLYLINE
  8
LAYER_1
 40
0.05
 41
0.05
 66
1
 10
0
 20
0
 30
0
 70
1
  0
VERTEX
  8
LAYER_1
 10
128.8019
 20
39.1418
  0
VERTEX
  8
LAYER_1
 10
128.3137
 20
37.9567
  0
VERTEX
  8
LAYER_1
 10
127.6846
 20
37.9567
  0
VERTEX
  8
LAYER_1
 10
129.2842
 20
41.7225
  0
VERTEX
  8
LAYER_1
 10
130.018
 20
41.7225
  0
VERTEX
  8
LAYER_1
 10
131.6245
 20
37.9567
  0
VERTEX
  8
LAYER_1
 10
130.9747
 20
37.9567
  0
VERTEX
  8
LAYER_1
 10
130.4721
 20
39.1418
  0
SEQEND
  0
POLYLINE
  8
LAYER_1
 40
0.05
 41
0.05
 66
1
 10
0
 20
0
 30
0
 70
1
  0
VERTEX
  8
LAYER_1
 10
130.346
 20
39.5207
  0
VERTEX
  8
LAYER_1
 10
129.885
 20
40.6056
  0
VERTEX
  8
LAYER_1
 10
129.6411
 20
41.2926
  0
VERTEX
  8
LAYER_1
 10
129.6263
 20
41.2926
  0
VERTEX
  8
LAYER_1
 10
129.3893
 20
40.6101
  0
VERTEX
  8
LAYER_1
 10
128.9283
 20
39.5207
  0
SEQEND
  0
ENDBLK
  0
BLOCK
  8
LAYER_1
  2
AIGNBL01030008
 70
64
 10
0
 20
0
 30
0
  3
AIGNBL01030008
  0
INSERT
  8
LAYER_1
  2
AIGNBL01040009
 10
0
 20
0
 30
0
  0
INSERT
  8
LAYER_1
  2
AIGNBL0104000A
 10
0
 20
0
 30
0
  0
INSERT
  8
LAYER_1
  2
AIGNBL0104000B
 10
0
 20
0
 30
0
  0
INSERT
  8
LAYER_1
  2
AIGNBL0104000C
 10
0
 20
0
 30
0
  0
INSERT
  8
LAYER_1
  2
AIGNBL0104000D
 10
0
 20
0
 30
0
  0
INSERT
  8
LAYER_1
  2
AIGNBL0104000E
 10
0
 20
0
 30
0
  0
INSERT
  8
LAYER_1
  2
AIGNBL0104000F
 10
0
 20
0
 30
0
  0
ENDBLK
  0
BLOCK
  8
LAYER_1
  2
AIGNBL01030011
 70
64
 10
0
 20
0
 30
0
  3
AIGNBL01030011
  0
POLYLINE
  8
LAYER_1
 40
0.05
 41
0.05
 66
1
 10
0
 20
0
 30
0
 70
1
  0
VERTEX
  8
LAYER_1
 10
104.4241
 20
36.0574
  0
VERTEX
  8
LAYER_1
 10
104.9773
 20
36.0574
  0
VERTEX
  8
LAYER_1
 10
104.9773
 20
35.9637
  0
VERTEX
  8
LAYER_1
 10
104.319
 20
35.9637
  0
VERTEX
  8
LAYER_1
 10
104.319
 20
36.9969
  0
VERTEX
  8
LAYER_1
 10
104.9598
 20
36.9969
  0
VERTEX
  8
LAYER_1
 10
104.9598
 20
36.9035
  0
VERTEX
  8
LAYER_1
 10
104.4241
 20
36.9035
  0
VERTEX
  8
LAYER_1
 10
104.4241
 20
36.549
  0
VERTEX
  8
LAYER_1
 10
104.9246
 20
36.549
  0
VERTEX
  8
LAYER_1
 10
104.9246
 20
36.4557
  0
VERTEX
  8
LAYER_1
 10
104.4241
 20
36.4557
  0
SEQEND
  0
ENDBLK
  0
BLOCK
  8
LAYER_1
  2
AIGNBL01030012
 70
64
 10
0
 20
0
 30
0
  3
AIGNBL01030012
  0
POLYLINE
  8
LAYER_1
 40
0.05
 41
0.05
 66
1
 10
0
 20
0
 30
0
 70
1
  0
VERTEX
  8
LAYER_1
 10
106.117
 20
36.117
  0
VERTEX
  8
LAYER_1
 10
106.1197
 20
36.117
  0
VERTEX
  8
LAYER_1
 10
106.1197
 20
36.9969
  0
VERTEX
  8
LAYER_1
 10
106.2248
 20
36.9969
  0
VERTEX
  8
LAYER_1
 10
106.2248
 20
35.9637
  0
VERTEX
  8
LAYER_1
 10
106.0939
 20
35.9637
  0
VERTEX
  8
LAYER_1
 10
105.4927
 20
36.8525
  0
VERTEX
  8
LAYER_1
 10
105.4893
 20
36.8525
  0
VERTEX
  8
LAYER_1
 10
105.4893
 20
35.9637
  0
VERTEX
  8
LAYER_1
 10
105.3845
 20
35.9637
  0
VERTEX
  8
LAYER_1
 10
105.3845
 20
36.9969
  0
VERTEX
  8
LAYER_1
 10
105.5158
 20
36.9969
  0
SEQEND
  0
ENDBLK
  0
BLOCK
  8
LAYER_1
  2
AIGNBL01030013
 70
64
 10
0
 20
0
 30
0
  3
AIGNBL01030013
  0
POLYLINE
  8
LAYER_1
 40
0.05
 41
0.05
 66
1
 10
0
 20
0
 30
0
 70
1
  0
VERTEX
  8
LAYER_1
 10
106.6978
 20
36.1756
  0
VERTEX
  8
LAYER_1
 10
106.7523
 20
36.0725
 42
0.1804993832
  0
VERTEX
  8
LAYER_1
 10
106.8656
 20
36.0309
  0
VERTEX
  8
LAYER_1
 10
106.9548
 20
36.0505
  0
VERTEX
  8
LAYER_1
 10
107.011
 20
36.1039
  0
VERTEX
  8
LAYER_1
 10
107.0399
 20
36.1804
  0
VERTEX
  8
LAYER_1
 10
107.0482
 20
36.27
  0
VERTEX
  8
LAYER_1
 10
107.0482
 20
36.9969
  0
VERTEX
  8
LAYER_1
 10
107.1533
 20
36.9969
  0
VERTEX
  8
LAYER_1
 10
107.1533
 20
36.2614
  0
VERTEX
  8
LAYER_1
 10
107.1419
 20
36.1535
  0
VERTEX
  8
LAYER_1
 10
107.1006
 20
36.0485
  0
VERTEX
  8
LAYER_1
 10
107.0158
 20
35.9689
  0
VERTEX
  8
LAYER_1
 10
106.877
 20
35.9375
 42
-0.1845892347
  0
VERTEX
  8
LAYER_1
 10
106.6923
 20
35.9974
 42
-0.176191571
  0
VERTEX
  8
LAYER_1
 10
106.6
 20
36.149
  0
SEQEND
  0
ENDBLK
  0
BLOCK
  8
LAYER_1
  2
AIGNBL01030014
 70
64
 10
0
 20
0
 30
0
  3
AIGNBL01030014
  0
POLYLINE
  8
LAYER_1
 40
0.05
 41
0.05
 66
1
 10
0
 20
0
 30
0
 70
1
  0
VERTEX
  8
LAYER_1
 10
108.6416
 20
36.4805
 42
-0.10394313
  0
VERTEX
  8
LAYER_1
 10
108.6005
 20
36.2631
 42
-0.1002538824
  0
VERTEX
  8
LAYER_1
 10
108.4879
 20
36.0915
  0
VERTEX
  8
LAYER_1
 10
108.317
 20
35.9785
 42
-0.09506675375
  0
VERTEX
  8
LAYER_1
 10
108.1031
 20
35.9375
 42
-0.1010866674
  0
VERTEX
  8
LAYER_1
 10
107.8895
 20
35.9785
 42
-0.1005668876
  0
VERTEX
  8
LAYER_1
 10
107.7186
 20
36.0915
 42
-0.09506076213
  0
VERTEX
  8
LAYER_1
 10
107.6053
 20
36.2631
 42
-0.09316585798
  0
VERTEX
  8
LAYER_1
 10
107.5646
 20
36.4805
 42
-0.1029152058
  0
VERTEX
  8
LAYER_1
 10
107.6053
 20
36.6978
 42
-0.1008913794
  0
VERTEX
  8
LAYER_1
 10
107.7186
 20
36.8694
 42
-0.09625543395
  0
VERTEX
  8
LAYER_1
 10
107.8895
 20
36.9824
 42
-0.09521573462
  0
VERTEX
  8
LAYER_1
 10
108.1031
 20
37.0234
 42
-0.101175466
  0
VERTEX
  8
LAYER_1
 10
108.317
 20
36.9824
 42
-0.09853409661
  0
VERTEX
  8
LAYER_1
 10
108.4879
 20
36.8694
 42
-0.09556553869
  0
VERTEX
  8
LAYER_1
 10
108.6005
 20
36.6978
 42
-0.09420719768
  0
SEQEND
  0
POLYLINE
  8
LAYER_1
 40
0.05
 41
0.05
 66
1
 10
0
 20
0
 30
0
 70
1
  0
VERTEX
  8
LAYER_1
 10
108.5306
 20
36.4798
  0
VERTEX
  8
LAYER_1
 10
108.5017
 20
36.6517
  0
VERTEX
  8
LAYER_1
 10
108.4169
 20
36.795
  0
VERTEX
  8
LAYER_1
 10
108.2819
 20
36.8932
  0
VERTEX
  8
LAYER_1
 10
108.1031
 20
36.93
  0
VERTEX
  8
LAYER_1
 10
107.9243
 20
36.8932
  0
VERTEX
  8
LAYER_1
 10
107.7896
 20
36.795
  0
VERTEX
  8
LAYER_1
 10
107.7048
 20
36.6517
  0
VERTEX
  8
LAYER_1
 10
107.6755
 20
36.4798
  0
VERTEX
  8
LAYER_1
 10
107.7048
 20
36.3079
  0
VERTEX
  8
LAYER_1
 10
107.7896
 20
36.1649
  0
VERTEX
  8
LAYER_1
 10
107.9243
 20
36.0674
 42
0.1008280473
  0
VERTEX
  8
LAYER_1
 10
108.1031
 20
36.0309
  0
VERTEX
  8
LAYER_1
 10
108.2819
 20
36.0674
  0
VERTEX
  8
LAYER_1
 10
108.4169
 20
36.1649
  0
VERTEX
  8
LAYER_1
 10
108.5017
 20
36.3079
  0
SEQEND
  0
ENDBLK
  0
BLOCK
  8
LAYER_1
  2
AIGNBL01030015
 70
64
 10
0
 20
0
 30
0
  3
AIGNBL01030015
  0
POLYLINE
  8
LAYER_1
 40
0.05
 41
0.05
 66
1
 10
0
 20
0
 30
0
 70
1
  0
VERTEX
  8
LAYER_1
 10
109.4163
 20
35.9637
  0
VERTEX
  8
LAYER_1
 10
109.3116
 20
35.9637
  0
VERTEX
  8
LAYER_1
 10
109.3116
 20
36.4091
  0
VERTEX
  8
LAYER_1
 10
108.9247
 20
36.9969
  0
VERTEX
  8
LAYER_1
 10
109.056
 20
36.9969
  0
VERTEX
  8
LAYER_1
 10
109.3671
 20
36.4967
  0
VERTEX
  8
LAYER_1
 10
109.6806
 20
36.9969
  0
VERTEX
  8
LAYER_1
 10
109.8029
 20
36.9969
  0
VERTEX
  8
LAYER_1
 10
109.4163
 20
36.4091
  0
SEQEND
  0
ENDBLK
  0
BLOCK
  8
LAYER_1
  2
AIGNBL01030016
 70
64
 10
0
 20
0
 30
0
  3
AIGNBL01030016
  0
POLYLINE
  8
LAYER_1
 40
0.05
 41
0.05
 66
1
 10
0
 20
0
 30
0
 70
1
  0
VERTEX
  8
LAYER_1
 10
110.7079
 20
36.9969
  0
VERTEX
  8
LAYER_1
 10
111.0155
 20
36.9969
  0
VERTEX
  8
LAYER_1
 10
111.1341
 20
36.9845
  0
VERTEX
  8
LAYER_1
 10
111.2409
 20
36.9421
  0
VERTEX
  8
LAYER_1
 10
111.3187
 20
36.8611
  0
VERTEX
  8
LAYER_1
 10
111.3483
 20
36.733
 42
-0.1790346201
  0
VERTEX
  8
LAYER_1
 10
111.2984
 20
36.5907
 42
-0.1642259289
  0
VERTEX
  8
LAYER_1
 10
111.1651
 20
36.5111
  0
VERTEX
  8
LAYER_1
 10
111.1651
 20
36.5084
 42
-0.1734673322
  0
VERTEX
  8
LAYER_1
 10
111.3318
 20
36.4302
 42
-0.1921994171
  0
VERTEX
  8
LAYER_1
 10
111.3979
 20
36.2496
  0
VERTEX
  8
LAYER_1
 10
111.3708
 20
36.1325
  0
VERTEX
  8
LAYER_1
 10
111.2946
 20
36.0419
  0
VERTEX
  8
LAYER_1
 10
111.1737
 20
35.9844
  0
VERTEX
  8
LAYER_1
 10
111.0138
 20
35.9637
  0
VERTEX
  8
LAYER_1
 10
110.7079
 20
35.9637
  0
SEQEND
  0
POLYLINE
  8
LAYER_1
 40
0.05
 41
0.05
 66
1
 10
0
 20
0
 30
0
 70
1
  0
VERTEX
  8
LAYER_1
 10
110.813
 20
36.5445
  0
VERTEX
  8
LAYER_1
 10
111.0245
 20
36.5445
  0
VERTEX
  8
LAYER_1
 10
111.1013
 20
36.5535
  0
VERTEX
  8
LAYER_1
 10
111.1716
 20
36.5831
  0
VERTEX
  8
LAYER_1
 10
111.2236
 20
36.6396
  0
VERTEX
  8
LAYER_1
 10
111.2433
 20
36.7258
  0
VERTEX
  8
LAYER_1
 10
111.2236
 20
36.8095
  0
VERTEX
  8
LAYER_1
 10
111.1706
 20
36.8656
  0
VERTEX
  8
LAYER_1
 10
111.0917
 20
36.897
  0
VERTEX
  8
LAYER_1
 10
110.9952
 20
36.9066
  0
VERTEX
  8
LAYER_1
 10
110.813
 20
36.9066
  0
SEQEND
  0
POLYLINE
  8
LAYER_1
 40
0.05
 41
0.05
 66
1
 10
0
 20
0
 30
0
 70
1
  0
VERTEX
  8
LAYER_1
 10
110.813
 20
36.0543
  0
VERTEX
  8
LAYER_1
 10
111.0087
 20
36.0543
  0
VERTEX
  8
LAYER_1
 10
111.1172
 20
36.0653
  0
VERTEX
  8
LAYER_1
 10
111.2078
 20
36.1001
  0
VERTEX
  8
LAYER_1
 10
111.2695
 20
36.1632
  0
VERTEX
  8
LAYER_1
 10
111.2929
 20
36.2559
 42
0.2557371221
  0
VERTEX
  8
LAYER_1
 10
111.2236
 20
36.4081
 42
0.1381508151
  0
VERTEX
  8
LAYER_1
 10
111.0276
 20
36.4584
  0
VERTEX
  8
LAYER_1
 10
110.813
 20
36.4584
  0
SEQEND
  0
ENDBLK
  0
BLOCK
  8
LAYER_1
  2
AIGNBL01030017
 70
64
 10
0
 20
0
 30
0
  3
AIGNBL01030017
  0
POLYLINE
  8
LAYER_1
 40
0.05
 41
0.05
 66
1
 10
0
 20
0
 30
0
 70
1
  0
VERTEX
  8
LAYER_1
 10
111.83
 20
35.9637
  0
VERTEX
  8
LAYER_1
 10
111.7146
 20
35.9637
  0
VERTEX
  8
LAYER_1
 10
112.1614
 20
36.9969
  0
VERTEX
  8
LAYER_1
 10
112.2637
 20
36.9969
  0
VERTEX
  8
LAYER_1
 10
112.7071
 20
35.9637
  0
VERTEX
  8
LAYER_1
 10
112.5903
 20
35.9637
  0
VERTEX
  8
LAYER_1
 10
112.4763
 20
36.2352
  0
VERTEX
  8
LAYER_1
 10
111.9423
 20
36.2352
  0
SEQEND
  0
POLYLINE
  8
LAYER_1
 40
0.05
 41
0.05
 66
1
 10
0
 20
0
 30
0
 70
1
  0
VERTEX
  8
LAYER_1
 10
111.9815
 20
36.3316
  0
VERTEX
  8
LAYER_1
 10
112.437
 20
36.3316
  0
VERTEX
  8
LAYER_1
 10
112.2093
 20
36.8804
  0
SEQEND
  0
ENDBLK
  0
BLOCK
  8
LAYER_1
  2
AIGNBL01030018
 70
64
 10
0
 20
0
 30
0
  3
AIGNBL01030018
  0
POLYLINE
  8
LAYER_1
 40
0.05
 41
0.05
 66
1
 10
0
 20
0
 30
0
 70
1
  0
VERTEX
  8
LAYER_1
 10
113.3916
 20
35.9637
  0
VERTEX
  8
LAYER_1
 10
113.2865
 20
35.9637
  0
VERTEX
  8
LAYER_1
 10
113.2865
 20
36.9035
  0
VERTEX
  8
LAYER_1
 10
112.9403
 20
36.9035
  0
VERTEX
  8
LAYER_1
 10
112.9403
 20
36.9969
  0
VERTEX
  8
LAYER_1
 10
113.7372
 20
36.9969
  0
VERTEX
  8
LAYER_1
 10
113.7372
 20
36.9035
  0
VERTEX
  8
LAYER_1
 10
113.3916
 20
36.9035
  0
SEQEND
  0
ENDBLK
  0
BLOCK
  8
LAYER_1
  2
AIGNBL01030019
 70
64
 10
0
 20
0
 30
0
  3
AIGNBL01030019
  0
POLYLINE
  8
LAYER_1
 40
0.05
 41
0.05
 66
1
 10
0
 20
0
 30
0
 70
1
  0
VERTEX
  8
LAYER_1
 10
114.0934
 20
36.9969
  0
VERTEX
  8
LAYER_1
 10
114.1981
 20
36.9969
  0
VERTEX
  8
LAYER_1
 10
114.1981
 20
36.549
  0
VERTEX
  8
LAYER_1
 10
114.7618
 20
36.549
  0
VERTEX
  8
LAYER_1
 10
114.7618
 20
36.9969
  0
VERTEX
  8
LAYER_1
 10
114.8668
 20
36.9969
  0
VERTEX
  8
LAYER_1
 10
114.8668
 20
35.9637
  0
VERTEX
  8
LAYER_1
 10
114.7618
 20
35.9637
  0
VERTEX
  8
LAYER_1
 10
114.7618
 20
36.4529
  0
VERTEX
  8
LAYER_1
 10
114.1981
 20
36.4529
  0
VERTEX
  8
LAYER_1
 10
114.1981
 20
35.9637
  0
VERTEX
  8
LAYER_1
 10
114.0934
 20
35.9637
  0
SEQEND
  0
ENDBLK
  0
BLOCK
  8
LAYER_1
  2
AIGNBL0103001A
 70
64
 10
0
 20
0
 30
0
  3
AIGNBL0103001A
  0
POLYLINE
  8
LAYER_1
 40
0.05
 41
0.05
 66
1
 10
0
 20
0
 30
0
 70
1
  0
VERTEX
  8
LAYER_1
 10
115.4473
 20
35.9637
  0
VERTEX
  8
LAYER_1
 10
115.3423
 20
35.9637
  0
VERTEX
  8
LAYER_1
 10
115.3423
 20
36.9969
  0
VERTEX
  8
LAYER_1
 10
115.6461
 20
36.9969
  0
VERTEX
  8
LAYER_1
 10
115.7867
 20
36.9824
  0
VERTEX
  8
LAYER_1
 10
115.8993
 20
36.9349
  0
VERTEX
  8
LAYER_1
 10
115.9727
 20
36.8494
  0
VERTEX
  8
LAYER_1
 10
115.9989
 20
36.7213
  0
VERTEX
  8
LAYER_1
 10
115.9789
 20
36.6176
  0
VERTEX
  8
LAYER_1
 10
115.9235
 20
36.5366
  0
VERTEX
  8
LAYER_1
 10
115.8401
 20
36.4818
  0
VERTEX
  8
LAYER_1
 10
115.735
 20
36.4557
  0
VERTEX
  8
LAYER_1
 10
116.0371
 20
35.9637
  0
VERTEX
  8
LAYER_1
 10
115.9086
 20
35.9637
  0
VERTEX
  8
LAYER_1
 10
115.6227
 20
36.4467
  0
VERTEX
  8
LAYER_1
 10
115.4473
 20
36.4467
  0
SEQEND
  0
POLYLINE
  8
LAYER_1
 40
0.05
 41
0.05
 66
1
 10
0
 20
0
 30
0
 70
1
  0
VERTEX
  8
LAYER_1
 10
115.4473
 20
36.5373
  0
VERTEX
  8
LAYER_1
 10
115.6299
 20
36.5373
 42
0.1654500383
  0
VERTEX
  8
LAYER_1
 10
115.8256
 20
36.5831
 42
0.2503949893
  0
VERTEX
  8
LAYER_1
 10
115.8942
 20
36.7213
  0
VERTEX
  8
LAYER_1
 10
115.8749
 20
36.8071
  0
VERTEX
  8
LAYER_1
 10
115.8225
 20
36.8643
  0
VERTEX
  8
LAYER_1
 10
115.7409
 20
36.8963
  0
VERTEX
  8
LAYER_1
 10
115.6344
 20
36.9066
  0
VERTEX
  8
LAYER_1
 10
115.4473
 20
36.9066
  0
SEQEND
  0
ENDBLK
  0
BLOCK
  8
LAYER_1
  2
AIGNBL0103001B
 70
64
 10
0
 20
0
 30
0
  3
AIGNBL0103001B
  0
POLYLINE
  8
LAYER_1
 40
0.05
 41
0.05
 66
1
 10
0
 20
0
 30
0
 70
1
  0
VERTEX
  8
LAYER_1
 10
117.4393
 20
36.4805
 42
-0.1005163161
  0
VERTEX
  8
LAYER_1
 10
117.3986
 20
36.2631
 42
-0.1003846159
  0
VERTEX
  8
LAYER_1
 10
117.2853
 20
36.0915
 42
-0.09584766738
  0
VERTEX
  8
LAYER_1
 10
117.1147
 20
35.9785
 42
-0.09506713234
  0
VERTEX
  8
LAYER_1
 10
116.9008
 20
35.9375
 42
-0.101175466
  0
VERTEX
  8
LAYER_1
 10
116.6869
 20
35.9785
 42
-0.09967088569
  0
VERTEX
  8
LAYER_1
 10
116.5163
 20
36.0915
 42
-0.09574135652
  0
VERTEX
  8
LAYER_1
 10
116.4033
 20
36.2631
 42
-0.09293305267
  0
VERTEX
  8
LAYER_1
 10
116.3627
 20
36.4805
 42
-0.1024980643
  0
VERTEX
  8
LAYER_1
 10
116.4033
 20
36.6978
 42
-0.1015030268
  0
VERTEX
  8
LAYER_1
 10
116.5163
 20
36.8694
 42
-0.09577113234
  0
VERTEX
  8
LAYER_1
 10
116.6869
 20
36.9824
 42
-0.09506675375
  0
VERTEX
  8
LAYER_1
 10
116.9008
 20
37.0234
 42
-0.1014233705
  0
VERTEX
  8
LAYER_1
 10
117.1147
 20
36.9824
 42
-0.1017041996
  0
VERTEX
  8
LAYER_1
 10
117.2853
 20
36.8694
 42
-0.09506500802
  0
VERTEX
  8
LAYER_1
 10
117.3986
 20
36.6978
 42
-0.09299771213
  0
SEQEND
  0
POLYLINE
  8
LAYER_1
 40
0.05
 41
0.05
 66
1
 10
0
 20
0
 30
0
 70
1
  0
VERTEX
  8
LAYER_1
 10
117.3284
 20
36.4798
  0
VERTEX
  8
LAYER_1
 10
117.2991
 20
36.6517
  0
VERTEX
  8
LAYER_1
 10
117.2143
 20
36.795
  0
VERTEX
  8
LAYER_1
 10
117.0796
 20
36.8932
  0
VERTEX
  8
LAYER_1
 10
116.9008
 20
36.93
  0
VERTEX
  8
LAYER_1
 10
116.722
 20
36.8932
  0
VERTEX
  8
LAYER_1
 10
116.587
 20
36.795
  0
VERTEX
  8
LAYER_1
 10
116.5022
 20
36.6517
  0
VERTEX
  8
LAYER_1
 10
116.4733
 20
36.4798
  0
VERTEX
  8
LAYER_1
 10
116.5022
 20
36.3079
  0
VERTEX
  8
LAYER_1
 10
116.587
 20
36.1649
  0
VERTEX
  8
LAYER_1
 10
116.722
 20
36.0674
  0
VERTEX
  8
LAYER_1
 10
116.9008
 20
36.0309
 42
0.1157330551
  0
VERTEX
  8
LAYER_1
 10
117.0796
 20
36.0674
  0
VERTEX
  8
LAYER_1
 10
117.2143
 20
36.1649
  0
VERTEX
  8
LAYER_1
 10
117.2991
 20
36.3079
  0
SEQEND
  0
ENDBLK
  0
BLOCK
  8
LAYER_1
  2
AIGNBL0103001C
 70
64
 10
0
 20
0
 30
0
  3
AIGNBL0103001C
  0
POLYLINE
  8
LAYER_1
 40
0.05
 41
0.05
 66
1
 10
0
 20
0
 30
0
 70
1
  0
VERTEX
  8
LAYER_1
 10
118.881
 20
36.4805
 42
-0.1041417444
  0
VERTEX
  8
LAYER_1
 10
118.84
 20
36.2631
 42
-0.1002538824
  0
VERTEX
  8
LAYER_1
 10
118.7274
 20
36.0915
 42
-0.09536265516
  0
VERTEX
  8
LAYER_1
 10
118.5565
 20
35.9785
 42
-0.09506675375
  0
VERTEX
  8
LAYER_1
 10
118.3426
 20
35.9375
 42
-0.101822328
  0
VERTEX
  8
LAYER_1
 10
118.129
 20
35.9785
 42
-0.102112669
  0
VERTEX
  8
LAYER_1
 10
117.9581
 20
36.0915
 42
-0.09462334812
  0
VERTEX
  8
LAYER_1
 10
117.8447
 20
36.2631
 42
-0.09290316602
  0
VERTEX
  8
LAYER_1
 10
117.8041
 20
36.4805
 42
-0.1018782207
  0
VERTEX
  8
LAYER_1
 10
117.8447
 20
36.6978
 42
-0.1006850025
  0
VERTEX
  8
LAYER_1
 10
117.9581
 20
36.8694
 42
-0.09625543395
  0
VERTEX
  8
LAYER_1
 10
118.129
 20
36.9824
 42
-0.09528409444
  0
VERTEX
  8
LAYER_1
 10
118.3426
 20
37.0234
 42
-0.101175466
  0
VERTEX
  8
LAYER_1
 10
118.5565
 20
36.9824
 42
-0.09853409661
  0
VERTEX
  8
LAYER_1
 10
118.7274
 20
36.8694
 42
-0.09556553869
  0
VERTEX
  8
LAYER_1
 10
118.84
 20
36.6978
 42
-0.09400765476
  0
SEQEND
  0
POLYLINE
  8
LAYER_1
 40
0.05
 41
0.05
 66
1
 10
0
 20
0
 30
0
 70
1
  0
VERTEX
  8
LAYER_1
 10
118.7701
 20
36.4798
  0
VERTEX
  8
LAYER_1
 10
118.7412
 20
36.6517
  0
VERTEX
  8
LAYER_1
 10
118.6564
 20
36.795
  0
VERTEX
  8
LAYER_1
 10
118.5214
 20
36.8932
  0
VERTEX
  8
LAYER_1
 10
118.3426
 20
36.93
  0
VERTEX
  8
LAYER_1
 10
118.1638
 20
36.8932
  0
VERTEX
  8
LAYER_1
 10
118.0291
 20
36.795
  0
VERTEX
  8
LAYER_1
 10
117.9443
 20
36.6517
  0
VERTEX
  8
LAYER_1
 10
117.9151
 20
36.4798
  0
VERTEX
  8
LAYER_1
 10
117.9443
 20
36.3079
  0
VERTEX
  8
LAYER_1
 10
118.0291
 20
36.1649
  0
VERTEX
  8
LAYER_1
 10
118.1638
 20
36.0674
 42
0.1008280473
  0
VERTEX
  8
LAYER_1
 10
118.3426
 20
36.0309
  0
VERTEX
  8
LAYER_1
 10
118.5214
 20
36.0674
  0
VERTEX
  8
LAYER_1
 10
118.6564
 20
36.1649
  0
VERTEX
  8
LAYER_1
 10
118.7412
 20
36.3079
  0
SEQEND
  0
ENDBLK
  0
BLOCK
  8
LAYER_1
  2
AIGNBL0103001D
 70
64
 10
0
 20
0
 30
0
  3
AIGNBL0103001D
  0
POLYLINE
  8
LAYER_1
 40
0.05
 41
0.05
 66
1
 10
0
 20
0
 30
0
 70
1
  0
VERTEX
  8
LAYER_1
 10
119.8119
 20
36.1418
  0
VERTEX
  8
LAYER_1
 10
119.8136
 20
36.1418
  0
VERTEX
  8
LAYER_1
 10
120.1592
 20
36.9969
  0
VERTEX
  8
LAYER_1
 10
120.3201
 20
36.9969
  0
VERTEX
  8
LAYER_1
 10
120.3201
 20
35.9637
  0
VERTEX
  8
LAYER_1
 10
120.2146
 20
35.9637
  0
VERTEX
  8
LAYER_1
 10
120.2146
 20
36.8611
  0
VERTEX
  8
LAYER_1
 10
120.2119
 20
36.8611
  0
VERTEX
  8
LAYER_1
 10
119.8384
 20
35.9637
  0
VERTEX
  8
LAYER_1
 10
119.783
 20
35.9637
  0
VERTEX
  8
LAYER_1
 10
119.4092
 20
36.8611
  0
VERTEX
  8
LAYER_1
 10
119.4064
 20
36.8611
  0
VERTEX
  8
LAYER_1
 10
119.4064
 20
35.9637
  0
VERTEX
  8
LAYER_1
 10
119.3014
 20
35.9637
  0
VERTEX
  8
LAYER_1
 10
119.3014
 20
36.9969
  0
VERTEX
  8
LAYER_1
 10
119.4619
 20
36.9969
  0
SEQEND
  0
ENDBLK
  0
BLOCK
  8
LAYER_1
  2
AIGNBL0103001E
 70
64
 10
0
 20
0
 30
0
  3
AIGNBL0103001E
  0
POLYLINE
  8
LAYER_1
 40
0.05
 41
0.05
 66
1
 10
0
 20
0
 30
0
 70
1
  0
VERTEX
  8
LAYER_1
 10
121.4666
 20
36.0574
  0
VERTEX
  8
LAYER_1
 10
122.0199
 20
36.0574
  0
VERTEX
  8
LAYER_1
 10
122.0199
 20
35.9637
  0
VERTEX
  8
LAYER_1
 10
121.3615
 20
35.9637
  0
VERTEX
  8
LAYER_1
 10
121.3615
 20
36.9969
  0
VERTEX
  8
LAYER_1
 10
122.0023
 20
36.9969
  0
VERTEX
  8
LAYER_1
 10
122.0023
 20
36.9035
  0
VERTEX
  8
LAYER_1
 10
121.4666
 20
36.9035
  0
VERTEX
  8
LAYER_1
 10
121.4666
 20
36.549
  0
VERTEX
  8
LAYER_1
 10
121.9672
 20
36.549
  0
VERTEX
  8
LAYER_1
 10
121.9672
 20
36.4557
  0
VERTEX
  8
LAYER_1
 10
121.4666
 20
36.4557
  0
SEQEND
  0
ENDBLK
  0
BLOCK
  8
LAYER_1
  2
AIGNBL0103001F
 70
64
 10
0
 20
0
 30
0
  3
AIGNBL0103001F
  0
POLYLINE
  8
LAYER_1
 40
0.05
 41
0.05
 66
1
 10
0
 20
0
 30
0
 70
1
  0
VERTEX
  8
LAYER_1
 10
122.765
 20
36.5797
  0
VERTEX
  8
LAYER_1
 10
123.0472
 20
36.9969
  0
VERTEX
  8
LAYER_1
 10
123.1723
 20
36.9969
  0
VERTEX
  8
LAYER_1
 10
122.8298
 20
36.5053
  0
VERTEX
  8
LAYER_1
 10
123.2091
 20
35.9637
  0
VERTEX
  8
LAYER_1
 10
123.0779
 20
35.9637
  0
VERTEX
  8
LAYER_1
 10
122.7623
 20
36.4295
  0
VERTEX
  8
LAYER_1
 10
122.4488
 20
35.9637
  0
VERTEX
  8
LAYER_1
 10
122.3172
 20
35.9637
  0
VERTEX
  8
LAYER_1
 10
122.6969
 20
36.5066
  0
VERTEX
  8
LAYER_1
 10
122.351
 20
36.9969
  0
VERTEX
  8
LAYER_1
 10
122.4825
 20
36.9969
  0
SEQEND
  0
ENDBLK
  0
BLOCK
  8
LAYER_1
  2
AIGNBL01030020
 70
64
 10
0
 20
0
 30
0
  3
AIGNBL01030020
  0
POLYLINE
  8
LAYER_1
 40
0.05
 41
0.05
 66
1
 10
0
 20
0
 30
0
 70
1
  0
VERTEX
  8
LAYER_1
 10
123.5753
 20
36.9969
  0
VERTEX
  8
LAYER_1
 10
123.8675
 20
36.9969
  0
VERTEX
  8
LAYER_1
 10
124.0105
 20
36.9804
  0
VERTEX
  8
LAYER_1
 10
124.1203
 20
36.929
  0
VERTEX
  8
LAYER_1
 10
124.1913
 20
36.8429
  0
VERTEX
  8
LAYER_1
 10
124.2158
 20
36.7213
  0
VERTEX
  8
LAYER_1
 10
124.1906
 20
36.5993
  0
VERTEX
  8
LAYER_1
 10
124.119
 20
36.5132
  0
VERTEX
  8
LAYER_1
 10
124.0081
 20
36.4615
  0
VERTEX
  8
LAYER_1
 10
123.8644
 20
36.444
  0
VERTEX
  8
LAYER_1
 10
123.6804
 20
36.444
  0
VERTEX
  8
LAYER_1
 10
123.6804
 20
35.9637
  0
VERTEX
  8
LAYER_1
 10
123.5753
 20
35.9637
  0
SEQEND
  0
POLYLINE
  8
LAYER_1
 40
0.05
 41
0.05
 66
1
 10
0
 20
0
 30
0
 70
1
  0
VERTEX
  8
LAYER_1
 10
123.6804
 20
36.5328
  0
VERTEX
  8
LAYER_1
 10
123.8582
 20
36.5328
 42
0.1829203509
  0
VERTEX
  8
LAYER_1
 10
124.0466
 20
36.581
 42
0.2345943979
  0
VERTEX
  8
LAYER_1
 10
124.111
 20
36.7213
 42
0.2650437466
  0
VERTEX
  8
LAYER_1
 10
124.0446
 20
36.8622
 42
0.1264027561
  0
VERTEX
  8
LAYER_1
 10
123.8582
 20
36.9066
  0
VERTEX
  8
LAYER_1
 10
123.6804
 20
36.9066
  0
SEQEND
  0
ENDBLK
  0
BLOCK
  8
LAYER_1
  2
AIGNBL01030021
 70
64
 10
0
 20
0
 30
0
  3
AIGNBL01030021
  0
POLYLINE
  8
LAYER_1
 40
0.05
 41
0.05
 66
1
 10
0
 20
0
 30
0
 70
1
  0
VERTEX
  8
LAYER_1
 10
124.7281
 20
36.0574
  0
VERTEX
  8
LAYER_1
 10
125.2813
 20
36.0574
  0
VERTEX
  8
LAYER_1
 10
125.2813
 20
35.9637
  0
VERTEX
  8
LAYER_1
 10
124.623
 20
35.9637
  0
VERTEX
  8
LAYER_1
 10
124.623
 20
36.9969
  0
VERTEX
  8
LAYER_1
 10
125.2638
 20
36.9969
  0
VERTEX
  8
LAYER_1
 10
125.2638
 20
36.9035
  0
VERTEX
  8
LAYER_1
 10
124.7281
 20
36.9035
  0
VERTEX
  8
LAYER_1
 10
124.7281
 20
36.549
  0
VERTEX
  8
LAYER_1
 10
125.2286
 20
36.549
  0
VERTEX
  8
LAYER_1
 10
125.2286
 20
36.4557
  0
VERTEX
  8
LAYER_1
 10
124.7281
 20
36.4557
  0
SEQEND
  0
ENDBLK
  0
BLOCK
  8
LAYER_1
  2
AIGNBL01030022
 70
64
 10
0
 20
0
 30
0
  3
AIGNBL01030022
  0
POLYLINE
  8
LAYER_1
 40
0.05
 41
0.05
 66
1
 10
0
 20
0
 30
0
 70
1
  0
VERTEX
  8
LAYER_1
 10
125.7933
 20
35.9637
  0
VERTEX
  8
LAYER_1
 10
125.6882
 20
35.9637
  0
VERTEX
  8
LAYER_1
 10
125.6882
 20
36.9969
  0
VERTEX
  8
LAYER_1
 10
125.9921
 20
36.9969
  0
VERTEX
  8
LAYER_1
 10
126.1326
 20
36.9824
  0
VERTEX
  8
LAYER_1
 10
126.2453
 20
36.9349
  0
VERTEX
  8
LAYER_1
 10
126.319
 20
36.8494
  0
VERTEX
  8
LAYER_1
 10
126.3449
 20
36.7213
  0
VERTEX
  8
LAYER_1
 10
126.3249
 20
36.6176
  0
VERTEX
  8
LAYER_1
 10
126.2694
 20
36.5366
  0
VERTEX
  8
LAYER_1
 10
126.186
 20
36.4818
  0
VERTEX
  8
LAYER_1
 10
126.0809
 20
36.4557
  0
VERTEX
  8
LAYER_1
 10
126.3831
 20
35.9637
  0
VERTEX
  8
LAYER_1
 10
126.2546
 20
35.9637
  0
VERTEX
  8
LAYER_1
 10
125.9687
 20
36.4467
  0
VERTEX
  8
LAYER_1
 10
125.7933
 20
36.4467
  0
SEQEND
  0
POLYLINE
  8
LAYER_1
 40
0.05
 41
0.05
 66
1
 10
0
 20
0
 30
0
 70
1
  0
VERTEX
  8
LAYER_1
 10
125.7933
 20
36.5373
  0
VERTEX
  8
LAYER_1
 10
125.9759
 20
36.5373
 42
0.1663801652
  0
VERTEX
  8
LAYER_1
 10
126.1716
 20
36.5831
 42
0.2503091692
  0
VERTEX
  8
LAYER_1
 10
126.2401
 20
36.7213
  0
VERTEX
  8
LAYER_1
 10
126.2212
 20
36.8071
  0
VERTEX
  8
LAYER_1
 10
126.1685
 20
36.8643
  0
VERTEX
  8
LAYER_1
 10
126.0868
 20
36.8963
  0
VERTEX
  8
LAYER_1
 10
125.9804
 20
36.9066
  0
VERTEX
  8
LAYER_1
 10
125.7933
 20
36.9066
  0
SEQEND
  0
ENDBLK
  0
BLOCK
  8
LAYER_1
  2
AIGNBL01030023
 70
64
 10
0
 20
0
 30
0
  3
AIGNBL01030023
  0
POLYLINE
  8
LAYER_1
 40
0.05
 41
0.05
 66
1
 10
0
 20
0
 30
0
 70
1
  0
VERTEX
  8
LAYER_1
 10
126.8688
 20
35.9637
  0
VERTEX
  8
LAYER_1
 10
126.7641
 20
35.9637
  0
VERTEX
  8
LAYER_1
 10
126.7641
 20
36.9969
  0
VERTEX
  8
LAYER_1
 10
126.8688
 20
36.9969
  0
SEQEND
  0
ENDBLK
  0
BLOCK
  8
LAYER_1
  2
AIGNBL01030024
 70
64
 10
0
 20
0
 30
0
  3
AIGNBL01030024
  0
POLYLINE
  8
LAYER_1
 40
0.05
 41
0.05
 66
1
 10
0
 20
0
 30
0
 70
1
  0
VERTEX
  8
LAYER_1
 10
127.4497
 20
36.0574
  0
VERTEX
  8
LAYER_1
 10
128.0026
 20
36.0574
  0
VERTEX
  8
LAYER_1
 10
128.0026
 20
35.9637
  0
VERTEX
  8
LAYER_1
 10
127.3446
 20
35.9637
  0
VERTEX
  8
LAYER_1
 10
127.3446
 20
36.9969
  0
VERTEX
  8
LAYER_1
 10
127.9854
 20
36.9969
  0
VERTEX
  8
LAYER_1
 10
127.9854
 20
36.9035
  0
VERTEX
  8
LAYER_1
 10
127.4497
 20
36.9035
  0
VERTEX
  8
LAYER_1
 10
127.4497
 20
36.549
  0
VERTEX
  8
LAYER_1
 10
127.9503
 20
36.549
  0
VERTEX
  8
LAYER_1
 10
127.9503
 20
36.4557
  0
VERTEX
  8
LAYER_1
 10
127.4497
 20
36.4557
  0
SEQEND
  0
ENDBLK
  0
BLOCK
  8
LAYER_1
  2
AIGNBL01030025
 70
64
 10
0
 20
0
 30
0
  3
AIGNBL01030025
  0
POLYLINE
  8
LAYER_1
 40
0.05
 41
0.05
 66
1
 10
0
 20
0
 30
0
 70
1
  0
VERTEX
  8
LAYER_1
 10
129.1426
 20
36.117
  0
VERTEX
  8
LAYER_1
 10
129.1454
 20
36.117
  0
VERTEX
  8
LAYER_1
 10
129.1454
 20
36.9969
  0
VERTEX
  8
LAYER_1
 10
129.2504
 20
36.9969
  0
VERTEX
  8
LAYER_1
 10
129.2504
 20
35.9637
  0
VERTEX
  8
LAYER_1
 10
129.1192
 20
35.9637
  0
VERTEX
  8
LAYER_1
 10
128.518
 20
36.8525
  0
VERTEX
  8
LAYER_1
 10
128.5149
 20
36.8525
  0
VERTEX
  8
LAYER_1
 10
128.5149
 20
35.9637
  0
VERTEX
  8
LAYER_1
 10
128.4098
 20
35.9637
  0
VERTEX
  8
LAYER_1
 10
128.4098
 20
36.9969
  0
VERTEX
  8
LAYER_1
 10
128.5414
 20
36.9969
  0
SEQEND
  0
ENDBLK
  0
BLOCK
  8
LAYER_1
  2
AIGNBL01030026
 70
64
 10
0
 20
0
 30
0
  3
AIGNBL01030026
  0
POLYLINE
  8
LAYER_1
 40
0.05
 41
0.05
 66
1
 10
0
 20
0
 30
0
 70
1
  0
VERTEX
  8
LAYER_1
 10
130.5961
 20
36.1315
  0
VERTEX
  8
LAYER_1
 10
130.5324
 20
36.0571
  0
VERTEX
  8
LAYER_1
 10
130.4463
 20
35.9954
  0
VERTEX
  8
LAYER_1
 10
130.3381
 20
35.953
  0
VERTEX
  8
LAYER_1
 10
130.2092
 20
35.9375
 42
-0.1009408553
  0
VERTEX
  8
LAYER_1
 10
129.9932
 20
35.9785
 42
-0.1036559164
  0
VERTEX
  8
LAYER_1
 10
129.8227
 20
36.0915
 42
-0.09812017057
  0
VERTEX
  8
LAYER_1
 10
129.7111
 20
36.2631
 42
-0.09255697562
  0
VERTEX
  8
LAYER_1
 10
129.6707
 20
36.4805
 42
-0.1035456296
  0
VERTEX
  8
LAYER_1
 10
129.7117
 20
36.6978
 42
-0.1005534539
  0
VERTEX
  8
LAYER_1
 10
129.8244
 20
36.8694
 42
-0.09536265516
  0
VERTEX
  8
LAYER_1
 10
129.9953
 20
36.9824
 42
-0.09506675375
  0
VERTEX
  8
LAYER_1
 10
130.2092
 20
37.0234
  0
VERTEX
  8
LAYER_1
 10
130.3208
 20
37.0114
  0
VERTEX
  8
LAYER_1
 10
130.4239
 20
36.9779
  0
VERTEX
  8
LAYER_1
 10
130.5113
 20
36.9263
  0
VERTEX
  8
LAYER_1
 10
130.5771
 20
36.8584
  0
VERTEX
  8
LAYER_1
 10
130.4896
 20
36.794
  0
VERTEX
  8
LAYER_1
 10
130.4463
 20
36.8439
  0
VERTEX
  8
LAYER_1
 10
130.3829
 20
36.8877
  0
VERTEX
  8
LAYER_1
 10
130.3033
 20
36.9183
  0
VERTEX
  8
LAYER_1
 10
130.2106
 20
36.93
  0
VERTEX
  8
LAYER_1
 10
130.0304
 20
36.8935
  0
VERTEX
  8
LAYER_1
 10
129.8954
 20
36.7954
  0
VERTEX
  8
LAYER_1
 10
129.8106
 20
36.652
  0
VERTEX
  8
LAYER_1
 10
129.7817
 20
36.4805
  0
VERTEX
  8
LAYER_1
 10
129.8116
 20
36.3089
  0
VERTEX
  8
LAYER_1
 10
129.8971
 20
36.1656
  0
VERTEX
  8
LAYER_1
 10
130.0321
 20
36.0674
 42
0.1009931409
  0
VERTEX
  8
LAYER_1
 10
130.2106
 20
36.0309
  0
VERTEX
  8
LAYER_1
 10
130.3798
 20
36.0674
 42
0.1319081761
  0
VERTEX
  8
LAYER_1
 10
130.5141
 20
36.1842
  0
SEQEND
  0
ENDBLK
  0
BLOCK
  8
LAYER_1
  2
AIGNBL01030027
 70
64
 10
0
 20
0
 30
0
  3
AIGNBL01030027
  0
POLYLINE
  8
LAYER_1
 40
0.05
 41
0.05
 66
1
 10
0
 20
0
 30
0
 70
1
  0
VERTEX
  8
LAYER_1
 10
131.0832
 20
36.0574
  0
VERTEX
  8
LAYER_1
 10
131.6365
 20
36.0574
  0
VERTEX
  8
LAYER_1
 10
131.6365
 20
35.9637
  0
VERTEX
  8
LAYER_1
 10
130.9782
 20
35.9637
  0
VERTEX
  8
LAYER_1
 10
130.9782
 20
36.9969
  0
VERTEX
  8
LAYER_1
 10
131.619
 20
36.9969
  0
VERTEX
  8
LAYER_1
 10
131.619
 20
36.9035
  0
VERTEX
  8
LAYER_1
 10
131.0832
 20
36.9035
  0
VERTEX
  8
LAYER_1
 10
131.0832
 20
36.549
  0
VERTEX
  8
LAYER_1
 10
131.5838
 20
36.549
  0
VERTEX
  8
LAYER_1
 10
131.5838
 20
36.4557
  0
VERTEX
  8
LAYER_1
 10
131.0832
 20
36.4557
  0
SEQEND
  0
ENDBLK
  0
BLOCK
  8
LAYER_1
  2
AIGNBL01020004
 70
64
 10
0
 20
0
 30
0
  3
AIGNBL01020004
  0
POLYLINE
  8
LAYER_1
 40
0.05
 41
0.05
 66
1
 10
0
 20
0
 30
0
  0
VERTEX
  8
LAYER_1
 10
-1.196
 20
217.6012
 42
-0.07434374488
  0
VERTEX
  8
LAYER_1
 10
-1.3046
 20
216.4751
 42
-0.1312981164
  0
VERTEX
  8
LAYER_1
 10
-1.5732
 20
216.0054
 42
-0.208619006
  0
VERTEX
  8
LAYER_1
 10
-2.3408
 20
215.7164
 42
-0.1980855618
  0
VERTEX
  8
LAYER_1
 10
-3.0956
 20
216.0054
 42
-0.1359059684
  0
VERTEX
  8
LAYER_1
 10
-3.3746
 20
216.5106
 42
-0.06699191066
  0
VERTEX
  8
LAYER_1
 10
-3.4732
 20
217.6012
 42
-0.07470238595
  0
VERTEX
  8
LAYER_1
 10
-3.3644
 20
218.7157
 42
-0.1310826725
  0
VERTEX
  8
LAYER_1
 10
-3.0956
 20
219.1845
 42
-0.2061520596
  0
VERTEX
  8
LAYER_1
 10
-2.3408
 20
219.4732
 42
-0.1977437771
  0
VERTEX
  8
LAYER_1
 10
-1.5732
 20
219.1845
 42
-0.1358673357
  0
VERTEX
  8
LAYER_1
 10
-1.2943
 20
218.6804
 42
-0.06720044206
  0
VERTEX
  8
LAYER_1
 10
-1.196
 20
217.6012
  0
SEQEND
  0
POLYLINE
  8
LAYER_1
 40
0.05
 41
0.05
 66
1
 10
0
 20
0
 30
0
  0
VERTEX
  8
LAYER_1
 10
0.4394
 20
217.6012
 42
0.0577585355
  0
VERTEX
  8
LAYER_1
 10
0.3194
 20
218.9609
 42
0.1358747382
  0
VERTEX
  8
LAYER_1
 10
-0.303
 20
220.1395
 42
0.1777268905
  0
VERTEX
  8
LAYER_1
 10
-1.8892
 20
220.9154
 42
0.03495822391
  0
VERTEX
  8
LAYER_1
 10
-2.3408
 20
220.9436
 42
0.07961804251
  0
VERTEX
  8
LAYER_1
 10
-3.315
 20
220.7962
 42
0.1217450219
  0
VERTEX
  8
LAYER_1
 10
-4.3662
 20
220.1395
 42
0.09150776818
  0
VERTEX
  8
LAYER_1
 10
-4.8465
 20
219.4067
 42
0.07735978812
  0
VERTEX
  8
LAYER_1
 10
-5.0776
 20
218.3847
 42
0.03281807239
  0
VERTEX
  8
LAYER_1
 10
-5.1082
 20
217.6012
 42
0.05725233541
  0
VERTEX
  8
LAYER_1
 10
-4.9885
 20
216.2362
 42
0.1359864428
  0
VERTEX
  8
LAYER_1
 10
-4.3662
 20
215.0504
 42
0.175204158
  0
VERTEX
  8
LAYER_1
 10
-2.7508
 20
214.2702
 42
0.03231924249
  0
VERTEX
  8
LAYER_1
 10
-2.3408
 20
214.2463
 42
0.07899302184
  0
VERTEX
  8
LAYER_1
 10
-1.3625
 20
214.3937
 42
0.1216861451
  0
VERTEX
  8
LAYER_1
 10
-0.303
 20
215.0504
 42
0.09340304456
  0
VERTEX
  8
LAYER_1
 10
0.1681
 20
215.7463
 42
0.0774645698
  0
VERTEX
  8
LAYER_1
 10
0.4017
 20
216.7223
 42
0.02212089617
  0
VERTEX
  8
LAYER_1
 10
0.4394
 20
217.6012
  0
SEQEND
  0
POLYLINE
  8
LAYER_1
 40
0.05
 41
0.05
 66
1
 10
0
 20
0
 30
0
  0
VERTEX
  8
LAYER_1
 10
-11.3166
 20
218.2044
  0
VERTEX
  8
LAYER_1
 10
-13.8074
 20
218.2044
 42
-0.1153546446
  0
VERTEX
  8
LAYER_1
 10
-13.6562
 20
218.9079
 42
-0.3007040875
  0
VERTEX
  8
LAYER_1
 10
-12.562
 20
219.5866
 42
-0.1235431447
  0
VERTEX
  8
LAYER_1
 10
-11.9621
 20
219.4464
 42
-0.1667603161
  0
VERTEX
  8
LAYER_1
 10
-11.4672
 20
218.9079
 42
-0.1143399212
  0
VERTEX
  8
LAYER_1
 10
-11.3166
 20
218.2044
  0
SEQEND
  0
POLYLINE
  8
LAYER_1
 40
0.05
 41
0.05
 66
1
 10
0
 20
0
 30
0
 70
1
  0
VERTEX
  8
LAYER_1
 10
-9.7064
 20
217.0861
  0
VERTEX
  8
LAYER_1
 10
-9.7064
 20
217.7772
 42
0.0677042249
  0
VERTEX
  8
LAYER_1
 10
-9.852
 20
218.9102
 42
0.07767771487
  0
VERTEX
  8
LAYER_1
 10
-10.2392
 20
219.7789
 42
0.1724975422
  0
VERTEX
  8
LAYER_1
 10
-11.5857
 20
220.7996
 42
0.07776532921
  0
VERTEX
  8
LAYER_1
 10
-12.562
 20
220.9436
 42
0.0796960513
  0
VERTEX
  8
LAYER_1
 10
-13.5247
 20
220.7966
 42
0.168887661
  0
VERTEX
  8
LAYER_1
 10
-14.846
 20
219.7874
 42
0.07658055294
  0
VERTEX
  8
LAYER_1
 10
-15.2466
 20
218.9066
 42
0.07097127065
  0
VERTEX
  8
LAYER_1
 10
-15.4177
 20
217.6012
 42
0.05685454964
  0
VERTEX
  8
LAYER_1
 10
-15.2934
 20
216.4004
 42
0.07540481703
  0
VERTEX
  8
LAYER_1
 10
-14.9492
 20
215.5069
 42
0.1774924504
  0
VERTEX
  8
LAYER_1
 10
-13.6777
 20
214.4527
 42
0.08958127581
  0
VERTEX
  8
LAYER_1
 10
-12.386
 20
214.2463
 42
0.07080596686
  0
VERTEX
  8
LAYER_1
 10
-11.2943
 20
214.3814
 42
0.08369033087
  0
VERTEX
  8
LAYER_1
 10
-10.4805
 20
214.7708
 42
0.04417423811
  0
VERTEX
  8
LAYER_1
 10
-9.8948
 20
215.2768
  0
VERTEX
  8
LAYER_1
 10
-10.8887
 20
216.2442
 42
-0.09875545259
  0
VERTEX
  8
LAYER_1
 10
-11.5612
 20
215.7667
 42
-0.1006814841
  0
VERTEX
  8
LAYER_1
 10
-12.3732
 20
215.6285
 42
-0.1070981108
  0
VERTEX
  8
LAYER_1
 10
-13.0555
 20
215.7638
 42
-0.2542521374
  0
VERTEX
  8
LAYER_1
 10
-13.7778
 20
216.7415
 42
-0.04997815034
  0
VERTEX
  8
LAYER_1
 10
-13.8074
 20
217.0861
  0
SEQEND
  0
POLYLINE
  8
LAYER_1
 40
0.05
 41
0.05
 66
1
 10
0
 20
0
 30
0
 70
1
  0
VERTEX
  8
LAYER_1
 10
-16.9018
 20
223.2773
  0
VERTEX
  8
LAYER_1
 10
-18.5517
 20
223.2773
  0
VERTEX
  8
LAYER_1
 10
-18.5517
 20
221.9454
  0
VERTEX
  8
LAYER_1
 10
-16.9018
 20
221.9454
  0
SEQEND
  0
POLYLINE
  8
LAYER_1
 40
0.05
 41
0.05
 66
1
 10
0
 20
0
 30
0
 70
1
  0
VERTEX
  8
LAYER_1
 10
-16.9146
 20
220.79
  0
VERTEX
  8
LAYER_1
 10
-18.5499
 20
220.79
  0
VERTEX
  8
LAYER_1
 10
-18.5499
 20
214.3218
  0
VERTEX
  8
LAYER_1
 10
-16.9146
 20
214.3218
  0
SEQEND
  0
POLYLINE
  8
LAYER_1
 40
0.05
 41
0.05
 66
1
 10
0
 20
0
 30
0
  0
VERTEX
  8
LAYER_1
 10
-19.8205
 20
215.1386
  0
VERTEX
  8
LAYER_1
 10
-20.9274
 20
216.2317
 42
-0.1123773458
  0
VERTEX
  8
LAYER_1
 10
-21.5025
 20
215.8017
 42
-0.09517045223
  0
VERTEX
  8
LAYER_1
 10
-21.984
 20
215.7164
 42
-0.2295666259
  0
VERTEX
  8
LAYER_1
 10
-22.9149
 20
216.1436
 42
-0.1146247369
  0
VERTEX
  8
LAYER_1
 10
-23.2025
 20
216.7765
 42
-0.05302023055
  0
VERTEX
  8
LAYER_1
 10
-23.2797
 20
217.6012
 42
-0.07909887362
  0
VERTEX
  8
LAYER_1
 10
-23.1547
 20
218.5928
 42
-0.092262399
  0
VERTEX
  8
LAYER_1
 10
-22.9149
 20
219.0461
 42
-0.2338488836
  0
VERTEX
  8
LAYER_1
 10
-21.984
 20
219.4732
 42
-0.128883052
  0
VERTEX
  8
LAYER_1
 10
-21.3835
 20
219.3322
 42
-0.07812769659
  0
VERTEX
  8
LAYER_1
 10
-20.9274
 20
218.9585
  0
VERTEX
  8
LAYER_1
 10
-19.8205
 20
220.0637
 42
0.170273791
  0
VERTEX
  8
LAYER_1
 10
-21.4399
 20
220.9062
 42
0.04126809408
  0
VERTEX
  8
LAYER_1
 10
-21.984
 20
220.9436
 42
0.07342899762
  0
VERTEX
  8
LAYER_1
 10
-22.9625
 20
220.804
 42
0.1715306153
  0
VERTEX
  8
LAYER_1
 10
-24.3547
 20
219.7917
 42
0.07792315428
  0
VERTEX
  8
LAYER_1
 10
-24.7438
 20
218.9398
 42
0.07121572719
  0
VERTEX
  8
LAYER_1
 10
-24.9151
 20
217.6012
 42
0.06071119945
  0
VERTEX
  8
LAYER_1
 10
-24.7811
 20
216.4004
 42
0.07599045696
  0
VERTEX
  8
LAYER_1
 10
-24.4186
 20
215.5069
 42
0.1707838222
  0
VERTEX
  8
LAYER_1
 10
-23.1195
 20
214.4409
 42
0.08917342928
  0
VERTEX
  8
LAYER_1
 10
-21.984
 20
214.2463
 42
0.07667723183
  0
VERTEX
  8
LAYER_1
 10
-21.0013
 20
214.3855
 42
0.1303789466
  0
VERTEX
  8
LAYER_1
 10
-19.8205
 20
215.1386
  0
SEQEND
  0
ENDBLK
  0
BLOCK
  8
LAYER_1
  2
AIGNBL01020005
 70
64
 10
0
 20
0
 30
0
  3
AIGNBL01020005
  0
POLYLINE
  8
LAYER_1
 40
0.05
 41
0.05
 66
1
 10
0
 20
0
 30
0
 70
1
  0
VERTEX
  8
LAYER_1
 10
0.3288
 20
212.6805
  0
VERTEX
  8
LAYER_1
 10
0.0009
 20
212.6805
  0
VERTEX
  8
LAYER_1
 10
-0.2479
 20
211.9109
  0
VERTEX
  8
LAYER_1
 10
-0.5066
 20
212.6805
  0
VERTEX
  8
LAYER_1
 10
-0.8342
 20
212.6805
  0
VERTEX
  8
LAYER_1
 10
-0.4084
 20
211.5234
  0
VERTEX
  8
LAYER_1
 10
-0.4611
 20
211.3704
 42
-0.396721792
  0
VERTEX
  8
LAYER_1
 10
-0.6165
 20
211.2581
  0
VERTEX
  8
LAYER_1
 10
-0.6882
 20
211.2581
  0
VERTEX
  8
LAYER_1
 10
-0.6882
 20
210.9783
  0
VERTEX
  8
LAYER_1
 10
-0.5662
 20
210.9783
 42
0.2105921841
  0
VERTEX
  8
LAYER_1
 10
-0.2985
 20
211.0741
  0
VERTEX
  8
LAYER_1
 10
-0.2048
 20
211.2343
  0
SEQEND
  0
POLYLINE
  8
LAYER_1
 40
0.05
 41
0.05
 66
1
 10
0
 20
0
 30
0
 70
1
  0
VERTEX
  8
LAYER_1
 10
-0.8704
 20
211.4352
  0
VERTEX
  8
LAYER_1
 10
-0.8704
 20
211.6977
  0
VERTEX
  8
LAYER_1
 10
-0.9899
 20
211.6977
 42
-0.4758158184
  0
VERTEX
  8
LAYER_1
 10
-1.0998
 20
211.8103
  0
VERTEX
  8
LAYER_1
 10
-1.0998
 20
213.137
  0
VERTEX
  8
LAYER_1
 10
-1.4109
 20
213.137
  0
VERTEX
  8
LAYER_1
 10
-1.4109
 20
211.7914
 42
0.4199153803
  0
VERTEX
  8
LAYER_1
 10
-1.0475
 20
211.4352
  0
SEQEND
  0
POLYLINE
  8
LAYER_1
 40
0.05
 41
0.05
 66
1
 10
0
 20
0
 30
0
 70
1
  0
VERTEX
  8
LAYER_1
 10
-1.9739
 20
211.894
 42
-0.2612643935
  0
VERTEX
  8
LAYER_1
 10
-2.0214
 20
211.7363
 42
-0.1972145384
  0
VERTEX
  8
LAYER_1
 10
-2.2057
 20
211.6763
 42
-0.4351815088
  0
VERTEX
  8
LAYER_1
 10
-2.3949
 20
211.8175
 42
-0.4650020324
  0
VERTEX
  8
LAYER_1
 10
-2.2105
 20
211.9609
  0
VERTEX
  8
LAYER_1
 10
-1.9739
 20
211.9609
  0
SEQEND
  0
POLYLINE
  8
LAYER_1
 40
0.05
 41
0.05
 66
1
 10
0
 20
0
 30
0
 70
1
  0
VERTEX
  8
LAYER_1
 10
-1.6624
 20
211.4352
  0
VERTEX
  8
LAYER_1
 10
-1.6624
 20
212.2551
 42
0.2205564812
  0
VERTEX
  8
LAYER_1
 10
-1.7881
 20
212.5772
 42
0.1806009816
  0
VERTEX
  8
LAYER_1
 10
-2.194
 20
212.6947
 42
0.2375604919
  0
VERTEX
  8
LAYER_1
 10
-2.6412
 20
212.5179
  0
VERTEX
  8
LAYER_1
 10
-2.4452
 20
212.3243
 42
-0.2464065653
  0
VERTEX
  8
LAYER_1
 10
-2.2057
 20
212.4322
 42
-0.4684872669
  0
VERTEX
  8
LAYER_1
 10
-1.9739
 20
212.2358
  0
VERTEX
  8
LAYER_1
 10
-1.9739
 20
212.1738
  0
VERTEX
  8
LAYER_1
 10
-2.2633
 20
212.1738
 42
0.2103132122
  0
VERTEX
  8
LAYER_1
 10
-2.6081
 20
212.0486
 42
0.18506809
  0
VERTEX
  8
LAYER_1
 10
-2.6942
 20
211.8127
 42
0.1945609364
  0
VERTEX
  8
LAYER_1
 10
-2.5912
 20
211.533
 42
0.1980708175
  0
VERTEX
  8
LAYER_1
 10
-2.2729
 20
211.4228
 42
0.2246292991
  0
VERTEX
  8
LAYER_1
 10
-1.9663
 20
211.5426
  0
VERTEX
  8
LAYER_1
 10
-1.9663
 20
211.4352
  0
SEQEND
  0
POLYLINE
  8
LAYER_1
 40
0.05
 41
0.05
 66
1
 10
0
 20
0
 30
0
 70
1
  0
VERTEX
  8
LAYER_1
 10
-2.8758
 20
211.4352
  0
VERTEX
  8
LAYER_1
 10
-2.8758
 20
211.6977
  0
VERTEX
  8
LAYER_1
 10
-2.9884
 20
211.6977
 42
-0.4605815503
  0
VERTEX
  8
LAYER_1
 10
-3.0963
 20
211.8103
  0
VERTEX
  8
LAYER_1
 10
-3.0963
 20
212.4081
  0
VERTEX
  8
LAYER_1
 10
-2.8758
 20
212.4081
  0
VERTEX
  8
LAYER_1
 10
-2.8758
 20
212.6444
  0
VERTEX
  8
LAYER_1
 10
-3.0963
 20
212.6444
  0
VERTEX
  8
LAYER_1
 10
-3.0963
 20
213.0126
  0
VERTEX
  8
LAYER_1
 10
-3.407
 20
213.0126
  0
VERTEX
  8
LAYER_1
 10
-3.407
 20
212.6444
  0
VERTEX
  8
LAYER_1
 10
-3.539
 20
212.6444
  0
VERTEX
  8
LAYER_1
 10
-3.539
 20
212.4081
  0
VERTEX
  8
LAYER_1
 10
-3.407
 20
212.4081
  0
VERTEX
  8
LAYER_1
 10
-3.407
 20
211.7914
 42
0.4187763975
  0
VERTEX
  8
LAYER_1
 10
-3.0456
 20
211.4352
  0
SEQEND
  0
POLYLINE
  8
LAYER_1
 40
0.05
 41
0.05
 66
1
 10
0
 20
0
 30
0
 70
1
  0
VERTEX
  8
LAYER_1
 10
-3.8091
 20
213.137
  0
VERTEX
  8
LAYER_1
 10
-4.1419
 20
213.137
  0
VERTEX
  8
LAYER_1
 10
-4.1419
 20
211.4352
  0
VERTEX
  8
LAYER_1
 10
-3.8091
 20
211.4352
  0
SEQEND
  0
POLYLINE
  8
LAYER_1
 40
0.05
 41
0.05
 66
1
 10
0
 20
0
 30
0
 70
1
  0
VERTEX
  8
LAYER_1
 10
-5.0562
 20
211.4352
  0
VERTEX
  8
LAYER_1
 10
-5.0562
 20
212.231
 42
0.2135728393
  0
VERTEX
  8
LAYER_1
 10
-5.183
 20
212.5844
 42
0.1976836271
  0
VERTEX
  8
LAYER_1
 10
-5.4775
 20
212.6947
 42
0.2038428178
  0
VERTEX
  8
LAYER_1
 10
-5.7886
 20
212.5658
  0
VERTEX
  8
LAYER_1
 10
-5.7886
 20
212.6805
  0
VERTEX
  8
LAYER_1
 10
-6.0925
 20
212.6805
  0
VERTEX
  8
LAYER_1
 10
-6.0925
 20
211.4352
  0
VERTEX
  8
LAYER_1
 10
-5.7814
 20
211.4352
  0
VERTEX
  8
LAYER_1
 10
-5.7814
 20
212.1882
 42
-0.4265123439
  0
VERTEX
  8
LAYER_1
 10
-5.573
 20
212.4149
 42
-0.4361688158
  0
VERTEX
  8
LAYER_1
 10
-5.3673
 20
212.1882
  0
VERTEX
  8
LAYER_1
 10
-5.3673
 20
211.4352
  0
SEQEND
  0
POLYLINE
  8
LAYER_1
 40
0.05
 41
0.05
 66
1
 10
0
 20
0
 30
0
 70
1
  0
VERTEX
  8
LAYER_1
 10
-6.437
 20
213.1467
  0
VERTEX
  8
LAYER_1
 10
-6.7553
 20
213.1467
  0
VERTEX
  8
LAYER_1
 10
-6.7553
 20
212.8931
  0
VERTEX
  8
LAYER_1
 10
-6.437
 20
212.8931
  0
SEQEND
  0
POLYLINE
  8
LAYER_1
 40
0.05
 41
0.05
 66
1
 10
0
 20
0
 30
0
 70
1
  0
VERTEX
  8
LAYER_1
 10
-6.4394
 20
212.6444
  0
VERTEX
  8
LAYER_1
 10
-6.7508
 20
212.6444
  0
VERTEX
  8
LAYER_1
 10
-6.7508
 20
211.4352
  0
VERTEX
  8
LAYER_1
 10
-6.4394
 20
211.4352
  0
SEQEND
  0
POLYLINE
  8
LAYER_1
 40
0.05
 41
0.05
 66
1
 10
0
 20
0
 30
0
  0
VERTEX
  8
LAYER_1
 10
-7.8994
 20
212.1738
  0
VERTEX
  8
LAYER_1
 10
-8.3735
 20
212.1738
  0
VERTEX
  8
LAYER_1
 10
-8.3445
 20
212.3074
 42
-0.3006254692
  0
VERTEX
  8
LAYER_1
 10
-8.1365
 20
212.4363
 42
-0.3004502708
  0
VERTEX
  8
LAYER_1
 10
-7.9284
 20
212.3074
  0
VERTEX
  8
LAYER_1
 10
-7.8994
 20
212.1738
  0
SEQEND
  0
POLYLINE
  8
LAYER_1
 40
0.05
 41
0.05
 66
1
 10
0
 20
0
 30
0
 70
1
  0
VERTEX
  8
LAYER_1
 10
-7.5932
 20
211.9609
  0
VERTEX
  8
LAYER_1
 10
-7.5932
 20
212.0925
 42
0.1727949422
  0
VERTEX
  8
LAYER_1
 10
-7.7261
 20
212.5161
 42
0.2293242446
  0
VERTEX
  8
LAYER_1
 10
-8.1365
 20
212.6947
 42
0.4082688927
  0
VERTEX
  8
LAYER_1
 10
-8.6757
 20
212.151
 42
0.02665393029
  0
VERTEX
  8
LAYER_1
 10
-8.6797
 20
212.0591
 42
0.1685110564
  0
VERTEX
  8
LAYER_1
 10
-8.5537
 20
211.6061
 42
0.2404561047
  0
VERTEX
  8
LAYER_1
 10
-8.103
 20
211.4207
 42
0.2250390665
  0
VERTEX
  8
LAYER_1
 10
-7.629
 20
211.6167
  0
VERTEX
  8
LAYER_1
 10
-7.8181
 20
211.801
 42
-0.2242451699
  0
VERTEX
  8
LAYER_1
 10
-8.1003
 20
211.6839
 42
-0.4312737558
  0
VERTEX
  8
LAYER_1
 10
-8.3735
 20
211.9609
  0
SEQEND
  0
POLYLINE
  8
LAYER_1
 40
0.05
 41
0.05
 66
1
 10
0
 20
0
 30
0
  0
VERTEX
  8
LAYER_1
 10
-9.2778
 20
212.0591
 42
-0.253040373
  0
VERTEX
  8
LAYER_1
 10
-9.3737
 20
211.7317
 42
-0.1751487426
  0
VERTEX
  8
LAYER_1
 10
-9.4911
 20
211.7004
 42
-0.3550784466
  0
VERTEX
  8
LAYER_1
 10
-9.6774
 20
211.8331
 42
-0.1590539016
  0
VERTEX
  8
LAYER_1
 10
-9.7016
 20
212.0591
 42
-0.2613372193
  0
VERTEX
  8
LAYER_1
 10
-9.6054
 20
212.3859
 42
-0.1728730088
  0
VERTEX
  8
LAYER_1
 10
-9.4911
 20
212.4149
 42
-0.3508351005
  0
VERTEX
  8
LAYER_1
 10
-9.3031
 20
212.2839
 42
-0.1617280931
  0
VERTEX
  8
LAYER_1
 10
-9.2778
 20
212.0591
  0
SEQEND
  0
POLYLINE
  8
LAYER_1
 40
0.05
 41
0.05
 66
1
 10
0
 20
0
 30
0
 70
1
  0
VERTEX
  8
LAYER_1
 10
-8.9667
 20
211.4352
  0
VERTEX
  8
LAYER_1
 10
-8.9667
 20
213.137
  0
VERTEX
  8
LAYER_1
 10
-9.2778
 20
213.137
  0
VERTEX
  8
LAYER_1
 10
-9.2778
 20
212.5707
 42
0.2263222596
  0
VERTEX
  8
LAYER_1
 10
-9.582
 20
212.6947
 42
0.2021447193
  0
VERTEX
  8
LAYER_1
 10
-9.8835
 20
212.5824
 42
0.1955994833
  0
VERTEX
  8
LAYER_1
 10
-10.0116
 20
212.1647
 42
0.01858076917
  0
VERTEX
  8
LAYER_1
 10
-10.013
 20
212.0591
 42
0.1992737425
  0
VERTEX
  8
LAYER_1
 10
-9.8835
 20
211.533
 42
0.1967798833
  0
VERTEX
  8
LAYER_1
 10
-9.5796
 20
211.4207
 42
0.2329721531
  0
VERTEX
  8
LAYER_1
 10
-9.2709
 20
211.5523
  0
VERTEX
  8
LAYER_1
 10
-9.2709
 20
211.4352
  0
SEQEND
  0
POLYLINE
  8
LAYER_1
 40
0.05
 41
0.05
 66
1
 10
0
 20
0
 30
0
 70
1
  0
VERTEX
  8
LAYER_1
 10
-10.6062
 20
211.894
 42
-0.2606176184
  0
VERTEX
  8
LAYER_1
 10
-10.6541
 20
211.7363
 42
-0.1975146001
  0
VERTEX
  8
LAYER_1
 10
-10.8384
 20
211.6763
 42
-0.4358674545
  0
VERTEX
  8
LAYER_1
 10
-11.0272
 20
211.8175
 42
-0.4654392595
  0
VERTEX
  8
LAYER_1
 10
-10.8433
 20
211.9609
  0
VERTEX
  8
LAYER_1
 10
-10.6062
 20
211.9609
  0
SEQEND
  0
POLYLINE
  8
LAYER_1
 40
0.05
 41
0.05
 66
1
 10
0
 20
0
 30
0
 70
1
  0
VERTEX
  8
LAYER_1
 10
-10.2951
 20
211.4352
  0
VERTEX
  8
LAYER_1
 10
-10.2951
 20
212.2551
 42
0.2204713638
  0
VERTEX
  8
LAYER_1
 10
-10.4207
 20
212.5772
 42
0.1806796456
  0
VERTEX
  8
LAYER_1
 10
-10.8267
 20
212.6947
 42
0.2375604919
  0
VERTEX
  8
LAYER_1
 10
-11.2739
 20
212.5179
  0
VERTEX
  8
LAYER_1
 10
-11.0779
 20
212.3243
 42
-0.2460763492
  0
VERTEX
  8
LAYER_1
 10
-10.8384
 20
212.4322
 42
-0.4683426501
  0
VERTEX
  8
LAYER_1
 10
-10.6062
 20
212.2358
  0
VERTEX
  8
LAYER_1
 10
-10.6062
 20
212.1738
  0
VERTEX
  8
LAYER_1
 10
-10.896
 20
212.1738
 42
0.2105830771
  0
VERTEX
  8
LAYER_1
 10
-11.2407
 20
212.0486
 42
0.1847749138
  0
VERTEX
  8
LAYER_1
 10
-11.3266
 20
211.8127
 42
0.1946881207
  0
VERTEX
  8
LAYER_1
 10
-11.2239
 20
211.533
 42
0.1984095291
  0
VERTEX
  8
LAYER_1
 10
-10.9053
 20
211.4228
 42
0.2251045156
  0
VERTEX
  8
LAYER_1
 10
-10.599
 20
211.5426
  0
VERTEX
  8
LAYER_1
 10
-10.599
 20
211.4352
  0
SEQEND
  0
POLYLINE
  8
LAYER_1
 40
0.05
 41
0.05
 66
1
 10
0
 20
0
 30
0
 70
1
  0
VERTEX
  8
LAYER_1
 10
-11.5733
 20
211.4352
  0
VERTEX
  8
LAYER_1
 10
-11.5733
 20
212.231
 42
0.2096424971
  0
VERTEX
  8
LAYER_1
 10
-11.7097
 20
212.5844
 42
0.1904514856
  0
VERTEX
  8
LAYER_1
 10
-12.016
 20
212.6947
 42
0.2201014615
  0
VERTEX
  8
LAYER_1
 10
-12.3894
 20
212.5369
 42
0.2475119635
  0
VERTEX
  8
LAYER_1
 10
-12.7198
 20
212.6947
 42
0.1971786765
  0
VERTEX
  8
LAYER_1
 10
-13.0309
 20
212.5658
  0
VERTEX
  8
LAYER_1
 10
-13.0309
 20
212.6805
  0
VERTEX
  8
LAYER_1
 10
-13.3348
 20
212.6805
  0
VERTEX
  8
LAYER_1
 10
-13.3348
 20
211.4352
  0
VERTEX
  8
LAYER_1
 10
-13.0233
 20
211.4352
  0
VERTEX
  8
LAYER_1
 10
-13.0233
 20
212.1882
 42
-0.4265481482
  0
VERTEX
  8
LAYER_1
 10
-12.8153
 20
212.4149
 42
-0.4361688158
  0
VERTEX
  8
LAYER_1
 10
-12.6096
 20
212.1882
  0
VERTEX
  8
LAYER_1
 10
-12.6096
 20
211.4352
  0
VERTEX
  8
LAYER_1
 10
-12.2985
 20
211.4352
  0
VERTEX
  8
LAYER_1
 10
-12.2985
 20
212.1951
 42
-0.4236814191
  0
VERTEX
  8
LAYER_1
 10
-12.0904
 20
212.4149
 42
-0.4367319455
  0
VERTEX
  8
LAYER_1
 10
-11.8844
 20
212.1882
  0
VERTEX
  8
LAYER_1
 10
-11.8844
 20
211.4352
  0
SEQEND
  0
POLYLINE
  8
LAYER_1
 40
0.05
 41
0.05
 66
1
 10
0
 20
0
 30
0
  0
VERTEX
  8
LAYER_1
 10
-13.8973
 20
212.0229
 42
-0.2061577285
  0
VERTEX
  8
LAYER_1
 10
-14.0003
 20
211.6401
 42
-0.1860547104
  0
VERTEX
  8
LAYER_1
 10
-14.1915
 20
211.5736
 42
-0.2912351062
  0
VERTEX
  8
LAYER_1
 10
-14.4327
 20
211.7044
 42
-0.1074256356
  0
VERTEX
  8
LAYER_1
 10
-14.4882
 20
212.0229
 42
-0.2074793493
  0
VERTEX
  8
LAYER_1
 10
-14.3843
 20
212.406
 42
-0.1847812498
  0
VERTEX
  8
LAYER_1
 10
-14.1915
 20
212.4725
 42
-0.2924886932
  0
VERTEX
  8
LAYER_1
 10
-13.9523
 20
212.3416
 42
-0.1065173685
  0
VERTEX
  8
LAYER_1
 10
-13.8973
 20
212.0229
  0
SEQEND
  0
POLYLINE
  8
LAYER_1
 40
0.05
 41
0.05
 66
1
 10
0
 20
0
 30
0
 70
1
  0
VERTEX
  8
LAYER_1
 10
-13.7247
 20
211.4352
  0
VERTEX
  8
LAYER_1
 10
-13.7247
 20
213.137
  0
VERTEX
  8
LAYER_1
 10
-13.8973
 20
213.137
  0
VERTEX
  8
LAYER_1
 10
-13.8973
 20
212.4749
 42
0.2526586678
  0
VERTEX
  8
LAYER_1
 10
-14.2298
 20
212.6258
 42
0.19617536
  0
VERTEX
  8
LAYER_1
 10
-14.5171
 20
212.5224
 42
0.2062736322
  0
VERTEX
  8
LAYER_1
 10
-14.6608
 20
212.0229
 42
0.1925049638
  0
VERTEX
  8
LAYER_1
 10
-14.5171
 20
211.5234
 42
0.1893263809
  0
VERTEX
  8
LAYER_1
 10
-14.2298
 20
211.4207
 42
0.2549957718
  0
VERTEX
  8
LAYER_1
 10
-13.8949
 20
211.5761
  0
VERTEX
  8
LAYER_1
 10
-13.8949
 20
211.4352
  0
SEQEND
  0
POLYLINE
  8
LAYER_1
 40
0.05
 41
0.05
 66
1
 10
0
 20
0
 30
0
 70
1
  0
VERTEX
  8
LAYER_1
 10
-15.0173
 20
211.4352
  0
VERTEX
  8
LAYER_1
 10
-15.0173
 20
212.1882
 42
0.2089360908
  0
VERTEX
  8
LAYER_1
 10
-15.1393
 20
212.5156
 42
0.1977212202
  0
VERTEX
  8
LAYER_1
 10
-15.4411
 20
212.6258
 42
0.2189458741
  0
VERTEX
  8
LAYER_1
 10
-15.7711
 20
212.4818
  0
VERTEX
  8
LAYER_1
 10
-15.7711
 20
212.6113
  0
VERTEX
  8
LAYER_1
 10
-15.9434
 20
212.6113
  0
VERTEX
  8
LAYER_1
 10
-15.9434
 20
211.4352
  0
VERTEX
  8
LAYER_1
 10
-15.7711
 20
211.4352
  0
VERTEX
  8
LAYER_1
 10
-15.7711
 20
212.1593
 42
-0.4284576329
  0
VERTEX
  8
LAYER_1
 10
-15.479
 20
212.4725
 42
-0.4466039224
  0
VERTEX
  8
LAYER_1
 10
-15.1896
 20
212.1593
  0
VERTEX
  8
LAYER_1
 10
-15.1896
 20
211.4352
  0
SEQEND
  0
POLYLINE
  8
LAYER_1
 40
0.05
 41
0.05
 66
1
 10
0
 20
0
 30
0
 70
1
  0
VERTEX
  8
LAYER_1
 10
-16.5346
 20
211.8506
 42
-0.2283736068
  0
VERTEX
  8
LAYER_1
 10
-16.5945
 20
211.6477
 42
-0.1936527339
  0
VERTEX
  8
LAYER_1
 10
-16.8553
 20
211.5688
 42
-0.4421173513
  0
VERTEX
  8
LAYER_1
 10
-17.1281
 20
211.77
 42
-0.3470924647
  0
VERTEX
  8
LAYER_1
 10
-16.9968
 20
211.9592
 42
-0.1261120874
  0
VERTEX
  8
LAYER_1
 10
-16.8625
 20
211.9774
  0
VERTEX
  8
LAYER_1
 10
-16.5346
 20
211.9774
  0
SEQEND
  0
POLYLINE
  8
LAYER_1
 40
0.05
 41
0.05
 66
1
 10
0
 20
0
 30
0
 70
1
  0
VERTEX
  8
LAYER_1
 10
-16.362
 20
211.4352
  0
VERTEX
  8
LAYER_1
 10
-16.362
 20
212.233
 42
0.2383829599
  0
VERTEX
  8
LAYER_1
 10
-16.4898
 20
212.5337
 42
0.1599209503
  0
VERTEX
  8
LAYER_1
 10
-16.8336
 20
212.6258
 42
0.2578644009
  0
VERTEX
  8
LAYER_1
 10
-17.2501
 20
212.4487
  0
VERTEX
  8
LAYER_1
 10
-17.133
 20
212.3409
 42
-0.2730960706
  0
VERTEX
  8
LAYER_1
 10
-16.8364
 20
212.4776
 42
-0.4521672334
  0
VERTEX
  8
LAYER_1
 10
-16.5346
 20
212.2193
  0
VERTEX
  8
LAYER_1
 10
-16.5346
 20
212.1066
  0
VERTEX
  8
LAYER_1
 10
-16.8863
 20
212.1066
 42
0.2189203862
  0
VERTEX
  8
LAYER_1
 10
-17.2226
 20
211.9822
 42
0.17494127
  0
VERTEX
  8
LAYER_1
 10
-17.2956
 20
211.7673
 42
0.2075768001
  0
VERTEX
  8
LAYER_1
 10
-17.2071
 20
211.5282
 42
0.2128603639
  0
VERTEX
  8
LAYER_1
 10
-16.8742
 20
211.4207
 42
0.2247839487
  0
VERTEX
  8
LAYER_1
 10
-16.5346
 20
211.5471
  0
VERTEX
  8
LAYER_1
 10
-16.5346
 20
211.4352
  0
SEQEND
  0
POLYLINE
  8
LAYER_1
 40
0.05
 41
0.05
 66
1
 10
0
 20
0
 30
0
 70
1
  0
VERTEX
  8
LAYER_1
 10
-17.6211
 20
211.4352
  0
VERTEX
  8
LAYER_1
 10
-17.6211
 20
212.1903
 42
0.2163078196
  0
VERTEX
  8
LAYER_1
 10
-17.7538
 20
212.5281
 42
0.1798246735
  0
VERTEX
  8
LAYER_1
 10
-18.0449
 20
212.6258
 42
0.2190712165
  0
VERTEX
  8
LAYER_1
 10
-18.3749
 20
212.4818
  0
VERTEX
  8
LAYER_1
 10
-18.3749
 20
213.137
  0
VERTEX
  8
LAYER_1
 10
-18.5475
 20
213.137
  0
VERTEX
  8
LAYER_1
 10
-18.5475
 20
211.4352
  0
VERTEX
  8
LAYER_1
 10
-18.3749
 20
211.4352
  0
VERTEX
  8
LAYER_1
 10
-18.3749
 20
212.1617
 42
-0.4350388577
  0
VERTEX
  8
LAYER_1
 10
-18.0807
 20
212.4725
 42
-0.4517618327
  0
VERTEX
  8
LAYER_1
 10
-17.7934
 20
212.1617
  0
VERTEX
  8
LAYER_1
 10
-17.7934
 20
211.4352
  0
SEQEND
  0
ENDBLK
  0
BLOCK
  8
LAYER_1
  2
AIGNBL01020007
 70
64
 10
0
 20
0
 30
0
  3
AIGNBL01020007
  0
INSERT
  8
LAYER_1
  2
AIGNBL01030008
 10
0
 20
0
 30
0
  0
ENDBLK
  0
BLOCK
  8
LAYER_1
  2
AIGNBL01020010
 70
64
 10
0
 20
0
 30
0
  3
AIGNBL01020010
  0
INSERT
  8
LAYER_1
  2
AIGNBL01030011
 10
0
 20
0
 30
0
  0
INSERT
  8
LAYER_1
  2
AIGNBL01030012
 10
0
 20
0
 30
0
  0
INSERT
  8
LAYER_1
  2
AIGNBL01030013
 10
0
 20
0
 30
0
  0
INSERT
  8
LAYER_1
  2
AIGNBL01030014
 10
0
 20
0
 30
0
  0
INSERT
  8
LAYER_1
  2
AIGNBL01030015
 10
0
 20
0
 30
0
  0
INSERT
  8
LAYER_1
  2
AIGNBL01030016
 10
0
 20
0
 30
0
  0
INSERT
  8
LAYER_1
  2
AIGNBL01030017
 10
0
 20
0
 30
0
  0
INSERT
  8
LAYER_1
  2
AIGNBL01030018
 10
0
 20
0
 30
0
  0
INSERT
  8
LAYER_1
  2
AIGNBL01030019
 10
0
 20
0
 30
0
  0
INSERT
  8
LAYER_1
  2
AIGNBL0103001A
 10
0
 20
0
 30
0
  0
INSERT
  8
LAYER_1
  2
AIGNBL0103001B
 10
0
 20
0
 30
0
  0
INSERT
  8
LAYER_1
  2
AIGNBL0103001C
 10
0
 20
0
 30
0
  0
INSERT
  8
LAYER_1
  2
AIGNBL0103001D
 10
0
 20
0
 30
0
  0
INSERT
  8
LAYER_1
  2
AIGNBL0103001E
 10
0
 20
0
 30
0
  0
INSERT
  8
LAYER_1
  2
AIGNBL0103001F
 10
0
 20
0
 30
0
  0
INSERT
  8
LAYER_1
  2
AIGNBL01030020
 10
0
 20
0
 30
0
  0
INSERT
  8
LAYER_1
  2
AIGNBL01030021
 10
0
 20
0
 30
0
  0
INSERT
  8
LAYER_1
  2
AIGNBL01030022
 10
0
 20
0
 30
0
  0
INSERT
  8
LAYER_1
  2
AIGNBL01030023
 10
0
 20
0
 30
0
  0
INSERT
  8
LAYER_1
  2
AIGNBL01030024
 10
0
 20
0
 30
0
  0
INSERT
  8
LAYER_1
  2
AIGNBL01030025
 10
0
 20
0
 30
0
  0
INSERT
  8
LAYER_1
  2
AIGNBL01030026
 10
0
 20
0
 30
0
  0
INSERT
  8
LAYER_1
  2
AIGNBL01030027
 10
0
 20
0
 30
0
  0
ENDBLK
  0
BLOCK
  8
LAYER_1
  2
AIGNBL01010002
 70
64
 10
0
 20
0
 30
0
  3
AIGNBL01010002
  0
POLYLINE
  8
LAYER_1
 40
0.7056
 41
0.7056
 66
1
 10
0
 20
0
 30
0
 70
1
  0
VERTEX
  8
LAYER_1
 10
251.6749
 20
230.337
  0
VERTEX
  8
LAYER_1
 10
251.6749
 20
33.3285
  0
VERTEX
  8
LAYER_1
 10
-30.3177
 20
33.3285
  0
VERTEX
  8
LAYER_1
 10
-30.3177
 20
230.337
  0
SEQEND
  0
ENDBLK
  0
BLOCK
  8
LAYER_1
  2
AIGNBL01010003
 70
64
 10
0
 20
0
 30
0
  3
AIGNBL01010003
  0
INSERT
  8
LAYER_1
  2
AIGNBL01020004
 10
0
 20
0
 30
0
  0
POLYLINE
  8
LAYER_1
 40
0.05
 41
0.05
 66
1
 10
0
 20
0
 30
0
  0
VERTEX
  8
LAYER_1
 10
-6.457
 20
223.2684
  0
VERTEX
  8
LAYER_1
 10
-8.0924
 20
223.2684
  0
VERTEX
  8
LAYER_1
 10
-8.0924
 20
216.1939
 42
0.09304299953
  0
VERTEX
  8
LAYER_1
 10
-7.9518
 20
215.4241
 42
0.2872011141
  0
VERTEX
  8
LAYER_1
 10
-6.4597
 20
214.3359
  0
VERTEX
  8
LAYER_1
 10
-6.457
 20
223.2684
  0
SEQEND
  0
INSERT
  8
LAYER_1
  2
AIGNBL01020005
 10
0
 20
0
 30
0
  0
ENDBLK
  0
BLOCK
  8
LAYER_1
  2
AIGNBL01010006
 70
64
 10
0
 20
0
 30
0
  3
AIGNBL01010006
  0
INSERT
  8
LAYER_1
  2
AIGNBL01020007
 10
0
 20
0
 30
0
  0
INSERT
  8
LAYER_1
  2
AIGNBL01020010
 10
0
 20
0
 30
0
  0
ENDBLK
  0
BLOCK
  8
LAYER_1
  2
AIGNBL01010028
 70
64
 10
0
 20
0
 30
0
  3
AIGNBL01010028
  0
POLYLINE
  8
LAYER_1
  6
AIGENLINE001
 40
0.1411
 41
0.1411
 66
1
 10
0
 20
0
 30
0
 70
128
  0
VERTEX
  8
LAYER_1
 10
86.0716
 20
97.5658
  0
VERTEX
  8
LAYER_1
 10
86.0716
 20
97.3357
  0
SEQEND
  0
POLYLINE
  8
LAYER_1
  6
AIGENLINE001
 40
0.1411
 41
0.1411
 66
1
 10
0
 20
0
 30
0
 70
128
  0
VERTEX
  8
LAYER_1
 10
86.4168
 20
97.5658
  0
VERTEX
  8
LAYER_1
 10
86.4168
 20
97.3357
  0
SEQEND
  0
ENDBLK
  0
BLOCK
  8
LAYER_1
  2
AIGNBL01010029
 70
64
 10
0
 20
0
 30
0
  3
AIGNBL01010029
  0
POLYLINE
  8
LAYER_1
  6
AIGENLINE002
 40
0.1411
 41
0.1411
 66
1
 10
0
 20
0
 30
0
 70
128
  0
VERTEX
  8
LAYER_1
 10
86.4168
 20
97.5658
  0
VERTEX
  8
LAYER_1
 10
86.4071
 20
97.5713
  0
SEQEND
  0
POLYLINE
  8
LAYER_1
  6
AIGENLINE002
 40
0.1411
 41
0.1411
 66
1
 10
0
 20
0
 30
0
 70
128
  0
VERTEX
  8
LAYER_1
 10
86.0819
 20
97.5713
  0
VERTEX
  8
LAYER_1
 10
86.0723
 20
97.5658
  0
SEQEND
  0
ENDBLK
  0
BLOCK
  8
LAYER_1
  2
AIGNBL0101002A
 70
64
 10
0
 20
0
 30
0
  3
AIGNBL0101002A
  0
POLYLINE
  8
LAYER_1
  6
AIGENLINE001
 40
0.1411
 41
0.1411
 66
1
 10
0
 20
0
 30
0
 70
128
  0
VERTEX
  8
LAYER_1
 10
92.4168
 20
97.5658
  0
VERTEX
  8
LAYER_1
 10
92.4168
 20
97.3357
  0
SEQEND
  0
POLYLINE
  8
LAYER_1
  6
AIGENLINE001
 40
0.1411
 41
0.1411
 66
1
 10
0
 20
0
 30
0
 70
128
  0
VERTEX
  8
LAYER_1
 10
92.0715
 20
97.5658
  0
VERTEX
  8
LAYER_1
 10
92.0715
 20
97.3357
  0
SEQEND
  0
ENDBLK
  0
BLOCK
  8
LAYER_1
  2
AIGNBL0101002B
 70
64
 10
0
 20
0
 30
0
  3
AIGNBL0101002B
  0
POLYLINE
  8
LAYER_1
  6
AIGENLINE002
 40
0.1411
 41
0.1411
 66
1
 10
0
 20
0
 30
0
 70
128
  0
VERTEX
  8
LAYER_1
 10
92.0812
 20
97.5713
  0
VERTEX
  8
LAYER_1
 10
92.0715
 20
97.5658
  0
SEQEND
  0
POLYLINE
  8
LAYER_1
  6
AIGENLINE002
 40
0.1411
 41
0.1411
 66
1
 10
0
 20
0
 30
0
 70
128
  0
VERTEX
  8
LAYER_1
 10
92.4168
 20
97.5658
  0
VERTEX
  8
LAYER_1
 10
92.4071
 20
97.5713
  0
SEQEND
  0
ENDBLK
  0
BLOCK
  8
LAYER_1
  2
AIGNBL0101002C
 70
64
 10
0
 20
0
 30
0
  3
AIGNBL0101002C
  0
POLYLINE
  8
LAYER_1
  6
AIGENLINE003
 40
0.1411
 41
0.1411
 66
1
 10
0
 20
0
 30
0
 70
128
  0
VERTEX
  8
LAYER_1
 10
92.2355
 20
135.2731
  0
VERTEX
  8
LAYER_1
 10
91.5431
 20
135.2731
  0
SEQEND
  0
POLYLINE
  8
LAYER_1
  6
AIGENLINE003
 40
0.1411
 41
0.1411
 66
1
 10
0
 20
0
 30
0
 70
128
  0
VERTEX
  8
LAYER_1
 10
86.9432
 20
135.2731
  0
VERTEX
  8
LAYER_1
 10
86.2507
 20
135.2731
  0
SEQEND
  0
ENDBLK
  0
BLOCK
  8
LAYER_1
  2
AIGNBL0101002D
 70
64
 10
0
 20
0
 30
0
  3
AIGNBL0101002D
  0
POLYLINE
  8
LAYER_1
  6
AIGENLINE001
 40
0.1411
 41
0.1411
 66
1
 10
0
 20
0
 30
0
 70
128
  0
VERTEX
  8
LAYER_1
 10
186.3962
 20
97.5658
  0
VERTEX
  8
LAYER_1
 10
186.3962
 20
97.3357
  0
SEQEND
  0
POLYLINE
  8
LAYER_1
  6
AIGENLINE001
 40
0.1411
 41
0.1411
 66
1
 10
0
 20
0
 30
0
 70
128
  0
VERTEX
  8
LAYER_1
 10
186.0517
 20
97.5658
  0
VERTEX
  8
LAYER_1
 10
186.0517
 20
97.3357
  0
SEQEND
  0
ENDBLK
  0
BLOCK
  8
LAYER_1
  2
AIGNBL0101002E
 70
64
 10
0
 20
0
 30
0
  3
AIGNBL0101002E
  0
POLYLINE
  8
LAYER_1
  6
AIGENLINE002
 40
0.1411
 41
0.1411
 66
1
 10
0
 20
0
 30
0
 70
128
  0
VERTEX
  8
LAYER_1
 10
186.0613
 20
97.5713
  0
VERTEX
  8
LAYER_1
 10
186.0517
 20
97.5658
  0
SEQEND
  0
POLYLINE
  8
LAYER_1
  6
AIGENLINE002
 40
0.1411
 41
0.1411
 66
1
 10
0
 20
0
 30
0
 70
128
  0
VERTEX
  8
LAYER_1
 10
186.3962
 20
97.5658
  0
VERTEX
  8
LAYER_1
 10
186.3879
 20
97.5713
  0
SEQEND
  0
ENDBLK
  0
BLOCK
  8
LAYER_1
  2
AIGNBL0101002F
 70
64
 10
0
 20
0
 30
0
  3
AIGNBL0101002F
  0
POLYLINE
  8
LAYER_1
 40
0.1058
 41
0.1058
 66
1
 10
0
 20
0
 30
0
  0
VERTEX
  8
LAYER_1
 10
190.8407
 20
188.1222
  0
VERTEX
  8
LAYER_1
 10
190.4421
 20
188.1637
  0
VERTEX
  8
LAYER_1
 10
188.2576
 20
189.5252
  0
VERTEX
  8
LAYER_1
 10
187.0304
 20
190.2906
  0
SEQEND
  0
POLYLINE
  8
LAYER_1
 40
0.1058
 41
0.1058
 66
1
 10
0
 20
0
 30
0
  0
VERTEX
  8
LAYER_1
 10
184.839
 20
190.9837
  0
VERTEX
  8
LAYER_1
 10
184.5648
 20
191.0118
  0
VERTEX
  8
LAYER_1
 10
184.591
 20
191.0442
  0
VERTEX
  8
LAYER_1
 10
184.6251
 20
191.0741
  0
VERTEX
  8
LAYER_1
 10
184.6671
 20
191.1036
  0
VERTEX
  8
LAYER_1
 10
184.7243
 20
191.1351
  0
VERTEX
  8
LAYER_1
 10
184.8563
 20
191.1902
  0
VERTEX
  8
LAYER_1
 10
185.022
 20
191.2393
  0
VERTEX
  8
LAYER_1
 10
185.2062
 20
191.2765
  0
VERTEX
  8
LAYER_1
 10
185.4064
 20
191.3036
  0
VERTEX
  8
LAYER_1
 10
185.8405
 20
191.3236
  0
SEQEND
  0
ENDBLK
  0
BLOCK
  8
LAYER_1
  2
AIGNBL01010030
 70
64
 10
0
 20
0
 30
0
  3
AIGNBL01010030
  0
POLYLINE
  8
LAYER_1
 40
0.1058
 41
0.1058
 66
1
 10
0
 20
0
 30
0
  0
VERTEX
  8
LAYER_1
 10
186.9498
 20
184.7899
  0
VERTEX
  8
LAYER_1
 10
190.0832
 20
188.1022
  0
VERTEX
  8
LAYER_1
 10
187.9041
 20
189.4658
  0
VERTEX
  8
LAYER_1
 10
187.0259
 20
190.0167
  0
SEQEND
  0
POLYLINE
  8
LAYER_1
 40
0.1058
 41
0.1058
 66
1
 10
0
 20
0
 30
0
  0
VERTEX
  8
LAYER_1
 10
189.3807
 20
187.3586
  0
VERTEX
  8
LAYER_1
 10
187.9172
 20
188.291
  0
VERTEX
  8
LAYER_1
 10
187.0087
 20
188.8692
  0
SEQEND
  0
ENDBLK
  0
BLOCK
  8
LAYER_1
  2
AIGNBL01010031
 70
64
 10
0
 20
0
 30
0
  3
AIGNBL01010031
  0
POLYLINE
  8
LAYER_1
 40
0.1058
 41
0.1058
 66
1
 10
0
 20
0
 30
0
  0
VERTEX
  8
LAYER_1
 10
190.7597
 20
188.0101
  0
VERTEX
  8
LAYER_1
 10
190.5234
 20
187.9697
  0
VERTEX
  8
LAYER_1
 10
190.2878
 20
187.9291
  0
VERTEX
  8
LAYER_1
 10
186.9443
 20
184.3753
  0
SEQEND
  0
POLYLINE
  8
LAYER_1
 40
0.1058
 41
0.1058
 66
1
 10
0
 20
0
 30
0
  0
VERTEX
  8
LAYER_1
 10
186.9443
 20
184.3708
  0
VERTEX
  8
LAYER_1
 10
189.9743
 20
187.5949
  0
VERTEX
  8
LAYER_1
 10
189.975
 20
187.5059
  0
VERTEX
  8
LAYER_1
 10
190.1114
 20
187.4878
  0
VERTEX
  8
LAYER_1
 10
190.2533
 20
187.4774
  0
VERTEX
  8
LAYER_1
 10
190.5369
 20
187.4692
  0
VERTEX
  8
LAYER_1
 10
190.8293
 20
187.4831
  0
VERTEX
  8
LAYER_1
 10
191.1036
 20
187.5181
  0
VERTEX
  8
LAYER_1
 10
191.228
 20
187.5434
  0
VERTEX
  8
LAYER_1
 10
191.3472
 20
187.5737
  0
VERTEX
  8
LAYER_1
 10
191.4519
 20
187.6068
  0
VERTEX
  8
LAYER_1
 10
191.5459
 20
187.6447
  0
VERTEX
  8
LAYER_1
 10
191.6255
 20
187.6848
  0
VERTEX
  8
LAYER_1
 10
191.6906
 20
187.7279
  0
VERTEX
  8
LAYER_1
 10
191.7371
 20
187.7704
  0
VERTEX
  8
LAYER_1
 10
191.7706
 20
187.8173
  0
VERTEX
  8
LAYER_1
 10
191.7706
 20
187.906
  0
SEQEND
  0
POLYLINE
  8
LAYER_1
 40
0.1058
 41
0.1058
 66
1
 10
0
 20
0
 30
0
  0
VERTEX
  8
LAYER_1
 10
190.3987
 20
187.9484
  0
VERTEX
  8
LAYER_1
 10
190.3987
 20
188.0474
  0
VERTEX
  8
LAYER_1
 10
190.2871
 20
187.9291
  0
VERTEX
  8
LAYER_1
 10
189.975
 20
187.5954
  0
VERTEX
  8
LAYER_1
 10
190.1148
 20
187.5775
  0
VERTEX
  8
LAYER_1
 10
190.2557
 20
187.5662
  0
VERTEX
  8
LAYER_1
 10
190.5448
 20
187.5593
  0
VERTEX
  8
LAYER_1
 10
190.8328
 20
187.5732
  0
VERTEX
  8
LAYER_1
 10
191.1022
 20
187.6075
  0
VERTEX
  8
LAYER_1
 10
191.2269
 20
187.6328
  0
VERTEX
  8
LAYER_1
 10
191.3437
 20
187.6618
  0
VERTEX
  8
LAYER_1
 10
191.4433
 20
187.6936
  0
VERTEX
  8
LAYER_1
 10
191.5404
 20
187.7315
  0
VERTEX
  8
LAYER_1
 10
191.6162
 20
187.7696
  0
VERTEX
  8
LAYER_1
 10
191.6851
 20
187.8137
  0
VERTEX
  8
LAYER_1
 10
191.7354
 20
187.8581
  0
VERTEX
  8
LAYER_1
 10
191.7699
 20
187.9063
  0
SEQEND
  0
ENDBLK
  0
BLOCK
  8
LAYER_1
  2
AIGNBL01010032
 70
64
 10
0
 20
0
 30
0
  3
AIGNBL01010032
  0
POLYLINE
  8
LAYER_1
 40
0.1058
 41
0.1058
 66
1
 10
0
 20
0
 30
0
 70
1
  0
VERTEX
  8
LAYER_1
 10
185.6345
 20
191.009
  0
VERTEX
  8
LAYER_1
 10
185.6555
 20
191.0112
  0
VERTEX
  8
LAYER_1
 10
185.6831
 20
191.0171
  0
VERTEX
  8
LAYER_1
 10
185.7034
 20
191.0247
  0
VERTEX
  8
LAYER_1
 10
185.7196
 20
191.0347
  0
VERTEX
  8
LAYER_1
 10
185.722
 20
191.0516
  0
VERTEX
  8
LAYER_1
 10
185.7196
 20
191.0547
  0
VERTEX
  8
LAYER_1
 10
185.7113
 20
191.0608
  0
VERTEX
  8
LAYER_1
 10
185.6848
 20
191.0719
  0
VERTEX
  8
LAYER_1
 10
185.5945
 20
191.0803
  0
VERTEX
  8
LAYER_1
 10
185.5508
 20
191.076
  0
VERTEX
  8
LAYER_1
 10
185.5325
 20
191.0727
  0
VERTEX
  8
LAYER_1
 10
185.5149
 20
191.0672
  0
VERTEX
  8
LAYER_1
 10
185.497
 20
191.0593
  0
VERTEX
  8
LAYER_1
 10
185.4895
 20
191.0541
  0
VERTEX
  8
LAYER_1
 10
185.4846
 20
191.0352
  0
VERTEX
  8
LAYER_1
 10
185.487
 20
191.0319
  0
VERTEX
  8
LAYER_1
 10
185.4874
 20
191.0319
  0
VERTEX
  8
LAYER_1
 10
185.495
 20
191.0257
  0
VERTEX
  8
LAYER_1
 10
185.5211
 20
191.0154
  0
VERTEX
  8
LAYER_1
 10
185.5521
 20
191.009
  0
VERTEX
  8
LAYER_1
 10
185.5756
 20
191.0068
  0
SEQEND
  0
ENDBLK
  0
BLOCK
  8
LAYER_1
  2
AIGNBL01010033
 70
64
 10
0
 20
0
 30
0
  3
AIGNBL01010033
  0
POLYLINE
  8
LAYER_1
 40
0.1058
 41
0.1058
 66
1
 10
0
 20
0
 30
0
  0
VERTEX
  8
LAYER_1
 10
190.5737
 20
187.8891
  0
VERTEX
  8
LAYER_1
 10
190.5972
 20
187.8996
  0
VERTEX
  8
LAYER_1
 10
190.6247
 20
187.906
  0
VERTEX
  8
LAYER_1
 10
190.6254
 20
187.906
  0
VERTEX
  8
LAYER_1
 10
190.6468
 20
187.9096
  0
VERTEX
  8
LAYER_1
 10
190.7095
 20
187.9105
  0
VERTEX
  8
LAYER_1
 10
190.7343
 20
187.9074
  0
VERTEX
  8
LAYER_1
 10
190.7667
 20
187.9017
  0
VERTEX
  8
LAYER_1
 10
190.7956
 20
187.8891
  0
VERTEX
  8
LAYER_1
 10
190.8038
 20
187.8829
  0
VERTEX
  8
LAYER_1
 10
190.8066
 20
187.8793
  0
VERTEX
  8
LAYER_1
 10
190.8025
 20
187.8588
  0
VERTEX
  8
LAYER_1
 10
190.7956
 20
187.8531
  0
VERTEX
  8
LAYER_1
 10
190.7777
 20
187.8442
  0
VERTEX
  8
LAYER_1
 10
190.7597
 20
187.839
  0
VERTEX
  8
LAYER_1
 10
190.7404
 20
187.834
  0
VERTEX
  8
LAYER_1
 10
190.6957
 20
187.8295
  0
VERTEX
  8
LAYER_1
 10
190.5992
 20
187.8395
  0
VERTEX
  8
LAYER_1
 10
190.5706
 20
187.8504
  0
VERTEX
  8
LAYER_1
 10
190.5617
 20
187.8581
  0
VERTEX
  8
LAYER_1
 10
190.5582
 20
187.8616
  0
VERTEX
  8
LAYER_1
 10
190.5613
 20
187.8802
  0
VERTEX
  8
LAYER_1
 10
190.5768
 20
187.8916
  0
SEQEND
  0
ENDBLK
  0
BLOCK
  8
LAYER_1
  2
AIGNBL01010034
 70
64
 10
0
 20
0
 30
0
  3
AIGNBL01010034
  0
POLYLINE
  8
LAYER_1
 40
0.1058
 41
0.1058
 66
1
 10
0
 20
0
 30
0
  0
VERTEX
  8
LAYER_1
 10
175.8497
 20
213.4278
  0
VERTEX
  8
LAYER_1
 10
174.832
 20
213.3093
  0
SEQEND
  0
ENDBLK
  0
BLOCK
  8
LAYER_1
  2
AIGNBL01010035
 70
64
 10
0
 20
0
 30
0
  3
AIGNBL01010035
  0
POLYLINE
  8
LAYER_1
 40
0.1058
 41
0.1058
 66
1
 10
0
 20
0
 30
0
  0
VERTEX
  8
LAYER_1
 10
200.7085
 20
213.3396
 42
0.04303541502
  0
VERTEX
  8
LAYER_1
 10
199.1172
 20
214.0738
 42
0.02623509135
  0
VERTEX
  8
LAYER_1
 10
196.4668
 20
214.945
 42
0.04131599337
  0
VERTEX
  8
LAYER_1
 10
194.7042
 20
215.2951
 42
0.05092826517
  0
VERTEX
  8
LAYER_1
 10
194.209
 20
215.303
  0
SEQEND
  0
POLYLINE
  8
LAYER_1
 40
0.1058
 41
0.1058
 66
1
 10
0
 20
0
 30
0
  0
VERTEX
  8
LAYER_1
 10
192.8899
 20
215.2256
  0
VERTEX
  8
LAYER_1
 10
191.4474
 20
215.4502
  0
VERTEX
  8
LAYER_1
 10
189.9564
 20
215.6333
  0
VERTEX
  8
LAYER_1
 10
188.4233
 20
215.773
  0
VERTEX
  8
LAYER_1
 10
186.8754
 20
215.8688
  0
VERTEX
  8
LAYER_1
 10
185.3661
 20
215.9152
  0
VERTEX
  8
LAYER_1
 10
183.8847
 20
215.9129
  0
VERTEX
  8
LAYER_1
 10
182.4922
 20
215.8616
  0
VERTEX
  8
LAYER_1
 10
181.1896
 20
215.7624
  0
VERTEX
  8
LAYER_1
 10
180.1172
 20
215.633
  0
VERTEX
  8
LAYER_1
 10
179.1436
 20
215.4675
  0
VERTEX
  8
LAYER_1
 10
178.2992
 20
215.2731
  0
VERTEX
  8
LAYER_1
 10
177.914
 20
215.1614
  0
VERTEX
  8
LAYER_1
 10
177.5637
 20
215.0436
  0
VERTEX
  8
LAYER_1
 10
177.2467
 20
214.9185
  0
VERTEX
  8
LAYER_1
 10
176.967
 20
214.789
  0
VERTEX
  8
LAYER_1
 10
176.7145
 20
214.6487
  0
VERTEX
  8
LAYER_1
 10
176.5026
 20
214.5037
  0
VERTEX
  8
LAYER_1
 10
176.3296
 20
214.3556
  0
VERTEX
  8
LAYER_1
 10
176.1912
 20
214.2003
  0
VERTEX
  8
LAYER_1
 10
176.094
 20
214.0412
  0
VERTEX
  8
LAYER_1
 10
176.0334
 20
213.8795
  0
SEQEND
  0
POLYLINE
  8
LAYER_1
 40
0.1058
 41
0.1058
 66
1
 10
0
 20
0
 30
0
  0
VERTEX
  8
LAYER_1
 10
176.0313
 20
213.9649
  0
VERTEX
  8
LAYER_1
 10
175.9992
 20
214.1533
  0
VERTEX
  8
LAYER_1
 10
176.0182
 20
214.34
  0
VERTEX
  8
LAYER_1
 10
176.0892
 20
214.5235
  0
VERTEX
  8
LAYER_1
 10
176.2104
 20
214.703
  0
VERTEX
  8
LAYER_1
 10
176.3841
 20
214.878
  0
VERTEX
  8
LAYER_1
 10
176.6063
 20
215.0452
  0
VERTEX
  8
LAYER_1
 10
176.8719
 20
215.2008
  0
VERTEX
  8
LAYER_1
 10
177.1861
 20
215.3522
  0
VERTEX
  8
LAYER_1
 10
177.5506
 20
215.4969
  0
VERTEX
  8
LAYER_1
 10
177.9464
 20
215.6268
  0
VERTEX
  8
LAYER_1
 10
178.4008
 20
215.7525
  0
VERTEX
  8
LAYER_1
 10
178.879
 20
215.8642
  0
VERTEX
  8
LAYER_1
 10
179.3944
 20
215.9648
  0
VERTEX
  8
LAYER_1
 10
179.9642
 20
216.0588
  0
VERTEX
  8
LAYER_1
 10
181.1803
 20
216.2068
  0
VERTEX
  8
LAYER_1
 10
182.4839
 20
216.3048
  0
VERTEX
  8
LAYER_1
 10
183.8778
 20
216.3558
  0
VERTEX
  8
LAYER_1
 10
185.3599
 20
216.3582
  0
VERTEX
  8
LAYER_1
 10
186.8696
 20
216.3134
  0
VERTEX
  8
LAYER_1
 10
188.4195
 20
216.2188
  0
VERTEX
  8
LAYER_1
 10
189.9543
 20
216.0791
  0
VERTEX
  8
LAYER_1
 10
191.446
 20
215.8988
  0
VERTEX
  8
LAYER_1
 10
192.8881
 20
215.6768
  0
SEQEND
  0
ENDBLK
  0
BLOCK
  8
LAYER_1
  2
AIGNBL01010036
 70
64
 10
0
 20
0
 30
0
  3
AIGNBL01010036
  0
POLYLINE
  8
LAYER_1
 40
0.1058
 41
0.1058
 66
1
 10
0
 20
0
 30
0
  0
VERTEX
  8
LAYER_1
 10
185.836
 20
190.9673
  0
VERTEX
  8
LAYER_1
 10
185.5198
 20
190.9158
  0
SEQEND
  0
ENDBLK
  0
BLOCK
  8
LAYER_1
  2
AIGNBL01010037
 70
64
 10
0
 20
0
 30
0
  3
AIGNBL01010037
  0
POLYLINE
  8
LAYER_1
 40
0.1058
 41
0.1058
 66
1
 10
0
 20
0
 30
0
  0
VERTEX
  8
LAYER_1
 10
194.209
 20
215.7525
 42
-0.06439580948
  0
VERTEX
  8
LAYER_1
 10
195.4372
 20
215.6037
 42
-0.02403912557
  0
VERTEX
  8
LAYER_1
 10
198.4306
 20
214.8132
 42
-0.04609016673
  0
VERTEX
  8
LAYER_1
 10
200.4164
 20
213.9837
 42
-0.04002861461
  0
VERTEX
  8
LAYER_1
 10
201.0812
 20
213.5575
 42
-0.6974909254
  0
VERTEX
  8
LAYER_1
 10
201.0909
 20
213.3952
 42
-0.03709749344
  0
VERTEX
  8
LAYER_1
 10
200.014
 20
213.2528
  0
VERTEX
  8
LAYER_1
 10
199.8552
 20
213.1832
  0
VERTEX
  8
LAYER_1
 10
200.0105
 20
212.9698
  0
VERTEX
  8
LAYER_1
 10
200.1053
 20
212.7564
  0
VERTEX
  8
LAYER_1
 10
200.138
 20
212.5507
  0
VERTEX
  8
LAYER_1
 10
200.1097
 20
212.346
  0
VERTEX
  8
LAYER_1
 10
200.0209
 20
212.1449
  0
VERTEX
  8
LAYER_1
 10
199.8738
 20
211.9536
  0
VERTEX
  8
LAYER_1
 10
199.6715
 20
211.7714
  0
VERTEX
  8
LAYER_1
 10
199.4063
 20
211.5933
  0
VERTEX
  8
LAYER_1
 10
199.08
 20
211.421
  0
VERTEX
  8
LAYER_1
 10
198.7055
 20
211.2638
  0
VERTEX
  8
LAYER_1
 10
198.2756
 20
211.1146
  0
VERTEX
  8
LAYER_1
 10
197.8081
 20
210.9818
  0
VERTEX
  8
LAYER_1
 10
197.271
 20
210.8552
  0
VERTEX
  8
LAYER_1
 10
196.7074
 20
210.7451
  0
VERTEX
  8
LAYER_1
 10
196.1003
 20
210.6474
  0
VERTEX
  8
LAYER_1
 10
195.4523
 20
210.5651
  0
VERTEX
  8
LAYER_1
 10
193.9919
 20
210.4347
  0
VERTEX
  8
LAYER_1
 10
192.4279
 20
210.3679
  0
VERTEX
  8
LAYER_1
 10
190.7467
 20
210.3627
  0
VERTEX
  8
LAYER_1
 10
188.9993
 20
210.4206
  0
VERTEX
  8
LAYER_1
 10
187.2148
 20
210.5436
  0
VERTEX
  8
LAYER_1
 10
185.4733
 20
210.7227
  0
VERTEX
  8
LAYER_1
 10
183.7862
 20
210.9572
  0
VERTEX
  8
LAYER_1
 10
182.199
 20
211.2412
  0
VERTEX
  8
LAYER_1
 10
181.8035
 20
211.2524
 42
-0.03709071309
  0
VERTEX
  8
LAYER_1
 10
180.4782
 20
211.1349
 42
-0.07856100399
  0
VERTEX
  8
LAYER_1
 10
179.1797
 20
211.3924
 42
-0.03537222478
  0
VERTEX
  8
LAYER_1
 10
176.669
 20
212.2153
  0
VERTEX
  8
LAYER_1
 10
176.0168
 20
212.5133
 42
-0.1011878936
  0
VERTEX
  8
LAYER_1
 10
174.7139
 20
213.438
 42
-0.3147164136
  0
VERTEX
  8
LAYER_1
 10
174.594
 20
213.7092
 42
-0.1847196557
  0
VERTEX
  8
LAYER_1
 10
175.0198
 20
213.8038
  0
VERTEX
  8
LAYER_1
 10
175.8356
 20
213.8979
  0
SEQEND
  0
ENDBLK
  0
ENDSEC
  0
SECTION
  2
ENTITIES
  0
TEXT
  8
LAYER_1
 10
-26.2556
 20
43.1712
 11
-26.2556
 21
43.1712
 40
3.2995
 41
0.5
  1
仕様
  0
POLYLINE
  8
LAYER_1
 40
0.3528
 41
0.3528
 66
1
 10
0
 20
0
 30
0
  0
VERTEX
  8
LAYER_1
 10
250.6748
 20
51.9507
  0
VERTEX
  8
LAYER_1
 10
-29.3346
 20
51.9507
  0
SEQEND
  0
INSERT
  8
LAYER_1
  2
AIGNBL01010002
 10
0
 20
0
 30
0
  0
POLYLINE
  8
LAYER_1
 40
0.3528
 41
0.3528
 66
1
 10
0
 20
0
 30
0
  0
VERTEX
  8
LAYER_1
 10
-29.3178
 20
229.3369
  0
VERTEX
  8
LAYER_1
 10
-29.3178
 20
34.3283
  0
VERTEX
  8
LAYER_1
 10
250.6748
 20
34.3283
  0
VERTEX
  8
LAYER_1
 10
250.6748
 20
229.3369
  0
VERTEX
  8
LAYER_1
 10
-29.3178
 20
229.3369
  0
SEQEND
  0
POLYLINE
  8
LAYER_1
 40
0.3528
 41
0.3528
 66
1
 10
0
 20
0
 30
0
  0
VERTEX
  8
LAYER_1
 10
250.6748
 20
60.4597
  0
VERTEX
  8
LAYER_1
 10
-29.3346
 20
60.4597
  0
SEQEND
  0
POLYLINE
  8
LAYER_1
 40
0.3528
 41
0.3528
 66
1
 10
0
 20
0
 30
0
  0
VERTEX
  8
LAYER_1
 10
250.6748
 20
43.4416
  0
VERTEX
  8
LAYER_1
 10
100.3837
 20
43.4416
  0
SEQEND
  0
TEXT
  8
LAYER_1
 10
188.1725
 20
45.7175
 11
188.1725
 21
45.7175
 40
3.7615
 41
0.5
  1
-
  0
TEXT
  8
LAYER_1
 10
182.8808
 20
49.4743
 11
182.8808
 21
49.4743
 40
2.1997
 41
0.5
  1
縮尺
  0
POLYLINE
  8
LAYER_1
 40
0.3528
 41
0.3528
 66
1
 10
0
 20
0
 30
0
  0
VERTEX
  8
LAYER_1
 10
181.3526
 20
43.4416
  0
VERTEX
  8
LAYER_1
 10
181.3526
 20
51.9507
  0
SEQEND
  0
TEXT
  8
LAYER_1
 10
101.641
 20
57.9834
 11
101.641
 21
57.9834
 40
2.1997
 41
0.5
  1
品番
  0
TEXT
  8
LAYER_1
 10
-28.1609
 20
57.9834
 11
-28.1609
 21
57.9834
 40
2.1997
 41
0.5
  1
品名
  0
TEXT
  8
LAYER_1
 10
101.641
 20
49.4743
 11
101.641
 21
49.4743
 40
2.1997
 41
0.5
  1
重量
  0
TEXT
  8
LAYER_1
 10
105.0013
 20
54.1714
 11
105.0013
 21
54.1714
 40
4.6883
 41
0.5
  1
CIE-CALAOF/（洗面ボウル） CIE-CASTO/（フレーム） CIE-CAPIOC/（ボトムシェルフ）
  0
TEXT
  8
LAYER_1
 10
107.1887
 20
45.7175
 11
107.1887
 21
45.7175
 40
3.7615
 41
0.5
  1
35.6kg
  0
POLYLINE
  8
LAYER_1
 40
0.3528
 41
0.3528
 66
1
 10
0
 20
0
 30
0
  0
VERTEX
  8
LAYER_1
 10
100.3837
 20
34.9539
  0
VERTEX
  8
LAYER_1
 10
100.3837
 20
60.4597
  0
SEQEND
  0
TEXT
  8
LAYER_1
 10
-15.3768
 20
54.891
 11
-15.3768
 21
54.891
 40
4.1465
 41
0.5
  1
カティーノ自立式洗面台700ｍｍ
  0
INSERT
  8
LAYER_1
  2
AIGNBL01010003
 10
0
 20
0
 30
0
  0
TEXT
  8
LAYER_1
 10
-15.6835
 20
43.9625
 11
-15.6835
 21
43.9625
 40
3.5541
 41
0.5
  1
●サイズ：W700×D500×H830mm●排水金具別途●床固定ボルト付属
  0
TEXT
  8
LAYER_1
 10
-15.6835
 20
39.2124
 11
-15.6835
 21
39.2124
 40
3.1177
 41
0.5
  1
●設置方法：床固定
  0
TEXT
  8
LAYER_1
 10
237.263
 20
63.2582
 11
237.263
 21
63.2582
 40
2.9618
 41
0.5
  1
単位：mm
  0
TEXT
  8
LAYER_1
 10
6.5217
 20
219.7385
 11
6.5217
 21
219.7385
 40
2.5981
 41
0.5
  1
※陶器製品は寸法公差が発生します。
  0
TEXT
  8
LAYER_1
 10
134.702
 20
39.5359
 11
134.702
 21
39.5359
 40
3.3853
 41
0.5
  1
●TEL 0120-65-1232●FAX 06-6532-1580
  0
TEXT
  8
LAYER_1
 10
134.702
 20
36.0212
 11
134.702
 21
36.0212
 40
3.3853
 41
0.5
  1
hits@hiratatile.co.jp
  0
TEXT
  8
LAYER_1
 10
240.3591
 20
225.8432
 11
240.3591
 21
225.8432
 40
2.0732
 41
0.5
  1
170628RT
  0
INSERT
  8
LAYER_1
  2
AIGNBL01010006
 10
0
 20
0
 30
0
  0
POLYLINE
  8
LAYER_1
 40
0.1058
 41
0.1058
 66
1
 10
0
 20
0
 30
0
  0
VERTEX
  8
LAYER_1
 10
168.2026
 20
134.4469
 42
0.3628733181
  0
VERTEX
  8
LAYER_1
 10
168.4011
 20
134.2712
  0
SEQEND
  0
POLYLINE
  8
LAYER_1
 40
0.1058
 41
0.1058
 66
1
 10
0
 20
0
 30
0
  0
VERTEX
  8
LAYER_1
 10
166.3085
 20
149.9151
  0
VERTEX
  8
LAYER_1
 10
168.2026
 20
134.4469
  0
SEQEND
  0
POLYLINE
  8
LAYER_1
 40
0.1058
 41
0.1058
 66
1
 10
0
 20
0
 30
0
  0
VERTEX
  8
LAYER_1
 10
166.1494
 20
150.9162
 42
0.2708317148
  0
VERTEX
  8
LAYER_1
 10
165.7125
 20
151.1718
  0
SEQEND
  0
POLYLINE
  8
LAYER_1
 40
0.1058
 41
0.1058
 66
1
 10
0
 20
0
 30
0
  0
VERTEX
  8
LAYER_1
 10
161.4234
 20
151.1718
  0
VERTEX
  8
LAYER_1
 10
165.7119
 20
151.1718
  0
SEQEND
  0
POLYLINE
  8
LAYER_1
 40
0.1058
 41
0.1058
 66
1
 10
0
 20
0
 30
0
  0
VERTEX
  8
LAYER_1
 10
161.2229
 20
151.3723
 42
0.4142129268
  0
VERTEX
  8
LAYER_1
 10
161.4234
 20
151.1718
  0
SEQEND
  0
POLYLINE
  8
LAYER_1
 40
0.1058
 41
0.1058
 66
1
 10
0
 20
0
 30
0
  0
VERTEX
  8
LAYER_1
 10
211.0245
 20
151.1718
 42
0.3951266403
  0
VERTEX
  8
LAYER_1
 10
211.2243
 20
151.3723
  0
SEQEND
  0
POLYLINE
  8
LAYER_1
 40
0.1058
 41
0.1058
 66
1
 10
0
 20
0
 30
0
  0
VERTEX
  8
LAYER_1
 10
206.7354
 20
151.1718
  0
VERTEX
  8
LAYER_1
 10
211.0245
 20
151.1718
  0
SEQEND
  0
POLYLINE
  8
LAYER_1
 40
0.1058
 41
0.1058
 66
1
 10
0
 20
0
 30
0
  0
VERTEX
  8
LAYER_1
 10
206.7354
 20
151.1718
 42
0.2642124751
  0
VERTEX
  8
LAYER_1
 10
206.2978
 20
150.9155
  0
SEQEND
  0
POLYLINE
  8
LAYER_1
 40
0.1058
 41
0.1058
 66
1
 10
0
 20
0
 30
0
  0
VERTEX
  8
LAYER_1
 10
199.8865
 20
134.4469
  0
VERTEX
  8
LAYER_1
 10
200.6802
 20
139.8783
  0
SEQEND
  0
POLYLINE
  8
LAYER_1
 40
0.1058
 41
0.1058
 66
1
 10
0
 20
0
 30
0
  0
VERTEX
  8
LAYER_1
 10
199.6888
 20
134.2712
 42
0.3803447829
  0
VERTEX
  8
LAYER_1
 10
199.8865
 20
134.4469
  0
SEQEND
  0
POLYLINE
  8
LAYER_1
 40
0.1058
 41
0.1058
 66
1
 10
0
 20
0
 30
0
  0
VERTEX
  8
LAYER_1
 10
161.4213
 20
152.2715
  0
VERTEX
  8
LAYER_1
 10
211.0245
 20
152.2715
  0
SEQEND
  0
POLYLINE
  8
LAYER_1
 40
0.1058
 41
0.1058
 66
1
 10
0
 20
0
 30
0
 70
1
  0
VERTEX
  8
LAYER_1
 10
205.2381
 20
69.4132
  0
VERTEX
  8
LAYER_1
 10
204.7393
 20
69.4132
  0
VERTEX
  8
LAYER_1
 10
204.7393
 20
69.2699
  0
VERTEX
  8
LAYER_1
 10
205.2381
 20
69.2699
  0
SEQEND
  0
POLYLINE
  8
LAYER_1
 40
0.1058
 41
0.1058
 66
1
 10
0
 20
0
 30
0
 70
1
  0
VERTEX
  8
LAYER_1
 10
167.2098
 20
69.4132
  0
VERTEX
  8
LAYER_1
 10
167.7107
 20
69.4132
  0
VERTEX
  8
LAYER_1
 10
167.7107
 20
69.2705
  0
VERTEX
  8
LAYER_1
 10
167.2098
 20
69.2705
  0
SEQEND
  0
POLYLINE
  8
LAYER_1
 40
0.1058
 41
0.1058
 66
1
 10
0
 20
0
 30
0
  0
VERTEX
  8
LAYER_1
 10
186.2239
 20
97.7704
  0
VERTEX
  8
LAYER_1
 10
186.2239
 20
94.7711
  0
SEQEND
  0
POLYLINE
  8
LAYER_1
 40
0.1058
 41
0.1058
 66
1
 10
0
 20
0
 30
0
  0
VERTEX
  8
LAYER_1
 10
170.0451
 20
94.7711
  0
VERTEX
  8
LAYER_1
 10
202.4042
 20
94.7711
  0
SEQEND
  0
POLYLINE
  8
LAYER_1
 40
0.1058
 41
0.1058
 66
1
 10
0
 20
0
 30
0
  0
VERTEX
  8
LAYER_1
 10
203.3729
 20
69.4132
  0
VERTEX
  8
LAYER_1
 10
206.3426
 20
69.4132
  0
SEQEND
  0
POLYLINE
  8
LAYER_1
 40
0.1058
 41
0.1058
 66
1
 10
0
 20
0
 30
0
  0
VERTEX
  8
LAYER_1
 10
203.8642
 20
134.2712
  0
VERTEX
  8
LAYER_1
 10
204.0475
 20
134.2712
  0
SEQEND
  0
POLYLINE
  8
LAYER_1
 40
0.1058
 41
0.1058
 66
1
 10
0
 20
0
 30
0
  0
VERTEX
  8
LAYER_1
 10
171.5534
 20
134.2712
  0
VERTEX
  8
LAYER_1
 10
199.6888
 20
134.2712
  0
SEQEND
  0
POLYLINE
  8
LAYER_1
 40
0.1058
 41
0.1058
 66
1
 10
0
 20
0
 30
0
  0
VERTEX
  8
LAYER_1
 10
168.4011
 20
134.2712
  0
VERTEX
  8
LAYER_1
 10
168.5878
 20
134.2712
  0
SEQEND
  0
POLYLINE
  8
LAYER_1
 40
0.1058
 41
0.1058
 66
1
 10
0
 20
0
 30
0
  0
VERTEX
  8
LAYER_1
 10
169.0756
 20
69.4132
  0
VERTEX
  8
LAYER_1
 10
166.1053
 20
69.4132
  0
SEQEND
  0
POLYLINE
  8
LAYER_1
 40
0.1058
 41
0.1058
 66
1
 10
0
 20
0
 30
0
 70
1
  0
VERTEX
  8
LAYER_1
 10
161.3745
 20
149.9151
  0
VERTEX
  8
LAYER_1
 10
211.0748
 20
149.9151
  0
VERTEX
  8
LAYER_1
 10
211.0748
 20
150.9162
  0
VERTEX
  8
LAYER_1
 10
161.3745
 20
150.9162
  0
SEQEND
  0
POLYLINE
  8
LAYER_1
 40
0.1058
 41
0.1058
 66
1
 10
0
 20
0
 30
0
  0
VERTEX
  8
LAYER_1
 10
205.2395
 20
98.2727
  0
VERTEX
  8
LAYER_1
 10
207.0247
 20
98.2707
  0
SEQEND
  0
POLYLINE
  8
LAYER_1
 40
0.1058
 41
0.1058
 66
1
 10
0
 20
0
 30
0
  0
VERTEX
  8
LAYER_1
 10
170.1774
 20
98.2707
  0
VERTEX
  8
LAYER_1
 10
202.2698
 20
98.2707
  0
SEQEND
  0
POLYLINE
  8
LAYER_1
 40
0.1058
 41
0.1058
 66
1
 10
0
 20
0
 30
0
  0
VERTEX
  8
LAYER_1
 10
165.4238
 20
98.2707
  0
VERTEX
  8
LAYER_1
 10
167.2098
 20
98.2658
  0
SEQEND
  0
POLYLINE
  8
LAYER_1
 40
0.1058
 41
0.1058
 66
1
 10
0
 20
0
 30
0
  0
VERTEX
  8
LAYER_1
 10
206.725
 20
97.7704
  0
VERTEX
  8
LAYER_1
 10
205.2588
 20
97.7704
  0
SEQEND
  0
POLYLINE
  8
LAYER_1
 40
0.1058
 41
0.1058
 66
1
 10
0
 20
0
 30
0
  0
VERTEX
  8
LAYER_1
 10
202.2319
 20
99.2711
  0
VERTEX
  8
LAYER_1
 10
186.153
 20
99.2711
  0
SEQEND
  0
POLYLINE
  8
LAYER_1
 40
0.1058
 41
0.1058
 66
1
 10
0
 20
0
 30
0
  0
VERTEX
  8
LAYER_1
 10
206.55
 20
97.7704
  0
VERTEX
  8
LAYER_1
 10
206.7243
 20
97.7704
  0
VERTEX
  8
LAYER_1
 10
206.7243
 20
97.9709
 42
-0.3937457214
  0
VERTEX
  8
LAYER_1
 10
207.0247
 20
98.2707
  0
VERTEX
  8
LAYER_1
 10
208.4255
 20
98.2707
 42
0.3930587173
  0
VERTEX
  8
LAYER_1
 10
208.7239
 20
98.5711
  0
VERTEX
  8
LAYER_1
 10
208.7239
 20
98.9707
 42
0.3910075815
  0
VERTEX
  8
LAYER_1
 10
208.4255
 20
99.2711
  0
VERTEX
  8
LAYER_1
 10
205.2016
 20
99.2711
  0
SEQEND
  0
POLYLINE
  8
LAYER_1
 40
0.1058
 41
0.1058
 66
1
 10
0
 20
0
 30
0
  0
VERTEX
  8
LAYER_1
 10
167.2483
 20
99.2711
  0
VERTEX
  8
LAYER_1
 10
164.0237
 20
99.2711
  0
SEQEND
  0
POLYLINE
  8
LAYER_1
 40
0.1058
 41
0.1058
 66
1
 10
0
 20
0
 30
0
  0
VERTEX
  8
LAYER_1
 10
165.7236
 20
97.7704
  0
VERTEX
  8
LAYER_1
 10
167.1905
 20
97.7704
  0
SEQEND
  0
POLYLINE
  8
LAYER_1
 40
0.1058
 41
0.1058
 66
1
 10
0
 20
0
 30
0
  0
VERTEX
  8
LAYER_1
 10
170.2166
 20
99.2711
  0
VERTEX
  8
LAYER_1
 10
186.153
 20
99.2711
  0
SEQEND
  0
POLYLINE
  8
LAYER_1
 40
0.1058
 41
0.1058
 66
1
 10
0
 20
0
 30
0
  0
VERTEX
  8
LAYER_1
 10
166.0385
 20
97.7704
  0
VERTEX
  8
LAYER_1
 10
165.7236
 20
97.7704
  0
VERTEX
  8
LAYER_1
 10
165.7236
 20
97.9709
 42
0.4142988144
  0
VERTEX
  8
LAYER_1
 10
165.4238
 20
98.2707
  0
VERTEX
  8
LAYER_1
 10
164.0237
 20
98.2707
 42
-0.3932270306
  0
VERTEX
  8
LAYER_1
 10
163.724
 20
98.5711
  0
VERTEX
  8
LAYER_1
 10
163.724
 20
98.9707
 42
-0.3919248453
  0
VERTEX
  8
LAYER_1
 10
164.0237
 20
99.2711
  0
VERTEX
  8
LAYER_1
 10
166.0956
 20
99.2711
  0
SEQEND
  0
POLYLINE
  8
LAYER_1
 40
0.1058
 41
0.1058
 66
1
 10
0
 20
0
 30
0
  0
VERTEX
  8
LAYER_1
 10
202.2884
 20
97.7704
  0
VERTEX
  8
LAYER_1
 10
170.1588
 20
97.7704
  0
SEQEND
  0
POLYLINE
  8
LAYER_1
 40
0.1058
 41
0.1058
 66
1
 10
0
 20
0
 30
0
  0
VERTEX
  8
LAYER_1
 10
161.2229
 20
151.3661
  0
VERTEX
  8
LAYER_1
 10
161.2229
 20
152.0724
  0
SEQEND
  0
POLYLINE
  8
LAYER_1
 40
0.1058
 41
0.1058
 66
1
 10
0
 20
0
 30
0
  0
VERTEX
  8
LAYER_1
 10
161.4213
 20
152.2715
  0
VERTEX
  8
LAYER_1
 10
161.4234
 20
152.2715
  0
SEQEND
  0
POLYLINE
  8
LAYER_1
 40
0.1058
 41
0.1058
 66
1
 10
0
 20
0
 30
0
  0
VERTEX
  8
LAYER_1
 10
161.4213
 20
152.2715
 42
0.4123218717
  0
VERTEX
  8
LAYER_1
 10
161.2229
 20
152.0717
  0
SEQEND
  0
POLYLINE
  8
LAYER_1
 40
0.1058
 41
0.1058
 66
1
 10
0
 20
0
 30
0
  0
VERTEX
  8
LAYER_1
 10
211.2243
 20
152.0724
 42
0.4141716124
  0
VERTEX
  8
LAYER_1
 10
211.0245
 20
152.2722
  0
SEQEND
  0
POLYLINE
  8
LAYER_1
 40
0.1058
 41
0.1058
 66
1
 10
0
 20
0
 30
0
  0
VERTEX
  8
LAYER_1
 10
161.2229
 20
151.3723
 42
0.4142129268
  0
VERTEX
  8
LAYER_1
 10
161.4234
 20
151.1718
  0
SEQEND
  0
POLYLINE
  8
LAYER_1
 40
0.1058
 41
0.1058
 66
1
 10
0
 20
0
 30
0
  0
VERTEX
  8
LAYER_1
 10
211.0245
 20
151.1718
 42
0.3951266403
  0
VERTEX
  8
LAYER_1
 10
211.2243
 20
151.3723
  0
SEQEND
  0
POLYLINE
  8
LAYER_1
 40
0.1058
 41
0.1058
 66
1
 10
0
 20
0
 30
0
  0
VERTEX
  8
LAYER_1
 10
169.9659
 20
150.9162
  0
VERTEX
  8
LAYER_1
 10
169.9659
 20
151.1718
  0
SEQEND
  0
POLYLINE
  8
LAYER_1
 40
0.1058
 41
0.1058
 66
1
 10
0
 20
0
 30
0
  0
VERTEX
  8
LAYER_1
 10
170.6666
 20
151.1718
  0
VERTEX
  8
LAYER_1
 10
170.6666
 20
150.9155
  0
SEQEND
  0
POLYLINE
  8
LAYER_1
 40
0.1058
 41
0.1058
 66
1
 10
0
 20
0
 30
0
  0
VERTEX
  8
LAYER_1
 10
201.782
 20
150.9162
  0
VERTEX
  8
LAYER_1
 10
201.782
 20
151.1718
  0
SEQEND
  0
POLYLINE
  8
LAYER_1
 40
0.1058
 41
0.1058
 66
1
 10
0
 20
0
 30
0
  0
VERTEX
  8
LAYER_1
 10
202.482
 20
151.1718
  0
VERTEX
  8
LAYER_1
 10
202.482
 20
150.9155
  0
SEQEND
  0
POLYLINE
  8
LAYER_1
 40
0.1058
 41
0.1058
 66
1
 10
0
 20
0
 30
0
  0
VERTEX
  8
LAYER_1
 10
211.2243
 20
151.3723
  0
VERTEX
  8
LAYER_1
 10
211.2243
 20
152.0724
  0
SEQEND
  0
POLYLINE
  8
LAYER_1
 40
0.1058
 41
0.1058
 66
1
 10
0
 20
0
 30
0
  0
VERTEX
  8
LAYER_1
 10
161.4234
 20
151.1718
  0
VERTEX
  8
LAYER_1
 10
211.0245
 20
151.1718
  0
SEQEND
  0
POLYLINE
  8
LAYER_1
 40
0.1058
 41
0.1058
 66
1
 10
0
 20
0
 30
0
  0
VERTEX
  8
LAYER_1
 10
169.9659
 20
151.1718
  0
VERTEX
  8
LAYER_1
 10
170.6659
 20
151.1718
  0
SEQEND
  0
POLYLINE
  8
LAYER_1
 40
0.1058
 41
0.1058
 66
1
 10
0
 20
0
 30
0
  0
VERTEX
  8
LAYER_1
 10
201.782
 20
151.1718
  0
VERTEX
  8
LAYER_1
 10
202.4814
 20
151.1718
  0
SEQEND
  0
POLYLINE
  8
LAYER_1
 40
0.1058
 41
0.1058
 66
1
 10
0
 20
0
 30
0
  0
VERTEX
  8
LAYER_1
 10
170.0361
 20
149.9151
  0
VERTEX
  8
LAYER_1
 10
166.9548
 20
69.4132
  0
SEQEND
  0
POLYLINE
  8
LAYER_1
 40
0.1058
 41
0.1058
 66
1
 10
0
 20
0
 30
0
  0
VERTEX
  8
LAYER_1
 10
169.1872
 20
149.9151
  0
VERTEX
  8
LAYER_1
 10
166.1053
 20
69.4132
  0
SEQEND
  0
POLYLINE
  8
LAYER_1
 40
0.1058
 41
0.1058
 66
1
 10
0
 20
0
 30
0
  0
VERTEX
  8
LAYER_1
 10
202.4173
 20
149.9151
  0
VERTEX
  8
LAYER_1
 10
205.4938
 20
69.4132
  0
SEQEND
  0
POLYLINE
  8
LAYER_1
 40
0.1058
 41
0.1058
 66
1
 10
0
 20
0
 30
0
  0
VERTEX
  8
LAYER_1
 10
203.2661
 20
149.9151
  0
VERTEX
  8
LAYER_1
 10
206.3426
 20
69.4132
  0
SEQEND
  0
POLYLINE
  8
LAYER_1
 40
0.1058
 41
0.1058
 66
1
 10
0
 20
0
 30
0
  0
VERTEX
  8
LAYER_1
 10
200.2965
 20
149.9151
  0
VERTEX
  8
LAYER_1
 10
203.3729
 20
69.4132
  0
SEQEND
  0
POLYLINE
  8
LAYER_1
 40
0.1058
 41
0.1058
 66
1
 10
0
 20
0
 30
0
  0
VERTEX
  8
LAYER_1
 10
172.1521
 20
149.9151
  0
VERTEX
  8
LAYER_1
 10
169.0756
 20
69.4132
  0
SEQEND
  0
POLYLINE
  8
LAYER_1
 40
0.1058
 41
0.1058
 66
1
 10
0
 20
0
 30
0
  0
VERTEX
  8
LAYER_1
 10
166.1053
 20
69.4132
  0
VERTEX
  8
LAYER_1
 10
166.9548
 20
69.4132
  0
VERTEX
  8
LAYER_1
 10
169.0756
 20
69.4132
  0
SEQEND
  0
POLYLINE
  8
LAYER_1
 40
0.1058
 41
0.1058
 66
1
 10
0
 20
0
 30
0
  0
VERTEX
  8
LAYER_1
 10
60.5861
 20
98.2707
  0
VERTEX
  8
LAYER_1
 10
58.4433
 20
98.2707
  0
SEQEND
  0
POLYLINE
  8
LAYER_1
 40
0.1058
 41
0.1058
 66
1
 10
0
 20
0
 30
0
  0
VERTEX
  8
LAYER_1
 10
115.0069
 20
98.2707
  0
VERTEX
  8
LAYER_1
 10
63.4821
 20
98.2707
  0
SEQEND
  0
POLYLINE
  8
LAYER_1
 40
0.1058
 41
0.1058
 66
1
 10
0
 20
0
 30
0
  0
VERTEX
  8
LAYER_1
 10
120.0451
 20
98.2707
  0
VERTEX
  8
LAYER_1
 10
117.9022
 20
98.2707
  0
SEQEND
  0
POLYLINE
  8
LAYER_1
 40
0.1058
 41
0.1058
 66
1
 10
0
 20
0
 30
0
  0
VERTEX
  8
LAYER_1
 10
121.4465
 20
99.2711
  0
VERTEX
  8
LAYER_1
 10
117.8588
 20
99.2711
  0
SEQEND
  0
POLYLINE
  8
LAYER_1
 40
0.1058
 41
0.1058
 66
1
 10
0
 20
0
 30
0
  0
VERTEX
  8
LAYER_1
 10
114.9635
 20
99.2711
  0
VERTEX
  8
LAYER_1
 10
63.5248
 20
99.2711
  0
SEQEND
  0
POLYLINE
  8
LAYER_1
 40
0.1058
 41
0.1058
 66
1
 10
0
 20
0
 30
0
  0
VERTEX
  8
LAYER_1
 10
117.9236
 20
97.7704
  0
VERTEX
  8
LAYER_1
 10
119.746
 20
97.7704
  0
VERTEX
  8
LAYER_1
 10
119.746
 20
97.9709
 42
-0.3940177745
  0
VERTEX
  8
LAYER_1
 10
120.0451
 20
98.2707
  0
VERTEX
  8
LAYER_1
 10
121.4465
 20
98.2707
 42
0.3931460804
  0
VERTEX
  8
LAYER_1
 10
121.7448
 20
98.5711
  0
VERTEX
  8
LAYER_1
 10
121.7448
 20
98.9707
 42
0.3910215506
  0
VERTEX
  8
LAYER_1
 10
121.4465
 20
99.2711
  0
VERTEX
  8
LAYER_1
 10
118.0097
 20
99.2711
  0
SEQEND
  0
POLYLINE
  8
LAYER_1
 40
0.1058
 41
0.1058
 66
1
 10
0
 20
0
 30
0
  0
VERTEX
  8
LAYER_1
 10
63.4607
 20
97.7704
  0
VERTEX
  8
LAYER_1
 10
115.0276
 20
97.7704
  0
SEQEND
  0
POLYLINE
  8
LAYER_1
 40
0.1058
 41
0.1058
 66
1
 10
0
 20
0
 30
0
  0
VERTEX
  8
LAYER_1
 10
58.7437
 20
97.7704
  0
VERTEX
  8
LAYER_1
 10
60.5655
 20
97.7704
  0
SEQEND
  0
POLYLINE
  8
LAYER_1
 40
0.1058
 41
0.1058
 66
1
 10
0
 20
0
 30
0
  0
VERTEX
  8
LAYER_1
 10
63.5248
 20
99.2711
  0
VERTEX
  8
LAYER_1
 10
87.7445
 20
99.2711
  0
SEQEND
  0
POLYLINE
  8
LAYER_1
 40
0.1058
 41
0.1058
 66
1
 10
0
 20
0
 30
0
  0
VERTEX
  8
LAYER_1
 10
60.4146
 20
97.7704
  0
VERTEX
  8
LAYER_1
 10
58.7437
 20
97.7704
  0
VERTEX
  8
LAYER_1
 10
58.7437
 20
97.9709
 42
0.3937457212
  0
VERTEX
  8
LAYER_1
 10
58.4433
 20
98.2707
  0
VERTEX
  8
LAYER_1
 10
57.0432
 20
98.2707
 42
-0.4142179358
  0
VERTEX
  8
LAYER_1
 10
56.7428
 20
98.5711
  0
VERTEX
  8
LAYER_1
 10
56.7428
 20
98.9707
 42
-0.4142103624
  0
VERTEX
  8
LAYER_1
 10
57.0432
 20
99.2711
  0
VERTEX
  8
LAYER_1
 10
60.6296
 20
99.2711
  0
SEQEND
  0
POLYLINE
  8
LAYER_1
 40
0.1058
 41
0.1058
 66
1
 10
0
 20
0
 30
0
  0
VERTEX
  8
LAYER_1
 10
87.7445
 20
97.7704
  0
VERTEX
  8
LAYER_1
 10
63.4607
 20
97.7704
  0
SEQEND
  0
POLYLINE
  8
LAYER_1
 40
0.1058
 41
0.1058
 66
1
 10
0
 20
0
 30
0
 70
1
  0
VERTEX
  8
LAYER_1
 10
118.0373
 20
69.4132
  0
VERTEX
  8
LAYER_1
 10
117.5384
 20
69.4132
  0
VERTEX
  8
LAYER_1
 10
117.5384
 20
69.2705
  0
VERTEX
  8
LAYER_1
 10
118.0373
 20
69.2705
  0
SEQEND
  0
POLYLINE
  8
LAYER_1
 40
0.1058
 41
0.1058
 66
1
 10
0
 20
0
 30
0
 70
1
  0
VERTEX
  8
LAYER_1
 10
60.449
 20
69.4132
  0
VERTEX
  8
LAYER_1
 10
60.9492
 20
69.4132
  0
VERTEX
  8
LAYER_1
 10
60.9492
 20
69.2705
  0
VERTEX
  8
LAYER_1
 10
60.449
 20
69.2705
  0
SEQEND
  0
POLYLINE
  8
LAYER_1
 40
0.1058
 41
0.1058
 66
1
 10
0
 20
0
 30
0
  0
VERTEX
  8
LAYER_1
 10
60.2389
 20
69.4132
  0
VERTEX
  8
LAYER_1
 10
63.7026
 20
149.9151
  0
SEQEND
  0
POLYLINE
  8
LAYER_1
 40
0.1058
 41
0.1058
 66
1
 10
0
 20
0
 30
0
  0
VERTEX
  8
LAYER_1
 10
59.1323
 20
150.9162
  0
VERTEX
  8
LAYER_1
 10
59.0634
 20
151.0471
  0
SEQEND
  0
POLYLINE
  8
LAYER_1
 40
0.1058
 41
0.1058
 66
1
 10
0
 20
0
 30
0
  0
VERTEX
  8
LAYER_1
 10
59.1688
 20
150.9162
 42
0.2608400959
  0
VERTEX
  8
LAYER_1
 10
58.743
 20
151.1718
  0
SEQEND
  0
POLYLINE
  8
LAYER_1
 40
0.1058
 41
0.1058
 66
1
 10
0
 20
0
 30
0
  0
VERTEX
  8
LAYER_1
 10
117.0685
 20
134.2712
  0
VERTEX
  8
LAYER_1
 10
116.3533
 20
134.2712
  0
SEQEND
  0
POLYLINE
  8
LAYER_1
 40
0.1058
 41
0.1058
 66
1
 10
0
 20
0
 30
0
  0
VERTEX
  8
LAYER_1
 10
117.0685
 20
134.2712
 42
0.3627425759
  0
VERTEX
  8
LAYER_1
 10
117.2662
 20
134.4469
  0
SEQEND
  0
POLYLINE
  8
LAYER_1
 40
0.1058
 41
0.1058
 66
1
 10
0
 20
0
 30
0
  0
VERTEX
  8
LAYER_1
 10
119.1597
 20
149.9151
  0
VERTEX
  8
LAYER_1
 10
117.2662
 20
134.4469
  0
SEQEND
  0
POLYLINE
  8
LAYER_1
 40
0.1058
 41
0.1058
 66
1
 10
0
 20
0
 30
0
  0
VERTEX
  8
LAYER_1
 10
61.2207
 20
134.4469
  0
VERTEX
  8
LAYER_1
 10
59.3287
 20
149.9151
  0
SEQEND
  0
POLYLINE
  8
LAYER_1
 40
0.1058
 41
0.1058
 66
1
 10
0
 20
0
 30
0
  0
VERTEX
  8
LAYER_1
 10
61.2207
 20
134.4469
 42
0.3577064546
  0
VERTEX
  8
LAYER_1
 10
61.4205
 20
134.2712
  0
SEQEND
  0
POLYLINE
  8
LAYER_1
 40
0.1058
 41
0.1058
 66
1
 10
0
 20
0
 30
0
  0
VERTEX
  8
LAYER_1
 10
62.1357
 20
134.2712
  0
VERTEX
  8
LAYER_1
 10
61.4205
 20
134.2712
  0
SEQEND
  0
POLYLINE
  8
LAYER_1
 40
0.1058
 41
0.1058
 66
1
 10
0
 20
0
 30
0
  0
VERTEX
  8
LAYER_1
 10
124.0455
 20
152.2715
  0
VERTEX
  8
LAYER_1
 10
118.7152
 20
152.2715
  0
VERTEX
  8
LAYER_1
 10
118.6753
 20
152.2715
  0
VERTEX
  8
LAYER_1
 10
54.4435
 20
152.2715
  0
SEQEND
  0
POLYLINE
  8
LAYER_1
 40
0.1058
 41
0.1058
 66
1
 10
0
 20
0
 30
0
  0
VERTEX
  8
LAYER_1
 10
124.2453
 20
152.0724
 42
0.4141513367
  0
VERTEX
  8
LAYER_1
 10
124.0455
 20
152.2722
  0
SEQEND
  0
POLYLINE
  8
LAYER_1
 40
0.1058
 41
0.1058
 66
1
 10
0
 20
0
 30
0
  0
VERTEX
  8
LAYER_1
 10
124.2453
 20
151.3723
  0
VERTEX
  8
LAYER_1
 10
124.2453
 20
152.0724
  0
SEQEND
  0
POLYLINE
  8
LAYER_1
 40
0.1058
 41
0.1058
 66
1
 10
0
 20
0
 30
0
  0
VERTEX
  8
LAYER_1
 10
124.0455
 20
151.1718
 42
0.3940067225
  0
VERTEX
  8
LAYER_1
 10
124.2453
 20
151.3723
  0
SEQEND
  0
POLYLINE
  8
LAYER_1
 40
0.1058
 41
0.1058
 66
1
 10
0
 20
0
 30
0
  0
VERTEX
  8
LAYER_1
 10
119.7536
 20
151.1718
  0
VERTEX
  8
LAYER_1
 10
119.7563
 20
151.1718
  0
VERTEX
  8
LAYER_1
 10
119.7853
 20
151.1718
  0
VERTEX
  8
LAYER_1
 10
124.0455
 20
151.1718
  0
SEQEND
  0
POLYLINE
  8
LAYER_1
 40
0.1058
 41
0.1058
 66
1
 10
0
 20
0
 30
0
  0
VERTEX
  8
LAYER_1
 10
58.703
 20
151.1718
  0
VERTEX
  8
LAYER_1
 10
58.732
 20
151.1718
  0
VERTEX
  8
LAYER_1
 10
58.7347
 20
151.1718
  0
VERTEX
  8
LAYER_1
 10
58.743
 20
151.1718
  0
VERTEX
  8
LAYER_1
 10
119.7467
 20
151.1718
  0
VERTEX
  8
LAYER_1
 10
119.7536
 20
151.1718
  0
SEQEND
  0
POLYLINE
  8
LAYER_1
 40
0.1058
 41
0.1058
 66
1
 10
0
 20
0
 30
0
  0
VERTEX
  8
LAYER_1
 10
54.4435
 20
151.1718
  0
VERTEX
  8
LAYER_1
 10
58.703
 20
151.1718
  0
SEQEND
  0
POLYLINE
  8
LAYER_1
 40
0.1058
 41
0.1058
 66
1
 10
0
 20
0
 30
0
  0
VERTEX
  8
LAYER_1
 10
54.2437
 20
151.3723
 42
0.3925483472
  0
VERTEX
  8
LAYER_1
 10
54.4435
 20
151.1718
  0
SEQEND
  0
POLYLINE
  8
LAYER_1
 40
0.1058
 41
0.1058
 66
1
 10
0
 20
0
 30
0
  0
VERTEX
  8
LAYER_1
 10
54.2437
 20
152.0724
  0
VERTEX
  8
LAYER_1
 10
54.2437
 20
151.3723
  0
SEQEND
  0
POLYLINE
  8
LAYER_1
 40
0.1058
 41
0.1058
 66
1
 10
0
 20
0
 30
0
  0
VERTEX
  8
LAYER_1
 10
54.4435
 20
152.2715
 42
0.392852896
  0
VERTEX
  8
LAYER_1
 10
54.2423
 20
152.0717
  0
SEQEND
  0
POLYLINE
  8
LAYER_1
 40
0.1058
 41
0.1058
 66
1
 10
0
 20
0
 30
0
  0
VERTEX
  8
LAYER_1
 10
119.7467
 20
151.1718
 42
0.2243784552
  0
VERTEX
  8
LAYER_1
 10
119.3608
 20
150.9775
  0
SEQEND
  0
POLYLINE
  8
LAYER_1
 40
0.1058
 41
0.1058
 66
1
 10
0
 20
0
 30
0
  0
VERTEX
  8
LAYER_1
 10
119.3608
 20
150.9775
  0
VERTEX
  8
LAYER_1
 10
119.3195
 20
150.9162
  0
SEQEND
  0
POLYLINE
  8
LAYER_1
 40
0.1058
 41
0.1058
 66
1
 10
0
 20
0
 30
0
  0
VERTEX
  8
LAYER_1
 10
123.8953
 20
149.9151
  0
VERTEX
  8
LAYER_1
 10
123.8946
 20
149.9151
  0
SEQEND
  0
POLYLINE
  8
LAYER_1
 40
0.1058
 41
0.1058
 66
1
 10
0
 20
0
 30
0
  0
VERTEX
  8
LAYER_1
 10
123.8953
 20
150.9162
  0
VERTEX
  8
LAYER_1
 10
123.8953
 20
149.9151
  0
SEQEND
  0
POLYLINE
  8
LAYER_1
 40
0.1058
 41
0.1058
 66
1
 10
0
 20
0
 30
0
  0
VERTEX
  8
LAYER_1
 10
54.5931
 20
150.9162
  0
VERTEX
  8
LAYER_1
 10
123.8953
 20
150.9162
  0
SEQEND
  0
POLYLINE
  8
LAYER_1
 40
0.1058
 41
0.1058
 66
1
 10
0
 20
0
 30
0
  0
VERTEX
  8
LAYER_1
 10
54.5931
 20
149.9151
  0
VERTEX
  8
LAYER_1
 10
54.5931
 20
150.9162
  0
SEQEND
  0
POLYLINE
  8
LAYER_1
 40
0.1058
 41
0.1058
 66
1
 10
0
 20
0
 30
0
  0
VERTEX
  8
LAYER_1
 10
123.8946
 20
149.9151
  0
VERTEX
  8
LAYER_1
 10
54.5931
 20
149.9151
  0
SEQEND
  0
POLYLINE
  8
LAYER_1
 40
0.1058
 41
0.1058
 66
1
 10
0
 20
0
 30
0
  0
VERTEX
  8
LAYER_1
 10
114.0699
 20
151.1656
  0
VERTEX
  8
LAYER_1
 10
114.0699
 20
150.9162
  0
SEQEND
  0
POLYLINE
  8
LAYER_1
 40
0.1058
 41
0.1058
 66
1
 10
0
 20
0
 30
0
  0
VERTEX
  8
LAYER_1
 10
113.3705
 20
151.1656
  0
VERTEX
  8
LAYER_1
 10
114.0699
 20
151.1656
  0
SEQEND
  0
POLYLINE
  8
LAYER_1
 40
0.1058
 41
0.1058
 66
1
 10
0
 20
0
 30
0
  0
VERTEX
  8
LAYER_1
 10
113.3705
 20
150.9162
  0
VERTEX
  8
LAYER_1
 10
113.3705
 20
151.1656
  0
SEQEND
  0
POLYLINE
  8
LAYER_1
 40
0.1058
 41
0.1058
 66
1
 10
0
 20
0
 30
0
  0
VERTEX
  8
LAYER_1
 10
65.1185
 20
151.1656
  0
VERTEX
  8
LAYER_1
 10
65.1185
 20
150.9162
  0
SEQEND
  0
POLYLINE
  8
LAYER_1
 40
0.1058
 41
0.1058
 66
1
 10
0
 20
0
 30
0
  0
VERTEX
  8
LAYER_1
 10
64.4185
 20
151.1656
  0
VERTEX
  8
LAYER_1
 10
65.1185
 20
151.1656
  0
SEQEND
  0
POLYLINE
  8
LAYER_1
 40
0.1058
 41
0.1058
 66
1
 10
0
 20
0
 30
0
  0
VERTEX
  8
LAYER_1
 10
64.4185
 20
150.9162
  0
VERTEX
  8
LAYER_1
 10
64.4185
 20
151.1656
  0
SEQEND
  0
POLYLINE
  8
LAYER_1
 40
0.1058
 41
0.1058
 66
1
 10
0
 20
0
 30
0
  0
VERTEX
  8
LAYER_1
 10
113.4573
 20
134.2712
  0
VERTEX
  8
LAYER_1
 10
65.031
 20
134.2712
  0
SEQEND
  0
POLYLINE
  8
LAYER_1
 40
0.1058
 41
0.1058
 66
1
 10
0
 20
0
 30
0
  0
VERTEX
  8
LAYER_1
 10
78.0983
 20
94.7711
  0
VERTEX
  8
LAYER_1
 10
78.0983
 20
97.7704
  0
SEQEND
  0
POLYLINE
  8
LAYER_1
 40
0.1058
 41
0.1058
 66
1
 10
0
 20
0
 30
0
  0
VERTEX
  8
LAYER_1
 10
116.2485
 20
69.4132
  0
VERTEX
  8
LAYER_1
 10
112.7835
 20
149.9151
  0
SEQEND
  0
POLYLINE
  8
LAYER_1
 40
0.1058
 41
0.1058
 66
1
 10
0
 20
0
 30
0
  0
VERTEX
  8
LAYER_1
 10
118.2495
 20
69.4132
  0
VERTEX
  8
LAYER_1
 10
116.2485
 20
69.4132
  0
SEQEND
  0
POLYLINE
  8
LAYER_1
 40
0.1058
 41
0.1058
 66
1
 10
0
 20
0
 30
0
  0
VERTEX
  8
LAYER_1
 10
114.7864
 20
149.9151
  0
VERTEX
  8
LAYER_1
 10
118.2502
 20
69.4132
  0
SEQEND
  0
POLYLINE
  8
LAYER_1
 40
0.1058
 41
0.1058
 66
1
 10
0
 20
0
 30
0
  0
VERTEX
  8
LAYER_1
 10
119.1445
 20
69.4132
  0
VERTEX
  8
LAYER_1
 10
118.2495
 20
69.4132
  0
SEQEND
  0
POLYLINE
  8
LAYER_1
 40
0.1058
 41
0.1058
 66
1
 10
0
 20
0
 30
0
  0
VERTEX
  8
LAYER_1
 10
115.6801
 20
149.9151
  0
VERTEX
  8
LAYER_1
 10
119.1445
 20
69.4132
  0
SEQEND
  0
POLYLINE
  8
LAYER_1
 40
0.1058
 41
0.1058
 66
1
 10
0
 20
0
 30
0
  0
VERTEX
  8
LAYER_1
 10
63.3319
 20
94.7711
  0
VERTEX
  8
LAYER_1
 10
115.1564
 20
94.7711
  0
SEQEND
  0
POLYLINE
  8
LAYER_1
 40
0.1058
 41
0.1058
 66
1
 10
0
 20
0
 30
0
  0
VERTEX
  8
LAYER_1
 10
100.3901
 20
97.7704
  0
VERTEX
  8
LAYER_1
 10
100.3901
 20
94.7711
  0
SEQEND
  0
POLYLINE
  8
LAYER_1
 40
0.1058
 41
0.1058
 66
1
 10
0
 20
0
 30
0
  0
VERTEX
  8
LAYER_1
 10
63.4607
 20
97.7704
  0
VERTEX
  8
LAYER_1
 10
100.3901
 20
97.7704
  0
SEQEND
  0
POLYLINE
  8
LAYER_1
 40
0.1058
 41
0.1058
 66
1
 10
0
 20
0
 30
0
  0
VERTEX
  8
LAYER_1
 10
110.9452
 20
97.7704
  0
VERTEX
  8
LAYER_1
 10
63.46
 20
97.7704
  0
SEQEND
  0
POLYLINE
  8
LAYER_1
 40
0.1058
 41
0.1058
 66
1
 10
0
 20
0
 30
0
  0
VERTEX
  8
LAYER_1
 10
62.2405
 20
69.4132
  0
VERTEX
  8
LAYER_1
 10
65.7042
 20
149.9151
  0
SEQEND
  0
POLYLINE
  8
LAYER_1
 40
0.1058
 41
0.1058
 66
1
 10
0
 20
0
 30
0
  0
VERTEX
  8
LAYER_1
 10
59.3452
 20
69.4132
  0
VERTEX
  8
LAYER_1
 10
62.2405
 20
69.4132
  0
SEQEND
  0
POLYLINE
  8
LAYER_1
 40
0.1058
 41
0.1058
 66
1
 10
0
 20
0
 30
0
  0
VERTEX
  8
LAYER_1
 10
62.8082
 20
149.9151
  0
VERTEX
  8
LAYER_1
 10
59.3452
 20
69.4132
  0
SEQEND
  0
POLYLINE
  8
LAYER_1
 40
0.3528
 41
0.3528
 66
1
 10
0
 20
0
 30
0
  0
VERTEX
  8
LAYER_1
 10
160.7227
 20
69.2705
  0
VERTEX
  8
LAYER_1
 10
214.2257
 20
69.2705
  0
SEQEND
  0
POLYLINE
  8
LAYER_1
 40
0.3528
 41
0.3528
 66
1
 10
0
 20
0
 30
0
  0
VERTEX
  8
LAYER_1
 10
214.2257
 20
170.0881
  0
VERTEX
  8
LAYER_1
 10
214.2257
 20
69.2699
  0
SEQEND
  0
POLYLINE
  8
LAYER_1
 40
0.3528
 41
0.3528
 66
1
 10
0
 20
0
 30
0
  0
VERTEX
  8
LAYER_1
 10
124.2453
 20
69.2705
  0
VERTEX
  8
LAYER_1
 10
54.2437
 20
69.2705
  0
SEQEND
  0
CIRCLE
  8
LAYER_1
 10
89.2617
 20
193.9833
 40
2.3003
  0
POLYLINE
  8
LAYER_1
 40
0.1058
 41
0.1058
 66
1
 10
0
 20
0
 30
0
  0
VERTEX
  8
LAYER_1
 10
118.2481
 20
175.8649
  0
VERTEX
  8
LAYER_1
 10
115.2288
 20
179.2342
  0
SEQEND
  0
POLYLINE
  8
LAYER_1
 40
0.1058
 41
0.1058
 66
1
 10
0
 20
0
 30
0
  0
VERTEX
  8
LAYER_1
 10
119.1417
 20
176.6648
  0
VERTEX
  8
LAYER_1
 10
116.1555
 20
179.999
  0
SEQEND
  0
POLYLINE
  8
LAYER_1
 40
0.1058
 41
0.1058
 66
1
 10
0
 20
0
 30
0
  0
VERTEX
  8
LAYER_1
 10
119.1417
 20
176.6648
  0
VERTEX
  8
LAYER_1
 10
118.2481
 20
175.8649
  0
SEQEND
  0
POLYLINE
  8
LAYER_1
 40
0.1058
 41
0.1058
 66
1
 10
0
 20
0
 30
0
  0
VERTEX
  8
LAYER_1
 10
118.2481
 20
216.1008
  0
VERTEX
  8
LAYER_1
 10
115.2288
 20
212.7309
  0
SEQEND
  0
POLYLINE
  8
LAYER_1
 40
0.1058
 41
0.1058
 66
1
 10
0
 20
0
 30
0
  0
VERTEX
  8
LAYER_1
 10
119.1417
 20
215.3002
  0
VERTEX
  8
LAYER_1
 10
116.1555
 20
211.9674
  0
SEQEND
  0
POLYLINE
  8
LAYER_1
 40
0.1058
 41
0.1058
 66
1
 10
0
 20
0
 30
0
  0
VERTEX
  8
LAYER_1
 10
119.1417
 20
215.3002
  0
VERTEX
  8
LAYER_1
 10
118.2481
 20
216.1015
  0
SEQEND
  0
POLYLINE
  8
LAYER_1
 40
0.1058
 41
0.1058
 66
1
 10
0
 20
0
 30
0
  0
VERTEX
  8
LAYER_1
 10
60.2375
 20
216.1008
  0
VERTEX
  8
LAYER_1
 10
63.2561
 20
212.7309
  0
SEQEND
  0
POLYLINE
  8
LAYER_1
 40
0.1058
 41
0.1058
 66
1
 10
0
 20
0
 30
0
  0
VERTEX
  8
LAYER_1
 10
59.3431
 20
215.3002
  0
VERTEX
  8
LAYER_1
 10
62.33
 20
211.9674
  0
SEQEND
  0
POLYLINE
  8
LAYER_1
 40
0.1058
 41
0.1058
 66
1
 10
0
 20
0
 30
0
  0
VERTEX
  8
LAYER_1
 10
59.3431
 20
215.3002
  0
VERTEX
  8
LAYER_1
 10
60.2375
 20
216.1015
  0
SEQEND
  0
POLYLINE
  8
LAYER_1
 40
0.1058
 41
0.1058
 66
1
 10
0
 20
0
 30
0
  0
VERTEX
  8
LAYER_1
 10
60.2375
 20
175.8649
  0
VERTEX
  8
LAYER_1
 10
63.2561
 20
179.2342
  0
SEQEND
  0
POLYLINE
  8
LAYER_1
 40
0.1058
 41
0.1058
 66
1
 10
0
 20
0
 30
0
  0
VERTEX
  8
LAYER_1
 10
59.3431
 20
176.6648
  0
VERTEX
  8
LAYER_1
 10
62.33
 20
179.999
  0
SEQEND
  0
POLYLINE
  8
LAYER_1
 40
0.1058
 41
0.1058
 66
1
 10
0
 20
0
 30
0
  0
VERTEX
  8
LAYER_1
 10
59.3431
 20
176.6648
  0
VERTEX
  8
LAYER_1
 10
60.2375
 20
175.8649
  0
SEQEND
  0
POLYLINE
  8
LAYER_1
 40
0.1058
 41
0.1058
 66
1
 10
0
 20
0
 30
0
  0
VERTEX
  8
LAYER_1
 10
54.2003
 20
196.0235
 42
0.07876855385
  0
VERTEX
  8
LAYER_1
 10
55.0977
 20
190.3762
 42
0.05239526725
  0
VERTEX
  8
LAYER_1
 10
56.7903
 20
186.5715
 42
0.05719747888
  0
VERTEX
  8
LAYER_1
 10
59.9511
 20
182.2932
 42
0.04943726013
  0
VERTEX
  8
LAYER_1
 10
64.1689
 20
178.5556
 42
0.0435020567
  0
VERTEX
  8
LAYER_1
 10
69.3027
 20
175.459
 42
0.03958308053
  0
VERTEX
  8
LAYER_1
 10
75.2115
 20
173.1041
 42
0.03736521526
  0
VERTEX
  8
LAYER_1
 10
81.7546
 20
171.5913
 42
0.03642644194
  0
VERTEX
  8
LAYER_1
 10
88.7909
 20
171.021
 42
0.002269404144
  0
VERTEX
  8
LAYER_1
 10
89.2438
 20
171.019
 42
0.03605820895
  0
VERTEX
  8
LAYER_1
 10
96.3063
 20
171.527
 42
0.03673819837
  0
VERTEX
  8
LAYER_1
 10
102.8843
 20
172.9838
 42
0.0385782749
  0
VERTEX
  8
LAYER_1
 10
108.8369
 20
175.2891
 42
0.04200744365
  0
VERTEX
  8
LAYER_1
 10
114.0233
 20
178.3422
 42
0.04740527277
  0
VERTEX
  8
LAYER_1
 10
118.3024
 20
182.0428
 42
0.05481286283
  0
VERTEX
  8
LAYER_1
 10
121.5334
 20
186.2902
 42
0.05100568496
  0
VERTEX
  8
LAYER_1
 10
123.2895
 20
190.0745
 42
0.05124209077
  0
VERTEX
  8
LAYER_1
 10
124.1485
 20
193.7826
 42
0.03097893397
  0
VERTEX
  8
LAYER_1
 10
124.2873
 20
196.0235
 42
0.07878696055
  0
VERTEX
  8
LAYER_1
 10
123.3899
 20
201.6693
 42
0.05239858541
  0
VERTEX
  8
LAYER_1
 10
121.6973
 20
205.4733
 42
0.05719460736
  0
VERTEX
  8
LAYER_1
 10
118.5365
 20
209.7509
 42
0.04943145055
  0
VERTEX
  8
LAYER_1
 10
114.3187
 20
213.4882
 42
0.04349660201
  0
VERTEX
  8
LAYER_1
 10
109.185
 20
216.5846
 42
0.03957942925
  0
VERTEX
  8
LAYER_1
 10
103.2761
 20
218.9395
 42
0.03736380866
  0
VERTEX
  8
LAYER_1
 10
96.733
 20
220.4523
 42
0.03642724555
  0
VERTEX
  8
LAYER_1
 10
89.6967
 20
221.0226
 42
0.002269520084
  0
VERTEX
  8
LAYER_1
 10
89.2438
 20
221.0246
 42
0.03605971652
  0
VERTEX
  8
LAYER_1
 10
82.1814
 20
220.5166
 42
0.03673727804
  0
VERTEX
  8
LAYER_1
 10
75.6034
 20
219.0597
 42
0.03857486941
  0
VERTEX
  8
LAYER_1
 10
69.6507
 20
216.7545
 42
0.04200189409
  0
VERTEX
  8
LAYER_1
 10
64.4644
 20
213.7015
 42
0.04739875423
  0
VERTEX
  8
LAYER_1
 10
60.1852
 20
210.0014
 42
0.05480820238
  0
VERTEX
  8
LAYER_1
 10
56.9542
 20
205.7546
 42
0.05100710807
  0
VERTEX
  8
LAYER_1
 10
55.1981
 20
201.971
 42
0.0512499303
  0
VERTEX
  8
LAYER_1
 10
54.3391
 20
198.2638
 42
0.03098720934
  0
VERTEX
  8
LAYER_1
 10
54.2003
 20
196.0235
  0
SEQEND
  0
POLYLINE
  8
LAYER_1
 40
0.1058
 41
0.1058
 66
1
 10
0
 20
0
 30
0
 70
1
  0
VERTEX
  8
LAYER_1
 10
92.4932
 20
194.0006
 42
0.4142130421
  0
VERTEX
  8
LAYER_1
 10
89.2445
 20
197.25
 42
0.3925767819
  0
VERTEX
  8
LAYER_1
 10
85.9868
 20
194.0006
 42
0.3934068421
  0
VERTEX
  8
LAYER_1
 10
89.2445
 20
190.7484
 42
0.39342911
  0
SEQEND
  0
POLYLINE
  8
LAYER_1
 40
0.1058
 41
0.1058
 66
1
 10
0
 20
0
 30
0
  0
VERTEX
  8
LAYER_1
 10
116.4277
 20
200.6344
 42
0.06205039745
  0
VERTEX
  8
LAYER_1
 10
113.6368
 20
203.765
 42
0.02540569112
  0
VERTEX
  8
LAYER_1
 10
111.9022
 20
205.1545
 42
0.02798481605
  0
VERTEX
  8
LAYER_1
 10
109.4546
 20
206.717
 42
0.02464491463
  0
VERTEX
  8
LAYER_1
 10
106.7315
 20
208.077
 42
0.04325733719
  0
VERTEX
  8
LAYER_1
 10
100.6095
 20
210.1516
 42
0.0379109252
  0
VERTEX
  8
LAYER_1
 10
93.8371
 20
211.3032
 42
0.03652839139
  0
VERTEX
  8
LAYER_1
 10
86.7152
 20
211.4564
 42
0.03828919362
  0
VERTEX
  8
LAYER_1
 10
79.5447
 20
210.5361
 42
0.008098274716
  0
VERTEX
  8
LAYER_1
 10
78.1313
 20
210.2166
 42
0.04306467186
  0
VERTEX
  8
LAYER_1
 10
71.7763
 20
208.0889
 42
0.04879666167
  0
VERTEX
  8
LAYER_1
 10
66.7705
 20
205.2904
 42
0.02819383864
  0
VERTEX
  8
LAYER_1
 10
64.8102
 20
203.7363
 42
0.05839899804
  0
VERTEX
  8
LAYER_1
 10
62.0648
 20
200.6627
  0
SEQEND
  0
POLYLINE
  8
LAYER_1
 40
0.1058
 41
0.1058
 66
1
 10
0
 20
0
 30
0
  0
VERTEX
  8
LAYER_1
 10
61.3296
 20
190.1021
 42
0.03761178034
  0
VERTEX
  8
LAYER_1
 10
62.5802
 20
188.0034
 42
0.032154329
  0
VERTEX
  8
LAYER_1
 10
64.1175
 20
186.0866
 42
0.03119923125
  0
VERTEX
  8
LAYER_1
 10
66.141
 20
184.1311
 42
0.02728951155
  0
VERTEX
  8
LAYER_1
 10
68.3957
 20
182.4197
 42
0.02690130634
  0
VERTEX
  8
LAYER_1
 10
71.1357
 20
180.7728
 42
0.04738882345
  0
VERTEX
  8
LAYER_1
 10
77.1007
 20
178.3156
 42
0.00148433594
  0
VERTEX
  8
LAYER_1
 10
77.3079
 20
178.2523
 42
0.04486141475
  0
VERTEX
  8
LAYER_1
 10
84.2595
 20
176.8116
 42
0.04304755009
  0
VERTEX
  8
LAYER_1
 10
91.5424
 20
176.5815
 42
0.04298031344
  0
VERTEX
  8
LAYER_1
 10
98.671
 20
177.5819
 42
0.04468717528
  0
VERTEX
  8
LAYER_1
 10
105.1335
 20
179.7055
 42
0.000380134732
  0
VERTEX
  8
LAYER_1
 10
105.1808
 20
179.7262
 42
0.0492511899
  0
VERTEX
  8
LAYER_1
 10
110.4951
 20
182.7004
 42
0.001679692217
  0
VERTEX
  8
LAYER_1
 10
110.6468
 20
182.8081
 42
0.05590598035
  0
VERTEX
  8
LAYER_1
 10
114.6526
 20
186.4097
 42
0.001953058672
  0
VERTEX
  8
LAYER_1
 10
114.7589
 20
186.5323
 42
0.05898792626
  0
VERTEX
  8
LAYER_1
 10
117.1422
 20
190.0738
  0
SEQEND
  0
POLYLINE
  8
LAYER_1
 40
0.1058
 41
0.1058
 66
1
 10
0
 20
0
 30
0
  0
VERTEX
  8
LAYER_1
 10
62.0648
 20
200.6634
 42
0.16706192
  0
VERTEX
  8
LAYER_1
 10
60.2521
 20
194.1118
 42
0.1002440261
  0
VERTEX
  8
LAYER_1
 10
61.3303
 20
190.1021
  0
SEQEND
  0
POLYLINE
  8
LAYER_1
 40
0.1058
 41
0.1058
 66
1
 10
0
 20
0
 30
0
  0
VERTEX
  8
LAYER_1
 10
117.1422
 20
190.0738
 42
0.1663025594
  0
VERTEX
  8
LAYER_1
 10
118.0417
 20
196.8157
 42
0.1004411644
  0
VERTEX
  8
LAYER_1
 10
116.4291
 20
200.6344
  0
SEQEND
  0
POLYLINE
  8
LAYER_1
 40
0.0564
 41
0.0564
 66
1
 10
0
 20
0
 30
0
 70
1
  0
VERTEX
  8
LAYER_1
 10
92.4932
 20
194.0006
 42
0.4142130421
  0
VERTEX
  8
LAYER_1
 10
89.2445
 20
197.25
 42
0.3925767819
  0
VERTEX
  8
LAYER_1
 10
85.9868
 20
194.0006
 42
0.3934068421
  0
VERTEX
  8
LAYER_1
 10
89.2445
 20
190.7484
 42
0.39342911
  0
SEQEND
  0
POLYLINE
  8
LAYER_1
 40
0.3528
 41
0.3528
 66
1
 10
0
 20
0
 30
0
  0
VERTEX
  8
LAYER_1
 10
124.2439
 20
223.9839
  0
VERTEX
  8
LAYER_1
 10
54.2423
 20
223.9839
  0
SEQEND
  0
POLYLINE
  8
LAYER_1
 40
0.1411
 41
0.1411
 66
1
 10
0
 20
0
 30
0
  0
VERTEX
  8
LAYER_1
 10
89.7441
 20
97.4183
  0
VERTEX
  8
LAYER_1
 10
89.7441
 20
97.7704
  0
VERTEX
  8
LAYER_1
 10
89.3919
 20
97.7704
  0
SEQEND
  0
POLYLINE
  8
LAYER_1
 40
0.1411
 41
0.1411
 66
1
 10
0
 20
0
 30
0
  0
VERTEX
  8
LAYER_1
 10
89.0971
 20
97.7704
  0
VERTEX
  8
LAYER_1
 10
88.7443
 20
97.7704
  0
VERTEX
  8
LAYER_1
 10
88.7443
 20
97.4183
  0
SEQEND
  0
POLYLINE
  8
LAYER_1
  6
AIGENLINE004
 40
0.1411
 41
0.1411
 66
1
 10
0
 20
0
 30
0
 70
128
  0
VERTEX
  8
LAYER_1
 10
88.7443
 20
96.6521
  0
VERTEX
  8
LAYER_1
 10
88.7443
 20
95.5056
  0
SEQEND
  0
POLYLINE
  8
LAYER_1
 40
0.1411
 41
0.1411
 66
1
 10
0
 20
0
 30
0
  0
VERTEX
  8
LAYER_1
 10
88.7443
 20
95.1232
  0
VERTEX
  8
LAYER_1
 10
88.7443
 20
94.7711
  0
VERTEX
  8
LAYER_1
 10
89.0971
 20
94.7711
  0
SEQEND
  0
POLYLINE
  8
LAYER_1
 40
0.1411
 41
0.1411
 66
1
 10
0
 20
0
 30
0
  0
VERTEX
  8
LAYER_1
 10
89.3919
 20
94.7711
  0
VERTEX
  8
LAYER_1
 10
89.7441
 20
94.7711
  0
VERTEX
  8
LAYER_1
 10
89.7441
 20
95.1232
  0
SEQEND
  0
POLYLINE
  8
LAYER_1
  6
AIGENLINE004
 40
0.1411
 41
0.1411
 66
1
 10
0
 20
0
 30
0
 70
128
  0
VERTEX
  8
LAYER_1
 10
89.7441
 20
95.888
  0
VERTEX
  8
LAYER_1
 10
89.7441
 20
97.0352
  0
SEQEND
  0
POLYLINE
  8
LAYER_1
 40
0.1411
 41
0.1411
 66
1
 10
0
 20
0
 30
0
  0
VERTEX
  8
LAYER_1
 10
78.7438
 20
97.7704
  0
VERTEX
  8
LAYER_1
 10
78.3911
 20
97.7704
  0
SEQEND
  0
POLYLINE
  8
LAYER_1
  6
AIGENLINE005
 40
0.1411
 41
0.1411
 66
1
 10
0
 20
0
 30
0
 70
128
  0
VERTEX
  8
LAYER_1
 10
77.6765
 20
97.7704
  0
VERTEX
  8
LAYER_1
 10
59.4534
 20
97.7704
  0
SEQEND
  0
POLYLINE
  8
LAYER_1
 40
0.1411
 41
0.1411
 66
1
 10
0
 20
0
 30
0
  0
VERTEX
  8
LAYER_1
 10
59.0958
 20
97.7704
  0
VERTEX
  8
LAYER_1
 10
58.7437
 20
97.7704
  0
VERTEX
  8
LAYER_1
 10
58.7437
 20
97.9709
  0
VERTEX
  8
LAYER_1
 10
58.7058
 20
98.1177
  0
SEQEND
  0
POLYLINE
  8
LAYER_1
  6
AIGENLINE006
 40
0.1411
 41
0.1411
 66
1
 10
0
 20
0
 30
0
 70
128
  0
VERTEX
  8
LAYER_1
 10
58.0636
 20
98.2707
  0
VERTEX
  8
LAYER_1
 10
57.0432
 20
98.2707
 42
-0.4142179358
  0
VERTEX
  8
LAYER_1
 10
56.7428
 20
98.5711
  0
VERTEX
  8
LAYER_1
 10
56.7428
 20
98.9707
 42
-0.4142103624
  0
VERTEX
  8
LAYER_1
 10
57.0432
 20
99.2711
  0
VERTEX
  8
LAYER_1
 10
78.0411
 20
99.2711
  0
SEQEND
  0
POLYLINE
  8
LAYER_1
 40
0.1411
 41
0.1411
 66
1
 10
0
 20
0
 30
0
  0
VERTEX
  8
LAYER_1
 10
78.3911
 20
99.2711
  0
VERTEX
  8
LAYER_1
 10
78.7438
 20
99.2711
  0
SEQEND
  0
POLYLINE
  8
LAYER_1
  6
AIGENLINE007
 40
0.1411
 41
0.1411
 66
1
 10
0
 20
0
 30
0
 70
128
  0
VERTEX
  8
LAYER_1
 10
88.8745
 20
97.7704
  0
VERTEX
  8
LAYER_1
 10
89.2438
 20
97.7704
  0
SEQEND
  0
POLYLINE
  8
LAYER_1
 40
0.1411
 41
0.1411
 66
1
 10
0
 20
0
 30
0
  0
VERTEX
  8
LAYER_1
 10
58.7437
 20
97.7704
  0
VERTEX
  8
LAYER_1
 10
59.0958
 20
97.7704
  0
SEQEND
  0
POLYLINE
  8
LAYER_1
  6
AIGENLINE008
 40
0.1411
 41
0.1411
 66
1
 10
0
 20
0
 30
0
 70
128
  0
VERTEX
  8
LAYER_1
 10
59.789
 20
97.7704
  0
VERTEX
  8
LAYER_1
 10
88.5451
 20
97.7704
  0
SEQEND
  0
POLYLINE
  8
LAYER_1
 40
0.1411
 41
0.1411
 66
1
 10
0
 20
0
 30
0
  0
VERTEX
  8
LAYER_1
 10
88.8917
 20
97.7704
  0
VERTEX
  8
LAYER_1
 10
89.2445
 20
97.7704
  0
SEQEND
  0
POLYLINE
  8
LAYER_1
 40
0.1411
 41
0.1411
 66
1
 10
0
 20
0
 30
0
  0
VERTEX
  8
LAYER_1
 10
89.2445
 20
99.2711
  0
VERTEX
  8
LAYER_1
 10
88.8917
 20
99.2711
  0
SEQEND
  0
POLYLINE
  8
LAYER_1
  6
AIGENLINE009
 40
0.1411
 41
0.1411
 66
1
 10
0
 20
0
 30
0
 70
128
  0
VERTEX
  8
LAYER_1
 10
88.1917
 20
99.2711
  0
VERTEX
  8
LAYER_1
 10
57.746
 20
99.2711
  0
SEQEND
  0
POLYLINE
  8
LAYER_1
 40
0.1411
 41
0.1411
 66
1
 10
0
 20
0
 30
0
  0
VERTEX
  8
LAYER_1
 10
57.3967
 20
99.2711
  0
VERTEX
  8
LAYER_1
 10
57.0439
 20
99.2711
  0
SEQEND
  0
POLYLINE
  8
LAYER_1
  6
AIGENLINE007
 40
0.1411
 41
0.1411
 66
1
 10
0
 20
0
 30
0
 70
128
  0
VERTEX
  8
LAYER_1
 10
89.2445
 20
99.2711
  0
VERTEX
  8
LAYER_1
 10
88.8745
 20
99.2711
  0
SEQEND
  0
POLYLINE
  8
LAYER_1
 40
0.1411
 41
0.1411
 66
1
 10
0
 20
0
 30
0
  0
VERTEX
  8
LAYER_1
 10
85.7443
 20
98.2169
  0
VERTEX
  8
LAYER_1
 10
85.7443
 20
98.5711
  0
VERTEX
  8
LAYER_1
 10
86.0971
 20
98.5711
  0
SEQEND
  0
POLYLINE
  8
LAYER_1
 40
0.1411
 41
0.1411
 66
1
 10
0
 20
0
 30
0
  0
VERTEX
  8
LAYER_1
 10
86.3913
 20
98.5711
  0
VERTEX
  8
LAYER_1
 10
86.7434
 20
98.5711
  0
VERTEX
  8
LAYER_1
 10
86.7434
 20
98.2169
  0
SEQEND
  0
POLYLINE
  8
LAYER_1
 40
0.1411
 41
0.1411
 66
1
 10
0
 20
0
 30
0
  0
VERTEX
  8
LAYER_1
 10
86.7434
 20
98.1225
  0
VERTEX
  8
LAYER_1
 10
86.7434
 20
97.7704
  0
VERTEX
  8
LAYER_1
 10
86.3913
 20
97.7704
  0
SEQEND
  0
POLYLINE
  8
LAYER_1
 40
0.1411
 41
0.1411
 66
1
 10
0
 20
0
 30
0
  0
VERTEX
  8
LAYER_1
 10
86.0971
 20
97.7704
  0
VERTEX
  8
LAYER_1
 10
85.7443
 20
97.7704
  0
VERTEX
  8
LAYER_1
 10
85.7443
 20
98.1225
  0
SEQEND
  0
POLYLINE
  8
LAYER_1
  6
AIGENLINE010
 40
0.1411
 41
0.1411
 66
1
 10
0
 20
0
 30
0
 70
128
  0
VERTEX
  8
LAYER_1
 10
85.8986
 20
97.3357
  0
VERTEX
  8
LAYER_1
 10
85.8986
 20
97.5713
  0
SEQEND
  0
POLYLINE
  8
LAYER_1
  6
AIGENLINE011
 40
0.1411
 41
0.1411
 66
1
 10
0
 20
0
 30
0
 70
128
  0
VERTEX
  8
LAYER_1
 10
85.8986
 20
97.3357
 42
0.409751401
  0
VERTEX
  8
LAYER_1
 10
86.0454
 20
97.3095
  0
VERTEX
  8
LAYER_1
 10
86.0716
 20
97.3357
  0
SEQEND
  0
POLYLINE
  8
LAYER_1
  6
AIGENLINE012
 40
0.1411
 41
0.1411
 66
1
 10
0
 20
0
 30
0
 70
128
  0
VERTEX
  8
LAYER_1
 10
85.9855
 20
97.2909
  0
VERTEX
  8
LAYER_1
 10
86.5036
 20
97.2909
  0
SEQEND
  0
POLYLINE
  8
LAYER_1
  6
AIGENLINE011
 40
0.1411
 41
0.1411
 66
1
 10
0
 20
0
 30
0
 70
128
  0
VERTEX
  8
LAYER_1
 10
86.4168
 20
97.3357
 42
0.4095629323
  0
VERTEX
  8
LAYER_1
 10
86.5642
 20
97.3095
  0
VERTEX
  8
LAYER_1
 10
86.5897
 20
97.3357
  0
SEQEND
  0
INSERT
  8
LAYER_1
  2
AIGNBL01010028
 10
0
 20
0
 30
0
  0
POLYLINE
  8
LAYER_1
  6
AIGENLINE013
 40
0.1411
 41
0.1411
 66
1
 10
0
 20
0
 30
0
 70
128
  0
VERTEX
  8
LAYER_1
 10
86.0716
 20
97.3357
 42
0.2578313215
  0
VERTEX
  8
LAYER_1
 10
86.4168
 20
97.3357
  0
SEQEND
  0
POLYLINE
  8
LAYER_1
  6
AIGENLINE010
 40
0.1411
 41
0.1411
 66
1
 10
0
 20
0
 30
0
 70
128
  0
VERTEX
  8
LAYER_1
 10
86.5897
 20
97.5713
  0
VERTEX
  8
LAYER_1
 10
86.5897
 20
97.3357
  0
SEQEND
  0
POLYLINE
  8
LAYER_1
  6
AIGENLINE014
 40
0.1411
 41
0.1411
 66
1
 10
0
 20
0
 30
0
 70
128
  0
VERTEX
  8
LAYER_1
 10
86.5897
 20
97.5658
  0
VERTEX
  8
LAYER_1
 10
86.5856
 20
97.5713
  0
SEQEND
  0
POLYLINE
  8
LAYER_1
  6
AIGENLINE015
 40
0.1411
 41
0.1411
 66
1
 10
0
 20
0
 30
0
 70
128
  0
VERTEX
  8
LAYER_1
 10
86.1033
 20
97.5713
  0
VERTEX
  8
LAYER_1
 10
86.3851
 20
97.5713
  0
SEQEND
  0
POLYLINE
  8
LAYER_1
  6
AIGENLINE016
 40
0.1411
 41
0.1411
 66
1
 10
0
 20
0
 30
0
 70
128
  0
VERTEX
  8
LAYER_1
 10
86.0716
 20
97.5658
  0
VERTEX
  8
LAYER_1
 10
86.0674
 20
97.5713
  0
SEQEND
  0
INSERT
  8
LAYER_1
  2
AIGNBL01010029
 10
0
 20
0
 30
0
  0
POLYLINE
  8
LAYER_1
  6
AIGENLINE016
 40
0.1411
 41
0.1411
 66
1
 10
0
 20
0
 30
0
 70
128
  0
VERTEX
  8
LAYER_1
 10
86.4209
 20
97.5713
  0
VERTEX
  8
LAYER_1
 10
86.4168
 20
97.5658
  0
SEQEND
  0
POLYLINE
  8
LAYER_1
  6
AIGENLINE017
 40
0.1411
 41
0.1411
 66
1
 10
0
 20
0
 30
0
 70
128
  0
VERTEX
  8
LAYER_1
 10
85.8986
 20
97.5713
  0
VERTEX
  8
LAYER_1
 10
86.5897
 20
97.5713
  0
SEQEND
  0
POLYLINE
  8
LAYER_1
  6
AIGENLINE014
 40
0.1411
 41
0.1411
 66
1
 10
0
 20
0
 30
0
 70
128
  0
VERTEX
  8
LAYER_1
 10
85.9028
 20
97.5713
  0
VERTEX
  8
LAYER_1
 10
85.8986
 20
97.5658
  0
SEQEND
  0
POLYLINE
  8
LAYER_1
 40
0.1411
 41
0.1411
 66
1
 10
0
 20
0
 30
0
  0
VERTEX
  8
LAYER_1
 10
86.044
 20
97.5713
  0
VERTEX
  8
LAYER_1
 10
86.044
 20
97.9234
  0
SEQEND
  0
POLYLINE
  8
LAYER_1
  6
AIGENLINE018
 40
0.1411
 41
0.1411
 66
1
 10
0
 20
0
 30
0
 70
128
  0
VERTEX
  8
LAYER_1
 10
86.044
 20
98.4174
  0
VERTEX
  8
LAYER_1
 10
86.044
 20
98.4395
  0
VERTEX
  8
LAYER_1
 10
86.1033
 20
98.5001
  0
VERTEX
  8
LAYER_1
 10
86.3844
 20
98.5001
  0
VERTEX
  8
LAYER_1
 10
86.4443
 20
98.4395
  0
VERTEX
  8
LAYER_1
 10
86.4443
 20
98.1708
  0
SEQEND
  0
POLYLINE
  8
LAYER_1
 40
0.1411
 41
0.1411
 66
1
 10
0
 20
0
 30
0
  0
VERTEX
  8
LAYER_1
 10
86.4443
 20
97.9234
  0
VERTEX
  8
LAYER_1
 10
86.4443
 20
97.5713
  0
SEQEND
  0
POLYLINE
  8
LAYER_1
 40
0.1411
 41
0.1411
 66
1
 10
0
 20
0
 30
0
  0
VERTEX
  8
LAYER_1
 10
86.084
 20
97.5713
  0
VERTEX
  8
LAYER_1
 10
86.084
 20
97.9234
  0
SEQEND
  0
POLYLINE
  8
LAYER_1
 40
0.1411
 41
0.1411
 66
1
 10
0
 20
0
 30
0
  0
VERTEX
  8
LAYER_1
 10
86.084
 20
98.0874
  0
VERTEX
  8
LAYER_1
 10
86.084
 20
98.4395
  0
SEQEND
  0
POLYLINE
  8
LAYER_1
 40
0.1411
 41
0.1411
 66
1
 10
0
 20
0
 30
0
  0
VERTEX
  8
LAYER_1
 10
86.4044
 20
97.5713
  0
VERTEX
  8
LAYER_1
 10
86.4044
 20
97.9234
  0
SEQEND
  0
POLYLINE
  8
LAYER_1
 40
0.1411
 41
0.1411
 66
1
 10
0
 20
0
 30
0
  0
VERTEX
  8
LAYER_1
 10
86.4044
 20
98.0874
  0
VERTEX
  8
LAYER_1
 10
86.4044
 20
98.4395
  0
SEQEND
  0
POLYLINE
  8
LAYER_1
  6
AIGENLINE019
 40
0.1411
 41
0.1411
 66
1
 10
0
 20
0
 30
0
 70
128
  0
VERTEX
  8
LAYER_1
 10
86.044
 20
98.4395
  0
VERTEX
  8
LAYER_1
 10
86.4443
 20
98.4395
  0
SEQEND
  0
POLYLINE
  8
LAYER_1
 40
0.1411
 41
0.1411
 66
1
 10
0
 20
0
 30
0
  0
VERTEX
  8
LAYER_1
 10
92.744
 20
98.2169
  0
VERTEX
  8
LAYER_1
 10
92.744
 20
98.5711
  0
VERTEX
  8
LAYER_1
 10
92.3913
 20
98.5711
  0
SEQEND
  0
POLYLINE
  8
LAYER_1
 40
0.1411
 41
0.1411
 66
1
 10
0
 20
0
 30
0
  0
VERTEX
  8
LAYER_1
 10
92.097
 20
98.5711
  0
VERTEX
  8
LAYER_1
 10
91.7443
 20
98.5711
  0
VERTEX
  8
LAYER_1
 10
91.7443
 20
98.2169
  0
SEQEND
  0
POLYLINE
  8
LAYER_1
 40
0.1411
 41
0.1411
 66
1
 10
0
 20
0
 30
0
  0
VERTEX
  8
LAYER_1
 10
91.7443
 20
98.1225
  0
VERTEX
  8
LAYER_1
 10
91.7443
 20
97.7704
  0
VERTEX
  8
LAYER_1
 10
92.097
 20
97.7704
  0
SEQEND
  0
POLYLINE
  8
LAYER_1
 40
0.1411
 41
0.1411
 66
1
 10
0
 20
0
 30
0
  0
VERTEX
  8
LAYER_1
 10
92.3913
 20
97.7704
  0
VERTEX
  8
LAYER_1
 10
92.744
 20
97.7704
  0
VERTEX
  8
LAYER_1
 10
92.744
 20
98.1225
  0
SEQEND
  0
POLYLINE
  8
LAYER_1
  6
AIGENLINE010
 40
0.1411
 41
0.1411
 66
1
 10
0
 20
0
 30
0
 70
128
  0
VERTEX
  8
LAYER_1
 10
92.5897
 20
97.3357
  0
VERTEX
  8
LAYER_1
 10
92.5897
 20
97.5713
  0
SEQEND
  0
POLYLINE
  8
LAYER_1
  6
AIGENLINE011
 40
0.1411
 41
0.1411
 66
1
 10
0
 20
0
 30
0
 70
128
  0
VERTEX
  8
LAYER_1
 10
92.4168
 20
97.3357
 42
0.3910837512
  0
VERTEX
  8
LAYER_1
 10
92.5635
 20
97.3095
  0
VERTEX
  8
LAYER_1
 10
92.5897
 20
97.3357
  0
SEQEND
  0
POLYLINE
  8
LAYER_1
  6
AIGENLINE012
 40
0.1411
 41
0.1411
 66
1
 10
0
 20
0
 30
0
 70
128
  0
VERTEX
  8
LAYER_1
 10
92.5029
 20
97.2909
  0
VERTEX
  8
LAYER_1
 10
91.9854
 20
97.2909
  0
SEQEND
  0
POLYLINE
  8
LAYER_1
  6
AIGENLINE011
 40
0.1411
 41
0.1411
 66
1
 10
0
 20
0
 30
0
 70
128
  0
VERTEX
  8
LAYER_1
 10
91.8986
 20
97.3357
 42
0.409756846
  0
VERTEX
  8
LAYER_1
 10
92.0461
 20
97.3095
  0
VERTEX
  8
LAYER_1
 10
92.0715
 20
97.3357
  0
SEQEND
  0
INSERT
  8
LAYER_1
  2
AIGNBL0101002A
 10
0
 20
0
 30
0
  0
POLYLINE
  8
LAYER_1
  6
AIGENLINE013
 40
0.1411
 41
0.1411
 66
1
 10
0
 20
0
 30
0
 70
128
  0
VERTEX
  8
LAYER_1
 10
92.0715
 20
97.3357
 42
0.2627061879
  0
VERTEX
  8
LAYER_1
 10
92.4168
 20
97.3357
  0
SEQEND
  0
POLYLINE
  8
LAYER_1
  6
AIGENLINE010
 40
0.1411
 41
0.1411
 66
1
 10
0
 20
0
 30
0
 70
128
  0
VERTEX
  8
LAYER_1
 10
91.8986
 20
97.5713
  0
VERTEX
  8
LAYER_1
 10
91.8986
 20
97.3357
  0
SEQEND
  0
POLYLINE
  8
LAYER_1
  6
AIGENLINE014
 40
0.1411
 41
0.1411
 66
1
 10
0
 20
0
 30
0
 70
128
  0
VERTEX
  8
LAYER_1
 10
91.9027
 20
97.5713
  0
VERTEX
  8
LAYER_1
 10
91.8986
 20
97.5658
  0
SEQEND
  0
POLYLINE
  8
LAYER_1
  6
AIGENLINE015
 40
0.1411
 41
0.1411
 66
1
 10
0
 20
0
 30
0
 70
128
  0
VERTEX
  8
LAYER_1
 10
92.3851
 20
97.5713
  0
VERTEX
  8
LAYER_1
 10
92.1039
 20
97.5713
  0
SEQEND
  0
POLYLINE
  8
LAYER_1
  6
AIGENLINE016
 40
0.1411
 41
0.1411
 66
1
 10
0
 20
0
 30
0
 70
128
  0
VERTEX
  8
LAYER_1
 10
92.4209
 20
97.5713
  0
VERTEX
  8
LAYER_1
 10
92.4168
 20
97.5658
  0
SEQEND
  0
INSERT
  8
LAYER_1
  2
AIGNBL0101002B
 10
0
 20
0
 30
0
  0
POLYLINE
  8
LAYER_1
  6
AIGENLINE016
 40
0.1411
 41
0.1411
 66
1
 10
0
 20
0
 30
0
 70
128
  0
VERTEX
  8
LAYER_1
 10
92.0715
 20
97.5658
  0
VERTEX
  8
LAYER_1
 10
92.0674
 20
97.5713
  0
SEQEND
  0
POLYLINE
  8
LAYER_1
  6
AIGENLINE017
 40
0.1411
 41
0.1411
 66
1
 10
0
 20
0
 30
0
 70
128
  0
VERTEX
  8
LAYER_1
 10
92.5897
 20
97.5713
  0
VERTEX
  8
LAYER_1
 10
91.8986
 20
97.5713
  0
SEQEND
  0
POLYLINE
  8
LAYER_1
  6
AIGENLINE014
 40
0.1411
 41
0.1411
 66
1
 10
0
 20
0
 30
0
 70
128
  0
VERTEX
  8
LAYER_1
 10
92.5897
 20
97.5658
  0
VERTEX
  8
LAYER_1
 10
92.5856
 20
97.5713
  0
SEQEND
  0
POLYLINE
  8
LAYER_1
 40
0.1411
 41
0.1411
 66
1
 10
0
 20
0
 30
0
  0
VERTEX
  8
LAYER_1
 10
92.4436
 20
97.5713
  0
VERTEX
  8
LAYER_1
 10
92.4436
 20
97.9234
  0
SEQEND
  0
POLYLINE
  8
LAYER_1
  6
AIGENLINE018
 40
0.1411
 41
0.1411
 66
1
 10
0
 20
0
 30
0
 70
128
  0
VERTEX
  8
LAYER_1
 10
92.4436
 20
98.4174
  0
VERTEX
  8
LAYER_1
 10
92.4436
 20
98.4395
  0
VERTEX
  8
LAYER_1
 10
92.3844
 20
98.5001
  0
VERTEX
  8
LAYER_1
 10
92.1039
 20
98.5001
  0
VERTEX
  8
LAYER_1
 10
92.0447
 20
98.4395
  0
VERTEX
  8
LAYER_1
 10
92.0447
 20
98.1708
  0
SEQEND
  0
POLYLINE
  8
LAYER_1
 40
0.1411
 41
0.1411
 66
1
 10
0
 20
0
 30
0
  0
VERTEX
  8
LAYER_1
 10
92.0447
 20
97.9234
  0
VERTEX
  8
LAYER_1
 10
92.0447
 20
97.5713
  0
SEQEND
  0
POLYLINE
  8
LAYER_1
 40
0.1411
 41
0.1411
 66
1
 10
0
 20
0
 30
0
  0
VERTEX
  8
LAYER_1
 10
92.4044
 20
97.5713
  0
VERTEX
  8
LAYER_1
 10
92.4044
 20
97.9234
  0
SEQEND
  0
POLYLINE
  8
LAYER_1
 40
0.1411
 41
0.1411
 66
1
 10
0
 20
0
 30
0
  0
VERTEX
  8
LAYER_1
 10
92.4044
 20
98.0874
  0
VERTEX
  8
LAYER_1
 10
92.4044
 20
98.4395
  0
SEQEND
  0
POLYLINE
  8
LAYER_1
 40
0.1411
 41
0.1411
 66
1
 10
0
 20
0
 30
0
  0
VERTEX
  8
LAYER_1
 10
92.084
 20
97.5713
  0
VERTEX
  8
LAYER_1
 10
92.084
 20
97.9234
  0
SEQEND
  0
POLYLINE
  8
LAYER_1
 40
0.1411
 41
0.1411
 66
1
 10
0
 20
0
 30
0
  0
VERTEX
  8
LAYER_1
 10
92.084
 20
98.0874
  0
VERTEX
  8
LAYER_1
 10
92.084
 20
98.4395
  0
SEQEND
  0
POLYLINE
  8
LAYER_1
  6
AIGENLINE019
 40
0.1411
 41
0.1411
 66
1
 10
0
 20
0
 30
0
 70
128
  0
VERTEX
  8
LAYER_1
 10
92.4436
 20
98.4395
  0
VERTEX
  8
LAYER_1
 10
92.0447
 20
98.4395
  0
SEQEND
  0
POLYLINE
  8
LAYER_1
 40
0.1411
 41
0.1411
 66
1
 10
0
 20
0
 30
0
  0
VERTEX
  8
LAYER_1
 10
84.5971
 20
97.5713
  0
VERTEX
  8
LAYER_1
 10
84.2443
 20
97.5713
  0
VERTEX
  8
LAYER_1
 10
84.2443
 20
97.7704
  0
VERTEX
  8
LAYER_1
 10
84.5971
 20
97.7704
  0
SEQEND
  0
POLYLINE
  8
LAYER_1
 40
0.1411
 41
0.1411
 66
1
 10
0
 20
0
 30
0
  0
VERTEX
  8
LAYER_1
 10
85.6409
 20
97.7704
  0
VERTEX
  8
LAYER_1
 10
85.9944
 20
97.7704
  0
VERTEX
  8
LAYER_1
 10
85.9944
 20
97.5713
  0
VERTEX
  8
LAYER_1
 10
85.6409
 20
97.5713
  0
SEQEND
  0
POLYLINE
  8
LAYER_1
 40
0.1411
 41
0.1411
 66
1
 10
0
 20
0
 30
0
  0
VERTEX
  8
LAYER_1
 10
93.8912
 20
97.5713
  0
VERTEX
  8
LAYER_1
 10
94.244
 20
97.5713
  0
VERTEX
  8
LAYER_1
 10
94.244
 20
97.7704
  0
VERTEX
  8
LAYER_1
 10
93.8912
 20
97.7704
  0
SEQEND
  0
POLYLINE
  8
LAYER_1
 40
0.1411
 41
0.1411
 66
1
 10
0
 20
0
 30
0
  0
VERTEX
  8
LAYER_1
 10
92.8467
 20
97.7704
  0
VERTEX
  8
LAYER_1
 10
92.4939
 20
97.7704
  0
VERTEX
  8
LAYER_1
 10
92.4939
 20
97.5713
  0
VERTEX
  8
LAYER_1
 10
92.8467
 20
97.5713
  0
SEQEND
  0
POLYLINE
  8
LAYER_1
 40
0.1411
 41
0.1411
 66
1
 10
0
 20
0
 30
0
  0
VERTEX
  8
LAYER_1
 10
86.8467
 20
97.5713
  0
VERTEX
  8
LAYER_1
 10
86.4939
 20
97.5713
  0
VERTEX
  8
LAYER_1
 10
86.4939
 20
97.7704
  0
VERTEX
  8
LAYER_1
 10
86.8467
 20
97.7704
  0
SEQEND
  0
POLYLINE
  8
LAYER_1
  6
AIGENLINE020
 40
0.1411
 41
0.1411
 66
1
 10
0
 20
0
 30
0
 70
128
  0
VERTEX
  8
LAYER_1
 10
87.5316
 20
97.7704
  0
VERTEX
  8
LAYER_1
 10
91.2992
 20
97.7704
  0
SEQEND
  0
POLYLINE
  8
LAYER_1
 40
0.1411
 41
0.1411
 66
1
 10
0
 20
0
 30
0
  0
VERTEX
  8
LAYER_1
 10
91.6416
 20
97.7704
  0
VERTEX
  8
LAYER_1
 10
91.9937
 20
97.7704
  0
VERTEX
  8
LAYER_1
 10
91.9937
 20
97.5713
  0
VERTEX
  8
LAYER_1
 10
91.6416
 20
97.5713
  0
SEQEND
  0
POLYLINE
  8
LAYER_1
  6
AIGENLINE020
 40
0.1411
 41
0.1411
 66
1
 10
0
 20
0
 30
0
 70
128
  0
VERTEX
  8
LAYER_1
 10
90.9567
 20
97.5713
  0
VERTEX
  8
LAYER_1
 10
87.1898
 20
97.5713
  0
SEQEND
  0
POLYLINE
  8
LAYER_1
 40
0.1411
 41
0.1411
 66
1
 10
0
 20
0
 30
0
  0
VERTEX
  8
LAYER_1
 10
99.7445
 20
97.7704
  0
VERTEX
  8
LAYER_1
 10
100.0972
 20
97.7704
  0
SEQEND
  0
POLYLINE
  8
LAYER_1
  6
AIGENLINE005
 40
0.1411
 41
0.1411
 66
1
 10
0
 20
0
 30
0
 70
128
  0
VERTEX
  8
LAYER_1
 10
100.8111
 20
97.7704
  0
VERTEX
  8
LAYER_1
 10
119.0349
 20
97.7704
  0
SEQEND
  0
POLYLINE
  8
LAYER_1
 40
0.1411
 41
0.1411
 66
1
 10
0
 20
0
 30
0
  0
VERTEX
  8
LAYER_1
 10
119.3925
 20
97.7704
  0
VERTEX
  8
LAYER_1
 10
119.746
 20
97.7704
  0
VERTEX
  8
LAYER_1
 10
119.746
 20
97.9709
  0
VERTEX
  8
LAYER_1
 10
119.7832
 20
98.1177
  0
SEQEND
  0
POLYLINE
  8
LAYER_1
  6
AIGENLINE021
 40
0.1411
 41
0.1411
 66
1
 10
0
 20
0
 30
0
 70
128
  0
VERTEX
  8
LAYER_1
 10
120.4398
 20
98.2707
  0
VERTEX
  8
LAYER_1
 10
121.4451
 20
98.2707
 42
0.3921046238
  0
VERTEX
  8
LAYER_1
 10
121.7462
 20
98.5711
  0
VERTEX
  8
LAYER_1
 10
121.7462
 20
98.9707
 42
0.3918054108
  0
VERTEX
  8
LAYER_1
 10
121.4451
 20
99.2711
  0
VERTEX
  8
LAYER_1
 10
89.9542
 20
99.2711
  0
SEQEND
  0
POLYLINE
  8
LAYER_1
 40
0.1411
 41
0.1411
 66
1
 10
0
 20
0
 30
0
  0
VERTEX
  8
LAYER_1
 10
89.5966
 20
99.2711
  0
VERTEX
  8
LAYER_1
 10
89.2445
 20
99.2711
  0
SEQEND
  0
POLYLINE
  8
LAYER_1
 40
0.1411
 41
0.1411
 66
1
 10
0
 20
0
 30
0
  0
VERTEX
  8
LAYER_1
 10
119.7446
 20
97.7704
  0
VERTEX
  8
LAYER_1
 10
119.3925
 20
97.7704
  0
SEQEND
  0
POLYLINE
  8
LAYER_1
  6
AIGENLINE008
 40
0.1411
 41
0.1411
 66
1
 10
0
 20
0
 30
0
 70
128
  0
VERTEX
  8
LAYER_1
 10
118.7001
 20
97.7704
  0
VERTEX
  8
LAYER_1
 10
89.9432
 20
97.7704
  0
SEQEND
  0
POLYLINE
  8
LAYER_1
 40
0.1411
 41
0.1411
 66
1
 10
0
 20
0
 30
0
  0
VERTEX
  8
LAYER_1
 10
89.5966
 20
97.7704
  0
VERTEX
  8
LAYER_1
 10
89.2445
 20
97.7704
  0
SEQEND
  0
POLYLINE
  8
LAYER_1
  6
AIGENLINE022
 40
0.1411
 41
0.1411
 66
1
 10
0
 20
0
 30
0
 70
128
  0
VERTEX
  8
LAYER_1
 10
85.7443
 20
137.7218
 42
0.1801635957
  0
VERTEX
  8
LAYER_1
 10
85.621
 20
137.7769
  0
SEQEND
  0
POLYLINE
  8
LAYER_1
 40
0.1411
 41
0.1411
 66
1
 10
0
 20
0
 30
0
  0
VERTEX
  8
LAYER_1
 10
85.7443
 20
137.7218
  0
VERTEX
  8
LAYER_1
 10
85.9992
 20
137.4779
  0
SEQEND
  0
POLYLINE
  8
LAYER_1
 40
0.1411
 41
0.1411
 66
1
 10
0
 20
0
 30
0
  0
VERTEX
  8
LAYER_1
 10
86.6262
 20
136.875
  0
VERTEX
  8
LAYER_1
 10
86.8812
 20
136.6318
  0
SEQEND
  0
POLYLINE
  8
LAYER_1
  6
AIGENLINE023
 40
0.1411
 41
0.1411
 66
1
 10
0
 20
0
 30
0
 70
128
  0
VERTEX
  8
LAYER_1
 10
86.9432
 20
136.4864
 42
0.1967028971
  0
VERTEX
  8
LAYER_1
 10
86.8812
 20
136.6318
  0
SEQEND
  0
POLYLINE
  8
LAYER_1
 40
0.1411
 41
0.1411
 66
1
 10
0
 20
0
 30
0
  0
VERTEX
  8
LAYER_1
 10
86.9432
 20
136.4864
  0
VERTEX
  8
LAYER_1
 10
86.9432
 20
136.1343
  0
SEQEND
  0
POLYLINE
  8
LAYER_1
 40
0.1411
 41
0.1411
 66
1
 10
0
 20
0
 30
0
  0
VERTEX
  8
LAYER_1
 10
86.9432
 20
135.6245
  0
VERTEX
  8
LAYER_1
 10
86.9432
 20
135.2731
  0
SEQEND
  0
POLYLINE
  8
LAYER_1
  6
AIGENLINE003
 40
0.1411
 41
0.1411
 66
1
 10
0
 20
0
 30
0
 70
128
  0
VERTEX
  8
LAYER_1
 10
86.9432
 20
135.2731
  0
VERTEX
  8
LAYER_1
 10
86.2507
 20
135.2731
  0
SEQEND
  0
POLYLINE
  8
LAYER_1
  6
AIGENLINE024
 40
0.1411
 41
0.1411
 66
1
 10
0
 20
0
 30
0
 70
128
  0
VERTEX
  8
LAYER_1
 10
86.25
 20
135.2731
  0
VERTEX
  8
LAYER_1
 10
86.25
 20
135.723
  0
SEQEND
  0
POLYLINE
  8
LAYER_1
 40
0.1411
 41
0.1411
 66
1
 10
0
 20
0
 30
0
  0
VERTEX
  8
LAYER_1
 10
86.1577
 20
135.9393
  0
VERTEX
  8
LAYER_1
 10
85.9028
 20
136.1839
  0
SEQEND
  0
POLYLINE
  8
LAYER_1
 40
0.1411
 41
0.1411
 66
1
 10
0
 20
0
 30
0
  0
VERTEX
  8
LAYER_1
 10
85.601
 20
136.474
  0
VERTEX
  8
LAYER_1
 10
85.346
 20
136.7179
  0
SEQEND
  0
POLYLINE
  8
LAYER_1
  6
AIGENLINE025
 40
0.1411
 41
0.1411
 66
1
 10
0
 20
0
 30
0
 70
128
  0
VERTEX
  8
LAYER_1
 10
86.25
 20
135.723
 42
0.2013400034
  0
VERTEX
  8
LAYER_1
 10
86.1577
 20
135.9393
  0
SEQEND
  0
POLYLINE
  8
LAYER_1
 40
0.1411
 41
0.1411
 66
1
 10
0
 20
0
 30
0
  0
VERTEX
  8
LAYER_1
 10
85.14
 20
136.8013
  0
VERTEX
  8
LAYER_1
 10
84.7872
 20
136.804
  0
SEQEND
  0
POLYLINE
  8
LAYER_1
  6
AIGENLINE026
 40
0.1411
 41
0.1411
 66
1
 10
0
 20
0
 30
0
 70
128
  0
VERTEX
  8
LAYER_1
 10
84.1037
 20
136.8068
  0
VERTEX
  8
LAYER_1
 10
68.0344
 20
136.8778
  0
SEQEND
  0
POLYLINE
  8
LAYER_1
 40
0.1411
 41
0.1411
 66
1
 10
0
 20
0
 30
0
  0
VERTEX
  8
LAYER_1
 10
67.692
 20
136.8792
  0
VERTEX
  8
LAYER_1
 10
67.3392
 20
136.8819
  0
SEQEND
  0
POLYLINE
  8
LAYER_1
  6
AIGENLINE027
 40
0.1411
 41
0.1411
 66
1
 10
0
 20
0
 30
0
 70
128
  0
VERTEX
  8
LAYER_1
 10
85.346
 20
136.7179
 42
0.1933963407
  0
VERTEX
  8
LAYER_1
 10
85.14
 20
136.8013
  0
SEQEND
  0
POLYLINE
  8
LAYER_1
 40
0.1411
 41
0.1411
 66
1
 10
0
 20
0
 30
0
  0
VERTEX
  8
LAYER_1
 10
67.3392
 20
136.8812
 42
0.1129210248
  0
VERTEX
  8
LAYER_1
 10
66.9926
 20
136.8288
  0
SEQEND
  0
POLYLINE
  8
LAYER_1
 40
0.1411
 41
0.1411
 66
1
 10
0
 20
0
 30
0
  0
VERTEX
  8
LAYER_1
 10
66.7253
 20
136.6587
 42
0.1121092279
  0
VERTEX
  8
LAYER_1
 10
66.5331
 20
136.3652
  0
VERTEX
  8
LAYER_1
 10
66.4083
 20
136.0351
  0
SEQEND
  0
POLYLINE
  8
LAYER_1
  6
AIGENLINE028
 40
0.1411
 41
0.1411
 66
1
 10
0
 20
0
 30
0
 70
128
  0
VERTEX
  8
LAYER_1
 10
66.2444
 20
135.601
  0
VERTEX
  8
LAYER_1
 10
65.9991
 20
134.9485
  0
SEQEND
  0
POLYLINE
  8
LAYER_1
 40
0.1411
 41
0.1411
 66
1
 10
0
 20
0
 30
0
  0
VERTEX
  8
LAYER_1
 10
65.9171
 20
134.7315
  0
VERTEX
  8
LAYER_1
 10
65.7923
 20
134.4007
  0
SEQEND
  0
POLYLINE
  8
LAYER_1
  6
AIGENLINE029
 40
0.1411
 41
0.1411
 66
1
 10
0
 20
0
 30
0
 70
128
  0
VERTEX
  8
LAYER_1
 10
65.605
 20
134.2712
 42
0.3016347556
  0
VERTEX
  8
LAYER_1
 10
65.7923
 20
134.4015
  0
SEQEND
  0
POLYLINE
  8
LAYER_1
 40
0.1411
 41
0.1411
 66
1
 10
0
 20
0
 30
0
  0
VERTEX
  8
LAYER_1
 10
91.5424
 20
135.2731
  0
VERTEX
  8
LAYER_1
 10
91.5424
 20
135.6245
  0
SEQEND
  0
POLYLINE
  8
LAYER_1
 40
0.1411
 41
0.1411
 66
1
 10
0
 20
0
 30
0
  0
VERTEX
  8
LAYER_1
 10
91.5424
 20
136.1343
  0
VERTEX
  8
LAYER_1
 10
91.5424
 20
136.4864
  0
SEQEND
  0
POLYLINE
  8
LAYER_1
  6
AIGENLINE023
 40
0.1411
 41
0.1411
 66
1
 10
0
 20
0
 30
0
 70
128
  0
VERTEX
  8
LAYER_1
 10
91.6044
 20
136.6318
 42
0.1991614989
  0
VERTEX
  8
LAYER_1
 10
91.5431
 20
136.4864
  0
SEQEND
  0
POLYLINE
  8
LAYER_1
 40
0.1411
 41
0.1411
 66
1
 10
0
 20
0
 30
0
  0
VERTEX
  8
LAYER_1
 10
91.6044
 20
136.6318
  0
VERTEX
  8
LAYER_1
 10
91.8586
 20
136.875
  0
SEQEND
  0
POLYLINE
  8
LAYER_1
 40
0.1411
 41
0.1411
 66
1
 10
0
 20
0
 30
0
  0
VERTEX
  8
LAYER_1
 10
92.487
 20
137.4779
  0
VERTEX
  8
LAYER_1
 10
92.7413
 20
137.7218
  0
SEQEND
  0
POLYLINE
  8
LAYER_1
  6
AIGENLINE030
 40
0.1411
 41
0.1411
 66
1
 10
0
 20
0
 30
0
 70
128
  0
VERTEX
  8
LAYER_1
 10
92.8646
 20
137.7769
 42
0.1834208617
  0
VERTEX
  8
LAYER_1
 10
92.7406
 20
137.7218
  0
SEQEND
  0
POLYLINE
  8
LAYER_1
 40
0.1411
 41
0.1411
 66
1
 10
0
 20
0
 30
0
  0
VERTEX
  8
LAYER_1
 10
64.7437
 20
134.2712
  0
VERTEX
  8
LAYER_1
 10
65.0958
 20
134.2712
  0
SEQEND
  0
POLYLINE
  8
LAYER_1
 40
0.1411
 41
0.1411
 66
1
 10
0
 20
0
 30
0
  0
VERTEX
  8
LAYER_1
 10
65.2522
 20
134.2712
  0
VERTEX
  8
LAYER_1
 10
65.605
 20
134.2712
  0
SEQEND
  0
POLYLINE
  8
LAYER_1
  6
AIGENLINE029
 40
0.1411
 41
0.1411
 66
1
 10
0
 20
0
 30
0
 70
128
  0
VERTEX
  8
LAYER_1
 10
112.696
 20
134.4007
 42
0.312487059
  0
VERTEX
  8
LAYER_1
 10
112.8827
 20
134.2712
  0
SEQEND
  0
POLYLINE
  8
LAYER_1
 40
0.1411
 41
0.1411
 66
1
 10
0
 20
0
 30
0
  0
VERTEX
  8
LAYER_1
 10
112.696
 20
134.4007
  0
VERTEX
  8
LAYER_1
 10
112.572
 20
134.7315
  0
SEQEND
  0
POLYLINE
  8
LAYER_1
  6
AIGENLINE028
 40
0.1411
 41
0.1411
 66
1
 10
0
 20
0
 30
0
 70
128
  0
VERTEX
  8
LAYER_1
 10
112.4073
 20
135.1662
  0
VERTEX
  8
LAYER_1
 10
112.162
 20
135.8174
  0
SEQEND
  0
POLYLINE
  8
LAYER_1
 40
0.1411
 41
0.1411
 66
1
 10
0
 20
0
 30
0
  0
VERTEX
  8
LAYER_1
 10
112.08
 20
136.0351
  0
VERTEX
  8
LAYER_1
 10
111.956
 20
136.3658
  0
SEQEND
  0
POLYLINE
  8
LAYER_1
 40
0.1411
 41
0.1411
 66
1
 10
0
 20
0
 30
0
  0
VERTEX
  8
LAYER_1
 10
111.956
 20
136.3652
 42
0.1055034387
  0
VERTEX
  8
LAYER_1
 10
111.7637
 20
136.6587
  0
SEQEND
  0
POLYLINE
  8
LAYER_1
 40
0.1411
 41
0.1411
 66
1
 10
0
 20
0
 30
0
  0
VERTEX
  8
LAYER_1
 10
111.495
 20
136.8288
 42
0.113550534
  0
VERTEX
  8
LAYER_1
 10
111.1491
 20
136.8812
  0
SEQEND
  0
POLYLINE
  8
LAYER_1
 40
0.1411
 41
0.1411
 66
1
 10
0
 20
0
 30
0
  0
VERTEX
  8
LAYER_1
 10
111.1491
 20
136.8812
  0
VERTEX
  8
LAYER_1
 10
110.7956
 20
136.8792
  0
SEQEND
  0
POLYLINE
  8
LAYER_1
  6
AIGENLINE031
 40
0.1411
 41
0.1411
 66
1
 10
0
 20
0
 30
0
 70
128
  0
VERTEX
  8
LAYER_1
 10
110.1115
 20
136.8764
  0
VERTEX
  8
LAYER_1
 10
94.0394
 20
136.8054
  0
SEQEND
  0
POLYLINE
  8
LAYER_1
 40
0.1411
 41
0.1411
 66
1
 10
0
 20
0
 30
0
  0
VERTEX
  8
LAYER_1
 10
93.6976
 20
136.804
  0
VERTEX
  8
LAYER_1
 10
93.3449
 20
136.8013
  0
SEQEND
  0
POLYLINE
  8
LAYER_1
  6
AIGENLINE027
 40
0.1411
 41
0.1411
 66
1
 10
0
 20
0
 30
0
 70
128
  0
VERTEX
  8
LAYER_1
 10
93.3449
 20
136.8013
 42
0.1918566963
  0
VERTEX
  8
LAYER_1
 10
93.1388
 20
136.7179
  0
SEQEND
  0
POLYLINE
  8
LAYER_1
 40
0.1411
 41
0.1411
 66
1
 10
0
 20
0
 30
0
  0
VERTEX
  8
LAYER_1
 10
93.1388
 20
136.7179
  0
VERTEX
  8
LAYER_1
 10
92.8839
 20
136.474
  0
SEQEND
  0
POLYLINE
  8
LAYER_1
 40
0.1411
 41
0.1411
 66
1
 10
0
 20
0
 30
0
  0
VERTEX
  8
LAYER_1
 10
92.5821
 20
136.1839
  0
VERTEX
  8
LAYER_1
 10
92.3272
 20
135.9393
  0
SEQEND
  0
POLYLINE
  8
LAYER_1
  6
AIGENLINE024
 40
0.1411
 41
0.1411
 66
1
 10
0
 20
0
 30
0
 70
128
  0
VERTEX
  8
LAYER_1
 10
92.2355
 20
135.723
  0
VERTEX
  8
LAYER_1
 10
92.2355
 20
135.2731
  0
SEQEND
  0
POLYLINE
  8
LAYER_1
  6
AIGENLINE025
 40
0.1411
 41
0.1411
 66
1
 10
0
 20
0
 30
0
 70
128
  0
VERTEX
  8
LAYER_1
 10
92.3279
 20
135.9393
 42
0.2012190194
  0
VERTEX
  8
LAYER_1
 10
92.2355
 20
135.723
  0
SEQEND
  0
POLYLINE
  8
LAYER_1
  6
AIGENLINE003
 40
0.1411
 41
0.1411
 66
1
 10
0
 20
0
 30
0
 70
128
  0
VERTEX
  8
LAYER_1
 10
92.2355
 20
135.2731
  0
VERTEX
  8
LAYER_1
 10
91.5431
 20
135.2731
  0
SEQEND
  0
POLYLINE
  8
LAYER_1
 40
0.1411
 41
0.1411
 66
1
 10
0
 20
0
 30
0
  0
VERTEX
  8
LAYER_1
 10
116.2458
 20
134.2712
  0
VERTEX
  8
LAYER_1
 10
115.922
 20
134.4125
  0
SEQEND
  0
POLYLINE
  8
LAYER_1
  6
AIGENLINE032
 40
0.1411
 41
0.1411
 66
1
 10
0
 20
0
 30
0
 70
128
  0
VERTEX
  8
LAYER_1
 10
115.3101
 20
134.5565
 42
0.08634991506
  0
VERTEX
  8
LAYER_1
 10
114.3703
 20
134.502
  0
SEQEND
  0
POLYLINE
  8
LAYER_1
 40
0.1411
 41
0.1411
 66
1
 10
0
 20
0
 30
0
  0
VERTEX
  8
LAYER_1
 10
114.0692
 20
134.4125
  0
VERTEX
  8
LAYER_1
 10
113.7447
 20
134.2712
  0
SEQEND
  0
POLYLINE
  8
LAYER_1
 40
0.1411
 41
0.1411
 66
1
 10
0
 20
0
 30
0
  0
VERTEX
  8
LAYER_1
 10
116.2458
 20
134.2712
  0
VERTEX
  8
LAYER_1
 10
116.5979
 20
134.2712
  0
SEQEND
  0
POLYLINE
  8
LAYER_1
 40
0.1411
 41
0.1411
 66
1
 10
0
 20
0
 30
0
  0
VERTEX
  8
LAYER_1
 10
116.7157
 20
134.2712
  0
VERTEX
  8
LAYER_1
 10
117.0685
 20
134.2712
  0
SEQEND
  0
POLYLINE
  8
LAYER_1
  6
AIGENLINE033
 40
0.1411
 41
0.1411
 66
1
 10
0
 20
0
 30
0
 70
128
  0
VERTEX
  8
LAYER_1
 10
117.0685
 20
134.2712
 42
0.3627425759
  0
VERTEX
  8
LAYER_1
 10
117.2662
 20
134.4469
  0
SEQEND
  0
POLYLINE
  8
LAYER_1
 40
0.1411
 41
0.1411
 66
1
 10
0
 20
0
 30
0
  0
VERTEX
  8
LAYER_1
 10
117.2662
 20
134.4469
  0
VERTEX
  8
LAYER_1
 10
117.3097
 20
134.7983
  0
SEQEND
  0
POLYLINE
  8
LAYER_1
  6
AIGENLINE034
 40
0.1411
 41
0.1411
 66
1
 10
0
 20
0
 30
0
 70
128
  0
VERTEX
  8
LAYER_1
 10
117.3923
 20
135.4756
  0
VERTEX
  8
LAYER_1
 10
119.1769
 20
150.0432
  0
SEQEND
  0
POLYLINE
  8
LAYER_1
 40
0.1411
 41
0.1411
 66
1
 10
0
 20
0
 30
0
  0
VERTEX
  8
LAYER_1
 10
119.2168
 20
150.3829
  0
VERTEX
  8
LAYER_1
 10
119.2596
 20
150.7329
  0
SEQEND
  0
POLYLINE
  8
LAYER_1
 40
0.1411
 41
0.1411
 66
1
 10
0
 20
0
 30
0
  0
VERTEX
  8
LAYER_1
 10
119.7563
 20
151.1718
 42
0.1790535265
  0
VERTEX
  8
LAYER_1
 10
119.4318
 20
151.0519
  0
SEQEND
  0
POLYLINE
  8
LAYER_1
 40
0.1411
 41
0.1411
 66
1
 10
0
 20
0
 30
0
  0
VERTEX
  8
LAYER_1
 10
119.4187
 20
151.0402
 42
0.1760300323
  0
VERTEX
  8
LAYER_1
 10
119.2596
 20
150.7329
  0
SEQEND
  0
POLYLINE
  8
LAYER_1
 40
0.1411
 41
0.1411
 66
1
 10
0
 20
0
 30
0
  0
VERTEX
  8
LAYER_1
 10
119.7563
 20
151.1718
  0
VERTEX
  8
LAYER_1
 10
120.1091
 20
151.1718
  0
SEQEND
  0
POLYLINE
  8
LAYER_1
  6
AIGENLINE035
 40
0.1411
 41
0.1411
 66
1
 10
0
 20
0
 30
0
 70
128
  0
VERTEX
  8
LAYER_1
 10
120.8257
 20
151.1718
  0
VERTEX
  8
LAYER_1
 10
123.3344
 20
151.1718
  0
SEQEND
  0
POLYLINE
  8
LAYER_1
 40
0.1411
 41
0.1411
 66
1
 10
0
 20
0
 30
0
  0
VERTEX
  8
LAYER_1
 10
123.692
 20
151.1718
  0
VERTEX
  8
LAYER_1
 10
124.0455
 20
151.1718
  0
SEQEND
  0
POLYLINE
  8
LAYER_1
  6
AIGENLINE036
 40
0.1411
 41
0.1411
 66
1
 10
0
 20
0
 30
0
 70
128
  0
VERTEX
  8
LAYER_1
 10
124.0455
 20
151.1718
 42
0.3940067225
  0
VERTEX
  8
LAYER_1
 10
124.2453
 20
151.3723
  0
SEQEND
  0
POLYLINE
  8
LAYER_1
  6
AIGENLINE009
 40
0.1411
 41
0.1411
 66
1
 10
0
 20
0
 30
0
 70
128
  0
VERTEX
  8
LAYER_1
 10
124.2453
 20
151.3723
  0
VERTEX
  8
LAYER_1
 10
124.2453
 20
152.0724
  0
SEQEND
  0
POLYLINE
  8
LAYER_1
  6
AIGENLINE036
 40
0.1411
 41
0.1411
 66
1
 10
0
 20
0
 30
0
 70
128
  0
VERTEX
  8
LAYER_1
 10
124.2453
 20
152.0724
 42
0.4141513367
  0
VERTEX
  8
LAYER_1
 10
124.0455
 20
152.2722
  0
SEQEND
  0
POLYLINE
  8
LAYER_1
 40
0.1411
 41
0.1411
 66
1
 10
0
 20
0
 30
0
  0
VERTEX
  8
LAYER_1
 10
124.0455
 20
152.2715
  0
VERTEX
  8
LAYER_1
 10
123.692
 20
152.2715
  0
SEQEND
  0
POLYLINE
  8
LAYER_1
  6
AIGENLINE037
 40
0.1411
 41
0.1411
 66
1
 10
0
 20
0
 30
0
 70
128
  0
VERTEX
  8
LAYER_1
 10
123.0278
 20
152.2715
  0
VERTEX
  8
LAYER_1
 10
119.3705
 20
152.2715
  0
SEQEND
  0
POLYLINE
  8
LAYER_1
 40
0.1411
 41
0.1411
 66
1
 10
0
 20
0
 30
0
  0
VERTEX
  8
LAYER_1
 10
119.0391
 20
152.2715
  0
VERTEX
  8
LAYER_1
 10
118.6842
 20
152.2715
  0
SEQEND
  0
POLYLINE
  8
LAYER_1
 40
0.1411
 41
0.1411
 66
1
 10
0
 20
0
 30
0
  0
VERTEX
  8
LAYER_1
 10
60.2995
 20
151.8353
 42
0.1788493034
  0
VERTEX
  8
LAYER_1
 10
60.139
 20
152.142
  0
SEQEND
  0
POLYLINE
  8
LAYER_1
 40
0.1411
 41
0.1411
 66
1
 10
0
 20
0
 30
0
  0
VERTEX
  8
LAYER_1
 10
60.1286
 20
152.1523
 42
0.1754854881
  0
VERTEX
  8
LAYER_1
 10
59.8041
 20
152.2715
  0
SEQEND
  0
POLYLINE
  8
LAYER_1
 40
0.1411
 41
0.1411
 66
1
 10
0
 20
0
 30
0
  0
VERTEX
  8
LAYER_1
 10
60.2995
 20
151.8353
  0
VERTEX
  8
LAYER_1
 10
60.345
 20
151.486
  0
SEQEND
  0
POLYLINE
  8
LAYER_1
  6
AIGENLINE038
 40
0.1411
 41
0.1411
 66
1
 10
0
 20
0
 30
0
 70
128
  0
VERTEX
  8
LAYER_1
 10
60.4387
 20
150.7522
  0
VERTEX
  8
LAYER_1
 10
61.8987
 20
139.3934
  0
SEQEND
  0
POLYLINE
  8
LAYER_1
 40
0.1411
 41
0.1411
 66
1
 10
0
 20
0
 30
0
  0
VERTEX
  8
LAYER_1
 10
61.9463
 20
139.0275
  0
VERTEX
  8
LAYER_1
 10
61.9911
 20
138.6768
  0
SEQEND
  0
POLYLINE
  8
LAYER_1
  6
AIGENLINE039
 40
0.1411
 41
0.1411
 66
1
 10
0
 20
0
 30
0
 70
128
  0
VERTEX
  8
LAYER_1
 10
61.9911
 20
138.6768
 42
0.3430754381
  0
VERTEX
  8
LAYER_1
 10
62.4506
 20
138.2427
  0
SEQEND
  0
POLYLINE
  8
LAYER_1
 40
0.1411
 41
0.1411
 66
1
 10
0
 20
0
 30
0
  0
VERTEX
  8
LAYER_1
 10
62.4506
 20
138.2427
  0
VERTEX
  8
LAYER_1
 10
62.8034
 20
138.2338
  0
SEQEND
  0
POLYLINE
  8
LAYER_1
  6
AIGENLINE040
 40
0.1411
 41
0.1411
 66
1
 10
0
 20
0
 30
0
 70
128
  0
VERTEX
  8
LAYER_1
 10
63.5283
 20
138.2207
  0
VERTEX
  8
LAYER_1
 10
84.9051
 20
137.7914
  0
SEQEND
  0
POLYLINE
  8
LAYER_1
 40
0.1411
 41
0.1411
 66
1
 10
0
 20
0
 30
0
  0
VERTEX
  8
LAYER_1
 10
85.2682
 20
137.7845
  0
VERTEX
  8
LAYER_1
 10
85.621
 20
137.7769
  0
SEQEND
  0
POLYLINE
  8
LAYER_1
 40
0.1411
 41
0.1411
 66
1
 10
0
 20
0
 30
0
  0
VERTEX
  8
LAYER_1
 10
92.8646
 20
137.7769
  0
VERTEX
  8
LAYER_1
 10
93.2174
 20
137.7845
  0
SEQEND
  0
POLYLINE
  8
LAYER_1
  6
AIGENLINE040
 40
0.1411
 41
0.1411
 66
1
 10
0
 20
0
 30
0
 70
128
  0
VERTEX
  8
LAYER_1
 10
93.9423
 20
137.799
  0
VERTEX
  8
LAYER_1
 10
115.3218
 20
138.2269
  0
SEQEND
  0
POLYLINE
  8
LAYER_1
 40
0.1411
 41
0.1411
 66
1
 10
0
 20
0
 30
0
  0
VERTEX
  8
LAYER_1
 10
115.6849
 20
138.2352
  0
VERTEX
  8
LAYER_1
 10
116.0377
 20
138.2427
  0
SEQEND
  0
POLYLINE
  8
LAYER_1
  6
AIGENLINE039
 40
0.1411
 41
0.1411
 66
1
 10
0
 20
0
 30
0
 70
128
  0
VERTEX
  8
LAYER_1
 10
116.0384
 20
138.2427
 42
0.3430750721
  0
VERTEX
  8
LAYER_1
 10
116.4973
 20
138.6768
  0
SEQEND
  0
POLYLINE
  8
LAYER_1
 40
0.1411
 41
0.1411
 66
1
 10
0
 20
0
 30
0
  0
VERTEX
  8
LAYER_1
 10
116.4973
 20
138.6768
  0
VERTEX
  8
LAYER_1
 10
116.5421
 20
139.0275
  0
SEQEND
  0
POLYLINE
  8
LAYER_1
  6
AIGENLINE038
 40
0.1411
 41
0.1411
 66
1
 10
0
 20
0
 30
0
 70
128
  0
VERTEX
  8
LAYER_1
 10
116.6372
 20
139.7591
  0
VERTEX
  8
LAYER_1
 10
118.0972
 20
151.1194
  0
SEQEND
  0
POLYLINE
  8
LAYER_1
 40
0.1411
 41
0.1411
 66
1
 10
0
 20
0
 30
0
  0
VERTEX
  8
LAYER_1
 10
118.144
 20
151.486
  0
VERTEX
  8
LAYER_1
 10
118.1888
 20
151.8353
  0
SEQEND
  0
POLYLINE
  8
LAYER_1
 40
0.1411
 41
0.1411
 66
1
 10
0
 20
0
 30
0
  0
VERTEX
  8
LAYER_1
 10
118.6842
 20
152.2715
 42
0.1777031675
  0
VERTEX
  8
LAYER_1
 10
118.3611
 20
152.1523
  0
SEQEND
  0
POLYLINE
  8
LAYER_1
 40
0.1411
 41
0.1411
 66
1
 10
0
 20
0
 30
0
  0
VERTEX
  8
LAYER_1
 10
118.3494
 20
152.142
 42
0.1771438594
  0
VERTEX
  8
LAYER_1
 10
118.1888
 20
151.8353
  0
SEQEND
  0
POLYLINE
  8
LAYER_1
 40
0.1411
 41
0.1411
 66
1
 10
0
 20
0
 30
0
  0
VERTEX
  8
LAYER_1
 10
59.8034
 20
152.2715
  0
VERTEX
  8
LAYER_1
 10
59.4506
 20
152.2715
  0
SEQEND
  0
POLYLINE
  8
LAYER_1
  6
AIGENLINE037
 40
0.1411
 41
0.1411
 66
1
 10
0
 20
0
 30
0
 70
128
  0
VERTEX
  8
LAYER_1
 10
58.7851
 20
152.2715
  0
VERTEX
  8
LAYER_1
 10
55.1277
 20
152.2715
  0
SEQEND
  0
POLYLINE
  8
LAYER_1
 40
0.1411
 41
0.1411
 66
1
 10
0
 20
0
 30
0
  0
VERTEX
  8
LAYER_1
 10
54.7956
 20
152.2715
  0
VERTEX
  8
LAYER_1
 10
54.4435
 20
152.2715
  0
SEQEND
  0
POLYLINE
  8
LAYER_1
  6
AIGENLINE036
 40
0.1411
 41
0.1411
 66
1
 10
0
 20
0
 30
0
 70
128
  0
VERTEX
  8
LAYER_1
 10
54.4435
 20
152.2715
 42
0.392852896
  0
VERTEX
  8
LAYER_1
 10
54.2423
 20
152.0717
  0
SEQEND
  0
POLYLINE
  8
LAYER_1
  6
AIGENLINE009
 40
0.1411
 41
0.1411
 66
1
 10
0
 20
0
 30
0
 70
128
  0
VERTEX
  8
LAYER_1
 10
54.2437
 20
152.0724
  0
VERTEX
  8
LAYER_1
 10
54.2437
 20
151.3723
  0
SEQEND
  0
POLYLINE
  8
LAYER_1
  6
AIGENLINE036
 40
0.1411
 41
0.1411
 66
1
 10
0
 20
0
 30
0
 70
128
  0
VERTEX
  8
LAYER_1
 10
54.2437
 20
151.3723
 42
0.3925483472
  0
VERTEX
  8
LAYER_1
 10
54.4435
 20
151.1718
  0
SEQEND
  0
POLYLINE
  8
LAYER_1
 40
0.1411
 41
0.1411
 66
1
 10
0
 20
0
 30
0
  0
VERTEX
  8
LAYER_1
 10
54.4435
 20
151.1718
  0
VERTEX
  8
LAYER_1
 10
54.7956
 20
151.1718
  0
SEQEND
  0
POLYLINE
  8
LAYER_1
  6
AIGENLINE035
 40
0.1411
 41
0.1411
 66
1
 10
0
 20
0
 30
0
 70
128
  0
VERTEX
  8
LAYER_1
 10
55.5122
 20
151.1718
  0
VERTEX
  8
LAYER_1
 10
58.0216
 20
151.1718
  0
SEQEND
  0
POLYLINE
  8
LAYER_1
 40
0.1411
 41
0.1411
 66
1
 10
0
 20
0
 30
0
  0
VERTEX
  8
LAYER_1
 10
58.3792
 20
151.1718
  0
VERTEX
  8
LAYER_1
 10
58.732
 20
151.1718
  0
SEQEND
  0
POLYLINE
  8
LAYER_1
 40
0.1411
 41
0.1411
 66
1
 10
0
 20
0
 30
0
  0
VERTEX
  8
LAYER_1
 10
59.2288
 20
150.7329
 42
0.174955236
  0
VERTEX
  8
LAYER_1
 10
59.0703
 20
151.0402
  0
SEQEND
  0
POLYLINE
  8
LAYER_1
 40
0.1411
 41
0.1411
 66
1
 10
0
 20
0
 30
0
  0
VERTEX
  8
LAYER_1
 10
59.0572
 20
151.0519
 42
0.176857826
  0
VERTEX
  8
LAYER_1
 10
58.7327
 20
151.1718
  0
SEQEND
  0
POLYLINE
  8
LAYER_1
 40
0.1411
 41
0.1411
 66
1
 10
0
 20
0
 30
0
  0
VERTEX
  8
LAYER_1
 10
59.2288
 20
150.7329
  0
VERTEX
  8
LAYER_1
 10
59.2708
 20
150.3829
  0
SEQEND
  0
POLYLINE
  8
LAYER_1
  6
AIGENLINE034
 40
0.1411
 41
0.1411
 66
1
 10
0
 20
0
 30
0
 70
128
  0
VERTEX
  8
LAYER_1
 10
59.3535
 20
149.7049
  0
VERTEX
  8
LAYER_1
 10
61.1373
 20
135.1366
  0
SEQEND
  0
POLYLINE
  8
LAYER_1
 40
0.1411
 41
0.1411
 66
1
 10
0
 20
0
 30
0
  0
VERTEX
  8
LAYER_1
 10
61.1787
 20
134.7983
  0
VERTEX
  8
LAYER_1
 10
61.2221
 20
134.4469
  0
SEQEND
  0
POLYLINE
  8
LAYER_1
  6
AIGENLINE033
 40
0.1411
 41
0.1411
 66
1
 10
0
 20
0
 30
0
 70
128
  0
VERTEX
  8
LAYER_1
 10
61.2207
 20
134.4469
 42
0.3577064546
  0
VERTEX
  8
LAYER_1
 10
61.4205
 20
134.2712
  0
SEQEND
  0
POLYLINE
  8
LAYER_1
 40
0.1411
 41
0.1411
 66
1
 10
0
 20
0
 30
0
  0
VERTEX
  8
LAYER_1
 10
61.4205
 20
134.2712
  0
VERTEX
  8
LAYER_1
 10
61.7733
 20
134.2712
  0
SEQEND
  0
POLYLINE
  8
LAYER_1
 40
0.1411
 41
0.1411
 66
1
 10
0
 20
0
 30
0
  0
VERTEX
  8
LAYER_1
 10
61.8904
 20
134.2712
  0
VERTEX
  8
LAYER_1
 10
62.2432
 20
134.2712
  0
SEQEND
  0
POLYLINE
  8
LAYER_1
 40
0.1411
 41
0.1411
 66
1
 10
0
 20
0
 30
0
  0
VERTEX
  8
LAYER_1
 10
64.7437
 20
134.2712
  0
VERTEX
  8
LAYER_1
 10
64.4198
 20
134.4125
  0
SEQEND
  0
POLYLINE
  8
LAYER_1
  6
AIGENLINE032
 40
0.1411
 41
0.1411
 66
1
 10
0
 20
0
 30
0
 70
128
  0
VERTEX
  8
LAYER_1
 10
63.808
 20
134.5565
 42
0.08642293156
  0
VERTEX
  8
LAYER_1
 10
62.8688
 20
134.502
  0
SEQEND
  0
POLYLINE
  8
LAYER_1
 40
0.1411
 41
0.1411
 66
1
 10
0
 20
0
 30
0
  0
VERTEX
  8
LAYER_1
 10
62.5671
 20
134.4125
  0
VERTEX
  8
LAYER_1
 10
62.2432
 20
134.2712
  0
SEQEND
  0
POLYLINE
  8
LAYER_1
  6
AIGENLINE041
 40
0.1411
 41
0.1411
 66
1
 10
0
 20
0
 30
0
 70
128
  0
VERTEX
  8
LAYER_1
 10
116.1349
 20
135.3916
 42
0.4176125763
  0
VERTEX
  8
LAYER_1
 10
116.3864
 20
135.5204
  0
VERTEX
  8
LAYER_1
 10
116.3953
 20
135.5576
  0
SEQEND
  0
POLYLINE
  8
LAYER_1
 40
0.1411
 41
0.1411
 66
1
 10
0
 20
0
 30
0
  0
VERTEX
  8
LAYER_1
 10
116.3953
 20
135.5576
  0
VERTEX
  8
LAYER_1
 10
116.4387
 20
135.9083
  0
SEQEND
  0
POLYLINE
  8
LAYER_1
 40
0.1411
 41
0.1411
 66
1
 10
0
 20
0
 30
0
  0
VERTEX
  8
LAYER_1
 10
116.5338
 20
136.6897
  0
VERTEX
  8
LAYER_1
 10
116.5772
 20
137.0397
  0
SEQEND
  0
POLYLINE
  8
LAYER_1
  6
AIGENLINE042
 40
0.1411
 41
0.1411
 66
1
 10
0
 20
0
 30
0
 70
128
  0
VERTEX
  8
LAYER_1
 10
116.5772
 20
137.0397
 42
0.3900625783
  0
VERTEX
  8
LAYER_1
 10
116.4029
 20
137.2622
  0
VERTEX
  8
LAYER_1
 10
116.3636
 20
137.2636
  0
SEQEND
  0
POLYLINE
  8
LAYER_1
 40
0.1411
 41
0.1411
 66
1
 10
0
 20
0
 30
0
  0
VERTEX
  8
LAYER_1
 10
116.3629
 20
137.2622
  0
VERTEX
  8
LAYER_1
 10
116.0108
 20
137.2368
  0
SEQEND
  0
POLYLINE
  8
LAYER_1
  6
AIGENLINE043
 40
0.1411
 41
0.1411
 66
1
 10
0
 20
0
 30
0
 70
128
  0
VERTEX
  8
LAYER_1
 10
115.142
 20
137.174
  0
VERTEX
  8
LAYER_1
 10
113.8377
 20
137.0783
  0
SEQEND
  0
POLYLINE
  8
LAYER_1
 40
0.1411
 41
0.1411
 66
1
 10
0
 20
0
 30
0
  0
VERTEX
  8
LAYER_1
 10
113.4036
 20
137.0466
  0
VERTEX
  8
LAYER_1
 10
113.0515
 20
137.0204
  0
SEQEND
  0
POLYLINE
  8
LAYER_1
  6
AIGENLINE044
 40
0.1411
 41
0.1411
 66
1
 10
0
 20
0
 30
0
 70
128
  0
VERTEX
  8
LAYER_1
 10
113.0515
 20
137.0204
 42
0.3910213387
  0
VERTEX
  8
LAYER_1
 10
112.8661
 20
136.8068
  0
VERTEX
  8
LAYER_1
 10
112.8793
 20
136.7503
  0
SEQEND
  0
POLYLINE
  8
LAYER_1
 40
0.1411
 41
0.1411
 66
1
 10
0
 20
0
 30
0
  0
VERTEX
  8
LAYER_1
 10
112.8793
 20
136.751
  0
VERTEX
  8
LAYER_1
 10
113.0033
 20
136.4203
  0
SEQEND
  0
POLYLINE
  8
LAYER_1
 40
0.1411
 41
0.1411
 66
1
 10
0
 20
0
 30
0
  0
VERTEX
  8
LAYER_1
 10
113.2527
 20
135.7609
  0
VERTEX
  8
LAYER_1
 10
113.3767
 20
135.4302
  0
SEQEND
  0
POLYLINE
  8
LAYER_1
  6
AIGENLINE036
 40
0.1411
 41
0.1411
 66
1
 10
0
 20
0
 30
0
 70
128
  0
VERTEX
  8
LAYER_1
 10
113.3767
 20
135.4302
 42
0.3913266976
  0
VERTEX
  8
LAYER_1
 10
113.6344
 20
135.313
  0
SEQEND
  0
POLYLINE
  8
LAYER_1
 40
0.1411
 41
0.1411
 66
1
 10
0
 20
0
 30
0
  0
VERTEX
  8
LAYER_1
 10
116.1349
 20
135.3916
  0
VERTEX
  8
LAYER_1
 10
115.7952
 20
135.4853
  0
SEQEND
  0
POLYLINE
  8
LAYER_1
  6
AIGENLINE045
 40
0.1411
 41
0.1411
 66
1
 10
0
 20
0
 30
0
 70
128
  0
VERTEX
  8
LAYER_1
 10
115.1868
 20
135.5687
 42
0.06315278131
  0
VERTEX
  8
LAYER_1
 10
114.2717
 20
135.5039
  0
SEQEND
  0
POLYLINE
  8
LAYER_1
 40
0.1411
 41
0.1411
 66
1
 10
0
 20
0
 30
0
  0
VERTEX
  8
LAYER_1
 10
113.9693
 20
135.4288
  0
VERTEX
  8
LAYER_1
 10
113.6365
 20
135.3144
  0
SEQEND
  0
POLYLINE
  8
LAYER_1
  6
AIGENLINE041
 40
0.1411
 41
0.1411
 66
1
 10
0
 20
0
 30
0
 70
128
  0
VERTEX
  8
LAYER_1
 10
62.0937
 20
135.5576
 42
0.3936406094
  0
VERTEX
  8
LAYER_1
 10
62.3163
 20
135.3833
  0
VERTEX
  8
LAYER_1
 10
62.3542
 20
135.3916
  0
SEQEND
  0
POLYLINE
  8
LAYER_1
 40
0.1411
 41
0.1411
 66
1
 10
0
 20
0
 30
0
  0
VERTEX
  8
LAYER_1
 10
62.0937
 20
135.5576
  0
VERTEX
  8
LAYER_1
 10
62.0503
 20
135.9083
  0
SEQEND
  0
POLYLINE
  8
LAYER_1
 40
0.1411
 41
0.1411
 66
1
 10
0
 20
0
 30
0
  0
VERTEX
  8
LAYER_1
 10
61.9552
 20
136.6897
  0
VERTEX
  8
LAYER_1
 10
61.9118
 20
137.0397
  0
SEQEND
  0
POLYLINE
  8
LAYER_1
  6
AIGENLINE046
 40
0.1411
 41
0.1411
 66
1
 10
0
 20
0
 30
0
 70
128
  0
VERTEX
  8
LAYER_1
 10
62.1254
 20
137.2622
 42
0.3939632067
  0
VERTEX
  8
LAYER_1
 10
61.9111
 20
137.0783
  0
VERTEX
  8
LAYER_1
 10
61.9118
 20
137.0397
  0
SEQEND
  0
POLYLINE
  8
LAYER_1
 40
0.1411
 41
0.1411
 66
1
 10
0
 20
0
 30
0
  0
VERTEX
  8
LAYER_1
 10
62.1254
 20
137.2622
  0
VERTEX
  8
LAYER_1
 10
62.4768
 20
137.2368
  0
SEQEND
  0
POLYLINE
  8
LAYER_1
  6
AIGENLINE043
 40
0.1411
 41
0.1411
 66
1
 10
0
 20
0
 30
0
 70
128
  0
VERTEX
  8
LAYER_1
 10
63.3464
 20
137.174
  0
VERTEX
  8
LAYER_1
 10
64.6493
 20
137.0783
  0
SEQEND
  0
POLYLINE
  8
LAYER_1
 40
0.1411
 41
0.1411
 66
1
 10
0
 20
0
 30
0
  0
VERTEX
  8
LAYER_1
 10
65.0847
 20
137.0466
  0
VERTEX
  8
LAYER_1
 10
65.4361
 20
137.0204
  0
SEQEND
  0
POLYLINE
  8
LAYER_1
  6
AIGENLINE044
 40
0.1411
 41
0.1411
 66
1
 10
0
 20
0
 30
0
 70
128
  0
VERTEX
  8
LAYER_1
 10
65.6091
 20
136.751
 42
0.3930742544
  0
VERTEX
  8
LAYER_1
 10
65.492
 20
137.0087
  0
VERTEX
  8
LAYER_1
 10
65.4368
 20
137.0204
  0
SEQEND
  0
POLYLINE
  8
LAYER_1
 40
0.1411
 41
0.1411
 66
1
 10
0
 20
0
 30
0
  0
VERTEX
  8
LAYER_1
 10
65.6091
 20
136.751
  0
VERTEX
  8
LAYER_1
 10
65.4844
 20
136.4203
  0
SEQEND
  0
POLYLINE
  8
LAYER_1
 40
0.1411
 41
0.1411
 66
1
 10
0
 20
0
 30
0
  0
VERTEX
  8
LAYER_1
 10
65.2356
 20
135.7609
  0
VERTEX
  8
LAYER_1
 10
65.1116
 20
135.4302
  0
SEQEND
  0
POLYLINE
  8
LAYER_1
  6
AIGENLINE036
 40
0.1411
 41
0.1411
 66
1
 10
0
 20
0
 30
0
 70
128
  0
VERTEX
  8
LAYER_1
 10
64.8518
 20
135.3144
 42
0.3946048222
  0
VERTEX
  8
LAYER_1
 10
65.1103
 20
135.4288
  0
SEQEND
  0
POLYLINE
  8
LAYER_1
 40
0.1411
 41
0.1411
 66
1
 10
0
 20
0
 30
0
  0
VERTEX
  8
LAYER_1
 10
64.8518
 20
135.3144
  0
VERTEX
  8
LAYER_1
 10
64.5184
 20
135.4288
  0
SEQEND
  0
POLYLINE
  8
LAYER_1
  6
AIGENLINE045
 40
0.1411
 41
0.1411
 66
1
 10
0
 20
0
 30
0
 70
128
  0
VERTEX
  8
LAYER_1
 10
63.9162
 20
135.5494
 42
0.06467965356
  0
VERTEX
  8
LAYER_1
 10
62.9984
 20
135.5404
  0
SEQEND
  0
POLYLINE
  8
LAYER_1
 40
0.1411
 41
0.1411
 66
1
 10
0
 20
0
 30
0
  0
VERTEX
  8
LAYER_1
 10
62.6932
 20
135.4853
  0
VERTEX
  8
LAYER_1
 10
62.3542
 20
135.3916
  0
SEQEND
  0
POLYLINE
  8
LAYER_1
 40
0.1411
 41
0.1411
 66
1
 10
0
 20
0
 30
0
  0
VERTEX
  8
LAYER_1
 10
112.8827
 20
134.2712
  0
VERTEX
  8
LAYER_1
 10
113.2355
 20
134.2712
  0
SEQEND
  0
POLYLINE
  8
LAYER_1
 40
0.1411
 41
0.1411
 66
1
 10
0
 20
0
 30
0
  0
VERTEX
  8
LAYER_1
 10
113.3919
 20
134.2712
  0
VERTEX
  8
LAYER_1
 10
113.7447
 20
134.2712
  0
SEQEND
  0
POLYLINE
  8
LAYER_1
 40
0.1411
 41
0.1411
 66
1
 10
0
 20
0
 30
0
  0
VERTEX
  8
LAYER_1
 10
85.621
 20
137.7769
  0
VERTEX
  8
LAYER_1
 10
85.9737
 20
137.7769
  0
SEQEND
  0
POLYLINE
  8
LAYER_1
  6
AIGENLINE047
 40
0.1411
 41
0.1411
 66
1
 10
0
 20
0
 30
0
 70
128
  0
VERTEX
  8
LAYER_1
 10
86.6993
 20
137.7769
  0
VERTEX
  8
LAYER_1
 10
92.1487
 20
137.7769
  0
SEQEND
  0
POLYLINE
  8
LAYER_1
 40
0.1411
 41
0.1411
 66
1
 10
0
 20
0
 30
0
  0
VERTEX
  8
LAYER_1
 10
92.5118
 20
137.7769
  0
VERTEX
  8
LAYER_1
 10
92.8646
 20
137.7769
  0
SEQEND
  0
POLYLINE
  8
LAYER_1
 40
0.1411
 41
0.1411
 66
1
 10
0
 20
0
 30
0
  0
VERTEX
  8
LAYER_1
 10
86.8812
 20
136.6318
  0
VERTEX
  8
LAYER_1
 10
87.2346
 20
136.6318
  0
SEQEND
  0
POLYLINE
  8
LAYER_1
  6
AIGENLINE048
 40
0.1411
 41
0.1411
 66
1
 10
0
 20
0
 30
0
 70
128
  0
VERTEX
  8
LAYER_1
 10
88.038
 20
136.6318
  0
VERTEX
  8
LAYER_1
 10
90.8499
 20
136.6318
  0
SEQEND
  0
POLYLINE
  8
LAYER_1
 40
0.1411
 41
0.1411
 66
1
 10
0
 20
0
 30
0
  0
VERTEX
  8
LAYER_1
 10
91.2516
 20
136.6318
  0
VERTEX
  8
LAYER_1
 10
91.6044
 20
136.6318
  0
SEQEND
  0
POLYLINE
  8
LAYER_1
 40
0.1411
 41
0.1411
 66
1
 10
0
 20
0
 30
0
  0
VERTEX
  8
LAYER_1
 10
86.9432
 20
135.2731
  0
VERTEX
  8
LAYER_1
 10
87.296
 20
135.2731
  0
SEQEND
  0
POLYLINE
  8
LAYER_1
  6
AIGENLINE049
 40
0.1411
 41
0.1411
 66
1
 10
0
 20
0
 30
0
 70
128
  0
VERTEX
  8
LAYER_1
 10
88.0746
 20
135.2731
  0
VERTEX
  8
LAYER_1
 10
90.8003
 20
135.2731
  0
SEQEND
  0
POLYLINE
  8
LAYER_1
 40
0.1411
 41
0.1411
 66
1
 10
0
 20
0
 30
0
  0
VERTEX
  8
LAYER_1
 10
91.1896
 20
135.2731
  0
VERTEX
  8
LAYER_1
 10
91.5424
 20
135.2731
  0
SEQEND
  0
POLYLINE
  8
LAYER_1
 40
0.1411
 41
0.1411
 66
1
 10
0
 20
0
 30
0
  0
VERTEX
  8
LAYER_1
 10
62.2439
 20
134.2712
  0
VERTEX
  8
LAYER_1
 10
62.596
 20
134.2712
  0
SEQEND
  0
POLYLINE
  8
LAYER_1
  6
AIGENLINE050
 40
0.1411
 41
0.1411
 66
1
 10
0
 20
0
 30
0
 70
128
  0
VERTEX
  8
LAYER_1
 10
63.1941
 20
134.2712
  0
VERTEX
  8
LAYER_1
 10
64.0912
 20
134.2712
  0
SEQEND
  0
POLYLINE
  8
LAYER_1
 40
0.1411
 41
0.1411
 66
1
 10
0
 20
0
 30
0
  0
VERTEX
  8
LAYER_1
 10
64.3902
 20
134.2712
  0
VERTEX
  8
LAYER_1
 10
64.7437
 20
134.2712
  0
SEQEND
  0
POLYLINE
  8
LAYER_1
 40
0.1411
 41
0.1411
 66
1
 10
0
 20
0
 30
0
  0
VERTEX
  8
LAYER_1
 10
65.605
 20
134.2712
  0
VERTEX
  8
LAYER_1
 10
65.9577
 20
134.2712
  0
SEQEND
  0
POLYLINE
  8
LAYER_1
  6
AIGENLINE051
 40
0.1411
 41
0.1411
 66
1
 10
0
 20
0
 30
0
 70
128
  0
VERTEX
  8
LAYER_1
 10
66.6537
 20
134.2712
  0
VERTEX
  8
LAYER_1
 10
112.1833
 20
134.2712
  0
SEQEND
  0
POLYLINE
  8
LAYER_1
 40
0.1411
 41
0.1411
 66
1
 10
0
 20
0
 30
0
  0
VERTEX
  8
LAYER_1
 10
112.5306
 20
134.2712
  0
VERTEX
  8
LAYER_1
 10
112.8827
 20
134.2712
  0
SEQEND
  0
POLYLINE
  8
LAYER_1
 40
0.1411
 41
0.1411
 66
1
 10
0
 20
0
 30
0
  0
VERTEX
  8
LAYER_1
 10
113.7447
 20
134.2712
  0
VERTEX
  8
LAYER_1
 10
114.0981
 20
134.2712
  0
SEQEND
  0
POLYLINE
  8
LAYER_1
  6
AIGENLINE052
 40
0.1411
 41
0.1411
 66
1
 10
0
 20
0
 30
0
 70
128
  0
VERTEX
  8
LAYER_1
 10
114.6948
 20
134.2712
  0
VERTEX
  8
LAYER_1
 10
115.5926
 20
134.2712
  0
SEQEND
  0
POLYLINE
  8
LAYER_1
 40
0.1411
 41
0.1411
 66
1
 10
0
 20
0
 30
0
  0
VERTEX
  8
LAYER_1
 10
115.8923
 20
134.2712
  0
VERTEX
  8
LAYER_1
 10
116.2451
 20
134.2712
  0
SEQEND
  0
POLYLINE
  8
LAYER_1
 40
0.1411
 41
0.1411
 66
1
 10
0
 20
0
 30
0
  0
VERTEX
  8
LAYER_1
 10
59.8034
 20
152.2715
  0
VERTEX
  8
LAYER_1
 10
60.1562
 20
152.2715
  0
SEQEND
  0
POLYLINE
  8
LAYER_1
  6
AIGENLINE053
 40
0.1411
 41
0.1411
 66
1
 10
0
 20
0
 30
0
 70
128
  0
VERTEX
  8
LAYER_1
 10
60.8576
 20
152.2715
  0
VERTEX
  8
LAYER_1
 10
117.9821
 20
152.2715
  0
SEQEND
  0
POLYLINE
  8
LAYER_1
 40
0.1411
 41
0.1411
 66
1
 10
0
 20
0
 30
0
  0
VERTEX
  8
LAYER_1
 10
118.3328
 20
152.2715
  0
VERTEX
  8
LAYER_1
 10
118.6842
 20
152.2715
  0
SEQEND
  0
POLYLINE
  8
LAYER_1
 40
0.1411
 41
0.1411
 66
1
 10
0
 20
0
 30
0
  0
VERTEX
  8
LAYER_1
 10
123.8953
 20
150.5627
  0
VERTEX
  8
LAYER_1
 10
123.8953
 20
150.9162
  0
VERTEX
  8
LAYER_1
 10
123.5425
 20
150.9162
  0
SEQEND
  0
POLYLINE
  8
LAYER_1
  6
AIGENLINE054
 40
0.1411
 41
0.1411
 66
1
 10
0
 20
0
 30
0
 70
128
  0
VERTEX
  8
LAYER_1
 10
122.8838
 20
150.9155
  0
VERTEX
  8
LAYER_1
 10
120.577
 20
150.9155
  0
SEQEND
  0
POLYLINE
  8
LAYER_1
 40
0.1411
 41
0.1411
 66
1
 10
0
 20
0
 30
0
  0
VERTEX
  8
LAYER_1
 10
120.2483
 20
150.9155
  0
VERTEX
  8
LAYER_1
 10
119.8955
 20
150.9155
  0
VERTEX
  8
LAYER_1
 10
119.8955
 20
150.5627
  0
SEQEND
  0
POLYLINE
  8
LAYER_1
 40
0.1411
 41
0.1411
 66
1
 10
0
 20
0
 30
0
  0
VERTEX
  8
LAYER_1
 10
119.8955
 20
150.2685
  0
VERTEX
  8
LAYER_1
 10
119.8955
 20
149.9151
  0
VERTEX
  8
LAYER_1
 10
120.2483
 20
149.9151
  0
SEQEND
  0
POLYLINE
  8
LAYER_1
  6
AIGENLINE054
 40
0.1411
 41
0.1411
 66
1
 10
0
 20
0
 30
0
 70
128
  0
VERTEX
  8
LAYER_1
 10
120.9063
 20
149.9151
  0
VERTEX
  8
LAYER_1
 10
123.2131
 20
149.9151
  0
SEQEND
  0
POLYLINE
  8
LAYER_1
 40
0.1411
 41
0.1411
 66
1
 10
0
 20
0
 30
0
  0
VERTEX
  8
LAYER_1
 10
123.5425
 20
149.9151
  0
VERTEX
  8
LAYER_1
 10
123.8953
 20
149.9151
  0
VERTEX
  8
LAYER_1
 10
123.8953
 20
150.2685
  0
SEQEND
  0
POLYLINE
  8
LAYER_1
 40
0.1411
 41
0.1411
 66
1
 10
0
 20
0
 30
0
  0
VERTEX
  8
LAYER_1
 10
54.5931
 20
150.5627
  0
VERTEX
  8
LAYER_1
 10
54.5931
 20
150.9162
  0
VERTEX
  8
LAYER_1
 10
54.9472
 20
150.9162
  0
SEQEND
  0
POLYLINE
  8
LAYER_1
  6
AIGENLINE054
 40
0.1411
 41
0.1411
 66
1
 10
0
 20
0
 30
0
 70
128
  0
VERTEX
  8
LAYER_1
 10
55.6052
 20
150.9155
  0
VERTEX
  8
LAYER_1
 10
57.9114
 20
150.9155
  0
SEQEND
  0
POLYLINE
  8
LAYER_1
 40
0.1411
 41
0.1411
 66
1
 10
0
 20
0
 30
0
  0
VERTEX
  8
LAYER_1
 10
58.2407
 20
150.9155
  0
VERTEX
  8
LAYER_1
 10
58.5935
 20
150.9155
  0
VERTEX
  8
LAYER_1
 10
58.5935
 20
150.5627
  0
SEQEND
  0
POLYLINE
  8
LAYER_1
 40
0.1411
 41
0.1411
 66
1
 10
0
 20
0
 30
0
  0
VERTEX
  8
LAYER_1
 10
58.5935
 20
150.2685
  0
VERTEX
  8
LAYER_1
 10
58.5935
 20
149.9151
  0
VERTEX
  8
LAYER_1
 10
58.2407
 20
149.9151
  0
SEQEND
  0
POLYLINE
  8
LAYER_1
  6
AIGENLINE054
 40
0.1411
 41
0.1411
 66
1
 10
0
 20
0
 30
0
 70
128
  0
VERTEX
  8
LAYER_1
 10
57.582
 20
149.9151
  0
VERTEX
  8
LAYER_1
 10
55.2745
 20
149.9151
  0
SEQEND
  0
POLYLINE
  8
LAYER_1
 40
0.1411
 41
0.1411
 66
1
 10
0
 20
0
 30
0
  0
VERTEX
  8
LAYER_1
 10
54.9458
 20
149.9151
  0
VERTEX
  8
LAYER_1
 10
54.5931
 20
149.9151
  0
VERTEX
  8
LAYER_1
 10
54.5931
 20
150.2685
  0
SEQEND
  0
POLYLINE
  8
LAYER_1
 40
0.1411
 41
0.1411
 66
1
 10
0
 20
0
 30
0
  0
VERTEX
  8
LAYER_1
 10
116.345
 20
138.3778
  0
VERTEX
  8
LAYER_1
 10
115.9922
 20
138.3778
  0
SEQEND
  0
POLYLINE
  8
LAYER_1
  6
AIGENLINE055
 40
0.1411
 41
0.1411
 66
1
 10
0
 20
0
 30
0
 70
128
  0
VERTEX
  8
LAYER_1
 10
115.2784
 20
138.3778
  0
VERTEX
  8
LAYER_1
 10
62.853
 20
138.3778
  0
SEQEND
  0
POLYLINE
  8
LAYER_1
 40
0.1411
 41
0.1411
 66
1
 10
0
 20
0
 30
0
  0
VERTEX
  8
LAYER_1
 10
62.4961
 20
138.3778
  0
VERTEX
  8
LAYER_1
 10
62.1433
 20
138.3778
  0
SEQEND
  0
POLYLINE
  8
LAYER_1
 40
0.1411
 41
0.1411
 66
1
 10
0
 20
0
 30
0
  0
VERTEX
  8
LAYER_1
 10
86.4457
 20
134.6722
  0
VERTEX
  8
LAYER_1
 10
86.0922
 20
134.6722
  0
VERTEX
  8
LAYER_1
 10
86.0922
 20
134.972
  0
VERTEX
  8
LAYER_1
 10
86.4457
 20
134.972
  0
SEQEND
  0
POLYLINE
  8
LAYER_1
  6
AIGENLINE056
 40
0.1411
 41
0.1411
 66
1
 10
0
 20
0
 30
0
 70
128
  0
VERTEX
  8
LAYER_1
 10
87.245
 20
134.972
  0
VERTEX
  8
LAYER_1
 10
91.6402
 20
134.972
  0
SEQEND
  0
POLYLINE
  8
LAYER_1
 40
0.1411
 41
0.1411
 66
1
 10
0
 20
0
 30
0
  0
VERTEX
  8
LAYER_1
 10
92.0399
 20
134.972
  0
VERTEX
  8
LAYER_1
 10
92.3926
 20
134.972
  0
VERTEX
  8
LAYER_1
 10
92.3926
 20
134.6722
  0
VERTEX
  8
LAYER_1
 10
92.0399
 20
134.6722
  0
SEQEND
  0
POLYLINE
  8
LAYER_1
  6
AIGENLINE056
 40
0.1411
 41
0.1411
 66
1
 10
0
 20
0
 30
0
 70
128
  0
VERTEX
  8
LAYER_1
 10
91.2406
 20
134.6722
  0
VERTEX
  8
LAYER_1
 10
86.8453
 20
134.6722
  0
SEQEND
  0
POLYLINE
  8
LAYER_1
 40
0.1411
 41
0.1411
 66
1
 10
0
 20
0
 30
0
  0
VERTEX
  8
LAYER_1
 10
86.4457
 20
134.972
  0
VERTEX
  8
LAYER_1
 10
86.0922
 20
134.972
  0
VERTEX
  8
LAYER_1
 10
86.0922
 20
135.2731
  0
VERTEX
  8
LAYER_1
 10
86.4457
 20
135.2731
  0
SEQEND
  0
POLYLINE
  8
LAYER_1
  6
AIGENLINE056
 40
0.1411
 41
0.1411
 66
1
 10
0
 20
0
 30
0
 70
128
  0
VERTEX
  8
LAYER_1
 10
87.245
 20
135.2731
  0
VERTEX
  8
LAYER_1
 10
91.6402
 20
135.2731
  0
SEQEND
  0
POLYLINE
  8
LAYER_1
 40
0.1411
 41
0.1411
 66
1
 10
0
 20
0
 30
0
  0
VERTEX
  8
LAYER_1
 10
92.0399
 20
135.2731
  0
VERTEX
  8
LAYER_1
 10
92.3926
 20
135.2731
  0
VERTEX
  8
LAYER_1
 10
92.3926
 20
134.972
  0
VERTEX
  8
LAYER_1
 10
92.0399
 20
134.972
  0
SEQEND
  0
POLYLINE
  8
LAYER_1
  6
AIGENLINE056
 40
0.1411
 41
0.1411
 66
1
 10
0
 20
0
 30
0
 70
128
  0
VERTEX
  8
LAYER_1
 10
91.2406
 20
134.972
  0
VERTEX
  8
LAYER_1
 10
86.8453
 20
134.972
  0
SEQEND
  0
POLYLINE
  8
LAYER_1
 40
0.1411
 41
0.1411
 66
1
 10
0
 20
0
 30
0
  0
VERTEX
  8
LAYER_1
 10
87.1457
 20
134.2712
  0
VERTEX
  8
LAYER_1
 10
86.7923
 20
134.2712
  0
VERTEX
  8
LAYER_1
 10
86.7923
 20
134.6736
  0
VERTEX
  8
LAYER_1
 10
87.1457
 20
134.6736
  0
SEQEND
  0
POLYLINE
  8
LAYER_1
  6
AIGENLINE057
 40
0.1411
 41
0.1411
 66
1
 10
0
 20
0
 30
0
 70
128
  0
VERTEX
  8
LAYER_1
 10
87.7445
 20
134.6736
  0
VERTEX
  8
LAYER_1
 10
91.0408
 20
134.6736
  0
SEQEND
  0
POLYLINE
  8
LAYER_1
 40
0.1411
 41
0.1411
 66
1
 10
0
 20
0
 30
0
  0
VERTEX
  8
LAYER_1
 10
91.3405
 20
134.6736
  0
VERTEX
  8
LAYER_1
 10
91.6926
 20
134.6736
  0
VERTEX
  8
LAYER_1
 10
91.6926
 20
134.2712
  0
VERTEX
  8
LAYER_1
 10
91.3405
 20
134.2712
  0
SEQEND
  0
POLYLINE
  8
LAYER_1
  6
AIGENLINE057
 40
0.1411
 41
0.1411
 66
1
 10
0
 20
0
 30
0
 70
128
  0
VERTEX
  8
LAYER_1
 10
90.7404
 20
134.2712
  0
VERTEX
  8
LAYER_1
 10
87.4448
 20
134.2712
  0
SEQEND
  0
INSERT
  8
LAYER_1
  2
AIGNBL0101002C
 10
0
 20
0
 30
0
  0
POLYLINE
  8
LAYER_1
 40
0.1411
 41
0.1411
 66
1
 10
0
 20
0
 30
0
  0
VERTEX
  8
LAYER_1
 10
86.9432
 20
135.2731
  0
VERTEX
  8
LAYER_1
 10
87.296
 20
135.2731
  0
SEQEND
  0
POLYLINE
  8
LAYER_1
  6
AIGENLINE049
 40
0.1411
 41
0.1411
 66
1
 10
0
 20
0
 30
0
 70
128
  0
VERTEX
  8
LAYER_1
 10
88.0746
 20
135.2731
  0
VERTEX
  8
LAYER_1
 10
90.8003
 20
135.2731
  0
SEQEND
  0
POLYLINE
  8
LAYER_1
 40
0.1411
 41
0.1411
 66
1
 10
0
 20
0
 30
0
  0
VERTEX
  8
LAYER_1
 10
91.1896
 20
135.2731
  0
VERTEX
  8
LAYER_1
 10
91.5424
 20
135.2731
  0
SEQEND
  0
POLYLINE
  8
LAYER_1
 40
0.1411
 41
0.1411
 66
1
 10
0
 20
0
 30
0
  0
VERTEX
  8
LAYER_1
 10
182.176
 20
134.6708
  0
VERTEX
  8
LAYER_1
 10
181.8232
 20
134.6708
  0
VERTEX
  8
LAYER_1
 10
181.8232
 20
134.972
  0
VERTEX
  8
LAYER_1
 10
182.176
 20
134.972
  0
SEQEND
  0
POLYLINE
  8
LAYER_1
  6
AIGENLINE056
 40
0.1411
 41
0.1411
 66
1
 10
0
 20
0
 30
0
 70
128
  0
VERTEX
  8
LAYER_1
 10
182.9752
 20
134.972
  0
VERTEX
  8
LAYER_1
 10
187.3712
 20
134.972
  0
SEQEND
  0
POLYLINE
  8
LAYER_1
 40
0.1411
 41
0.1411
 66
1
 10
0
 20
0
 30
0
  0
VERTEX
  8
LAYER_1
 10
187.7701
 20
134.972
  0
VERTEX
  8
LAYER_1
 10
188.1229
 20
134.972
  0
VERTEX
  8
LAYER_1
 10
188.1229
 20
134.6708
  0
VERTEX
  8
LAYER_1
 10
187.7701
 20
134.6708
  0
SEQEND
  0
POLYLINE
  8
LAYER_1
  6
AIGENLINE056
 40
0.1411
 41
0.1411
 66
1
 10
0
 20
0
 30
0
 70
128
  0
VERTEX
  8
LAYER_1
 10
186.9715
 20
134.6708
  0
VERTEX
  8
LAYER_1
 10
182.5749
 20
134.6708
  0
SEQEND
  0
POLYLINE
  8
LAYER_1
 40
0.1411
 41
0.1411
 66
1
 10
0
 20
0
 30
0
  0
VERTEX
  8
LAYER_1
 10
182.176
 20
134.972
  0
VERTEX
  8
LAYER_1
 10
181.8232
 20
134.972
  0
VERTEX
  8
LAYER_1
 10
181.8232
 20
135.2717
  0
VERTEX
  8
LAYER_1
 10
182.176
 20
135.2717
  0
SEQEND
  0
POLYLINE
  8
LAYER_1
  6
AIGENLINE056
 40
0.1411
 41
0.1411
 66
1
 10
0
 20
0
 30
0
 70
128
  0
VERTEX
  8
LAYER_1
 10
182.9752
 20
135.2717
  0
VERTEX
  8
LAYER_1
 10
187.3712
 20
135.2717
  0
SEQEND
  0
POLYLINE
  8
LAYER_1
 40
0.1411
 41
0.1411
 66
1
 10
0
 20
0
 30
0
  0
VERTEX
  8
LAYER_1
 10
187.7701
 20
135.2717
  0
VERTEX
  8
LAYER_1
 10
188.1229
 20
135.2717
  0
VERTEX
  8
LAYER_1
 10
188.1229
 20
134.972
  0
VERTEX
  8
LAYER_1
 10
187.7701
 20
134.972
  0
SEQEND
  0
POLYLINE
  8
LAYER_1
  6
AIGENLINE056
 40
0.1411
 41
0.1411
 66
1
 10
0
 20
0
 30
0
 70
128
  0
VERTEX
  8
LAYER_1
 10
186.9715
 20
134.972
  0
VERTEX
  8
LAYER_1
 10
182.5749
 20
134.972
  0
SEQEND
  0
POLYLINE
  8
LAYER_1
 40
0.1411
 41
0.1411
 66
1
 10
0
 20
0
 30
0
  0
VERTEX
  8
LAYER_1
 10
182.8753
 20
134.2712
  0
VERTEX
  8
LAYER_1
 10
182.5232
 20
134.2712
  0
VERTEX
  8
LAYER_1
 10
182.5232
 20
134.6736
  0
VERTEX
  8
LAYER_1
 10
182.8753
 20
134.6736
  0
SEQEND
  0
POLYLINE
  8
LAYER_1
  6
AIGENLINE057
 40
0.1411
 41
0.1411
 66
1
 10
0
 20
0
 30
0
 70
128
  0
VERTEX
  8
LAYER_1
 10
183.4754
 20
134.6722
  0
VERTEX
  8
LAYER_1
 10
186.7703
 20
134.6722
  0
SEQEND
  0
POLYLINE
  8
LAYER_1
 40
0.1411
 41
0.1411
 66
1
 10
0
 20
0
 30
0
  0
VERTEX
  8
LAYER_1
 10
187.07
 20
134.6722
  0
VERTEX
  8
LAYER_1
 10
187.4228
 20
134.6722
  0
VERTEX
  8
LAYER_1
 10
187.4228
 20
134.2712
  0
VERTEX
  8
LAYER_1
 10
187.07
 20
134.2712
  0
SEQEND
  0
POLYLINE
  8
LAYER_1
  6
AIGENLINE057
 40
0.1411
 41
0.1411
 66
1
 10
0
 20
0
 30
0
 70
128
  0
VERTEX
  8
LAYER_1
 10
186.4706
 20
134.2712
  0
VERTEX
  8
LAYER_1
 10
183.1744
 20
134.2712
  0
SEQEND
  0
POLYLINE
  8
LAYER_1
  6
AIGENLINE030
 40
0.1411
 41
0.1411
 66
1
 10
0
 20
0
 30
0
 70
128
  0
VERTEX
  8
LAYER_1
 10
181.4745
 20
137.7218
 42
0.1806749672
  0
VERTEX
  8
LAYER_1
 10
181.3498
 20
137.7769
  0
SEQEND
  0
POLYLINE
  8
LAYER_1
 40
0.1411
 41
0.1411
 66
1
 10
0
 20
0
 30
0
  0
VERTEX
  8
LAYER_1
 10
181.4745
 20
137.7218
  0
VERTEX
  8
LAYER_1
 10
181.7295
 20
137.4772
  0
SEQEND
  0
POLYLINE
  8
LAYER_1
 40
0.1411
 41
0.1411
 66
1
 10
0
 20
0
 30
0
  0
VERTEX
  8
LAYER_1
 10
182.3572
 20
136.875
  0
VERTEX
  8
LAYER_1
 10
182.6114
 20
136.6304
  0
SEQEND
  0
POLYLINE
  8
LAYER_1
  6
AIGENLINE023
 40
0.1411
 41
0.1411
 66
1
 10
0
 20
0
 30
0
 70
128
  0
VERTEX
  8
LAYER_1
 10
182.6734
 20
136.4864
 42
0.2019110156
  0
VERTEX
  8
LAYER_1
 10
182.6114
 20
136.6304
  0
SEQEND
  0
POLYLINE
  8
LAYER_1
 40
0.1411
 41
0.1411
 66
1
 10
0
 20
0
 30
0
  0
VERTEX
  8
LAYER_1
 10
182.6734
 20
136.4864
  0
VERTEX
  8
LAYER_1
 10
182.6734
 20
136.1343
  0
SEQEND
  0
POLYLINE
  8
LAYER_1
 40
0.1411
 41
0.1411
 66
1
 10
0
 20
0
 30
0
  0
VERTEX
  8
LAYER_1
 10
182.6734
 20
135.6245
  0
VERTEX
  8
LAYER_1
 10
182.6734
 20
135.2717
  0
SEQEND
  0
POLYLINE
  8
LAYER_1
  6
AIGENLINE003
 40
0.1411
 41
0.1411
 66
1
 10
0
 20
0
 30
0
 70
128
  0
VERTEX
  8
LAYER_1
 10
182.6734
 20
135.2717
  0
VERTEX
  8
LAYER_1
 10
181.9803
 20
135.2717
  0
SEQEND
  0
POLYLINE
  8
LAYER_1
  6
AIGENLINE058
 40
0.1411
 41
0.1411
 66
1
 10
0
 20
0
 30
0
 70
128
  0
VERTEX
  8
LAYER_1
 10
181.9803
 20
135.2717
  0
VERTEX
  8
LAYER_1
 10
181.9803
 20
135.8505
  0
SEQEND
  0
POLYLINE
  8
LAYER_1
 40
0.1411
 41
0.1411
 66
1
 10
0
 20
0
 30
0
  0
VERTEX
  8
LAYER_1
 10
181.9803
 20
135.8505
  0
VERTEX
  8
LAYER_1
 10
181.726
 20
136.0944
  0
SEQEND
  0
POLYLINE
  8
LAYER_1
 40
0.1411
 41
0.1411
 66
1
 10
0
 20
0
 30
0
  0
VERTEX
  8
LAYER_1
 10
181.2444
 20
136.5574
  0
VERTEX
  8
LAYER_1
 10
180.9908
 20
136.8006
  0
SEQEND
  0
POLYLINE
  8
LAYER_1
 40
0.1411
 41
0.1411
 66
1
 10
0
 20
0
 30
0
  0
VERTEX
  8
LAYER_1
 10
180.9908
 20
136.7999
  0
VERTEX
  8
LAYER_1
 10
180.6381
 20
136.8054
  0
SEQEND
  0
POLYLINE
  8
LAYER_1
  6
AIGENLINE059
 40
0.1411
 41
0.1411
 66
1
 10
0
 20
0
 30
0
 70
128
  0
VERTEX
  8
LAYER_1
 10
179.9738
 20
136.8123
  0
VERTEX
  8
LAYER_1
 10
175.0039
 20
136.8723
  0
SEQEND
  0
POLYLINE
  8
LAYER_1
 40
0.1411
 41
0.1411
 66
1
 10
0
 20
0
 30
0
  0
VERTEX
  8
LAYER_1
 10
174.6732
 20
136.8764
  0
VERTEX
  8
LAYER_1
 10
174.3198
 20
136.8819
  0
SEQEND
  0
POLYLINE
  8
LAYER_1
 40
0.1411
 41
0.1411
 66
1
 10
0
 20
0
 30
0
  0
VERTEX
  8
LAYER_1
 10
174.3198
 20
136.8812
 42
0.1124027067
  0
VERTEX
  8
LAYER_1
 10
173.9732
 20
136.8288
  0
SEQEND
  0
POLYLINE
  8
LAYER_1
 40
0.1411
 41
0.1411
 66
1
 10
0
 20
0
 30
0
  0
VERTEX
  8
LAYER_1
 10
173.7052
 20
136.6587
 42
0.1077008528
  0
VERTEX
  8
LAYER_1
 10
173.5129
 20
136.3652
  0
SEQEND
  0
POLYLINE
  8
LAYER_1
 40
0.1411
 41
0.1411
 66
1
 10
0
 20
0
 30
0
  0
VERTEX
  8
LAYER_1
 10
173.5129
 20
136.3652
  0
VERTEX
  8
LAYER_1
 10
173.3882
 20
136.0351
  0
SEQEND
  0
POLYLINE
  8
LAYER_1
  6
AIGENLINE028
 40
0.1411
 41
0.1411
 66
1
 10
0
 20
0
 30
0
 70
128
  0
VERTEX
  8
LAYER_1
 10
173.2249
 20
135.601
  0
VERTEX
  8
LAYER_1
 10
172.9789
 20
134.9485
  0
SEQEND
  0
POLYLINE
  8
LAYER_1
 40
0.1411
 41
0.1411
 66
1
 10
0
 20
0
 30
0
  0
VERTEX
  8
LAYER_1
 10
172.8969
 20
134.7315
  0
VERTEX
  8
LAYER_1
 10
172.7729
 20
134.4007
  0
SEQEND
  0
POLYLINE
  8
LAYER_1
  6
AIGENLINE060
 40
0.1411
 41
0.1411
 66
1
 10
0
 20
0
 30
0
 70
128
  0
VERTEX
  8
LAYER_1
 10
172.5862
 20
134.2712
 42
0.2997793485
  0
VERTEX
  8
LAYER_1
 10
172.7729
 20
134.4015
  0
SEQEND
  0
POLYLINE
  8
LAYER_1
 40
0.1411
 41
0.1411
 66
1
 10
0
 20
0
 30
0
  0
VERTEX
  8
LAYER_1
 10
187.2733
 20
135.2717
  0
VERTEX
  8
LAYER_1
 10
187.2733
 20
135.6245
  0
SEQEND
  0
POLYLINE
  8
LAYER_1
 40
0.1411
 41
0.1411
 66
1
 10
0
 20
0
 30
0
  0
VERTEX
  8
LAYER_1
 10
187.2733
 20
136.1343
  0
VERTEX
  8
LAYER_1
 10
187.2733
 20
136.4864
  0
SEQEND
  0
POLYLINE
  8
LAYER_1
  6
AIGENLINE023
 40
0.1411
 41
0.1411
 66
1
 10
0
 20
0
 30
0
 70
128
  0
VERTEX
  8
LAYER_1
 10
187.3346
 20
136.6304
 42
0.2015563979
  0
VERTEX
  8
LAYER_1
 10
187.2733
 20
136.4864
  0
SEQEND
  0
POLYLINE
  8
LAYER_1
 40
0.1411
 41
0.1411
 66
1
 10
0
 20
0
 30
0
  0
VERTEX
  8
LAYER_1
 10
187.3346
 20
136.6304
  0
VERTEX
  8
LAYER_1
 10
187.5889
 20
136.875
  0
SEQEND
  0
POLYLINE
  8
LAYER_1
 40
0.1411
 41
0.1411
 66
1
 10
0
 20
0
 30
0
  0
VERTEX
  8
LAYER_1
 10
188.2166
 20
137.4772
  0
VERTEX
  8
LAYER_1
 10
188.4715
 20
137.7218
  0
SEQEND
  0
POLYLINE
  8
LAYER_1
  6
AIGENLINE030
 40
0.1411
 41
0.1411
 66
1
 10
0
 20
0
 30
0
 70
128
  0
VERTEX
  8
LAYER_1
 10
188.5949
 20
137.7769
 42
0.178190796
  0
VERTEX
  8
LAYER_1
 10
188.4715
 20
137.7218
  0
SEQEND
  0
POLYLINE
  8
LAYER_1
 40
0.1411
 41
0.1411
 66
1
 10
0
 20
0
 30
0
  0
VERTEX
  8
LAYER_1
 10
171.7242
 20
134.2712
  0
VERTEX
  8
LAYER_1
 10
172.077
 20
134.2712
  0
SEQEND
  0
POLYLINE
  8
LAYER_1
 40
0.1411
 41
0.1411
 66
1
 10
0
 20
0
 30
0
  0
VERTEX
  8
LAYER_1
 10
172.2327
 20
134.2712
  0
VERTEX
  8
LAYER_1
 10
172.5862
 20
134.2712
  0
SEQEND
  0
POLYLINE
  8
LAYER_1
  6
AIGENLINE029
 40
0.1411
 41
0.1411
 66
1
 10
0
 20
0
 30
0
 70
128
  0
VERTEX
  8
LAYER_1
 10
195.3576
 20
134.4007
 42
0.3013632108
  0
VERTEX
  8
LAYER_1
 10
195.545
 20
134.2712
  0
SEQEND
  0
POLYLINE
  8
LAYER_1
 40
0.1411
 41
0.1411
 66
1
 10
0
 20
0
 30
0
  0
VERTEX
  8
LAYER_1
 10
195.3576
 20
134.4007
  0
VERTEX
  8
LAYER_1
 10
195.2336
 20
134.7315
  0
SEQEND
  0
POLYLINE
  8
LAYER_1
  6
AIGENLINE028
 40
0.1411
 41
0.1411
 66
1
 10
0
 20
0
 30
0
 70
128
  0
VERTEX
  8
LAYER_1
 10
195.0703
 20
135.1662
  0
VERTEX
  8
LAYER_1
 10
194.8236
 20
135.8174
  0
SEQEND
  0
POLYLINE
  8
LAYER_1
 40
0.1411
 41
0.1411
 66
1
 10
0
 20
0
 30
0
  0
VERTEX
  8
LAYER_1
 10
194.7423
 20
136.0351
  0
VERTEX
  8
LAYER_1
 10
194.6176
 20
136.3658
  0
SEQEND
  0
POLYLINE
  8
LAYER_1
 40
0.1411
 41
0.1411
 66
1
 10
0
 20
0
 30
0
  0
VERTEX
  8
LAYER_1
 10
194.6176
 20
136.3652
 42
0.1090339167
  0
VERTEX
  8
LAYER_1
 10
194.4247
 20
136.6587
  0
SEQEND
  0
POLYLINE
  8
LAYER_1
 40
0.1411
 41
0.1411
 66
1
 10
0
 20
0
 30
0
  0
VERTEX
  8
LAYER_1
 10
194.158
 20
136.8288
 42
0.1130299479
  0
VERTEX
  8
LAYER_1
 10
193.8107
 20
136.8812
  0
SEQEND
  0
POLYLINE
  8
LAYER_1
 40
0.1411
 41
0.1411
 66
1
 10
0
 20
0
 30
0
  0
VERTEX
  8
LAYER_1
 10
193.8107
 20
136.8812
  0
VERTEX
  8
LAYER_1
 10
193.4573
 20
136.875
  0
SEQEND
  0
POLYLINE
  8
LAYER_1
  6
AIGENLINE061
 40
0.1411
 41
0.1411
 66
1
 10
0
 20
0
 30
0
 70
128
  0
VERTEX
  8
LAYER_1
 10
192.6277
 20
136.8619
  0
VERTEX
  8
LAYER_1
 10
189.7235
 20
136.8123
  0
SEQEND
  0
POLYLINE
  8
LAYER_1
 40
0.1411
 41
0.1411
 66
1
 10
0
 20
0
 30
0
  0
VERTEX
  8
LAYER_1
 10
189.3087
 20
136.8068
  0
VERTEX
  8
LAYER_1
 10
188.9552
 20
136.7999
  0
VERTEX
  8
LAYER_1
 10
188.7003
 20
136.5574
  0
SEQEND
  0
POLYLINE
  8
LAYER_1
 40
0.1411
 41
0.1411
 66
1
 10
0
 20
0
 30
0
  0
VERTEX
  8
LAYER_1
 10
188.22
 20
136.0944
  0
VERTEX
  8
LAYER_1
 10
187.9658
 20
135.8505
  0
SEQEND
  0
POLYLINE
  8
LAYER_1
  6
AIGENLINE058
 40
0.1411
 41
0.1411
 66
1
 10
0
 20
0
 30
0
 70
128
  0
VERTEX
  8
LAYER_1
 10
187.9658
 20
135.8505
  0
VERTEX
  8
LAYER_1
 10
187.9658
 20
135.2717
  0
SEQEND
  0
POLYLINE
  8
LAYER_1
  6
AIGENLINE003
 40
0.1411
 41
0.1411
 66
1
 10
0
 20
0
 30
0
 70
128
  0
VERTEX
  8
LAYER_1
 10
187.9658
 20
135.2717
  0
VERTEX
  8
LAYER_1
 10
187.2733
 20
135.2717
  0
SEQEND
  0
POLYLINE
  8
LAYER_1
 40
0.1411
 41
0.1411
 66
1
 10
0
 20
0
 30
0
  0
VERTEX
  8
LAYER_1
 10
198.906
 20
134.2712
  0
VERTEX
  8
LAYER_1
 10
198.5836
 20
134.4125
  0
SEQEND
  0
POLYLINE
  8
LAYER_1
  6
AIGENLINE032
 40
0.1411
 41
0.1411
 66
1
 10
0
 20
0
 30
0
 70
128
  0
VERTEX
  8
LAYER_1
 10
197.9717
 20
134.5565
 42
0.08647955093
  0
VERTEX
  8
LAYER_1
 10
197.0326
 20
134.502
  0
SEQEND
  0
POLYLINE
  8
LAYER_1
 40
0.1411
 41
0.1411
 66
1
 10
0
 20
0
 30
0
  0
VERTEX
  8
LAYER_1
 10
196.7301
 20
134.4125
  0
VERTEX
  8
LAYER_1
 10
196.4069
 20
134.2712
  0
SEQEND
  0
POLYLINE
  8
LAYER_1
  6
AIGENLINE033
 40
0.1411
 41
0.1411
 66
1
 10
0
 20
0
 30
0
 70
128
  0
VERTEX
  8
LAYER_1
 10
199.7294
 20
134.2712
 42
0.3623122571
  0
VERTEX
  8
LAYER_1
 10
199.9285
 20
134.4469
  0
SEQEND
  0
POLYLINE
  8
LAYER_1
 40
0.1411
 41
0.1411
 66
1
 10
0
 20
0
 30
0
  0
VERTEX
  8
LAYER_1
 10
199.9285
 20
134.4469
  0
VERTEX
  8
LAYER_1
 10
199.9713
 20
134.7983
  0
SEQEND
  0
POLYLINE
  8
LAYER_1
  6
AIGENLINE034
 40
0.1411
 41
0.1411
 66
1
 10
0
 20
0
 30
0
 70
128
  0
VERTEX
  8
LAYER_1
 10
200.0546
 20
135.4756
  0
VERTEX
  8
LAYER_1
 10
201.8371
 20
150.0432
  0
SEQEND
  0
POLYLINE
  8
LAYER_1
 40
0.1411
 41
0.1411
 66
1
 10
0
 20
0
 30
0
  0
VERTEX
  8
LAYER_1
 10
201.8792
 20
150.3829
  0
VERTEX
  8
LAYER_1
 10
201.9219
 20
150.7329
  0
SEQEND
  0
POLYLINE
  8
LAYER_1
 40
0.1411
 41
0.1411
 66
1
 10
0
 20
0
 30
0
  0
VERTEX
  8
LAYER_1
 10
202.4173
 20
151.1718
 42
0.1776328627
  0
VERTEX
  8
LAYER_1
 10
202.0934
 20
151.0519
  0
SEQEND
  0
POLYLINE
  8
LAYER_1
 40
0.1411
 41
0.1411
 66
1
 10
0
 20
0
 30
0
  0
VERTEX
  8
LAYER_1
 10
202.081
 20
151.0402
 42
0.1796765884
  0
VERTEX
  8
LAYER_1
 10
201.9219
 20
150.7329
  0
SEQEND
  0
POLYLINE
  8
LAYER_1
 40
0.1411
 41
0.1411
 66
1
 10
0
 20
0
 30
0
  0
VERTEX
  8
LAYER_1
 10
202.4173
 20
151.1718
  0
VERTEX
  8
LAYER_1
 10
202.7701
 20
151.1718
  0
SEQEND
  0
POLYLINE
  8
LAYER_1
  6
AIGENLINE062
 40
0.1411
 41
0.1411
 66
1
 10
0
 20
0
 30
0
 70
128
  0
VERTEX
  8
LAYER_1
 10
203.4887
 20
151.1718
  0
VERTEX
  8
LAYER_1
 10
210.3127
 20
151.1718
  0
SEQEND
  0
POLYLINE
  8
LAYER_1
 40
0.1411
 41
0.1411
 66
1
 10
0
 20
0
 30
0
  0
VERTEX
  8
LAYER_1
 10
210.6724
 20
151.1718
  0
VERTEX
  8
LAYER_1
 10
211.0245
 20
151.1718
  0
SEQEND
  0
POLYLINE
  8
LAYER_1
  6
AIGENLINE036
 40
0.1411
 41
0.1411
 66
1
 10
0
 20
0
 30
0
 70
128
  0
VERTEX
  8
LAYER_1
 10
211.0245
 20
151.1718
 42
0.3951266403
  0
VERTEX
  8
LAYER_1
 10
211.2243
 20
151.3723
  0
SEQEND
  0
POLYLINE
  8
LAYER_1
  6
AIGENLINE009
 40
0.1411
 41
0.1411
 66
1
 10
0
 20
0
 30
0
 70
128
  0
VERTEX
  8
LAYER_1
 10
211.2243
 20
151.3723
  0
VERTEX
  8
LAYER_1
 10
211.2243
 20
152.0724
  0
SEQEND
  0
POLYLINE
  8
LAYER_1
  6
AIGENLINE036
 40
0.1411
 41
0.1411
 66
1
 10
0
 20
0
 30
0
 70
128
  0
VERTEX
  8
LAYER_1
 10
211.2243
 20
152.0724
 42
0.4141716124
  0
VERTEX
  8
LAYER_1
 10
211.0245
 20
152.2722
  0
SEQEND
  0
POLYLINE
  8
LAYER_1
 40
0.1411
 41
0.1411
 66
1
 10
0
 20
0
 30
0
  0
VERTEX
  8
LAYER_1
 10
211.0245
 20
152.2715
  0
VERTEX
  8
LAYER_1
 10
210.6724
 20
152.2715
  0
SEQEND
  0
POLYLINE
  8
LAYER_1
  6
AIGENLINE037
 40
0.1411
 41
0.1411
 66
1
 10
0
 20
0
 30
0
 70
128
  0
VERTEX
  8
LAYER_1
 10
210.0075
 20
152.2715
  0
VERTEX
  8
LAYER_1
 10
206.3502
 20
152.2715
  0
SEQEND
  0
POLYLINE
  8
LAYER_1
 40
0.1411
 41
0.1411
 66
1
 10
0
 20
0
 30
0
  0
VERTEX
  8
LAYER_1
 10
206.0167
 20
152.2715
  0
VERTEX
  8
LAYER_1
 10
205.6646
 20
152.2715
  0
SEQEND
  0
POLYLINE
  8
LAYER_1
 40
0.1411
 41
0.1411
 66
1
 10
0
 20
0
 30
0
  0
VERTEX
  8
LAYER_1
 10
167.2794
 20
151.8353
 42
0.1790946409
  0
VERTEX
  8
LAYER_1
 10
167.1195
 20
152.142
  0
SEQEND
  0
POLYLINE
  8
LAYER_1
 40
0.1411
 41
0.1411
 66
1
 10
0
 20
0
 30
0
  0
VERTEX
  8
LAYER_1
 10
167.1078
 20
152.1523
 42
0.1772859903
  0
VERTEX
  8
LAYER_1
 10
166.7839
 20
152.2715
  0
SEQEND
  0
POLYLINE
  8
LAYER_1
 40
0.1411
 41
0.1411
 66
1
 10
0
 20
0
 30
0
  0
VERTEX
  8
LAYER_1
 10
167.2794
 20
151.8353
  0
VERTEX
  8
LAYER_1
 10
167.3242
 20
151.486
  0
SEQEND
  0
POLYLINE
  8
LAYER_1
  6
AIGENLINE038
 40
0.1411
 41
0.1411
 66
1
 10
0
 20
0
 30
0
 70
128
  0
VERTEX
  8
LAYER_1
 10
167.4192
 20
150.7522
  0
VERTEX
  8
LAYER_1
 10
168.8793
 20
139.3934
  0
SEQEND
  0
POLYLINE
  8
LAYER_1
 40
0.1411
 41
0.1411
 66
1
 10
0
 20
0
 30
0
  0
VERTEX
  8
LAYER_1
 10
168.9261
 20
139.0275
  0
VERTEX
  8
LAYER_1
 10
168.9716
 20
138.6768
  0
SEQEND
  0
POLYLINE
  8
LAYER_1
  6
AIGENLINE039
 40
0.1411
 41
0.1411
 66
1
 10
0
 20
0
 30
0
 70
128
  0
VERTEX
  8
LAYER_1
 10
168.9723
 20
138.6768
 42
0.3436558994
  0
VERTEX
  8
LAYER_1
 10
169.4305
 20
138.2427
  0
SEQEND
  0
POLYLINE
  8
LAYER_1
 40
0.1411
 41
0.1411
 66
1
 10
0
 20
0
 30
0
  0
VERTEX
  8
LAYER_1
 10
169.4305
 20
138.2427
  0
VERTEX
  8
LAYER_1
 10
169.7839
 20
138.2282
  0
SEQEND
  0
POLYLINE
  8
LAYER_1
  6
AIGENLINE063
 40
0.1411
 41
0.1411
 66
1
 10
0
 20
0
 30
0
 70
128
  0
VERTEX
  8
LAYER_1
 10
170.5315
 20
138.1986
  0
VERTEX
  8
LAYER_1
 10
180.625
 20
137.8052
  0
SEQEND
  0
POLYLINE
  8
LAYER_1
 40
0.1411
 41
0.1411
 66
1
 10
0
 20
0
 30
0
  0
VERTEX
  8
LAYER_1
 10
180.9984
 20
137.7914
  0
VERTEX
  8
LAYER_1
 10
181.3505
 20
137.7769
  0
SEQEND
  0
POLYLINE
  8
LAYER_1
 40
0.1411
 41
0.1411
 66
1
 10
0
 20
0
 30
0
  0
VERTEX
  8
LAYER_1
 10
188.5949
 20
137.7769
  0
VERTEX
  8
LAYER_1
 10
188.9483
 20
137.7942
  0
SEQEND
  0
POLYLINE
  8
LAYER_1
  6
AIGENLINE064
 40
0.1411
 41
0.1411
 66
1
 10
0
 20
0
 30
0
 70
128
  0
VERTEX
  8
LAYER_1
 10
189.6704
 20
137.8272
  0
VERTEX
  8
LAYER_1
 10
197.9848
 20
138.2089
  0
SEQEND
  0
POLYLINE
  8
LAYER_1
 40
0.1411
 41
0.1411
 66
1
 10
0
 20
0
 30
0
  0
VERTEX
  8
LAYER_1
 10
198.3472
 20
138.2255
  0
VERTEX
  8
LAYER_1
 10
198.6993
 20
138.2427
  0
SEQEND
  0
POLYLINE
  8
LAYER_1
  6
AIGENLINE039
 40
0.1411
 41
0.1411
 66
1
 10
0
 20
0
 30
0
 70
128
  0
VERTEX
  8
LAYER_1
 10
198.6993
 20
138.2427
 42
0.3439396217
  0
VERTEX
  8
LAYER_1
 10
199.1582
 20
138.6768
  0
SEQEND
  0
POLYLINE
  8
LAYER_1
 40
0.1411
 41
0.1411
 66
1
 10
0
 20
0
 30
0
  0
VERTEX
  8
LAYER_1
 10
199.1582
 20
138.6768
  0
VERTEX
  8
LAYER_1
 10
199.2044
 20
139.0275
  0
SEQEND
  0
POLYLINE
  8
LAYER_1
  6
AIGENLINE038
 40
0.1411
 41
0.1411
 66
1
 10
0
 20
0
 30
0
 70
128
  0
VERTEX
  8
LAYER_1
 10
199.2981
 20
139.7591
  0
VERTEX
  8
LAYER_1
 10
200.7588
 20
151.1194
  0
SEQEND
  0
POLYLINE
  8
LAYER_1
 40
0.1411
 41
0.1411
 66
1
 10
0
 20
0
 30
0
  0
VERTEX
  8
LAYER_1
 10
200.8057
 20
151.486
  0
VERTEX
  8
LAYER_1
 10
200.8511
 20
151.8353
  0
SEQEND
  0
POLYLINE
  8
LAYER_1
 40
0.1411
 41
0.1411
 66
1
 10
0
 20
0
 30
0
  0
VERTEX
  8
LAYER_1
 10
201.3472
 20
152.2715
 42
0.1763878822
  0
VERTEX
  8
LAYER_1
 10
201.0213
 20
152.1523
  0
SEQEND
  0
POLYLINE
  8
LAYER_1
 40
0.1411
 41
0.1411
 66
1
 10
0
 20
0
 30
0
  0
VERTEX
  8
LAYER_1
 10
201.011
 20
152.142
 42
0.181456685
  0
VERTEX
  8
LAYER_1
 10
200.8511
 20
151.8353
  0
SEQEND
  0
POLYLINE
  8
LAYER_1
 40
0.1411
 41
0.1411
 66
1
 10
0
 20
0
 30
0
  0
VERTEX
  8
LAYER_1
 10
166.7839
 20
152.2715
  0
VERTEX
  8
LAYER_1
 10
166.4312
 20
152.2715
  0
SEQEND
  0
POLYLINE
  8
LAYER_1
  6
AIGENLINE037
 40
0.1411
 41
0.1411
 66
1
 10
0
 20
0
 30
0
 70
128
  0
VERTEX
  8
LAYER_1
 10
165.7656
 20
152.2715
  0
VERTEX
  8
LAYER_1
 10
162.1083
 20
152.2715
  0
SEQEND
  0
POLYLINE
  8
LAYER_1
 40
0.1411
 41
0.1411
 66
1
 10
0
 20
0
 30
0
  0
VERTEX
  8
LAYER_1
 10
161.7762
 20
152.2715
  0
VERTEX
  8
LAYER_1
 10
161.4234
 20
152.2715
  0
SEQEND
  0
POLYLINE
  8
LAYER_1
  6
AIGENLINE036
 40
0.1411
 41
0.1411
 66
1
 10
0
 20
0
 30
0
 70
128
  0
VERTEX
  8
LAYER_1
 10
161.4234
 20
152.2715
 42
0.3927081328
  0
VERTEX
  8
LAYER_1
 10
161.2229
 20
152.0717
  0
SEQEND
  0
POLYLINE
  8
LAYER_1
  6
AIGENLINE009
 40
0.1411
 41
0.1411
 66
1
 10
0
 20
0
 30
0
 70
128
  0
VERTEX
  8
LAYER_1
 10
161.2229
 20
152.0724
  0
VERTEX
  8
LAYER_1
 10
161.2229
 20
151.3723
  0
SEQEND
  0
POLYLINE
  8
LAYER_1
  6
AIGENLINE036
 40
0.1411
 41
0.1411
 66
1
 10
0
 20
0
 30
0
 70
128
  0
VERTEX
  8
LAYER_1
 10
161.2229
 20
151.3723
 42
0.4142129268
  0
VERTEX
  8
LAYER_1
 10
161.4234
 20
151.1718
  0
SEQEND
  0
POLYLINE
  8
LAYER_1
 40
0.1411
 41
0.1411
 66
1
 10
0
 20
0
 30
0
  0
VERTEX
  8
LAYER_1
 10
161.4234
 20
151.1718
  0
VERTEX
  8
LAYER_1
 10
161.7762
 20
151.1718
  0
SEQEND
  0
POLYLINE
  8
LAYER_1
  6
AIGENLINE035
 40
0.1411
 41
0.1411
 66
1
 10
0
 20
0
 30
0
 70
128
  0
VERTEX
  8
LAYER_1
 10
162.4921
 20
151.1718
  0
VERTEX
  8
LAYER_1
 10
165.0022
 20
151.1718
  0
SEQEND
  0
POLYLINE
  8
LAYER_1
 40
0.1411
 41
0.1411
 66
1
 10
0
 20
0
 30
0
  0
VERTEX
  8
LAYER_1
 10
165.3591
 20
151.1718
  0
VERTEX
  8
LAYER_1
 10
165.7125
 20
151.1718
  0
SEQEND
  0
POLYLINE
  8
LAYER_1
 40
0.1411
 41
0.1411
 66
1
 10
0
 20
0
 30
0
  0
VERTEX
  8
LAYER_1
 10
166.2086
 20
150.7329
 42
0.1762781863
  0
VERTEX
  8
LAYER_1
 10
166.0502
 20
151.0402
  0
SEQEND
  0
POLYLINE
  8
LAYER_1
 40
0.1411
 41
0.1411
 66
1
 10
0
 20
0
 30
0
  0
VERTEX
  8
LAYER_1
 10
166.0371
 20
151.0519
 42
0.1777675059
  0
VERTEX
  8
LAYER_1
 10
165.7125
 20
151.1718
  0
SEQEND
  0
POLYLINE
  8
LAYER_1
 40
0.1411
 41
0.1411
 66
1
 10
0
 20
0
 30
0
  0
VERTEX
  8
LAYER_1
 10
166.2086
 20
150.7329
  0
VERTEX
  8
LAYER_1
 10
166.2514
 20
150.3829
  0
SEQEND
  0
POLYLINE
  8
LAYER_1
  6
AIGENLINE034
 40
0.1411
 41
0.1411
 66
1
 10
0
 20
0
 30
0
 70
128
  0
VERTEX
  8
LAYER_1
 10
166.3347
 20
149.7049
  0
VERTEX
  8
LAYER_1
 10
168.1179
 20
135.1366
  0
SEQEND
  0
POLYLINE
  8
LAYER_1
 40
0.1411
 41
0.1411
 66
1
 10
0
 20
0
 30
0
  0
VERTEX
  8
LAYER_1
 10
168.1592
 20
134.7983
  0
VERTEX
  8
LAYER_1
 10
168.2026
 20
134.4469
  0
SEQEND
  0
POLYLINE
  8
LAYER_1
  6
AIGENLINE033
 40
0.1411
 41
0.1411
 66
1
 10
0
 20
0
 30
0
 70
128
  0
VERTEX
  8
LAYER_1
 10
168.2026
 20
134.4469
 42
0.3628733181
  0
VERTEX
  8
LAYER_1
 10
168.4011
 20
134.2712
  0
SEQEND
  0
POLYLINE
  8
LAYER_1
 40
0.1411
 41
0.1411
 66
1
 10
0
 20
0
 30
0
  0
VERTEX
  8
LAYER_1
 10
168.4011
 20
134.2712
  0
VERTEX
  8
LAYER_1
 10
168.7539
 20
134.2712
  0
SEQEND
  0
POLYLINE
  8
LAYER_1
 40
0.1411
 41
0.1411
 66
1
 10
0
 20
0
 30
0
  0
VERTEX
  8
LAYER_1
 10
168.8703
 20
134.2712
  0
VERTEX
  8
LAYER_1
 10
169.2231
 20
134.2712
  0
SEQEND
  0
POLYLINE
  8
LAYER_1
 40
0.1411
 41
0.1411
 66
1
 10
0
 20
0
 30
0
  0
VERTEX
  8
LAYER_1
 10
171.7242
 20
134.2712
  0
VERTEX
  8
LAYER_1
 10
171.4004
 20
134.4125
  0
SEQEND
  0
POLYLINE
  8
LAYER_1
  6
AIGENLINE032
 40
0.1411
 41
0.1411
 66
1
 10
0
 20
0
 30
0
 70
128
  0
VERTEX
  8
LAYER_1
 10
170.7878
 20
134.5565
 42
0.08629191356
  0
VERTEX
  8
LAYER_1
 10
169.8487
 20
134.502
  0
SEQEND
  0
POLYLINE
  8
LAYER_1
 40
0.1411
 41
0.1411
 66
1
 10
0
 20
0
 30
0
  0
VERTEX
  8
LAYER_1
 10
169.5462
 20
134.4125
  0
VERTEX
  8
LAYER_1
 10
169.2231
 20
134.2712
  0
SEQEND
  0
POLYLINE
  8
LAYER_1
  6
AIGENLINE041
 40
0.1411
 41
0.1411
 66
1
 10
0
 20
0
 30
0
 70
128
  0
VERTEX
  8
LAYER_1
 10
198.7972
 20
135.3916
 42
0.3934827257
  0
VERTEX
  8
LAYER_1
 10
199.0486
 20
135.5204
  0
VERTEX
  8
LAYER_1
 10
199.0569
 20
135.5576
  0
SEQEND
  0
POLYLINE
  8
LAYER_1
 40
0.1411
 41
0.1411
 66
1
 10
0
 20
0
 30
0
  0
VERTEX
  8
LAYER_1
 10
199.0569
 20
135.5576
  0
VERTEX
  8
LAYER_1
 10
199.099
 20
135.9083
  0
SEQEND
  0
POLYLINE
  8
LAYER_1
 40
0.1411
 41
0.1411
 66
1
 10
0
 20
0
 30
0
  0
VERTEX
  8
LAYER_1
 10
199.1954
 20
136.6897
  0
VERTEX
  8
LAYER_1
 10
199.2381
 20
137.0397
  0
SEQEND
  0
POLYLINE
  8
LAYER_1
  6
AIGENLINE046
 40
0.1411
 41
0.1411
 66
1
 10
0
 20
0
 30
0
 70
128
  0
VERTEX
  8
LAYER_1
 10
199.2381
 20
137.0397
 42
0.3921583762
  0
VERTEX
  8
LAYER_1
 10
199.0645
 20
137.2622
  0
VERTEX
  8
LAYER_1
 10
199.0246
 20
137.2636
  0
SEQEND
  0
POLYLINE
  8
LAYER_1
 40
0.1411
 41
0.1411
 66
1
 10
0
 20
0
 30
0
  0
VERTEX
  8
LAYER_1
 10
199.0246
 20
137.2622
  0
VERTEX
  8
LAYER_1
 10
198.6732
 20
137.2368
  0
SEQEND
  0
POLYLINE
  8
LAYER_1
  6
AIGENLINE065
 40
0.1411
 41
0.1411
 66
1
 10
0
 20
0
 30
0
 70
128
  0
VERTEX
  8
LAYER_1
 10
197.8043
 20
137.174
  0
VERTEX
  8
LAYER_1
 10
196.4993
 20
137.0783
  0
SEQEND
  0
POLYLINE
  8
LAYER_1
 40
0.1411
 41
0.1411
 66
1
 10
0
 20
0
 30
0
  0
VERTEX
  8
LAYER_1
 10
196.0652
 20
137.0466
  0
VERTEX
  8
LAYER_1
 10
195.7138
 20
137.0204
  0
SEQEND
  0
POLYLINE
  8
LAYER_1
  6
AIGENLINE044
 40
0.1411
 41
0.1411
 66
1
 10
0
 20
0
 30
0
 70
128
  0
VERTEX
  8
LAYER_1
 10
195.7138
 20
137.0204
 42
0.3923034974
  0
VERTEX
  8
LAYER_1
 10
195.5285
 20
136.8068
  0
VERTEX
  8
LAYER_1
 10
195.5415
 20
136.7503
  0
SEQEND
  0
POLYLINE
  8
LAYER_1
 40
0.1411
 41
0.1411
 66
1
 10
0
 20
0
 30
0
  0
VERTEX
  8
LAYER_1
 10
195.5415
 20
136.751
  0
VERTEX
  8
LAYER_1
 10
195.6649
 20
136.4203
  0
SEQEND
  0
POLYLINE
  8
LAYER_1
 40
0.1411
 41
0.1411
 66
1
 10
0
 20
0
 30
0
  0
VERTEX
  8
LAYER_1
 10
195.9143
 20
135.7609
  0
VERTEX
  8
LAYER_1
 10
196.039
 20
135.4302
  0
SEQEND
  0
POLYLINE
  8
LAYER_1
  6
AIGENLINE036
 40
0.1411
 41
0.1411
 66
1
 10
0
 20
0
 30
0
 70
128
  0
VERTEX
  8
LAYER_1
 10
196.039
 20
135.4302
 42
0.3929082176
  0
VERTEX
  8
LAYER_1
 10
196.296
 20
135.313
  0
SEQEND
  0
POLYLINE
  8
LAYER_1
 40
0.1411
 41
0.1411
 66
1
 10
0
 20
0
 30
0
  0
VERTEX
  8
LAYER_1
 10
198.7972
 20
135.3916
  0
VERTEX
  8
LAYER_1
 10
198.4568
 20
135.4853
  0
SEQEND
  0
POLYLINE
  8
LAYER_1
  6
AIGENLINE045
 40
0.1411
 41
0.1411
 66
1
 10
0
 20
0
 30
0
 70
128
  0
VERTEX
  8
LAYER_1
 10
197.8484
 20
135.5687
 42
0.06328928319
  0
VERTEX
  8
LAYER_1
 10
196.9334
 20
135.5039
  0
SEQEND
  0
POLYLINE
  8
LAYER_1
 40
0.1411
 41
0.1411
 66
1
 10
0
 20
0
 30
0
  0
VERTEX
  8
LAYER_1
 10
196.6323
 20
135.4288
  0
VERTEX
  8
LAYER_1
 10
196.2974
 20
135.3144
  0
SEQEND
  0
POLYLINE
  8
LAYER_1
  6
AIGENLINE041
 40
0.1411
 41
0.1411
 66
1
 10
0
 20
0
 30
0
 70
128
  0
VERTEX
  8
LAYER_1
 10
169.0736
 20
135.5576
 42
0.3928449778
  0
VERTEX
  8
LAYER_1
 10
169.2954
 20
135.3833
  0
VERTEX
  8
LAYER_1
 10
169.3326
 20
135.3916
  0
SEQEND
  0
POLYLINE
  8
LAYER_1
 40
0.1411
 41
0.1411
 66
1
 10
0
 20
0
 30
0
  0
VERTEX
  8
LAYER_1
 10
169.0736
 20
135.5576
  0
VERTEX
  8
LAYER_1
 10
169.0302
 20
135.9083
  0
SEQEND
  0
POLYLINE
  8
LAYER_1
 40
0.1411
 41
0.1411
 66
1
 10
0
 20
0
 30
0
  0
VERTEX
  8
LAYER_1
 10
168.9351
 20
136.6897
  0
VERTEX
  8
LAYER_1
 10
168.8924
 20
137.0397
  0
SEQEND
  0
POLYLINE
  8
LAYER_1
  6
AIGENLINE046
 40
0.1411
 41
0.1411
 66
1
 10
0
 20
0
 30
0
 70
128
  0
VERTEX
  8
LAYER_1
 10
169.1053
 20
137.2622
 42
0.4176424675
  0
VERTEX
  8
LAYER_1
 10
168.8917
 20
137.0783
  0
VERTEX
  8
LAYER_1
 10
168.8924
 20
137.0397
  0
SEQEND
  0
POLYLINE
  8
LAYER_1
 40
0.1411
 41
0.1411
 66
1
 10
0
 20
0
 30
0
  0
VERTEX
  8
LAYER_1
 10
169.1053
 20
137.2622
  0
VERTEX
  8
LAYER_1
 10
169.4574
 20
137.2368
  0
SEQEND
  0
POLYLINE
  8
LAYER_1
  6
AIGENLINE043
 40
0.1411
 41
0.1411
 66
1
 10
0
 20
0
 30
0
 70
128
  0
VERTEX
  8
LAYER_1
 10
170.3269
 20
137.174
  0
VERTEX
  8
LAYER_1
 10
171.6298
 20
137.0783
  0
SEQEND
  0
POLYLINE
  8
LAYER_1
 40
0.1411
 41
0.1411
 66
1
 10
0
 20
0
 30
0
  0
VERTEX
  8
LAYER_1
 10
172.0646
 20
137.0466
  0
VERTEX
  8
LAYER_1
 10
172.4167
 20
137.0204
  0
SEQEND
  0
POLYLINE
  8
LAYER_1
  6
AIGENLINE044
 40
0.1411
 41
0.1411
 66
1
 10
0
 20
0
 30
0
 70
128
  0
VERTEX
  8
LAYER_1
 10
172.5889
 20
136.751
 42
0.3939393846
  0
VERTEX
  8
LAYER_1
 10
172.4725
 20
137.0087
  0
VERTEX
  8
LAYER_1
 10
172.4167
 20
137.0204
  0
SEQEND
  0
POLYLINE
  8
LAYER_1
 40
0.1411
 41
0.1411
 66
1
 10
0
 20
0
 30
0
  0
VERTEX
  8
LAYER_1
 10
172.5889
 20
136.751
  0
VERTEX
  8
LAYER_1
 10
172.4649
 20
136.4203
  0
SEQEND
  0
POLYLINE
  8
LAYER_1
 40
0.1411
 41
0.1411
 66
1
 10
0
 20
0
 30
0
  0
VERTEX
  8
LAYER_1
 10
172.2162
 20
135.7609
  0
VERTEX
  8
LAYER_1
 10
172.0922
 20
135.4302
  0
SEQEND
  0
POLYLINE
  8
LAYER_1
  6
AIGENLINE036
 40
0.1411
 41
0.1411
 66
1
 10
0
 20
0
 30
0
 70
128
  0
VERTEX
  8
LAYER_1
 10
171.8324
 20
135.3144
 42
0.3948129715
  0
VERTEX
  8
LAYER_1
 10
172.0901
 20
135.4288
  0
SEQEND
  0
POLYLINE
  8
LAYER_1
 40
0.1411
 41
0.1411
 66
1
 10
0
 20
0
 30
0
  0
VERTEX
  8
LAYER_1
 10
171.8324
 20
135.3144
  0
VERTEX
  8
LAYER_1
 10
171.4982
 20
135.4288
  0
SEQEND
  0
POLYLINE
  8
LAYER_1
  6
AIGENLINE045
 40
0.1411
 41
0.1411
 66
1
 10
0
 20
0
 30
0
 70
128
  0
VERTEX
  8
LAYER_1
 10
170.8974
 20
135.5494
 42
0.06469638219
  0
VERTEX
  8
LAYER_1
 10
169.9789
 20
135.5404
  0
SEQEND
  0
POLYLINE
  8
LAYER_1
 40
0.1411
 41
0.1411
 66
1
 10
0
 20
0
 30
0
  0
VERTEX
  8
LAYER_1
 10
169.6737
 20
135.4853
  0
VERTEX
  8
LAYER_1
 10
169.3326
 20
135.3916
  0
SEQEND
  0
POLYLINE
  8
LAYER_1
 40
0.1411
 41
0.1411
 66
1
 10
0
 20
0
 30
0
  0
VERTEX
  8
LAYER_1
 10
211.0748
 20
150.5627
  0
VERTEX
  8
LAYER_1
 10
211.0748
 20
150.9162
  0
VERTEX
  8
LAYER_1
 10
210.7213
 20
150.9162
  0
SEQEND
  0
POLYLINE
  8
LAYER_1
  6
AIGENLINE054
 40
0.1411
 41
0.1411
 66
1
 10
0
 20
0
 30
0
 70
128
  0
VERTEX
  8
LAYER_1
 10
210.0619
 20
150.9155
  0
VERTEX
  8
LAYER_1
 10
207.7565
 20
150.9155
  0
SEQEND
  0
POLYLINE
  8
LAYER_1
 40
0.1411
 41
0.1411
 66
1
 10
0
 20
0
 30
0
  0
VERTEX
  8
LAYER_1
 10
207.4271
 20
150.9155
  0
VERTEX
  8
LAYER_1
 10
207.0743
 20
150.9155
  0
VERTEX
  8
LAYER_1
 10
207.0743
 20
150.5627
  0
SEQEND
  0
POLYLINE
  8
LAYER_1
 40
0.1411
 41
0.1411
 66
1
 10
0
 20
0
 30
0
  0
VERTEX
  8
LAYER_1
 10
207.0743
 20
150.2685
  0
VERTEX
  8
LAYER_1
 10
207.0743
 20
149.9151
  0
VERTEX
  8
LAYER_1
 10
207.4271
 20
149.9151
  0
SEQEND
  0
POLYLINE
  8
LAYER_1
  6
AIGENLINE054
 40
0.1411
 41
0.1411
 66
1
 10
0
 20
0
 30
0
 70
128
  0
VERTEX
  8
LAYER_1
 10
208.0858
 20
149.9151
  0
VERTEX
  8
LAYER_1
 10
210.392
 20
149.9151
  0
SEQEND
  0
POLYLINE
  8
LAYER_1
 40
0.1411
 41
0.1411
 66
1
 10
0
 20
0
 30
0
  0
VERTEX
  8
LAYER_1
 10
210.7213
 20
149.9151
  0
VERTEX
  8
LAYER_1
 10
211.0748
 20
149.9151
  0
VERTEX
  8
LAYER_1
 10
211.0748
 20
150.2685
  0
SEQEND
  0
POLYLINE
  8
LAYER_1
 40
0.1411
 41
0.1411
 66
1
 10
0
 20
0
 30
0
  0
VERTEX
  8
LAYER_1
 10
161.3745
 20
150.5627
  0
VERTEX
  8
LAYER_1
 10
161.3745
 20
150.9162
  0
VERTEX
  8
LAYER_1
 10
161.7266
 20
150.9162
  0
SEQEND
  0
POLYLINE
  8
LAYER_1
  6
AIGENLINE054
 40
0.1411
 41
0.1411
 66
1
 10
0
 20
0
 30
0
 70
128
  0
VERTEX
  8
LAYER_1
 10
162.3853
 20
150.9155
  0
VERTEX
  8
LAYER_1
 10
164.6921
 20
150.9155
  0
SEQEND
  0
POLYLINE
  8
LAYER_1
 40
0.1411
 41
0.1411
 66
1
 10
0
 20
0
 30
0
  0
VERTEX
  8
LAYER_1
 10
165.0221
 20
150.9155
  0
VERTEX
  8
LAYER_1
 10
165.3735
 20
150.9155
  0
VERTEX
  8
LAYER_1
 10
165.3735
 20
150.5627
  0
SEQEND
  0
POLYLINE
  8
LAYER_1
 40
0.1411
 41
0.1411
 66
1
 10
0
 20
0
 30
0
  0
VERTEX
  8
LAYER_1
 10
165.3735
 20
150.2685
  0
VERTEX
  8
LAYER_1
 10
165.3735
 20
149.9151
  0
VERTEX
  8
LAYER_1
 10
165.0221
 20
149.9151
  0
SEQEND
  0
POLYLINE
  8
LAYER_1
  6
AIGENLINE054
 40
0.1411
 41
0.1411
 66
1
 10
0
 20
0
 30
0
 70
128
  0
VERTEX
  8
LAYER_1
 10
164.3621
 20
149.9151
  0
VERTEX
  8
LAYER_1
 10
162.0566
 20
149.9151
  0
SEQEND
  0
POLYLINE
  8
LAYER_1
 40
0.1411
 41
0.1411
 66
1
 10
0
 20
0
 30
0
  0
VERTEX
  8
LAYER_1
 10
161.7266
 20
149.9151
  0
VERTEX
  8
LAYER_1
 10
161.3745
 20
149.9151
  0
VERTEX
  8
LAYER_1
 10
161.3745
 20
150.2685
  0
SEQEND
  0
POLYLINE
  8
LAYER_1
 40
0.1411
 41
0.1411
 66
1
 10
0
 20
0
 30
0
  0
VERTEX
  8
LAYER_1
 10
169.1053
 20
138.3778
  0
VERTEX
  8
LAYER_1
 10
169.4587
 20
138.3778
  0
SEQEND
  0
POLYLINE
  8
LAYER_1
  6
AIGENLINE066
 40
0.1411
 41
0.1411
 66
1
 10
0
 20
0
 30
0
 70
128
  0
VERTEX
  8
LAYER_1
 10
170.1712
 20
138.3778
  0
VERTEX
  8
LAYER_1
 10
198.3155
 20
138.3778
  0
SEQEND
  0
POLYLINE
  8
LAYER_1
 40
0.1411
 41
0.1411
 66
1
 10
0
 20
0
 30
0
  0
VERTEX
  8
LAYER_1
 10
198.6718
 20
138.3778
  0
VERTEX
  8
LAYER_1
 10
199.0246
 20
138.3778
  0
SEQEND
  0
POLYLINE
  8
LAYER_1
 40
0.1411
 41
0.1411
 66
1
 10
0
 20
0
 30
0
  0
VERTEX
  8
LAYER_1
 10
195.545
 20
134.2712
  0
VERTEX
  8
LAYER_1
 10
195.8978
 20
134.2712
  0
SEQEND
  0
POLYLINE
  8
LAYER_1
 40
0.1411
 41
0.1411
 66
1
 10
0
 20
0
 30
0
  0
VERTEX
  8
LAYER_1
 10
196.0535
 20
134.2712
  0
VERTEX
  8
LAYER_1
 10
196.4069
 20
134.2712
  0
SEQEND
  0
POLYLINE
  8
LAYER_1
 40
0.1411
 41
0.1411
 66
1
 10
0
 20
0
 30
0
  0
VERTEX
  8
LAYER_1
 10
186.2239
 20
97.7704
  0
VERTEX
  8
LAYER_1
 10
185.8712
 20
97.7704
  0
SEQEND
  0
POLYLINE
  8
LAYER_1
  6
AIGENLINE034
 40
0.1411
 41
0.1411
 66
1
 10
0
 20
0
 30
0
 70
128
  0
VERTEX
  8
LAYER_1
 10
185.189
 20
97.7704
  0
VERTEX
  8
LAYER_1
 10
166.4181
 20
97.7704
  0
SEQEND
  0
POLYLINE
  8
LAYER_1
 40
0.1411
 41
0.1411
 66
1
 10
0
 20
0
 30
0
  0
VERTEX
  8
LAYER_1
 10
166.0763
 20
97.7704
  0
VERTEX
  8
LAYER_1
 10
165.7236
 20
97.7704
  0
VERTEX
  8
LAYER_1
 10
165.7236
 20
97.9709
  0
VERTEX
  8
LAYER_1
 10
165.6857
 20
98.1177
  0
SEQEND
  0
POLYLINE
  8
LAYER_1
  6
AIGENLINE067
 40
0.1411
 41
0.1411
 66
1
 10
0
 20
0
 30
0
 70
128
  0
VERTEX
  8
LAYER_1
 10
165.029
 20
98.2707
  0
VERTEX
  8
LAYER_1
 10
164.0237
 20
98.2707
 42
-0.3932270306
  0
VERTEX
  8
LAYER_1
 10
163.724
 20
98.5711
  0
VERTEX
  8
LAYER_1
 10
163.724
 20
98.9707
 42
-0.3919248453
  0
VERTEX
  8
LAYER_1
 10
164.0237
 20
99.2711
  0
VERTEX
  8
LAYER_1
 10
185.5136
 20
99.2711
  0
SEQEND
  0
POLYLINE
  8
LAYER_1
 40
0.1411
 41
0.1411
 66
1
 10
0
 20
0
 30
0
  0
VERTEX
  8
LAYER_1
 10
185.8712
 20
99.2711
  0
VERTEX
  8
LAYER_1
 10
186.2239
 20
99.2711
  0
SEQEND
  0
POLYLINE
  8
LAYER_1
 40
0.1411
 41
0.1411
 66
1
 10
0
 20
0
 30
0
  0
VERTEX
  8
LAYER_1
 10
165.7236
 20
97.7704
  0
VERTEX
  8
LAYER_1
 10
166.0756
 20
97.7704
  0
SEQEND
  0
POLYLINE
  8
LAYER_1
  6
AIGENLINE034
 40
0.1411
 41
0.1411
 66
1
 10
0
 20
0
 30
0
 70
128
  0
VERTEX
  8
LAYER_1
 10
166.7591
 20
97.7704
  0
VERTEX
  8
LAYER_1
 10
185.5301
 20
97.7704
  0
SEQEND
  0
POLYLINE
  8
LAYER_1
 40
0.1411
 41
0.1411
 66
1
 10
0
 20
0
 30
0
  0
VERTEX
  8
LAYER_1
 10
185.8712
 20
97.7704
  0
VERTEX
  8
LAYER_1
 10
186.2239
 20
97.7704
  0
VERTEX
  8
LAYER_1
 10
186.5767
 20
97.7704
  0
SEQEND
  0
POLYLINE
  8
LAYER_1
  6
AIGENLINE034
 40
0.1411
 41
0.1411
 66
1
 10
0
 20
0
 30
0
 70
128
  0
VERTEX
  8
LAYER_1
 10
187.2596
 20
97.7704
  0
VERTEX
  8
LAYER_1
 10
206.0312
 20
97.7704
  0
SEQEND
  0
POLYLINE
  8
LAYER_1
 40
0.1411
 41
0.1411
 66
1
 10
0
 20
0
 30
0
  0
VERTEX
  8
LAYER_1
 10
206.3722
 20
97.7704
  0
VERTEX
  8
LAYER_1
 10
206.725
 20
97.7704
  0
VERTEX
  8
LAYER_1
 10
206.725
 20
97.9709
  0
VERTEX
  8
LAYER_1
 10
206.7629
 20
98.1177
  0
SEQEND
  0
POLYLINE
  8
LAYER_1
  6
AIGENLINE067
 40
0.1411
 41
0.1411
 66
1
 10
0
 20
0
 30
0
 70
128
  0
VERTEX
  8
LAYER_1
 10
207.4182
 20
98.2707
  0
VERTEX
  8
LAYER_1
 10
208.4241
 20
98.2707
 42
0.3932396563
  0
VERTEX
  8
LAYER_1
 10
208.7239
 20
98.5711
  0
VERTEX
  8
LAYER_1
 10
208.7239
 20
98.9707
 42
0.3919950941
  0
VERTEX
  8
LAYER_1
 10
208.4241
 20
99.2711
  0
VERTEX
  8
LAYER_1
 10
186.9343
 20
99.2711
  0
SEQEND
  0
POLYLINE
  8
LAYER_1
 40
0.1411
 41
0.1411
 66
1
 10
0
 20
0
 30
0
  0
VERTEX
  8
LAYER_1
 10
186.5767
 20
99.2711
  0
VERTEX
  8
LAYER_1
 10
186.2239
 20
99.2711
  0
SEQEND
  0
POLYLINE
  8
LAYER_1
 40
0.1411
 41
0.1411
 66
1
 10
0
 20
0
 30
0
  0
VERTEX
  8
LAYER_1
 10
186.7242
 20
98.2169
  0
VERTEX
  8
LAYER_1
 10
186.7242
 20
98.5711
  0
VERTEX
  8
LAYER_1
 10
186.3714
 20
98.5711
  0
SEQEND
  0
POLYLINE
  8
LAYER_1
 40
0.1411
 41
0.1411
 66
1
 10
0
 20
0
 30
0
  0
VERTEX
  8
LAYER_1
 10
186.0779
 20
98.5711
  0
VERTEX
  8
LAYER_1
 10
185.723
 20
98.5711
  0
VERTEX
  8
LAYER_1
 10
185.723
 20
98.2169
  0
SEQEND
  0
POLYLINE
  8
LAYER_1
 40
0.1411
 41
0.1411
 66
1
 10
0
 20
0
 30
0
  0
VERTEX
  8
LAYER_1
 10
185.723
 20
98.1225
  0
VERTEX
  8
LAYER_1
 10
185.723
 20
97.7704
  0
VERTEX
  8
LAYER_1
 10
186.0779
 20
97.7704
  0
SEQEND
  0
POLYLINE
  8
LAYER_1
 40
0.1411
 41
0.1411
 66
1
 10
0
 20
0
 30
0
  0
VERTEX
  8
LAYER_1
 10
186.3714
 20
97.7704
  0
VERTEX
  8
LAYER_1
 10
186.7242
 20
97.7704
  0
VERTEX
  8
LAYER_1
 10
186.7242
 20
98.1225
  0
SEQEND
  0
POLYLINE
  8
LAYER_1
  6
AIGENLINE010
 40
0.1411
 41
0.1411
 66
1
 10
0
 20
0
 30
0
 70
128
  0
VERTEX
  8
LAYER_1
 10
186.5698
 20
97.3357
  0
VERTEX
  8
LAYER_1
 10
186.5698
 20
97.5713
  0
SEQEND
  0
POLYLINE
  8
LAYER_1
  6
AIGENLINE011
 40
0.1411
 41
0.1411
 66
1
 10
0
 20
0
 30
0
 70
128
  0
VERTEX
  8
LAYER_1
 10
186.3962
 20
97.3357
 42
0.3892933787
  0
VERTEX
  8
LAYER_1
 10
186.5437
 20
97.3095
  0
VERTEX
  8
LAYER_1
 10
186.5685
 20
97.3357
  0
SEQEND
  0
POLYLINE
  8
LAYER_1
  6
AIGENLINE012
 40
0.1411
 41
0.1411
 66
1
 10
0
 20
0
 30
0
 70
128
  0
VERTEX
  8
LAYER_1
 10
186.4823
 20
97.2909
  0
VERTEX
  8
LAYER_1
 10
185.9649
 20
97.2909
  0
SEQEND
  0
POLYLINE
  8
LAYER_1
  6
AIGENLINE011
 40
0.1411
 41
0.1411
 66
1
 10
0
 20
0
 30
0
 70
128
  0
VERTEX
  8
LAYER_1
 10
185.8787
 20
97.3357
 42
0.3913529423
  0
VERTEX
  8
LAYER_1
 10
186.0255
 20
97.3095
  0
VERTEX
  8
LAYER_1
 10
186.0517
 20
97.3357
  0
SEQEND
  0
INSERT
  8
LAYER_1
  2
AIGNBL0101002D
 10
0
 20
0
 30
0
  0
POLYLINE
  8
LAYER_1
  6
AIGENLINE013
 40
0.1411
 41
0.1411
 66
1
 10
0
 20
0
 30
0
 70
128
  0
VERTEX
  8
LAYER_1
 10
186.0517
 20
97.3357
 42
0.2583290384
  0
VERTEX
  8
LAYER_1
 10
186.3962
 20
97.3357
  0
SEQEND
  0
POLYLINE
  8
LAYER_1
  6
AIGENLINE010
 40
0.1411
 41
0.1411
 66
1
 10
0
 20
0
 30
0
 70
128
  0
VERTEX
  8
LAYER_1
 10
185.8787
 20
97.5713
  0
VERTEX
  8
LAYER_1
 10
185.8787
 20
97.3357
  0
SEQEND
  0
POLYLINE
  8
LAYER_1
  6
AIGENLINE016
 40
0.1411
 41
0.1411
 66
1
 10
0
 20
0
 30
0
 70
128
  0
VERTEX
  8
LAYER_1
 10
185.8836
 20
97.5713
  0
VERTEX
  8
LAYER_1
 10
185.8787
 20
97.5658
  0
SEQEND
  0
POLYLINE
  8
LAYER_1
  6
AIGENLINE015
 40
0.1411
 41
0.1411
 66
1
 10
0
 20
0
 30
0
 70
128
  0
VERTEX
  8
LAYER_1
 10
186.3652
 20
97.5713
  0
VERTEX
  8
LAYER_1
 10
186.0841
 20
97.5713
  0
SEQEND
  0
POLYLINE
  8
LAYER_1
  6
AIGENLINE014
 40
0.1411
 41
0.1411
 66
1
 10
0
 20
0
 30
0
 70
128
  0
VERTEX
  8
LAYER_1
 10
186.401
 20
97.5713
  0
VERTEX
  8
LAYER_1
 10
186.3962
 20
97.5658
  0
SEQEND
  0
INSERT
  8
LAYER_1
  2
AIGNBL0101002E
 10
0
 20
0
 30
0
  0
POLYLINE
  8
LAYER_1
  6
AIGENLINE014
 40
0.1411
 41
0.1411
 66
1
 10
0
 20
0
 30
0
 70
128
  0
VERTEX
  8
LAYER_1
 10
186.0517
 20
97.5658
  0
VERTEX
  8
LAYER_1
 10
186.0462
 20
97.5713
  0
SEQEND
  0
POLYLINE
  8
LAYER_1
  6
AIGENLINE068
 40
0.1411
 41
0.1411
 66
1
 10
0
 20
0
 30
0
 70
128
  0
VERTEX
  8
LAYER_1
 10
186.5698
 20
97.5713
  0
VERTEX
  8
LAYER_1
 10
185.8787
 20
97.5713
  0
SEQEND
  0
POLYLINE
  8
LAYER_1
  6
AIGENLINE016
 40
0.1411
 41
0.1411
 66
1
 10
0
 20
0
 30
0
 70
128
  0
VERTEX
  8
LAYER_1
 10
186.5698
 20
97.5658
  0
VERTEX
  8
LAYER_1
 10
186.5657
 20
97.5713
  0
SEQEND
  0
POLYLINE
  8
LAYER_1
 40
0.1411
 41
0.1411
 66
1
 10
0
 20
0
 30
0
  0
VERTEX
  8
LAYER_1
 10
186.4245
 20
97.5713
  0
VERTEX
  8
LAYER_1
 10
186.4245
 20
97.9234
  0
SEQEND
  0
POLYLINE
  8
LAYER_1
  6
AIGENLINE018
 40
0.1411
 41
0.1411
 66
1
 10
0
 20
0
 30
0
 70
128
  0
VERTEX
  8
LAYER_1
 10
186.4245
 20
98.4174
  0
VERTEX
  8
LAYER_1
 10
186.4245
 20
98.4395
  0
VERTEX
  8
LAYER_1
 10
186.3638
 20
98.5001
  0
VERTEX
  8
LAYER_1
 10
186.0848
 20
98.5001
  0
VERTEX
  8
LAYER_1
 10
186.0241
 20
98.4395
  0
VERTEX
  8
LAYER_1
 10
186.0241
 20
98.1708
  0
SEQEND
  0
POLYLINE
  8
LAYER_1
 40
0.1411
 41
0.1411
 66
1
 10
0
 20
0
 30
0
  0
VERTEX
  8
LAYER_1
 10
186.0241
 20
97.9234
  0
VERTEX
  8
LAYER_1
 10
186.0241
 20
97.5713
  0
SEQEND
  0
POLYLINE
  8
LAYER_1
 40
0.1411
 41
0.1411
 66
1
 10
0
 20
0
 30
0
  0
VERTEX
  8
LAYER_1
 10
186.3845
 20
97.5713
  0
VERTEX
  8
LAYER_1
 10
186.3845
 20
97.9234
  0
SEQEND
  0
POLYLINE
  8
LAYER_1
 40
0.1411
 41
0.1411
 66
1
 10
0
 20
0
 30
0
  0
VERTEX
  8
LAYER_1
 10
186.3845
 20
98.0874
  0
VERTEX
  8
LAYER_1
 10
186.3845
 20
98.4395
  0
SEQEND
  0
POLYLINE
  8
LAYER_1
 40
0.1411
 41
0.1411
 66
1
 10
0
 20
0
 30
0
  0
VERTEX
  8
LAYER_1
 10
186.0641
 20
97.5713
  0
VERTEX
  8
LAYER_1
 10
186.0641
 20
97.9234
  0
SEQEND
  0
POLYLINE
  8
LAYER_1
 40
0.1411
 41
0.1411
 66
1
 10
0
 20
0
 30
0
  0
VERTEX
  8
LAYER_1
 10
186.0641
 20
98.0874
  0
VERTEX
  8
LAYER_1
 10
186.0641
 20
98.4395
  0
SEQEND
  0
POLYLINE
  8
LAYER_1
  6
AIGENLINE019
 40
0.1411
 41
0.1411
 66
1
 10
0
 20
0
 30
0
 70
128
  0
VERTEX
  8
LAYER_1
 10
186.4245
 20
98.4395
  0
VERTEX
  8
LAYER_1
 10
186.0241
 20
98.4395
  0
SEQEND
  0
POLYLINE
  8
LAYER_1
 40
0.1411
 41
0.1411
 66
1
 10
0
 20
0
 30
0
  0
VERTEX
  8
LAYER_1
 10
181.3505
 20
137.7769
  0
VERTEX
  8
LAYER_1
 10
181.704
 20
137.7769
  0
SEQEND
  0
POLYLINE
  8
LAYER_1
  6
AIGENLINE047
 40
0.1411
 41
0.1411
 66
1
 10
0
 20
0
 30
0
 70
128
  0
VERTEX
  8
LAYER_1
 10
182.4309
 20
137.7769
  0
VERTEX
  8
LAYER_1
 10
187.879
 20
137.7769
  0
SEQEND
  0
POLYLINE
  8
LAYER_1
 40
0.1411
 41
0.1411
 66
1
 10
0
 20
0
 30
0
  0
VERTEX
  8
LAYER_1
 10
188.2428
 20
137.7769
  0
VERTEX
  8
LAYER_1
 10
188.5949
 20
137.7769
  0
SEQEND
  0
POLYLINE
  8
LAYER_1
 40
0.1411
 41
0.1411
 66
1
 10
0
 20
0
 30
0
  0
VERTEX
  8
LAYER_1
 10
182.6114
 20
136.6304
  0
VERTEX
  8
LAYER_1
 10
182.9649
 20
136.6304
  0
SEQEND
  0
POLYLINE
  8
LAYER_1
  6
AIGENLINE048
 40
0.1411
 41
0.1411
 66
1
 10
0
 20
0
 30
0
 70
128
  0
VERTEX
  8
LAYER_1
 10
183.7676
 20
136.6304
  0
VERTEX
  8
LAYER_1
 10
186.5802
 20
136.6304
  0
SEQEND
  0
POLYLINE
  8
LAYER_1
 40
0.1411
 41
0.1411
 66
1
 10
0
 20
0
 30
0
  0
VERTEX
  8
LAYER_1
 10
186.9818
 20
136.6304
  0
VERTEX
  8
LAYER_1
 10
187.3346
 20
136.6304
  0
SEQEND
  0
POLYLINE
  8
LAYER_1
 40
0.1411
 41
0.1411
 66
1
 10
0
 20
0
 30
0
  0
VERTEX
  8
LAYER_1
 10
182.6734
 20
135.2717
  0
VERTEX
  8
LAYER_1
 10
183.0248
 20
135.2717
  0
SEQEND
  0
POLYLINE
  8
LAYER_1
  6
AIGENLINE049
 40
0.1411
 41
0.1411
 66
1
 10
0
 20
0
 30
0
 70
128
  0
VERTEX
  8
LAYER_1
 10
183.8048
 20
135.2717
  0
VERTEX
  8
LAYER_1
 10
186.5312
 20
135.2717
  0
SEQEND
  0
POLYLINE
  8
LAYER_1
 40
0.1411
 41
0.1411
 66
1
 10
0
 20
0
 30
0
  0
VERTEX
  8
LAYER_1
 10
186.9199
 20
135.2717
  0
VERTEX
  8
LAYER_1
 10
187.2733
 20
135.2717
  0
SEQEND
  0
POLYLINE
  8
LAYER_1
 40
0.1411
 41
0.1411
 66
1
 10
0
 20
0
 30
0
  0
VERTEX
  8
LAYER_1
 10
169.2231
 20
134.2712
  0
VERTEX
  8
LAYER_1
 10
169.5759
 20
134.2712
  0
SEQEND
  0
POLYLINE
  8
LAYER_1
  6
AIGENLINE050
 40
0.1411
 41
0.1411
 66
1
 10
0
 20
0
 30
0
 70
128
  0
VERTEX
  8
LAYER_1
 10
170.1739
 20
134.2712
  0
VERTEX
  8
LAYER_1
 10
171.0731
 20
134.2712
  0
SEQEND
  0
POLYLINE
  8
LAYER_1
 40
0.1411
 41
0.1411
 66
1
 10
0
 20
0
 30
0
  0
VERTEX
  8
LAYER_1
 10
171.3708
 20
134.2712
  0
VERTEX
  8
LAYER_1
 10
171.7242
 20
134.2712
  0
SEQEND
  0
POLYLINE
  8
LAYER_1
 40
0.1411
 41
0.1411
 66
1
 10
0
 20
0
 30
0
  0
VERTEX
  8
LAYER_1
 10
170.473
 20
134.2712
  0
VERTEX
  8
LAYER_1
 10
170.825
 20
134.2712
  0
SEQEND
  0
POLYLINE
  8
LAYER_1
  6
AIGENLINE069
 40
0.1411
 41
0.1411
 66
1
 10
0
 20
0
 30
0
 70
128
  0
VERTEX
  8
LAYER_1
 10
171.5292
 20
134.2712
  0
VERTEX
  8
LAYER_1
 10
197.9076
 20
134.2712
  0
SEQEND
  0
POLYLINE
  8
LAYER_1
 40
0.1411
 41
0.1411
 66
1
 10
0
 20
0
 30
0
  0
VERTEX
  8
LAYER_1
 10
198.2597
 20
134.2712
  0
VERTEX
  8
LAYER_1
 10
198.6111
 20
134.2712
  0
SEQEND
  0
POLYLINE
  8
LAYER_1
 40
0.1411
 41
0.1411
 66
1
 10
0
 20
0
 30
0
  0
VERTEX
  8
LAYER_1
 10
196.4069
 20
134.2712
  0
VERTEX
  8
LAYER_1
 10
196.7597
 20
134.2712
  0
SEQEND
  0
POLYLINE
  8
LAYER_1
  6
AIGENLINE050
 40
0.1411
 41
0.1411
 66
1
 10
0
 20
0
 30
0
 70
128
  0
VERTEX
  8
LAYER_1
 10
197.3578
 20
134.2712
  0
VERTEX
  8
LAYER_1
 10
198.2549
 20
134.2712
  0
SEQEND
  0
POLYLINE
  8
LAYER_1
 40
0.1411
 41
0.1411
 66
1
 10
0
 20
0
 30
0
  0
VERTEX
  8
LAYER_1
 10
198.5546
 20
134.2712
  0
VERTEX
  8
LAYER_1
 10
198.906
 20
134.2712
  0
SEQEND
  0
POLYLINE
  8
LAYER_1
 40
0.1411
 41
0.1411
 66
1
 10
0
 20
0
 30
0
  0
VERTEX
  8
LAYER_1
 10
166.7839
 20
152.2715
  0
VERTEX
  8
LAYER_1
 10
167.1361
 20
152.2715
  0
SEQEND
  0
POLYLINE
  8
LAYER_1
  6
AIGENLINE070
 40
0.1411
 41
0.1411
 66
1
 10
0
 20
0
 30
0
 70
128
  0
VERTEX
  8
LAYER_1
 10
167.8313
 20
152.2715
  0
VERTEX
  8
LAYER_1
 10
204.9646
 20
152.2715
  0
SEQEND
  0
POLYLINE
  8
LAYER_1
 40
0.1411
 41
0.1411
 66
1
 10
0
 20
0
 30
0
  0
VERTEX
  8
LAYER_1
 10
205.3118
 20
152.2715
  0
VERTEX
  8
LAYER_1
 10
205.6646
 20
152.2715
  0
SEQEND
  0
POLYLINE
  8
LAYER_1
 40
0.1411
 41
0.1411
 66
1
 10
0
 20
0
 30
0
  0
VERTEX
  8
LAYER_1
 10
186.7242
 20
97.4183
  0
VERTEX
  8
LAYER_1
 10
186.7242
 20
97.7704
  0
VERTEX
  8
LAYER_1
 10
186.3714
 20
97.7704
  0
SEQEND
  0
POLYLINE
  8
LAYER_1
 40
0.1411
 41
0.1411
 66
1
 10
0
 20
0
 30
0
  0
VERTEX
  8
LAYER_1
 10
186.0779
 20
97.7704
  0
VERTEX
  8
LAYER_1
 10
185.723
 20
97.7704
  0
VERTEX
  8
LAYER_1
 10
185.723
 20
97.4183
  0
SEQEND
  0
POLYLINE
  8
LAYER_1
  6
AIGENLINE004
 40
0.1411
 41
0.1411
 66
1
 10
0
 20
0
 30
0
 70
128
  0
VERTEX
  8
LAYER_1
 10
185.723
 20
96.6521
  0
VERTEX
  8
LAYER_1
 10
185.7244
 20
95.5056
  0
SEQEND
  0
POLYLINE
  8
LAYER_1
 40
0.1411
 41
0.1411
 66
1
 10
0
 20
0
 30
0
  0
VERTEX
  8
LAYER_1
 10
185.7244
 20
95.1232
  0
VERTEX
  8
LAYER_1
 10
185.7244
 20
94.7711
  0
VERTEX
  8
LAYER_1
 10
186.0779
 20
94.7711
  0
SEQEND
  0
POLYLINE
  8
LAYER_1
 40
0.1411
 41
0.1411
 66
1
 10
0
 20
0
 30
0
  0
VERTEX
  8
LAYER_1
 10
186.3714
 20
94.7711
  0
VERTEX
  8
LAYER_1
 10
186.7242
 20
94.7711
  0
VERTEX
  8
LAYER_1
 10
186.7242
 20
95.1232
  0
SEQEND
  0
POLYLINE
  8
LAYER_1
  6
AIGENLINE004
 40
0.1411
 41
0.1411
 66
1
 10
0
 20
0
 30
0
 70
128
  0
VERTEX
  8
LAYER_1
 10
186.7242
 20
95.888
  0
VERTEX
  8
LAYER_1
 10
186.7242
 20
97.0352
  0
SEQEND
  0
POLYLINE
  8
LAYER_1
 40
0.1411
 41
0.1411
 66
1
 10
0
 20
0
 30
0
  0
VERTEX
  8
LAYER_1
 10
183.8275
 20
97.5713
  0
VERTEX
  8
LAYER_1
 10
183.4741
 20
97.5713
  0
VERTEX
  8
LAYER_1
 10
183.4741
 20
97.7704
  0
VERTEX
  8
LAYER_1
 10
183.8275
 20
97.7704
  0
SEQEND
  0
POLYLINE
  8
LAYER_1
  6
AIGENLINE020
 40
0.1411
 41
0.1411
 66
1
 10
0
 20
0
 30
0
 70
128
  0
VERTEX
  8
LAYER_1
 10
184.511
 20
97.7704
  0
VERTEX
  8
LAYER_1
 10
188.2793
 20
97.7704
  0
SEQEND
  0
POLYLINE
  8
LAYER_1
 40
0.1411
 41
0.1411
 66
1
 10
0
 20
0
 30
0
  0
VERTEX
  8
LAYER_1
 10
188.6217
 20
97.7704
  0
VERTEX
  8
LAYER_1
 10
188.9738
 20
97.7704
  0
VERTEX
  8
LAYER_1
 10
188.9738
 20
97.5713
  0
VERTEX
  8
LAYER_1
 10
188.6217
 20
97.5713
  0
SEQEND
  0
POLYLINE
  8
LAYER_1
  6
AIGENLINE020
 40
0.1411
 41
0.1411
 66
1
 10
0
 20
0
 30
0
 70
128
  0
VERTEX
  8
LAYER_1
 10
187.9361
 20
97.5713
  0
VERTEX
  8
LAYER_1
 10
184.17
 20
97.5713
  0
SEQEND
  0
POLYLINE
  8
LAYER_1
 40
0.1411
 41
0.1411
 66
1
 10
0
 20
0
 30
0
  0
VERTEX
  8
LAYER_1
 10
198.906
 20
134.2712
  0
VERTEX
  8
LAYER_1
 10
199.2595
 20
134.2712
  0
SEQEND
  0
POLYLINE
  8
LAYER_1
 40
0.1411
 41
0.1411
 66
1
 10
0
 20
0
 30
0
  0
VERTEX
  8
LAYER_1
 10
199.3773
 20
134.2712
  0
VERTEX
  8
LAYER_1
 10
199.7294
 20
134.2712
  0
SEQEND
  0
POLYLINE
  8
LAYER_1
 40
0.1058
 41
0.1058
 66
1
 10
0
 20
0
 30
0
  0
VERTEX
  8
LAYER_1
 10
54.2423
 20
152.3721
  0
VERTEX
  8
LAYER_1
 10
54.2423
 20
156.1652
  0
SEQEND
  0
POLYLINE
  8
LAYER_1
 40
0.1058
 41
0.1058
 66
1
 10
0
 20
0
 30
0
  0
VERTEX
  8
LAYER_1
 10
124.2453
 20
152.7221
  0
VERTEX
  8
LAYER_1
 10
124.2453
 20
156.1652
  0
SEQEND
  0
POLYLINE
  8
LAYER_1
 40
0.1058
 41
0.1058
 66
1
 10
0
 20
0
 30
0
  0
VERTEX
  8
LAYER_1
 10
55.2435
 20
156.1472
  0
VERTEX
  8
LAYER_1
 10
93.2773
 20
156.1472
  0
SEQEND
  0
POLYLINE
  8
LAYER_1
 40
0.1058
 41
0.1058
 66
1
 10
0
 20
0
 30
0
  0
VERTEX
  8
LAYER_1
 10
123.2449
 20
156.1472
  0
VERTEX
  8
LAYER_1
 10
92.5408
 20
156.1472
  0
SEQEND
  0
POLYLINE
  8
LAYER_1
 40
0.05
 41
0.05
 66
1
 10
0
 20
0
 30
0
  0
VERTEX
  8
LAYER_1
 10
54.2423
 20
156.1472
  0
VERTEX
  8
LAYER_1
 10
55.2428
 20
155.9805
  0
VERTEX
  8
LAYER_1
 10
55.2428
 20
156.3133
  0
SEQEND
  0
POLYLINE
  8
LAYER_1
 40
0.05
 41
0.05
 66
1
 10
0
 20
0
 30
0
  0
VERTEX
  8
LAYER_1
 10
123.2455
 20
155.9805
  0
VERTEX
  8
LAYER_1
 10
124.2453
 20
156.1472
  0
VERTEX
  8
LAYER_1
 10
123.2455
 20
156.3133
  0
SEQEND
  0
TEXT
  8
LAYER_1
 10
86.2752
 20
157.3986
 11
86.2752
 21
157.3986
 40
3.5034
 41
0.5
  1
700
  0
POLYLINE
  8
LAYER_1
 40
0.1058
 41
0.1058
 66
1
 10
0
 20
0
 30
0
  0
VERTEX
  8
LAYER_1
 10
53.5451
 20
134.2712
  0
VERTEX
  8
LAYER_1
 10
48.5056
 20
134.2712
  0
SEQEND
  0
POLYLINE
  8
LAYER_1
 40
0.1058
 41
0.1058
 66
1
 10
0
 20
0
 30
0
  0
VERTEX
  8
LAYER_1
 10
53.3177
 20
152.2715
  0
VERTEX
  8
LAYER_1
 10
48.5056
 20
152.2715
  0
SEQEND
  0
POLYLINE
  8
LAYER_1
 40
0.1058
 41
0.1058
 66
1
 10
0
 20
0
 30
0
  0
VERTEX
  8
LAYER_1
 10
48.5242
 20
135.2717
  0
VERTEX
  8
LAYER_1
 10
48.5242
 20
146.8138
  0
SEQEND
  0
POLYLINE
  8
LAYER_1
 40
0.1058
 41
0.1058
 66
1
 10
0
 20
0
 30
0
  0
VERTEX
  8
LAYER_1
 10
48.5242
 20
151.2724
  0
VERTEX
  8
LAYER_1
 10
48.5242
 20
146.5333
  0
SEQEND
  0
POLYLINE
  8
LAYER_1
 40
0.05
 41
0.05
 66
1
 10
0
 20
0
 30
0
  0
VERTEX
  8
LAYER_1
 10
48.3574
 20
135.2717
  0
VERTEX
  8
LAYER_1
 10
48.5242
 20
134.2712
  0
VERTEX
  8
LAYER_1
 10
48.6902
 20
135.2717
  0
SEQEND
  0
POLYLINE
  8
LAYER_1
 40
0.05
 41
0.05
 66
1
 10
0
 20
0
 30
0
  0
VERTEX
  8
LAYER_1
 10
48.3574
 20
151.2724
  0
VERTEX
  8
LAYER_1
 10
48.6902
 20
151.2724
  0
VERTEX
  8
LAYER_1
 10
48.5242
 20
152.2722
  0
SEQEND
  0
TEXT
  8
LAYER_1
 10
52.3212
 20
141.126
 11
52.3212
 21
141.126
 40
3.5034
 41
0.5
 50
89.99999999
  1
180
  0
POLYLINE
  8
LAYER_1
 40
0.1058
 41
0.1058
 66
1
 10
0
 20
0
 30
0
  0
VERTEX
  8
LAYER_1
 10
53.5409
 20
69.2705
  0
VERTEX
  8
LAYER_1
 10
45.8012
 20
69.2705
  0
SEQEND
  0
POLYLINE
  8
LAYER_1
 40
0.1058
 41
0.1058
 66
1
 10
0
 20
0
 30
0
  0
VERTEX
  8
LAYER_1
 10
53.3177
 20
152.2715
  0
VERTEX
  8
LAYER_1
 10
45.8012
 20
152.2715
  0
SEQEND
  0
POLYLINE
  8
LAYER_1
 40
0.1058
 41
0.1058
 66
1
 10
0
 20
0
 30
0
  0
VERTEX
  8
LAYER_1
 10
45.8184
 20
70.2703
  0
VERTEX
  8
LAYER_1
 10
45.8184
 20
114.1215
  0
SEQEND
  0
POLYLINE
  8
LAYER_1
 40
0.1058
 41
0.1058
 66
1
 10
0
 20
0
 30
0
  0
VERTEX
  8
LAYER_1
 10
45.8184
 20
151.2724
  0
VERTEX
  8
LAYER_1
 10
45.8184
 20
114.0719
  0
SEQEND
  0
POLYLINE
  8
LAYER_1
 40
0.05
 41
0.05
 66
1
 10
0
 20
0
 30
0
  0
VERTEX
  8
LAYER_1
 10
45.6523
 20
70.2696
  0
VERTEX
  8
LAYER_1
 10
45.8184
 20
69.2699
  0
VERTEX
  8
LAYER_1
 10
45.9858
 20
70.2696
  0
SEQEND
  0
POLYLINE
  8
LAYER_1
 40
0.05
 41
0.05
 66
1
 10
0
 20
0
 30
0
  0
VERTEX
  8
LAYER_1
 10
45.6523
 20
151.2724
  0
VERTEX
  8
LAYER_1
 10
45.9858
 20
151.2724
  0
VERTEX
  8
LAYER_1
 10
45.8184
 20
152.2722
  0
SEQEND
  0
TEXT
  8
LAYER_1
 10
44.8019
 20
109.9562
 11
44.8019
 21
109.9562
 40
3.5034
 41
0.5
 50
89.99999999
  1
830
  0
POLYLINE
  8
LAYER_1
 40
0.1058
 41
0.1058
 66
1
 10
0
 20
0
 30
0
  0
VERTEX
  8
LAYER_1
 10
59.3452
 20
68.4134
  0
VERTEX
  8
LAYER_1
 10
59.3452
 20
66.1451
  0
SEQEND
  0
POLYLINE
  8
LAYER_1
 40
0.1058
 41
0.1058
 66
1
 10
0
 20
0
 30
0
  0
VERTEX
  8
LAYER_1
 10
119.1424
 20
68.4134
  0
VERTEX
  8
LAYER_1
 10
119.1424
 20
66.1451
  0
SEQEND
  0
POLYLINE
  8
LAYER_1
 40
0.1058
 41
0.1058
 66
1
 10
0
 20
0
 30
0
  0
VERTEX
  8
LAYER_1
 10
60.345
 20
66.1638
  0
VERTEX
  8
LAYER_1
 10
86.6483
 20
66.1638
  0
SEQEND
  0
POLYLINE
  8
LAYER_1
 40
0.1058
 41
0.1058
 66
1
 10
0
 20
0
 30
0
  0
VERTEX
  8
LAYER_1
 10
118.1433
 20
66.1638
  0
VERTEX
  8
LAYER_1
 10
84.8107
 20
66.1638
  0
SEQEND
  0
POLYLINE
  8
LAYER_1
 40
0.05
 41
0.05
 66
1
 10
0
 20
0
 30
0
  0
VERTEX
  8
LAYER_1
 10
59.3452
 20
66.1638
  0
VERTEX
  8
LAYER_1
 10
60.345
 20
65.9963
  0
VERTEX
  8
LAYER_1
 10
60.345
 20
66.3312
  0
SEQEND
  0
POLYLINE
  8
LAYER_1
 40
0.05
 41
0.05
 66
1
 10
0
 20
0
 30
0
  0
VERTEX
  8
LAYER_1
 10
118.1427
 20
65.997
  0
VERTEX
  8
LAYER_1
 10
119.1424
 20
66.1638
  0
VERTEX
  8
LAYER_1
 10
118.1427
 20
66.3312
  0
SEQEND
  0
TEXT
  8
LAYER_1
 10
85.5986
 20
61.5902
 11
85.5986
 21
61.5902
 40
3.5034
 41
0.5
  1
600
  0
POLYLINE
  8
LAYER_1
 40
0.1058
 41
0.1058
 66
1
 10
0
 20
0
 30
0
  0
VERTEX
  8
LAYER_1
 10
89.6076
 20
137.7769
  0
VERTEX
  8
LAYER_1
 10
88.7808
 20
137.7769
  0
SEQEND
  0
POLYLINE
  8
LAYER_1
 40
0.1058
 41
0.1058
 66
1
 10
0
 20
0
 30
0
  0
VERTEX
  8
LAYER_1
 10
89.6076
 20
152.2715
  0
VERTEX
  8
LAYER_1
 10
88.7808
 20
152.2715
  0
SEQEND
  0
POLYLINE
  8
LAYER_1
 40
0.1058
 41
0.1058
 66
1
 10
0
 20
0
 30
0
  0
VERTEX
  8
LAYER_1
 10
88.7629
 20
138.7781
  0
VERTEX
  8
LAYER_1
 10
88.7629
 20
148.4599
  0
SEQEND
  0
POLYLINE
  8
LAYER_1
 40
0.1058
 41
0.1058
 66
1
 10
0
 20
0
 30
0
  0
VERTEX
  8
LAYER_1
 10
88.7629
 20
151.2724
  0
VERTEX
  8
LAYER_1
 10
88.7629
 20
148.289
  0
SEQEND
  0
POLYLINE
  8
LAYER_1
 40
0.05
 41
0.05
 66
1
 10
0
 20
0
 30
0
  0
VERTEX
  8
LAYER_1
 10
88.5962
 20
138.7781
  0
VERTEX
  8
LAYER_1
 10
88.7629
 20
137.7769
  0
VERTEX
  8
LAYER_1
 10
88.9296
 20
138.7781
  0
SEQEND
  0
POLYLINE
  8
LAYER_1
 40
0.05
 41
0.05
 66
1
 10
0
 20
0
 30
0
  0
VERTEX
  8
LAYER_1
 10
88.5962
 20
151.2724
  0
VERTEX
  8
LAYER_1
 10
88.9296
 20
151.2724
  0
VERTEX
  8
LAYER_1
 10
88.7629
 20
152.2722
  0
SEQEND
  0
TEXT
  8
LAYER_1
 10
93.272
 20
142.9358
 11
93.272
 21
142.9358
 40
3.5034
 41
0.5
 50
89.99999999
  1
145
  0
POLYLINE
  8
LAYER_1
 40
0.1058
 41
0.1058
 66
1
 10
0
 20
0
 30
0
  0
VERTEX
  8
LAYER_1
 10
53.5451
 20
134.2712
  0
VERTEX
  8
LAYER_1
 10
48.5056
 20
134.2712
  0
SEQEND
  0
POLYLINE
  8
LAYER_1
 40
0.1058
 41
0.1058
 66
1
 10
0
 20
0
 30
0
  0
VERTEX
  8
LAYER_1
 10
53.5409
 20
99.2711
  0
VERTEX
  8
LAYER_1
 10
48.5056
 20
99.2711
  0
SEQEND
  0
POLYLINE
  8
LAYER_1
 40
0.1058
 41
0.1058
 66
1
 10
0
 20
0
 30
0
  0
VERTEX
  8
LAYER_1
 10
48.5242
 20
133.2714
  0
VERTEX
  8
LAYER_1
 10
48.5242
 20
120.0705
  0
SEQEND
  0
POLYLINE
  8
LAYER_1
 40
0.1058
 41
0.1058
 66
1
 10
0
 20
0
 30
0
  0
VERTEX
  8
LAYER_1
 10
48.5242
 20
100.2709
  0
VERTEX
  8
LAYER_1
 10
48.5242
 20
121.2722
  0
SEQEND
  0
POLYLINE
  8
LAYER_1
 40
0.05
 41
0.05
 66
1
 10
0
 20
0
 30
0
  0
VERTEX
  8
LAYER_1
 10
48.3574
 20
133.2714
  0
VERTEX
  8
LAYER_1
 10
48.6902
 20
133.2714
  0
VERTEX
  8
LAYER_1
 10
48.5242
 20
134.2712
  0
SEQEND
  0
POLYLINE
  8
LAYER_1
 40
0.05
 41
0.05
 66
1
 10
0
 20
0
 30
0
  0
VERTEX
  8
LAYER_1
 10
48.3574
 20
100.2709
  0
VERTEX
  8
LAYER_1
 10
48.5242
 20
99.2711
  0
VERTEX
  8
LAYER_1
 10
48.6902
 20
100.2709
  0
SEQEND
  0
TEXT
  8
LAYER_1
 10
52.3212
 20
114.6629
 11
52.3212
 21
114.6629
 40
3.5034
 41
0.5
 50
89.99999999
  1
350
  0
POLYLINE
  8
LAYER_1
 40
0.1058
 41
0.1058
 66
1
 10
0
 20
0
 30
0
  0
VERTEX
  8
LAYER_1
 10
53.5409
 20
99.2711
  0
VERTEX
  8
LAYER_1
 10
48.5056
 20
99.2711
  0
SEQEND
  0
POLYLINE
  8
LAYER_1
 40
0.1058
 41
0.1058
 66
1
 10
0
 20
0
 30
0
  0
VERTEX
  8
LAYER_1
 10
55.7086
 20
69.2705
  0
VERTEX
  8
LAYER_1
 10
48.5056
 20
69.2705
  0
SEQEND
  0
POLYLINE
  8
LAYER_1
 40
0.1058
 41
0.1058
 66
1
 10
0
 20
0
 30
0
  0
VERTEX
  8
LAYER_1
 10
48.5242
 20
98.2707
  0
VERTEX
  8
LAYER_1
 10
48.5242
 20
87.5695
  0
SEQEND
  0
POLYLINE
  8
LAYER_1
 40
0.1058
 41
0.1058
 66
1
 10
0
 20
0
 30
0
  0
VERTEX
  8
LAYER_1
 10
48.5242
 20
70.2703
  0
VERTEX
  8
LAYER_1
 10
48.5242
 20
87.4269
  0
SEQEND
  0
POLYLINE
  8
LAYER_1
 40
0.05
 41
0.05
 66
1
 10
0
 20
0
 30
0
  0
VERTEX
  8
LAYER_1
 10
48.3574
 20
98.2707
  0
VERTEX
  8
LAYER_1
 10
48.6902
 20
98.2707
  0
VERTEX
  8
LAYER_1
 10
48.5242
 20
99.2711
  0
SEQEND
  0
POLYLINE
  8
LAYER_1
 40
0.05
 41
0.05
 66
1
 10
0
 20
0
 30
0
  0
VERTEX
  8
LAYER_1
 10
48.3574
 20
70.2696
  0
VERTEX
  8
LAYER_1
 10
48.5242
 20
69.2699
  0
VERTEX
  8
LAYER_1
 10
48.6902
 20
70.2696
  0
SEQEND
  0
TEXT
  8
LAYER_1
 10
52.3212
 20
83.3373
 11
52.3212
 21
83.3373
 40
3.5034
 41
0.5
 50
89.99999999
  1
300
  0
POLYLINE
  8
LAYER_1
 40
0.1058
 41
0.1058
 66
1
 10
0
 20
0
 30
0
  0
VERTEX
  8
LAYER_1
 10
74.3507
 20
94.7711
  0
VERTEX
  8
LAYER_1
 10
74.3527
 20
94.7711
  0
SEQEND
  0
POLYLINE
  8
LAYER_1
 40
0.1058
 41
0.1058
 66
1
 10
0
 20
0
 30
0
  0
VERTEX
  8
LAYER_1
 10
74.6029
 20
97.7704
  0
VERTEX
  8
LAYER_1
 10
74.3527
 20
97.7704
  0
SEQEND
  0
POLYLINE
  8
LAYER_1
 40
0.1058
 41
0.1058
 66
1
 10
0
 20
0
 30
0
  0
VERTEX
  8
LAYER_1
 10
74.3713
 20
96.7706
  0
VERTEX
  8
LAYER_1
 10
74.3713
 20
95.7709
  0
SEQEND
  0
POLYLINE
  8
LAYER_1
 40
0.1058
 41
0.1058
 66
1
 10
0
 20
0
 30
0
  0
VERTEX
  8
LAYER_1
 10
74.3713
 20
94.7711
  0
VERTEX
  8
LAYER_1
 10
74.3713
 20
93.2539
  0
VERTEX
  8
LAYER_1
 10
73.3709
 20
93.2539
  0
SEQEND
  0
POLYLINE
  8
LAYER_1
 40
0.05
 41
0.05
 66
1
 10
0
 20
0
 30
0
  0
VERTEX
  8
LAYER_1
 10
74.2046
 20
96.7706
  0
VERTEX
  8
LAYER_1
 10
74.5367
 20
96.7706
  0
VERTEX
  8
LAYER_1
 10
74.3713
 20
97.7704
  0
SEQEND
  0
POLYLINE
  8
LAYER_1
 40
0.05
 41
0.05
 66
1
 10
0
 20
0
 30
0
  0
VERTEX
  8
LAYER_1
 10
74.2046
 20
95.7709
  0
VERTEX
  8
LAYER_1
 10
74.3713
 20
94.7711
  0
VERTEX
  8
LAYER_1
 10
74.5367
 20
95.7709
  0
SEQEND
  0
TEXT
  8
LAYER_1
 10
67.7974
 20
90.3726
 11
67.7974
 21
90.3726
 40
3.5034
 41
0.5
  1
30
  0
POLYLINE
  8
LAYER_1
 40
0.1058
 41
0.1058
 66
1
 10
0
 20
0
 30
0
  0
VERTEX
  8
LAYER_1
 10
56.7428
 20
99.9705
  0
VERTEX
  8
LAYER_1
 10
56.7428
 20
101.6716
  0
SEQEND
  0
POLYLINE
  8
LAYER_1
 40
0.1058
 41
0.1058
 66
1
 10
0
 20
0
 30
0
  0
VERTEX
  8
LAYER_1
 10
121.7448
 20
99.9705
  0
VERTEX
  8
LAYER_1
 10
121.7448
 20
101.6716
  0
SEQEND
  0
POLYLINE
  8
LAYER_1
 40
0.1058
 41
0.1058
 66
1
 10
0
 20
0
 30
0
  0
VERTEX
  8
LAYER_1
 10
57.7432
 20
101.6544
  0
VERTEX
  8
LAYER_1
 10
87.2243
 20
101.6544
  0
SEQEND
  0
POLYLINE
  8
LAYER_1
 40
0.1058
 41
0.1058
 66
1
 10
0
 20
0
 30
0
  0
VERTEX
  8
LAYER_1
 10
120.7451
 20
101.6544
  0
VERTEX
  8
LAYER_1
 10
86.106
 20
101.6544
  0
SEQEND
  0
POLYLINE
  8
LAYER_1
 40
0.05
 41
0.05
 66
1
 10
0
 20
0
 30
0
  0
VERTEX
  8
LAYER_1
 10
56.7428
 20
101.6544
  0
VERTEX
  8
LAYER_1
 10
57.7432
 20
101.4863
  0
VERTEX
  8
LAYER_1
 10
57.7432
 20
101.8205
  0
SEQEND
  0
POLYLINE
  8
LAYER_1
 40
0.05
 41
0.05
 66
1
 10
0
 20
0
 30
0
  0
VERTEX
  8
LAYER_1
 10
120.7464
 20
101.4863
  0
VERTEX
  8
LAYER_1
 10
121.7448
 20
101.6544
  0
VERTEX
  8
LAYER_1
 10
120.7464
 20
101.8205
  0
SEQEND
  0
TEXT
  8
LAYER_1
 10
86.753
 20
102.8631
 11
86.753
 21
102.8631
 40
3.5034
 41
0.5
  1
650
  0
POLYLINE
  8
LAYER_1
 40
0.1058
 41
0.1058
 66
1
 10
0
 20
0
 30
0
  0
VERTEX
  8
LAYER_1
 10
211.2243
 20
152.7221
  0
VERTEX
  8
LAYER_1
 10
211.2243
 20
162.3525
  0
SEQEND
  0
POLYLINE
  8
LAYER_1
 40
0.1058
 41
0.1058
 66
1
 10
0
 20
0
 30
0
  0
VERTEX
  8
LAYER_1
 10
214.2257
 20
152.7221
  0
VERTEX
  8
LAYER_1
 10
214.2257
 20
162.3525
  0
SEQEND
  0
POLYLINE
  8
LAYER_1
 40
0.1058
 41
0.1058
 66
1
 10
0
 20
0
 30
0
  0
VERTEX
  8
LAYER_1
 10
210.2245
 20
162.3346
  0
VERTEX
  8
LAYER_1
 10
209.2248
 20
162.3346
  0
SEQEND
  0
POLYLINE
  8
LAYER_1
 40
0.1058
 41
0.1058
 66
1
 10
0
 20
0
 30
0
  0
VERTEX
  8
LAYER_1
 10
215.2247
 20
162.3346
  0
VERTEX
  8
LAYER_1
 10
216.2252
 20
162.3346
  0
SEQEND
  0
POLYLINE
  8
LAYER_1
 40
0.05
 41
0.05
 66
1
 10
0
 20
0
 30
0
  0
VERTEX
  8
LAYER_1
 10
210.2245
 20
162.1686
  0
VERTEX
  8
LAYER_1
 10
211.2243
 20
162.3346
  0
VERTEX
  8
LAYER_1
 10
210.2245
 20
162.5014
  0
SEQEND
  0
POLYLINE
  8
LAYER_1
 40
0.05
 41
0.05
 66
1
 10
0
 20
0
 30
0
  0
VERTEX
  8
LAYER_1
 10
214.2257
 20
162.3346
  0
VERTEX
  8
LAYER_1
 10
215.2247
 20
162.1686
  0
VERTEX
  8
LAYER_1
 10
215.2247
 20
162.5014
  0
SEQEND
  0
TEXT
  8
LAYER_1
 10
194.7929
 20
163.6239
 11
194.7929
 21
163.6239
 40
3.5034
 41
0.5
  1
30mm推奨
  0
POLYLINE
  8
LAYER_1
 40
0.1058
 41
0.1058
 66
1
 10
0
 20
0
 30
0
  0
VERTEX
  8
LAYER_1
 10
166.1053
 20
68.4134
  0
VERTEX
  8
LAYER_1
 10
166.1053
 20
66.1451
  0
SEQEND
  0
POLYLINE
  8
LAYER_1
 40
0.1058
 41
0.1058
 66
1
 10
0
 20
0
 30
0
  0
VERTEX
  8
LAYER_1
 10
206.3426
 20
68.4134
  0
VERTEX
  8
LAYER_1
 10
206.3426
 20
66.1451
  0
SEQEND
  0
POLYLINE
  8
LAYER_1
 40
0.1058
 41
0.1058
 66
1
 10
0
 20
0
 30
0
  0
VERTEX
  8
LAYER_1
 10
167.1064
 20
66.1638
  0
VERTEX
  8
LAYER_1
 10
183.9709
 20
66.1638
  0
SEQEND
  0
POLYLINE
  8
LAYER_1
 40
0.1058
 41
0.1058
 66
1
 10
0
 20
0
 30
0
  0
VERTEX
  8
LAYER_1
 10
205.3428
 20
66.1638
  0
VERTEX
  8
LAYER_1
 10
182.5928
 20
66.1638
  0
SEQEND
  0
POLYLINE
  8
LAYER_1
 40
0.05
 41
0.05
 66
1
 10
0
 20
0
 30
0
  0
VERTEX
  8
LAYER_1
 10
166.1053
 20
66.1638
  0
VERTEX
  8
LAYER_1
 10
167.1064
 20
65.9963
  0
VERTEX
  8
LAYER_1
 10
167.1064
 20
66.3312
  0
SEQEND
  0
POLYLINE
  8
LAYER_1
 40
0.05
 41
0.05
 66
1
 10
0
 20
0
 30
0
  0
VERTEX
  8
LAYER_1
 10
205.3428
 20
65.997
  0
VERTEX
  8
LAYER_1
 10
206.3426
 20
66.1638
  0
VERTEX
  8
LAYER_1
 10
205.3428
 20
66.3312
  0
SEQEND
  0
TEXT
  8
LAYER_1
 10
183.7225
 20
62.3963
 11
183.7225
 21
62.3963
 40
3.5034
 41
0.5
  1
405
  0
POLYLINE
  8
LAYER_1
 40
0.1058
 41
0.1058
 66
1
 10
0
 20
0
 30
0
  0
VERTEX
  8
LAYER_1
 10
211.2243
 20
152.7221
  0
VERTEX
  8
LAYER_1
 10
211.2243
 20
156.3126
  0
SEQEND
  0
POLYLINE
  8
LAYER_1
 40
0.1058
 41
0.1058
 66
1
 10
0
 20
0
 30
0
  0
VERTEX
  8
LAYER_1
 10
161.2229
 20
152.7221
  0
VERTEX
  8
LAYER_1
 10
161.2229
 20
156.3126
  0
SEQEND
  0
POLYLINE
  8
LAYER_1
 40
0.1058
 41
0.1058
 66
1
 10
0
 20
0
 30
0
  0
VERTEX
  8
LAYER_1
 10
210.2245
 20
156.294
  0
VERTEX
  8
LAYER_1
 10
188.1125
 20
156.294
  0
SEQEND
  0
POLYLINE
  8
LAYER_1
 40
0.1058
 41
0.1058
 66
1
 10
0
 20
0
 30
0
  0
VERTEX
  8
LAYER_1
 10
162.2233
 20
156.294
  0
VERTEX
  8
LAYER_1
 10
189.8261
 20
156.294
  0
SEQEND
  0
POLYLINE
  8
LAYER_1
 40
0.05
 41
0.05
 66
1
 10
0
 20
0
 30
0
  0
VERTEX
  8
LAYER_1
 10
210.2245
 20
156.1266
  0
VERTEX
  8
LAYER_1
 10
211.2243
 20
156.294
  0
VERTEX
  8
LAYER_1
 10
210.2245
 20
156.46
  0
SEQEND
  0
POLYLINE
  8
LAYER_1
 40
0.05
 41
0.05
 66
1
 10
0
 20
0
 30
0
  0
VERTEX
  8
LAYER_1
 10
161.2229
 20
156.294
  0
VERTEX
  8
LAYER_1
 10
162.2233
 20
156.1266
  0
VERTEX
  8
LAYER_1
 10
162.2233
 20
156.46
  0
SEQEND
  0
TEXT
  8
LAYER_1
 10
183.1747
 20
157.1919
 11
183.1747
 21
157.1919
 40
3.5034
 41
0.5
  1
500
  0
POLYLINE
  8
LAYER_1
 40
0.1058
 41
0.1058
 66
1
 10
0
 20
0
 30
0
  0
VERTEX
  8
LAYER_1
 10
162.3701
 20
134.2712
  0
VERTEX
  8
LAYER_1
 10
159.5079
 20
134.2712
  0
SEQEND
  0
POLYLINE
  8
LAYER_1
 40
0.1058
 41
0.1058
 66
1
 10
0
 20
0
 30
0
  0
VERTEX
  8
LAYER_1
 10
171.255
 20
152.2715
  0
VERTEX
  8
LAYER_1
 10
159.5079
 20
152.2715
  0
SEQEND
  0
POLYLINE
  8
LAYER_1
 40
0.1058
 41
0.1058
 66
1
 10
0
 20
0
 30
0
  0
VERTEX
  8
LAYER_1
 10
159.5258
 20
135.2717
  0
VERTEX
  8
LAYER_1
 10
159.5258
 20
147.0487
  0
SEQEND
  0
POLYLINE
  8
LAYER_1
 40
0.1058
 41
0.1058
 66
1
 10
0
 20
0
 30
0
  0
VERTEX
  8
LAYER_1
 10
159.5258
 20
151.2724
  0
VERTEX
  8
LAYER_1
 10
159.5258
 20
146.5333
  0
SEQEND
  0
POLYLINE
  8
LAYER_1
 40
0.05
 41
0.05
 66
1
 10
0
 20
0
 30
0
  0
VERTEX
  8
LAYER_1
 10
159.3598
 20
135.2717
  0
VERTEX
  8
LAYER_1
 10
159.5258
 20
134.2712
  0
VERTEX
  8
LAYER_1
 10
159.6919
 20
135.2717
  0
SEQEND
  0
POLYLINE
  8
LAYER_1
 40
0.05
 41
0.05
 66
1
 10
0
 20
0
 30
0
  0
VERTEX
  8
LAYER_1
 10
159.3598
 20
151.2724
  0
VERTEX
  8
LAYER_1
 10
159.6919
 20
151.2724
  0
VERTEX
  8
LAYER_1
 10
159.5258
 20
152.2722
  0
SEQEND
  0
TEXT
  8
LAYER_1
 10
163.8305
 20
142.3015
 11
163.8305
 21
142.3015
 40
3.5034
 41
0.5
 50
89.99999999
  1
180
  0
POLYLINE
  8
LAYER_1
 40
0.1058
 41
0.1058
 66
1
 10
0
 20
0
 30
0
  0
VERTEX
  8
LAYER_1
 10
162.3701
 20
134.2712
  0
VERTEX
  8
LAYER_1
 10
159.5079
 20
134.2712
  0
SEQEND
  0
POLYLINE
  8
LAYER_1
 40
0.1058
 41
0.1058
 66
1
 10
0
 20
0
 30
0
  0
VERTEX
  8
LAYER_1
 10
162.3701
 20
99.2711
  0
VERTEX
  8
LAYER_1
 10
159.5079
 20
99.2711
  0
SEQEND
  0
POLYLINE
  8
LAYER_1
 40
0.1058
 41
0.1058
 66
1
 10
0
 20
0
 30
0
  0
VERTEX
  8
LAYER_1
 10
159.5258
 20
133.2714
  0
VERTEX
  8
LAYER_1
 10
159.5258
 20
120.0705
  0
SEQEND
  0
POLYLINE
  8
LAYER_1
 40
0.1058
 41
0.1058
 66
1
 10
0
 20
0
 30
0
  0
VERTEX
  8
LAYER_1
 10
159.5258
 20
100.2709
  0
VERTEX
  8
LAYER_1
 10
159.5258
 20
120.7657
  0
SEQEND
  0
POLYLINE
  8
LAYER_1
 40
0.05
 41
0.05
 66
1
 10
0
 20
0
 30
0
  0
VERTEX
  8
LAYER_1
 10
159.3598
 20
133.2714
  0
VERTEX
  8
LAYER_1
 10
159.6919
 20
133.2714
  0
VERTEX
  8
LAYER_1
 10
159.5258
 20
134.2712
  0
SEQEND
  0
POLYLINE
  8
LAYER_1
 40
0.05
 41
0.05
 66
1
 10
0
 20
0
 30
0
  0
VERTEX
  8
LAYER_1
 10
159.3598
 20
100.2709
  0
VERTEX
  8
LAYER_1
 10
159.5258
 20
99.2711
  0
VERTEX
  8
LAYER_1
 10
159.6919
 20
100.2709
  0
SEQEND
  0
TEXT
  8
LAYER_1
 10
163.6152
 20
115.839
 11
163.6152
 21
115.839
 40
3.5034
 41
0.5
 50
89.99999999
  1
350
  0
POLYLINE
  8
LAYER_1
 40
0.1058
 41
0.1058
 66
1
 10
0
 20
0
 30
0
  0
VERTEX
  8
LAYER_1
 10
162.3701
 20
99.2711
  0
VERTEX
  8
LAYER_1
 10
159.5079
 20
99.2711
  0
SEQEND
  0
POLYLINE
  8
LAYER_1
 40
0.1058
 41
0.1058
 66
1
 10
0
 20
0
 30
0
  0
VERTEX
  8
LAYER_1
 10
163.6593
 20
69.2705
  0
VERTEX
  8
LAYER_1
 10
159.5079
 20
69.2705
  0
SEQEND
  0
POLYLINE
  8
LAYER_1
 40
0.1058
 41
0.1058
 66
1
 10
0
 20
0
 30
0
  0
VERTEX
  8
LAYER_1
 10
159.5258
 20
98.2707
  0
VERTEX
  8
LAYER_1
 10
159.5258
 20
87.5695
  0
SEQEND
  0
POLYLINE
  8
LAYER_1
 40
0.1058
 41
0.1058
 66
1
 10
0
 20
0
 30
0
  0
VERTEX
  8
LAYER_1
 10
159.5258
 20
70.2703
  0
VERTEX
  8
LAYER_1
 10
159.5258
 20
89.7199
  0
SEQEND
  0
POLYLINE
  8
LAYER_1
 40
0.05
 41
0.05
 66
1
 10
0
 20
0
 30
0
  0
VERTEX
  8
LAYER_1
 10
159.3598
 20
98.2707
  0
VERTEX
  8
LAYER_1
 10
159.6919
 20
98.2707
  0
VERTEX
  8
LAYER_1
 10
159.5258
 20
99.2711
  0
SEQEND
  0
POLYLINE
  8
LAYER_1
 40
0.05
 41
0.05
 66
1
 10
0
 20
0
 30
0
  0
VERTEX
  8
LAYER_1
 10
159.3598
 20
70.2696
  0
VERTEX
  8
LAYER_1
 10
159.5258
 20
69.2699
  0
VERTEX
  8
LAYER_1
 10
159.6919
 20
70.2696
  0
SEQEND
  0
TEXT
  8
LAYER_1
 10
163.8305
 20
83.338
 11
163.8305
 21
83.338
 40
3.5034
 41
0.5
 50
89.99999999
  1
300
  0
POLYLINE
  8
LAYER_1
 40
0.1058
 41
0.1058
 66
1
 10
0
 20
0
 30
0
  0
VERTEX
  8
LAYER_1
 10
185.2242
 20
152.2715
  0
VERTEX
  8
LAYER_1
 10
156.8359
 20
152.2715
  0
SEQEND
  0
POLYLINE
  8
LAYER_1
 40
0.1058
 41
0.1058
 66
1
 10
0
 20
0
 30
0
  0
VERTEX
  8
LAYER_1
 10
163.6593
 20
69.2705
  0
VERTEX
  8
LAYER_1
 10
156.8359
 20
69.2705
  0
SEQEND
  0
POLYLINE
  8
LAYER_1
 40
0.1058
 41
0.1058
 66
1
 10
0
 20
0
 30
0
  0
VERTEX
  8
LAYER_1
 10
156.8545
 20
151.2724
  0
VERTEX
  8
LAYER_1
 10
156.8545
 20
114.0719
  0
SEQEND
  0
POLYLINE
  8
LAYER_1
 40
0.1058
 41
0.1058
 66
1
 10
0
 20
0
 30
0
  0
VERTEX
  8
LAYER_1
 10
156.8545
 20
70.2703
  0
VERTEX
  8
LAYER_1
 10
156.8545
 20
114.7685
  0
SEQEND
  0
POLYLINE
  8
LAYER_1
 40
0.05
 41
0.05
 66
1
 10
0
 20
0
 30
0
  0
VERTEX
  8
LAYER_1
 10
156.6864
 20
151.2724
  0
VERTEX
  8
LAYER_1
 10
157.0206
 20
151.2724
  0
VERTEX
  8
LAYER_1
 10
156.8524
 20
152.2722
  0
SEQEND
  0
POLYLINE
  8
LAYER_1
 40
0.05
 41
0.05
 66
1
 10
0
 20
0
 30
0
  0
VERTEX
  8
LAYER_1
 10
156.6864
 20
70.2696
  0
VERTEX
  8
LAYER_1
 10
156.8524
 20
69.2699
  0
VERTEX
  8
LAYER_1
 10
157.0206
 20
70.2696
  0
SEQEND
  0
TEXT
  8
LAYER_1
 10
155.7786
 20
109.8391
 11
155.7786
 21
109.8391
 40
3.5034
 41
0.5
 50
89.99999999
  1
830
  0
POLYLINE
  8
LAYER_1
 40
0.1058
 41
0.1058
 66
1
 10
0
 20
0
 30
0
  0
VERTEX
  8
LAYER_1
 10
185.2242
 20
137.7769
  0
VERTEX
  8
LAYER_1
 10
185.6817
 20
137.7769
  0
SEQEND
  0
POLYLINE
  8
LAYER_1
 40
0.1058
 41
0.1058
 66
1
 10
0
 20
0
 30
0
  0
VERTEX
  8
LAYER_1
 10
185.2242
 20
152.2715
  0
VERTEX
  8
LAYER_1
 10
185.6817
 20
152.2715
  0
SEQEND
  0
POLYLINE
  8
LAYER_1
 40
0.1058
 41
0.1058
 66
1
 10
0
 20
0
 30
0
  0
VERTEX
  8
LAYER_1
 10
185.6996
 20
138.7781
  0
VERTEX
  8
LAYER_1
 10
185.6996
 20
148.4599
  0
SEQEND
  0
POLYLINE
  8
LAYER_1
 40
0.1058
 41
0.1058
 66
1
 10
0
 20
0
 30
0
  0
VERTEX
  8
LAYER_1
 10
185.6996
 20
151.2724
  0
VERTEX
  8
LAYER_1
 10
185.6996
 20
148.289
  0
SEQEND
  0
POLYLINE
  8
LAYER_1
 40
0.05
 41
0.05
 66
1
 10
0
 20
0
 30
0
  0
VERTEX
  8
LAYER_1
 10
185.5328
 20
138.7767
  0
VERTEX
  8
LAYER_1
 10
185.6996
 20
137.7769
  0
VERTEX
  8
LAYER_1
 10
185.8663
 20
138.7767
  0
SEQEND
  0
POLYLINE
  8
LAYER_1
 40
0.05
 41
0.05
 66
1
 10
0
 20
0
 30
0
  0
VERTEX
  8
LAYER_1
 10
185.5328
 20
151.2724
  0
VERTEX
  8
LAYER_1
 10
185.8663
 20
151.2724
  0
VERTEX
  8
LAYER_1
 10
185.6996
 20
152.2722
  0
SEQEND
  0
TEXT
  8
LAYER_1
 10
190.3774
 20
142.9127
 11
190.3774
 21
142.9127
 40
3.5034
 41
0.5
 50
89.99999999
  1
145
  0
POLYLINE
  8
LAYER_1
 40
0.1058
 41
0.1058
 66
1
 10
0
 20
0
 30
0
  0
VERTEX
  8
LAYER_1
 10
178.8604
 20
97.7704
  0
VERTEX
  8
LAYER_1
 10
177.9922
 20
97.7704
  0
SEQEND
  0
POLYLINE
  8
LAYER_1
 40
0.1058
 41
0.1058
 66
1
 10
0
 20
0
 30
0
  0
VERTEX
  8
LAYER_1
 10
178.8604
 20
94.7711
  0
VERTEX
  8
LAYER_1
 10
177.9922
 20
94.7711
  0
SEQEND
  0
POLYLINE
  8
LAYER_1
 40
0.1058
 41
0.1058
 66
1
 10
0
 20
0
 30
0
  0
VERTEX
  8
LAYER_1
 10
177.9743
 20
96.7706
  0
VERTEX
  8
LAYER_1
 10
177.9743
 20
95.7709
  0
SEQEND
  0
POLYLINE
  8
LAYER_1
 40
0.1058
 41
0.1058
 66
1
 10
0
 20
0
 30
0
  0
VERTEX
  8
LAYER_1
 10
177.9743
 20
94.7711
  0
VERTEX
  8
LAYER_1
 10
177.9743
 20
93.77
  0
VERTEX
  8
LAYER_1
 10
176.9739
 20
93.77
  0
SEQEND
  0
POLYLINE
  8
LAYER_1
 40
0.05
 41
0.05
 66
1
 10
0
 20
0
 30
0
  0
VERTEX
  8
LAYER_1
 10
177.8076
 20
96.7706
  0
VERTEX
  8
LAYER_1
 10
178.1418
 20
96.7706
  0
VERTEX
  8
LAYER_1
 10
177.975
 20
97.7704
  0
SEQEND
  0
POLYLINE
  8
LAYER_1
 40
0.05
 41
0.05
 66
1
 10
0
 20
0
 30
0
  0
VERTEX
  8
LAYER_1
 10
177.8076
 20
95.7709
  0
VERTEX
  8
LAYER_1
 10
177.975
 20
94.7711
  0
VERTEX
  8
LAYER_1
 10
178.1418
 20
95.7709
  0
SEQEND
  0
TEXT
  8
LAYER_1
 10
172.6582
 20
90.3002
 11
172.6582
 21
90.3002
 40
3.5034
 41
0.5
  1
30
  0
POLYLINE
  8
LAYER_1
 40
0.1058
 41
0.1058
 66
1
 10
0
 20
0
 30
0
  0
VERTEX
  8
LAYER_1
 10
163.724
 20
99.9705
  0
VERTEX
  8
LAYER_1
 10
163.724
 20
101.6716
  0
SEQEND
  0
POLYLINE
  8
LAYER_1
 40
0.1058
 41
0.1058
 66
1
 10
0
 20
0
 30
0
  0
VERTEX
  8
LAYER_1
 10
208.7239
 20
99.9705
  0
VERTEX
  8
LAYER_1
 10
208.7239
 20
101.6716
  0
SEQEND
  0
POLYLINE
  8
LAYER_1
 40
0.1058
 41
0.1058
 66
1
 10
0
 20
0
 30
0
  0
VERTEX
  8
LAYER_1
 10
164.7238
 20
101.6544
  0
VERTEX
  8
LAYER_1
 10
183.8509
 20
101.6544
  0
SEQEND
  0
POLYLINE
  8
LAYER_1
 40
0.1058
 41
0.1058
 66
1
 10
0
 20
0
 30
0
  0
VERTEX
  8
LAYER_1
 10
207.7234
 20
101.6544
  0
VERTEX
  8
LAYER_1
 10
183.8509
 20
101.6544
  0
SEQEND
  0
POLYLINE
  8
LAYER_1
 40
0.05
 41
0.05
 66
1
 10
0
 20
0
 30
0
  0
VERTEX
  8
LAYER_1
 10
163.724
 20
101.6544
  0
VERTEX
  8
LAYER_1
 10
164.7238
 20
101.4863
  0
VERTEX
  8
LAYER_1
 10
164.7238
 20
101.8205
  0
SEQEND
  0
POLYLINE
  8
LAYER_1
 40
0.05
 41
0.05
 66
1
 10
0
 20
0
 30
0
  0
VERTEX
  8
LAYER_1
 10
207.7234
 20
101.4863
  0
VERTEX
  8
LAYER_1
 10
208.7239
 20
101.6544
  0
VERTEX
  8
LAYER_1
 10
207.7234
 20
101.8205
  0
SEQEND
  0
TEXT
  8
LAYER_1
 10
183.3228
 20
103.0805
 11
183.3228
 21
103.0805
 40
3.5034
 41
0.5
  1
450
  0
POLYLINE
  8
LAYER_1
 40
0.1058
 41
0.1058
 66
1
 10
0
 20
0
 30
0
  0
VERTEX
  8
LAYER_1
 10
190.8438
 20
94.7711
  0
VERTEX
  8
LAYER_1
 10
191.825
 20
94.7711
  0
SEQEND
  0
POLYLINE
  8
LAYER_1
 40
0.1058
 41
0.1058
 66
1
 10
0
 20
0
 30
0
  0
VERTEX
  8
LAYER_1
 10
190.8438
 20
69.2705
  0
VERTEX
  8
LAYER_1
 10
191.825
 20
69.2705
  0
SEQEND
  0
POLYLINE
  8
LAYER_1
 40
0.1058
 41
0.1058
 66
1
 10
0
 20
0
 30
0
  0
VERTEX
  8
LAYER_1
 10
191.8436
 20
93.77
  0
VERTEX
  8
LAYER_1
 10
191.8436
 20
85.3288
  0
SEQEND
  0
POLYLINE
  8
LAYER_1
 40
0.1058
 41
0.1058
 66
1
 10
0
 20
0
 30
0
  0
VERTEX
  8
LAYER_1
 10
191.8436
 20
70.2703
  0
VERTEX
  8
LAYER_1
 10
191.8436
 20
85.1331
  0
SEQEND
  0
POLYLINE
  8
LAYER_1
 40
0.05
 41
0.05
 66
1
 10
0
 20
0
 30
0
  0
VERTEX
  8
LAYER_1
 10
191.6768
 20
93.77
  0
VERTEX
  8
LAYER_1
 10
192.0096
 20
93.77
  0
VERTEX
  8
LAYER_1
 10
191.8436
 20
94.7711
  0
SEQEND
  0
POLYLINE
  8
LAYER_1
 40
0.05
 41
0.05
 66
1
 10
0
 20
0
 30
0
  0
VERTEX
  8
LAYER_1
 10
191.6768
 20
70.2696
  0
VERTEX
  8
LAYER_1
 10
191.8436
 20
69.2699
  0
VERTEX
  8
LAYER_1
 10
192.0096
 20
70.2696
  0
SEQEND
  0
TEXT
  8
LAYER_1
 10
190.9448
 20
81.4446
 11
190.9448
 21
81.4446
 40
3.5034
 41
0.5
 50
89.99999999
  1
255
  0
POLYLINE
  8
LAYER_1
 40
0.1058
 41
0.1058
 66
1
 10
0
 20
0
 30
0
  0
VERTEX
  8
LAYER_1
 10
81.008
 20
94.7711
  0
VERTEX
  8
LAYER_1
 10
81.9898
 20
94.7711
  0
SEQEND
  0
POLYLINE
  8
LAYER_1
 40
0.1058
 41
0.1058
 66
1
 10
0
 20
0
 30
0
  0
VERTEX
  8
LAYER_1
 10
81.008
 20
69.2705
  0
VERTEX
  8
LAYER_1
 10
81.9898
 20
69.2705
  0
SEQEND
  0
POLYLINE
  8
LAYER_1
 40
0.1058
 41
0.1058
 66
1
 10
0
 20
0
 30
0
  0
VERTEX
  8
LAYER_1
 10
82.0084
 20
93.77
  0
VERTEX
  8
LAYER_1
 10
82.0084
 20
85.3288
  0
SEQEND
  0
POLYLINE
  8
LAYER_1
 40
0.1058
 41
0.1058
 66
1
 10
0
 20
0
 30
0
  0
VERTEX
  8
LAYER_1
 10
82.0084
 20
70.2703
  0
VERTEX
  8
LAYER_1
 10
82.0084
 20
86.0158
  0
SEQEND
  0
POLYLINE
  8
LAYER_1
 40
0.05
 41
0.05
 66
1
 10
0
 20
0
 30
0
  0
VERTEX
  8
LAYER_1
 10
81.8417
 20
93.77
  0
VERTEX
  8
LAYER_1
 10
82.1752
 20
93.77
  0
VERTEX
  8
LAYER_1
 10
82.0084
 20
94.7711
  0
SEQEND
  0
POLYLINE
  8
LAYER_1
 40
0.05
 41
0.05
 66
1
 10
0
 20
0
 30
0
  0
VERTEX
  8
LAYER_1
 10
81.8417
 20
70.2696
  0
VERTEX
  8
LAYER_1
 10
82.0084
 20
69.2699
  0
VERTEX
  8
LAYER_1
 10
82.1752
 20
70.2696
  0
SEQEND
  0
TEXT
  8
LAYER_1
 10
85.3438
 20
80.9154
 11
85.3438
 21
80.9154
 40
3.5034
 41
0.5
 50
89.99999999
  1
255
  0
POLYLINE
  8
LAYER_1
 40
0.1058
 41
0.1058
 66
1
 10
0
 20
0
 30
0
  0
VERTEX
  8
LAYER_1
 10
122.9665
 20
99.2711
  0
VERTEX
  8
LAYER_1
 10
129.5886
 20
99.2711
  0
SEQEND
  0
POLYLINE
  8
LAYER_1
 40
0.1058
 41
0.1058
 66
1
 10
0
 20
0
 30
0
  0
VERTEX
  8
LAYER_1
 10
122.9665
 20
97.7704
  0
VERTEX
  8
LAYER_1
 10
129.5886
 20
97.7704
  0
SEQEND
  0
POLYLINE
  8
LAYER_1
 40
0.1058
 41
0.1058
 66
1
 10
0
 20
0
 30
0
  0
VERTEX
  8
LAYER_1
 10
129.5714
 20
100.2709
  0
VERTEX
  8
LAYER_1
 10
129.5714
 20
101.2706
  0
SEQEND
  0
POLYLINE
  8
LAYER_1
 40
0.1058
 41
0.1058
 66
1
 10
0
 20
0
 30
0
  0
VERTEX
  8
LAYER_1
 10
129.5714
 20
96.7706
  0
VERTEX
  8
LAYER_1
 10
129.5714
 20
95.7709
  0
VERTEX
  8
LAYER_1
 10
128.571
 20
95.7709
  0
SEQEND
  0
POLYLINE
  8
LAYER_1
 40
0.05
 41
0.05
 66
1
 10
0
 20
0
 30
0
  0
VERTEX
  8
LAYER_1
 10
129.4033
 20
100.2709
  0
VERTEX
  8
LAYER_1
 10
129.5714
 20
99.2711
  0
VERTEX
  8
LAYER_1
 10
129.7375
 20
100.2709
  0
SEQEND
  0
POLYLINE
  8
LAYER_1
 40
0.05
 41
0.05
 66
1
 10
0
 20
0
 30
0
  0
VERTEX
  8
LAYER_1
 10
129.4033
 20
96.7706
  0
VERTEX
  8
LAYER_1
 10
129.7375
 20
96.7706
  0
VERTEX
  8
LAYER_1
 10
129.5714
 20
97.7704
  0
SEQEND
  0
TEXT
  8
LAYER_1
 10
124.3662
 20
93.1507
 11
124.3662
 21
93.1507
 40
3.5034
 41
0.5
  1
15
  0
TEXT
  8
LAYER_1
 10
87.1337
 20
187.0201
 11
87.1337
 21
187.0201
 40
3.5034
 41
0.5
  1
46
  0
TEXT
  8
LAYER_1
 10
81.0576
 20
217.1474
 11
81.0576
 21
217.1474
 40
3.5034
 41
0.5
  1
35
  0
POLYLINE
  8
LAYER_1
 40
0.1058
 41
0.1058
 66
1
 10
0
 20
0
 30
0
  0
VERTEX
  8
LAYER_1
 10
89.2349
 20
193.9916
  0
VERTEX
  8
LAYER_1
 10
89.2528
 20
193.9916
  0
SEQEND
  0
POLYLINE
  8
LAYER_1
 40
0.1058
 41
0.1058
 66
1
 10
0
 20
0
 30
0
  0
VERTEX
  8
LAYER_1
 10
89.2445
 20
193.9833
  0
VERTEX
  8
LAYER_1
 10
89.2445
 20
194.0012
  0
SEQEND
  0
POLYLINE
  8
LAYER_1
 40
0.1058
 41
0.1058
 66
1
 10
0
 20
0
 30
0
  0
VERTEX
  8
LAYER_1
 10
116.9004
 20
180.666
  0
VERTEX
  8
LAYER_1
 10
116.9548
 20
180.7142
  0
SEQEND
  0
POLYLINE
  8
LAYER_1
 40
0.1058
 41
0.1058
 66
1
 10
0
 20
0
 30
0
  0
VERTEX
  8
LAYER_1
 10
119.8866
 20
177.3325
  0
VERTEX
  8
LAYER_1
 10
119.9424
 20
177.3814
  0
SEQEND
  0
POLYLINE
  8
LAYER_1
 40
0.1058
 41
0.1058
 66
1
 10
0
 20
0
 30
0
  0
VERTEX
  8
LAYER_1
 10
117.6094
 20
179.9584
  0
VERTEX
  8
LAYER_1
 10
117.8402
 20
179.6986
  0
SEQEND
  0
POLYLINE
  8
LAYER_1
 40
0.1058
 41
0.1058
 66
1
 10
0
 20
0
 30
0
  0
VERTEX
  8
LAYER_1
 10
119.2616
 20
178.1145
  0
VERTEX
  8
LAYER_1
 10
119.0294
 20
178.3722
  0
SEQEND
  0
POLYLINE
  8
LAYER_1
 40
0.05
 41
0.05
 66
1
 10
0
 20
0
 30
0
  0
VERTEX
  8
LAYER_1
 10
117.7334
 20
180.0693
  0
VERTEX
  8
LAYER_1
 10
117.4853
 20
179.8467
  0
VERTEX
  8
LAYER_1
 10
116.9417
 20
180.7032
  0
SEQEND
  0
POLYLINE
  8
LAYER_1
 40
0.05
 41
0.05
 66
1
 10
0
 20
0
 30
0
  0
VERTEX
  8
LAYER_1
 10
119.3856
 20
178.2255
  0
VERTEX
  8
LAYER_1
 10
119.1369
 20
178.0029
  0
VERTEX
  8
LAYER_1
 10
119.9286
 20
177.3697
  0
SEQEND
  0
TEXT
  8
LAYER_1
 10
118.0113
 20
180.1746
 11
118.0113
 21
180.1746
 40
3.5034
 41
0.5
 50
311.8573621
  1
45
  0
POLYLINE
  8
LAYER_1
 40
0.1058
 41
0.1058
 66
1
 10
0
 20
0
 30
0
  0
VERTEX
  8
LAYER_1
 10
90.2229
 20
171.019
  0
VERTEX
  8
LAYER_1
 10
89.27
 20
171.019
  0
SEQEND
  0
POLYLINE
  8
LAYER_1
 40
0.1058
 41
0.1058
 66
1
 10
0
 20
0
 30
0
  0
VERTEX
  8
LAYER_1
 10
88.2523
 20
176.5153
  0
VERTEX
  8
LAYER_1
 10
89.2342
 20
176.5153
  0
SEQEND
  0
POLYLINE
  8
LAYER_1
 40
0.1058
 41
0.1058
 66
1
 10
0
 20
0
 30
0
  0
VERTEX
  8
LAYER_1
 10
89.2521
 20
172.0188
  0
VERTEX
  8
LAYER_1
 10
89.2521
 20
172.4405
  0
SEQEND
  0
POLYLINE
  8
LAYER_1
 40
0.1058
 41
0.1058
 66
1
 10
0
 20
0
 30
0
  0
VERTEX
  8
LAYER_1
 10
89.2521
 20
175.5142
  0
VERTEX
  8
LAYER_1
 10
89.2521
 20
175.0939
  0
SEQEND
  0
POLYLINE
  8
LAYER_1
 40
0.05
 41
0.05
 66
1
 10
0
 20
0
 30
0
  0
VERTEX
  8
LAYER_1
 10
89.0853
 20
172.0188
  0
VERTEX
  8
LAYER_1
 10
89.2521
 20
171.019
  0
VERTEX
  8
LAYER_1
 10
89.4188
 20
172.0188
  0
SEQEND
  0
POLYLINE
  8
LAYER_1
 40
0.05
 41
0.05
 66
1
 10
0
 20
0
 30
0
  0
VERTEX
  8
LAYER_1
 10
89.0853
 20
175.5142
  0
VERTEX
  8
LAYER_1
 10
89.4188
 20
175.5142
  0
VERTEX
  8
LAYER_1
 10
89.2521
 20
176.5153
  0
SEQEND
  0
TEXT
  8
LAYER_1
 10
90.1173
 20
172.4406
 11
90.1173
 21
172.4406
 40
3.5034
 41
0.5
 50
89.99999999
  1
55
  0
POLYLINE
  8
LAYER_1
 40
0.1058
 41
0.1058
 66
1
 10
0
 20
0
 30
0
  0
VERTEX
  8
LAYER_1
 10
94.7298
 20
211.5216
  0
VERTEX
  8
LAYER_1
 10
93.7769
 20
211.5216
  0
SEQEND
  0
POLYLINE
  8
LAYER_1
 40
0.1058
 41
0.1058
 66
1
 10
0
 20
0
 30
0
  0
VERTEX
  8
LAYER_1
 10
92.7592
 20
221.0246
  0
VERTEX
  8
LAYER_1
 10
93.7411
 20
221.0246
  0
SEQEND
  0
POLYLINE
  8
LAYER_1
 40
0.1058
 41
0.1058
 66
1
 10
0
 20
0
 30
0
  0
VERTEX
  8
LAYER_1
 10
93.7589
 20
212.5221
  0
VERTEX
  8
LAYER_1
 10
93.7589
 20
217.882
  0
SEQEND
  0
POLYLINE
  8
LAYER_1
 40
0.1058
 41
0.1058
 66
1
 10
0
 20
0
 30
0
  0
VERTEX
  8
LAYER_1
 10
93.7589
 20
220.0241
  0
VERTEX
  8
LAYER_1
 10
93.7589
 20
217.565
  0
SEQEND
  0
POLYLINE
  8
LAYER_1
 40
0.05
 41
0.05
 66
1
 10
0
 20
0
 30
0
  0
VERTEX
  8
LAYER_1
 10
93.5929
 20
212.5221
  0
VERTEX
  8
LAYER_1
 10
93.7583
 20
211.5216
  0
VERTEX
  8
LAYER_1
 10
93.925
 20
212.5221
  0
SEQEND
  0
POLYLINE
  8
LAYER_1
 40
0.05
 41
0.05
 66
1
 10
0
 20
0
 30
0
  0
VERTEX
  8
LAYER_1
 10
93.5929
 20
220.0241
  0
VERTEX
  8
LAYER_1
 10
93.925
 20
220.0241
  0
VERTEX
  8
LAYER_1
 10
93.7583
 20
221.0246
  0
SEQEND
  0
TEXT
  8
LAYER_1
 10
97.4471
 20
213.7969
 11
97.4471
 21
213.7969
 40
3.5034
 41
0.5
 50
89.99999999
  1
95
  0
POLYLINE
  8
LAYER_1
 40
0.1058
 41
0.1058
 66
1
 10
0
 20
0
 30
0
  0
VERTEX
  8
LAYER_1
 10
67.7878
 20
176.3058
  0
VERTEX
  8
LAYER_1
 10
66.9423
 20
176.7461
  0
SEQEND
  0
POLYLINE
  8
LAYER_1
 40
0.1058
 41
0.1058
 66
1
 10
0
 20
0
 30
0
  0
VERTEX
  8
LAYER_1
 10
68.5946
 20
182.1742
  0
VERTEX
  8
LAYER_1
 10
69.4669
 20
181.7202
  0
SEQEND
  0
POLYLINE
  8
LAYER_1
 40
0.1058
 41
0.1058
 66
1
 10
0
 20
0
 30
0
  0
VERTEX
  8
LAYER_1
 10
67.3881
 20
177.6412
  0
VERTEX
  8
LAYER_1
 10
67.5824
 20
178.016
  0
SEQEND
  0
POLYLINE
  8
LAYER_1
 40
0.1058
 41
0.1058
 66
1
 10
0
 20
0
 30
0
  0
VERTEX
  8
LAYER_1
 10
69.0211
 20
180.8244
  0
VERTEX
  8
LAYER_1
 10
68.8268
 20
180.451
  0
SEQEND
  0
POLYLINE
  8
LAYER_1
 40
0.05
 41
0.05
 66
1
 10
0
 20
0
 30
0
  0
VERTEX
  8
LAYER_1
 10
67.24
 20
177.719
  0
VERTEX
  8
LAYER_1
 10
67.5363
 20
177.5654
  0
VERTEX
  8
LAYER_1
 10
66.9265
 20
176.7551
  0
SEQEND
  0
POLYLINE
  8
LAYER_1
 40
0.05
 41
0.05
 66
1
 10
0
 20
0
 30
0
  0
VERTEX
  8
LAYER_1
 10
68.873
 20
180.9016
  0
VERTEX
  8
LAYER_1
 10
69.1686
 20
180.7473
  0
VERTEX
  8
LAYER_1
 10
69.4828
 20
181.7126
  0
SEQEND
  0
TEXT
  8
LAYER_1
 10
68.3891
 20
177.6533
 11
68.3891
 21
177.6533
 40
3.5034
 41
0.5
 50
62.52963513
  1
55
  0
POLYLINE
  8
LAYER_1
 40
0.1058
 41
0.1058
 66
1
 10
0
 20
0
 30
0
  0
VERTEX
  8
LAYER_1
 10
112.9116
 20
177.6308
  0
VERTEX
  8
LAYER_1
 10
112.1206
 20
177.101
  0
SEQEND
  0
POLYLINE
  8
LAYER_1
 40
0.1058
 41
0.1058
 66
1
 10
0
 20
0
 30
0
  0
VERTEX
  8
LAYER_1
 10
108.1974
 20
181.1882
  0
VERTEX
  8
LAYER_1
 10
109.0138
 20
181.7346
  0
SEQEND
  0
POLYLINE
  8
LAYER_1
 40
0.1058
 41
0.1058
 66
1
 10
0
 20
0
 30
0
  0
VERTEX
  8
LAYER_1
 10
111.5488
 20
177.923
  0
VERTEX
  8
LAYER_1
 10
111.3145
 20
178.273
  0
SEQEND
  0
POLYLINE
  8
LAYER_1
 40
0.1058
 41
0.1058
 66
1
 10
0
 20
0
 30
0
  0
VERTEX
  8
LAYER_1
 10
109.5851
 20
180.9133
  0
VERTEX
  8
LAYER_1
 10
109.82
 20
180.5633
  0
SEQEND
  0
POLYLINE
  8
LAYER_1
 40
0.05
 41
0.05
 66
1
 10
0
 20
0
 30
0
  0
VERTEX
  8
LAYER_1
 10
111.4109
 20
177.8293
  0
VERTEX
  8
LAYER_1
 10
111.6873
 20
178.0146
  0
VERTEX
  8
LAYER_1
 10
112.1048
 20
177.092
  0
SEQEND
  0
POLYLINE
  8
LAYER_1
 40
0.05
 41
0.05
 66
1
 10
0
 20
0
 30
0
  0
VERTEX
  8
LAYER_1
 10
109.4466
 20
180.821
  0
VERTEX
  8
LAYER_1
 10
109.7235
 20
181.0057
  0
VERTEX
  8
LAYER_1
 10
109.0283
 20
181.7443
  0
SEQEND
  0
TEXT
  8
LAYER_1
 10
112.1168
 20
178.6815
 11
112.1168
 21
178.6815
 40
3.5034
 41
0.5
 50
123.7925649
  1
55
  0
POLYLINE
  8
LAYER_1
 40
0.1058
 41
0.1058
 66
1
 10
0
 20
0
 30
0
  0
VERTEX
  8
LAYER_1
 10
88.0318
 20
170.9825
  0
VERTEX
  8
LAYER_1
 10
51.1521
 20
170.9825
  0
SEQEND
  0
POLYLINE
  8
LAYER_1
 40
0.1058
 41
0.1058
 66
1
 10
0
 20
0
 30
0
  0
VERTEX
  8
LAYER_1
 10
88.1579
 20
220.9832
  0
VERTEX
  8
LAYER_1
 10
51.1528
 20
220.9832
  0
SEQEND
  0
POLYLINE
  8
LAYER_1
 40
0.1058
 41
0.1058
 66
1
 10
0
 20
0
 30
0
  0
VERTEX
  8
LAYER_1
 10
51.17
 20
171.9823
  0
VERTEX
  8
LAYER_1
 10
51.17
 20
199.2833
  0
SEQEND
  0
POLYLINE
  8
LAYER_1
 40
0.1058
 41
0.1058
 66
1
 10
0
 20
0
 30
0
  0
VERTEX
  8
LAYER_1
 10
51.17
 20
219.9828
  0
VERTEX
  8
LAYER_1
 10
51.17
 20
199.2833
  0
SEQEND
  0
POLYLINE
  8
LAYER_1
 40
0.05
 41
0.05
 66
1
 10
0
 20
0
 30
0
  0
VERTEX
  8
LAYER_1
 10
51.0033
 20
171.9823
  0
VERTEX
  8
LAYER_1
 10
51.17
 20
170.9825
  0
VERTEX
  8
LAYER_1
 10
51.3368
 20
171.9823
  0
SEQEND
  0
POLYLINE
  8
LAYER_1
 40
0.05
 41
0.05
 66
1
 10
0
 20
0
 30
0
  0
VERTEX
  8
LAYER_1
 10
51.0033
 20
219.9828
  0
VERTEX
  8
LAYER_1
 10
51.3368
 20
219.9828
  0
VERTEX
  8
LAYER_1
 10
51.17
 20
220.9839
  0
SEQEND
  0
TEXT
  8
LAYER_1
 10
50.0371
 20
193.8753
 11
50.0371
 21
193.8753
 40
3.5034
 41
0.5
 50
89.99999999
  1
500
  0
POLYLINE
  8
LAYER_1
 40
0.1058
 41
0.1058
 66
1
 10
0
 20
0
 30
0
  0
VERTEX
  8
LAYER_1
 10
90.2429
 20
176.5194
  0
VERTEX
  8
LAYER_1
 10
89.2604
 20
176.5194
  0
SEQEND
  0
POLYLINE
  8
LAYER_1
 40
0.1058
 41
0.1058
 66
1
 10
0
 20
0
 30
0
  0
VERTEX
  8
LAYER_1
 10
98.5091
 20
193.9827
  0
VERTEX
  8
LAYER_1
 10
99.4902
 20
193.9827
  0
SEQEND
  0
POLYLINE
  8
LAYER_1
 40
0.1058
 41
0.1058
 66
1
 10
0
 20
0
 30
0
  0
VERTEX
  8
LAYER_1
 10
99.5088
 20
177.5192
  0
VERTEX
  8
LAYER_1
 10
99.5088
 20
193.0098
  0
SEQEND
  0
POLYLINE
  8
LAYER_1
 40
0.1058
 41
0.1058
 66
1
 10
0
 20
0
 30
0
  0
VERTEX
  8
LAYER_1
 10
99.5088
 20
192.9822
  0
VERTEX
  8
LAYER_1
 10
99.5088
 20
187.1738
  0
SEQEND
  0
POLYLINE
  8
LAYER_1
 40
0.05
 41
0.05
 66
1
 10
0
 20
0
 30
0
  0
VERTEX
  8
LAYER_1
 10
99.3421
 20
177.5192
  0
VERTEX
  8
LAYER_1
 10
99.5088
 20
176.5194
  0
VERTEX
  8
LAYER_1
 10
99.6756
 20
177.5192
  0
SEQEND
  0
POLYLINE
  8
LAYER_1
 40
0.05
 41
0.05
 66
1
 10
0
 20
0
 30
0
  0
VERTEX
  8
LAYER_1
 10
99.3421
 20
192.9836
  0
VERTEX
  8
LAYER_1
 10
99.6756
 20
192.9836
  0
VERTEX
  8
LAYER_1
 10
99.5088
 20
193.9833
  0
SEQEND
  0
TEXT
  8
LAYER_1
 10
102.6678
 20
182.5244
 11
102.6678
 21
182.5244
 40
3.5034
 41
0.5
 50
89.99999999
  1
175
  0
POLYLINE
  8
LAYER_1
 40
0.1058
 41
0.1058
 66
1
 10
0
 20
0
 30
0
  0
VERTEX
  8
LAYER_1
 10
100.5086
 20
193.9827
  0
VERTEX
  8
LAYER_1
 10
99.5261
 20
193.9827
  0
SEQEND
  0
POLYLINE
  8
LAYER_1
 40
0.1058
 41
0.1058
 66
1
 10
0
 20
0
 30
0
  0
VERTEX
  8
LAYER_1
 10
88.242
 20
211.4458
  0
VERTEX
  8
LAYER_1
 10
89.2245
 20
211.4458
  0
SEQEND
  0
POLYLINE
  8
LAYER_1
 40
0.1058
 41
0.1058
 66
1
 10
0
 20
0
 30
0
  0
VERTEX
  8
LAYER_1
 10
99.5088
 20
194.9824
  0
VERTEX
  8
LAYER_1
 10
99.5088
 20
210.2972
  0
SEQEND
  0
POLYLINE
  8
LAYER_1
 40
0.1058
 41
0.1058
 66
1
 10
0
 20
0
 30
0
  0
VERTEX
  8
LAYER_1
 10
99.5088
 20
210.4461
  0
VERTEX
  8
LAYER_1
 10
99.5088
 20
204.6369
  0
SEQEND
  0
POLYLINE
  8
LAYER_1
 40
0.05
 41
0.05
 66
1
 10
0
 20
0
 30
0
  0
VERTEX
  8
LAYER_1
 10
99.3421
 20
194.9824
  0
VERTEX
  8
LAYER_1
 10
99.5088
 20
193.9827
  0
VERTEX
  8
LAYER_1
 10
99.6756
 20
194.9824
  0
SEQEND
  0
POLYLINE
  8
LAYER_1
 40
0.05
 41
0.05
 66
1
 10
0
 20
0
 30
0
  0
VERTEX
  8
LAYER_1
 10
99.3421
 20
210.4461
  0
VERTEX
  8
LAYER_1
 10
99.6756
 20
210.4461
  0
VERTEX
  8
LAYER_1
 10
99.5088
 20
211.4465
  0
SEQEND
  0
TEXT
  8
LAYER_1
 10
102.8442
 20
199.4591
 11
102.8442
 21
199.4591
 40
3.5034
 41
0.5
 50
89.99999999
  1
175
  0
POLYLINE
  8
LAYER_1
 40
0.1058
 41
0.1058
 66
1
 10
0
 20
0
 30
0
  0
VERTEX
  8
LAYER_1
 10
84.0693
 20
193.9827
  0
VERTEX
  8
LAYER_1
 10
83.086
 20
193.9827
  0
SEQEND
  0
POLYLINE
  8
LAYER_1
 40
0.1058
 41
0.1058
 66
1
 10
0
 20
0
 30
0
  0
VERTEX
  8
LAYER_1
 10
85.3998
 20
215.983
  0
VERTEX
  8
LAYER_1
 10
83.0502
 20
215.983
  0
SEQEND
  0
POLYLINE
  8
LAYER_1
 40
0.1058
 41
0.1058
 66
1
 10
0
 20
0
 30
0
  0
VERTEX
  8
LAYER_1
 10
83.0695
 20
194.9824
  0
VERTEX
  8
LAYER_1
 10
83.0695
 20
210.1209
  0
SEQEND
  0
POLYLINE
  8
LAYER_1
 40
0.1058
 41
0.1058
 66
1
 10
0
 20
0
 30
0
  0
VERTEX
  8
LAYER_1
 10
83.0695
 20
214.9833
  0
VERTEX
  8
LAYER_1
 10
83.0695
 20
209.5765
  0
SEQEND
  0
POLYLINE
  8
LAYER_1
 40
0.05
 41
0.05
 66
1
 10
0
 20
0
 30
0
  0
VERTEX
  8
LAYER_1
 10
82.9021
 20
194.9824
  0
VERTEX
  8
LAYER_1
 10
83.0695
 20
193.9827
  0
VERTEX
  8
LAYER_1
 10
83.2363
 20
194.9824
  0
SEQEND
  0
POLYLINE
  8
LAYER_1
 40
0.05
 41
0.05
 66
1
 10
0
 20
0
 30
0
  0
VERTEX
  8
LAYER_1
 10
82.9021
 20
214.9833
  0
VERTEX
  8
LAYER_1
 10
83.2363
 20
214.9833
  0
VERTEX
  8
LAYER_1
 10
83.0695
 20
215.983
  0
SEQEND
  0
TEXT
  8
LAYER_1
 10
82.4058
 20
203.104
 11
82.4058
 21
203.104
 40
3.5034
 41
0.5
 50
89.99999999
  1
220
  0
POLYLINE
  8
LAYER_1
 40
0.1058
 41
0.1058
 66
1
 10
0
 20
0
 30
0
  0
VERTEX
  8
LAYER_1
 10
88.242
 20
220.9839
  0
VERTEX
  8
LAYER_1
 10
89.2245
 20
220.9839
  0
SEQEND
  0
POLYLINE
  8
LAYER_1
 40
0.1058
 41
0.1058
 66
1
 10
0
 20
0
 30
0
  0
VERTEX
  8
LAYER_1
 10
88.242
 20
223.9839
  0
VERTEX
  8
LAYER_1
 10
89.2245
 20
223.9839
  0
SEQEND
  0
POLYLINE
  8
LAYER_1
 40
0.1058
 41
0.1058
 66
1
 10
0
 20
0
 30
0
  0
VERTEX
  8
LAYER_1
 10
89.2431
 20
221.9837
  0
VERTEX
  8
LAYER_1
 10
89.2431
 20
222.9835
  0
SEQEND
  0
POLYLINE
  8
LAYER_1
 40
0.1058
 41
0.1058
 66
1
 10
0
 20
0
 30
0
  0
VERTEX
  8
LAYER_1
 10
89.2431
 20
223.9839
  0
VERTEX
  8
LAYER_1
 10
89.2431
 20
224.9837
  0
VERTEX
  8
LAYER_1
 10
90.2429
 20
224.9837
  0
SEQEND
  0
POLYLINE
  8
LAYER_1
 40
0.05
 41
0.05
 66
1
 10
0
 20
0
 30
0
  0
VERTEX
  8
LAYER_1
 10
89.0757
 20
221.9837
  0
VERTEX
  8
LAYER_1
 10
89.2424
 20
220.9839
  0
VERTEX
  8
LAYER_1
 10
89.4092
 20
221.9837
  0
SEQEND
  0
POLYLINE
  8
LAYER_1
 40
0.05
 41
0.05
 66
1
 10
0
 20
0
 30
0
  0
VERTEX
  8
LAYER_1
 10
89.0757
 20
222.9835
  0
VERTEX
  8
LAYER_1
 10
89.4092
 20
222.9835
  0
VERTEX
  8
LAYER_1
 10
89.2424
 20
223.9832
  0
SEQEND
  0
TEXT
  8
LAYER_1
 10
90.6194
 20
225.5938
 11
90.6194
 21
225.5938
 40
3.5034
 41
0.5
  1
30mm推奨
  0
POLYLINE
  8
LAYER_1
 40
0.1058
 41
0.1058
 66
1
 10
0
 20
0
 30
0
  0
VERTEX
  8
LAYER_1
 10
60.232
 20
194.9728
  0
VERTEX
  8
LAYER_1
 10
60.232
 20
167.6704
  0
SEQEND
  0
POLYLINE
  8
LAYER_1
 40
0.1058
 41
0.1058
 66
1
 10
0
 20
0
 30
0
  0
VERTEX
  8
LAYER_1
 10
118.2481
 20
194.9858
  0
VERTEX
  8
LAYER_1
 10
118.2481
 20
167.6711
  0
SEQEND
  0
POLYLINE
  8
LAYER_1
 40
0.1058
 41
0.1058
 66
1
 10
0
 20
0
 30
0
  0
VERTEX
  8
LAYER_1
 10
61.045
 20
167.6883
  0
VERTEX
  8
LAYER_1
 10
86.6607
 20
167.6883
  0
SEQEND
  0
POLYLINE
  8
LAYER_1
 40
0.1058
 41
0.1058
 66
1
 10
0
 20
0
 30
0
  0
VERTEX
  8
LAYER_1
 10
117.4481
 20
167.6883
  0
VERTEX
  8
LAYER_1
 10
86.2803
 20
167.6883
  0
SEQEND
  0
POLYLINE
  8
LAYER_1
 40
0.05
 41
0.05
 66
1
 10
0
 20
0
 30
0
  0
VERTEX
  8
LAYER_1
 10
60.232
 20
167.6883
  0
VERTEX
  8
LAYER_1
 10
61.045
 20
167.5216
  0
VERTEX
  8
LAYER_1
 10
61.045
 20
167.8543
  0
SEQEND
  0
POLYLINE
  8
LAYER_1
 40
0.05
 41
0.05
 66
1
 10
0
 20
0
 30
0
  0
VERTEX
  8
LAYER_1
 10
117.4481
 20
167.5216
  0
VERTEX
  8
LAYER_1
 10
118.2481
 20
167.6883
  0
VERTEX
  8
LAYER_1
 10
117.4481
 20
167.8543
  0
SEQEND
  0
TEXT
  8
LAYER_1
 10
86.5088
 20
164.8497
 11
86.5088
 21
164.8497
 40
3.5034
 41
0.5
  1
580
  0
POLYLINE
  8
LAYER_1
 40
0.1058
 41
0.1058
 66
1
 10
0
 20
0
 30
0
  0
VERTEX
  8
LAYER_1
 10
54.241
 20
191.0929
  0
VERTEX
  8
LAYER_1
 10
54.241
 20
163.7905
  0
SEQEND
  0
POLYLINE
  8
LAYER_1
 40
0.1058
 41
0.1058
 66
1
 10
0
 20
0
 30
0
  0
VERTEX
  8
LAYER_1
 10
124.2432
 20
191.106
  0
VERTEX
  8
LAYER_1
 10
124.2432
 20
163.7905
  0
SEQEND
  0
POLYLINE
  8
LAYER_1
 40
0.1058
 41
0.1058
 66
1
 10
0
 20
0
 30
0
  0
VERTEX
  8
LAYER_1
 10
55.2414
 20
163.8084
  0
VERTEX
  8
LAYER_1
 10
87.0038
 20
163.8084
  0
SEQEND
  0
POLYLINE
  8
LAYER_1
 40
0.1058
 41
0.1058
 66
1
 10
0
 20
0
 30
0
  0
VERTEX
  8
LAYER_1
 10
123.2435
 20
163.8084
  0
VERTEX
  8
LAYER_1
 10
86.8977
 20
163.8084
  0
SEQEND
  0
POLYLINE
  8
LAYER_1
 40
0.05
 41
0.05
 66
1
 10
0
 20
0
 30
0
  0
VERTEX
  8
LAYER_1
 10
54.241
 20
163.8077
  0
VERTEX
  8
LAYER_1
 10
55.2414
 20
163.6403
  0
VERTEX
  8
LAYER_1
 10
55.2414
 20
163.9745
  0
SEQEND
  0
POLYLINE
  8
LAYER_1
 40
0.05
 41
0.05
 66
1
 10
0
 20
0
 30
0
  0
VERTEX
  8
LAYER_1
 10
123.2435
 20
163.6403
  0
VERTEX
  8
LAYER_1
 10
124.2439
 20
163.8077
  0
VERTEX
  8
LAYER_1
 10
123.2435
 20
163.9745
  0
SEQEND
  0
POLYLINE
  8
LAYER_1
 40
0.1058
 41
0.1058
 66
1
 10
0
 20
0
 30
0
  0
VERTEX
  8
LAYER_1
 10
93.5102
 20
69.2705
  0
VERTEX
  8
LAYER_1
 10
94.541
 20
69.2705
  0
SEQEND
  0
POLYLINE
  8
LAYER_1
 40
0.1058
 41
0.1058
 66
1
 10
0
 20
0
 30
0
  0
VERTEX
  8
LAYER_1
 10
97.8752
 20
69.2705
  0
VERTEX
  8
LAYER_1
 10
98.9059
 20
69.2705
  0
SEQEND
  0
POLYLINE
  8
LAYER_1
 40
0.1058
 41
0.1058
 66
1
 10
0
 20
0
 30
0
  0
VERTEX
  8
LAYER_1
 10
93.4358
 20
69.2705
  0
VERTEX
  8
LAYER_1
 10
78.3415
 20
69.2705
  0
SEQEND
  0
CIRCLE
  8
LAYER_1
 10
89.2528
 20
215.9844
 40
1.7501
  0
POLYLINE
  8
LAYER_1
 40
0.1058
 41
0.1058
 66
1
 10
0
 20
0
 30
0
  0
VERTEX
  8
LAYER_1
 10
185.7733
 20
189.1659
  0
VERTEX
  8
LAYER_1
 10
184.9648
 20
189.7078
  0
SEQEND
  0
POLYLINE
  8
LAYER_1
 40
0.1058
 41
0.1058
 66
1
 10
0
 20
0
 30
0
  0
VERTEX
  8
LAYER_1
 10
212.5465
 20
195.421
  0
VERTEX
  8
LAYER_1
 10
212.5465
 20
193.4822
  0
SEQEND
  0
POLYLINE
  8
LAYER_1
 40
0.1058
 41
0.1058
 66
1
 10
0
 20
0
 30
0
  0
VERTEX
  8
LAYER_1
 10
212.5465
 20
195.421
  0
VERTEX
  8
LAYER_1
 10
213.5522
 20
195.421
  0
VERTEX
  8
LAYER_1
 10
213.5522
 20
193.4822
  0
SEQEND
  0
POLYLINE
  8
LAYER_1
 40
0.1058
 41
0.1058
 66
1
 10
0
 20
0
 30
0
  0
VERTEX
  8
LAYER_1
 10
212.5465
 20
193.4822
  0
VERTEX
  8
LAYER_1
 10
213.5522
 20
193.4822
  0
SEQEND
  0
POLYLINE
  8
LAYER_1
 40
0.1058
 41
0.1058
 66
1
 10
0
 20
0
 30
0
  0
VERTEX
  8
LAYER_1
 10
212.5465
 20
193.4822
  0
VERTEX
  8
LAYER_1
 10
213.5522
 20
193.6609
  0
SEQEND
  0
POLYLINE
  8
LAYER_1
 40
0.1058
 41
0.1058
 66
1
 10
0
 20
0
 30
0
  0
VERTEX
  8
LAYER_1
 10
212.5465
 20
193.6988
  0
VERTEX
  8
LAYER_1
 10
213.5522
 20
193.8764
  0
SEQEND
  0
POLYLINE
  8
LAYER_1
 40
0.1058
 41
0.1058
 66
1
 10
0
 20
0
 30
0
  0
VERTEX
  8
LAYER_1
 10
212.5465
 20
193.8967
  0
VERTEX
  8
LAYER_1
 10
213.5522
 20
194.0753
  0
SEQEND
  0
POLYLINE
  8
LAYER_1
 40
0.1058
 41
0.1058
 66
1
 10
0
 20
0
 30
0
  0
VERTEX
  8
LAYER_1
 10
212.5465
 20
194.0903
  0
VERTEX
  8
LAYER_1
 10
213.5522
 20
194.2684
  0
SEQEND
  0
POLYLINE
  8
LAYER_1
 40
0.1058
 41
0.1058
 66
1
 10
0
 20
0
 30
0
  0
VERTEX
  8
LAYER_1
 10
212.5465
 20
194.2612
  0
VERTEX
  8
LAYER_1
 10
213.5522
 20
194.4398
  0
SEQEND
  0
POLYLINE
  8
LAYER_1
 40
0.1058
 41
0.1058
 66
1
 10
0
 20
0
 30
0
  0
VERTEX
  8
LAYER_1
 10
212.5465
 20
194.4407
  0
VERTEX
  8
LAYER_1
 10
213.5522
 20
194.6178
  0
SEQEND
  0
POLYLINE
  8
LAYER_1
 40
0.1058
 41
0.1058
 66
1
 10
0
 20
0
 30
0
  0
VERTEX
  8
LAYER_1
 10
212.5465
 20
194.615
  0
VERTEX
  8
LAYER_1
 10
213.5522
 20
194.7936
  0
SEQEND
  0
POLYLINE
  8
LAYER_1
 40
0.1058
 41
0.1058
 66
1
 10
0
 20
0
 30
0
  0
VERTEX
  8
LAYER_1
 10
212.5465
 20
194.7977
  0
VERTEX
  8
LAYER_1
 10
213.5522
 20
194.9757
  0
SEQEND
  0
POLYLINE
  8
LAYER_1
 40
0.1058
 41
0.1058
 66
1
 10
0
 20
0
 30
0
  0
VERTEX
  8
LAYER_1
 10
212.5465
 20
194.9802
  0
VERTEX
  8
LAYER_1
 10
213.5522
 20
195.1581
  0
SEQEND
  0
POLYLINE
  8
LAYER_1
 40
0.1058
 41
0.1058
 66
1
 10
0
 20
0
 30
0
  0
VERTEX
  8
LAYER_1
 10
212.5465
 20
195.1743
  0
VERTEX
  8
LAYER_1
 10
213.5522
 20
195.3515
  0
SEQEND
  0
POLYLINE
  8
LAYER_1
 40
0.1058
 41
0.1058
 66
1
 10
0
 20
0
 30
0
  0
VERTEX
  8
LAYER_1
 10
213.5522
 20
193.4822
  0
VERTEX
  8
LAYER_1
 10
214.3218
 20
193.4822
  0
VERTEX
  8
LAYER_1
 10
214.3218
 20
193.0695
  0
VERTEX
  8
LAYER_1
 10
211.8289
 20
193.0695
  0
VERTEX
  8
LAYER_1
 10
211.8289
 20
193.5074
  0
VERTEX
  8
LAYER_1
 10
212.5459
 20
193.4822
  0
SEQEND
  0
POLYLINE
  8
LAYER_1
 40
0.1058
 41
0.1058
 66
1
 10
0
 20
0
 30
0
  0
VERTEX
  8
LAYER_1
 10
224.2313
 20
194.4338
  0
VERTEX
  8
LAYER_1
 10
224.2313
 20
193.737
  0
VERTEX
  8
LAYER_1
 10
226.7231
 20
193.737
  0
VERTEX
  8
LAYER_1
 10
226.7231
 20
194.4338
  0
SEQEND
  0
POLYLINE
  8
LAYER_1
 40
0.1058
 41
0.1058
 66
1
 10
0
 20
0
 30
0
  0
VERTEX
  8
LAYER_1
 10
225.9535
 20
194.846
  0
VERTEX
  8
LAYER_1
 10
226.7231
 20
194.846
  0
VERTEX
  8
LAYER_1
 10
226.7231
 20
194.4338
  0
VERTEX
  8
LAYER_1
 10
224.2313
 20
194.4338
  0
VERTEX
  8
LAYER_1
 10
224.2313
 20
194.8715
  0
VERTEX
  8
LAYER_1
 10
224.9472
 20
194.846
  0
SEQEND
  0
POLYLINE
  8
LAYER_1
 40
0.1058
 41
0.1058
 66
1
 10
0
 20
0
 30
0
  0
VERTEX
  8
LAYER_1
 10
224.9472
 20
196.5384
  0
VERTEX
  8
LAYER_1
 10
225.9535
 20
196.7167
  0
SEQEND
  0
POLYLINE
  8
LAYER_1
 40
0.1058
 41
0.1058
 66
1
 10
0
 20
0
 30
0
  0
VERTEX
  8
LAYER_1
 10
224.9472
 20
196.3437
  0
VERTEX
  8
LAYER_1
 10
225.9535
 20
196.5215
  0
SEQEND
  0
POLYLINE
  8
LAYER_1
 40
0.1058
 41
0.1058
 66
1
 10
0
 20
0
 30
0
  0
VERTEX
  8
LAYER_1
 10
224.9472
 20
196.1617
  0
VERTEX
  8
LAYER_1
 10
225.9535
 20
196.3392
  0
SEQEND
  0
POLYLINE
  8
LAYER_1
 40
0.1058
 41
0.1058
 66
1
 10
0
 20
0
 30
0
  0
VERTEX
  8
LAYER_1
 10
224.9472
 20
195.9786
  0
VERTEX
  8
LAYER_1
 10
225.9535
 20
196.157
  0
SEQEND
  0
POLYLINE
  8
LAYER_1
 40
0.1058
 41
0.1058
 66
1
 10
0
 20
0
 30
0
  0
VERTEX
  8
LAYER_1
 10
224.9472
 20
195.8039
  0
VERTEX
  8
LAYER_1
 10
225.9535
 20
195.9817
  0
SEQEND
  0
POLYLINE
  8
LAYER_1
 40
0.1058
 41
0.1058
 66
1
 10
0
 20
0
 30
0
  0
VERTEX
  8
LAYER_1
 10
224.9472
 20
195.6251
  0
VERTEX
  8
LAYER_1
 10
225.9535
 20
195.8032
  0
SEQEND
  0
POLYLINE
  8
LAYER_1
 40
0.1058
 41
0.1058
 66
1
 10
0
 20
0
 30
0
  0
VERTEX
  8
LAYER_1
 10
224.9472
 20
195.4542
  0
VERTEX
  8
LAYER_1
 10
225.9535
 20
195.6328
  0
SEQEND
  0
POLYLINE
  8
LAYER_1
 40
0.1058
 41
0.1058
 66
1
 10
0
 20
0
 30
0
  0
VERTEX
  8
LAYER_1
 10
224.9472
 20
195.2606
  0
VERTEX
  8
LAYER_1
 10
225.9535
 20
195.4389
  0
SEQEND
  0
POLYLINE
  8
LAYER_1
 40
0.1058
 41
0.1058
 66
1
 10
0
 20
0
 30
0
  0
VERTEX
  8
LAYER_1
 10
224.9472
 20
195.063
  0
VERTEX
  8
LAYER_1
 10
225.9535
 20
195.2403
  0
SEQEND
  0
POLYLINE
  8
LAYER_1
 40
0.1058
 41
0.1058
 66
1
 10
0
 20
0
 30
0
  0
VERTEX
  8
LAYER_1
 10
224.9472
 20
194.846
  0
VERTEX
  8
LAYER_1
 10
225.9535
 20
195.0246
  0
SEQEND
  0
POLYLINE
  8
LAYER_1
 40
0.1058
 41
0.1058
 66
1
 10
0
 20
0
 30
0
  0
VERTEX
  8
LAYER_1
 10
224.9472
 20
194.846
  0
VERTEX
  8
LAYER_1
 10
225.9535
 20
194.846
  0
SEQEND
  0
POLYLINE
  8
LAYER_1
 40
0.1058
 41
0.1058
 66
1
 10
0
 20
0
 30
0
  0
VERTEX
  8
LAYER_1
 10
224.9472
 20
196.7849
  0
VERTEX
  8
LAYER_1
 10
225.9535
 20
196.7849
  0
VERTEX
  8
LAYER_1
 10
225.9535
 20
194.846
  0
SEQEND
  0
POLYLINE
  8
LAYER_1
 40
0.1058
 41
0.1058
 66
1
 10
0
 20
0
 30
0
  0
VERTEX
  8
LAYER_1
 10
224.9472
 20
196.7849
  0
VERTEX
  8
LAYER_1
 10
224.9472
 20
194.846
  0
SEQEND
  0
POLYLINE
  8
LAYER_1
 40
0.1058
 41
0.1058
 66
1
 10
0
 20
0
 30
0
  0
VERTEX
  8
LAYER_1
 10
208.6343
 20
194.9802
  0
VERTEX
  8
LAYER_1
 10
211.3029
 20
194.9681
  0
VERTEX
  8
LAYER_1
 10
216.1174
 20
194.9681
  0
SEQEND
  0
POLYLINE
  8
LAYER_1
 40
0.1058
 41
0.1058
 66
1
 10
0
 20
0
 30
0
  0
VERTEX
  8
LAYER_1
 10
211.8296
 20
193.0701
  0
VERTEX
  8
LAYER_1
 10
211.8296
 20
192.3738
  0
VERTEX
  8
LAYER_1
 10
214.3218
 20
192.3738
  0
VERTEX
  8
LAYER_1
 10
214.3218
 20
193.0701
  0
SEQEND
  0
POLYLINE
  8
LAYER_1
 40
0.1058
 41
0.1058
 66
1
 10
0
 20
0
 30
0
  0
VERTEX
  8
LAYER_1
 10
228.8952
 20
194.9681
  0
VERTEX
  8
LAYER_1
 10
224.0807
 20
194.9681
  0
VERTEX
  8
LAYER_1
 10
221.93
 20
194.9681
  0
SEQEND
  0
POLYLINE
  8
LAYER_1
 40
0.1058
 41
0.1058
 66
1
 10
0
 20
0
 30
0
  0
VERTEX
  8
LAYER_1
 10
208.6343
 20
194.9802
  0
VERTEX
  8
LAYER_1
 10
209.1593
 20
204.937
  0
SEQEND
  0
POLYLINE
  8
LAYER_1
 40
0.1058
 41
0.1058
 66
1
 10
0
 20
0
 30
0
  0
VERTEX
  8
LAYER_1
 10
210.5153
 20
194.9681
  0
VERTEX
  8
LAYER_1
 10
211.1513
 20
207.0554
  0
SEQEND
  0
POLYLINE
  8
LAYER_1
 40
0.1058
 41
0.1058
 66
1
 10
0
 20
0
 30
0
  0
VERTEX
  8
LAYER_1
 10
216.1174
 20
194.9681
  0
VERTEX
  8
LAYER_1
 10
217.0334
 20
209.4758
  0
SEQEND
  0
POLYLINE
  8
LAYER_1
 40
0.1058
 41
0.1058
 66
1
 10
0
 20
0
 30
0
  0
VERTEX
  8
LAYER_1
 10
224.0807
 20
194.9681
  0
VERTEX
  8
LAYER_1
 10
223.6167
 20
208.9907
  0
SEQEND
  0
POLYLINE
  8
LAYER_1
 40
0.1058
 41
0.1058
 66
1
 10
0
 20
0
 30
0
  0
VERTEX
  8
LAYER_1
 10
221.93
 20
194.9681
  0
VERTEX
  8
LAYER_1
 10
221.4666
 20
209.4758
  0
SEQEND
  0
POLYLINE
  8
LAYER_1
 40
0.1058
 41
0.1058
 66
1
 10
0
 20
0
 30
0
  0
VERTEX
  8
LAYER_1
 10
228.8952
 20
194.9681
  0
VERTEX
  8
LAYER_1
 10
228.5621
 20
205.3806
  0
SEQEND
  0
POLYLINE
  8
LAYER_1
 40
0.1764
 41
0.1764
 66
1
 10
0
 20
0
 30
0
 70
1
  0
VERTEX
  8
LAYER_1
 10
230.9434
 20
198.6775
 42
-0.1575480255
  0
VERTEX
  8
LAYER_1
 10
228.9086
 20
192.4305
 42
-0.08123520955
  0
VERTEX
  8
LAYER_1
 10
226.2717
 20
189.8053
 42
-0.07626828206
  0
VERTEX
  8
LAYER_1
 10
222.9884
 20
188.1364
 42
-0.07111807662
  0
VERTEX
  8
LAYER_1
 10
219.4897
 20
187.5129
 42
-0.008963403801
  0
VERTEX
  8
LAYER_1
 10
219.0292
 20
187.5047
 42
-0.07072904205
  0
VERTEX
  8
LAYER_1
 10
215.4864
 20
188.007
 42
-0.07583298794
  0
VERTEX
  8
LAYER_1
 10
212.1322
 20
189.5659
 42
-0.07996666436
  0
VERTEX
  8
LAYER_1
 10
209.3965
 20
192.1005
 42
-0.07507808051
  0
VERTEX
  8
LAYER_1
 10
207.7881
 20
194.9645
 42
-0.09003772864
  0
VERTEX
  8
LAYER_1
 10
207.1143
 20
198.6775
 42
-0.1575808813
  0
VERTEX
  8
LAYER_1
 10
209.1494
 20
204.9239
 42
-0.08122748412
  0
VERTEX
  8
LAYER_1
 10
211.7866
 20
207.549
 42
-0.07625690333
  0
VERTEX
  8
LAYER_1
 10
215.0701
 20
209.2178
 42
-0.07111326283
  0
VERTEX
  8
LAYER_1
 10
218.5687
 20
209.8413
 42
-0.008963497289
  0
VERTEX
  8
LAYER_1
 10
219.0292
 20
209.8495
 42
-0.07072835752
  0
VERTEX
  8
LAYER_1
 10
222.572
 20
209.3472
 42
-0.07583677557
  0
VERTEX
  8
LAYER_1
 10
225.9261
 20
207.7883
 42
-0.07996966352
  0
VERTEX
  8
LAYER_1
 10
228.6615
 20
205.2538
 42
-0.07507664468
  0
VERTEX
  8
LAYER_1
 10
230.2697
 20
202.3901
 42
-0.09003215326
  0
SEQEND
  0
POLYLINE
  8
LAYER_1
 40
0.2117
 41
0.2117
 66
1
 10
0
 20
0
 30
0
  0
VERTEX
  8
LAYER_1
 10
219.5256
 20
196.866
  0
VERTEX
  8
LAYER_1
 10
219.5256
 20
191.4674
  0
SEQEND
  0
POLYLINE
  8
LAYER_1
 40
0.05
 41
0.05
 66
1
 10
0
 20
0
 30
0
 70
1
  0
VERTEX
  8
LAYER_1
 10
219.0726
 20
196.5758
  0
VERTEX
  8
LAYER_1
 10
219.5256
 20
198.162
  0
VERTEX
  8
LAYER_1
 10
219.9797
 20
196.5758
  0
SEQEND
  0
POLYLINE
  8
LAYER_1
 40
0.05
 41
0.05
 66
1
 10
0
 20
0
 30
0
 70
1
  0
VERTEX
  8
LAYER_1
 10
219.0726
 20
191.7576
  0
VERTEX
  8
LAYER_1
 10
219.5256
 20
190.1712
  0
VERTEX
  8
LAYER_1
 10
219.9797
 20
191.7576
  0
SEQEND
  0
POLYLINE
  8
LAYER_1
 40
0.0706
 41
0.0706
 66
1
 10
0
 20
0
 30
0
  0
VERTEX
  8
LAYER_1
 10
210.8881
 20
190.5234
  0
VERTEX
  8
LAYER_1
 10
203.3361
 20
174.9275
  0
SEQEND
  0
POLYLINE
  8
LAYER_1
 40
0.05
 41
0.05
 66
1
 10
0
 20
0
 30
0
 70
1
  0
VERTEX
  8
LAYER_1
 10
203.1463
 20
175.221
  0
VERTEX
  8
LAYER_1
 10
202.9544
 20
174.1406
  0
VERTEX
  8
LAYER_1
 10
203.6961
 20
174.9862
  0
SEQEND
  0
POLYLINE
  8
LAYER_1
 40
0.0706
 41
0.0706
 66
1
 10
0
 20
0
 30
0
  0
VERTEX
  8
LAYER_1
 10
210.8881
 20
190.5234
  0
VERTEX
  8
LAYER_1
 10
191.0647
 20
183.3921
  0
SEQEND
  0
POLYLINE
  8
LAYER_1
 40
0.05
 41
0.05
 66
1
 10
0
 20
0
 30
0
 70
1
  0
VERTEX
  8
LAYER_1
 10
191.149
 20
183.7257
  0
VERTEX
  8
LAYER_1
 10
190.2044
 20
183.0829
  0
VERTEX
  8
LAYER_1
 10
191.3661
 20
183.1969
  0
SEQEND
  0
POLYLINE
  8
LAYER_1
 40
0.0706
 41
0.0706
 66
1
 10
0
 20
0
 30
0
  0
VERTEX
  8
LAYER_1
 10
210.8881
 20
190.5234
  0
VERTEX
  8
LAYER_1
 10
187.1769
 20
171.208
  0
SEQEND
  0
POLYLINE
  8
LAYER_1
 40
0.05
 41
0.05
 66
1
 10
0
 20
0
 30
0
 70
1
  0
VERTEX
  8
LAYER_1
 10
187.1348
 20
171.5491
  0
VERTEX
  8
LAYER_1
 10
186.4813
 20
170.6416
  0
VERTEX
  8
LAYER_1
 10
187.5317
 20
171.1203
  0
SEQEND
  0
POLYLINE
  8
LAYER_1
 40
0.0706
 41
0.0706
 66
1
 10
0
 20
0
 30
0
  0
VERTEX
  8
LAYER_1
 10
210.8881
 20
190.5234
  0
VERTEX
  8
LAYER_1
 10
175.272
 20
180.3421
  0
SEQEND
  0
POLYLINE
  8
LAYER_1
 40
0.05
 41
0.05
 66
1
 10
0
 20
0
 30
0
 70
1
  0
VERTEX
  8
LAYER_1
 10
175.3809
 20
180.6701
  0
VERTEX
  8
LAYER_1
 10
174.3893
 20
180.0911
  0
VERTEX
  8
LAYER_1
 10
175.5565
 20
180.1284
  0
SEQEND
  0
POLYLINE
  8
LAYER_1
 40
0.1058
 41
0.1058
 66
1
 10
0
 20
0
 30
0
  0
VERTEX
  8
LAYER_1
 10
190.4028
 20
187.4702
  0
VERTEX
  8
LAYER_1
 10
190.4063
 20
186.8504
  0
VERTEX
  8
LAYER_1
 10
186.9243
 20
183.0825
  0
SEQEND
  0
POLYLINE
  8
LAYER_1
 40
0.1058
 41
0.1058
 66
1
 10
0
 20
0
 30
0
  0
VERTEX
  8
LAYER_1
 10
189.9636
 20
182.8591
  0
VERTEX
  8
LAYER_1
 10
190.4456
 20
183.2989
  0
SEQEND
  0
POLYLINE
  8
LAYER_1
 40
0.1058
 41
0.1058
 66
1
 10
0
 20
0
 30
0
  0
VERTEX
  8
LAYER_1
 10
189.9636
 20
182.8591
  0
VERTEX
  8
LAYER_1
 10
189.4623
 20
182.9554
  0
VERTEX
  8
LAYER_1
 10
189.3583
 20
185.7172
  0
SEQEND
  0
POLYLINE
  8
LAYER_1
 40
0.1058
 41
0.1058
 66
1
 10
0
 20
0
 30
0
  0
VERTEX
  8
LAYER_1
 10
175.5982
 20
191.7938
  0
VERTEX
  8
LAYER_1
 10
185.8126
 20
190.7746
  0
VERTEX
  8
LAYER_1
 10
185.824
 20
190.0321
  0
SEQEND
  0
INSERT
  8
LAYER_1
  2
AIGNBL0101002F
 10
0
 20
0
 30
0
  0
POLYLINE
  8
LAYER_1
 40
0.1058
 41
0.1058
 66
1
 10
0
 20
0
 30
0
  0
VERTEX
  8
LAYER_1
 10
184.5648
 20
191.0107
  0
VERTEX
  8
LAYER_1
 10
184.5648
 20
191.0112
  0
VERTEX
  8
LAYER_1
 10
175.7274
 20
191.892
  0
VERTEX
  8
LAYER_1
 10
176.4654
 20
211.6629
  0
SEQEND
  0
INSERT
  8
LAYER_1
  2
AIGNBL01010030
 10
0
 20
0
 30
0
  0
POLYLINE
  8
LAYER_1
 40
0.1058
 41
0.1058
 66
1
 10
0
 20
0
 30
0
  0
VERTEX
  8
LAYER_1
 10
174.9003
 20
212.5069
  0
VERTEX
  8
LAYER_1
 10
173.7816
 20
180.1458
  0
VERTEX
  8
LAYER_1
 10
175.1094
 20
180.0261
  0
VERTEX
  8
LAYER_1
 10
175.2906
 20
180.2226
  0
VERTEX
  8
LAYER_1
 10
175.6806
 20
190.6504
  0
SEQEND
  0
POLYLINE
  8
LAYER_1
 40
0.1058
 41
0.1058
 66
1
 10
0
 20
0
 30
0
  0
VERTEX
  8
LAYER_1
 10
203.6461
 20
174.0755
  0
VERTEX
  8
LAYER_1
 10
203.7619
 20
174.3051
  0
VERTEX
  8
LAYER_1
 10
201.7007
 20
211.2543
  0
SEQEND
  0
POLYLINE
  8
LAYER_1
 40
0.1058
 41
0.1058
 66
1
 10
0
 20
0
 30
0
  0
VERTEX
  8
LAYER_1
 10
200.0477
 20
210.3963
  0
VERTEX
  8
LAYER_1
 10
202.1651
 20
174.2152
  0
VERTEX
  8
LAYER_1
 10
203.6458
 20
174.0755
  0
VERTEX
  8
LAYER_1
 10
201.5711
 20
211.1435
  0
SEQEND
  0
POLYLINE
  8
LAYER_1
 40
0.1058
 41
0.1058
 66
1
 10
0
 20
0
 30
0
  0
VERTEX
  8
LAYER_1
 10
186.155
 20
170.3066
  0
VERTEX
  8
LAYER_1
 10
185.5694
 20
170.3953
  0
VERTEX
  8
LAYER_1
 10
186.0779
 20
209.6504
  0
SEQEND
  0
POLYLINE
  8
LAYER_1
 40
0.1058
 41
0.1058
 66
1
 10
0
 20
0
 30
0
  0
VERTEX
  8
LAYER_1
 10
187.3112
 20
209.5486
  0
VERTEX
  8
LAYER_1
 10
186.7469
 20
170.9119
  0
VERTEX
  8
LAYER_1
 10
186.155
 20
170.3066
  0
VERTEX
  8
LAYER_1
 10
186.6966
 20
209.5965
  0
SEQEND
  0
INSERT
  8
LAYER_1
  2
AIGNBL01010031
 10
0
 20
0
 30
0
  0
POLYLINE
  8
LAYER_1
 40
0.1058
 41
0.1058
 66
1
 10
0
 20
0
 30
0
  0
VERTEX
  8
LAYER_1
 10
201.423
 20
186.9109
  0
VERTEX
  8
LAYER_1
 10
191.7699
 20
187.9063
  0
VERTEX
  8
LAYER_1
 10
191.0719
 20
187.9784
  0
SEQEND
  0
INSERT
  8
LAYER_1
  2
AIGNBL01010032
 10
0
 20
0
 30
0
  0
POLYLINE
  8
LAYER_1
 40
0.1058
 41
0.1058
 66
1
 10
0
 20
0
 30
0
  0
VERTEX
  8
LAYER_1
 10
185.8329
 20
190.7625
  0
VERTEX
  8
LAYER_1
 10
185.8133
 20
190.7746
  0
VERTEX
  8
LAYER_1
 10
175.5982
 20
191.7952
  0
SEQEND
  0
POLYLINE
  8
LAYER_1
 40
0.1058
 41
0.1058
 66
1
 10
0
 20
0
 30
0
  0
VERTEX
  8
LAYER_1
 10
190.3987
 20
188.0474
  0
VERTEX
  8
LAYER_1
 10
190.7597
 20
188.0101
  0
VERTEX
  8
LAYER_1
 10
201.423
 20
186.9086
  0
SEQEND
  0
INSERT
  8
LAYER_1
  2
AIGNBL01010033
 10
0
 20
0
 30
0
  0
POLYLINE
  8
LAYER_1
 40
0.1058
 41
0.1058
 66
1
 10
0
 20
0
 30
0
  0
VERTEX
  8
LAYER_1
 10
201.4154
 20
187.0325
  0
VERTEX
  8
LAYER_1
 10
190.8407
 20
188.1222
  0
VERTEX
  8
LAYER_1
 10
201.4154
 20
187.0335
  0
SEQEND
  0
POLYLINE
  8
LAYER_1
 40
0.1058
 41
0.1058
 66
1
 10
0
 20
0
 30
0
  0
VERTEX
  8
LAYER_1
 10
190.0832
 20
188.1022
  0
VERTEX
  8
LAYER_1
 10
186.9498
 20
184.7868
  0
SEQEND
  0
POLYLINE
  8
LAYER_1
 40
0.1058
 41
0.1058
 66
1
 10
0
 20
0
 30
0
  0
VERTEX
  8
LAYER_1
 10
201.4943
 20
185.686
  0
VERTEX
  8
LAYER_1
 10
190.4063
 20
186.8504
  0
SEQEND
  0
INSERT
  8
LAYER_1
  2
AIGNBL01010034
 10
0
 20
0
 30
0
  0
POLYLINE
  8
LAYER_1
 40
0.1058
 41
0.1058
 66
1
 10
0
 20
0
 30
0
  0
VERTEX
  8
LAYER_1
 10
189.5347
 20
210.3963
  0
VERTEX
  8
LAYER_1
 10
189.3569
 20
215.694
  0
SEQEND
  0
POLYLINE
  8
LAYER_1
 40
0.1058
 41
0.1058
 66
1
 10
0
 20
0
 30
0
  0
VERTEX
  8
LAYER_1
 10
190.2761
 20
188.2669
  0
VERTEX
  8
LAYER_1
 10
189.5677
 20
209.4292
  0
SEQEND
  0
POLYLINE
  8
LAYER_1
 40
0.1058
 41
0.1058
 66
1
 10
0
 20
0
 30
0
  0
VERTEX
  8
LAYER_1
 10
190.4077
 20
184.3591
  0
VERTEX
  8
LAYER_1
 10
190.3271
 20
186.764
  0
SEQEND
  0
POLYLINE
  8
LAYER_1
 40
0.1058
 41
0.1058
 66
1
 10
0
 20
0
 30
0
  0
VERTEX
  8
LAYER_1
 10
174.9247
 20
213.2211
  0
VERTEX
  8
LAYER_1
 10
174.9282
 20
213.3207
  0
SEQEND
  0
INSERT
  8
LAYER_1
  2
AIGNBL01010035
 10
0
 20
0
 30
0
  0
POLYLINE
  8
LAYER_1
 40
0.1058
 41
0.1058
 66
1
 10
0
 20
0
 30
0
  0
VERTEX
  8
LAYER_1
 10
190.0866
 20
187.7155
  0
VERTEX
  8
LAYER_1
 10
190.0866
 20
187.7148
  0
SEQEND
  0
POLYLINE
  8
LAYER_1
 40
0.1058
 41
0.1058
 66
1
 10
0
 20
0
 30
0
  0
VERTEX
  8
LAYER_1
 10
185.8347
 20
190.8846
  0
VERTEX
  8
LAYER_1
 10
175.7267
 20
191.8904
  0
SEQEND
  0
POLYLINE
  8
LAYER_1
 40
0.1058
 41
0.1058
 66
1
 10
0
 20
0
 30
0
  0
VERTEX
  8
LAYER_1
 10
189.1674
 20
194.0188
  0
VERTEX
  8
LAYER_1
 10
187.0546
 20
192.0139
  0
SEQEND
  0
POLYLINE
  8
LAYER_1
 40
0.1058
 41
0.1058
 66
1
 10
0
 20
0
 30
0
  0
VERTEX
  8
LAYER_1
 10
187.0497
 20
191.6799
  0
VERTEX
  8
LAYER_1
 10
189.4685
 20
193.9866
  0
SEQEND
  0
POLYLINE
  8
LAYER_1
 40
0.1058
 41
0.1058
 66
1
 10
0
 20
0
 30
0
  0
VERTEX
  8
LAYER_1
 10
187.0546
 20
192.0151
  0
VERTEX
  8
LAYER_1
 10
189.1674
 20
194.0224
  0
SEQEND
  0
POLYLINE
  8
LAYER_1
 40
0.1058
 41
0.1058
 66
1
 10
0
 20
0
 30
0
  0
VERTEX
  8
LAYER_1
 10
189.4685
 20
193.9899
  0
VERTEX
  8
LAYER_1
 10
187.0497
 20
191.6808
  0
SEQEND
  0
POLYLINE
  8
LAYER_1
 40
0.1058
 41
0.1058
 66
1
 10
0
 20
0
 30
0
  0
VERTEX
  8
LAYER_1
 10
187.0335
 20
190.5095
  0
VERTEX
  8
LAYER_1
 10
189.5037
 20
192.9099
  0
SEQEND
  0
POLYLINE
  8
LAYER_1
 40
0.1058
 41
0.1058
 66
1
 10
0
 20
0
 30
0
  0
VERTEX
  8
LAYER_1
 10
175.5042
 20
190.6686
  0
VERTEX
  8
LAYER_1
 10
185.8188
 20
189.6217
  0
SEQEND
  0
INSERT
  8
LAYER_1
  2
AIGNBL01010036
 10
0
 20
0
 30
0
  0
POLYLINE
  8
LAYER_1
 40
0.1058
 41
0.1058
 66
1
 10
0
 20
0
 30
0
  0
VERTEX
  8
LAYER_1
 10
176.3076
 20
212.3732
  0
VERTEX
  8
LAYER_1
 10
176.3823
 20
214.4052
  0
SEQEND
  0
POLYLINE
  8
LAYER_1
 40
0.1058
 41
0.1058
 66
1
 10
0
 20
0
 30
0
  0
VERTEX
  8
LAYER_1
 10
175.1094
 20
180.0261
  0
VERTEX
  8
LAYER_1
 10
176.2849
 20
211.7412
  0
SEQEND
  0
POLYLINE
  8
LAYER_1
 40
0.1058
 41
0.1058
 66
1
 10
0
 20
0
 30
0
  0
VERTEX
  8
LAYER_1
 10
176.4895
 20
212.2913
  0
VERTEX
  8
LAYER_1
 10
176.5746
 20
214.5557
  0
SEQEND
  0
POLYLINE
  8
LAYER_1
 40
0.1058
 41
0.1058
 66
1
 10
0
 20
0
 30
0
  0
VERTEX
  8
LAYER_1
 10
188.477
 20
210.4505
  0
VERTEX
  8
LAYER_1
 10
188.2869
 20
215.7839
  0
SEQEND
  0
POLYLINE
  8
LAYER_1
 40
0.1058
 41
0.1058
 66
1
 10
0
 20
0
 30
0
  0
VERTEX
  8
LAYER_1
 10
189.0661
 20
193.9256
  0
VERTEX
  8
LAYER_1
 10
188.5115
 20
209.4739
  0
SEQEND
  0
POLYLINE
  8
LAYER_1
 40
0.1058
 41
0.1058
 66
1
 10
0
 20
0
 30
0
  0
VERTEX
  8
LAYER_1
 10
189.2453
 20
188.9096
  0
VERTEX
  8
LAYER_1
 10
189.1158
 20
192.5333
  0
SEQEND
  0
POLYLINE
  8
LAYER_1
 40
0.1058
 41
0.1058
 66
1
 10
0
 20
0
 30
0
  0
VERTEX
  8
LAYER_1
 10
189.3045
 20
187.2781
  0
VERTEX
  8
LAYER_1
 10
189.2984
 20
187.4104
  0
SEQEND
  0
POLYLINE
  8
LAYER_1
 40
0.1058
 41
0.1058
 66
1
 10
0
 20
0
 30
0
  0
VERTEX
  8
LAYER_1
 10
189.7634
 20
188.5864
  0
VERTEX
  8
LAYER_1
 10
189.042
 20
209.4487
  0
SEQEND
  0
POLYLINE
  8
LAYER_1
 40
0.1058
 41
0.1058
 66
1
 10
0
 20
0
 30
0
  0
VERTEX
  8
LAYER_1
 10
189.0079
 20
210.4202
  0
VERTEX
  8
LAYER_1
 10
188.8236
 20
215.7419
  0
SEQEND
  0
POLYLINE
  8
LAYER_1
 40
0.1058
 41
0.1058
 66
1
 10
0
 20
0
 30
0
  0
VERTEX
  8
LAYER_1
 10
190.4435
 20
183.2972
  0
VERTEX
  8
LAYER_1
 10
190.4077
 20
184.3591
  0
SEQEND
  0
POLYLINE
  8
LAYER_1
 40
0.1058
 41
0.1058
 66
1
 10
0
 20
0
 30
0
  0
VERTEX
  8
LAYER_1
 10
189.9619
 20
182.8591
  0
VERTEX
  8
LAYER_1
 10
189.8451
 20
186.2419
  0
SEQEND
  0
POLYLINE
  8
LAYER_1
 40
0.1058
 41
0.1058
 66
1
 10
0
 20
0
 30
0
  0
VERTEX
  8
LAYER_1
 10
193.2471
 20
215.6673
  0
VERTEX
  8
LAYER_1
 10
193.2471
 20
215.2161
  0
VERTEX
  8
LAYER_1
 10
192.8899
 20
215.2256
  0
VERTEX
  8
LAYER_1
 10
192.8881
 20
215.6768
  0
VERTEX
  8
LAYER_1
 10
193.2471
 20
215.6673
  0
VERTEX
  8
LAYER_1
 10
194.209
 20
215.7525
  0
VERTEX
  8
LAYER_1
 10
194.209
 20
215.303
  0
VERTEX
  8
LAYER_1
 10
193.2471
 20
215.2161
  0
SEQEND
  0
INSERT
  8
LAYER_1
  2
AIGNBL01010037
 10
0
 20
0
 30
0
  0
POLYLINE
  8
LAYER_1
 40
0.1058
 41
0.1058
 66
1
 10
0
 20
0
 30
0
 70
1
  0
VERTEX
  8
LAYER_1
 10
175.8356
 20
213.8975
  0
VERTEX
  8
LAYER_1
 10
176.0313
 20
213.9649
  0
VERTEX
  8
LAYER_1
 10
176.0454
 20
213.4955
  0
VERTEX
  8
LAYER_1
 10
175.8497
 20
213.4278
  0
SEQEND
  0
POLYLINE
  8
LAYER_1
 40
0.1058
 41
0.1058
 66
1
 10
0
 20
0
 30
0
  0
VERTEX
  8
LAYER_1
 10
199.8552
 20
213.1832
  0
VERTEX
  8
LAYER_1
 10
199.851
 20
212.7059
 42
-0.1044033568
  0
VERTEX
  8
LAYER_1
 10
200.0939
 20
212.2954
  0
SEQEND
  0
POLYLINE
  8
LAYER_1
 40
0.1058
 41
0.1058
 66
1
 10
0
 20
0
 30
0
  0
VERTEX
  8
LAYER_1
 10
174.1144
 20
214.0741
  0
VERTEX
  8
LAYER_1
 10
174.1296
 20
213.6152
  0
VERTEX
  8
LAYER_1
 10
174.1303
 20
213.6081
  0
VERTEX
  8
LAYER_1
 10
174.1303
 20
213.6064
  0
VERTEX
  8
LAYER_1
 10
174.1313
 20
213.5883
  0
VERTEX
  8
LAYER_1
 10
174.1313
 20
213.5859
  0
VERTEX
  8
LAYER_1
 10
174.132
 20
213.5692
  0
VERTEX
  8
LAYER_1
 10
174.133
 20
213.5651
  0
VERTEX
  8
LAYER_1
 10
174.1344
 20
213.5498
  0
VERTEX
  8
LAYER_1
 10
174.1358
 20
213.5449
  0
VERTEX
  8
LAYER_1
 10
174.1372
 20
213.5294
  0
VERTEX
  8
LAYER_1
 10
174.1382
 20
213.5246
  0
VERTEX
  8
LAYER_1
 10
174.1406
 20
213.5101
  0
VERTEX
  8
LAYER_1
 10
174.1413
 20
213.5036
  0
VERTEX
  8
LAYER_1
 10
174.1437
 20
213.4896
  0
VERTEX
  8
LAYER_1
 10
174.1454
 20
213.4829
  0
VERTEX
  8
LAYER_1
 10
174.1479
 20
213.4703
  0
VERTEX
  8
LAYER_1
 10
174.1489
 20
213.4629
  0
VERTEX
  8
LAYER_1
 10
174.1516
 20
213.4504
  0
VERTEX
  8
LAYER_1
 10
174.154
 20
213.4412
  0
VERTEX
  8
LAYER_1
 10
174.1568
 20
213.4306
  0
VERTEX
  8
LAYER_1
 10
174.1599
 20
213.4214
 42
0.1173417025
  0
VERTEX
  8
LAYER_1
 10
174.4527
 20
212.9119
  0
VERTEX
  8
LAYER_1
 10
174.4676
 20
212.8943
  0
VERTEX
  8
LAYER_1
 10
174.472
 20
212.8897
  0
VERTEX
  8
LAYER_1
 10
174.4865
 20
212.8729
  0
VERTEX
  8
LAYER_1
 10
174.4917
 20
212.8682
  0
VERTEX
  8
LAYER_1
 10
174.5058
 20
212.8514
  0
VERTEX
  8
LAYER_1
 10
174.5113
 20
212.8468
 42
0.04034631195
  0
VERTEX
  8
LAYER_1
 10
174.8999
 20
212.5069
  0
VERTEX
  8
LAYER_1
 10
174.9071
 20
212.5019
  0
VERTEX
  8
LAYER_1
 10
175.0846
 20
212.3775
  0
VERTEX
  8
LAYER_1
 10
175.0932
 20
212.3714
 42
0.03694927705
  0
VERTEX
  8
LAYER_1
 10
176.0509
 20
211.8456
  0
VERTEX
  8
LAYER_1
 10
176.2776
 20
211.7435
  0
VERTEX
  8
LAYER_1
 10
176.2849
 20
211.7406
  0
VERTEX
  8
LAYER_1
 10
176.4654
 20
211.6629
  0
VERTEX
  8
LAYER_1
 10
176.4771
 20
211.6589
 42
0.03120233424
  0
VERTEX
  8
LAYER_1
 10
178.6819
 20
210.9184
  0
VERTEX
  8
LAYER_1
 10
178.8177
 20
210.8815
 42
0.01504451151
  0
VERTEX
  8
LAYER_1
 10
180.7731
 20
210.4202
  0
VERTEX
  8
LAYER_1
 10
180.8076
 20
210.413
  0
VERTEX
  8
LAYER_1
 10
180.8489
 20
210.4047
  0
VERTEX
  8
LAYER_1
 10
181.9341
 20
210.2006
  0
VERTEX
  8
LAYER_1
 10
182.9601
 20
210.032
  0
VERTEX
  8
LAYER_1
 10
184.8122
 20
209.7827
  0
VERTEX
  8
LAYER_1
 10
185.5225
 20
209.7055
  0
VERTEX
  8
LAYER_1
 10
185.6855
 20
209.6883
  0
VERTEX
  8
LAYER_1
 10
185.6961
 20
209.6869
  0
VERTEX
  8
LAYER_1
 10
186.0444
 20
209.653
  0
VERTEX
  8
LAYER_1
 10
186.0779
 20
209.6507
  0
VERTEX
  8
LAYER_1
 10
186.6966
 20
209.5962
  0
VERTEX
  8
LAYER_1
 10
186.7497
 20
209.5917
  0
VERTEX
  8
LAYER_1
 10
187.285
 20
209.5504
  0
VERTEX
  8
LAYER_1
 10
187.3112
 20
209.5486
  0
VERTEX
  8
LAYER_1
 10
188.7295
 20
209.4637
  0
VERTEX
  8
LAYER_1
 10
188.7764
 20
209.4618
  0
VERTEX
  8
LAYER_1
 10
188.9111
 20
209.4546
  0
VERTEX
  8
LAYER_1
 10
189.0407
 20
209.4487
  0
VERTEX
  8
LAYER_1
 10
189.4544
 20
209.4323
  0
VERTEX
  8
LAYER_1
 10
189.5677
 20
209.4292
  0
VERTEX
  8
LAYER_1
 10
189.8172
 20
209.4215
  0
VERTEX
  8
LAYER_1
 10
190.6716
 20
209.4031
  0
VERTEX
  8
LAYER_1
 10
191.2961
 20
209.3976
  0
VERTEX
  8
LAYER_1
 10
191.3437
 20
209.3976
  0
VERTEX
  8
LAYER_1
 10
191.3854
 20
209.3976
 42
0.01138890288
  0
VERTEX
  8
LAYER_1
 10
193.6702
 20
209.4463
 42
0.01823548179
  0
VERTEX
  8
LAYER_1
 10
196.4366
 20
209.6652
 42
0.02484327756
  0
VERTEX
  8
LAYER_1
 10
198.7531
 20
210.0454
  0
VERTEX
  8
LAYER_1
 10
198.7544
 20
210.0459
 42
0.02722338924
  0
VERTEX
  8
LAYER_1
 10
200.036
 20
210.3927
  0
VERTEX
  8
LAYER_1
 10
200.0477
 20
210.3966
  0
VERTEX
  8
LAYER_1
 10
200.1504
 20
210.4316
  0
VERTEX
  8
LAYER_1
 10
200.1848
 20
210.4437
  0
VERTEX
  8
LAYER_1
 10
200.1955
 20
210.4469
 42
0.08335533659
  0
VERTEX
  8
LAYER_1
 10
201.566
 20
211.1394
  0
VERTEX
  8
LAYER_1
 10
201.5711
 20
211.1435
  0
VERTEX
  8
LAYER_1
 10
201.6966
 20
211.251
  0
VERTEX
  8
LAYER_1
 10
201.7007
 20
211.2543
 42
0.08428703942
  0
VERTEX
  8
LAYER_1
 10
201.9729
 20
211.5936
 42
0.1296545252
  0
VERTEX
  8
LAYER_1
 10
202.0851
 20
211.9969
  0
VERTEX
  8
LAYER_1
 10
202.0921
 20
212.4813
  0
SEQEND
  0
POLYLINE
  8
LAYER_1
 40
0.1058
 41
0.1058
 66
1
 10
0
 20
0
 30
0
 70
1
  0
VERTEX
  8
LAYER_1
 10
184.4552
 20
210.332
 42
-0.01024176778
  0
VERTEX
  8
LAYER_1
 10
182.3847
 20
210.6254
  0
VERTEX
  8
LAYER_1
 10
181.7267
 20
210.738
  0
VERTEX
  8
LAYER_1
 10
181.6981
 20
210.743
 42
-0.01885668979
  0
VERTEX
  8
LAYER_1
 10
179.0557
 20
211.3122
  0
VERTEX
  8
LAYER_1
 10
179.0168
 20
211.3221
  0
VERTEX
  8
LAYER_1
 10
178.9858
 20
211.3295
  0
VERTEX
  8
LAYER_1
 10
178.9465
 20
211.3402
  0
VERTEX
  8
LAYER_1
 10
178.9169
 20
211.3478
  0
VERTEX
  8
LAYER_1
 10
178.5317
 20
211.4522
  0
VERTEX
  8
LAYER_1
 10
178.5128
 20
211.4572
  0
VERTEX
  8
LAYER_1
 10
178.4642
 20
211.4713
  0
VERTEX
  8
LAYER_1
 10
178.447
 20
211.4767
  0
VERTEX
  8
LAYER_1
 10
178.396
 20
211.4906
  0
VERTEX
  8
LAYER_1
 10
178.3815
 20
211.4942
  0
VERTEX
  8
LAYER_1
 10
178.3295
 20
211.5096
  0
VERTEX
  8
LAYER_1
 10
178.3161
 20
211.5129
  0
VERTEX
  8
LAYER_1
 10
178.2637
 20
211.528
  0
VERTEX
  8
LAYER_1
 10
178.252
 20
211.5313
  0
VERTEX
  8
LAYER_1
 10
178.1972
 20
211.5476
  0
VERTEX
  8
LAYER_1
 10
178.1879
 20
211.5504
  0
VERTEX
  8
LAYER_1
 10
178.1317
 20
211.5675
  0
VERTEX
  8
LAYER_1
 10
178.1249
 20
211.5695
  0
VERTEX
  8
LAYER_1
 10
178.0667
 20
211.5865
  0
VERTEX
  8
LAYER_1
 10
178.0618
 20
211.5885
  0
VERTEX
  8
LAYER_1
 10
178.0015
 20
211.6064
  0
VERTEX
  8
LAYER_1
 10
177.9981
 20
211.6072
  0
VERTEX
  8
LAYER_1
 10
177.9368
 20
211.625
  0
VERTEX
  8
LAYER_1
 10
177.9364
 20
211.6258
  0
VERTEX
  8
LAYER_1
 10
177.8751
 20
211.6453
  0
VERTEX
  8
LAYER_1
 10
177.8737
 20
211.6453
  0
VERTEX
  8
LAYER_1
 10
177.8138
 20
211.6644
  0
VERTEX
  8
LAYER_1
 10
177.8096
 20
211.6658
  0
VERTEX
  8
LAYER_1
 10
177.7528
 20
211.6827
  0
VERTEX
  8
LAYER_1
 10
177.7469
 20
211.6854
  0
VERTEX
  8
LAYER_1
 10
177.6925
 20
211.7022
  0
VERTEX
  8
LAYER_1
 10
177.6842
 20
211.7049
  0
VERTEX
  8
LAYER_1
 10
177.6332
 20
211.7218
  0
VERTEX
  8
LAYER_1
 10
177.6222
 20
211.7249
  0
VERTEX
  8
LAYER_1
 10
176.8023
 20
212.0124
  0
VERTEX
  8
LAYER_1
 10
176.7978
 20
212.0141
  0
VERTEX
  8
LAYER_1
 10
176.7479
 20
212.0331
  0
VERTEX
  8
LAYER_1
 10
176.7465
 20
212.0343
  0
VERTEX
  8
LAYER_1
 10
176.6948
 20
212.0544
  0
VERTEX
  8
LAYER_1
 10
176.6931
 20
212.0544
  0
VERTEX
  8
LAYER_1
 10
176.6445
 20
212.073
  0
VERTEX
  8
LAYER_1
 10
176.6383
 20
212.0756
  0
VERTEX
  8
LAYER_1
 10
176.484
 20
212.1385
  0
VERTEX
  8
LAYER_1
 10
176.4805
 20
212.1393
  0
VERTEX
  8
LAYER_1
 10
176.3327
 20
212.2003
  0
VERTEX
  8
LAYER_1
 10
176.3279
 20
212.2031
  0
VERTEX
  8
LAYER_1
 10
176.3017
 20
212.2149
  0
VERTEX
  8
LAYER_1
 10
176.2783
 20
212.2243
  0
VERTEX
  8
LAYER_1
 10
176.0358
 20
212.3326
  0
VERTEX
  8
LAYER_1
 10
175.9924
 20
212.3524
  0
VERTEX
  8
LAYER_1
 10
175.9886
 20
212.3538
  0
VERTEX
  8
LAYER_1
 10
175.4722
 20
212.6155
  0
VERTEX
  8
LAYER_1
 10
175.4711
 20
212.616
  0
VERTEX
  8
LAYER_1
 10
175.4336
 20
212.6366
  0
VERTEX
  8
LAYER_1
 10
175.4332
 20
212.6366
  0
VERTEX
  8
LAYER_1
 10
175.3963
 20
212.6575
  0
VERTEX
  8
LAYER_1
 10
175.3939
 20
212.6581
  0
VERTEX
  8
LAYER_1
 10
175.1049
 20
212.8337
  0
VERTEX
  8
LAYER_1
 10
175.1001
 20
212.8375
  0
VERTEX
  8
LAYER_1
 10
174.9165
 20
212.9636
  0
VERTEX
  8
LAYER_1
 10
174.913
 20
212.9663
  0
VERTEX
  8
LAYER_1
 10
174.8537
 20
213.0092
  0
VERTEX
  8
LAYER_1
 10
174.8503
 20
213.0115
  0
VERTEX
  8
LAYER_1
 10
174.8248
 20
213.0313
  0
VERTEX
  8
LAYER_1
 10
174.8231
 20
213.0327
  0
VERTEX
  8
LAYER_1
 10
174.7966
 20
213.053
  0
VERTEX
  8
LAYER_1
 10
174.7962
 20
213.0538
  0
VERTEX
  8
LAYER_1
 10
174.77
 20
213.0741
  0
VERTEX
  8
LAYER_1
 10
174.7697
 20
213.0748
  0
VERTEX
  8
LAYER_1
 10
174.7435
 20
213.0953
  0
VERTEX
  8
LAYER_1
 10
174.7428
 20
213.0969
  0
VERTEX
  8
LAYER_1
 10
174.7187
 20
213.1169
  0
VERTEX
  8
LAYER_1
 10
174.7156
 20
213.1191
  0
VERTEX
  8
LAYER_1
 10
174.6932
 20
213.1384
  0
VERTEX
  8
LAYER_1
 10
174.6901
 20
213.1406
  0
VERTEX
  8
LAYER_1
 10
174.5926
 20
213.2275
  0
VERTEX
  8
LAYER_1
 10
174.5778
 20
213.2414
  0
VERTEX
  8
LAYER_1
 10
174.3397
 20
213.506
  0
VERTEX
  8
LAYER_1
 10
174.3322
 20
213.517
  0
VERTEX
  8
LAYER_1
 10
174.3243
 20
213.5272
  0
VERTEX
  8
LAYER_1
 10
174.317
 20
213.5386
  0
VERTEX
  8
LAYER_1
 10
174.3094
 20
213.5486
  0
VERTEX
  8
LAYER_1
 10
174.3025
 20
213.5589
  0
VERTEX
  8
LAYER_1
 10
174.295
 20
213.5697
  0
VERTEX
  8
LAYER_1
 10
174.2881
 20
213.5797
  0
VERTEX
  8
LAYER_1
 10
174.2815
 20
213.5911
  0
VERTEX
  8
LAYER_1
 10
174.2757
 20
213.6013
  0
VERTEX
  8
LAYER_1
 10
174.2684
 20
213.6118
  0
VERTEX
  8
LAYER_1
 10
174.2619
 20
213.6212
  0
VERTEX
  8
LAYER_1
 10
174.256
 20
213.6331
  0
VERTEX
  8
LAYER_1
 10
174.2505
 20
213.6426
  0
VERTEX
  8
LAYER_1
 10
174.2433
 20
213.6538
  0
VERTEX
  8
LAYER_1
 10
174.2378
 20
213.6641
  0
VERTEX
  8
LAYER_1
 10
174.2319
 20
213.6746
  0
VERTEX
  8
LAYER_1
 10
174.1561
 20
213.8491
  0
VERTEX
  8
LAYER_1
 10
174.153
 20
213.8605
  0
VERTEX
  8
LAYER_1
 10
174.1499
 20
213.8705
  0
VERTEX
  8
LAYER_1
 10
174.1472
 20
213.8801
  0
VERTEX
  8
LAYER_1
 10
174.1437
 20
213.8912
  0
VERTEX
  8
LAYER_1
 10
174.1413
 20
213.9006
  0
VERTEX
  8
LAYER_1
 10
174.1382
 20
213.912
  0
VERTEX
  8
LAYER_1
 10
174.1358
 20
213.9205
  0
VERTEX
  8
LAYER_1
 10
174.1344
 20
213.9318
  0
VERTEX
  8
LAYER_1
 10
174.1313
 20
213.9408
  0
VERTEX
  8
LAYER_1
 10
174.1296
 20
213.9521
  0
VERTEX
  8
LAYER_1
 10
174.1282
 20
213.9611
  0
VERTEX
  8
LAYER_1
 10
174.1255
 20
213.9725
  0
VERTEX
  8
LAYER_1
 10
174.1241
 20
213.9811
  0
VERTEX
  8
LAYER_1
 10
174.122
 20
213.9931
  0
VERTEX
  8
LAYER_1
 10
174.1206
 20
214.0016
  0
VERTEX
  8
LAYER_1
 10
174.1193
 20
214.0136
  0
VERTEX
  8
LAYER_1
 10
174.1189
 20
214.0209
  0
VERTEX
  8
LAYER_1
 10
174.1169
 20
214.0339
  0
VERTEX
  8
LAYER_1
 10
174.1169
 20
214.0403
  0
VERTEX
  8
LAYER_1
 10
174.1158
 20
214.0545
  0
VERTEX
  8
LAYER_1
 10
174.1151
 20
214.0602
  0
VERTEX
  8
LAYER_1
 10
174.1144
 20
214.0741
  0
VERTEX
  8
LAYER_1
 10
174.1144
 20
214.0806
  0
VERTEX
  8
LAYER_1
 10
174.1134
 20
214.0946
  0
VERTEX
  8
LAYER_1
 10
174.1134
 20
214.0991
  0
VERTEX
  8
LAYER_1
 10
174.1134
 20
214.1146
  0
VERTEX
  8
LAYER_1
 10
174.1358
 20
214.2918
  0
VERTEX
  8
LAYER_1
 10
174.1358
 20
214.2922
  0
VERTEX
  8
LAYER_1
 10
174.1406
 20
214.3103
  0
VERTEX
  8
LAYER_1
 10
174.1406
 20
214.3121
  0
VERTEX
  8
LAYER_1
 10
174.1454
 20
214.3294
  0
VERTEX
  8
LAYER_1
 10
174.1461
 20
214.332
  0
VERTEX
  8
LAYER_1
 10
174.1513
 20
214.3482
  0
VERTEX
  8
LAYER_1
 10
174.1516
 20
214.3504
  0
VERTEX
  8
LAYER_1
 10
174.1568
 20
214.3671
  0
VERTEX
  8
LAYER_1
 10
174.1592
 20
214.3699
 42
-0.1264435746
  0
VERTEX
  8
LAYER_1
 10
174.5186
 20
214.8722
 42
-0.07610262771
  0
VERTEX
  8
LAYER_1
 10
175.4019
 20
215.4152
 42
-0.03430455121
  0
VERTEX
  8
LAYER_1
 10
176.5229
 20
215.8175
  0
VERTEX
  8
LAYER_1
 10
176.545
 20
215.8239
  0
VERTEX
  8
LAYER_1
 10
176.5694
 20
215.8304
  0
VERTEX
  8
LAYER_1
 10
176.5914
 20
215.8373
  0
VERTEX
  8
LAYER_1
 10
176.6156
 20
215.844
 42
-0.02983192683
  0
VERTEX
  8
LAYER_1
 10
178.6978
 20
216.2822
  0
VERTEX
  8
LAYER_1
 10
180.1633
 20
216.4702
  0
VERTEX
  8
LAYER_1
 10
180.441
 20
216.4986
 42
-0.02567148865
  0
VERTEX
  8
LAYER_1
 10
185.1305
 20
216.69
  0
VERTEX
  8
LAYER_1
 10
185.2452
 20
216.69
  0
VERTEX
  8
LAYER_1
 10
185.2869
 20
216.6893
  0
VERTEX
  8
LAYER_1
 10
185.5597
 20
216.6855
  0
VERTEX
  8
LAYER_1
 10
185.5866
 20
216.6855
 42
-0.04101787852
  0
VERTEX
  8
LAYER_1
 10
194.5735
 20
215.8463
 42
-0.03750138208
  0
VERTEX
  8
LAYER_1
 10
198.9384
 20
214.7572
 42
-0.05364659685
  0
VERTEX
  8
LAYER_1
 10
200.9752
 20
213.8464
 42
-0.07617744614
  0
VERTEX
  8
LAYER_1
 10
201.7874
 20
213.2029
 42
-0.129752849
  0
VERTEX
  8
LAYER_1
 10
202.0784
 20
212.6634
 42
-0.1586234852
  0
VERTEX
  8
LAYER_1
 10
202.0197
 20
212.1621
 42
-0.123847508
  0
VERTEX
  8
LAYER_1
 10
201.6264
 20
211.6638
 42
-0.06098751215
  0
VERTEX
  8
LAYER_1
 10
201.2187
 20
211.3976
  0
VERTEX
  8
LAYER_1
 10
201.2025
 20
211.3888
 42
-0.04665935311
  0
VERTEX
  8
LAYER_1
 10
200.1583
 20
210.9337
  0
VERTEX
  8
LAYER_1
 10
200.1566
 20
210.9328
  0
VERTEX
  8
LAYER_1
 10
200.1118
 20
210.9175
  0
VERTEX
  8
LAYER_1
 10
200.0405
 20
210.8936
  0
VERTEX
  8
LAYER_1
 10
200.0181
 20
210.8867
 42
-0.02240076438
  0
VERTEX
  8
LAYER_1
 10
198.8306
 20
210.5675
  0
VERTEX
  8
LAYER_1
 10
198.8289
 20
210.5672
  0
VERTEX
  8
LAYER_1
 10
198.77
 20
210.5537
  0
VERTEX
  8
LAYER_1
 10
198.7682
 20
210.5537
 42
-0.02502447741
  0
VERTEX
  8
LAYER_1
 10
196.438
 20
210.1744
  0
VERTEX
  8
LAYER_1
 10
195.9005
 20
210.1159
  0
VERTEX
  8
LAYER_1
 10
195.8799
 20
210.1141
 42
-0.01342085969
  0
VERTEX
  8
LAYER_1
 10
193.6557
 20
209.9572
  0
VERTEX
  8
LAYER_1
 10
193.6533
 20
209.9572
  0
VERTEX
  8
LAYER_1
 10
193.5675
 20
209.9536
  0
VERTEX
  8
LAYER_1
 10
193.5665
 20
209.9536
 42
-0.009925616753
  0
VERTEX
  8
LAYER_1
 10
191.4722
 20
209.9095
  0
VERTEX
  8
LAYER_1
 10
191.426
 20
209.9095
  0
VERTEX
  8
LAYER_1
 10
191.3799
 20
209.9095
  0
VERTEX
  8
LAYER_1
 10
189.5719
 20
209.941
  0
VERTEX
  8
LAYER_1
 10
189.5498
 20
209.942
  0
VERTEX
  8
LAYER_1
 10
189.3514
 20
209.9486
 42
-0.01038013959
  0
VERTEX
  8
LAYER_1
 10
186.7786
 20
210.0978
  0
VERTEX
  8
LAYER_1
 10
185.691
 20
210.1965
  0
VERTEX
  8
LAYER_1
 10
185.6786
 20
210.1978
  0
VERTEX
  8
LAYER_1
 10
185.5687
 20
210.2087
  0
VERTEX
  8
LAYER_1
 10
185.5129
 20
210.214
  0
SEQEND
  0
TEXT
  8
LAYER_1
 10
210.2724
 20
182.1831
 11
210.2724
 21
182.1831
 40
2.9689
 41
0.5
  1
脚部はボルト固定です。
  0
ENDSEC
  0
EOF
