  0
SECTION
  2
HEADER
  9
$ACADVER
  1
AC1009
  9
$LUNITS
 70
2
  9
$LUPREC
 70
4
  9
$LTSCALE
 40
1.0
  9
$EXTMIN
 10
-30.3177
 20
33.3285
 30
0
  9
$EXTMAX
 10
251.6749
 20
230.337
 30
0
  0
ENDSEC
  0
SECTION
  2
TABLES
  0
TABLE
  2
LTYPE
 70
256
  0
LTYPE
  2
AIGENLINE001
 70
64
  3
generate AI->DXF Converter
 72
65
 73
2
 40
0.3653
 49
0.1827
 49
-0.1827
  0
LTYPE
  2
AIGENLINE002
 70
64
  3
generate AI->DXF Converter
 72
65
 73
2
 40
0.0176
 49
0.0088
 49
-0.0088
  0
LTYPE
  2
AIGENLINE003
 70
64
  3
generate AI->DXF Converter
 72
65
 73
2
 40
0.4965
 49
0.2482
 49
-0.2482
  0
LTYPE
  2
AIGENLINE004
 70
64
  3
generate AI->DXF Converter
 72
65
 73
2
 40
0.3738
 49
0.1869
 49
-0.1869
  0
LTYPE
  2
AIGENLINE005
 70
64
  3
generate AI->DXF Converter
 72
65
 73
2
 40
0.3202
 49
0.1601
 49
-0.1601
  0
LTYPE
  2
AIGENLINE006
 70
64
  3
generate AI->DXF Converter
 72
65
 73
2
 40
0.8244
 49
0.4122
 49
-0.4122
  0
LTYPE
  2
AIGENLINE007
 70
64
  3
generate AI->DXF Converter
 72
65
 73
2
 40
0.5727
 49
0.2863
 49
-0.2863
  0
LTYPE
  2
AIGENLINE008
 70
64
  3
generate AI->DXF Converter
 72
65
 73
2
 40
0.0099
 49
0.0049
 49
-0.0049
  0
LTYPE
  2
AIGENLINE009
 70
64
  3
generate AI->DXF Converter
 72
65
 73
2
 40
0.4478
 49
0.2239
 49
-0.2239
  0
LTYPE
  2
AIGENLINE010
 70
64
  3
generate AI->DXF Converter
 72
65
 73
2
 40
0.0106
 49
0.0053
 49
-0.0053
  0
LTYPE
  2
AIGENLINE011
 70
64
  3
generate AI->DXF Converter
 72
65
 73
2
 40
1.0988
 49
0.5494
 49
-0.5494
  0
LTYPE
  2
AIGENLINE012
 70
64
  3
generate AI->DXF Converter
 72
65
 73
2
 40
0.6361
 49
0.3181
 49
-0.3181
  0
LTYPE
  2
AIGENLINE013
 70
64
  3
generate AI->DXF Converter
 72
65
 73
2
 40
1.2716
 49
0.6358
 49
-0.6358
  0
LTYPE
  2
AIGENLINE014
 70
64
  3
generate AI->DXF Converter
 72
65
 73
2
 40
0.9535
 49
0.4767
 49
-0.4767
  0
LTYPE
  2
AIGENLINE015
 70
64
  3
generate AI->DXF Converter
 72
65
 73
2
 40
0.2186
 49
0.1093
 49
-0.1093
  0
LTYPE
  2
AIGENLINE016
 70
64
  3
generate AI->DXF Converter
 72
65
 73
2
 40
0.2546
 49
0.1273
 49
-0.1273
  0
LTYPE
  2
AIGENLINE017
 70
64
  3
generate AI->DXF Converter
 72
65
 73
2
 40
1.1016
 49
0.5508
 49
-0.5508
  0
LTYPE
  2
AIGENLINE018
 70
64
  3
generate AI->DXF Converter
 72
65
 73
2
 40
0.9203
 49
0.4602
 49
-0.4602
  0
LTYPE
  2
AIGENLINE019
 70
64
  3
generate AI->DXF Converter
 72
65
 73
2
 40
1.0438
 49
0.5219
 49
-0.5219
  0
LTYPE
  2
AIGENLINE020
 70
64
  3
generate AI->DXF Converter
 72
65
 73
2
 40
0.7391
 49
0.3696
 49
-0.3696
  0
LTYPE
  2
AIGENLINE021
 70
64
  3
generate AI->DXF Converter
 72
65
 73
2
 40
0.3837
 49
0.1918
 49
-0.1918
  0
LTYPE
  2
AIGENLINE022
 70
64
  3
generate AI->DXF Converter
 72
65
 73
2
 40
1.0847
 49
0.5423
 49
-0.5423
  0
LTYPE
  2
AIGENLINE023
 70
64
  3
generate AI->DXF Converter
 72
65
 73
2
 40
1.0804
 49
0.5402
 49
-0.5402
  0
LTYPE
  2
AIGENLINE024
 70
64
  3
generate AI->DXF Converter
 72
65
 73
2
 40
1.268
 49
0.634
 49
-0.634
  0
LTYPE
  2
AIGENLINE025
 70
64
  3
generate AI->DXF Converter
 72
65
 73
2
 40
1.1136
 49
0.5568
 49
-0.5568
  0
LTYPE
  2
AIGENLINE026
 70
64
  3
generate AI->DXF Converter
 72
65
 73
2
 40
1.0551
 49
0.5275
 49
-0.5275
  0
LTYPE
  2
AIGENLINE027
 70
64
  3
generate AI->DXF Converter
 72
65
 73
2
 40
1.0727
 49
0.5364
 49
-0.5364
  0
LTYPE
  2
AIGENLINE028
 70
64
  3
generate AI->DXF Converter
 72
65
 73
2
 40
1.0022
 49
0.5011
 49
-0.5011
  0
LTYPE
  2
AIGENLINE029
 70
64
  3
generate AI->DXF Converter
 72
65
 73
2
 40
0.5571
 49
0.2786
 49
-0.2786
  0
LTYPE
  2
AIGENLINE030
 70
64
  3
generate AI->DXF Converter
 72
65
 73
2
 40
0.5593
 49
0.2796
 49
-0.2796
  0
LTYPE
  2
AIGENLINE031
 70
64
  3
generate AI->DXF Converter
 72
65
 73
2
 40
1.3866
 49
0.6933
 49
-0.6933
  0
LTYPE
  2
AIGENLINE032
 70
64
  3
generate AI->DXF Converter
 72
65
 73
2
 40
0.5875
 49
0.2937
 49
-0.2937
  0
LTYPE
  2
AIGENLINE033
 70
64
  3
generate AI->DXF Converter
 72
65
 73
2
 40
0.9775
 49
0.4887
 49
-0.4887
  0
LTYPE
  2
AIGENLINE034
 70
64
  3
generate AI->DXF Converter
 72
65
 73
2
 40
1.115
 49
0.5575
 49
-0.5575
  0
LTYPE
  2
AIGENLINE035
 70
64
  3
generate AI->DXF Converter
 72
65
 73
2
 40
1.1559
 49
0.578
 49
-0.578
  0
LTYPE
  2
AIGENLINE036
 70
64
  3
generate AI->DXF Converter
 72
65
 73
2
 40
1.2786
 49
0.6393
 49
-0.6393
  0
LTYPE
  2
AIGENLINE037
 70
64
  3
generate AI->DXF Converter
 72
65
 73
2
 40
1.2391
 49
0.6195
 49
-0.6195
  0
LTYPE
  2
AIGENLINE038
 70
64
  3
generate AI->DXF Converter
 72
65
 73
2
 40
0.9514
 49
0.4757
 49
-0.4757
  0
LTYPE
  2
AIGENLINE039
 70
64
  3
generate AI->DXF Converter
 72
65
 73
2
 40
1.1192
 49
0.5596
 49
-0.5596
  0
LTYPE
  2
AIGENLINE040
 70
64
  3
generate AI->DXF Converter
 72
65
 73
2
 40
1.1058
 49
0.5529
 49
-0.5529
  0
LTYPE
  2
AIGENLINE041
 70
64
  3
generate AI->DXF Converter
 72
65
 73
2
 40
1.1714
 49
0.5857
 49
-0.5857
  0
LTYPE
  2
AIGENLINE042
 70
64
  3
generate AI->DXF Converter
 72
65
 73
2
 40
1.17
 49
0.585
 49
-0.585
  0
LTYPE
  2
AIGENLINE043
 70
64
  3
generate AI->DXF Converter
 72
65
 73
2
 40
0.933
 49
0.4665
 49
-0.4665
  0
LTYPE
  2
AIGENLINE044
 70
64
  3
generate AI->DXF Converter
 72
65
 73
2
 40
1.2546
 49
0.6273
 49
-0.6273
  0
LTYPE
  2
AIGENLINE045
 70
64
  3
generate AI->DXF Converter
 72
65
 73
2
 40
0.5882
 49
0.2941
 49
-0.2941
  0
LTYPE
  2
AIGENLINE046
 70
64
  3
generate AI->DXF Converter
 72
65
 73
2
 40
1.012
 49
0.506
 49
-0.506
  0
LTYPE
  2
AIGENLINE047
 70
64
  3
generate AI->DXF Converter
 72
65
 73
2
 40
0.1009
 49
0.0504
 49
-0.0504
  0
LTYPE
  2
AIGENLINE048
 70
64
  3
generate AI->DXF Converter
 72
65
 73
2
 40
0.921
 49
0.4605
 49
-0.4605
  0
LTYPE
  2
AIGENLINE049
 70
64
  3
generate AI->DXF Converter
 72
65
 73
2
 40
0.4972
 49
0.2486
 49
-0.2486
  0
LTYPE
  2
AIGENLINE050
 70
64
  3
generate AI->DXF Converter
 72
65
 73
2
 40
0.5564
 49
0.2782
 49
-0.2782
  0
LTYPE
  2
AIGENLINE051
 70
64
  3
generate AI->DXF Converter
 72
65
 73
2
 40
0.9323
 49
0.4662
 49
-0.4662
  0
LTYPE
  2
AIGENLINE052
 70
64
  3
generate AI->DXF Converter
 72
65
 73
2
 40
0.9521
 49
0.476
 49
-0.476
  0
LTYPE
  2
AIGENLINE053
 70
64
  3
generate AI->DXF Converter
 72
65
 73
2
 40
1.1369
 49
0.5684
 49
-0.5684
  0
LTYPE
  2
AIGENLINE054
 70
64
  3
generate AI->DXF Converter
 72
65
 73
2
 40
1.151
 49
0.5755
 49
-0.5755
  0
LTYPE
  2
AIGENLINE055
 70
64
  3
generate AI->DXF Converter
 72
65
 73
2
 40
0.7455
 49
0.3727
 49
-0.3727
  0
LTYPE
  2
AIGENLINE056
 70
64
  3
generate AI->DXF Converter
 72
65
 73
2
 40
0.78
 49
0.39
 49
-0.39
  0
LTYPE
  2
AIGENLINE057
 70
64
  3
generate AI->DXF Converter
 72
65
 73
2
 40
0.7448
 49
0.3724
 49
-0.3724
  0
LTYPE
  2
AIGENLINE058
 70
64
  3
generate AI->DXF Converter
 72
65
 73
2
 40
0.7793
 49
0.3896
 49
-0.3896
  0
LTYPE
  2
AIGENLINE059
 70
64
  3
generate AI->DXF Converter
 72
65
 73
2
 40
1.0995
 49
0.5497
 49
-0.5497
  0
LTYPE
  2
AIGENLINE060
 70
64
  3
generate AI->DXF Converter
 72
65
 73
2
 40
0.7863
 49
0.3932
 49
-0.3932
  0
LTYPE
  2
AIGENLINE061
 70
64
  3
generate AI->DXF Converter
 72
65
 73
2
 40
1.0523
 49
0.5261
 49
-0.5261
  0
LTYPE
  2
AIGENLINE062
 70
64
  3
generate AI->DXF Converter
 72
65
 73
2
 40
1.1079
 49
0.554
 49
-0.554
  0
LTYPE
  2
AIGENLINE063
 70
64
  3
generate AI->DXF Converter
 72
65
 73
2
 40
1.0734
 49
0.5367
 49
-0.5367
  0
LTYPE
  2
AIGENLINE064
 70
64
  3
generate AI->DXF Converter
 72
65
 73
2
 40
0.5586
 49
0.2793
 49
-0.2793
  0
LTYPE
  2
AIGENLINE065
 70
64
  3
generate AI->DXF Converter
 72
65
 73
2
 40
0.2193
 49
0.1097
 49
-0.1097
  0
LTYPE
  2
AIGENLINE066
 70
64
  3
generate AI->DXF Converter
 72
65
 73
2
 40
1.175
 49
0.5875
 49
-0.5875
  0
LTYPE
  2
AIGENLINE067
 70
64
  3
generate AI->DXF Converter
 72
65
 73
2
 40
1.1587
 49
0.5794
 49
-0.5794
  0
LTYPE
  2
AIGENLINE068
 70
64
  3
generate AI->DXF Converter
 72
65
 73
2
 40
1.1743
 49
0.5871
 49
-0.5871
  0
LTYPE
  2
AIGENLINE069
 70
64
  3
generate AI->DXF Converter
 72
65
 73
2
 40
0.8153
 49
0.4076
 49
-0.4076
  0
LTYPE
  2
AIGENLINE070
 70
64
  3
generate AI->DXF Converter
 72
65
 73
2
 40
0.9217
 49
0.4609
 49
-0.4609
  0
LTYPE
  2
AIGENLINE071
 70
64
  3
generate AI->DXF Converter
 72
65
 73
2
 40
1.0487
 49
0.5244
 49
-0.5244
  0
ENDTAB
  0
TABLE
  2
LAYER
 70
2
  0
LAYER
  2
LAYER_1
 70
64
 62
7
  6
CONTINUOUS
  0
LAYER
  2
LAYER_2
 70
64
 62
7
  6
CONTINUOUS
  0
ENDTAB
  0
TABLE
  2
STYLE
 70
6
  0
STYLE
  2
STANDARD
 70
0
 40
0
 50
0
 71
0
 41
0
 42
0
  3
TXT
  4
BIGFONT
  0
ENDTAB
  0
ENDSEC
  0
SECTION
  2
BLOCKS
  0
BLOCK
  8
LAYER_2
  2
AIGNBL02040009
 70
64
 10
0
 20
0
 30
0
  3
AIGNBL02040009
  0
POLYLINE
  8
LAYER_2
 40
0.05
 41
0.05
 66
1
 10
0
 20
0
 30
0
 70
1
  0
VERTEX
  8
LAYER_2
 10
103.5588
 20
39.1418
  0
VERTEX
  8
LAYER_2
 10
103.0699
 20
37.9567
  0
VERTEX
  8
LAYER_2
 10
102.4419
 20
37.9567
  0
VERTEX
  8
LAYER_2
 10
104.0414
 20
41.7225
  0
VERTEX
  8
LAYER_2
 10
104.7746
 20
41.7225
  0
VERTEX
  8
LAYER_2
 10
106.381
 20
37.9567
  0
VERTEX
  8
LAYER_2
 10
105.7309
 20
37.9567
  0
VERTEX
  8
LAYER_2
 10
105.2283
 20
39.1418
  0
SEQEND
  0
POLYLINE
  8
LAYER_2
 40
0.05
 41
0.05
 66
1
 10
0
 20
0
 30
0
 70
1
  0
VERTEX
  8
LAYER_2
 10
105.1025
 20
39.5207
  0
VERTEX
  8
LAYER_2
 10
104.6416
 20
40.6056
  0
VERTEX
  8
LAYER_2
 10
104.397
 20
41.2926
  0
VERTEX
  8
LAYER_2
 10
104.3832
 20
41.2926
  0
VERTEX
  8
LAYER_2
 10
104.1455
 20
40.6101
  0
VERTEX
  8
LAYER_2
 10
103.6849
 20
39.5207
  0
SEQEND
  0
ENDBLK
  0
BLOCK
  8
LAYER_2
  2
AIGNBL0204000A
 70
64
 10
0
 20
0
 30
0
  3
AIGNBL0204000A
  0
POLYLINE
  8
LAYER_2
 40
0.05
 41
0.05
 66
1
 10
0
 20
0
 30
0
 70
1
  0
VERTEX
  8
LAYER_2
 10
110.7463
 20
37.4034
 42
-0.0155848755
  0
VERTEX
  8
LAYER_2
 10
108.9441
 20
37.8395
  0
VERTEX
  8
LAYER_2
 10
108.6575
 20
37.895
 42
-0.08356944747
  0
VERTEX
  8
LAYER_2
 10
107.7935
 20
38.0612
 42
-0.0975043791
  0
VERTEX
  8
LAYER_2
 10
107.1323
 20
38.4671
 42
-0.2129077902
  0
VERTEX
  8
LAYER_2
 10
106.5836
 20
39.7998
 42
-0.09684941519
  0
VERTEX
  8
LAYER_2
 10
106.7282
 20
40.5732
 42
-0.2046438079
  0
VERTEX
  8
LAYER_2
 10
107.7757
 20
41.5974
 42
-0.09824750395
  0
VERTEX
  8
LAYER_2
 10
108.7767
 20
41.7838
 42
-0.08554009695
  0
VERTEX
  8
LAYER_2
 10
109.6453
 20
41.6425
 42
-0.1004336034
  0
VERTEX
  8
LAYER_2
 10
110.3104
 20
41.2483
 42
-0.2141019095
  0
VERTEX
  8
LAYER_2
 10
110.8858
 20
39.8784
 42
-0.09539620281
  0
VERTEX
  8
LAYER_2
 10
110.7469
 20
39.1106
 42
-0.2143310008
  0
VERTEX
  8
LAYER_2
 10
109.7241
 20
38.1321
 42
-0.02339132607
  0
VERTEX
  8
LAYER_2
 10
109.545
 20
38.0738
  0
VERTEX
  8
LAYER_2
 10
109.545
 20
38.0514
 42
0.01711831943
  0
VERTEX
  8
LAYER_2
 10
110.9213
 20
37.8113
  0
SEQEND
  0
POLYLINE
  8
LAYER_2
 40
0.05
 41
0.05
 66
1
 10
0
 20
0
 30
0
 70
1
  0
VERTEX
  8
LAYER_2
 10
110.2436
 20
39.857
 42
0.1071543648
  0
VERTEX
  8
LAYER_2
 10
110.0923
 20
40.5618
 42
0.2976507644
  0
VERTEX
  8
LAYER_2
 10
108.7553
 20
41.3873
 42
0.1072363269
  0
VERTEX
  8
LAYER_2
 10
108.0655
 20
41.2478
 42
0.2386054241
  0
VERTEX
  8
LAYER_2
 10
107.2786
 20
40.2422
 42
0.05752774583
  0
VERTEX
  8
LAYER_2
 10
107.233
 20
39.8122
 42
0.218096749
  0
VERTEX
  8
LAYER_2
 10
107.7636
 20
38.6168
 42
0.1772796408
  0
VERTEX
  8
LAYER_2
 10
108.7274
 20
38.2912
 42
0.1075185771
  0
VERTEX
  8
LAYER_2
 10
109.4088
 20
38.4302
 42
0.2370926009
  0
VERTEX
  8
LAYER_2
 10
110.1959
 20
39.4298
 42
0.05601310134
  0
SEQEND
  0
ENDBLK
  0
BLOCK
  8
LAYER_2
  2
AIGNBL0204000B
 70
64
 10
0
 20
0
 30
0
  3
AIGNBL0204000B
  0
POLYLINE
  8
LAYER_2
 40
0.05
 41
0.05
 66
1
 10
0
 20
0
 30
0
 70
1
  0
VERTEX
  8
LAYER_2
 10
112.2132
 20
41.7225
  0
VERTEX
  8
LAYER_2
 10
112.2132
 20
39.4932
 42
0.114533087
  0
VERTEX
  8
LAYER_2
 10
112.3471
 20
38.8274
 42
0.1464774934
  0
VERTEX
  8
LAYER_2
 10
112.6975
 20
38.4422
 42
0.1362552487
  0
VERTEX
  8
LAYER_2
 10
113.3098
 20
38.2912
 42
0.1219300979
  0
VERTEX
  8
LAYER_2
 10
113.9329
 20
38.4259
 42
0.1503016186
  0
VERTEX
  8
LAYER_2
 10
114.3047
 20
38.7949
 42
0.1256239276
  0
VERTEX
  8
LAYER_2
 10
114.4553
 20
39.4932
  0
VERTEX
  8
LAYER_2
 10
114.4553
 20
41.7225
  0
VERTEX
  8
LAYER_2
 10
115.0699
 20
41.7225
  0
VERTEX
  8
LAYER_2
 10
115.0699
 20
39.5266
 42
-0.09997665689
  0
VERTEX
  8
LAYER_2
 10
114.935
 20
38.7839
 42
-0.1215019174
  0
VERTEX
  8
LAYER_2
 10
114.5617
 20
38.2772
 42
-0.1106228669
  0
VERTEX
  8
LAYER_2
 10
113.9362
 20
37.9706
 42
-0.06128517916
  0
VERTEX
  8
LAYER_2
 10
113.2887
 20
37.895
 42
-0.09418763513
  0
VERTEX
  8
LAYER_2
 10
112.4696
 20
38.0331
 42
-0.2431628294
  0
VERTEX
  8
LAYER_2
 10
111.6661
 20
38.9438
 42
-0.06320488118
  0
VERTEX
  8
LAYER_2
 10
111.5986
 20
39.5045
  0
VERTEX
  8
LAYER_2
 10
111.5986
 20
41.7225
  0
SEQEND
  0
ENDBLK
  0
BLOCK
  8
LAYER_2
  2
AIGNBL0204000C
 70
64
 10
0
 20
0
 30
0
  3
AIGNBL0204000C
  0
POLYLINE
  8
LAYER_2
 40
0.05
 41
0.05
 66
1
 10
0
 20
0
 30
0
 70
1
  0
VERTEX
  8
LAYER_2
 10
116.8162
 20
39.1418
  0
VERTEX
  8
LAYER_2
 10
116.327
 20
37.9567
  0
VERTEX
  8
LAYER_2
 10
115.699
 20
37.9567
  0
VERTEX
  8
LAYER_2
 10
117.2982
 20
41.7225
  0
VERTEX
  8
LAYER_2
 10
118.0313
 20
41.7225
  0
VERTEX
  8
LAYER_2
 10
119.6377
 20
37.9567
  0
VERTEX
  8
LAYER_2
 10
118.9883
 20
37.9567
  0
VERTEX
  8
LAYER_2
 10
118.4857
 20
39.1418
  0
SEQEND
  0
POLYLINE
  8
LAYER_2
 40
0.05
 41
0.05
 66
1
 10
0
 20
0
 30
0
 70
1
  0
VERTEX
  8
LAYER_2
 10
118.3596
 20
39.5207
  0
VERTEX
  8
LAYER_2
 10
117.8983
 20
40.6056
  0
VERTEX
  8
LAYER_2
 10
117.6537
 20
41.2926
  0
VERTEX
  8
LAYER_2
 10
117.6399
 20
41.2926
  0
VERTEX
  8
LAYER_2
 10
117.4026
 20
40.6101
  0
VERTEX
  8
LAYER_2
 10
116.9416
 20
39.5207
  0
SEQEND
  0
ENDBLK
  0
BLOCK
  8
LAYER_2
  2
AIGNBL0204000D
 70
64
 10
0
 20
0
 30
0
  3
AIGNBL0204000D
  0
POLYLINE
  8
LAYER_2
 40
0.05
 41
0.05
 66
1
 10
0
 20
0
 30
0
 70
1
  0
VERTEX
  8
LAYER_2
 10
120.6785
 20
41.6777
 42
-0.03246092253
  0
VERTEX
  8
LAYER_2
 10
121.8453
 20
41.7508
 42
-0.08083972759
  0
VERTEX
  8
LAYER_2
 10
122.8018
 20
41.619
 42
-0.0781591286
  0
VERTEX
  8
LAYER_2
 10
123.1652
 20
41.4379
 42
-0.2484156816
  0
VERTEX
  8
LAYER_2
 10
123.5768
 20
40.6497
 42
-0.226147
  0
VERTEX
  8
LAYER_2
 10
123.2137
 20
39.8456
 42
-0.1097236176
  0
VERTEX
  8
LAYER_2
 10
122.5855
 20
39.5323
 42
-0.06566039781
  0
VERTEX
  8
LAYER_2
 10
121.7751
 20
39.4319
 42
-0.06233087798
  0
VERTEX
  8
LAYER_2
 10
121.2865
 20
39.4653
  0
VERTEX
  8
LAYER_2
 10
121.2865
 20
37.9567
  0
VERTEX
  8
LAYER_2
 10
120.6785
 20
37.9567
  0
SEQEND
  0
POLYLINE
  8
LAYER_2
 40
0.05
 41
0.05
 66
1
 10
0
 20
0
 30
0
 70
1
  0
VERTEX
  8
LAYER_2
 10
121.2865
 20
39.8622
 42
0.04202445636
  0
VERTEX
  8
LAYER_2
 10
121.7889
 20
39.8229
 42
0.1032184983
  0
VERTEX
  8
LAYER_2
 10
122.508
 20
39.9502
 42
0.1555899564
  0
VERTEX
  8
LAYER_2
 10
122.8728
 20
40.2546
 42
0.1352638191
  0
VERTEX
  8
LAYER_2
 10
122.9698
 20
40.6273
 42
0.1736824711
  0
VERTEX
  8
LAYER_2
 10
122.835
 20
41.0346
 42
0.151721714
  0
VERTEX
  8
LAYER_2
 10
122.4139
 20
41.2941
 42
0.06880216409
  0
VERTEX
  8
LAYER_2
 10
121.8595
 20
41.3649
 42
0.06337515897
  0
VERTEX
  8
LAYER_2
 10
121.2865
 20
41.3257
  0
SEQEND
  0
ENDBLK
  0
BLOCK
  8
LAYER_2
  2
AIGNBL0204000E
 70
64
 10
0
 20
0
 30
0
  3
AIGNBL0204000E
  0
POLYLINE
  8
LAYER_2
 40
0.05
 41
0.05
 66
1
 10
0
 20
0
 30
0
 70
1
  0
VERTEX
  8
LAYER_2
 10
125.1289
 20
41.4207
 42
-0.276556311
  0
VERTEX
  8
LAYER_2
 10
124.9893
 20
41.1806
 42
-0.1265551601
  0
VERTEX
  8
LAYER_2
 10
124.7372
 20
41.1189
 42
-0.22367962
  0
VERTEX
  8
LAYER_2
 10
124.4269
 20
41.2513
 42
-0.1709078449
  0
VERTEX
  8
LAYER_2
 10
124.3668
 20
41.4207
 42
-0.2643879937
  0
VERTEX
  8
LAYER_2
 10
124.5162
 20
41.6678
 42
-0.1290073663
  0
VERTEX
  8
LAYER_2
 10
124.7509
 20
41.7277
 42
-0.2252702025
  0
VERTEX
  8
LAYER_2
 10
125.0678
 20
41.597
 42
-0.1691869544
  0
SEQEND
  0
POLYLINE
  8
LAYER_2
 40
0.05
 41
0.05
 66
1
 10
0
 20
0
 30
0
 70
1
  0
VERTEX
  8
LAYER_2
 10
124.4433
 20
37.9567
  0
VERTEX
  8
LAYER_2
 10
124.4433
 20
40.6607
  0
VERTEX
  8
LAYER_2
 10
125.0579
 20
40.6607
  0
VERTEX
  8
LAYER_2
 10
125.0579
 20
37.9567
  0
SEQEND
  0
ENDBLK
  0
BLOCK
  8
LAYER_2
  2
AIGNBL0204000F
 70
64
 10
0
 20
0
 30
0
  3
AIGNBL0204000F
  0
POLYLINE
  8
LAYER_2
 40
0.05
 41
0.05
 66
1
 10
0
 20
0
 30
0
 70
1
  0
VERTEX
  8
LAYER_2
 10
126.9296
 20
39.1418
  0
VERTEX
  8
LAYER_2
 10
126.4414
 20
37.9567
  0
VERTEX
  8
LAYER_2
 10
125.8124
 20
37.9567
  0
VERTEX
  8
LAYER_2
 10
127.4119
 20
41.7225
  0
VERTEX
  8
LAYER_2
 10
128.1457
 20
41.7225
  0
VERTEX
  8
LAYER_2
 10
129.7522
 20
37.9567
  0
VERTEX
  8
LAYER_2
 10
129.1024
 20
37.9567
  0
VERTEX
  8
LAYER_2
 10
128.5998
 20
39.1418
  0
SEQEND
  0
POLYLINE
  8
LAYER_2
 40
0.05
 41
0.05
 66
1
 10
0
 20
0
 30
0
 70
1
  0
VERTEX
  8
LAYER_2
 10
128.4737
 20
39.5207
  0
VERTEX
  8
LAYER_2
 10
128.0127
 20
40.6056
  0
VERTEX
  8
LAYER_2
 10
127.7688
 20
41.2926
  0
VERTEX
  8
LAYER_2
 10
127.754
 20
41.2926
  0
VERTEX
  8
LAYER_2
 10
127.517
 20
40.6101
  0
VERTEX
  8
LAYER_2
 10
127.056
 20
39.5207
  0
SEQEND
  0
ENDBLK
  0
BLOCK
  8
LAYER_2
  2
AIGNBL02030008
 70
64
 10
0
 20
0
 30
0
  3
AIGNBL02030008
  0
INSERT
  8
LAYER_2
  2
AIGNBL02040009
 10
0
 20
0
 30
0
  0
INSERT
  8
LAYER_2
  2
AIGNBL0204000A
 10
0
 20
0
 30
0
  0
INSERT
  8
LAYER_2
  2
AIGNBL0204000B
 10
0
 20
0
 30
0
  0
INSERT
  8
LAYER_2
  2
AIGNBL0204000C
 10
0
 20
0
 30
0
  0
INSERT
  8
LAYER_2
  2
AIGNBL0204000D
 10
0
 20
0
 30
0
  0
INSERT
  8
LAYER_2
  2
AIGNBL0204000E
 10
0
 20
0
 30
0
  0
INSERT
  8
LAYER_2
  2
AIGNBL0204000F
 10
0
 20
0
 30
0
  0
ENDBLK
  0
BLOCK
  8
LAYER_2
  2
AIGNBL02030011
 70
64
 10
0
 20
0
 30
0
  3
AIGNBL02030011
  0
POLYLINE
  8
LAYER_2
 40
0.05
 41
0.05
 66
1
 10
0
 20
0
 30
0
 70
1
  0
VERTEX
  8
LAYER_2
 10
102.5518
 20
36.0574
  0
VERTEX
  8
LAYER_2
 10
103.105
 20
36.0574
  0
VERTEX
  8
LAYER_2
 10
103.105
 20
35.9637
  0
VERTEX
  8
LAYER_2
 10
102.4467
 20
35.9637
  0
VERTEX
  8
LAYER_2
 10
102.4467
 20
36.9969
  0
VERTEX
  8
LAYER_2
 10
103.0875
 20
36.9969
  0
VERTEX
  8
LAYER_2
 10
103.0875
 20
36.9035
  0
VERTEX
  8
LAYER_2
 10
102.5518
 20
36.9035
  0
VERTEX
  8
LAYER_2
 10
102.5518
 20
36.549
  0
VERTEX
  8
LAYER_2
 10
103.0523
 20
36.549
  0
VERTEX
  8
LAYER_2
 10
103.0523
 20
36.4557
  0
VERTEX
  8
LAYER_2
 10
102.5518
 20
36.4557
  0
SEQEND
  0
ENDBLK
  0
BLOCK
  8
LAYER_2
  2
AIGNBL02030012
 70
64
 10
0
 20
0
 30
0
  3
AIGNBL02030012
  0
POLYLINE
  8
LAYER_2
 40
0.05
 41
0.05
 66
1
 10
0
 20
0
 30
0
 70
1
  0
VERTEX
  8
LAYER_2
 10
104.2447
 20
36.117
  0
VERTEX
  8
LAYER_2
 10
104.2474
 20
36.117
  0
VERTEX
  8
LAYER_2
 10
104.2474
 20
36.9969
  0
VERTEX
  8
LAYER_2
 10
104.3525
 20
36.9969
  0
VERTEX
  8
LAYER_2
 10
104.3525
 20
35.9637
  0
VERTEX
  8
LAYER_2
 10
104.2216
 20
35.9637
  0
VERTEX
  8
LAYER_2
 10
103.6205
 20
36.8525
  0
VERTEX
  8
LAYER_2
 10
103.617
 20
36.8525
  0
VERTEX
  8
LAYER_2
 10
103.617
 20
35.9637
  0
VERTEX
  8
LAYER_2
 10
103.5123
 20
35.9637
  0
VERTEX
  8
LAYER_2
 10
103.5123
 20
36.9969
  0
VERTEX
  8
LAYER_2
 10
103.6435
 20
36.9969
  0
SEQEND
  0
ENDBLK
  0
BLOCK
  8
LAYER_2
  2
AIGNBL02030013
 70
64
 10
0
 20
0
 30
0
  3
AIGNBL02030013
  0
POLYLINE
  8
LAYER_2
 40
0.05
 41
0.05
 66
1
 10
0
 20
0
 30
0
 70
1
  0
VERTEX
  8
LAYER_2
 10
104.8255
 20
36.1756
  0
VERTEX
  8
LAYER_2
 10
104.88
 20
36.0725
 42
0.1804993832
  0
VERTEX
  8
LAYER_2
 10
104.9933
 20
36.0309
  0
VERTEX
  8
LAYER_2
 10
105.0825
 20
36.0505
  0
VERTEX
  8
LAYER_2
 10
105.1387
 20
36.1039
  0
VERTEX
  8
LAYER_2
 10
105.1676
 20
36.1804
  0
VERTEX
  8
LAYER_2
 10
105.1759
 20
36.27
  0
VERTEX
  8
LAYER_2
 10
105.1759
 20
36.9969
  0
VERTEX
  8
LAYER_2
 10
105.281
 20
36.9969
  0
VERTEX
  8
LAYER_2
 10
105.281
 20
36.2614
  0
VERTEX
  8
LAYER_2
 10
105.2696
 20
36.1535
  0
VERTEX
  8
LAYER_2
 10
105.2283
 20
36.0485
  0
VERTEX
  8
LAYER_2
 10
105.1435
 20
35.9689
  0
VERTEX
  8
LAYER_2
 10
105.0047
 20
35.9375
 42
-0.1842921564
  0
VERTEX
  8
LAYER_2
 10
104.82
 20
35.9974
 42
-0.176191571
  0
VERTEX
  8
LAYER_2
 10
104.7277
 20
36.149
  0
SEQEND
  0
ENDBLK
  0
BLOCK
  8
LAYER_2
  2
AIGNBL02030014
 70
64
 10
0
 20
0
 30
0
  3
AIGNBL02030014
  0
POLYLINE
  8
LAYER_2
 40
0.05
 41
0.05
 66
1
 10
0
 20
0
 30
0
 70
1
  0
VERTEX
  8
LAYER_2
 10
106.7693
 20
36.4805
 42
-0.10394313
  0
VERTEX
  8
LAYER_2
 10
106.7282
 20
36.2631
 42
-0.1002538824
  0
VERTEX
  8
LAYER_2
 10
106.6156
 20
36.0915
  0
VERTEX
  8
LAYER_2
 10
106.4447
 20
35.9785
 42
-0.09506675375
  0
VERTEX
  8
LAYER_2
 10
106.2308
 20
35.9375
 42
-0.1010765979
  0
VERTEX
  8
LAYER_2
 10
106.0172
 20
35.9785
 42
-0.1005668876
  0
VERTEX
  8
LAYER_2
 10
105.8463
 20
36.0915
 42
-0.09506076213
  0
VERTEX
  8
LAYER_2
 10
105.733
 20
36.2631
 42
-0.0931359716
  0
VERTEX
  8
LAYER_2
 10
105.6923
 20
36.4805
 42
-0.1022959507
  0
VERTEX
  8
LAYER_2
 10
105.733
 20
36.6978
 42
-0.1008913794
  0
VERTEX
  8
LAYER_2
 10
105.8463
 20
36.8694
 42
-0.09625543395
  0
VERTEX
  8
LAYER_2
 10
106.0172
 20
36.9824
 42
-0.0952064105
  0
VERTEX
  8
LAYER_2
 10
106.2308
 20
37.0234
 42
-0.101175466
  0
VERTEX
  8
LAYER_2
 10
106.4447
 20
36.9824
 42
-0.09853409661
  0
VERTEX
  8
LAYER_2
 10
106.6156
 20
36.8694
 42
-0.0955655387
  0
VERTEX
  8
LAYER_2
 10
106.7282
 20
36.6978
 42
-0.09420719768
  0
SEQEND
  0
POLYLINE
  8
LAYER_2
 40
0.05
 41
0.05
 66
1
 10
0
 20
0
 30
0
 70
1
  0
VERTEX
  8
LAYER_2
 10
106.6583
 20
36.4798
  0
VERTEX
  8
LAYER_2
 10
106.6294
 20
36.6517
  0
VERTEX
  8
LAYER_2
 10
106.5446
 20
36.795
  0
VERTEX
  8
LAYER_2
 10
106.4096
 20
36.8932
  0
VERTEX
  8
LAYER_2
 10
106.2308
 20
36.93
  0
VERTEX
  8
LAYER_2
 10
106.052
 20
36.8932
  0
VERTEX
  8
LAYER_2
 10
105.9173
 20
36.795
  0
VERTEX
  8
LAYER_2
 10
105.8325
 20
36.6517
  0
VERTEX
  8
LAYER_2
 10
105.8033
 20
36.4798
  0
VERTEX
  8
LAYER_2
 10
105.8325
 20
36.3079
  0
VERTEX
  8
LAYER_2
 10
105.9173
 20
36.1649
  0
VERTEX
  8
LAYER_2
 10
106.052
 20
36.0674
 42
0.1008280473
  0
VERTEX
  8
LAYER_2
 10
106.2308
 20
36.0309
  0
VERTEX
  8
LAYER_2
 10
106.4096
 20
36.0674
  0
VERTEX
  8
LAYER_2
 10
106.5446
 20
36.1649
  0
VERTEX
  8
LAYER_2
 10
106.6294
 20
36.3079
  0
SEQEND
  0
ENDBLK
  0
BLOCK
  8
LAYER_2
  2
AIGNBL02030015
 70
64
 10
0
 20
0
 30
0
  3
AIGNBL02030015
  0
POLYLINE
  8
LAYER_2
 40
0.05
 41
0.05
 66
1
 10
0
 20
0
 30
0
 70
1
  0
VERTEX
  8
LAYER_2
 10
107.544
 20
35.9637
  0
VERTEX
  8
LAYER_2
 10
107.4393
 20
35.9637
  0
VERTEX
  8
LAYER_2
 10
107.4393
 20
36.4091
  0
VERTEX
  8
LAYER_2
 10
107.0524
 20
36.9969
  0
VERTEX
  8
LAYER_2
 10
107.1837
 20
36.9969
  0
VERTEX
  8
LAYER_2
 10
107.4948
 20
36.4967
  0
VERTEX
  8
LAYER_2
 10
107.8083
 20
36.9969
  0
VERTEX
  8
LAYER_2
 10
107.9306
 20
36.9969
  0
VERTEX
  8
LAYER_2
 10
107.544
 20
36.4091
  0
SEQEND
  0
ENDBLK
  0
BLOCK
  8
LAYER_2
  2
AIGNBL02030016
 70
64
 10
0
 20
0
 30
0
  3
AIGNBL02030016
  0
POLYLINE
  8
LAYER_2
 40
0.05
 41
0.05
 66
1
 10
0
 20
0
 30
0
 70
1
  0
VERTEX
  8
LAYER_2
 10
108.8356
 20
36.9969
  0
VERTEX
  8
LAYER_2
 10
109.1433
 20
36.9969
  0
VERTEX
  8
LAYER_2
 10
109.2618
 20
36.9845
  0
VERTEX
  8
LAYER_2
 10
109.3686
 20
36.9421
  0
VERTEX
  8
LAYER_2
 10
109.4464
 20
36.8611
  0
VERTEX
  8
LAYER_2
 10
109.4761
 20
36.733
 42
-0.1787887146
  0
VERTEX
  8
LAYER_2
 10
109.4261
 20
36.5907
 42
-0.1642670326
  0
VERTEX
  8
LAYER_2
 10
109.2928
 20
36.5111
  0
VERTEX
  8
LAYER_2
 10
109.2928
 20
36.5084
 42
-0.1734673322
  0
VERTEX
  8
LAYER_2
 10
109.4595
 20
36.4302
 42
-0.1923000161
  0
VERTEX
  8
LAYER_2
 10
109.5257
 20
36.2496
  0
VERTEX
  8
LAYER_2
 10
109.4985
 20
36.1325
  0
VERTEX
  8
LAYER_2
 10
109.4223
 20
36.0419
  0
VERTEX
  8
LAYER_2
 10
109.3014
 20
35.9844
  0
VERTEX
  8
LAYER_2
 10
109.1416
 20
35.9637
  0
VERTEX
  8
LAYER_2
 10
108.8356
 20
35.9637
  0
SEQEND
  0
POLYLINE
  8
LAYER_2
 40
0.05
 41
0.05
 66
1
 10
0
 20
0
 30
0
 70
1
  0
VERTEX
  8
LAYER_2
 10
108.9407
 20
36.5445
  0
VERTEX
  8
LAYER_2
 10
109.1522
 20
36.5445
  0
VERTEX
  8
LAYER_2
 10
109.2291
 20
36.5535
  0
VERTEX
  8
LAYER_2
 10
109.2993
 20
36.5831
  0
VERTEX
  8
LAYER_2
 10
109.3514
 20
36.6396
  0
VERTEX
  8
LAYER_2
 10
109.371
 20
36.7258
  0
VERTEX
  8
LAYER_2
 10
109.3514
 20
36.8095
  0
VERTEX
  8
LAYER_2
 10
109.2983
 20
36.8656
  0
VERTEX
  8
LAYER_2
 10
109.2194
 20
36.897
  0
VERTEX
  8
LAYER_2
 10
109.1229
 20
36.9066
  0
VERTEX
  8
LAYER_2
 10
108.9407
 20
36.9066
  0
SEQEND
  0
POLYLINE
  8
LAYER_2
 40
0.05
 41
0.05
 66
1
 10
0
 20
0
 30
0
 70
1
  0
VERTEX
  8
LAYER_2
 10
108.9407
 20
36.0543
  0
VERTEX
  8
LAYER_2
 10
109.1364
 20
36.0543
  0
VERTEX
  8
LAYER_2
 10
109.2449
 20
36.0653
  0
VERTEX
  8
LAYER_2
 10
109.3355
 20
36.1001
  0
VERTEX
  8
LAYER_2
 10
109.3972
 20
36.1632
  0
VERTEX
  8
LAYER_2
 10
109.4206
 20
36.2559
 42
0.2554060681
  0
VERTEX
  8
LAYER_2
 10
109.3514
 20
36.4081
 42
0.1380642909
  0
VERTEX
  8
LAYER_2
 10
109.1553
 20
36.4584
  0
VERTEX
  8
LAYER_2
 10
108.9407
 20
36.4584
  0
SEQEND
  0
ENDBLK
  0
BLOCK
  8
LAYER_2
  2
AIGNBL02030017
 70
64
 10
0
 20
0
 30
0
  3
AIGNBL02030017
  0
POLYLINE
  8
LAYER_2
 40
0.05
 41
0.05
 66
1
 10
0
 20
0
 30
0
 70
1
  0
VERTEX
  8
LAYER_2
 10
109.9577
 20
35.9637
  0
VERTEX
  8
LAYER_2
 10
109.8423
 20
35.9637
  0
VERTEX
  8
LAYER_2
 10
110.2891
 20
36.9969
  0
VERTEX
  8
LAYER_2
 10
110.3914
 20
36.9969
  0
VERTEX
  8
LAYER_2
 10
110.8348
 20
35.9637
  0
VERTEX
  8
LAYER_2
 10
110.718
 20
35.9637
  0
VERTEX
  8
LAYER_2
 10
110.604
 20
36.2352
  0
VERTEX
  8
LAYER_2
 10
110.07
 20
36.2352
  0
SEQEND
  0
POLYLINE
  8
LAYER_2
 40
0.05
 41
0.05
 66
1
 10
0
 20
0
 30
0
 70
1
  0
VERTEX
  8
LAYER_2
 10
110.1093
 20
36.3316
  0
VERTEX
  8
LAYER_2
 10
110.5647
 20
36.3316
  0
VERTEX
  8
LAYER_2
 10
110.337
 20
36.8804
  0
SEQEND
  0
ENDBLK
  0
BLOCK
  8
LAYER_2
  2
AIGNBL02030018
 70
64
 10
0
 20
0
 30
0
  3
AIGNBL02030018
  0
POLYLINE
  8
LAYER_2
 40
0.05
 41
0.05
 66
1
 10
0
 20
0
 30
0
 70
1
  0
VERTEX
  8
LAYER_2
 10
111.5194
 20
35.9637
  0
VERTEX
  8
LAYER_2
 10
111.4143
 20
35.9637
  0
VERTEX
  8
LAYER_2
 10
111.4143
 20
36.9035
  0
VERTEX
  8
LAYER_2
 10
111.068
 20
36.9035
  0
VERTEX
  8
LAYER_2
 10
111.068
 20
36.9969
  0
VERTEX
  8
LAYER_2
 10
111.8649
 20
36.9969
  0
VERTEX
  8
LAYER_2
 10
111.8649
 20
36.9035
  0
VERTEX
  8
LAYER_2
 10
111.5194
 20
36.9035
  0
SEQEND
  0
ENDBLK
  0
BLOCK
  8
LAYER_2
  2
AIGNBL02030019
 70
64
 10
0
 20
0
 30
0
  3
AIGNBL02030019
  0
POLYLINE
  8
LAYER_2
 40
0.05
 41
0.05
 66
1
 10
0
 20
0
 30
0
 70
1
  0
VERTEX
  8
LAYER_2
 10
112.2211
 20
36.9969
  0
VERTEX
  8
LAYER_2
 10
112.3258
 20
36.9969
  0
VERTEX
  8
LAYER_2
 10
112.3258
 20
36.549
  0
VERTEX
  8
LAYER_2
 10
112.8895
 20
36.549
  0
VERTEX
  8
LAYER_2
 10
112.8895
 20
36.9969
  0
VERTEX
  8
LAYER_2
 10
112.9945
 20
36.9969
  0
VERTEX
  8
LAYER_2
 10
112.9945
 20
35.9637
  0
VERTEX
  8
LAYER_2
 10
112.8895
 20
35.9637
  0
VERTEX
  8
LAYER_2
 10
112.8895
 20
36.4529
  0
VERTEX
  8
LAYER_2
 10
112.3258
 20
36.4529
  0
VERTEX
  8
LAYER_2
 10
112.3258
 20
35.9637
  0
VERTEX
  8
LAYER_2
 10
112.2211
 20
35.9637
  0
SEQEND
  0
ENDBLK
  0
BLOCK
  8
LAYER_2
  2
AIGNBL0203001A
 70
64
 10
0
 20
0
 30
0
  3
AIGNBL0203001A
  0
POLYLINE
  8
LAYER_2
 40
0.05
 41
0.05
 66
1
 10
0
 20
0
 30
0
 70
1
  0
VERTEX
  8
LAYER_2
 10
113.575
 20
35.9637
  0
VERTEX
  8
LAYER_2
 10
113.47
 20
35.9637
  0
VERTEX
  8
LAYER_2
 10
113.47
 20
36.9969
  0
VERTEX
  8
LAYER_2
 10
113.7738
 20
36.9969
  0
VERTEX
  8
LAYER_2
 10
113.9144
 20
36.9824
  0
VERTEX
  8
LAYER_2
 10
114.027
 20
36.9349
  0
VERTEX
  8
LAYER_2
 10
114.1004
 20
36.8494
  0
VERTEX
  8
LAYER_2
 10
114.1266
 20
36.7213
  0
VERTEX
  8
LAYER_2
 10
114.1066
 20
36.6176
  0
VERTEX
  8
LAYER_2
 10
114.0512
 20
36.5366
  0
VERTEX
  8
LAYER_2
 10
113.9678
 20
36.4818
  0
VERTEX
  8
LAYER_2
 10
113.8627
 20
36.4557
  0
VERTEX
  8
LAYER_2
 10
114.1648
 20
35.9637
  0
VERTEX
  8
LAYER_2
 10
114.0364
 20
35.9637
  0
VERTEX
  8
LAYER_2
 10
113.7504
 20
36.4467
  0
VERTEX
  8
LAYER_2
 10
113.575
 20
36.4467
  0
SEQEND
  0
POLYLINE
  8
LAYER_2
 40
0.05
 41
0.05
 66
1
 10
0
 20
0
 30
0
 70
1
  0
VERTEX
  8
LAYER_2
 10
113.575
 20
36.5373
  0
VERTEX
  8
LAYER_2
 10
113.7576
 20
36.5373
 42
0.1657798624
  0
VERTEX
  8
LAYER_2
 10
113.9533
 20
36.5831
 42
0.2503949893
  0
VERTEX
  8
LAYER_2
 10
114.0219
 20
36.7213
  0
VERTEX
  8
LAYER_2
 10
114.0026
 20
36.8071
  0
VERTEX
  8
LAYER_2
 10
113.9502
 20
36.8643
  0
VERTEX
  8
LAYER_2
 10
113.8686
 20
36.8963
  0
VERTEX
  8
LAYER_2
 10
113.7621
 20
36.9066
  0
VERTEX
  8
LAYER_2
 10
113.575
 20
36.9066
  0
SEQEND
  0
ENDBLK
  0
BLOCK
  8
LAYER_2
  2
AIGNBL0203001B
 70
64
 10
0
 20
0
 30
0
  3
AIGNBL0203001B
  0
POLYLINE
  8
LAYER_2
 40
0.05
 41
0.05
 66
1
 10
0
 20
0
 30
0
 70
1
  0
VERTEX
  8
LAYER_2
 10
115.567
 20
36.4805
 42
-0.1005163161
  0
VERTEX
  8
LAYER_2
 10
115.5263
 20
36.2631
 42
-0.1003846159
  0
VERTEX
  8
LAYER_2
 10
115.413
 20
36.0915
 42
-0.09571058079
  0
VERTEX
  8
LAYER_2
 10
115.2425
 20
35.9785
 42
-0.09502028874
  0
VERTEX
  8
LAYER_2
 10
115.0285
 20
35.9375
 42
-0.101175466
  0
VERTEX
  8
LAYER_2
 10
114.8146
 20
35.9785
 42
-0.09967088569
  0
VERTEX
  8
LAYER_2
 10
114.644
 20
36.0915
 42
-0.09618038288
  0
VERTEX
  8
LAYER_2
 10
114.5311
 20
36.2631
 42
-0.0931359716
  0
VERTEX
  8
LAYER_2
 10
114.4904
 20
36.4805
 42
-0.1022959507
  0
VERTEX
  8
LAYER_2
 10
114.5311
 20
36.6978
 42
-0.101709851
  0
VERTEX
  8
LAYER_2
 10
114.644
 20
36.8694
 42
-0.09577113234
  0
VERTEX
  8
LAYER_2
 10
114.8146
 20
36.9824
 42
-0.09506675375
  0
VERTEX
  8
LAYER_2
 10
115.0285
 20
37.0234
 42
-0.1012083438
  0
VERTEX
  8
LAYER_2
 10
115.2425
 20
36.9824
 42
-0.1015678172
  0
VERTEX
  8
LAYER_2
 10
115.413
 20
36.8694
 42
-0.09506500802
  0
VERTEX
  8
LAYER_2
 10
115.5263
 20
36.6978
 42
-0.09299771213
  0
SEQEND
  0
POLYLINE
  8
LAYER_2
 40
0.05
 41
0.05
 66
1
 10
0
 20
0
 30
0
 70
1
  0
VERTEX
  8
LAYER_2
 10
115.4561
 20
36.4798
  0
VERTEX
  8
LAYER_2
 10
115.4268
 20
36.6517
  0
VERTEX
  8
LAYER_2
 10
115.342
 20
36.795
  0
VERTEX
  8
LAYER_2
 10
115.2073
 20
36.8932
  0
VERTEX
  8
LAYER_2
 10
115.0285
 20
36.93
  0
VERTEX
  8
LAYER_2
 10
114.8497
 20
36.8932
  0
VERTEX
  8
LAYER_2
 10
114.7147
 20
36.795
  0
VERTEX
  8
LAYER_2
 10
114.6299
 20
36.6517
  0
VERTEX
  8
LAYER_2
 10
114.601
 20
36.4798
  0
VERTEX
  8
LAYER_2
 10
114.6299
 20
36.3079
  0
VERTEX
  8
LAYER_2
 10
114.7147
 20
36.1649
  0
VERTEX
  8
LAYER_2
 10
114.8497
 20
36.0674
  0
VERTEX
  8
LAYER_2
 10
115.0285
 20
36.0309
 42
0.1157330551
  0
VERTEX
  8
LAYER_2
 10
115.2073
 20
36.0674
  0
VERTEX
  8
LAYER_2
 10
115.342
 20
36.1649
  0
VERTEX
  8
LAYER_2
 10
115.4268
 20
36.3079
  0
SEQEND
  0
ENDBLK
  0
BLOCK
  8
LAYER_2
  2
AIGNBL0203001C
 70
64
 10
0
 20
0
 30
0
  3
AIGNBL0203001C
  0
POLYLINE
  8
LAYER_2
 40
0.05
 41
0.05
 66
1
 10
0
 20
0
 30
0
 70
1
  0
VERTEX
  8
LAYER_2
 10
117.0088
 20
36.4805
 42
-0.1041417444
  0
VERTEX
  8
LAYER_2
 10
116.9678
 20
36.2631
 42
-0.1000549391
  0
VERTEX
  8
LAYER_2
 10
116.8551
 20
36.0915
 42
-0.09536265516
  0
VERTEX
  8
LAYER_2
 10
116.6842
 20
35.9785
 42
-0.09506675375
  0
VERTEX
  8
LAYER_2
 10
116.4703
 20
35.9375
 42
-0.101822328
  0
VERTEX
  8
LAYER_2
 10
116.2567
 20
35.9785
 42
-0.102112669
  0
VERTEX
  8
LAYER_2
 10
116.0858
 20
36.0915
 42
-0.09442769366
  0
VERTEX
  8
LAYER_2
 10
115.9725
 20
36.2631
 42
-0.0931359716
  0
VERTEX
  8
LAYER_2
 10
115.9318
 20
36.4805
 42
-0.1022959507
  0
VERTEX
  8
LAYER_2
 10
115.9725
 20
36.6978
 42
-0.1008832254
  0
VERTEX
  8
LAYER_2
 10
116.0858
 20
36.8694
 42
-0.09625543395
  0
VERTEX
  8
LAYER_2
 10
116.2567
 20
36.9824
 42
-0.09528409444
  0
VERTEX
  8
LAYER_2
 10
116.4703
 20
37.0234
 42
-0.101175466
  0
VERTEX
  8
LAYER_2
 10
116.6842
 20
36.9824
 42
-0.09853409661
  0
VERTEX
  8
LAYER_2
 10
116.8551
 20
36.8694
 42
-0.09576191851
  0
VERTEX
  8
LAYER_2
 10
116.9678
 20
36.6978
 42
-0.09400765476
  0
SEQEND
  0
POLYLINE
  8
LAYER_2
 40
0.05
 41
0.05
 66
1
 10
0
 20
0
 30
0
 70
1
  0
VERTEX
  8
LAYER_2
 10
116.8978
 20
36.4798
  0
VERTEX
  8
LAYER_2
 10
116.8689
 20
36.6517
  0
VERTEX
  8
LAYER_2
 10
116.7841
 20
36.795
  0
VERTEX
  8
LAYER_2
 10
116.6491
 20
36.8932
  0
VERTEX
  8
LAYER_2
 10
116.4703
 20
36.93
  0
VERTEX
  8
LAYER_2
 10
116.2915
 20
36.8932
  0
VERTEX
  8
LAYER_2
 10
116.1568
 20
36.795
  0
VERTEX
  8
LAYER_2
 10
116.0721
 20
36.6517
  0
VERTEX
  8
LAYER_2
 10
116.0428
 20
36.4798
  0
VERTEX
  8
LAYER_2
 10
116.0721
 20
36.3079
  0
VERTEX
  8
LAYER_2
 10
116.1568
 20
36.1649
  0
VERTEX
  8
LAYER_2
 10
116.2915
 20
36.0674
 42
0.1008257054
  0
VERTEX
  8
LAYER_2
 10
116.4703
 20
36.0309
  0
VERTEX
  8
LAYER_2
 10
116.6491
 20
36.0674
  0
VERTEX
  8
LAYER_2
 10
116.7841
 20
36.1649
  0
VERTEX
  8
LAYER_2
 10
116.8689
 20
36.3079
  0
SEQEND
  0
ENDBLK
  0
BLOCK
  8
LAYER_2
  2
AIGNBL0203001D
 70
64
 10
0
 20
0
 30
0
  3
AIGNBL0203001D
  0
POLYLINE
  8
LAYER_2
 40
0.05
 41
0.05
 66
1
 10
0
 20
0
 30
0
 70
1
  0
VERTEX
  8
LAYER_2
 10
117.9396
 20
36.1418
  0
VERTEX
  8
LAYER_2
 10
117.9414
 20
36.1418
  0
VERTEX
  8
LAYER_2
 10
118.2869
 20
36.9969
  0
VERTEX
  8
LAYER_2
 10
118.4478
 20
36.9969
  0
VERTEX
  8
LAYER_2
 10
118.4478
 20
35.9637
  0
VERTEX
  8
LAYER_2
 10
118.3424
 20
35.9637
  0
VERTEX
  8
LAYER_2
 10
118.3424
 20
36.8611
  0
VERTEX
  8
LAYER_2
 10
118.3396
 20
36.8611
  0
VERTEX
  8
LAYER_2
 10
117.9662
 20
35.9637
  0
VERTEX
  8
LAYER_2
 10
117.9107
 20
35.9637
  0
VERTEX
  8
LAYER_2
 10
117.5369
 20
36.8611
  0
VERTEX
  8
LAYER_2
 10
117.5341
 20
36.8611
  0
VERTEX
  8
LAYER_2
 10
117.5341
 20
35.9637
  0
VERTEX
  8
LAYER_2
 10
117.4291
 20
35.9637
  0
VERTEX
  8
LAYER_2
 10
117.4291
 20
36.9969
  0
VERTEX
  8
LAYER_2
 10
117.5896
 20
36.9969
  0
SEQEND
  0
ENDBLK
  0
BLOCK
  8
LAYER_2
  2
AIGNBL0203001E
 70
64
 10
0
 20
0
 30
0
  3
AIGNBL0203001E
  0
POLYLINE
  8
LAYER_2
 40
0.05
 41
0.05
 66
1
 10
0
 20
0
 30
0
 70
1
  0
VERTEX
  8
LAYER_2
 10
119.5943
 20
36.0574
  0
VERTEX
  8
LAYER_2
 10
120.1476
 20
36.0574
  0
VERTEX
  8
LAYER_2
 10
120.1476
 20
35.9637
  0
VERTEX
  8
LAYER_2
 10
119.4892
 20
35.9637
  0
VERTEX
  8
LAYER_2
 10
119.4892
 20
36.9969
  0
VERTEX
  8
LAYER_2
 10
120.13
 20
36.9969
  0
VERTEX
  8
LAYER_2
 10
120.13
 20
36.9035
  0
VERTEX
  8
LAYER_2
 10
119.5943
 20
36.9035
  0
VERTEX
  8
LAYER_2
 10
119.5943
 20
36.549
  0
VERTEX
  8
LAYER_2
 10
120.0949
 20
36.549
  0
VERTEX
  8
LAYER_2
 10
120.0949
 20
36.4557
  0
VERTEX
  8
LAYER_2
 10
119.5943
 20
36.4557
  0
SEQEND
  0
ENDBLK
  0
BLOCK
  8
LAYER_2
  2
AIGNBL0203001F
 70
64
 10
0
 20
0
 30
0
  3
AIGNBL0203001F
  0
POLYLINE
  8
LAYER_2
 40
0.05
 41
0.05
 66
1
 10
0
 20
0
 30
0
 70
1
  0
VERTEX
  8
LAYER_2
 10
120.8928
 20
36.5797
  0
VERTEX
  8
LAYER_2
 10
121.1749
 20
36.9969
  0
VERTEX
  8
LAYER_2
 10
121.3
 20
36.9969
  0
VERTEX
  8
LAYER_2
 10
120.9575
 20
36.5053
  0
VERTEX
  8
LAYER_2
 10
121.3368
 20
35.9637
  0
VERTEX
  8
LAYER_2
 10
121.2056
 20
35.9637
  0
VERTEX
  8
LAYER_2
 10
120.89
 20
36.4295
  0
VERTEX
  8
LAYER_2
 10
120.5765
 20
35.9637
  0
VERTEX
  8
LAYER_2
 10
120.4449
 20
35.9637
  0
VERTEX
  8
LAYER_2
 10
120.8246
 20
36.5066
  0
VERTEX
  8
LAYER_2
 10
120.4787
 20
36.9969
  0
VERTEX
  8
LAYER_2
 10
120.6103
 20
36.9969
  0
SEQEND
  0
ENDBLK
  0
BLOCK
  8
LAYER_2
  2
AIGNBL02030020
 70
64
 10
0
 20
0
 30
0
  3
AIGNBL02030020
  0
POLYLINE
  8
LAYER_2
 40
0.05
 41
0.05
 66
1
 10
0
 20
0
 30
0
 70
1
  0
VERTEX
  8
LAYER_2
 10
121.7031
 20
36.9969
  0
VERTEX
  8
LAYER_2
 10
121.9952
 20
36.9969
  0
VERTEX
  8
LAYER_2
 10
122.1382
 20
36.9804
  0
VERTEX
  8
LAYER_2
 10
122.2481
 20
36.929
  0
VERTEX
  8
LAYER_2
 10
122.319
 20
36.8429
  0
VERTEX
  8
LAYER_2
 10
122.3435
 20
36.7213
  0
VERTEX
  8
LAYER_2
 10
122.3183
 20
36.5993
  0
VERTEX
  8
LAYER_2
 10
122.2467
 20
36.5132
  0
VERTEX
  8
LAYER_2
 10
122.1358
 20
36.4615
  0
VERTEX
  8
LAYER_2
 10
121.9921
 20
36.444
  0
VERTEX
  8
LAYER_2
 10
121.8081
 20
36.444
  0
VERTEX
  8
LAYER_2
 10
121.8081
 20
35.9637
  0
VERTEX
  8
LAYER_2
 10
121.7031
 20
35.9637
  0
SEQEND
  0
POLYLINE
  8
LAYER_2
 40
0.05
 41
0.05
 66
1
 10
0
 20
0
 30
0
 70
1
  0
VERTEX
  8
LAYER_2
 10
121.8081
 20
36.5328
  0
VERTEX
  8
LAYER_2
 10
121.9859
 20
36.5328
 42
0.1829203509
  0
VERTEX
  8
LAYER_2
 10
122.1743
 20
36.581
 42
0.2347011275
  0
VERTEX
  8
LAYER_2
 10
122.2388
 20
36.7213
 42
0.26486771
  0
VERTEX
  8
LAYER_2
 10
122.1723
 20
36.8622
 42
0.1264027561
  0
VERTEX
  8
LAYER_2
 10
121.9859
 20
36.9066
  0
VERTEX
  8
LAYER_2
 10
121.8081
 20
36.9066
  0
SEQEND
  0
ENDBLK
  0
BLOCK
  8
LAYER_2
  2
AIGNBL02030021
 70
64
 10
0
 20
0
 30
0
  3
AIGNBL02030021
  0
POLYLINE
  8
LAYER_2
 40
0.05
 41
0.05
 66
1
 10
0
 20
0
 30
0
 70
1
  0
VERTEX
  8
LAYER_2
 10
122.8558
 20
36.0574
  0
VERTEX
  8
LAYER_2
 10
123.4091
 20
36.0574
  0
VERTEX
  8
LAYER_2
 10
123.4091
 20
35.9637
  0
VERTEX
  8
LAYER_2
 10
122.7507
 20
35.9637
  0
VERTEX
  8
LAYER_2
 10
122.7507
 20
36.9969
  0
VERTEX
  8
LAYER_2
 10
123.3915
 20
36.9969
  0
VERTEX
  8
LAYER_2
 10
123.3915
 20
36.9035
  0
VERTEX
  8
LAYER_2
 10
122.8558
 20
36.9035
  0
VERTEX
  8
LAYER_2
 10
122.8558
 20
36.549
  0
VERTEX
  8
LAYER_2
 10
123.3564
 20
36.549
  0
VERTEX
  8
LAYER_2
 10
123.3564
 20
36.4557
  0
VERTEX
  8
LAYER_2
 10
122.8558
 20
36.4557
  0
SEQEND
  0
ENDBLK
  0
BLOCK
  8
LAYER_2
  2
AIGNBL02030022
 70
64
 10
0
 20
0
 30
0
  3
AIGNBL02030022
  0
POLYLINE
  8
LAYER_2
 40
0.05
 41
0.05
 66
1
 10
0
 20
0
 30
0
 70
1
  0
VERTEX
  8
LAYER_2
 10
123.921
 20
35.9637
  0
VERTEX
  8
LAYER_2
 10
123.8159
 20
35.9637
  0
VERTEX
  8
LAYER_2
 10
123.8159
 20
36.9969
  0
VERTEX
  8
LAYER_2
 10
124.1198
 20
36.9969
  0
VERTEX
  8
LAYER_2
 10
124.2603
 20
36.9824
  0
VERTEX
  8
LAYER_2
 10
124.373
 20
36.9349
  0
VERTEX
  8
LAYER_2
 10
124.4467
 20
36.8494
  0
VERTEX
  8
LAYER_2
 10
124.4726
 20
36.7213
  0
VERTEX
  8
LAYER_2
 10
124.4526
 20
36.6176
  0
VERTEX
  8
LAYER_2
 10
124.3971
 20
36.5366
  0
VERTEX
  8
LAYER_2
 10
124.3138
 20
36.4818
  0
VERTEX
  8
LAYER_2
 10
124.2087
 20
36.4557
  0
VERTEX
  8
LAYER_2
 10
124.5108
 20
35.9637
  0
VERTEX
  8
LAYER_2
 10
124.3823
 20
35.9637
  0
VERTEX
  8
LAYER_2
 10
124.0964
 20
36.4467
  0
VERTEX
  8
LAYER_2
 10
123.921
 20
36.4467
  0
SEQEND
  0
POLYLINE
  8
LAYER_2
 40
0.05
 41
0.05
 66
1
 10
0
 20
0
 30
0
 70
1
  0
VERTEX
  8
LAYER_2
 10
123.921
 20
36.5373
  0
VERTEX
  8
LAYER_2
 10
124.1036
 20
36.5373
 42
0.1667119028
  0
VERTEX
  8
LAYER_2
 10
124.2993
 20
36.5831
 42
0.2503091692
  0
VERTEX
  8
LAYER_2
 10
124.3678
 20
36.7213
  0
VERTEX
  8
LAYER_2
 10
124.3489
 20
36.8071
  0
VERTEX
  8
LAYER_2
 10
124.2962
 20
36.8643
  0
VERTEX
  8
LAYER_2
 10
124.2145
 20
36.8963
  0
VERTEX
  8
LAYER_2
 10
124.1081
 20
36.9066
  0
VERTEX
  8
LAYER_2
 10
123.921
 20
36.9066
  0
SEQEND
  0
ENDBLK
  0
BLOCK
  8
LAYER_2
  2
AIGNBL02030023
 70
64
 10
0
 20
0
 30
0
  3
AIGNBL02030023
  0
POLYLINE
  8
LAYER_2
 40
0.05
 41
0.05
 66
1
 10
0
 20
0
 30
0
 70
1
  0
VERTEX
  8
LAYER_2
 10
124.9966
 20
35.9637
  0
VERTEX
  8
LAYER_2
 10
124.8919
 20
35.9637
  0
VERTEX
  8
LAYER_2
 10
124.8919
 20
36.9969
  0
VERTEX
  8
LAYER_2
 10
124.9966
 20
36.9969
  0
SEQEND
  0
ENDBLK
  0
BLOCK
  8
LAYER_2
  2
AIGNBL02030024
 70
64
 10
0
 20
0
 30
0
  3
AIGNBL02030024
  0
POLYLINE
  8
LAYER_2
 40
0.05
 41
0.05
 66
1
 10
0
 20
0
 30
0
 70
1
  0
VERTEX
  8
LAYER_2
 10
125.5774
 20
36.0574
  0
VERTEX
  8
LAYER_2
 10
126.1304
 20
36.0574
  0
VERTEX
  8
LAYER_2
 10
126.1304
 20
35.9637
  0
VERTEX
  8
LAYER_2
 10
125.4724
 20
35.9637
  0
VERTEX
  8
LAYER_2
 10
125.4724
 20
36.9969
  0
VERTEX
  8
LAYER_2
 10
126.1131
 20
36.9969
  0
VERTEX
  8
LAYER_2
 10
126.1131
 20
36.9035
  0
VERTEX
  8
LAYER_2
 10
125.5774
 20
36.9035
  0
VERTEX
  8
LAYER_2
 10
125.5774
 20
36.549
  0
VERTEX
  8
LAYER_2
 10
126.078
 20
36.549
  0
VERTEX
  8
LAYER_2
 10
126.078
 20
36.4557
  0
VERTEX
  8
LAYER_2
 10
125.5774
 20
36.4557
  0
SEQEND
  0
ENDBLK
  0
BLOCK
  8
LAYER_2
  2
AIGNBL02030025
 70
64
 10
0
 20
0
 30
0
  3
AIGNBL02030025
  0
POLYLINE
  8
LAYER_2
 40
0.05
 41
0.05
 66
1
 10
0
 20
0
 30
0
 70
1
  0
VERTEX
  8
LAYER_2
 10
127.2703
 20
36.117
  0
VERTEX
  8
LAYER_2
 10
127.2731
 20
36.117
  0
VERTEX
  8
LAYER_2
 10
127.2731
 20
36.9969
  0
VERTEX
  8
LAYER_2
 10
127.3782
 20
36.9969
  0
VERTEX
  8
LAYER_2
 10
127.3782
 20
35.9637
  0
VERTEX
  8
LAYER_2
 10
127.2469
 20
35.9637
  0
VERTEX
  8
LAYER_2
 10
126.6457
 20
36.8525
  0
VERTEX
  8
LAYER_2
 10
126.6426
 20
36.8525
  0
VERTEX
  8
LAYER_2
 10
126.6426
 20
35.9637
  0
VERTEX
  8
LAYER_2
 10
126.5376
 20
35.9637
  0
VERTEX
  8
LAYER_2
 10
126.5376
 20
36.9969
  0
VERTEX
  8
LAYER_2
 10
126.6692
 20
36.9969
  0
SEQEND
  0
ENDBLK
  0
BLOCK
  8
LAYER_2
  2
AIGNBL02030026
 70
64
 10
0
 20
0
 30
0
  3
AIGNBL02030026
  0
POLYLINE
  8
LAYER_2
 40
0.05
 41
0.05
 66
1
 10
0
 20
0
 30
0
 70
1
  0
VERTEX
  8
LAYER_2
 10
128.7238
 20
36.1315
  0
VERTEX
  8
LAYER_2
 10
128.6601
 20
36.0571
  0
VERTEX
  8
LAYER_2
 10
128.574
 20
35.9954
  0
VERTEX
  8
LAYER_2
 10
128.4658
 20
35.953
  0
VERTEX
  8
LAYER_2
 10
128.3369
 20
35.9375
 42
-0.1009408553
  0
VERTEX
  8
LAYER_2
 10
128.1209
 20
35.9785
 42
-0.1036559164
  0
VERTEX
  8
LAYER_2
 10
127.9504
 20
36.0915
 42
-0.09812017057
  0
VERTEX
  8
LAYER_2
 10
127.8388
 20
36.2631
 42
-0.09232404316
  0
VERTEX
  8
LAYER_2
 10
127.7985
 20
36.4805
 42
-0.1041003847
  0
VERTEX
  8
LAYER_2
 10
127.8395
 20
36.6978
 42
-0.1007605982
  0
VERTEX
  8
LAYER_2
 10
127.9521
 20
36.8694
 42
-0.09536265516
  0
VERTEX
  8
LAYER_2
 10
128.123
 20
36.9824
 42
-0.09506675375
  0
VERTEX
  8
LAYER_2
 10
128.3369
 20
37.0234
  0
VERTEX
  8
LAYER_2
 10
128.4486
 20
37.0114
  0
VERTEX
  8
LAYER_2
 10
128.5516
 20
36.9779
  0
VERTEX
  8
LAYER_2
 10
128.6391
 20
36.9263
  0
VERTEX
  8
LAYER_2
 10
128.7049
 20
36.8584
  0
VERTEX
  8
LAYER_2
 10
128.6174
 20
36.794
  0
VERTEX
  8
LAYER_2
 10
128.574
 20
36.8439
  0
VERTEX
  8
LAYER_2
 10
128.5106
 20
36.8877
  0
VERTEX
  8
LAYER_2
 10
128.431
 20
36.9183
  0
VERTEX
  8
LAYER_2
 10
128.3383
 20
36.93
  0
VERTEX
  8
LAYER_2
 10
128.1581
 20
36.8935
  0
VERTEX
  8
LAYER_2
 10
128.0231
 20
36.7954
  0
VERTEX
  8
LAYER_2
 10
127.9383
 20
36.652
  0
VERTEX
  8
LAYER_2
 10
127.9094
 20
36.4805
  0
VERTEX
  8
LAYER_2
 10
127.9394
 20
36.3089
  0
VERTEX
  8
LAYER_2
 10
128.0248
 20
36.1656
  0
VERTEX
  8
LAYER_2
 10
128.1598
 20
36.0674
 42
0.1009931224
  0
VERTEX
  8
LAYER_2
 10
128.3383
 20
36.0309
  0
VERTEX
  8
LAYER_2
 10
128.5075
 20
36.0674
 42
0.1325349639
  0
VERTEX
  8
LAYER_2
 10
128.6418
 20
36.1842
  0
SEQEND
  0
ENDBLK
  0
BLOCK
  8
LAYER_2
  2
AIGNBL02030027
 70
64
 10
0
 20
0
 30
0
  3
AIGNBL02030027
  0
POLYLINE
  8
LAYER_2
 40
0.05
 41
0.05
 66
1
 10
0
 20
0
 30
0
 70
1
  0
VERTEX
  8
LAYER_2
 10
129.2109
 20
36.0574
  0
VERTEX
  8
LAYER_2
 10
129.7642
 20
36.0574
  0
VERTEX
  8
LAYER_2
 10
129.7642
 20
35.9637
  0
VERTEX
  8
LAYER_2
 10
129.1059
 20
35.9637
  0
VERTEX
  8
LAYER_2
 10
129.1059
 20
36.9969
  0
VERTEX
  8
LAYER_2
 10
129.7467
 20
36.9969
  0
VERTEX
  8
LAYER_2
 10
129.7467
 20
36.9035
  0
VERTEX
  8
LAYER_2
 10
129.2109
 20
36.9035
  0
VERTEX
  8
LAYER_2
 10
129.2109
 20
36.549
  0
VERTEX
  8
LAYER_2
 10
129.7115
 20
36.549
  0
VERTEX
  8
LAYER_2
 10
129.7115
 20
36.4557
  0
VERTEX
  8
LAYER_2
 10
129.2109
 20
36.4557
  0
SEQEND
  0
ENDBLK
  0
BLOCK
  8
LAYER_2
  2
AIGNBL02020004
 70
64
 10
0
 20
0
 30
0
  3
AIGNBL02020004
  0
POLYLINE
  8
LAYER_2
 40
0.05
 41
0.05
 66
1
 10
0
 20
0
 30
0
  0
VERTEX
  8
LAYER_2
 10
-1.196
 20
217.6012
 42
-0.07434374488
  0
VERTEX
  8
LAYER_2
 10
-1.3046
 20
216.4751
 42
-0.1312981164
  0
VERTEX
  8
LAYER_2
 10
-1.5732
 20
216.0054
 42
-0.208619006
  0
VERTEX
  8
LAYER_2
 10
-2.3408
 20
215.7164
 42
-0.1980855618
  0
VERTEX
  8
LAYER_2
 10
-3.0956
 20
216.0054
 42
-0.1359059684
  0
VERTEX
  8
LAYER_2
 10
-3.3746
 20
216.5106
 42
-0.06699191066
  0
VERTEX
  8
LAYER_2
 10
-3.4732
 20
217.6012
 42
-0.07470238595
  0
VERTEX
  8
LAYER_2
 10
-3.3644
 20
218.7157
 42
-0.1310826725
  0
VERTEX
  8
LAYER_2
 10
-3.0956
 20
219.1845
 42
-0.2061520596
  0
VERTEX
  8
LAYER_2
 10
-2.3408
 20
219.4732
 42
-0.1977437771
  0
VERTEX
  8
LAYER_2
 10
-1.5732
 20
219.1845
 42
-0.1358673357
  0
VERTEX
  8
LAYER_2
 10
-1.2943
 20
218.6804
 42
-0.06720044206
  0
VERTEX
  8
LAYER_2
 10
-1.196
 20
217.6012
  0
SEQEND
  0
POLYLINE
  8
LAYER_2
 40
0.05
 41
0.05
 66
1
 10
0
 20
0
 30
0
  0
VERTEX
  8
LAYER_2
 10
0.4394
 20
217.6012
 42
0.0577585355
  0
VERTEX
  8
LAYER_2
 10
0.3194
 20
218.9609
 42
0.1358747382
  0
VERTEX
  8
LAYER_2
 10
-0.303
 20
220.1395
 42
0.1777268905
  0
VERTEX
  8
LAYER_2
 10
-1.8892
 20
220.9154
 42
0.03495822391
  0
VERTEX
  8
LAYER_2
 10
-2.3408
 20
220.9436
 42
0.07961804251
  0
VERTEX
  8
LAYER_2
 10
-3.315
 20
220.7962
 42
0.1217450219
  0
VERTEX
  8
LAYER_2
 10
-4.3662
 20
220.1395
 42
0.09150776818
  0
VERTEX
  8
LAYER_2
 10
-4.8465
 20
219.4067
 42
0.07735978812
  0
VERTEX
  8
LAYER_2
 10
-5.0776
 20
218.3847
 42
0.03281807239
  0
VERTEX
  8
LAYER_2
 10
-5.1082
 20
217.6012
 42
0.05725233541
  0
VERTEX
  8
LAYER_2
 10
-4.9885
 20
216.2362
 42
0.1359864428
  0
VERTEX
  8
LAYER_2
 10
-4.3662
 20
215.0504
 42
0.175204158
  0
VERTEX
  8
LAYER_2
 10
-2.7508
 20
214.2702
 42
0.03231924249
  0
VERTEX
  8
LAYER_2
 10
-2.3408
 20
214.2463
 42
0.07899302184
  0
VERTEX
  8
LAYER_2
 10
-1.3625
 20
214.3937
 42
0.1216861451
  0
VERTEX
  8
LAYER_2
 10
-0.303
 20
215.0504
 42
0.09340304456
  0
VERTEX
  8
LAYER_2
 10
0.1681
 20
215.7463
 42
0.0774645698
  0
VERTEX
  8
LAYER_2
 10
0.4017
 20
216.7223
 42
0.02212089617
  0
VERTEX
  8
LAYER_2
 10
0.4394
 20
217.6012
  0
SEQEND
  0
POLYLINE
  8
LAYER_2
 40
0.05
 41
0.05
 66
1
 10
0
 20
0
 30
0
  0
VERTEX
  8
LAYER_2
 10
-11.3166
 20
218.2044
  0
VERTEX
  8
LAYER_2
 10
-13.8074
 20
218.2044
 42
-0.1153546446
  0
VERTEX
  8
LAYER_2
 10
-13.6562
 20
218.9079
 42
-0.3007040875
  0
VERTEX
  8
LAYER_2
 10
-12.562
 20
219.5866
 42
-0.1235431447
  0
VERTEX
  8
LAYER_2
 10
-11.9621
 20
219.4464
 42
-0.1667603161
  0
VERTEX
  8
LAYER_2
 10
-11.4672
 20
218.9079
 42
-0.1143399212
  0
VERTEX
  8
LAYER_2
 10
-11.3166
 20
218.2044
  0
SEQEND
  0
POLYLINE
  8
LAYER_2
 40
0.05
 41
0.05
 66
1
 10
0
 20
0
 30
0
 70
1
  0
VERTEX
  8
LAYER_2
 10
-9.7064
 20
217.0861
  0
VERTEX
  8
LAYER_2
 10
-9.7064
 20
217.7772
 42
0.0677042249
  0
VERTEX
  8
LAYER_2
 10
-9.852
 20
218.9102
 42
0.07767771487
  0
VERTEX
  8
LAYER_2
 10
-10.2392
 20
219.7789
 42
0.1724975422
  0
VERTEX
  8
LAYER_2
 10
-11.5857
 20
220.7996
 42
0.07776532921
  0
VERTEX
  8
LAYER_2
 10
-12.562
 20
220.9436
 42
0.0796960513
  0
VERTEX
  8
LAYER_2
 10
-13.5247
 20
220.7966
 42
0.168887661
  0
VERTEX
  8
LAYER_2
 10
-14.846
 20
219.7874
 42
0.07658055294
  0
VERTEX
  8
LAYER_2
 10
-15.2466
 20
218.9066
 42
0.07097127065
  0
VERTEX
  8
LAYER_2
 10
-15.4177
 20
217.6012
 42
0.05685454964
  0
VERTEX
  8
LAYER_2
 10
-15.2934
 20
216.4004
 42
0.07540481703
  0
VERTEX
  8
LAYER_2
 10
-14.9492
 20
215.5069
 42
0.1774924504
  0
VERTEX
  8
LAYER_2
 10
-13.6777
 20
214.4527
 42
0.08958127581
  0
VERTEX
  8
LAYER_2
 10
-12.386
 20
214.2463
 42
0.07080596686
  0
VERTEX
  8
LAYER_2
 10
-11.2943
 20
214.3814
 42
0.08369033087
  0
VERTEX
  8
LAYER_2
 10
-10.4805
 20
214.7708
 42
0.04417423811
  0
VERTEX
  8
LAYER_2
 10
-9.8948
 20
215.2768
  0
VERTEX
  8
LAYER_2
 10
-10.8887
 20
216.2442
 42
-0.09875545259
  0
VERTEX
  8
LAYER_2
 10
-11.5612
 20
215.7667
 42
-0.1006814841
  0
VERTEX
  8
LAYER_2
 10
-12.3732
 20
215.6285
 42
-0.1070981108
  0
VERTEX
  8
LAYER_2
 10
-13.0555
 20
215.7638
 42
-0.2542521374
  0
VERTEX
  8
LAYER_2
 10
-13.7778
 20
216.7415
 42
-0.04997815034
  0
VERTEX
  8
LAYER_2
 10
-13.8074
 20
217.0861
  0
SEQEND
  0
POLYLINE
  8
LAYER_2
 40
0.05
 41
0.05
 66
1
 10
0
 20
0
 30
0
 70
1
  0
VERTEX
  8
LAYER_2
 10
-16.9018
 20
223.2773
  0
VERTEX
  8
LAYER_2
 10
-18.5517
 20
223.2773
  0
VERTEX
  8
LAYER_2
 10
-18.5517
 20
221.9454
  0
VERTEX
  8
LAYER_2
 10
-16.9018
 20
221.9454
  0
SEQEND
  0
POLYLINE
  8
LAYER_2
 40
0.05
 41
0.05
 66
1
 10
0
 20
0
 30
0
 70
1
  0
VERTEX
  8
LAYER_2
 10
-16.9146
 20
220.79
  0
VERTEX
  8
LAYER_2
 10
-18.5499
 20
220.79
  0
VERTEX
  8
LAYER_2
 10
-18.5499
 20
214.3218
  0
VERTEX
  8
LAYER_2
 10
-16.9146
 20
214.3218
  0
SEQEND
  0
POLYLINE
  8
LAYER_2
 40
0.05
 41
0.05
 66
1
 10
0
 20
0
 30
0
  0
VERTEX
  8
LAYER_2
 10
-19.8205
 20
215.1386
  0
VERTEX
  8
LAYER_2
 10
-20.9274
 20
216.2317
 42
-0.1123773458
  0
VERTEX
  8
LAYER_2
 10
-21.5025
 20
215.8017
 42
-0.09517045223
  0
VERTEX
  8
LAYER_2
 10
-21.984
 20
215.7164
 42
-0.2295666259
  0
VERTEX
  8
LAYER_2
 10
-22.9149
 20
216.1436
 42
-0.1146247369
  0
VERTEX
  8
LAYER_2
 10
-23.2025
 20
216.7765
 42
-0.05302023055
  0
VERTEX
  8
LAYER_2
 10
-23.2797
 20
217.6012
 42
-0.07909887362
  0
VERTEX
  8
LAYER_2
 10
-23.1547
 20
218.5928
 42
-0.092262399
  0
VERTEX
  8
LAYER_2
 10
-22.9149
 20
219.0461
 42
-0.2338488836
  0
VERTEX
  8
LAYER_2
 10
-21.984
 20
219.4732
 42
-0.128883052
  0
VERTEX
  8
LAYER_2
 10
-21.3835
 20
219.3322
 42
-0.07812769659
  0
VERTEX
  8
LAYER_2
 10
-20.9274
 20
218.9585
  0
VERTEX
  8
LAYER_2
 10
-19.8205
 20
220.0637
 42
0.170273791
  0
VERTEX
  8
LAYER_2
 10
-21.4399
 20
220.9062
 42
0.04126809408
  0
VERTEX
  8
LAYER_2
 10
-21.984
 20
220.9436
 42
0.07342899762
  0
VERTEX
  8
LAYER_2
 10
-22.9625
 20
220.804
 42
0.1715306153
  0
VERTEX
  8
LAYER_2
 10
-24.3547
 20
219.7917
 42
0.07792315428
  0
VERTEX
  8
LAYER_2
 10
-24.7438
 20
218.9398
 42
0.07121572719
  0
VERTEX
  8
LAYER_2
 10
-24.9151
 20
217.6012
 42
0.06071119945
  0
VERTEX
  8
LAYER_2
 10
-24.7811
 20
216.4004
 42
0.07599045696
  0
VERTEX
  8
LAYER_2
 10
-24.4186
 20
215.5069
 42
0.1707838222
  0
VERTEX
  8
LAYER_2
 10
-23.1195
 20
214.4409
 42
0.08917342928
  0
VERTEX
  8
LAYER_2
 10
-21.984
 20
214.2463
 42
0.07667723183
  0
VERTEX
  8
LAYER_2
 10
-21.0013
 20
214.3855
 42
0.1303789466
  0
VERTEX
  8
LAYER_2
 10
-19.8205
 20
215.1386
  0
SEQEND
  0
ENDBLK
  0
BLOCK
  8
LAYER_2
  2
AIGNBL02020005
 70
64
 10
0
 20
0
 30
0
  3
AIGNBL02020005
  0
POLYLINE
  8
LAYER_2
 40
0.05
 41
0.05
 66
1
 10
0
 20
0
 30
0
 70
1
  0
VERTEX
  8
LAYER_2
 10
0.3288
 20
212.6805
  0
VERTEX
  8
LAYER_2
 10
0.0009
 20
212.6805
  0
VERTEX
  8
LAYER_2
 10
-0.2479
 20
211.9109
  0
VERTEX
  8
LAYER_2
 10
-0.5066
 20
212.6805
  0
VERTEX
  8
LAYER_2
 10
-0.8342
 20
212.6805
  0
VERTEX
  8
LAYER_2
 10
-0.4084
 20
211.5234
  0
VERTEX
  8
LAYER_2
 10
-0.4611
 20
211.3704
 42
-0.396721792
  0
VERTEX
  8
LAYER_2
 10
-0.6165
 20
211.2581
  0
VERTEX
  8
LAYER_2
 10
-0.6882
 20
211.2581
  0
VERTEX
  8
LAYER_2
 10
-0.6882
 20
210.9783
  0
VERTEX
  8
LAYER_2
 10
-0.5662
 20
210.9783
 42
0.2105921841
  0
VERTEX
  8
LAYER_2
 10
-0.2985
 20
211.0741
  0
VERTEX
  8
LAYER_2
 10
-0.2048
 20
211.2343
  0
SEQEND
  0
POLYLINE
  8
LAYER_2
 40
0.05
 41
0.05
 66
1
 10
0
 20
0
 30
0
 70
1
  0
VERTEX
  8
LAYER_2
 10
-0.8704
 20
211.4352
  0
VERTEX
  8
LAYER_2
 10
-0.8704
 20
211.6977
  0
VERTEX
  8
LAYER_2
 10
-0.9899
 20
211.6977
 42
-0.4758158184
  0
VERTEX
  8
LAYER_2
 10
-1.0998
 20
211.8103
  0
VERTEX
  8
LAYER_2
 10
-1.0998
 20
213.137
  0
VERTEX
  8
LAYER_2
 10
-1.4109
 20
213.137
  0
VERTEX
  8
LAYER_2
 10
-1.4109
 20
211.7914
 42
0.4199153803
  0
VERTEX
  8
LAYER_2
 10
-1.0475
 20
211.4352
  0
SEQEND
  0
POLYLINE
  8
LAYER_2
 40
0.05
 41
0.05
 66
1
 10
0
 20
0
 30
0
 70
1
  0
VERTEX
  8
LAYER_2
 10
-1.9739
 20
211.894
 42
-0.2612643935
  0
VERTEX
  8
LAYER_2
 10
-2.0214
 20
211.7363
 42
-0.1972145384
  0
VERTEX
  8
LAYER_2
 10
-2.2057
 20
211.6763
 42
-0.4351815088
  0
VERTEX
  8
LAYER_2
 10
-2.3949
 20
211.8175
 42
-0.4650020324
  0
VERTEX
  8
LAYER_2
 10
-2.2105
 20
211.9609
  0
VERTEX
  8
LAYER_2
 10
-1.9739
 20
211.9609
  0
SEQEND
  0
POLYLINE
  8
LAYER_2
 40
0.05
 41
0.05
 66
1
 10
0
 20
0
 30
0
 70
1
  0
VERTEX
  8
LAYER_2
 10
-1.6624
 20
211.4352
  0
VERTEX
  8
LAYER_2
 10
-1.6624
 20
212.2551
 42
0.2205564812
  0
VERTEX
  8
LAYER_2
 10
-1.7881
 20
212.5772
 42
0.1806009816
  0
VERTEX
  8
LAYER_2
 10
-2.194
 20
212.6947
 42
0.2375604919
  0
VERTEX
  8
LAYER_2
 10
-2.6412
 20
212.5179
  0
VERTEX
  8
LAYER_2
 10
-2.4452
 20
212.3243
 42
-0.2464065653
  0
VERTEX
  8
LAYER_2
 10
-2.2057
 20
212.4322
 42
-0.4684872669
  0
VERTEX
  8
LAYER_2
 10
-1.9739
 20
212.2358
  0
VERTEX
  8
LAYER_2
 10
-1.9739
 20
212.1738
  0
VERTEX
  8
LAYER_2
 10
-2.2633
 20
212.1738
 42
0.2103132122
  0
VERTEX
  8
LAYER_2
 10
-2.6081
 20
212.0486
 42
0.18506809
  0
VERTEX
  8
LAYER_2
 10
-2.6942
 20
211.8127
 42
0.1945609364
  0
VERTEX
  8
LAYER_2
 10
-2.5912
 20
211.533
 42
0.1980708175
  0
VERTEX
  8
LAYER_2
 10
-2.2729
 20
211.4228
 42
0.2246292991
  0
VERTEX
  8
LAYER_2
 10
-1.9663
 20
211.5426
  0
VERTEX
  8
LAYER_2
 10
-1.9663
 20
211.4352
  0
SEQEND
  0
POLYLINE
  8
LAYER_2
 40
0.05
 41
0.05
 66
1
 10
0
 20
0
 30
0
 70
1
  0
VERTEX
  8
LAYER_2
 10
-2.8758
 20
211.4352
  0
VERTEX
  8
LAYER_2
 10
-2.8758
 20
211.6977
  0
VERTEX
  8
LAYER_2
 10
-2.9884
 20
211.6977
 42
-0.4605815503
  0
VERTEX
  8
LAYER_2
 10
-3.0963
 20
211.8103
  0
VERTEX
  8
LAYER_2
 10
-3.0963
 20
212.4081
  0
VERTEX
  8
LAYER_2
 10
-2.8758
 20
212.4081
  0
VERTEX
  8
LAYER_2
 10
-2.8758
 20
212.6444
  0
VERTEX
  8
LAYER_2
 10
-3.0963
 20
212.6444
  0
VERTEX
  8
LAYER_2
 10
-3.0963
 20
213.0126
  0
VERTEX
  8
LAYER_2
 10
-3.407
 20
213.0126
  0
VERTEX
  8
LAYER_2
 10
-3.407
 20
212.6444
  0
VERTEX
  8
LAYER_2
 10
-3.539
 20
212.6444
  0
VERTEX
  8
LAYER_2
 10
-3.539
 20
212.4081
  0
VERTEX
  8
LAYER_2
 10
-3.407
 20
212.4081
  0
VERTEX
  8
LAYER_2
 10
-3.407
 20
211.7914
 42
0.4187763975
  0
VERTEX
  8
LAYER_2
 10
-3.0456
 20
211.4352
  0
SEQEND
  0
POLYLINE
  8
LAYER_2
 40
0.05
 41
0.05
 66
1
 10
0
 20
0
 30
0
 70
1
  0
VERTEX
  8
LAYER_2
 10
-3.8091
 20
213.137
  0
VERTEX
  8
LAYER_2
 10
-4.1419
 20
213.137
  0
VERTEX
  8
LAYER_2
 10
-4.1419
 20
211.4352
  0
VERTEX
  8
LAYER_2
 10
-3.8091
 20
211.4352
  0
SEQEND
  0
POLYLINE
  8
LAYER_2
 40
0.05
 41
0.05
 66
1
 10
0
 20
0
 30
0
 70
1
  0
VERTEX
  8
LAYER_2
 10
-5.0562
 20
211.4352
  0
VERTEX
  8
LAYER_2
 10
-5.0562
 20
212.231
 42
0.2135728393
  0
VERTEX
  8
LAYER_2
 10
-5.183
 20
212.5844
 42
0.1976836271
  0
VERTEX
  8
LAYER_2
 10
-5.4775
 20
212.6947
 42
0.2038428178
  0
VERTEX
  8
LAYER_2
 10
-5.7886
 20
212.5658
  0
VERTEX
  8
LAYER_2
 10
-5.7886
 20
212.6805
  0
VERTEX
  8
LAYER_2
 10
-6.0925
 20
212.6805
  0
VERTEX
  8
LAYER_2
 10
-6.0925
 20
211.4352
  0
VERTEX
  8
LAYER_2
 10
-5.7814
 20
211.4352
  0
VERTEX
  8
LAYER_2
 10
-5.7814
 20
212.1882
 42
-0.4265123439
  0
VERTEX
  8
LAYER_2
 10
-5.573
 20
212.4149
 42
-0.4361688158
  0
VERTEX
  8
LAYER_2
 10
-5.3673
 20
212.1882
  0
VERTEX
  8
LAYER_2
 10
-5.3673
 20
211.4352
  0
SEQEND
  0
POLYLINE
  8
LAYER_2
 40
0.05
 41
0.05
 66
1
 10
0
 20
0
 30
0
 70
1
  0
VERTEX
  8
LAYER_2
 10
-6.437
 20
213.1467
  0
VERTEX
  8
LAYER_2
 10
-6.7553
 20
213.1467
  0
VERTEX
  8
LAYER_2
 10
-6.7553
 20
212.8931
  0
VERTEX
  8
LAYER_2
 10
-6.437
 20
212.8931
  0
SEQEND
  0
POLYLINE
  8
LAYER_2
 40
0.05
 41
0.05
 66
1
 10
0
 20
0
 30
0
 70
1
  0
VERTEX
  8
LAYER_2
 10
-6.4394
 20
212.6444
  0
VERTEX
  8
LAYER_2
 10
-6.7508
 20
212.6444
  0
VERTEX
  8
LAYER_2
 10
-6.7508
 20
211.4352
  0
VERTEX
  8
LAYER_2
 10
-6.4394
 20
211.4352
  0
SEQEND
  0
POLYLINE
  8
LAYER_2
 40
0.05
 41
0.05
 66
1
 10
0
 20
0
 30
0
  0
VERTEX
  8
LAYER_2
 10
-7.8994
 20
212.1738
  0
VERTEX
  8
LAYER_2
 10
-8.3735
 20
212.1738
  0
VERTEX
  8
LAYER_2
 10
-8.3445
 20
212.3074
 42
-0.3006254692
  0
VERTEX
  8
LAYER_2
 10
-8.1365
 20
212.4363
 42
-0.3004502708
  0
VERTEX
  8
LAYER_2
 10
-7.9284
 20
212.3074
  0
VERTEX
  8
LAYER_2
 10
-7.8994
 20
212.1738
  0
SEQEND
  0
POLYLINE
  8
LAYER_2
 40
0.05
 41
0.05
 66
1
 10
0
 20
0
 30
0
 70
1
  0
VERTEX
  8
LAYER_2
 10
-7.5932
 20
211.9609
  0
VERTEX
  8
LAYER_2
 10
-7.5932
 20
212.0925
 42
0.1727949422
  0
VERTEX
  8
LAYER_2
 10
-7.7261
 20
212.5161
 42
0.2293242446
  0
VERTEX
  8
LAYER_2
 10
-8.1365
 20
212.6947
 42
0.4082688927
  0
VERTEX
  8
LAYER_2
 10
-8.6757
 20
212.151
 42
0.02665393029
  0
VERTEX
  8
LAYER_2
 10
-8.6797
 20
212.0591
 42
0.1685110564
  0
VERTEX
  8
LAYER_2
 10
-8.5537
 20
211.6061
 42
0.2404561047
  0
VERTEX
  8
LAYER_2
 10
-8.103
 20
211.4207
 42
0.2250390665
  0
VERTEX
  8
LAYER_2
 10
-7.629
 20
211.6167
  0
VERTEX
  8
LAYER_2
 10
-7.8181
 20
211.801
 42
-0.2242451699
  0
VERTEX
  8
LAYER_2
 10
-8.1003
 20
211.6839
 42
-0.4312737558
  0
VERTEX
  8
LAYER_2
 10
-8.3735
 20
211.9609
  0
SEQEND
  0
POLYLINE
  8
LAYER_2
 40
0.05
 41
0.05
 66
1
 10
0
 20
0
 30
0
  0
VERTEX
  8
LAYER_2
 10
-9.2778
 20
212.0591
 42
-0.253040373
  0
VERTEX
  8
LAYER_2
 10
-9.3737
 20
211.7317
 42
-0.1751487426
  0
VERTEX
  8
LAYER_2
 10
-9.4911
 20
211.7004
 42
-0.3550784466
  0
VERTEX
  8
LAYER_2
 10
-9.6774
 20
211.8331
 42
-0.1590539016
  0
VERTEX
  8
LAYER_2
 10
-9.7016
 20
212.0591
 42
-0.2613372193
  0
VERTEX
  8
LAYER_2
 10
-9.6054
 20
212.3859
 42
-0.1728730088
  0
VERTEX
  8
LAYER_2
 10
-9.4911
 20
212.4149
 42
-0.3508351005
  0
VERTEX
  8
LAYER_2
 10
-9.3031
 20
212.2839
 42
-0.1617280931
  0
VERTEX
  8
LAYER_2
 10
-9.2778
 20
212.0591
  0
SEQEND
  0
POLYLINE
  8
LAYER_2
 40
0.05
 41
0.05
 66
1
 10
0
 20
0
 30
0
 70
1
  0
VERTEX
  8
LAYER_2
 10
-8.9667
 20
211.4352
  0
VERTEX
  8
LAYER_2
 10
-8.9667
 20
213.137
  0
VERTEX
  8
LAYER_2
 10
-9.2778
 20
213.137
  0
VERTEX
  8
LAYER_2
 10
-9.2778
 20
212.5707
 42
0.2263222596
  0
VERTEX
  8
LAYER_2
 10
-9.582
 20
212.6947
 42
0.2021447193
  0
VERTEX
  8
LAYER_2
 10
-9.8835
 20
212.5824
 42
0.1955994833
  0
VERTEX
  8
LAYER_2
 10
-10.0116
 20
212.1647
 42
0.01858076917
  0
VERTEX
  8
LAYER_2
 10
-10.013
 20
212.0591
 42
0.1992737425
  0
VERTEX
  8
LAYER_2
 10
-9.8835
 20
211.533
 42
0.1967798833
  0
VERTEX
  8
LAYER_2
 10
-9.5796
 20
211.4207
 42
0.2329721531
  0
VERTEX
  8
LAYER_2
 10
-9.2709
 20
211.5523
  0
VERTEX
  8
LAYER_2
 10
-9.2709
 20
211.4352
  0
SEQEND
  0
POLYLINE
  8
LAYER_2
 40
0.05
 41
0.05
 66
1
 10
0
 20
0
 30
0
 70
1
  0
VERTEX
  8
LAYER_2
 10
-10.6062
 20
211.894
 42
-0.2606176184
  0
VERTEX
  8
LAYER_2
 10
-10.6541
 20
211.7363
 42
-0.1975146001
  0
VERTEX
  8
LAYER_2
 10
-10.8384
 20
211.6763
 42
-0.4358674545
  0
VERTEX
  8
LAYER_2
 10
-11.0272
 20
211.8175
 42
-0.4654392595
  0
VERTEX
  8
LAYER_2
 10
-10.8433
 20
211.9609
  0
VERTEX
  8
LAYER_2
 10
-10.6062
 20
211.9609
  0
SEQEND
  0
POLYLINE
  8
LAYER_2
 40
0.05
 41
0.05
 66
1
 10
0
 20
0
 30
0
 70
1
  0
VERTEX
  8
LAYER_2
 10
-10.2951
 20
211.4352
  0
VERTEX
  8
LAYER_2
 10
-10.2951
 20
212.2551
 42
0.2204713638
  0
VERTEX
  8
LAYER_2
 10
-10.4207
 20
212.5772
 42
0.1806796456
  0
VERTEX
  8
LAYER_2
 10
-10.8267
 20
212.6947
 42
0.2375604919
  0
VERTEX
  8
LAYER_2
 10
-11.2739
 20
212.5179
  0
VERTEX
  8
LAYER_2
 10
-11.0779
 20
212.3243
 42
-0.2460763492
  0
VERTEX
  8
LAYER_2
 10
-10.8384
 20
212.4322
 42
-0.4683426501
  0
VERTEX
  8
LAYER_2
 10
-10.6062
 20
212.2358
  0
VERTEX
  8
LAYER_2
 10
-10.6062
 20
212.1738
  0
VERTEX
  8
LAYER_2
 10
-10.896
 20
212.1738
 42
0.2105830771
  0
VERTEX
  8
LAYER_2
 10
-11.2407
 20
212.0486
 42
0.1847749138
  0
VERTEX
  8
LAYER_2
 10
-11.3266
 20
211.8127
 42
0.1946881207
  0
VERTEX
  8
LAYER_2
 10
-11.2239
 20
211.533
 42
0.1984095291
  0
VERTEX
  8
LAYER_2
 10
-10.9053
 20
211.4228
 42
0.2251045156
  0
VERTEX
  8
LAYER_2
 10
-10.599
 20
211.5426
  0
VERTEX
  8
LAYER_2
 10
-10.599
 20
211.4352
  0
SEQEND
  0
POLYLINE
  8
LAYER_2
 40
0.05
 41
0.05
 66
1
 10
0
 20
0
 30
0
 70
1
  0
VERTEX
  8
LAYER_2
 10
-11.5733
 20
211.4352
  0
VERTEX
  8
LAYER_2
 10
-11.5733
 20
212.231
 42
0.2096424971
  0
VERTEX
  8
LAYER_2
 10
-11.7097
 20
212.5844
 42
0.1904514856
  0
VERTEX
  8
LAYER_2
 10
-12.016
 20
212.6947
 42
0.2201014615
  0
VERTEX
  8
LAYER_2
 10
-12.3894
 20
212.5369
 42
0.2475119635
  0
VERTEX
  8
LAYER_2
 10
-12.7198
 20
212.6947
 42
0.1971786765
  0
VERTEX
  8
LAYER_2
 10
-13.0309
 20
212.5658
  0
VERTEX
  8
LAYER_2
 10
-13.0309
 20
212.6805
  0
VERTEX
  8
LAYER_2
 10
-13.3348
 20
212.6805
  0
VERTEX
  8
LAYER_2
 10
-13.3348
 20
211.4352
  0
VERTEX
  8
LAYER_2
 10
-13.0233
 20
211.4352
  0
VERTEX
  8
LAYER_2
 10
-13.0233
 20
212.1882
 42
-0.4265481482
  0
VERTEX
  8
LAYER_2
 10
-12.8153
 20
212.4149
 42
-0.4361688158
  0
VERTEX
  8
LAYER_2
 10
-12.6096
 20
212.1882
  0
VERTEX
  8
LAYER_2
 10
-12.6096
 20
211.4352
  0
VERTEX
  8
LAYER_2
 10
-12.2985
 20
211.4352
  0
VERTEX
  8
LAYER_2
 10
-12.2985
 20
212.1951
 42
-0.4236814191
  0
VERTEX
  8
LAYER_2
 10
-12.0904
 20
212.4149
 42
-0.4367319455
  0
VERTEX
  8
LAYER_2
 10
-11.8844
 20
212.1882
  0
VERTEX
  8
LAYER_2
 10
-11.8844
 20
211.4352
  0
SEQEND
  0
POLYLINE
  8
LAYER_2
 40
0.05
 41
0.05
 66
1
 10
0
 20
0
 30
0
  0
VERTEX
  8
LAYER_2
 10
-13.8973
 20
212.0229
 42
-0.2061577285
  0
VERTEX
  8
LAYER_2
 10
-14.0003
 20
211.6401
 42
-0.1860547104
  0
VERTEX
  8
LAYER_2
 10
-14.1915
 20
211.5736
 42
-0.2912351062
  0
VERTEX
  8
LAYER_2
 10
-14.4327
 20
211.7044
 42
-0.1074256356
  0
VERTEX
  8
LAYER_2
 10
-14.4882
 20
212.0229
 42
-0.2074793493
  0
VERTEX
  8
LAYER_2
 10
-14.3843
 20
212.406
 42
-0.1847812498
  0
VERTEX
  8
LAYER_2
 10
-14.1915
 20
212.4725
 42
-0.2924886932
  0
VERTEX
  8
LAYER_2
 10
-13.9523
 20
212.3416
 42
-0.1065173685
  0
VERTEX
  8
LAYER_2
 10
-13.8973
 20
212.0229
  0
SEQEND
  0
POLYLINE
  8
LAYER_2
 40
0.05
 41
0.05
 66
1
 10
0
 20
0
 30
0
 70
1
  0
VERTEX
  8
LAYER_2
 10
-13.7247
 20
211.4352
  0
VERTEX
  8
LAYER_2
 10
-13.7247
 20
213.137
  0
VERTEX
  8
LAYER_2
 10
-13.8973
 20
213.137
  0
VERTEX
  8
LAYER_2
 10
-13.8973
 20
212.4749
 42
0.2526586678
  0
VERTEX
  8
LAYER_2
 10
-14.2298
 20
212.6258
 42
0.19617536
  0
VERTEX
  8
LAYER_2
 10
-14.5171
 20
212.5224
 42
0.2062736322
  0
VERTEX
  8
LAYER_2
 10
-14.6608
 20
212.0229
 42
0.1925049638
  0
VERTEX
  8
LAYER_2
 10
-14.5171
 20
211.5234
 42
0.1893263809
  0
VERTEX
  8
LAYER_2
 10
-14.2298
 20
211.4207
 42
0.2549957718
  0
VERTEX
  8
LAYER_2
 10
-13.8949
 20
211.5761
  0
VERTEX
  8
LAYER_2
 10
-13.8949
 20
211.4352
  0
SEQEND
  0
POLYLINE
  8
LAYER_2
 40
0.05
 41
0.05
 66
1
 10
0
 20
0
 30
0
 70
1
  0
VERTEX
  8
LAYER_2
 10
-15.0173
 20
211.4352
  0
VERTEX
  8
LAYER_2
 10
-15.0173
 20
212.1882
 42
0.2089360908
  0
VERTEX
  8
LAYER_2
 10
-15.1393
 20
212.5156
 42
0.1977212202
  0
VERTEX
  8
LAYER_2
 10
-15.4411
 20
212.6258
 42
0.2189458741
  0
VERTEX
  8
LAYER_2
 10
-15.7711
 20
212.4818
  0
VERTEX
  8
LAYER_2
 10
-15.7711
 20
212.6113
  0
VERTEX
  8
LAYER_2
 10
-15.9434
 20
212.6113
  0
VERTEX
  8
LAYER_2
 10
-15.9434
 20
211.4352
  0
VERTEX
  8
LAYER_2
 10
-15.7711
 20
211.4352
  0
VERTEX
  8
LAYER_2
 10
-15.7711
 20
212.1593
 42
-0.4284576329
  0
VERTEX
  8
LAYER_2
 10
-15.479
 20
212.4725
 42
-0.4466039224
  0
VERTEX
  8
LAYER_2
 10
-15.1896
 20
212.1593
  0
VERTEX
  8
LAYER_2
 10
-15.1896
 20
211.4352
  0
SEQEND
  0
POLYLINE
  8
LAYER_2
 40
0.05
 41
0.05
 66
1
 10
0
 20
0
 30
0
 70
1
  0
VERTEX
  8
LAYER_2
 10
-16.5346
 20
211.8506
 42
-0.2283736068
  0
VERTEX
  8
LAYER_2
 10
-16.5945
 20
211.6477
 42
-0.1936527339
  0
VERTEX
  8
LAYER_2
 10
-16.8553
 20
211.5688
 42
-0.4421173513
  0
VERTEX
  8
LAYER_2
 10
-17.1281
 20
211.77
 42
-0.3470924647
  0
VERTEX
  8
LAYER_2
 10
-16.9968
 20
211.9592
 42
-0.1261120874
  0
VERTEX
  8
LAYER_2
 10
-16.8625
 20
211.9774
  0
VERTEX
  8
LAYER_2
 10
-16.5346
 20
211.9774
  0
SEQEND
  0
POLYLINE
  8
LAYER_2
 40
0.05
 41
0.05
 66
1
 10
0
 20
0
 30
0
 70
1
  0
VERTEX
  8
LAYER_2
 10
-16.362
 20
211.4352
  0
VERTEX
  8
LAYER_2
 10
-16.362
 20
212.233
 42
0.2383829599
  0
VERTEX
  8
LAYER_2
 10
-16.4898
 20
212.5337
 42
0.1599209503
  0
VERTEX
  8
LAYER_2
 10
-16.8336
 20
212.6258
 42
0.2578644009
  0
VERTEX
  8
LAYER_2
 10
-17.2501
 20
212.4487
  0
VERTEX
  8
LAYER_2
 10
-17.133
 20
212.3409
 42
-0.2730960706
  0
VERTEX
  8
LAYER_2
 10
-16.8364
 20
212.4776
 42
-0.4521672334
  0
VERTEX
  8
LAYER_2
 10
-16.5346
 20
212.2193
  0
VERTEX
  8
LAYER_2
 10
-16.5346
 20
212.1066
  0
VERTEX
  8
LAYER_2
 10
-16.8863
 20
212.1066
 42
0.2189203862
  0
VERTEX
  8
LAYER_2
 10
-17.2226
 20
211.9822
 42
0.17494127
  0
VERTEX
  8
LAYER_2
 10
-17.2956
 20
211.7673
 42
0.2075768001
  0
VERTEX
  8
LAYER_2
 10
-17.2071
 20
211.5282
 42
0.2128603639
  0
VERTEX
  8
LAYER_2
 10
-16.8742
 20
211.4207
 42
0.2247839487
  0
VERTEX
  8
LAYER_2
 10
-16.5346
 20
211.5471
  0
VERTEX
  8
LAYER_2
 10
-16.5346
 20
211.4352
  0
SEQEND
  0
POLYLINE
  8
LAYER_2
 40
0.05
 41
0.05
 66
1
 10
0
 20
0
 30
0
 70
1
  0
VERTEX
  8
LAYER_2
 10
-17.6211
 20
211.4352
  0
VERTEX
  8
LAYER_2
 10
-17.6211
 20
212.1903
 42
0.2163078196
  0
VERTEX
  8
LAYER_2
 10
-17.7538
 20
212.5281
 42
0.1798246735
  0
VERTEX
  8
LAYER_2
 10
-18.0449
 20
212.6258
 42
0.2190712165
  0
VERTEX
  8
LAYER_2
 10
-18.3749
 20
212.4818
  0
VERTEX
  8
LAYER_2
 10
-18.3749
 20
213.137
  0
VERTEX
  8
LAYER_2
 10
-18.5475
 20
213.137
  0
VERTEX
  8
LAYER_2
 10
-18.5475
 20
211.4352
  0
VERTEX
  8
LAYER_2
 10
-18.3749
 20
211.4352
  0
VERTEX
  8
LAYER_2
 10
-18.3749
 20
212.1617
 42
-0.4350388577
  0
VERTEX
  8
LAYER_2
 10
-18.0807
 20
212.4725
 42
-0.4517618327
  0
VERTEX
  8
LAYER_2
 10
-17.7934
 20
212.1617
  0
VERTEX
  8
LAYER_2
 10
-17.7934
 20
211.4352
  0
SEQEND
  0
ENDBLK
  0
BLOCK
  8
LAYER_2
  2
AIGNBL02020007
 70
64
 10
0
 20
0
 30
0
  3
AIGNBL02020007
  0
INSERT
  8
LAYER_2
  2
AIGNBL02030008
 10
0
 20
0
 30
0
  0
ENDBLK
  0
BLOCK
  8
LAYER_2
  2
AIGNBL02020010
 70
64
 10
0
 20
0
 30
0
  3
AIGNBL02020010
  0
INSERT
  8
LAYER_2
  2
AIGNBL02030011
 10
0
 20
0
 30
0
  0
INSERT
  8
LAYER_2
  2
AIGNBL02030012
 10
0
 20
0
 30
0
  0
INSERT
  8
LAYER_2
  2
AIGNBL02030013
 10
0
 20
0
 30
0
  0
INSERT
  8
LAYER_2
  2
AIGNBL02030014
 10
0
 20
0
 30
0
  0
INSERT
  8
LAYER_2
  2
AIGNBL02030015
 10
0
 20
0
 30
0
  0
INSERT
  8
LAYER_2
  2
AIGNBL02030016
 10
0
 20
0
 30
0
  0
INSERT
  8
LAYER_2
  2
AIGNBL02030017
 10
0
 20
0
 30
0
  0
INSERT
  8
LAYER_2
  2
AIGNBL02030018
 10
0
 20
0
 30
0
  0
INSERT
  8
LAYER_2
  2
AIGNBL02030019
 10
0
 20
0
 30
0
  0
INSERT
  8
LAYER_2
  2
AIGNBL0203001A
 10
0
 20
0
 30
0
  0
INSERT
  8
LAYER_2
  2
AIGNBL0203001B
 10
0
 20
0
 30
0
  0
INSERT
  8
LAYER_2
  2
AIGNBL0203001C
 10
0
 20
0
 30
0
  0
INSERT
  8
LAYER_2
  2
AIGNBL0203001D
 10
0
 20
0
 30
0
  0
INSERT
  8
LAYER_2
  2
AIGNBL0203001E
 10
0
 20
0
 30
0
  0
INSERT
  8
LAYER_2
  2
AIGNBL0203001F
 10
0
 20
0
 30
0
  0
INSERT
  8
LAYER_2
  2
AIGNBL02030020
 10
0
 20
0
 30
0
  0
INSERT
  8
LAYER_2
  2
AIGNBL02030021
 10
0
 20
0
 30
0
  0
INSERT
  8
LAYER_2
  2
AIGNBL02030022
 10
0
 20
0
 30
0
  0
INSERT
  8
LAYER_2
  2
AIGNBL02030023
 10
0
 20
0
 30
0
  0
INSERT
  8
LAYER_2
  2
AIGNBL02030024
 10
0
 20
0
 30
0
  0
INSERT
  8
LAYER_2
  2
AIGNBL02030025
 10
0
 20
0
 30
0
  0
INSERT
  8
LAYER_2
  2
AIGNBL02030026
 10
0
 20
0
 30
0
  0
INSERT
  8
LAYER_2
  2
AIGNBL02030027
 10
0
 20
0
 30
0
  0
ENDBLK
  0
BLOCK
  8
LAYER_2
  2
AIGNBL02010002
 70
64
 10
0
 20
0
 30
0
  3
AIGNBL02010002
  0
POLYLINE
  8
LAYER_2
 40
0.7056
 41
0.7056
 66
1
 10
0
 20
0
 30
0
 70
1
  0
VERTEX
  8
LAYER_2
 10
251.6749
 20
230.337
  0
VERTEX
  8
LAYER_2
 10
251.6749
 20
33.3285
  0
VERTEX
  8
LAYER_2
 10
-30.3177
 20
33.3285
  0
VERTEX
  8
LAYER_2
 10
-30.3177
 20
230.337
  0
SEQEND
  0
ENDBLK
  0
BLOCK
  8
LAYER_2
  2
AIGNBL02010003
 70
64
 10
0
 20
0
 30
0
  3
AIGNBL02010003
  0
INSERT
  8
LAYER_2
  2
AIGNBL02020004
 10
0
 20
0
 30
0
  0
POLYLINE
  8
LAYER_2
 40
0.05
 41
0.05
 66
1
 10
0
 20
0
 30
0
  0
VERTEX
  8
LAYER_2
 10
-6.457
 20
223.2684
  0
VERTEX
  8
LAYER_2
 10
-8.0924
 20
223.2684
  0
VERTEX
  8
LAYER_2
 10
-8.0924
 20
216.1939
 42
0.09304299953
  0
VERTEX
  8
LAYER_2
 10
-7.9518
 20
215.4241
 42
0.2872011141
  0
VERTEX
  8
LAYER_2
 10
-6.4597
 20
214.3359
  0
VERTEX
  8
LAYER_2
 10
-6.457
 20
223.2684
  0
SEQEND
  0
INSERT
  8
LAYER_2
  2
AIGNBL02020005
 10
0
 20
0
 30
0
  0
ENDBLK
  0
BLOCK
  8
LAYER_2
  2
AIGNBL02010006
 70
64
 10
0
 20
0
 30
0
  3
AIGNBL02010006
  0
INSERT
  8
LAYER_2
  2
AIGNBL02020007
 10
0
 20
0
 30
0
  0
INSERT
  8
LAYER_2
  2
AIGNBL02020010
 10
0
 20
0
 30
0
  0
ENDBLK
  0
BLOCK
  8
LAYER_2
  2
AIGNBL02010028
 70
64
 10
0
 20
0
 30
0
  3
AIGNBL02010028
  0
POLYLINE
  8
LAYER_2
  6
AIGENLINE001
 40
0.1376
 41
0.1376
 66
1
 10
0
 20
0
 30
0
 70
128
  0
VERTEX
  8
LAYER_2
 10
56.0766
 20
98.905
  0
VERTEX
  8
LAYER_2
 10
56.0766
 20
98.7223
  0
SEQEND
  0
POLYLINE
  8
LAYER_2
  6
AIGENLINE001
 40
0.1376
 41
0.1376
 66
1
 10
0
 20
0
 30
0
 70
128
  0
VERTEX
  8
LAYER_2
 10
56.351
 20
98.905
  0
VERTEX
  8
LAYER_2
 10
56.351
 20
98.7223
  0
SEQEND
  0
ENDBLK
  0
BLOCK
  8
LAYER_2
  2
AIGNBL02010029
 70
64
 10
0
 20
0
 30
0
  3
AIGNBL02010029
  0
POLYLINE
  8
LAYER_2
  6
AIGENLINE002
 40
0.1376
 41
0.1376
 66
1
 10
0
 20
0
 30
0
 70
128
  0
VERTEX
  8
LAYER_2
 10
56.351
 20
98.905
  0
VERTEX
  8
LAYER_2
 10
56.3433
 20
98.9092
  0
SEQEND
  0
POLYLINE
  8
LAYER_2
  6
AIGENLINE002
 40
0.1376
 41
0.1376
 66
1
 10
0
 20
0
 30
0
 70
128
  0
VERTEX
  8
LAYER_2
 10
56.0843
 20
98.9089
  0
VERTEX
  8
LAYER_2
 10
56.0766
 20
98.9047
  0
SEQEND
  0
ENDBLK
  0
BLOCK
  8
LAYER_2
  2
AIGNBL0201002A
 70
64
 10
0
 20
0
 30
0
  3
AIGNBL0201002A
  0
POLYLINE
  8
LAYER_2
  6
AIGENLINE001
 40
0.1376
 41
0.1376
 66
1
 10
0
 20
0
 30
0
 70
128
  0
VERTEX
  8
LAYER_2
 10
101.3612
 20
98.905
  0
VERTEX
  8
LAYER_2
 10
101.3612
 20
98.7223
  0
SEQEND
  0
POLYLINE
  8
LAYER_2
  6
AIGENLINE001
 40
0.1376
 41
0.1376
 66
1
 10
0
 20
0
 30
0
 70
128
  0
VERTEX
  8
LAYER_2
 10
101.636
 20
98.905
  0
VERTEX
  8
LAYER_2
 10
101.636
 20
98.7223
  0
SEQEND
  0
ENDBLK
  0
BLOCK
  8
LAYER_2
  2
AIGNBL0201002B
 70
64
 10
0
 20
0
 30
0
  3
AIGNBL0201002B
  0
POLYLINE
  8
LAYER_2
  6
AIGENLINE002
 40
0.1376
 41
0.1376
 66
1
 10
0
 20
0
 30
0
 70
128
  0
VERTEX
  8
LAYER_2
 10
101.636
 20
98.905
  0
VERTEX
  8
LAYER_2
 10
101.6283
 20
98.9092
  0
SEQEND
  0
POLYLINE
  8
LAYER_2
  6
AIGENLINE002
 40
0.1376
 41
0.1376
 66
1
 10
0
 20
0
 30
0
 70
128
  0
VERTEX
  8
LAYER_2
 10
101.369
 20
98.9089
  0
VERTEX
  8
LAYER_2
 10
101.3612
 20
98.9047
  0
SEQEND
  0
ENDBLK
  0
BLOCK
  8
LAYER_2
  2
AIGNBL0201002C
 70
64
 10
0
 20
0
 30
0
  3
AIGNBL0201002C
  0
POLYLINE
  8
LAYER_2
  6
AIGENLINE003
 40
0.1376
 41
0.1376
 66
1
 10
0
 20
0
 30
0
 70
128
  0
VERTEX
  8
LAYER_2
 10
160.697
 20
142.8202
 42
0.4142249361
  0
VERTEX
  8
LAYER_2
 10
160.5383
 20
142.6614
  0
SEQEND
  0
POLYLINE
  8
LAYER_2
  6
AIGENLINE003
 40
0.1376
 41
0.1376
 66
1
 10
0
 20
0
 30
0
 70
128
  0
VERTEX
  8
LAYER_2
 10
160.5379
 20
142.1044
 42
0.3929776075
  0
VERTEX
  8
LAYER_2
 10
160.697
 20
141.9457
  0
SEQEND
  0
ENDBLK
  0
BLOCK
  8
LAYER_2
  2
AIGNBL0201002D
 70
64
 10
0
 20
0
 30
0
  3
AIGNBL0201002D
  0
POLYLINE
  8
LAYER_2
  6
AIGENLINE003
 40
0.1376
 41
0.1376
 66
1
 10
0
 20
0
 30
0
 70
128
  0
VERTEX
  8
LAYER_2
 10
203.4936
 20
142.6614
 42
0.3927578966
  0
VERTEX
  8
LAYER_2
 10
203.3345
 20
142.8198
  0
SEQEND
  0
POLYLINE
  8
LAYER_2
  6
AIGENLINE003
 40
0.1376
 41
0.1376
 66
1
 10
0
 20
0
 30
0
 70
128
  0
VERTEX
  8
LAYER_2
 10
203.3345
 20
141.9453
 42
0.4142437676
  0
VERTEX
  8
LAYER_2
 10
203.4932
 20
142.1041
  0
SEQEND
  0
ENDBLK
  0
BLOCK
  8
LAYER_2
  2
AIGNBL0201002E
 70
64
 10
0
 20
0
 30
0
  3
AIGNBL0201002E
  0
POLYLINE
  8
LAYER_2
  6
AIGENLINE001
 40
0.1376
 41
0.1376
 66
1
 10
0
 20
0
 30
0
 70
128
  0
VERTEX
  8
LAYER_2
 10
175.7148
 20
98.9396
  0
VERTEX
  8
LAYER_2
 10
175.7148
 20
98.7572
  0
SEQEND
  0
POLYLINE
  8
LAYER_2
  6
AIGENLINE001
 40
0.1376
 41
0.1376
 66
1
 10
0
 20
0
 30
0
 70
128
  0
VERTEX
  8
LAYER_2
 10
175.9896
 20
98.9396
  0
VERTEX
  8
LAYER_2
 10
175.9896
 20
98.7572
  0
SEQEND
  0
ENDBLK
  0
BLOCK
  8
LAYER_2
  2
AIGNBL0201002F
 70
64
 10
0
 20
0
 30
0
  3
AIGNBL0201002F
  0
POLYLINE
  8
LAYER_2
  6
AIGENLINE002
 40
0.1376
 41
0.1376
 66
1
 10
0
 20
0
 30
0
 70
128
  0
VERTEX
  8
LAYER_2
 10
175.9896
 20
98.9396
  0
VERTEX
  8
LAYER_2
 10
175.9818
 20
98.9438
  0
SEQEND
  0
POLYLINE
  8
LAYER_2
  6
AIGENLINE002
 40
0.1376
 41
0.1376
 66
1
 10
0
 20
0
 30
0
 70
128
  0
VERTEX
  8
LAYER_2
 10
175.7226
 20
98.9438
  0
VERTEX
  8
LAYER_2
 10
175.7148
 20
98.9396
  0
SEQEND
  0
ENDBLK
  0
BLOCK
  8
LAYER_2
  2
AIGNBL02010030
 70
64
 10
0
 20
0
 30
0
  3
AIGNBL02010030
  0
POLYLINE
  8
LAYER_2
  6
AIGENLINE001
 40
0.1376
 41
0.1376
 66
1
 10
0
 20
0
 30
0
 70
128
  0
VERTEX
  8
LAYER_2
 10
188.442
 20
98.9396
  0
VERTEX
  8
LAYER_2
 10
188.442
 20
98.7572
  0
SEQEND
  0
POLYLINE
  8
LAYER_2
  6
AIGENLINE001
 40
0.1376
 41
0.1376
 66
1
 10
0
 20
0
 30
0
 70
128
  0
VERTEX
  8
LAYER_2
 10
188.7171
 20
98.9396
  0
VERTEX
  8
LAYER_2
 10
188.7171
 20
98.7572
  0
SEQEND
  0
ENDBLK
  0
BLOCK
  8
LAYER_2
  2
AIGNBL02010031
 70
64
 10
0
 20
0
 30
0
  3
AIGNBL02010031
  0
POLYLINE
  8
LAYER_2
  6
AIGENLINE002
 40
0.1376
 41
0.1376
 66
1
 10
0
 20
0
 30
0
 70
128
  0
VERTEX
  8
LAYER_2
 10
188.7171
 20
98.9396
  0
VERTEX
  8
LAYER_2
 10
188.7094
 20
98.9438
  0
SEQEND
  0
POLYLINE
  8
LAYER_2
  6
AIGENLINE002
 40
0.1376
 41
0.1376
 66
1
 10
0
 20
0
 30
0
 70
128
  0
VERTEX
  8
LAYER_2
 10
188.4501
 20
98.9438
  0
VERTEX
  8
LAYER_2
 10
188.4423
 20
98.9396
  0
SEQEND
  0
ENDBLK
  0
BLOCK
  8
LAYER_2
  2
AIGNBL02010032
 70
64
 10
0
 20
0
 30
0
  3
AIGNBL02010032
  0
CIRCLE
  8
LAYER_2
 10
101.4974
 20
192.5971
 40
2.815
  0
CIRCLE
  8
LAYER_2
 10
101.4904
 20
192.5971
 40
1.8295
  0
POLYLINE
  8
LAYER_2
 40
0.2787
 41
0.2787
 66
1
 10
0
 20
0
 30
0
  0
VERTEX
  8
LAYER_2
 10
122.0128
 20
171.8411
  0
VERTEX
  8
LAYER_2
 10
121.309
 20
171.1962
  0
SEQEND
  0
POLYLINE
  8
LAYER_2
 40
0.2787
 41
0.2787
 66
1
 10
0
 20
0
 30
0
  0
VERTEX
  8
LAYER_2
 10
120.8448
 20
173.1164
  0
VERTEX
  8
LAYER_2
 10
122.0128
 20
171.8411
  0
SEQEND
  0
POLYLINE
  8
LAYER_2
 40
0.2787
 41
0.2787
 66
1
 10
0
 20
0
 30
0
  0
VERTEX
  8
LAYER_2
 10
119.8835
 20
172.7527
  0
VERTEX
  8
LAYER_2
 10
121.309
 20
171.1962
  0
SEQEND
  0
CIRCLE
  8
LAYER_2
 10
55.3601
 20
192.5971
 40
2.815
  0
CIRCLE
  8
LAYER_2
 10
55.3527
 20
192.5971
 40
1.8297
  0
POLYLINE
  8
LAYER_2
 40
0.2787
 41
0.2787
 66
1
 10
0
 20
0
 30
0
  0
VERTEX
  8
LAYER_2
 10
119.3959
 20
172.71
 42
0.4142147606
  0
VERTEX
  8
LAYER_2
 10
122.1801
 20
175.4941
  0
SEQEND
  0
POLYLINE
  8
LAYER_2
 40
0.2787
 41
0.2787
 66
1
 10
0
 20
0
 30
0
  0
VERTEX
  8
LAYER_2
 10
122.1804
 20
212.8815
  0
VERTEX
  8
LAYER_2
 10
122.1804
 20
175.4941
  0
SEQEND
  0
POLYLINE
  8
LAYER_2
 40
0.2787
 41
0.2787
 66
1
 10
0
 20
0
 30
0
  0
VERTEX
  8
LAYER_2
 10
122.1804
 20
212.8815
 42
0.4142137043
  0
VERTEX
  8
LAYER_2
 10
119.3963
 20
215.6656
  0
SEQEND
  0
POLYLINE
  8
LAYER_2
 40
0.2787
 41
0.2787
 66
1
 10
0
 20
0
 30
0
  0
VERTEX
  8
LAYER_2
 10
119.3959
 20
172.71
  0
VERTEX
  8
LAYER_2
 10
37.4622
 20
172.71
  0
SEQEND
  0
CIRCLE
  8
LAYER_2
 10
55.3601
 20
192.5971
 40
13.9725
  0
CIRCLE
  8
LAYER_2
 10
55.3601
 20
192.5971
 40
15.1139
  0
POLYLINE
  8
LAYER_2
 40
0.2787
 41
0.2787
 66
1
 10
0
 20
0
 30
0
  0
VERTEX
  8
LAYER_2
 10
199.1759
 20
99.4673
  0
VERTEX
  8
LAYER_2
 10
165.2884
 20
99.4673
  0
SEQEND
  0
POLYLINE
  8
LAYER_2
 40
0.2787
 41
0.2787
 66
1
 10
0
 20
0
 30
0
  0
VERTEX
  8
LAYER_2
 10
164.1751
 20
100.2632
  0
VERTEX
  8
LAYER_2
 10
200.2893
 20
100.2632
  0
SEQEND
  0
POLYLINE
  8
LAYER_2
 40
0.2787
 41
0.2787
 66
1
 10
0
 20
0
 30
0
  0
VERTEX
  8
LAYER_2
 10
164.1751
 20
100.2632
 42
0.41420697
  0
VERTEX
  8
LAYER_2
 10
163.9362
 20
100.0244
  0
SEQEND
  0
POLYLINE
  8
LAYER_2
 40
0.2787
 41
0.2787
 66
1
 10
0
 20
0
 30
0
  0
VERTEX
  8
LAYER_2
 10
163.9366
 20
99.7062
  0
VERTEX
  8
LAYER_2
 10
163.9366
 20
100.0244
  0
SEQEND
  0
POLYLINE
  8
LAYER_2
 40
0.2787
 41
0.2787
 66
1
 10
0
 20
0
 30
0
  0
VERTEX
  8
LAYER_2
 10
163.9366
 20
99.7062
 42
0.3931324679
  0
VERTEX
  8
LAYER_2
 10
164.1751
 20
99.4673
  0
SEQEND
  0
POLYLINE
  8
LAYER_2
 40
0.2787
 41
0.2787
 66
1
 10
0
 20
0
 30
0
  0
VERTEX
  8
LAYER_2
 10
165.2888
 20
99.4673
  0
VERTEX
  8
LAYER_2
 10
164.1751
 20
99.4673
  0
SEQEND
  0
POLYLINE
  8
LAYER_2
 40
0.2787
 41
0.2787
 66
1
 10
0
 20
0
 30
0
  0
VERTEX
  8
LAYER_2
 10
165.5273
 20
99.2289
 42
0.392991036
  0
VERTEX
  8
LAYER_2
 10
165.2888
 20
99.4677
  0
SEQEND
  0
POLYLINE
  8
LAYER_2
 40
0.2787
 41
0.2787
 66
1
 10
0
 20
0
 30
0
  0
VERTEX
  8
LAYER_2
 10
200.5281
 20
100.0244
 42
0.4141732523
  0
VERTEX
  8
LAYER_2
 10
200.2893
 20
100.2632
  0
SEQEND
  0
POLYLINE
  8
LAYER_2
 40
0.2787
 41
0.2787
 66
1
 10
0
 20
0
 30
0
  0
VERTEX
  8
LAYER_2
 10
200.5281
 20
99.7062
  0
VERTEX
  8
LAYER_2
 10
200.5281
 20
100.0244
  0
SEQEND
  0
POLYLINE
  8
LAYER_2
 40
0.2787
 41
0.2787
 66
1
 10
0
 20
0
 30
0
  0
VERTEX
  8
LAYER_2
 10
200.2896
 20
99.4673
 42
0.3928986285
  0
VERTEX
  8
LAYER_2
 10
200.5281
 20
99.7062
  0
SEQEND
  0
POLYLINE
  8
LAYER_2
 40
0.2787
 41
0.2787
 66
1
 10
0
 20
0
 30
0
  0
VERTEX
  8
LAYER_2
 10
199.1759
 20
99.4673
  0
VERTEX
  8
LAYER_2
 10
200.2896
 20
99.4673
  0
SEQEND
  0
POLYLINE
  8
LAYER_2
 40
0.2787
 41
0.2787
 66
1
 10
0
 20
0
 30
0
  0
VERTEX
  8
LAYER_2
 10
199.1759
 20
99.4673
 42
0.3930225609
  0
VERTEX
  8
LAYER_2
 10
198.9371
 20
99.2289
  0
SEQEND
  0
POLYLINE
  8
LAYER_2
 40
0.2787
 41
0.2787
 66
1
 10
0
 20
0
 30
0
  0
VERTEX
  8
LAYER_2
 10
40.0086
 20
99.4673
  0
VERTEX
  8
LAYER_2
 10
116.8517
 20
99.4673
  0
SEQEND
  0
POLYLINE
  8
LAYER_2
 40
0.2787
 41
0.2787
 66
1
 10
0
 20
0
 30
0
 70
1
  0
VERTEX
  8
LAYER_2
 10
203.8488
 20
76.8762
  0
VERTEX
  8
LAYER_2
 10
204.2467
 20
76.8762
  0
VERTEX
  8
LAYER_2
 10
204.2467
 20
76.7618
  0
VERTEX
  8
LAYER_2
 10
203.8488
 20
76.7618
  0
SEQEND
  0
POLYLINE
  8
LAYER_2
 40
0.2787
 41
0.2787
 66
1
 10
0
 20
0
 30
0
 70
1
  0
VERTEX
  8
LAYER_2
 10
160.2268
 20
76.8762
  0
VERTEX
  8
LAYER_2
 10
160.6251
 20
76.8762
  0
VERTEX
  8
LAYER_2
 10
160.6251
 20
76.7618
  0
VERTEX
  8
LAYER_2
 10
160.2268
 20
76.7618
  0
SEQEND
  0
POLYLINE
  8
LAYER_2
 40
0.2787
 41
0.2787
 66
1
 10
0
 20
0
 30
0
  0
VERTEX
  8
LAYER_2
 10
187.6419
 20
99.0698
  0
VERTEX
  8
LAYER_2
 10
189.5109
 20
99.0698
  0
SEQEND
  0
POLYLINE
  8
LAYER_2
 40
0.2787
 41
0.2787
 66
1
 10
0
 20
0
 30
0
  0
VERTEX
  8
LAYER_2
 10
189.5109
 20
98.9106
  0
VERTEX
  8
LAYER_2
 10
187.6419
 20
98.9106
  0
SEQEND
  0
POLYLINE
  8
LAYER_2
 40
0.2787
 41
0.2787
 66
1
 10
0
 20
0
 30
0
  0
VERTEX
  8
LAYER_2
 10
187.6419
 20
99.0698
  0
VERTEX
  8
LAYER_2
 10
187.6419
 20
98.911
  0
SEQEND
  0
POLYLINE
  8
LAYER_2
 40
0.2787
 41
0.2787
 66
1
 10
0
 20
0
 30
0
  0
VERTEX
  8
LAYER_2
 10
189.5109
 20
99.0698
  0
VERTEX
  8
LAYER_2
 10
189.5109
 20
98.911
  0
SEQEND
  0
POLYLINE
  8
LAYER_2
 40
0.2787
 41
0.2787
 66
1
 10
0
 20
0
 30
0
  0
VERTEX
  8
LAYER_2
 10
188.5795
 20
96.6486
  0
VERTEX
  8
LAYER_2
 10
188.5795
 20
98.8757
  0
SEQEND
  0
POLYLINE
  8
LAYER_2
 40
0.2787
 41
0.2787
 66
1
 10
0
 20
0
 30
0
  0
VERTEX
  8
LAYER_2
 10
174.9143
 20
99.0698
  0
VERTEX
  8
LAYER_2
 10
176.7834
 20
99.0698
  0
SEQEND
  0
POLYLINE
  8
LAYER_2
 40
0.2787
 41
0.2787
 66
1
 10
0
 20
0
 30
0
  0
VERTEX
  8
LAYER_2
 10
202.606
 20
141.9453
  0
VERTEX
  8
LAYER_2
 10
202.6039
 20
141.9453
  0
SEQEND
  0
POLYLINE
  8
LAYER_2
 40
0.2787
 41
0.2787
 66
1
 10
0
 20
0
 30
0
  0
VERTEX
  8
LAYER_2
 10
199.4631
 20
141.9453
  0
VERTEX
  8
LAYER_2
 10
199.4624
 20
141.9453
  0
SEQEND
  0
POLYLINE
  8
LAYER_2
 40
0.2787
 41
0.2787
 66
1
 10
0
 20
0
 30
0
  0
VERTEX
  8
LAYER_2
 10
199.988
 20
141.9453
  0
VERTEX
  8
LAYER_2
 10
199.9774
 20
141.9453
  0
SEQEND
  0
POLYLINE
  8
LAYER_2
 40
0.2787
 41
0.2787
 66
1
 10
0
 20
0
 30
0
  0
VERTEX
  8
LAYER_2
 10
165.3671
 20
128.5888
 42
0.189250721
  0
VERTEX
  8
LAYER_2
 10
165.5855
 20
128.5017
  0
SEQEND
  0
POLYLINE
  8
LAYER_2
 40
0.2787
 41
0.2787
 66
1
 10
0
 20
0
 30
0
  0
VERTEX
  8
LAYER_2
 10
165.268
 20
128.8019
 42
0.1895552433
  0
VERTEX
  8
LAYER_2
 10
165.3675
 20
128.5884
  0
SEQEND
  0
POLYLINE
  8
LAYER_2
 40
0.2787
 41
0.2787
 66
1
 10
0
 20
0
 30
0
  0
VERTEX
  8
LAYER_2
 10
165.268
 20
128.8019
  0
VERTEX
  8
LAYER_2
 10
164.5702
 20
140.9914
  0
SEQEND
  0
POLYLINE
  8
LAYER_2
 40
0.2787
 41
0.2787
 66
1
 10
0
 20
0
 30
0
  0
VERTEX
  8
LAYER_2
 10
164.4901
 20
141.7866
 42
0.2564960486
  0
VERTEX
  8
LAYER_2
 10
164.222
 20
141.9453
  0
SEQEND
  0
POLYLINE
  8
LAYER_2
 40
0.2787
 41
0.2787
 66
1
 10
0
 20
0
 30
0
  0
VERTEX
  8
LAYER_2
 10
202.2772
 20
141.7866
  0
VERTEX
  8
LAYER_2
 10
202.2772
 20
141.9453
  0
SEQEND
  0
POLYLINE
  8
LAYER_2
 40
0.2787
 41
0.2787
 66
1
 10
0
 20
0
 30
0
  0
VERTEX
  8
LAYER_2
 10
202.6751
 20
141.7866
  0
VERTEX
  8
LAYER_2
 10
202.6751
 20
141.9453
  0
SEQEND
  0
POLYLINE
  8
LAYER_2
 40
0.2787
 41
0.2787
 66
1
 10
0
 20
0
 30
0
  0
VERTEX
  8
LAYER_2
 10
161.3102
 20
141.7866
  0
VERTEX
  8
LAYER_2
 10
161.3102
 20
141.9453
  0
SEQEND
  0
POLYLINE
  8
LAYER_2
 40
0.2787
 41
0.2787
 66
1
 10
0
 20
0
 30
0
  0
VERTEX
  8
LAYER_2
 10
161.7081
 20
141.7866
  0
VERTEX
  8
LAYER_2
 10
161.7081
 20
141.9453
  0
SEQEND
  0
POLYLINE
  8
LAYER_2
 40
0.2787
 41
0.2787
 66
1
 10
0
 20
0
 30
0
  0
VERTEX
  8
LAYER_2
 10
203.4936
 20
142.6614
 42
0.3927578966
  0
VERTEX
  8
LAYER_2
 10
203.3345
 20
142.8198
  0
SEQEND
  0
POLYLINE
  8
LAYER_2
 40
0.2787
 41
0.2787
 66
1
 10
0
 20
0
 30
0
  0
VERTEX
  8
LAYER_2
 10
160.697
 20
142.8202
 42
0.4142249361
  0
VERTEX
  8
LAYER_2
 10
160.5383
 20
142.6614
  0
SEQEND
  0
POLYLINE
  8
LAYER_2
 40
0.2787
 41
0.2787
 66
1
 10
0
 20
0
 30
0
  0
VERTEX
  8
LAYER_2
 10
160.5379
 20
142.1044
 42
0.3929776075
  0
VERTEX
  8
LAYER_2
 10
160.697
 20
141.9457
  0
SEQEND
  0
POLYLINE
  8
LAYER_2
 40
0.2787
 41
0.2787
 66
1
 10
0
 20
0
 30
0
  0
VERTEX
  8
LAYER_2
 10
203.3345
 20
141.9453
 42
0.4142437676
  0
VERTEX
  8
LAYER_2
 10
203.4932
 20
142.1041
  0
SEQEND
  0
POLYLINE
  8
LAYER_2
 40
0.2787
 41
0.2787
 66
1
 10
0
 20
0
 30
0
  0
VERTEX
  8
LAYER_2
 10
160.5379
 20
142.6614
  0
VERTEX
  8
LAYER_2
 10
160.5379
 20
142.1044
  0
SEQEND
  0
POLYLINE
  8
LAYER_2
 40
0.2787
 41
0.2787
 66
1
 10
0
 20
0
 30
0
  0
VERTEX
  8
LAYER_2
 10
203.4936
 20
142.6614
  0
VERTEX
  8
LAYER_2
 10
203.4936
 20
142.1044
  0
SEQEND
  0
POLYLINE
  8
LAYER_2
 40
0.2787
 41
0.2787
 66
1
 10
0
 20
0
 30
0
  0
VERTEX
  8
LAYER_2
 10
200.4234
 20
128.5017
  0
VERTEX
  8
LAYER_2
 10
165.5855
 20
128.5017
  0
SEQEND
  0
POLYLINE
  8
LAYER_2
 40
0.2787
 41
0.2787
 66
1
 10
0
 20
0
 30
0
  0
VERTEX
  8
LAYER_2
 10
201.2608
 20
128.5017
  0
VERTEX
  8
LAYER_2
 10
200.4237
 20
128.5017
  0
SEQEND
  0
POLYLINE
  8
LAYER_2
 40
0.2787
 41
0.2787
 66
1
 10
0
 20
0
 30
0
  0
VERTEX
  8
LAYER_2
 10
199.9263
 20
141.7866
  0
VERTEX
  8
LAYER_2
 10
199.934
 20
141.9453
  0
SEQEND
  0
POLYLINE
  8
LAYER_2
 40
0.2787
 41
0.2787
 66
1
 10
0
 20
0
 30
0
  0
VERTEX
  8
LAYER_2
 10
163.3221
 20
142.8202
  0
VERTEX
  8
LAYER_2
 10
160.697
 20
142.8202
  0
SEQEND
  0
POLYLINE
  8
LAYER_2
 40
0.2787
 41
0.2787
 66
1
 10
0
 20
0
 30
0
  0
VERTEX
  8
LAYER_2
 10
203.3345
 20
142.8202
  0
VERTEX
  8
LAYER_2
 10
200.7094
 20
142.8202
  0
VERTEX
  8
LAYER_2
 10
163.3217
 20
142.8202
  0
SEQEND
  0
POLYLINE
  8
LAYER_2
 40
0.2787
 41
0.2787
 66
1
 10
0
 20
0
 30
0
  0
VERTEX
  8
LAYER_2
 10
163.3221
 20
141.9453
  0
VERTEX
  8
LAYER_2
 10
160.697
 20
141.9453
  0
SEQEND
  0
POLYLINE
  8
LAYER_2
 40
0.2787
 41
0.2787
 66
1
 10
0
 20
0
 30
0
  0
VERTEX
  8
LAYER_2
 10
203.3345
 20
141.9453
  0
VERTEX
  8
LAYER_2
 10
200.7094
 20
141.9453
  0
VERTEX
  8
LAYER_2
 10
163.3217
 20
141.9453
  0
SEQEND
  0
POLYLINE
  8
LAYER_2
 40
0.2787
 41
0.2787
 66
1
 10
0
 20
0
 30
0
  0
VERTEX
  8
LAYER_2
 10
176.7837
 20
98.9106
  0
VERTEX
  8
LAYER_2
 10
174.9147
 20
98.9106
  0
SEQEND
  0
POLYLINE
  8
LAYER_2
 40
0.2787
 41
0.2787
 66
1
 10
0
 20
0
 30
0
  0
VERTEX
  8
LAYER_2
 10
174.9143
 20
99.0698
  0
VERTEX
  8
LAYER_2
 10
174.9143
 20
98.911
  0
SEQEND
  0
POLYLINE
  8
LAYER_2
 40
0.2787
 41
0.2787
 66
1
 10
0
 20
0
 30
0
  0
VERTEX
  8
LAYER_2
 10
176.7837
 20
99.0698
  0
VERTEX
  8
LAYER_2
 10
176.7837
 20
98.911
  0
SEQEND
  0
POLYLINE
  8
LAYER_2
 40
0.2787
 41
0.2787
 66
1
 10
0
 20
0
 30
0
  0
VERTEX
  8
LAYER_2
 10
175.8524
 20
96.6486
  0
VERTEX
  8
LAYER_2
 10
175.8524
 20
98.8757
  0
SEQEND
  0
POLYLINE
  8
LAYER_2
 40
0.2787
 41
0.2787
 66
1
 10
0
 20
0
 30
0
  0
VERTEX
  8
LAYER_2
 10
162.1819
 20
96.6486
  0
VERTEX
  8
LAYER_2
 10
202.2507
 20
96.6486
  0
SEQEND
  0
POLYLINE
  8
LAYER_2
 40
0.2787
 41
0.2787
 66
1
 10
0
 20
0
 30
0
  0
VERTEX
  8
LAYER_2
 10
202.1745
 20
99.0698
  0
VERTEX
  8
LAYER_2
 10
162.2577
 20
99.0698
  0
SEQEND
  0
POLYLINE
  8
LAYER_2
 40
0.2787
 41
0.2787
 66
1
 10
0
 20
0
 30
0
  0
VERTEX
  8
LAYER_2
 10
161.5518
 20
76.8762
  0
VERTEX
  8
LAYER_2
 10
159.7918
 20
76.8762
  0
SEQEND
  0
POLYLINE
  8
LAYER_2
 40
0.2787
 41
0.2787
 66
1
 10
0
 20
0
 30
0
  0
VERTEX
  8
LAYER_2
 10
159.7918
 20
76.8762
  0
VERTEX
  8
LAYER_2
 10
159.1473
 20
76.8762
  0
SEQEND
  0
POLYLINE
  8
LAYER_2
 40
0.2787
 41
0.2787
 66
1
 10
0
 20
0
 30
0
  0
VERTEX
  8
LAYER_2
 10
161.8337
 20
140.9914
  0
VERTEX
  8
LAYER_2
 10
159.7918
 20
76.8762
  0
SEQEND
  0
POLYLINE
  8
LAYER_2
 40
0.2787
 41
0.2787
 66
1
 10
0
 20
0
 30
0
  0
VERTEX
  8
LAYER_2
 10
161.1892
 20
140.9914
  0
VERTEX
  8
LAYER_2
 10
159.1473
 20
76.8762
  0
SEQEND
  0
POLYLINE
  8
LAYER_2
 40
0.2787
 41
0.2787
 66
1
 10
0
 20
0
 30
0
  0
VERTEX
  8
LAYER_2
 10
162.1819
 20
96.6486
  0
VERTEX
  8
LAYER_2
 10
161.5518
 20
76.8762
  0
SEQEND
  0
POLYLINE
  8
LAYER_2
 40
0.2787
 41
0.2787
 66
1
 10
0
 20
0
 30
0
  0
VERTEX
  8
LAYER_2
 10
163.5937
 20
140.9914
  0
VERTEX
  8
LAYER_2
 10
162.2574
 20
99.0698
  0
SEQEND
  0
POLYLINE
  8
LAYER_2
 40
0.2787
 41
0.2787
 66
1
 10
0
 20
0
 30
0
  0
VERTEX
  8
LAYER_2
 10
202.8804
 20
76.8762
  0
VERTEX
  8
LAYER_2
 10
204.6401
 20
76.8762
  0
SEQEND
  0
POLYLINE
  8
LAYER_2
 40
0.2787
 41
0.2787
 66
1
 10
0
 20
0
 30
0
  0
VERTEX
  8
LAYER_2
 10
204.6401
 20
76.8762
  0
VERTEX
  8
LAYER_2
 10
205.285
 20
76.8762
  0
SEQEND
  0
POLYLINE
  8
LAYER_2
 40
0.2787
 41
0.2787
 66
1
 10
0
 20
0
 30
0
  0
VERTEX
  8
LAYER_2
 10
202.5982
 20
141.547
  0
VERTEX
  8
LAYER_2
 10
204.6401
 20
77.4318
  0
SEQEND
  0
POLYLINE
  8
LAYER_2
 40
0.2787
 41
0.2787
 66
1
 10
0
 20
0
 30
0
  0
VERTEX
  8
LAYER_2
 10
203.2431
 20
141.547
  0
VERTEX
  8
LAYER_2
 10
205.2846
 20
77.4318
  0
SEQEND
  0
POLYLINE
  8
LAYER_2
 40
0.2787
 41
0.2787
 66
1
 10
0
 20
0
 30
0
  0
VERTEX
  8
LAYER_2
 10
202.2504
 20
96.6486
  0
VERTEX
  8
LAYER_2
 10
202.8804
 20
76.8762
  0
SEQEND
  0
POLYLINE
  8
LAYER_2
 40
0.2787
 41
0.2787
 66
1
 10
0
 20
0
 30
0
  0
VERTEX
  8
LAYER_2
 10
200.8382
 20
141.547
  0
VERTEX
  8
LAYER_2
 10
202.1749
 20
99.0701
  0
SEQEND
  0
POLYLINE
  8
LAYER_2
 40
0.2787
 41
0.2787
 66
1
 10
0
 20
0
 30
0
  0
VERTEX
  8
LAYER_2
 10
201.0838
 20
141.7866
  0
VERTEX
  8
LAYER_2
 10
203.4703
 20
141.7866
  0
SEQEND
  0
POLYLINE
  8
LAYER_2
 40
0.2787
 41
0.2787
 66
1
 10
0
 20
0
 30
0
  0
VERTEX
  8
LAYER_2
 10
201.0838
 20
140.9914
  0
VERTEX
  8
LAYER_2
 10
203.4703
 20
140.9914
  0
SEQEND
  0
POLYLINE
  8
LAYER_2
 40
0.2787
 41
0.2787
 66
1
 10
0
 20
0
 30
0
  0
VERTEX
  8
LAYER_2
 10
203.4703
 20
141.7866
  0
VERTEX
  8
LAYER_2
 10
203.4703
 20
140.9914
  0
SEQEND
  0
POLYLINE
  8
LAYER_2
 40
0.2787
 41
0.2787
 66
1
 10
0
 20
0
 30
0
  0
VERTEX
  8
LAYER_2
 10
162.9012
 20
140.9914
  0
VERTEX
  8
LAYER_2
 10
201.0838
 20
140.9914
  0
SEQEND
  0
POLYLINE
  8
LAYER_2
 40
0.2787
 41
0.2787
 66
1
 10
0
 20
0
 30
0
  0
VERTEX
  8
LAYER_2
 10
162.9012
 20
141.7866
  0
VERTEX
  8
LAYER_2
 10
201.0838
 20
141.7866
  0
SEQEND
  0
POLYLINE
  8
LAYER_2
 40
0.2787
 41
0.2787
 66
1
 10
0
 20
0
 30
0
  0
VERTEX
  8
LAYER_2
 10
160.9126
 20
141.7866
  0
VERTEX
  8
LAYER_2
 10
162.9015
 20
141.7866
  0
SEQEND
  0
POLYLINE
  8
LAYER_2
 40
0.2787
 41
0.2787
 66
1
 10
0
 20
0
 30
0
  0
VERTEX
  8
LAYER_2
 10
160.9126
 20
140.9914
  0
VERTEX
  8
LAYER_2
 10
162.9015
 20
140.9914
  0
SEQEND
  0
POLYLINE
  8
LAYER_2
 40
0.2787
 41
0.2787
 66
1
 10
0
 20
0
 30
0
  0
VERTEX
  8
LAYER_2
 10
160.9126
 20
140.9914
  0
VERTEX
  8
LAYER_2
 10
160.9126
 20
141.7866
  0
SEQEND
  0
POLYLINE
  8
LAYER_2
 40
0.2787
 41
0.2787
 66
1
 10
0
 20
0
 30
0
  0
VERTEX
  8
LAYER_2
 10
118.2039
 20
100.0244
 42
0.3931059201
  0
VERTEX
  8
LAYER_2
 10
117.9654
 20
100.2632
  0
SEQEND
  0
POLYLINE
  8
LAYER_2
 40
0.2787
 41
0.2787
 66
1
 10
0
 20
0
 30
0
  0
VERTEX
  8
LAYER_2
 10
118.2039
 20
99.7062
  0
VERTEX
  8
LAYER_2
 10
118.2039
 20
100.0244
  0
SEQEND
  0
POLYLINE
  8
LAYER_2
 40
0.2787
 41
0.2787
 66
1
 10
0
 20
0
 30
0
  0
VERTEX
  8
LAYER_2
 10
117.9654
 20
99.4673
 42
0.393210772
  0
VERTEX
  8
LAYER_2
 10
118.2036
 20
99.7062
  0
SEQEND
  0
POLYLINE
  8
LAYER_2
 40
0.2787
 41
0.2787
 66
1
 10
0
 20
0
 30
0
  0
VERTEX
  8
LAYER_2
 10
116.8517
 20
99.4673
  0
VERTEX
  8
LAYER_2
 10
117.9654
 20
99.4673
  0
SEQEND
  0
POLYLINE
  8
LAYER_2
 40
0.2787
 41
0.2787
 66
1
 10
0
 20
0
 30
0
  0
VERTEX
  8
LAYER_2
 10
116.8517
 20
99.4673
 42
0.4141523214
  0
VERTEX
  8
LAYER_2
 10
116.6132
 20
99.2289
  0
SEQEND
  0
POLYLINE
  8
LAYER_2
 40
0.2787
 41
0.2787
 66
1
 10
0
 20
0
 30
0
  0
VERTEX
  8
LAYER_2
 10
116.6129
 20
99.0698
  0
VERTEX
  8
LAYER_2
 10
116.6129
 20
99.2285
  0
SEQEND
  0
POLYLINE
  8
LAYER_2
 40
0.2787
 41
0.2787
 66
1
 10
0
 20
0
 30
0
  0
VERTEX
  8
LAYER_2
 10
40.2474
 20
99.0698
  0
VERTEX
  8
LAYER_2
 10
116.6129
 20
99.0698
  0
SEQEND
  0
POLYLINE
  8
LAYER_2
 40
0.2787
 41
0.2787
 66
1
 10
0
 20
0
 30
0
  0
VERTEX
  8
LAYER_2
 10
117.9654
 20
100.2632
  0
VERTEX
  8
LAYER_2
 10
38.8949
 20
100.2632
  0
SEQEND
  0
POLYLINE
  8
LAYER_2
 40
0.2787
 41
0.2787
 66
1
 10
0
 20
0
 30
0
  0
VERTEX
  8
LAYER_2
 10
38.8949
 20
100.2632
 42
0.3928155396
  0
VERTEX
  8
LAYER_2
 10
38.6564
 20
100.0244
  0
SEQEND
  0
POLYLINE
  8
LAYER_2
 40
0.2787
 41
0.2787
 66
1
 10
0
 20
0
 30
0
  0
VERTEX
  8
LAYER_2
 10
38.6564
 20
99.7062
  0
VERTEX
  8
LAYER_2
 10
38.6564
 20
100.0244
  0
SEQEND
  0
POLYLINE
  8
LAYER_2
 40
0.2787
 41
0.2787
 66
1
 10
0
 20
0
 30
0
  0
VERTEX
  8
LAYER_2
 10
38.6564
 20
99.7062
 42
0.4142278901
  0
VERTEX
  8
LAYER_2
 10
38.8952
 20
99.4673
  0
SEQEND
  0
POLYLINE
  8
LAYER_2
 40
0.2787
 41
0.2787
 66
1
 10
0
 20
0
 30
0
  0
VERTEX
  8
LAYER_2
 10
40.0086
 20
99.4673
  0
VERTEX
  8
LAYER_2
 10
38.8949
 20
99.4673
  0
SEQEND
  0
POLYLINE
  8
LAYER_2
 40
0.2787
 41
0.2787
 66
1
 10
0
 20
0
 30
0
  0
VERTEX
  8
LAYER_2
 10
40.2474
 20
99.2289
 42
0.4141487471
  0
VERTEX
  8
LAYER_2
 10
40.0086
 20
99.4677
  0
SEQEND
  0
POLYLINE
  8
LAYER_2
 40
0.2787
 41
0.2787
 66
1
 10
0
 20
0
 30
0
  0
VERTEX
  8
LAYER_2
 10
40.2474
 20
99.0698
  0
VERTEX
  8
LAYER_2
 10
40.2474
 20
99.2285
  0
SEQEND
  0
POLYLINE
  8
LAYER_2
 40
0.2787
 41
0.2787
 66
1
 10
0
 20
0
 30
0
  0
VERTEX
  8
LAYER_2
 10
37.8309
 20
96.6486
  0
VERTEX
  8
LAYER_2
 10
119.0294
 20
96.6486
  0
SEQEND
  0
POLYLINE
  8
LAYER_2
 40
0.2787
 41
0.2787
 66
1
 10
0
 20
0
 30
0
  0
VERTEX
  8
LAYER_2
 10
37.9046
 20
99.0698
  0
VERTEX
  8
LAYER_2
 10
118.9557
 20
99.0698
  0
SEQEND
  0
POLYLINE
  8
LAYER_2
 40
0.2787
 41
0.2787
 66
1
 10
0
 20
0
 30
0
  0
VERTEX
  8
LAYER_2
 10
91.5519
 20
141.9453
  0
VERTEX
  8
LAYER_2
 10
91.5455
 20
141.9453
  0
SEQEND
  0
POLYLINE
  8
LAYER_2
 40
0.2787
 41
0.2787
 66
1
 10
0
 20
0
 30
0
  0
VERTEX
  8
LAYER_2
 10
112.0719
 20
141.9453
  0
VERTEX
  8
LAYER_2
 10
112.0709
 20
141.9453
  0
VERTEX
  8
LAYER_2
 10
112.0698
 20
141.9453
  0
SEQEND
  0
POLYLINE
  8
LAYER_2
 40
0.2787
 41
0.2787
 66
1
 10
0
 20
0
 30
0
  0
VERTEX
  8
LAYER_2
 10
116.0004
 20
128.5846
 42
0.1857977454
  0
VERTEX
  8
LAYER_2
 10
116.1035
 20
128.7892
  0
SEQEND
  0
POLYLINE
  8
LAYER_2
 40
0.2787
 41
0.2787
 66
1
 10
0
 20
0
 30
0
  0
VERTEX
  8
LAYER_2
 10
115.7867
 20
128.502
 42
0.1866320942
  0
VERTEX
  8
LAYER_2
 10
116.0004
 20
128.5846
  0
SEQEND
  0
POLYLINE
  8
LAYER_2
 40
0.2787
 41
0.2787
 66
1
 10
0
 20
0
 30
0
  0
VERTEX
  8
LAYER_2
 10
117.3128
 20
140.9914
  0
VERTEX
  8
LAYER_2
 10
116.1031
 20
128.7892
  0
SEQEND
  0
POLYLINE
  8
LAYER_2
 40
0.2787
 41
0.2787
 66
1
 10
0
 20
0
 30
0
  0
VERTEX
  8
LAYER_2
 10
117.6867
 20
141.9453
 42
0.2607112117
  0
VERTEX
  8
LAYER_2
 10
117.4204
 20
141.7869
  0
SEQEND
  0
POLYLINE
  8
LAYER_2
 40
0.2787
 41
0.2787
 66
1
 10
0
 20
0
 30
0
  0
VERTEX
  8
LAYER_2
 10
65.3059
 20
141.9453
  0
VERTEX
  8
LAYER_2
 10
65.3119
 20
141.9453
  0
SEQEND
  0
POLYLINE
  8
LAYER_2
 40
0.2787
 41
0.2787
 66
1
 10
0
 20
0
 30
0
  0
VERTEX
  8
LAYER_2
 10
44.787
 20
141.9453
  0
VERTEX
  8
LAYER_2
 10
44.788
 20
141.9453
  0
SEQEND
  0
POLYLINE
  8
LAYER_2
 40
0.2787
 41
0.2787
 66
1
 10
0
 20
0
 30
0
  0
VERTEX
  8
LAYER_2
 10
44.7863
 20
141.9453
  0
VERTEX
  8
LAYER_2
 10
44.787
 20
141.9453
  0
SEQEND
  0
POLYLINE
  8
LAYER_2
 40
0.2787
 41
0.2787
 66
1
 10
0
 20
0
 30
0
  0
VERTEX
  8
LAYER_2
 10
39.1693
 20
141.9453
  0
VERTEX
  8
LAYER_2
 10
39.1707
 20
141.9453
  0
SEQEND
  0
POLYLINE
  8
LAYER_2
 40
0.2787
 41
0.2787
 66
1
 10
0
 20
0
 30
0
  0
VERTEX
  8
LAYER_2
 10
40.7547
 20
128.7892
 42
0.1857416894
  0
VERTEX
  8
LAYER_2
 10
40.8577
 20
128.5846
  0
SEQEND
  0
POLYLINE
  8
LAYER_2
 40
0.2787
 41
0.2787
 66
1
 10
0
 20
0
 30
0
  0
VERTEX
  8
LAYER_2
 10
40.8577
 20
128.5846
 42
0.185847028
  0
VERTEX
  8
LAYER_2
 10
41.0715
 20
128.502
  0
SEQEND
  0
POLYLINE
  8
LAYER_2
 40
0.2787
 41
0.2787
 66
1
 10
0
 20
0
 30
0
  0
VERTEX
  8
LAYER_2
 10
40.7547
 20
128.7892
  0
VERTEX
  8
LAYER_2
 10
39.5454
 20
140.9914
  0
SEQEND
  0
POLYLINE
  8
LAYER_2
 40
0.2787
 41
0.2787
 66
1
 10
0
 20
0
 30
0
  0
VERTEX
  8
LAYER_2
 10
39.4378
 20
141.7869
 42
0.2604078981
  0
VERTEX
  8
LAYER_2
 10
39.1704
 20
141.9453
  0
SEQEND
  0
POLYLINE
  8
LAYER_2
 40
0.2787
 41
0.2787
 66
1
 10
0
 20
0
 30
0
  0
VERTEX
  8
LAYER_2
 10
39.1711
 20
141.9453
  0
VERTEX
  8
LAYER_2
 10
39.1746
 20
141.9453
  0
SEQEND
  0
POLYLINE
  8
LAYER_2
 40
0.2787
 41
0.2787
 66
1
 10
0
 20
0
 30
0
  0
VERTEX
  8
LAYER_2
 10
37.2633
 20
141.7869
  0
VERTEX
  8
LAYER_2
 10
37.2633
 20
141.9453
  0
SEQEND
  0
POLYLINE
  8
LAYER_2
 40
0.2787
 41
0.2787
 66
1
 10
0
 20
0
 30
0
  0
VERTEX
  8
LAYER_2
 10
119.5949
 20
141.7869
  0
VERTEX
  8
LAYER_2
 10
119.5949
 20
141.9453
  0
SEQEND
  0
POLYLINE
  8
LAYER_2
 40
0.2787
 41
0.2787
 66
1
 10
0
 20
0
 30
0
  0
VERTEX
  8
LAYER_2
 10
122.1804
 20
142.6614
 42
0.3922343182
  0
VERTEX
  8
LAYER_2
 10
122.0213
 20
142.8202
  0
SEQEND
  0
POLYLINE
  8
LAYER_2
 40
0.2787
 41
0.2787
 66
1
 10
0
 20
0
 30
0
  0
VERTEX
  8
LAYER_2
 10
122.021
 20
141.9453
 42
0.4141195388
  0
VERTEX
  8
LAYER_2
 10
122.1801
 20
142.1044
  0
SEQEND
  0
POLYLINE
  8
LAYER_2
 40
0.2787
 41
0.2787
 66
1
 10
0
 20
0
 30
0
  0
VERTEX
  8
LAYER_2
 10
122.1804
 20
142.6614
  0
VERTEX
  8
LAYER_2
 10
122.1804
 20
142.1048
  0
SEQEND
  0
POLYLINE
  8
LAYER_2
 40
0.2787
 41
0.2787
 66
1
 10
0
 20
0
 30
0
  0
VERTEX
  8
LAYER_2
 10
115.7867
 20
128.502
  0
VERTEX
  8
LAYER_2
 10
78.4289
 20
128.502
  0
SEQEND
  0
POLYLINE
  8
LAYER_2
 40
0.2787
 41
0.2787
 66
1
 10
0
 20
0
 30
0
  0
VERTEX
  8
LAYER_2
 10
122.021
 20
142.8205
  0
VERTEX
  8
LAYER_2
 10
119.3959
 20
142.8205
  0
SEQEND
  0
POLYLINE
  8
LAYER_2
 40
0.2787
 41
0.2787
 66
1
 10
0
 20
0
 30
0
  0
VERTEX
  8
LAYER_2
 10
119.3959
 20
142.8205
  0
VERTEX
  8
LAYER_2
 10
78.4289
 20
142.8205
  0
SEQEND
  0
POLYLINE
  8
LAYER_2
 40
0.2787
 41
0.2787
 66
1
 10
0
 20
0
 30
0
  0
VERTEX
  8
LAYER_2
 10
122.021
 20
141.9453
  0
VERTEX
  8
LAYER_2
 10
119.3959
 20
141.9453
  0
VERTEX
  8
LAYER_2
 10
78.4289
 20
141.9453
  0
SEQEND
  0
POLYLINE
  8
LAYER_2
 40
0.2787
 41
0.2787
 66
1
 10
0
 20
0
 30
0
  0
VERTEX
  8
LAYER_2
 10
34.8369
 20
142.8205
 42
0.39242794
  0
VERTEX
  8
LAYER_2
 10
34.6778
 20
142.6618
  0
SEQEND
  0
POLYLINE
  8
LAYER_2
 40
0.2787
 41
0.2787
 66
1
 10
0
 20
0
 30
0
  0
VERTEX
  8
LAYER_2
 10
34.6778
 20
142.1048
 42
0.4143451213
  0
VERTEX
  8
LAYER_2
 10
34.8369
 20
141.9457
  0
SEQEND
  0
POLYLINE
  8
LAYER_2
 40
0.2787
 41
0.2787
 66
1
 10
0
 20
0
 30
0
  0
VERTEX
  8
LAYER_2
 10
34.6778
 20
142.6614
  0
VERTEX
  8
LAYER_2
 10
34.6778
 20
142.1048
  0
SEQEND
  0
POLYLINE
  8
LAYER_2
 40
0.2787
 41
0.2787
 66
1
 10
0
 20
0
 30
0
  0
VERTEX
  8
LAYER_2
 10
41.0715
 20
128.502
  0
VERTEX
  8
LAYER_2
 10
78.4289
 20
128.502
  0
SEQEND
  0
POLYLINE
  8
LAYER_2
 40
0.2787
 41
0.2787
 66
1
 10
0
 20
0
 30
0
  0
VERTEX
  8
LAYER_2
 10
34.8369
 20
142.8205
  0
VERTEX
  8
LAYER_2
 10
37.4619
 20
142.8205
  0
SEQEND
  0
POLYLINE
  8
LAYER_2
 40
0.2787
 41
0.2787
 66
1
 10
0
 20
0
 30
0
  0
VERTEX
  8
LAYER_2
 10
37.4619
 20
142.8205
  0
VERTEX
  8
LAYER_2
 10
78.4286
 20
142.8205
  0
SEQEND
  0
POLYLINE
  8
LAYER_2
 40
0.2787
 41
0.2787
 66
1
 10
0
 20
0
 30
0
  0
VERTEX
  8
LAYER_2
 10
37.4619
 20
141.9453
  0
VERTEX
  8
LAYER_2
 10
78.4286
 20
141.9453
  0
SEQEND
  0
POLYLINE
  8
LAYER_2
 40
0.2787
 41
0.2787
 66
1
 10
0
 20
0
 30
0
  0
VERTEX
  8
LAYER_2
 10
34.8369
 20
141.9453
  0
VERTEX
  8
LAYER_2
 10
37.4619
 20
141.9453
  0
SEQEND
  0
POLYLINE
  8
LAYER_2
 40
0.2787
 41
0.2787
 66
1
 10
0
 20
0
 30
0
  0
VERTEX
  8
LAYER_2
 10
99.5688
 20
96.6486
  0
VERTEX
  8
LAYER_2
 10
99.5688
 20
99.0698
  0
SEQEND
  0
POLYLINE
  8
LAYER_2
 40
0.2787
 41
0.2787
 66
1
 10
0
 20
0
 30
0
  0
VERTEX
  8
LAYER_2
 10
57.1511
 20
96.6486
  0
VERTEX
  8
LAYER_2
 10
57.1511
 20
99.0698
  0
SEQEND
  0
POLYLINE
  8
LAYER_2
 40
0.2787
 41
0.2787
 66
1
 10
0
 20
0
 30
0
  0
VERTEX
  8
LAYER_2
 10
34.8983
 20
76.8762
  0
VERTEX
  8
LAYER_2
 10
35.6024
 20
76.8762
  0
SEQEND
  0
POLYLINE
  8
LAYER_2
 40
0.2787
 41
0.2787
 66
1
 10
0
 20
0
 30
0
  0
VERTEX
  8
LAYER_2
 10
36.8809
 20
140.9914
  0
VERTEX
  8
LAYER_2
 10
34.8983
 20
76.8762
  0
SEQEND
  0
POLYLINE
  8
LAYER_2
 40
0.2787
 41
0.2787
 66
1
 10
0
 20
0
 30
0
  0
VERTEX
  8
LAYER_2
 10
35.602
 20
76.8762
  0
VERTEX
  8
LAYER_2
 10
37.2139
 20
76.8762
  0
SEQEND
  0
POLYLINE
  8
LAYER_2
 40
0.2787
 41
0.2787
 66
1
 10
0
 20
0
 30
0
  0
VERTEX
  8
LAYER_2
 10
37.5847
 20
140.9914
  0
VERTEX
  8
LAYER_2
 10
35.602
 20
76.8762
  0
SEQEND
  0
POLYLINE
  8
LAYER_2
 40
0.2787
 41
0.2787
 66
1
 10
0
 20
0
 30
0
  0
VERTEX
  8
LAYER_2
 10
37.8298
 20
96.6836
  0
VERTEX
  8
LAYER_2
 10
37.2139
 20
76.8762
  0
SEQEND
  0
POLYLINE
  8
LAYER_2
 40
0.2787
 41
0.2787
 66
1
 10
0
 20
0
 30
0
  0
VERTEX
  8
LAYER_2
 10
39.1965
 20
140.9914
  0
VERTEX
  8
LAYER_2
 10
37.9039
 20
99.0701
  0
SEQEND
  0
POLYLINE
  8
LAYER_2
 40
0.2787
 41
0.2787
 66
1
 10
0
 20
0
 30
0
  0
VERTEX
  8
LAYER_2
 10
121.9599
 20
76.8754
  0
VERTEX
  8
LAYER_2
 10
121.2558
 20
76.8754
  0
SEQEND
  0
POLYLINE
  8
LAYER_2
 40
0.2787
 41
0.2787
 66
1
 10
0
 20
0
 30
0
  0
VERTEX
  8
LAYER_2
 10
119.9773
 20
140.9914
  0
VERTEX
  8
LAYER_2
 10
121.9599
 20
76.7968
  0
SEQEND
  0
POLYLINE
  8
LAYER_2
 40
0.2787
 41
0.2787
 66
1
 10
0
 20
0
 30
0
  0
VERTEX
  8
LAYER_2
 10
121.2558
 20
76.8754
  0
VERTEX
  8
LAYER_2
 10
119.6443
 20
76.8754
  0
SEQEND
  0
POLYLINE
  8
LAYER_2
 40
0.2787
 41
0.2787
 66
1
 10
0
 20
0
 30
0
  0
VERTEX
  8
LAYER_2
 10
119.2735
 20
140.9914
  0
VERTEX
  8
LAYER_2
 10
121.2558
 20
76.7968
  0
SEQEND
  0
POLYLINE
  8
LAYER_2
 40
0.2787
 41
0.2787
 66
1
 10
0
 20
0
 30
0
  0
VERTEX
  8
LAYER_2
 10
119.0283
 20
96.6836
  0
VERTEX
  8
LAYER_2
 10
119.6443
 20
76.7968
  0
SEQEND
  0
POLYLINE
  8
LAYER_2
 40
0.2787
 41
0.2787
 66
1
 10
0
 20
0
 30
0
  0
VERTEX
  8
LAYER_2
 10
117.6617
 20
140.9914
  0
VERTEX
  8
LAYER_2
 10
118.9543
 20
99.0701
  0
SEQEND
  0
POLYLINE
  8
LAYER_2
 40
0.2787
 41
0.2787
 66
1
 10
0
 20
0
 30
0
  0
VERTEX
  8
LAYER_2
 10
37.6319
 20
76.8762
  0
VERTEX
  8
LAYER_2
 10
37.2142
 20
76.8762
  0
SEQEND
  0
POLYLINE
  8
LAYER_2
 40
0.2787
 41
0.2787
 66
1
 10
0
 20
0
 30
0
  0
VERTEX
  8
LAYER_2
 10
38.2479
 20
96.6836
  0
VERTEX
  8
LAYER_2
 10
37.6319
 20
76.8762
  0
SEQEND
  0
POLYLINE
  8
LAYER_2
 40
0.2787
 41
0.2787
 66
1
 10
0
 20
0
 30
0
  0
VERTEX
  8
LAYER_2
 10
39.6078
 20
140.3596
  0
VERTEX
  8
LAYER_2
 10
38.3216
 20
99.0698
  0
SEQEND
  0
POLYLINE
  8
LAYER_2
 40
0.2787
 41
0.2787
 66
1
 10
0
 20
0
 30
0
  0
VERTEX
  8
LAYER_2
 10
119.2259
 20
76.8754
  0
VERTEX
  8
LAYER_2
 10
119.6443
 20
76.8754
  0
SEQEND
  0
POLYLINE
  8
LAYER_2
 40
0.2787
 41
0.2787
 66
1
 10
0
 20
0
 30
0
  0
VERTEX
  8
LAYER_2
 10
118.6103
 20
96.6836
  0
VERTEX
  8
LAYER_2
 10
119.2259
 20
76.7968
  0
SEQEND
  0
POLYLINE
  8
LAYER_2
 40
0.2787
 41
0.2787
 66
1
 10
0
 20
0
 30
0
  0
VERTEX
  8
LAYER_2
 10
117.2556
 20
140.4266
  0
VERTEX
  8
LAYER_2
 10
118.5366
 20
99.0698
  0
SEQEND
  0
POLYLINE
  8
LAYER_2
 40
0.2787
 41
0.2787
 66
1
 10
0
 20
0
 30
0
  0
VERTEX
  8
LAYER_2
 10
37.0643
 20
141.7869
  0
VERTEX
  8
LAYER_2
 10
78.4289
 20
141.7869
  0
SEQEND
  0
POLYLINE
  8
LAYER_2
 40
0.2787
 41
0.2787
 66
1
 10
0
 20
0
 30
0
  0
VERTEX
  8
LAYER_2
 10
37.0643
 20
140.9914
  0
VERTEX
  8
LAYER_2
 10
78.4289
 20
140.9914
  0
SEQEND
  0
POLYLINE
  8
LAYER_2
 40
0.2787
 41
0.2787
 66
1
 10
0
 20
0
 30
0
  0
VERTEX
  8
LAYER_2
 10
35.0757
 20
141.7869
  0
VERTEX
  8
LAYER_2
 10
37.064
 20
141.7869
  0
SEQEND
  0
POLYLINE
  8
LAYER_2
 40
0.2787
 41
0.2787
 66
1
 10
0
 20
0
 30
0
  0
VERTEX
  8
LAYER_2
 10
35.0757
 20
140.9914
  0
VERTEX
  8
LAYER_2
 10
37.064
 20
140.9914
  0
SEQEND
  0
POLYLINE
  8
LAYER_2
 40
0.2787
 41
0.2787
 66
1
 10
0
 20
0
 30
0
  0
VERTEX
  8
LAYER_2
 10
35.0757
 20
140.9914
  0
VERTEX
  8
LAYER_2
 10
35.0757
 20
141.7866
  0
SEQEND
  0
POLYLINE
  8
LAYER_2
 40
0.2787
 41
0.2787
 66
1
 10
0
 20
0
 30
0
  0
VERTEX
  8
LAYER_2
 10
119.7939
 20
141.7869
  0
VERTEX
  8
LAYER_2
 10
121.7825
 20
141.7869
  0
SEQEND
  0
POLYLINE
  8
LAYER_2
 40
0.2787
 41
0.2787
 66
1
 10
0
 20
0
 30
0
  0
VERTEX
  8
LAYER_2
 10
121.7825
 20
140.9914
  0
VERTEX
  8
LAYER_2
 10
121.7825
 20
141.7866
  0
SEQEND
  0
POLYLINE
  8
LAYER_2
 40
0.2787
 41
0.2787
 66
1
 10
0
 20
0
 30
0
  0
VERTEX
  8
LAYER_2
 10
119.7939
 20
140.9914
  0
VERTEX
  8
LAYER_2
 10
121.7825
 20
140.9914
  0
SEQEND
  0
POLYLINE
  8
LAYER_2
 40
0.2787
 41
0.2787
 66
1
 10
0
 20
0
 30
0
  0
VERTEX
  8
LAYER_2
 10
78.4289
 20
141.7869
  0
VERTEX
  8
LAYER_2
 10
119.7939
 20
141.7869
  0
SEQEND
  0
POLYLINE
  8
LAYER_2
 40
0.2787
 41
0.2787
 66
1
 10
0
 20
0
 30
0
  0
VERTEX
  8
LAYER_2
 10
78.4289
 20
140.9914
  0
VERTEX
  8
LAYER_2
 10
119.7939
 20
140.9914
  0
SEQEND
  0
POLYLINE
  8
LAYER_2
 40
0.2787
 41
0.2787
 66
1
 10
0
 20
0
 30
0
  0
VERTEX
  8
LAYER_2
 10
37.6609
 20
141.7869
  0
VERTEX
  8
LAYER_2
 10
37.6609
 20
141.9453
  0
SEQEND
  0
POLYLINE
  8
LAYER_2
 40
0.2787
 41
0.2787
 66
1
 10
0
 20
0
 30
0
  0
VERTEX
  8
LAYER_2
 10
119.197
 20
141.7869
  0
VERTEX
  8
LAYER_2
 10
119.197
 20
141.9453
  0
SEQEND
  0
POLYLINE
  8
LAYER_2
 40
0.2787
 41
0.2787
 66
1
 10
0
 20
0
 30
0
 70
1
  0
VERTEX
  8
LAYER_2
 10
120.649
 20
76.8754
  0
VERTEX
  8
LAYER_2
 10
120.2511
 20
76.8754
  0
VERTEX
  8
LAYER_2
 10
120.2511
 20
76.7622
  0
VERTEX
  8
LAYER_2
 10
120.649
 20
76.7622
  0
SEQEND
  0
POLYLINE
  8
LAYER_2
 40
0.2787
 41
0.2787
 66
1
 10
0
 20
0
 30
0
 70
1
  0
VERTEX
  8
LAYER_2
 10
36.2092
 20
76.8762
  0
VERTEX
  8
LAYER_2
 10
36.6069
 20
76.8762
  0
VERTEX
  8
LAYER_2
 10
36.6069
 20
76.7618
  0
VERTEX
  8
LAYER_2
 10
36.2092
 20
76.7618
  0
SEQEND
  0
ENDBLK
  0
BLOCK
  8
LAYER_2
  2
AIGNBL02010033
 70
64
 10
0
 20
0
 30
0
  3
AIGNBL02010033
  0
POLYLINE
  8
LAYER_2
 40
0.2787
 41
0.2787
 66
1
 10
0
 20
0
 30
0
  0
VERTEX
  8
LAYER_2
 10
34.9515
 20
171.8414
  0
VERTEX
  8
LAYER_2
 10
35.6553
 20
171.1965
  0
SEQEND
  0
ENDBLK
  0
ENDSEC
  0
SECTION
  2
ENTITIES
  0
TEXT
  8
LAYER_1
 10
104.2963
 20
210.4248
 11
104.2963
 21
210.4248
 40
2.6656
 41
0.5
  1
35
  0
TEXT
  8
LAYER_1
 10
48.8331
 20
210.4248
 11
48.8331
 21
210.4248
 40
2.6656
 41
0.5
  1
35
  0
TEXT
  8
LAYER_2
 10
-26.2556
 20
43.1712
 11
-26.2556
 21
43.1712
 40
3.2995
 41
0.5
  1
仕様
  0
POLYLINE
  8
LAYER_2
 40
0.3528
 41
0.3528
 66
1
 10
0
 20
0
 30
0
  0
VERTEX
  8
LAYER_2
 10
250.3732
 20
51.9507
  0
VERTEX
  8
LAYER_2
 10
-29.0772
 20
51.9507
  0
SEQEND
  0
INSERT
  8
LAYER_2
  2
AIGNBL02010002
 10
0
 20
0
 30
0
  0
POLYLINE
  8
LAYER_2
 40
0.3528
 41
0.3528
 66
1
 10
0
 20
0
 30
0
  0
VERTEX
  8
LAYER_2
 10
-29.3178
 20
229.3369
  0
VERTEX
  8
LAYER_2
 10
-29.3178
 20
34.3283
  0
VERTEX
  8
LAYER_2
 10
250.6748
 20
34.3283
  0
VERTEX
  8
LAYER_2
 10
250.6748
 20
229.3369
  0
VERTEX
  8
LAYER_2
 10
-29.3178
 20
229.3369
  0
SEQEND
  0
POLYLINE
  8
LAYER_2
 40
0.3528
 41
0.3528
 66
1
 10
0
 20
0
 30
0
  0
VERTEX
  8
LAYER_2
 10
250.3732
 20
60.4597
  0
VERTEX
  8
LAYER_2
 10
-29.0772
 20
60.4597
  0
SEQEND
  0
POLYLINE
  8
LAYER_2
 40
0.3528
 41
0.3528
 66
1
 10
0
 20
0
 30
0
  0
VERTEX
  8
LAYER_2
 10
250.6748
 20
43.4416
  0
VERTEX
  8
LAYER_2
 10
99.6867
 20
43.4416
  0
SEQEND
  0
TEXT
  8
LAYER_2
 10
182.8808
 20
49.4743
 11
182.8808
 21
49.4743
 40
2.1997
 41
0.5
  1
縮尺
  0
POLYLINE
  8
LAYER_2
 40
0.3528
 41
0.3528
 66
1
 10
0
 20
0
 30
0
  0
VERTEX
  8
LAYER_2
 10
181.3526
 20
43.4416
  0
VERTEX
  8
LAYER_2
 10
181.3526
 20
51.9507
  0
SEQEND
  0
TEXT
  8
LAYER_2
 10
100.3854
 20
57.9834
 11
100.3854
 21
57.9834
 40
2.1997
 41
0.5
  1
品番
  0
TEXT
  8
LAYER_2
 10
-28.1609
 20
57.9834
 11
-28.1609
 21
57.9834
 40
2.1997
 41
0.5
  1
品名
  0
TEXT
  8
LAYER_2
 10
100.3854
 20
49.4743
 11
100.3854
 21
49.4743
 40
2.1997
 41
0.5
  1
重量
  0
TEXT
  8
LAYER_2
 10
107.4535
 20
54.1714
 11
107.4535
 21
54.1714
 40
4.6883
 41
0.5
  1
CIE-CALAD/（洗面ボウル） CIE-CASTD/（フレーム） CIE-CAPIDL/（ボトムシェルフ）
  0
TEXT
  8
LAYER_2
 10
110.774
 20
45.7175
 11
110.774
 21
45.7175
 40
3.7615
 41
0.5
  1
-
  0
POLYLINE
  8
LAYER_2
 40
0.3528
 41
0.3528
 66
1
 10
0
 20
0
 30
0
  0
VERTEX
  8
LAYER_2
 10
99.6867
 20
34.9539
  0
VERTEX
  8
LAYER_2
 10
99.6867
 20
60.4597
  0
SEQEND
  0
TEXT
  8
LAYER_2
 10
-15.3768
 20
54.891
 11
-15.3768
 21
54.891
 40
3.6373
 41
0.5
  1
カティーノダブル洗面台
  0
INSERT
  8
LAYER_2
  2
AIGNBL02010003
 10
0
 20
0
 30
0
  0
TEXT
  8
LAYER_2
 10
-15.6835
 20
45.3736
 11
-15.6835
 21
45.3736
 40
3.5541
 41
0.5
  1
●サイズ：W1100×D580×H830mm●陶器×スチール●オーバーフローなし
  0
TEXT
  8
LAYER_2
 10
-15.6835
 20
40.6235
 11
-15.6835
 21
40.6235
 40
3.5541
 41
0.5
  1
●設置方法：自立型●水栓取付穴：1穴×2●排水金具別途
  0
TEXT
  8
LAYER_2
 10
237.263
 20
63.2582
 11
237.263
 21
63.2582
 40
2.9618
 41
0.5
  1
単位：mm
  0
TEXT
  8
LAYER_2
 10
132.8297
 20
39.5359
 11
132.8297
 21
39.5359
 40
3.3853
 41
0.5
  1
●TEL 0120-65-1232●FAX 06-6532-1580
  0
TEXT
  8
LAYER_2
 10
132.8297
 20
36.0212
 11
132.8297
 21
36.0212
 40
3.3853
 41
0.5
  1
hits@hiratatile.co.jp
  0
TEXT
  8
LAYER_2
 10
240.3591
 20
225.8432
 11
240.3591
 21
225.8432
 40
2.0732
 41
0.5
  1
180604RT
  0
INSERT
  8
LAYER_2
  2
AIGNBL02010006
 10
0
 20
0
 30
0
  0
POLYLINE
  8
LAYER_2
 40
0.5609
 41
0.5609
 66
1
 10
0
 20
0
 30
0
  0
VERTEX
  8
LAYER_2
 10
152.4741
 20
76.7619
  0
VERTEX
  8
LAYER_2
 10
205.2846
 20
76.7619
  0
SEQEND
  0
POLYLINE
  8
LAYER_2
 40
0.5609
 41
0.5609
 66
1
 10
0
 20
0
 30
0
  0
VERTEX
  8
LAYER_2
 10
205.2846
 20
157.5931
  0
VERTEX
  8
LAYER_2
 10
205.2846
 20
77.3175
  0
SEQEND
  0
POLYLINE
  8
LAYER_2
 40
0.5609
 41
0.5609
 66
1
 10
0
 20
0
 30
0
  0
VERTEX
  8
LAYER_2
 10
125.4849
 20
76.7618
  0
VERTEX
  8
LAYER_2
 10
31.373
 20
76.7618
  0
SEQEND
  0
POLYLINE
  8
LAYER_2
 40
0.1376
 41
0.1376
 66
1
 10
0
 20
0
 30
0
  0
VERTEX
  8
LAYER_2
 10
55.8162
 20
99.4239
  0
VERTEX
  8
LAYER_2
 10
55.8162
 20
99.7047
  0
VERTEX
  8
LAYER_2
 10
56.0967
 20
99.7047
  0
SEQEND
  0
POLYLINE
  8
LAYER_2
 40
0.1376
 41
0.1376
 66
1
 10
0
 20
0
 30
0
  0
VERTEX
  8
LAYER_2
 10
56.3309
 20
99.7044
  0
VERTEX
  8
LAYER_2
 10
56.6117
 20
99.7044
  0
VERTEX
  8
LAYER_2
 10
56.6117
 20
99.4239
  0
SEQEND
  0
POLYLINE
  8
LAYER_2
 40
0.1376
 41
0.1376
 66
1
 10
0
 20
0
 30
0
  0
VERTEX
  8
LAYER_2
 10
56.6114
 20
99.3488
  0
VERTEX
  8
LAYER_2
 10
56.6114
 20
99.0683
  0
VERTEX
  8
LAYER_2
 10
56.3309
 20
99.0683
  0
SEQEND
  0
POLYLINE
  8
LAYER_2
 40
0.1376
 41
0.1376
 66
1
 10
0
 20
0
 30
0
  0
VERTEX
  8
LAYER_2
 10
56.0967
 20
99.0683
  0
VERTEX
  8
LAYER_2
 10
55.8159
 20
99.0683
  0
VERTEX
  8
LAYER_2
 10
55.8159
 20
99.3488
  0
SEQEND
  0
POLYLINE
  8
LAYER_2
  6
AIGENLINE004
 40
0.1376
 41
0.1376
 66
1
 10
0
 20
0
 30
0
 70
128
  0
VERTEX
  8
LAYER_2
 10
55.939
 20
98.7223
  0
VERTEX
  8
LAYER_2
 10
55.939
 20
98.9089
  0
SEQEND
  0
POLYLINE
  8
LAYER_2
  6
AIGENLINE005
 40
0.1376
 41
0.1376
 66
1
 10
0
 20
0
 30
0
 70
128
  0
VERTEX
  8
LAYER_2
 10
55.939
 20
98.7223
 42
0.39410903
  0
VERTEX
  8
LAYER_2
 10
56.0557
 20
98.7018
  0
VERTEX
  8
LAYER_2
 10
56.0766
 20
98.7223
  0
SEQEND
  0
POLYLINE
  8
LAYER_2
  6
AIGENLINE006
 40
0.1376
 41
0.1376
 66
1
 10
0
 20
0
 30
0
 70
128
  0
VERTEX
  8
LAYER_2
 10
56.0078
 20
98.6863
  0
VERTEX
  8
LAYER_2
 10
56.4198
 20
98.6863
  0
SEQEND
  0
POLYLINE
  8
LAYER_2
  6
AIGENLINE005
 40
0.1376
 41
0.1376
 66
1
 10
0
 20
0
 30
0
 70
128
  0
VERTEX
  8
LAYER_2
 10
56.351
 20
98.7223
 42
0.392868311
  0
VERTEX
  8
LAYER_2
 10
56.4681
 20
98.7018
  0
VERTEX
  8
LAYER_2
 10
56.4886
 20
98.7223
  0
SEQEND
  0
INSERT
  8
LAYER_2
  2
AIGNBL02010028
 10
0
 20
0
 30
0
  0
POLYLINE
  8
LAYER_2
  6
AIGENLINE007
 40
0.1376
 41
0.1376
 66
1
 10
0
 20
0
 30
0
 70
128
  0
VERTEX
  8
LAYER_2
 10
56.0766
 20
98.7223
 42
0.2600311169
  0
VERTEX
  8
LAYER_2
 10
56.351
 20
98.7223
  0
SEQEND
  0
POLYLINE
  8
LAYER_2
  6
AIGENLINE004
 40
0.1376
 41
0.1376
 66
1
 10
0
 20
0
 30
0
 70
128
  0
VERTEX
  8
LAYER_2
 10
56.4886
 20
98.9089
  0
VERTEX
  8
LAYER_2
 10
56.4886
 20
98.7223
  0
SEQEND
  0
POLYLINE
  8
LAYER_2
  6
AIGENLINE008
 40
0.1376
 41
0.1376
 66
1
 10
0
 20
0
 30
0
 70
128
  0
VERTEX
  8
LAYER_2
 10
56.4886
 20
98.905
  0
VERTEX
  8
LAYER_2
 10
56.4854
 20
98.9092
  0
SEQEND
  0
POLYLINE
  8
LAYER_2
  6
AIGENLINE009
 40
0.1376
 41
0.1376
 66
1
 10
0
 20
0
 30
0
 70
128
  0
VERTEX
  8
LAYER_2
 10
56.1016
 20
98.9089
  0
VERTEX
  8
LAYER_2
 10
56.3256
 20
98.9089
  0
SEQEND
  0
POLYLINE
  8
LAYER_2
  6
AIGENLINE010
 40
0.1376
 41
0.1376
 66
1
 10
0
 20
0
 30
0
 70
128
  0
VERTEX
  8
LAYER_2
 10
56.0766
 20
98.905
  0
VERTEX
  8
LAYER_2
 10
56.073
 20
98.9092
  0
SEQEND
  0
INSERT
  8
LAYER_2
  2
AIGNBL02010029
 10
0
 20
0
 30
0
  0
POLYLINE
  8
LAYER_2
  6
AIGENLINE010
 40
0.1376
 41
0.1376
 66
1
 10
0
 20
0
 30
0
 70
128
  0
VERTEX
  8
LAYER_2
 10
56.3545
 20
98.9089
  0
VERTEX
  8
LAYER_2
 10
56.351
 20
98.9047
  0
SEQEND
  0
POLYLINE
  8
LAYER_2
  6
AIGENLINE011
 40
0.1376
 41
0.1376
 66
1
 10
0
 20
0
 30
0
 70
128
  0
VERTEX
  8
LAYER_2
 10
55.939
 20
98.9089
  0
VERTEX
  8
LAYER_2
 10
56.4882
 20
98.9089
  0
SEQEND
  0
POLYLINE
  8
LAYER_2
  6
AIGENLINE008
 40
0.1376
 41
0.1376
 66
1
 10
0
 20
0
 30
0
 70
128
  0
VERTEX
  8
LAYER_2
 10
55.9422
 20
98.9089
  0
VERTEX
  8
LAYER_2
 10
55.939
 20
98.9047
  0
SEQEND
  0
POLYLINE
  8
LAYER_2
 40
0.1376
 41
0.1376
 66
1
 10
0
 20
0
 30
0
  0
VERTEX
  8
LAYER_2
 10
56.0547
 20
98.9089
  0
VERTEX
  8
LAYER_2
 10
56.0547
 20
99.1897
  0
SEQEND
  0
POLYLINE
  8
LAYER_2
 40
0.1376
 41
0.1376
 66
1
 10
0
 20
0
 30
0
  0
VERTEX
  8
LAYER_2
 10
56.1122
 20
99.6483
  0
VERTEX
  8
LAYER_2
 10
56.3249
 20
99.6483
  0
VERTEX
  8
LAYER_2
 10
56.3729
 20
99.6007
  0
VERTEX
  8
LAYER_2
 10
56.3729
 20
99.3202
  0
SEQEND
  0
POLYLINE
  8
LAYER_2
 40
0.1376
 41
0.1376
 66
1
 10
0
 20
0
 30
0
  0
VERTEX
  8
LAYER_2
 10
56.3729
 20
99.1897
  0
VERTEX
  8
LAYER_2
 10
56.3729
 20
98.9089
  0
SEQEND
  0
POLYLINE
  8
LAYER_2
 40
0.1376
 41
0.1376
 66
1
 10
0
 20
0
 30
0
  0
VERTEX
  8
LAYER_2
 10
56.0864
 20
98.9089
  0
VERTEX
  8
LAYER_2
 10
56.0864
 20
99.1897
  0
SEQEND
  0
POLYLINE
  8
LAYER_2
 40
0.1376
 41
0.1376
 66
1
 10
0
 20
0
 30
0
  0
VERTEX
  8
LAYER_2
 10
56.0864
 20
99.3199
  0
VERTEX
  8
LAYER_2
 10
56.0864
 20
99.6007
  0
SEQEND
  0
POLYLINE
  8
LAYER_2
 40
0.1376
 41
0.1376
 66
1
 10
0
 20
0
 30
0
  0
VERTEX
  8
LAYER_2
 10
56.3411
 20
98.9089
  0
VERTEX
  8
LAYER_2
 10
56.3411
 20
99.1897
  0
SEQEND
  0
POLYLINE
  8
LAYER_2
 40
0.1376
 41
0.1376
 66
1
 10
0
 20
0
 30
0
  0
VERTEX
  8
LAYER_2
 10
56.3411
 20
99.3199
  0
VERTEX
  8
LAYER_2
 10
56.3411
 20
99.6007
  0
SEQEND
  0
POLYLINE
  8
LAYER_2
  6
AIGENLINE012
 40
0.1376
 41
0.1376
 66
1
 10
0
 20
0
 30
0
 70
128
  0
VERTEX
  8
LAYER_2
 10
56.0547
 20
99.6007
  0
VERTEX
  8
LAYER_2
 10
56.3729
 20
99.6007
  0
SEQEND
  0
POLYLINE
  8
LAYER_2
 40
0.1376
 41
0.1376
 66
1
 10
0
 20
0
 30
0
  0
VERTEX
  8
LAYER_2
 10
53.1065
 20
128.8202
  0
VERTEX
  8
LAYER_2
 10
52.8257
 20
128.8202
  0
VERTEX
  8
LAYER_2
 10
52.8257
 20
129.059
  0
VERTEX
  8
LAYER_2
 10
53.1065
 20
129.059
  0
SEQEND
  0
POLYLINE
  8
LAYER_2
  6
AIGENLINE013
 40
0.1376
 41
0.1376
 66
1
 10
0
 20
0
 30
0
 70
128
  0
VERTEX
  8
LAYER_2
 10
53.7422
 20
129.059
  0
VERTEX
  8
LAYER_2
 10
57.2386
 20
129.059
  0
SEQEND
  0
POLYLINE
  8
LAYER_2
 40
0.1376
 41
0.1376
 66
1
 10
0
 20
0
 30
0
  0
VERTEX
  8
LAYER_2
 10
57.5565
 20
129.059
  0
VERTEX
  8
LAYER_2
 10
57.8373
 20
129.059
  0
VERTEX
  8
LAYER_2
 10
57.8373
 20
128.8202
  0
VERTEX
  8
LAYER_2
 10
57.5565
 20
128.8202
  0
SEQEND
  0
POLYLINE
  8
LAYER_2
  6
AIGENLINE013
 40
0.1376
 41
0.1376
 66
1
 10
0
 20
0
 30
0
 70
128
  0
VERTEX
  8
LAYER_2
 10
56.9208
 20
128.8202
  0
VERTEX
  8
LAYER_2
 10
53.4244
 20
128.8202
  0
SEQEND
  0
POLYLINE
  8
LAYER_2
 40
0.1376
 41
0.1376
 66
1
 10
0
 20
0
 30
0
  0
VERTEX
  8
LAYER_2
 10
53.1065
 20
129.059
  0
VERTEX
  8
LAYER_2
 10
52.8257
 20
129.059
  0
VERTEX
  8
LAYER_2
 10
52.8257
 20
129.2975
  0
VERTEX
  8
LAYER_2
 10
53.1065
 20
129.2975
  0
SEQEND
  0
POLYLINE
  8
LAYER_2
  6
AIGENLINE013
 40
0.1376
 41
0.1376
 66
1
 10
0
 20
0
 30
0
 70
128
  0
VERTEX
  8
LAYER_2
 10
53.7422
 20
129.2975
  0
VERTEX
  8
LAYER_2
 10
57.2386
 20
129.2975
  0
SEQEND
  0
POLYLINE
  8
LAYER_2
 40
0.1376
 41
0.1376
 66
1
 10
0
 20
0
 30
0
  0
VERTEX
  8
LAYER_2
 10
57.5565
 20
129.2975
  0
VERTEX
  8
LAYER_2
 10
57.8373
 20
129.2975
  0
VERTEX
  8
LAYER_2
 10
57.8373
 20
129.059
  0
VERTEX
  8
LAYER_2
 10
57.5565
 20
129.059
  0
SEQEND
  0
POLYLINE
  8
LAYER_2
  6
AIGENLINE013
 40
0.1376
 41
0.1376
 66
1
 10
0
 20
0
 30
0
 70
128
  0
VERTEX
  8
LAYER_2
 10
56.9208
 20
129.059
  0
VERTEX
  8
LAYER_2
 10
53.4244
 20
129.059
  0
SEQEND
  0
POLYLINE
  8
LAYER_2
 40
0.1376
 41
0.1376
 66
1
 10
0
 20
0
 30
0
  0
VERTEX
  8
LAYER_2
 10
53.6632
 20
128.5017
  0
VERTEX
  8
LAYER_2
 10
53.3824
 20
128.5017
  0
VERTEX
  8
LAYER_2
 10
53.3824
 20
128.8209
  0
VERTEX
  8
LAYER_2
 10
53.6632
 20
128.8209
  0
SEQEND
  0
POLYLINE
  8
LAYER_2
  6
AIGENLINE014
 40
0.1376
 41
0.1376
 66
1
 10
0
 20
0
 30
0
 70
128
  0
VERTEX
  8
LAYER_2
 10
54.1398
 20
128.8209
  0
VERTEX
  8
LAYER_2
 10
56.7617
 20
128.8209
  0
SEQEND
  0
POLYLINE
  8
LAYER_2
 40
0.1376
 41
0.1376
 66
1
 10
0
 20
0
 30
0
  0
VERTEX
  8
LAYER_2
 10
56.9998
 20
128.8209
  0
VERTEX
  8
LAYER_2
 10
57.2806
 20
128.8209
  0
VERTEX
  8
LAYER_2
 10
57.2806
 20
128.5016
  0
VERTEX
  8
LAYER_2
 10
56.9998
 20
128.5016
  0
SEQEND
  0
POLYLINE
  8
LAYER_2
  6
AIGENLINE014
 40
0.1376
 41
0.1376
 66
1
 10
0
 20
0
 30
0
 70
128
  0
VERTEX
  8
LAYER_2
 10
56.5232
 20
128.5017
  0
VERTEX
  8
LAYER_2
 10
53.9013
 20
128.5017
  0
SEQEND
  0
POLYLINE
  8
LAYER_2
  6
AIGENLINE015
 40
0.1376
 41
0.1376
 66
1
 10
0
 20
0
 30
0
 70
128
  0
VERTEX
  8
LAYER_2
 10
52.5488
 20
131.2466
  0
VERTEX
  8
LAYER_2
 10
52.4504
 20
131.2904
  0
SEQEND
  0
POLYLINE
  8
LAYER_2
 40
0.1376
 41
0.1376
 66
1
 10
0
 20
0
 30
0
  0
VERTEX
  8
LAYER_2
 10
52.5488
 20
131.2466
  0
VERTEX
  8
LAYER_2
 10
52.7513
 20
131.0522
  0
SEQEND
  0
POLYLINE
  8
LAYER_2
 40
0.1376
 41
0.1376
 66
1
 10
0
 20
0
 30
0
  0
VERTEX
  8
LAYER_2
 10
53.2505
 20
130.5732
  0
VERTEX
  8
LAYER_2
 10
53.4529
 20
130.3788
  0
SEQEND
  0
POLYLINE
  8
LAYER_2
  6
AIGENLINE016
 40
0.1376
 41
0.1376
 66
1
 10
0
 20
0
 30
0
 70
128
  0
VERTEX
  8
LAYER_2
 10
53.502
 20
130.2638
 42
0.1977941068
  0
VERTEX
  8
LAYER_2
 10
53.4533
 20
130.3788
  0
SEQEND
  0
POLYLINE
  8
LAYER_2
 40
0.1376
 41
0.1376
 66
1
 10
0
 20
0
 30
0
  0
VERTEX
  8
LAYER_2
 10
53.502
 20
130.2638
  0
VERTEX
  8
LAYER_2
 10
53.502
 20
129.9833
  0
SEQEND
  0
POLYLINE
  8
LAYER_2
 40
0.1376
 41
0.1376
 66
1
 10
0
 20
0
 30
0
  0
VERTEX
  8
LAYER_2
 10
53.502
 20
129.5783
  0
VERTEX
  8
LAYER_2
 10
53.502
 20
129.2975
  0
SEQEND
  0
POLYLINE
  8
LAYER_2
  6
AIGENLINE017
 40
0.1376
 41
0.1376
 66
1
 10
0
 20
0
 30
0
 70
128
  0
VERTEX
  8
LAYER_2
 10
53.502
 20
129.2975
  0
VERTEX
  8
LAYER_2
 10
52.9509
 20
129.2975
  0
SEQEND
  0
POLYLINE
  8
LAYER_2
  6
AIGENLINE018
 40
0.1376
 41
0.1376
 66
1
 10
0
 20
0
 30
0
 70
128
  0
VERTEX
  8
LAYER_2
 10
52.9509
 20
129.2975
  0
VERTEX
  8
LAYER_2
 10
52.9509
 20
129.7579
  0
SEQEND
  0
POLYLINE
  8
LAYER_2
 40
0.1376
 41
0.1376
 66
1
 10
0
 20
0
 30
0
  0
VERTEX
  8
LAYER_2
 10
52.9509
 20
129.7579
  0
VERTEX
  8
LAYER_2
 10
52.7485
 20
129.9519
  0
SEQEND
  0
POLYLINE
  8
LAYER_2
 40
0.1376
 41
0.1376
 66
1
 10
0
 20
0
 30
0
  0
VERTEX
  8
LAYER_2
 10
52.3657
 20
130.3195
  0
VERTEX
  8
LAYER_2
 10
52.1635
 20
130.5139
  0
VERTEX
  8
LAYER_2
 10
51.8827
 20
130.5167
  0
SEQEND
  0
POLYLINE
  8
LAYER_2
  6
AIGENLINE019
 40
0.1376
 41
0.1376
 66
1
 10
0
 20
0
 30
0
 70
128
  0
VERTEX
  8
LAYER_2
 10
51.361
 20
130.522
  0
VERTEX
  8
LAYER_2
 10
46.4037
 20
130.5721
  0
SEQEND
  0
POLYLINE
  8
LAYER_2
 40
0.1376
 41
0.1376
 66
1
 10
0
 20
0
 30
0
  0
VERTEX
  8
LAYER_2
 10
46.143
 20
130.5749
  0
VERTEX
  8
LAYER_2
 10
45.8622
 20
130.5778
  0
SEQEND
  0
POLYLINE
  8
LAYER_2
 40
0.1376
 41
0.1376
 66
1
 10
0
 20
0
 30
0
  0
VERTEX
  8
LAYER_2
 10
45.8626
 20
130.5778
 42
0.1109052187
  0
VERTEX
  8
LAYER_2
 10
45.5867
 20
130.5368
  0
SEQEND
  0
POLYLINE
  8
LAYER_2
 40
0.1376
 41
0.1376
 66
1
 10
0
 20
0
 30
0
  0
VERTEX
  8
LAYER_2
 10
45.3736
 20
130.4007
 42
0.1090697769
  0
VERTEX
  8
LAYER_2
 10
45.2205
 20
130.1675
  0
VERTEX
  8
LAYER_2
 10
45.1214
 20
129.9046
  0
SEQEND
  0
POLYLINE
  8
LAYER_2
  6
AIGENLINE020
 40
0.1376
 41
0.1376
 66
1
 10
0
 20
0
 30
0
 70
128
  0
VERTEX
  8
LAYER_2
 10
44.9912
 20
129.5589
  0
VERTEX
  8
LAYER_2
 10
44.7954
 20
129.0403
  0
SEQEND
  0
POLYLINE
  8
LAYER_2
 40
0.1376
 41
0.1376
 66
1
 10
0
 20
0
 30
0
  0
VERTEX
  8
LAYER_2
 10
44.7305
 20
128.8675
  0
VERTEX
  8
LAYER_2
 10
44.6314
 20
128.605
  0
SEQEND
  0
POLYLINE
  8
LAYER_2
  6
AIGENLINE021
 40
0.1376
 41
0.1376
 66
1
 10
0
 20
0
 30
0
 70
128
  0
VERTEX
  8
LAYER_2
 10
44.4825
 20
128.502
 42
0.311243369
  0
VERTEX
  8
LAYER_2
 10
44.6317
 20
128.605
  0
SEQEND
  0
POLYLINE
  8
LAYER_2
 40
0.1376
 41
0.1376
 66
1
 10
0
 20
0
 30
0
  0
VERTEX
  8
LAYER_2
 10
57.161
 20
129.2975
  0
VERTEX
  8
LAYER_2
 10
57.161
 20
129.5783
  0
SEQEND
  0
POLYLINE
  8
LAYER_2
 40
0.1376
 41
0.1376
 66
1
 10
0
 20
0
 30
0
  0
VERTEX
  8
LAYER_2
 10
57.161
 20
129.9833
  0
VERTEX
  8
LAYER_2
 10
57.161
 20
130.2641
  0
SEQEND
  0
POLYLINE
  8
LAYER_2
  6
AIGENLINE016
 40
0.1376
 41
0.1376
 66
1
 10
0
 20
0
 30
0
 70
128
  0
VERTEX
  8
LAYER_2
 10
57.21
 20
130.3788
 42
0.1999443744
  0
VERTEX
  8
LAYER_2
 10
57.1614
 20
130.2638
  0
SEQEND
  0
POLYLINE
  8
LAYER_2
 40
0.1376
 41
0.1376
 66
1
 10
0
 20
0
 30
0
  0
VERTEX
  8
LAYER_2
 10
57.21
 20
130.3788
  0
VERTEX
  8
LAYER_2
 10
57.4125
 20
130.5732
  0
SEQEND
  0
POLYLINE
  8
LAYER_2
 40
0.1376
 41
0.1376
 66
1
 10
0
 20
0
 30
0
  0
VERTEX
  8
LAYER_2
 10
57.9117
 20
131.0522
  0
VERTEX
  8
LAYER_2
 10
58.1142
 20
131.2466
  0
SEQEND
  0
POLYLINE
  8
LAYER_2
  6
AIGENLINE015
 40
0.1376
 41
0.1376
 66
1
 10
0
 20
0
 30
0
 70
128
  0
VERTEX
  8
LAYER_2
 10
58.2126
 20
131.2904
  0
VERTEX
  8
LAYER_2
 10
58.1142
 20
131.2466
  0
SEQEND
  0
POLYLINE
  8
LAYER_2
 40
0.1376
 41
0.1376
 66
1
 10
0
 20
0
 30
0
  0
VERTEX
  8
LAYER_2
 10
43.7971
 20
128.502
  0
VERTEX
  8
LAYER_2
 10
44.0779
 20
128.502
  0
SEQEND
  0
POLYLINE
  8
LAYER_2
 40
0.1376
 41
0.1376
 66
1
 10
0
 20
0
 30
0
  0
VERTEX
  8
LAYER_2
 10
44.2017
 20
128.502
  0
VERTEX
  8
LAYER_2
 10
44.4825
 20
128.502
  0
SEQEND
  0
POLYLINE
  8
LAYER_2
 40
0.1376
 41
0.1376
 66
1
 10
0
 20
0
 30
0
  0
VERTEX
  8
LAYER_2
 10
64.8008
 20
130.5778
  0
VERTEX
  8
LAYER_2
 10
64.5199
 20
130.5749
  0
SEQEND
  0
POLYLINE
  8
LAYER_2
  6
AIGENLINE019
 40
0.1376
 41
0.1376
 66
1
 10
0
 20
0
 30
0
 70
128
  0
VERTEX
  8
LAYER_2
 10
63.9982
 20
130.5696
  0
VERTEX
  8
LAYER_2
 10
59.0409
 20
130.5195
  0
SEQEND
  0
POLYLINE
  8
LAYER_2
 40
0.1376
 41
0.1376
 66
1
 10
0
 20
0
 30
0
  0
VERTEX
  8
LAYER_2
 10
58.7799
 20
130.5167
  0
VERTEX
  8
LAYER_2
 10
58.4994
 20
130.5139
  0
VERTEX
  8
LAYER_2
 10
58.2969
 20
130.3195
  0
SEQEND
  0
POLYLINE
  8
LAYER_2
 40
0.1376
 41
0.1376
 66
1
 10
0
 20
0
 30
0
  0
VERTEX
  8
LAYER_2
 10
57.9142
 20
129.9519
  0
VERTEX
  8
LAYER_2
 10
57.712
 20
129.7579
  0
SEQEND
  0
POLYLINE
  8
LAYER_2
  6
AIGENLINE018
 40
0.1376
 41
0.1376
 66
1
 10
0
 20
0
 30
0
 70
128
  0
VERTEX
  8
LAYER_2
 10
57.712
 20
129.7579
  0
VERTEX
  8
LAYER_2
 10
57.712
 20
129.2975
  0
SEQEND
  0
POLYLINE
  8
LAYER_2
  6
AIGENLINE017
 40
0.1376
 41
0.1376
 66
1
 10
0
 20
0
 30
0
 70
128
  0
VERTEX
  8
LAYER_2
 10
57.712
 20
129.2975
  0
VERTEX
  8
LAYER_2
 10
57.161
 20
129.2975
  0
SEQEND
  0
POLYLINE
  8
LAYER_2
  6
AIGENLINE022
 40
0.1376
 41
0.1376
 66
1
 10
0
 20
0
 30
0
 70
128
  0
VERTEX
  8
LAYER_2
 10
41.2669
 20
132.0065
 42
0.3567929228
  0
VERTEX
  8
LAYER_2
 10
41.6324
 20
131.6604
  0
SEQEND
  0
POLYLINE
  8
LAYER_2
 40
0.1376
 41
0.1376
 66
1
 10
0
 20
0
 30
0
  0
VERTEX
  8
LAYER_2
 10
41.6324
 20
131.6601
  0
VERTEX
  8
LAYER_2
 10
41.9132
 20
131.6505
  0
SEQEND
  0
POLYLINE
  8
LAYER_2
  6
AIGENLINE023
 40
0.1376
 41
0.1376
 66
1
 10
0
 20
0
 30
0
 70
128
  0
VERTEX
  8
LAYER_2
 10
42.453
 20
131.6322
  0
VERTEX
  8
LAYER_2
 10
51.9
 20
131.3098
  0
SEQEND
  0
POLYLINE
  8
LAYER_2
 40
0.1376
 41
0.1376
 66
1
 10
0
 20
0
 30
0
  0
VERTEX
  8
LAYER_2
 10
52.1699
 20
131.3002
  0
VERTEX
  8
LAYER_2
 10
52.4507
 20
131.2907
  0
SEQEND
  0
POLYLINE
  8
LAYER_2
 40
0.1376
 41
0.1376
 66
1
 10
0
 20
0
 30
0
  0
VERTEX
  8
LAYER_2
 10
58.2126
 20
131.2904
  0
VERTEX
  8
LAYER_2
 10
58.4934
 20
131.2999
  0
SEQEND
  0
POLYLINE
  8
LAYER_2
  6
AIGENLINE023
 40
0.1376
 41
0.1376
 66
1
 10
0
 20
0
 30
0
 70
128
  0
VERTEX
  8
LAYER_2
 10
59.0332
 20
131.3186
  0
VERTEX
  8
LAYER_2
 10
68.4802
 20
131.641
  0
SEQEND
  0
POLYLINE
  8
LAYER_2
 40
0.1376
 41
0.1376
 66
1
 10
0
 20
0
 30
0
  0
VERTEX
  8
LAYER_2
 10
68.7501
 20
131.6505
  0
VERTEX
  8
LAYER_2
 10
69.0309
 20
131.6601
  0
SEQEND
  0
POLYLINE
  8
LAYER_2
 40
0.1376
 41
0.1376
 66
1
 10
0
 20
0
 30
0
  0
VERTEX
  8
LAYER_2
 10
39.835
 20
142.8205
  0
VERTEX
  8
LAYER_2
 10
39.5542
 20
142.8205
  0
SEQEND
  0
POLYLINE
  8
LAYER_2
  6
AIGENLINE024
 40
0.1376
 41
0.1376
 66
1
 10
0
 20
0
 30
0
 70
128
  0
VERTEX
  8
LAYER_2
 10
38.9206
 20
142.8205
  0
VERTEX
  8
LAYER_2
 10
35.4345
 20
142.8205
  0
SEQEND
  0
POLYLINE
  8
LAYER_2
 40
0.1376
 41
0.1376
 66
1
 10
0
 20
0
 30
0
  0
VERTEX
  8
LAYER_2
 10
35.1177
 20
142.8205
  0
VERTEX
  8
LAYER_2
 10
34.8369
 20
142.8205
  0
SEQEND
  0
POLYLINE
  8
LAYER_2
  6
AIGENLINE003
 40
0.1376
 41
0.1376
 66
1
 10
0
 20
0
 30
0
 70
128
  0
VERTEX
  8
LAYER_2
 10
34.8369
 20
142.8205
 42
0.39242794
  0
VERTEX
  8
LAYER_2
 10
34.6778
 20
142.6618
  0
SEQEND
  0
POLYLINE
  8
LAYER_2
  6
AIGENLINE025
 40
0.1376
 41
0.1376
 66
1
 10
0
 20
0
 30
0
 70
128
  0
VERTEX
  8
LAYER_2
 10
34.6778
 20
142.6614
  0
VERTEX
  8
LAYER_2
 10
34.6778
 20
142.1048
  0
SEQEND
  0
POLYLINE
  8
LAYER_2
  6
AIGENLINE003
 40
0.1376
 41
0.1376
 66
1
 10
0
 20
0
 30
0
 70
128
  0
VERTEX
  8
LAYER_2
 10
34.6778
 20
142.1048
 42
0.4143451213
  0
VERTEX
  8
LAYER_2
 10
34.8369
 20
141.9457
  0
SEQEND
  0
POLYLINE
  8
LAYER_2
 40
0.1376
 41
0.1376
 66
1
 10
0
 20
0
 30
0
  0
VERTEX
  8
LAYER_2
 10
34.8369
 20
141.9453
  0
VERTEX
  8
LAYER_2
 10
35.1177
 20
141.9453
  0
SEQEND
  0
POLYLINE
  8
LAYER_2
  6
AIGENLINE026
 40
0.1376
 41
0.1376
 66
1
 10
0
 20
0
 30
0
 70
128
  0
VERTEX
  8
LAYER_2
 10
35.6451
 20
141.9453
  0
VERTEX
  8
LAYER_2
 10
38.546
 20
141.9453
  0
SEQEND
  0
POLYLINE
  8
LAYER_2
 40
0.1376
 41
0.1376
 66
1
 10
0
 20
0
 30
0
  0
VERTEX
  8
LAYER_2
 10
38.8098
 20
141.9453
  0
VERTEX
  8
LAYER_2
 10
39.0907
 20
141.9453
  0
SEQEND
  0
POLYLINE
  8
LAYER_2
  6
AIGENLINE027
 40
0.1376
 41
0.1376
 66
1
 10
0
 20
0
 30
0
 70
128
  0
VERTEX
  8
LAYER_2
 10
40.7551
 20
128.787
 42
0.3662772813
  0
VERTEX
  8
LAYER_2
 10
41.1537
 20
128.5017
  0
SEQEND
  0
POLYLINE
  8
LAYER_2
 40
0.1376
 41
0.1376
 66
1
 10
0
 20
0
 30
0
  0
VERTEX
  8
LAYER_2
 10
41.1537
 20
128.502
  0
VERTEX
  8
LAYER_2
 10
41.4345
 20
128.502
  0
SEQEND
  0
POLYLINE
  8
LAYER_2
 40
0.1376
 41
0.1376
 66
1
 10
0
 20
0
 30
0
  0
VERTEX
  8
LAYER_2
 10
41.528
 20
128.502
  0
VERTEX
  8
LAYER_2
 10
41.8088
 20
128.502
  0
SEQEND
  0
POLYLINE
  8
LAYER_2
 40
0.1376
 41
0.1376
 66
1
 10
0
 20
0
 30
0
  0
VERTEX
  8
LAYER_2
 10
43.7971
 20
128.502
  0
VERTEX
  8
LAYER_2
 10
43.5395
 20
128.6142
  0
SEQEND
  0
POLYLINE
  8
LAYER_2
  6
AIGENLINE028
 40
0.1376
 41
0.1376
 66
1
 10
0
 20
0
 30
0
 70
128
  0
VERTEX
  8
LAYER_2
 10
43.0531
 20
128.7285
 42
0.08706211003
  0
VERTEX
  8
LAYER_2
 10
42.3059
 20
128.6851
  0
SEQEND
  0
POLYLINE
  8
LAYER_2
 40
0.1376
 41
0.1376
 66
1
 10
0
 20
0
 30
0
  0
VERTEX
  8
LAYER_2
 10
42.066
 20
128.6142
  0
VERTEX
  8
LAYER_2
 10
41.8085
 20
128.502
  0
SEQEND
  0
POLYLINE
  8
LAYER_2
  6
AIGENLINE029
 40
0.1376
 41
0.1376
 66
1
 10
0
 20
0
 30
0
 70
128
  0
VERTEX
  8
LAYER_2
 10
41.6892
 20
129.5251
 42
0.392805906
  0
VERTEX
  8
LAYER_2
 10
41.8667
 20
129.3864
  0
VERTEX
  8
LAYER_2
 10
41.8963
 20
129.3928
  0
SEQEND
  0
POLYLINE
  8
LAYER_2
 40
0.1376
 41
0.1376
 66
1
 10
0
 20
0
 30
0
  0
VERTEX
  8
LAYER_2
 10
41.6892
 20
129.5251
  0
VERTEX
  8
LAYER_2
 10
41.655
 20
129.8034
  0
SEQEND
  0
POLYLINE
  8
LAYER_2
 40
0.1376
 41
0.1376
 66
1
 10
0
 20
0
 30
0
  0
VERTEX
  8
LAYER_2
 10
41.5792
 20
130.425
  0
VERTEX
  8
LAYER_2
 10
41.5449
 20
130.7033
  0
SEQEND
  0
POLYLINE
  8
LAYER_2
  6
AIGENLINE030
 40
0.1376
 41
0.1376
 66
1
 10
0
 20
0
 30
0
 70
128
  0
VERTEX
  8
LAYER_2
 10
41.7146
 20
130.8815
 42
0.390600901
  0
VERTEX
  8
LAYER_2
 10
41.5442
 20
130.7347
  0
VERTEX
  8
LAYER_2
 10
41.5449
 20
130.7037
  0
SEQEND
  0
POLYLINE
  8
LAYER_2
 40
0.1376
 41
0.1376
 66
1
 10
0
 20
0
 30
0
  0
VERTEX
  8
LAYER_2
 10
41.7146
 20
130.8815
  0
VERTEX
  8
LAYER_2
 10
41.9947
 20
130.861
  0
SEQEND
  0
POLYLINE
  8
LAYER_2
  6
AIGENLINE031
 40
0.1376
 41
0.1376
 66
1
 10
0
 20
0
 30
0
 70
128
  0
VERTEX
  8
LAYER_2
 10
42.6858
 20
130.8102
  0
VERTEX
  8
LAYER_2
 10
43.723
 20
130.734
  0
SEQEND
  0
POLYLINE
  8
LAYER_2
 40
0.1376
 41
0.1376
 66
1
 10
0
 20
0
 30
0
  0
VERTEX
  8
LAYER_2
 10
44.0687
 20
130.7093
  0
VERTEX
  8
LAYER_2
 10
44.3488
 20
130.6889
  0
SEQEND
  0
POLYLINE
  8
LAYER_2
  6
AIGENLINE032
 40
0.1376
 41
0.1376
 66
1
 10
0
 20
0
 30
0
 70
128
  0
VERTEX
  8
LAYER_2
 10
44.4857
 20
130.4737
 42
0.3927937353
  0
VERTEX
  8
LAYER_2
 10
44.3929
 20
130.6786
  0
VERTEX
  8
LAYER_2
 10
44.3485
 20
130.6889
  0
SEQEND
  0
POLYLINE
  8
LAYER_2
 40
0.1376
 41
0.1376
 66
1
 10
0
 20
0
 30
0
  0
VERTEX
  8
LAYER_2
 10
44.4857
 20
130.4737
  0
VERTEX
  8
LAYER_2
 10
44.3866
 20
130.2112
  0
SEQEND
  0
POLYLINE
  8
LAYER_2
 40
0.1376
 41
0.1376
 66
1
 10
0
 20
0
 30
0
  0
VERTEX
  8
LAYER_2
 10
44.1887
 20
129.6863
  0
VERTEX
  8
LAYER_2
 10
44.0895
 20
129.4235
  0
SEQEND
  0
POLYLINE
  8
LAYER_2
  6
AIGENLINE003
 40
0.1376
 41
0.1376
 66
1
 10
0
 20
0
 30
0
 70
128
  0
VERTEX
  8
LAYER_2
 10
43.8835
 20
129.3314
 42
0.393506545
  0
VERTEX
  8
LAYER_2
 10
44.0892
 20
129.4224
  0
SEQEND
  0
POLYLINE
  8
LAYER_2
 40
0.1376
 41
0.1376
 66
1
 10
0
 20
0
 30
0
  0
VERTEX
  8
LAYER_2
 10
43.8835
 20
129.3314
  0
VERTEX
  8
LAYER_2
 10
43.6179
 20
129.4227
  0
SEQEND
  0
POLYLINE
  8
LAYER_2
  6
AIGENLINE033
 40
0.1376
 41
0.1376
 66
1
 10
0
 20
0
 30
0
 70
128
  0
VERTEX
  8
LAYER_2
 10
43.1395
 20
129.5187
 42
0.06301995347
  0
VERTEX
  8
LAYER_2
 10
42.4092
 20
129.5113
  0
SEQEND
  0
POLYLINE
  8
LAYER_2
 40
0.1376
 41
0.1376
 66
1
 10
0
 20
0
 30
0
  0
VERTEX
  8
LAYER_2
 10
42.1665
 20
129.4676
  0
VERTEX
  8
LAYER_2
 10
41.8959
 20
129.3928
  0
SEQEND
  0
POLYLINE
  8
LAYER_2
 40
0.1376
 41
0.1376
 66
1
 10
0
 20
0
 30
0
  0
VERTEX
  8
LAYER_2
 10
41.388
 20
131.768
  0
VERTEX
  8
LAYER_2
 10
41.6688
 20
131.768
  0
SEQEND
  0
POLYLINE
  8
LAYER_2
  6
AIGENLINE034
 40
0.1376
 41
0.1376
 66
1
 10
0
 20
0
 30
0
 70
128
  0
VERTEX
  8
LAYER_2
 10
42.2265
 20
131.768
  0
VERTEX
  8
LAYER_2
 10
68.7155
 20
131.768
  0
SEQEND
  0
POLYLINE
  8
LAYER_2
 40
0.1376
 41
0.1376
 66
1
 10
0
 20
0
 30
0
  0
VERTEX
  8
LAYER_2
 10
68.9942
 20
131.768
  0
VERTEX
  8
LAYER_2
 10
69.275
 20
131.768
  0
SEQEND
  0
POLYLINE
  8
LAYER_2
 40
0.1376
 41
0.1376
 66
1
 10
0
 20
0
 30
0
  0
VERTEX
  8
LAYER_2
 10
52.4504
 20
131.2904
  0
VERTEX
  8
LAYER_2
 10
52.7312
 20
131.2904
  0
SEQEND
  0
POLYLINE
  8
LAYER_2
  6
AIGENLINE035
 40
0.1376
 41
0.1376
 66
1
 10
0
 20
0
 30
0
 70
128
  0
VERTEX
  8
LAYER_2
 10
53.3087
 20
131.2904
  0
VERTEX
  8
LAYER_2
 10
57.6429
 20
131.2904
  0
SEQEND
  0
POLYLINE
  8
LAYER_2
 40
0.1376
 41
0.1376
 66
1
 10
0
 20
0
 30
0
  0
VERTEX
  8
LAYER_2
 10
57.9318
 20
131.2904
  0
VERTEX
  8
LAYER_2
 10
58.2126
 20
131.2904
  0
SEQEND
  0
POLYLINE
  8
LAYER_2
 40
0.1376
 41
0.1376
 66
1
 10
0
 20
0
 30
0
  0
VERTEX
  8
LAYER_2
 10
53.453
 20
130.3788
  0
VERTEX
  8
LAYER_2
 10
53.7338
 20
130.3788
  0
SEQEND
  0
POLYLINE
  8
LAYER_2
  6
AIGENLINE036
 40
0.1376
 41
0.1376
 66
1
 10
0
 20
0
 30
0
 70
128
  0
VERTEX
  8
LAYER_2
 10
54.3726
 20
130.3788
  0
VERTEX
  8
LAYER_2
 10
56.61
 20
130.3788
  0
SEQEND
  0
POLYLINE
  8
LAYER_2
 40
0.1376
 41
0.1376
 66
1
 10
0
 20
0
 30
0
  0
VERTEX
  8
LAYER_2
 10
56.9292
 20
130.3788
  0
VERTEX
  8
LAYER_2
 10
57.21
 20
130.3788
  0
SEQEND
  0
POLYLINE
  8
LAYER_2
 40
0.1376
 41
0.1376
 66
1
 10
0
 20
0
 30
0
  0
VERTEX
  8
LAYER_2
 10
53.502
 20
129.2975
  0
VERTEX
  8
LAYER_2
 10
53.7824
 20
129.2975
  0
SEQEND
  0
POLYLINE
  8
LAYER_2
  6
AIGENLINE037
 40
0.1376
 41
0.1376
 66
1
 10
0
 20
0
 30
0
 70
128
  0
VERTEX
  8
LAYER_2
 10
54.4023
 20
129.2975
  0
VERTEX
  8
LAYER_2
 10
56.5708
 20
129.2975
  0
SEQEND
  0
POLYLINE
  8
LAYER_2
 40
0.1376
 41
0.1376
 66
1
 10
0
 20
0
 30
0
  0
VERTEX
  8
LAYER_2
 10
56.8805
 20
129.2975
  0
VERTEX
  8
LAYER_2
 10
57.161
 20
129.2975
  0
SEQEND
  0
POLYLINE
  8
LAYER_2
 40
0.1376
 41
0.1376
 66
1
 10
0
 20
0
 30
0
  0
VERTEX
  8
LAYER_2
 10
41.8085
 20
128.502
  0
VERTEX
  8
LAYER_2
 10
42.0893
 20
128.502
  0
SEQEND
  0
POLYLINE
  8
LAYER_2
  6
AIGENLINE038
 40
0.1376
 41
0.1376
 66
1
 10
0
 20
0
 30
0
 70
128
  0
VERTEX
  8
LAYER_2
 10
42.5648
 20
128.502
  0
VERTEX
  8
LAYER_2
 10
43.2785
 20
128.502
  0
SEQEND
  0
POLYLINE
  8
LAYER_2
 40
0.1376
 41
0.1376
 66
1
 10
0
 20
0
 30
0
  0
VERTEX
  8
LAYER_2
 10
43.5166
 20
128.502
  0
VERTEX
  8
LAYER_2
 10
43.7974
 20
128.502
  0
SEQEND
  0
POLYLINE
  8
LAYER_2
 40
0.1376
 41
0.1376
 66
1
 10
0
 20
0
 30
0
  0
VERTEX
  8
LAYER_2
 10
43.7974
 20
128.502
  0
VERTEX
  8
LAYER_2
 10
44.0782
 20
128.502
  0
SEQEND
  0
POLYLINE
  8
LAYER_2
  6
AIGENLINE039
 40
0.1376
 41
0.1376
 66
1
 10
0
 20
0
 30
0
 70
128
  0
VERTEX
  8
LAYER_2
 10
44.6374
 20
128.502
  0
VERTEX
  8
LAYER_2
 10
65.6199
 20
128.502
  0
SEQEND
  0
POLYLINE
  8
LAYER_2
 40
0.1376
 41
0.1376
 66
1
 10
0
 20
0
 30
0
  0
VERTEX
  8
LAYER_2
 10
65.8997
 20
128.502
  0
VERTEX
  8
LAYER_2
 10
66.1805
 20
128.502
  0
SEQEND
  0
POLYLINE
  8
LAYER_2
 40
0.1376
 41
0.1376
 66
1
 10
0
 20
0
 30
0
  0
VERTEX
  8
LAYER_2
 10
39.835
 20
142.8206
  0
VERTEX
  8
LAYER_2
 10
40.1158
 20
142.8206
  0
SEQEND
  0
POLYLINE
  8
LAYER_2
  6
AIGENLINE040
 40
0.1376
 41
0.1376
 66
1
 10
0
 20
0
 30
0
 70
128
  0
VERTEX
  8
LAYER_2
 10
40.6683
 20
142.8205
  0
VERTEX
  8
LAYER_2
 10
70.2385
 20
142.8205
  0
SEQEND
  0
POLYLINE
  8
LAYER_2
 40
0.1376
 41
0.1376
 66
1
 10
0
 20
0
 30
0
  0
VERTEX
  8
LAYER_2
 10
70.5147
 20
142.8205
  0
VERTEX
  8
LAYER_2
 10
70.7955
 20
142.8205
  0
SEQEND
  0
POLYLINE
  8
LAYER_2
 40
0.1376
 41
0.1376
 66
1
 10
0
 20
0
 30
0
  0
VERTEX
  8
LAYER_2
 10
40.7547
 20
128.7892
  0
VERTEX
  8
LAYER_2
 10
40.7268
 20
129.0682
  0
SEQEND
  0
POLYLINE
  8
LAYER_2
  6
AIGENLINE041
 40
0.1376
 41
0.1376
 66
1
 10
0
 20
0
 30
0
 70
128
  0
VERTEX
  8
LAYER_2
 10
40.6693
 20
129.651
  0
VERTEX
  8
LAYER_2
 10
39.5429
 20
141.0164
  0
SEQEND
  0
POLYLINE
  8
LAYER_2
 40
0.1376
 41
0.1376
 66
1
 10
0
 20
0
 30
0
  0
VERTEX
  8
LAYER_2
 10
39.514
 20
141.3078
  0
VERTEX
  8
LAYER_2
 10
39.4861
 20
141.5869
  0
SEQEND
  0
POLYLINE
  8
LAYER_2
 40
0.1376
 41
0.1376
 66
1
 10
0
 20
0
 30
0
  0
VERTEX
  8
LAYER_2
 10
39.4865
 20
141.5869
 42
0.1755785319
  0
VERTEX
  8
LAYER_2
 10
39.3662
 20
141.8349
  0
SEQEND
  0
POLYLINE
  8
LAYER_2
 40
0.1376
 41
0.1376
 66
1
 10
0
 20
0
 30
0
  0
VERTEX
  8
LAYER_2
 10
39.3489
 20
141.8501
 42
0.1773096385
  0
VERTEX
  8
LAYER_2
 10
39.0903
 20
141.9457
  0
SEQEND
  0
POLYLINE
  8
LAYER_2
 40
0.1376
 41
0.1376
 66
1
 10
0
 20
0
 30
0
  0
VERTEX
  8
LAYER_2
 10
41.2673
 20
132.0065
  0
VERTEX
  8
LAYER_2
 10
41.2394
 20
132.2855
  0
SEQEND
  0
POLYLINE
  8
LAYER_2
  6
AIGENLINE042
 40
0.1376
 41
0.1376
 66
1
 10
0
 20
0
 30
0
 70
128
  0
VERTEX
  8
LAYER_2
 10
41.1816
 20
132.8676
  0
VERTEX
  8
LAYER_2
 10
40.2873
 20
141.8917
  0
SEQEND
  0
POLYLINE
  8
LAYER_2
 40
0.1376
 41
0.1376
 66
1
 10
0
 20
0
 30
0
  0
VERTEX
  8
LAYER_2
 10
40.2584
 20
142.1827
  0
VERTEX
  8
LAYER_2
 10
40.2305
 20
142.4621
  0
SEQEND
  0
POLYLINE
  8
LAYER_2
 40
0.1376
 41
0.1376
 66
1
 10
0
 20
0
 30
0
  0
VERTEX
  8
LAYER_2
 10
40.2305
 20
142.4621
 42
0.1761385747
  0
VERTEX
  8
LAYER_2
 10
40.1102
 20
142.7101
  0
SEQEND
  0
POLYLINE
  8
LAYER_2
 40
0.1376
 41
0.1376
 66
1
 10
0
 20
0
 30
0
  0
VERTEX
  8
LAYER_2
 10
40.0929
 20
142.7253
 42
0.1766252814
  0
VERTEX
  8
LAYER_2
 10
39.8347
 20
142.8205
  0
SEQEND
  0
POLYLINE
  8
LAYER_2
 40
0.1376
 41
0.1376
 66
1
 10
0
 20
0
 30
0
  0
VERTEX
  8
LAYER_2
 10
65.4425
 20
130.1675
 42
0.1109642838
  0
VERTEX
  8
LAYER_2
 10
65.289
 20
130.4006
  0
SEQEND
  0
POLYLINE
  8
LAYER_2
 40
0.1376
 41
0.1376
 66
1
 10
0
 20
0
 30
0
  0
VERTEX
  8
LAYER_2
 10
65.0763
 20
130.5365
 42
0.1117848679
  0
VERTEX
  8
LAYER_2
 10
64.8004
 20
130.5774
  0
SEQEND
  0
POLYLINE
  8
LAYER_2
 40
0.1376
 41
0.1376
 66
1
 10
0
 20
0
 30
0
  0
VERTEX
  8
LAYER_2
 10
65.4425
 20
130.1675
  0
VERTEX
  8
LAYER_2
 10
65.5416
 20
129.9046
  0
SEQEND
  0
POLYLINE
  8
LAYER_2
  6
AIGENLINE020
 40
0.1376
 41
0.1376
 66
1
 10
0
 20
0
 30
0
 70
128
  0
VERTEX
  8
LAYER_2
 10
65.6721
 20
129.5589
  0
VERTEX
  8
LAYER_2
 10
65.8676
 20
129.0403
  0
SEQEND
  0
POLYLINE
  8
LAYER_2
 40
0.1376
 41
0.1376
 66
1
 10
0
 20
0
 30
0
  0
VERTEX
  8
LAYER_2
 10
65.9328
 20
128.8675
  0
VERTEX
  8
LAYER_2
 10
66.0319
 20
128.605
  0
SEQEND
  0
POLYLINE
  8
LAYER_2
  6
AIGENLINE021
 40
0.1376
 41
0.1376
 66
1
 10
0
 20
0
 30
0
 70
128
  0
VERTEX
  8
LAYER_2
 10
66.0316
 20
128.605
 42
0.303389423
  0
VERTEX
  8
LAYER_2
 10
66.1805
 20
128.502
  0
SEQEND
  0
POLYLINE
  8
LAYER_2
 40
0.1376
 41
0.1376
 66
1
 10
0
 20
0
 30
0
  0
VERTEX
  8
LAYER_2
 10
66.8659
 20
128.502
  0
VERTEX
  8
LAYER_2
 10
66.5851
 20
128.502
  0
SEQEND
  0
POLYLINE
  8
LAYER_2
 40
0.1376
 41
0.1376
 66
1
 10
0
 20
0
 30
0
  0
VERTEX
  8
LAYER_2
 10
66.4609
 20
128.502
  0
VERTEX
  8
LAYER_2
 10
66.1805
 20
128.502
  0
SEQEND
  0
POLYLINE
  8
LAYER_2
  6
AIGENLINE022
 40
0.1376
 41
0.1376
 66
1
 10
0
 20
0
 30
0
 70
128
  0
VERTEX
  8
LAYER_2
 10
69.0306
 20
131.6601
 42
0.35621198
  0
VERTEX
  8
LAYER_2
 10
69.3957
 20
132.0061
  0
SEQEND
  0
POLYLINE
  8
LAYER_2
 40
0.1376
 41
0.1376
 66
1
 10
0
 20
0
 30
0
  0
VERTEX
  8
LAYER_2
 10
70.8146
 20
128.502
  0
VERTEX
  8
LAYER_2
 10
70.5337
 20
128.502
  0
SEQEND
  0
POLYLINE
  8
LAYER_2
  6
AIGENLINE043
 40
0.1376
 41
0.1376
 66
1
 10
0
 20
0
 30
0
 70
128
  0
VERTEX
  8
LAYER_2
 10
70.0677
 20
128.502
  0
VERTEX
  8
LAYER_2
 10
69.3682
 20
128.502
  0
SEQEND
  0
POLYLINE
  8
LAYER_2
 40
0.1376
 41
0.1376
 66
1
 10
0
 20
0
 30
0
  0
VERTEX
  8
LAYER_2
 10
69.135
 20
128.502
  0
VERTEX
  8
LAYER_2
 10
68.8545
 20
128.502
  0
SEQEND
  0
POLYLINE
  8
LAYER_2
 40
0.1376
 41
0.1376
 66
1
 10
0
 20
0
 30
0
  0
VERTEX
  8
LAYER_2
 10
70.019
 20
129.4566
  0
VERTEX
  8
LAYER_2
 10
69.7382
 20
129.4566
  0
SEQEND
  0
POLYLINE
  8
LAYER_2
 40
0.1376
 41
0.1376
 66
1
 10
0
 20
0
 30
0
  0
VERTEX
  8
LAYER_2
 10
69.1607
 20
129.4566
  0
VERTEX
  8
LAYER_2
 10
68.8803
 20
129.4566
  0
SEQEND
  0
POLYLINE
  8
LAYER_2
 40
0.1376
 41
0.1376
 66
1
 10
0
 20
0
 30
0
  0
VERTEX
  8
LAYER_2
 10
68.8545
 20
128.502
  0
VERTEX
  8
LAYER_2
 10
68.597
 20
128.6142
  0
SEQEND
  0
POLYLINE
  8
LAYER_2
  6
AIGENLINE028
 40
0.1376
 41
0.1376
 66
1
 10
0
 20
0
 30
0
 70
128
  0
VERTEX
  8
LAYER_2
 10
68.1105
 20
128.7285
 42
0.08710194691
  0
VERTEX
  8
LAYER_2
 10
67.3633
 20
128.6851
  0
SEQEND
  0
POLYLINE
  8
LAYER_2
 40
0.1376
 41
0.1376
 66
1
 10
0
 20
0
 30
0
  0
VERTEX
  8
LAYER_2
 10
67.1231
 20
128.6142
  0
VERTEX
  8
LAYER_2
 10
66.8659
 20
128.502
  0
SEQEND
  0
POLYLINE
  8
LAYER_2
 40
0.1376
 41
0.1376
 66
1
 10
0
 20
0
 30
0
  0
VERTEX
  8
LAYER_2
 10
70.0018
 20
130.9587
  0
VERTEX
  8
LAYER_2
 10
69.7216
 20
130.9383
  0
SEQEND
  0
POLYLINE
  8
LAYER_2
  6
AIGENLINE044
 40
0.1376
 41
0.1376
 66
1
 10
0
 20
0
 30
0
 70
128
  0
VERTEX
  8
LAYER_2
 10
69.0962
 20
130.8924
  0
VERTEX
  8
LAYER_2
 10
66.9072
 20
130.7323
  0
SEQEND
  0
POLYLINE
  8
LAYER_2
 40
0.1376
 41
0.1376
 66
1
 10
0
 20
0
 30
0
  0
VERTEX
  8
LAYER_2
 10
66.5946
 20
130.7093
  0
VERTEX
  8
LAYER_2
 10
66.3145
 20
130.6889
  0
SEQEND
  0
POLYLINE
  8
LAYER_2
  6
AIGENLINE045
 40
0.1376
 41
0.1376
 66
1
 10
0
 20
0
 30
0
 70
128
  0
VERTEX
  8
LAYER_2
 10
66.3145
 20
130.6889
 42
0.3918605357
  0
VERTEX
  8
LAYER_2
 10
66.1674
 20
130.5185
  0
VERTEX
  8
LAYER_2
 10
66.1773
 20
130.4737
  0
SEQEND
  0
POLYLINE
  8
LAYER_2
 40
0.1376
 41
0.1376
 66
1
 10
0
 20
0
 30
0
  0
VERTEX
  8
LAYER_2
 10
66.1773
 20
130.4737
  0
VERTEX
  8
LAYER_2
 10
66.2764
 20
130.2112
  0
SEQEND
  0
POLYLINE
  8
LAYER_2
 40
0.1376
 41
0.1376
 66
1
 10
0
 20
0
 30
0
  0
VERTEX
  8
LAYER_2
 10
66.4743
 20
129.6863
  0
VERTEX
  8
LAYER_2
 10
66.5731
 20
129.4235
  0
SEQEND
  0
POLYLINE
  8
LAYER_2
  6
AIGENLINE003
 40
0.1376
 41
0.1376
 66
1
 10
0
 20
0
 30
0
 70
128
  0
VERTEX
  8
LAYER_2
 10
66.5731
 20
129.4238
 42
0.3924424261
  0
VERTEX
  8
LAYER_2
 10
66.7781
 20
129.331
  0
SEQEND
  0
POLYLINE
  8
LAYER_2
 40
0.1376
 41
0.1376
 66
1
 10
0
 20
0
 30
0
  0
VERTEX
  8
LAYER_2
 10
68.8302
 20
129.4619
  0
VERTEX
  8
LAYER_2
 10
68.5525
 20
129.5106
  0
SEQEND
  0
POLYLINE
  8
LAYER_2
  6
AIGENLINE046
 40
0.1376
 41
0.1376
 66
1
 10
0
 20
0
 30
0
 70
128
  0
VERTEX
  8
LAYER_2
 10
68.0477
 20
129.5466
 42
0.05018363636
  0
VERTEX
  8
LAYER_2
 10
67.2952
 20
129.4728
  0
SEQEND
  0
POLYLINE
  8
LAYER_2
 40
0.1376
 41
0.1376
 66
1
 10
0
 20
0
 30
0
  0
VERTEX
  8
LAYER_2
 10
67.0483
 20
129.4153
  0
VERTEX
  8
LAYER_2
 10
66.7795
 20
129.3314
  0
SEQEND
  0
POLYLINE
  8
LAYER_2
  6
AIGENLINE047
 40
0.1376
 41
0.1376
 66
1
 10
0
 20
0
 30
0
 70
128
  0
VERTEX
  8
LAYER_2
 10
68.8302
 20
129.4619
  0
VERTEX
  8
LAYER_2
 10
68.8803
 20
129.4563
  0
SEQEND
  0
POLYLINE
  8
LAYER_2
 40
0.1376
 41
0.1376
 66
1
 10
0
 20
0
 30
0
  0
VERTEX
  8
LAYER_2
 10
68.8545
 20
128.502
  0
VERTEX
  8
LAYER_2
 10
68.5737
 20
128.502
  0
SEQEND
  0
POLYLINE
  8
LAYER_2
  6
AIGENLINE038
 40
0.1376
 41
0.1376
 66
1
 10
0
 20
0
 30
0
 70
128
  0
VERTEX
  8
LAYER_2
 10
68.0982
 20
128.502
  0
VERTEX
  8
LAYER_2
 10
67.3845
 20
128.502
  0
SEQEND
  0
POLYLINE
  8
LAYER_2
 40
0.1376
 41
0.1376
 66
1
 10
0
 20
0
 30
0
  0
VERTEX
  8
LAYER_2
 10
67.1464
 20
128.502
  0
VERTEX
  8
LAYER_2
 10
66.8659
 20
128.502
  0
SEQEND
  0
POLYLINE
  8
LAYER_2
 40
0.1376
 41
0.1376
 66
1
 10
0
 20
0
 30
0
  0
VERTEX
  8
LAYER_2
 10
69.396
 20
132.0065
  0
VERTEX
  8
LAYER_2
 10
69.4239
 20
132.2855
  0
SEQEND
  0
POLYLINE
  8
LAYER_2
  6
AIGENLINE042
 40
0.1376
 41
0.1376
 66
1
 10
0
 20
0
 30
0
 70
128
  0
VERTEX
  8
LAYER_2
 10
69.4814
 20
132.8676
  0
VERTEX
  8
LAYER_2
 10
70.3757
 20
141.8917
  0
SEQEND
  0
POLYLINE
  8
LAYER_2
 40
0.1376
 41
0.1376
 66
1
 10
0
 20
0
 30
0
  0
VERTEX
  8
LAYER_2
 10
70.4046
 20
142.1827
  0
VERTEX
  8
LAYER_2
 10
70.4325
 20
142.4621
  0
SEQEND
  0
POLYLINE
  8
LAYER_2
 40
0.1376
 41
0.1376
 66
1
 10
0
 20
0
 30
0
  0
VERTEX
  8
LAYER_2
 10
70.828
 20
142.8206
 42
0.1788040203
  0
VERTEX
  8
LAYER_2
 10
70.5697
 20
142.7249
  0
SEQEND
  0
POLYLINE
  8
LAYER_2
 40
0.1376
 41
0.1376
 66
1
 10
0
 20
0
 30
0
  0
VERTEX
  8
LAYER_2
 10
70.5524
 20
142.7098
 42
0.1770916799
  0
VERTEX
  8
LAYER_2
 10
70.4325
 20
142.4618
  0
SEQEND
  0
POLYLINE
  8
LAYER_2
 40
0.1376
 41
0.1376
 66
1
 10
0
 20
0
 30
0
  0
VERTEX
  8
LAYER_2
 10
103.7499
 20
128.8199
  0
VERTEX
  8
LAYER_2
 10
104.0303
 20
128.8199
  0
VERTEX
  8
LAYER_2
 10
104.0303
 20
129.0587
  0
VERTEX
  8
LAYER_2
 10
103.7499
 20
129.0587
  0
SEQEND
  0
POLYLINE
  8
LAYER_2
  6
AIGENLINE013
 40
0.1376
 41
0.1376
 66
1
 10
0
 20
0
 30
0
 70
128
  0
VERTEX
  8
LAYER_2
 10
103.1142
 20
129.0587
  0
VERTEX
  8
LAYER_2
 10
99.6178
 20
129.059
  0
SEQEND
  0
POLYLINE
  8
LAYER_2
 40
0.1376
 41
0.1376
 66
1
 10
0
 20
0
 30
0
  0
VERTEX
  8
LAYER_2
 10
99.2996
 20
129.059
  0
VERTEX
  8
LAYER_2
 10
99.0191
 20
129.059
  0
VERTEX
  8
LAYER_2
 10
99.0191
 20
128.8202
  0
VERTEX
  8
LAYER_2
 10
99.2996
 20
128.8202
  0
SEQEND
  0
POLYLINE
  8
LAYER_2
  6
AIGENLINE013
 40
0.1376
 41
0.1376
 66
1
 10
0
 20
0
 30
0
 70
128
  0
VERTEX
  8
LAYER_2
 10
99.9353
 20
128.8202
  0
VERTEX
  8
LAYER_2
 10
103.4317
 20
128.8199
  0
SEQEND
  0
POLYLINE
  8
LAYER_2
 40
0.1376
 41
0.1376
 66
1
 10
0
 20
0
 30
0
  0
VERTEX
  8
LAYER_2
 10
103.7499
 20
129.0587
  0
VERTEX
  8
LAYER_2
 10
104.0303
 20
129.0587
  0
VERTEX
  8
LAYER_2
 10
104.0303
 20
129.2975
  0
VERTEX
  8
LAYER_2
 10
103.7499
 20
129.2975
  0
SEQEND
  0
POLYLINE
  8
LAYER_2
  6
AIGENLINE013
 40
0.1376
 41
0.1376
 66
1
 10
0
 20
0
 30
0
 70
128
  0
VERTEX
  8
LAYER_2
 10
103.1142
 20
129.2975
  0
VERTEX
  8
LAYER_2
 10
99.6178
 20
129.2975
  0
SEQEND
  0
POLYLINE
  8
LAYER_2
 40
0.1376
 41
0.1376
 66
1
 10
0
 20
0
 30
0
  0
VERTEX
  8
LAYER_2
 10
99.2996
 20
129.2975
  0
VERTEX
  8
LAYER_2
 10
99.0191
 20
129.2975
  0
VERTEX
  8
LAYER_2
 10
99.0191
 20
129.059
  0
VERTEX
  8
LAYER_2
 10
99.2996
 20
129.059
  0
SEQEND
  0
POLYLINE
  8
LAYER_2
  6
AIGENLINE013
 40
0.1376
 41
0.1376
 66
1
 10
0
 20
0
 30
0
 70
128
  0
VERTEX
  8
LAYER_2
 10
99.9353
 20
129.059
  0
VERTEX
  8
LAYER_2
 10
103.4317
 20
129.0587
  0
SEQEND
  0
POLYLINE
  8
LAYER_2
 40
0.1376
 41
0.1376
 66
1
 10
0
 20
0
 30
0
  0
VERTEX
  8
LAYER_2
 10
103.1929
 20
128.5017
  0
VERTEX
  8
LAYER_2
 10
103.4737
 20
128.5017
  0
VERTEX
  8
LAYER_2
 10
103.4737
 20
128.8206
  0
VERTEX
  8
LAYER_2
 10
103.1929
 20
128.8206
  0
SEQEND
  0
POLYLINE
  8
LAYER_2
  6
AIGENLINE014
 40
0.1376
 41
0.1376
 66
1
 10
0
 20
0
 30
0
 70
128
  0
VERTEX
  8
LAYER_2
 10
102.7162
 20
128.8206
  0
VERTEX
  8
LAYER_2
 10
100.0948
 20
128.8206
  0
SEQEND
  0
POLYLINE
  8
LAYER_2
 40
0.1376
 41
0.1376
 66
1
 10
0
 20
0
 30
0
  0
VERTEX
  8
LAYER_2
 10
99.8563
 20
128.8206
  0
VERTEX
  8
LAYER_2
 10
99.5758
 20
128.8206
  0
VERTEX
  8
LAYER_2
 10
99.5758
 20
128.5013
  0
VERTEX
  8
LAYER_2
 10
99.8563
 20
128.5013
  0
SEQEND
  0
POLYLINE
  8
LAYER_2
  6
AIGENLINE014
 40
0.1376
 41
0.1376
 66
1
 10
0
 20
0
 30
0
 70
128
  0
VERTEX
  8
LAYER_2
 10
100.3332
 20
128.5017
  0
VERTEX
  8
LAYER_2
 10
102.9544
 20
128.5017
  0
SEQEND
  0
POLYLINE
  8
LAYER_2
  6
AIGENLINE015
 40
0.1376
 41
0.1376
 66
1
 10
0
 20
0
 30
0
 70
128
  0
VERTEX
  8
LAYER_2
 10
104.4057
 20
131.2904
  0
VERTEX
  8
LAYER_2
 10
104.3076
 20
131.2466
  0
SEQEND
  0
POLYLINE
  8
LAYER_2
 40
0.1376
 41
0.1376
 66
1
 10
0
 20
0
 30
0
  0
VERTEX
  8
LAYER_2
 10
104.3073
 20
131.2463
  0
VERTEX
  8
LAYER_2
 10
104.1048
 20
131.0522
  0
SEQEND
  0
POLYLINE
  8
LAYER_2
 40
0.1376
 41
0.1376
 66
1
 10
0
 20
0
 30
0
  0
VERTEX
  8
LAYER_2
 10
103.6056
 20
130.5728
  0
VERTEX
  8
LAYER_2
 10
103.4031
 20
130.3784
  0
SEQEND
  0
POLYLINE
  8
LAYER_2
  6
AIGENLINE016
 40
0.1376
 41
0.1376
 66
1
 10
0
 20
0
 30
0
 70
128
  0
VERTEX
  8
LAYER_2
 10
103.4031
 20
130.3784
 42
0.1987901952
  0
VERTEX
  8
LAYER_2
 10
103.3548
 20
130.2634
  0
SEQEND
  0
POLYLINE
  8
LAYER_2
 40
0.1376
 41
0.1376
 66
1
 10
0
 20
0
 30
0
  0
VERTEX
  8
LAYER_2
 10
103.3544
 20
130.2638
  0
VERTEX
  8
LAYER_2
 10
103.3544
 20
129.983
  0
SEQEND
  0
POLYLINE
  8
LAYER_2
 40
0.1376
 41
0.1376
 66
1
 10
0
 20
0
 30
0
  0
VERTEX
  8
LAYER_2
 10
103.3544
 20
129.578
  0
VERTEX
  8
LAYER_2
 10
103.3544
 20
129.2972
  0
SEQEND
  0
POLYLINE
  8
LAYER_2
  6
AIGENLINE017
 40
0.1376
 41
0.1376
 66
1
 10
0
 20
0
 30
0
 70
128
  0
VERTEX
  8
LAYER_2
 10
103.3544
 20
129.2975
  0
VERTEX
  8
LAYER_2
 10
103.9051
 20
129.2975
  0
SEQEND
  0
POLYLINE
  8
LAYER_2
  6
AIGENLINE048
 40
0.1376
 41
0.1376
 66
1
 10
0
 20
0
 30
0
 70
128
  0
VERTEX
  8
LAYER_2
 10
103.9051
 20
129.2975
  0
VERTEX
  8
LAYER_2
 10
103.9051
 20
129.7579
  0
SEQEND
  0
POLYLINE
  8
LAYER_2
 40
0.1376
 41
0.1376
 66
1
 10
0
 20
0
 30
0
  0
VERTEX
  8
LAYER_2
 10
103.9051
 20
129.7579
  0
VERTEX
  8
LAYER_2
 10
104.108
 20
129.9519
  0
SEQEND
  0
POLYLINE
  8
LAYER_2
 40
0.1376
 41
0.1376
 66
1
 10
0
 20
0
 30
0
  0
VERTEX
  8
LAYER_2
 10
104.49
 20
130.3192
  0
VERTEX
  8
LAYER_2
 10
104.6929
 20
130.5135
  0
SEQEND
  0
POLYLINE
  8
LAYER_2
 40
0.1376
 41
0.1376
 66
1
 10
0
 20
0
 30
0
  0
VERTEX
  8
LAYER_2
 10
104.6925
 20
130.5135
  0
VERTEX
  8
LAYER_2
 10
104.9733
 20
130.5164
  0
SEQEND
  0
POLYLINE
  8
LAYER_2
  6
AIGENLINE019
 40
0.1376
 41
0.1376
 66
1
 10
0
 20
0
 30
0
 70
128
  0
VERTEX
  8
LAYER_2
 10
105.4951
 20
130.5217
  0
VERTEX
  8
LAYER_2
 10
110.4527
 20
130.5718
  0
SEQEND
  0
POLYLINE
  8
LAYER_2
 40
0.1376
 41
0.1376
 66
1
 10
0
 20
0
 30
0
  0
VERTEX
  8
LAYER_2
 10
110.7137
 20
130.5746
  0
VERTEX
  8
LAYER_2
 10
110.9942
 20
130.5774
  0
SEQEND
  0
POLYLINE
  8
LAYER_2
 40
0.1376
 41
0.1376
 66
1
 10
0
 20
0
 30
0
  0
VERTEX
  8
LAYER_2
 10
111.6362
 20
130.1671
 42
0.1103105457
  0
VERTEX
  8
LAYER_2
 10
111.4831
 20
130.4003
  0
SEQEND
  0
POLYLINE
  8
LAYER_2
 40
0.1376
 41
0.1376
 66
1
 10
0
 20
0
 30
0
  0
VERTEX
  8
LAYER_2
 10
111.2701
 20
130.5365
 42
0.1111459315
  0
VERTEX
  8
LAYER_2
 10
110.9945
 20
130.577
  0
SEQEND
  0
POLYLINE
  8
LAYER_2
 40
0.1376
 41
0.1376
 66
1
 10
0
 20
0
 30
0
  0
VERTEX
  8
LAYER_2
 10
111.6362
 20
130.1671
  0
VERTEX
  8
LAYER_2
 10
111.7354
 20
129.9043
  0
SEQEND
  0
POLYLINE
  8
LAYER_2
  6
AIGENLINE020
 40
0.1376
 41
0.1376
 66
1
 10
0
 20
0
 30
0
 70
128
  0
VERTEX
  8
LAYER_2
 10
111.8655
 20
129.5589
  0
VERTEX
  8
LAYER_2
 10
112.061
 20
129.04
  0
SEQEND
  0
POLYLINE
  8
LAYER_2
 40
0.1376
 41
0.1376
 66
1
 10
0
 20
0
 30
0
  0
VERTEX
  8
LAYER_2
 10
112.1262
 20
128.8675
  0
VERTEX
  8
LAYER_2
 10
112.2254
 20
128.6046
  0
SEQEND
  0
POLYLINE
  8
LAYER_2
  6
AIGENLINE021
 40
0.1376
 41
0.1376
 66
1
 10
0
 20
0
 30
0
 70
128
  0
VERTEX
  8
LAYER_2
 10
112.225
 20
128.605
 42
0.3041892451
  0
VERTEX
  8
LAYER_2
 10
112.3742
 20
128.502
  0
SEQEND
  0
POLYLINE
  8
LAYER_2
 40
0.1376
 41
0.1376
 66
1
 10
0
 20
0
 30
0
  0
VERTEX
  8
LAYER_2
 10
99.6951
 20
129.2975
  0
VERTEX
  8
LAYER_2
 10
99.6951
 20
129.578
  0
SEQEND
  0
POLYLINE
  8
LAYER_2
 40
0.1376
 41
0.1376
 66
1
 10
0
 20
0
 30
0
  0
VERTEX
  8
LAYER_2
 10
99.6951
 20
129.983
  0
VERTEX
  8
LAYER_2
 10
99.6951
 20
130.2638
  0
SEQEND
  0
POLYLINE
  8
LAYER_2
  6
AIGENLINE016
 40
0.1376
 41
0.1376
 66
1
 10
0
 20
0
 30
0
 70
128
  0
VERTEX
  8
LAYER_2
 10
99.6951
 20
130.2638
 42
0.1998252976
  0
VERTEX
  8
LAYER_2
 10
99.6464
 20
130.3784
  0
SEQEND
  0
POLYLINE
  8
LAYER_2
 40
0.1376
 41
0.1376
 66
1
 10
0
 20
0
 30
0
  0
VERTEX
  8
LAYER_2
 10
99.6464
 20
130.3784
  0
VERTEX
  8
LAYER_2
 10
99.4439
 20
130.5728
  0
SEQEND
  0
POLYLINE
  8
LAYER_2
 40
0.1376
 41
0.1376
 66
1
 10
0
 20
0
 30
0
  0
VERTEX
  8
LAYER_2
 10
98.9443
 20
131.0522
  0
VERTEX
  8
LAYER_2
 10
98.7422
 20
131.2463
  0
SEQEND
  0
POLYLINE
  8
LAYER_2
  6
AIGENLINE015
 40
0.1376
 41
0.1376
 66
1
 10
0
 20
0
 30
0
 70
128
  0
VERTEX
  8
LAYER_2
 10
98.7422
 20
131.2463
  0
VERTEX
  8
LAYER_2
 10
98.6438
 20
131.29
  0
SEQEND
  0
POLYLINE
  8
LAYER_2
 40
0.1376
 41
0.1376
 66
1
 10
0
 20
0
 30
0
  0
VERTEX
  8
LAYER_2
 10
113.0593
 20
128.5017
  0
VERTEX
  8
LAYER_2
 10
112.7789
 20
128.5017
  0
SEQEND
  0
POLYLINE
  8
LAYER_2
 40
0.1376
 41
0.1376
 66
1
 10
0
 20
0
 30
0
  0
VERTEX
  8
LAYER_2
 10
112.6547
 20
128.5017
  0
VERTEX
  8
LAYER_2
 10
112.3739
 20
128.5017
  0
SEQEND
  0
POLYLINE
  8
LAYER_2
 40
0.1376
 41
0.1376
 66
1
 10
0
 20
0
 30
0
  0
VERTEX
  8
LAYER_2
 10
92.056
 20
130.5778
  0
VERTEX
  8
LAYER_2
 10
92.3368
 20
130.5749
  0
SEQEND
  0
POLYLINE
  8
LAYER_2
  6
AIGENLINE019
 40
0.1376
 41
0.1376
 66
1
 10
0
 20
0
 30
0
 70
128
  0
VERTEX
  8
LAYER_2
 10
92.8579
 20
130.5696
  0
VERTEX
  8
LAYER_2
 10
97.8151
 20
130.5195
  0
SEQEND
  0
POLYLINE
  8
LAYER_2
 40
0.1376
 41
0.1376
 66
1
 10
0
 20
0
 30
0
  0
VERTEX
  8
LAYER_2
 10
98.0762
 20
130.5167
  0
VERTEX
  8
LAYER_2
 10
98.357
 20
130.5139
  0
VERTEX
  8
LAYER_2
 10
98.5591
 20
130.3195
  0
SEQEND
  0
POLYLINE
  8
LAYER_2
 40
0.1376
 41
0.1376
 66
1
 10
0
 20
0
 30
0
  0
VERTEX
  8
LAYER_2
 10
98.9419
 20
129.9519
  0
VERTEX
  8
LAYER_2
 10
99.1444
 20
129.7579
  0
SEQEND
  0
POLYLINE
  8
LAYER_2
  6
AIGENLINE048
 40
0.1376
 41
0.1376
 66
1
 10
0
 20
0
 30
0
 70
128
  0
VERTEX
  8
LAYER_2
 10
99.1444
 20
129.7579
  0
VERTEX
  8
LAYER_2
 10
99.1444
 20
129.2972
  0
SEQEND
  0
POLYLINE
  8
LAYER_2
  6
AIGENLINE017
 40
0.1376
 41
0.1376
 66
1
 10
0
 20
0
 30
0
 70
128
  0
VERTEX
  8
LAYER_2
 10
99.1444
 20
129.2975
  0
VERTEX
  8
LAYER_2
 10
99.6951
 20
129.2975
  0
SEQEND
  0
POLYLINE
  8
LAYER_2
  6
AIGENLINE022
 40
0.1376
 41
0.1376
 66
1
 10
0
 20
0
 30
0
 70
128
  0
VERTEX
  8
LAYER_2
 10
115.224
 20
131.6601
 42
0.3572154365
  0
VERTEX
  8
LAYER_2
 10
115.5895
 20
132.0054
  0
SEQEND
  0
POLYLINE
  8
LAYER_2
 40
0.1376
 41
0.1376
 66
1
 10
0
 20
0
 30
0
  0
VERTEX
  8
LAYER_2
 10
115.224
 20
131.6601
  0
VERTEX
  8
LAYER_2
 10
114.9435
 20
131.6505
  0
SEQEND
  0
POLYLINE
  8
LAYER_2
  6
AIGENLINE023
 40
0.1376
 41
0.1376
 66
1
 10
0
 20
0
 30
0
 70
128
  0
VERTEX
  8
LAYER_2
 10
114.4038
 20
131.6319
  0
VERTEX
  8
LAYER_2
 10
104.956
 20
131.3094
  0
SEQEND
  0
POLYLINE
  8
LAYER_2
 40
0.1376
 41
0.1376
 66
1
 10
0
 20
0
 30
0
  0
VERTEX
  8
LAYER_2
 10
104.6869
 20
131.2999
  0
VERTEX
  8
LAYER_2
 10
104.4061
 20
131.2904
  0
SEQEND
  0
POLYLINE
  8
LAYER_2
 40
0.1376
 41
0.1376
 66
1
 10
0
 20
0
 30
0
  0
VERTEX
  8
LAYER_2
 10
98.6441
 20
131.2904
  0
VERTEX
  8
LAYER_2
 10
98.3633
 20
131.2999
  0
SEQEND
  0
POLYLINE
  8
LAYER_2
  6
AIGENLINE023
 40
0.1376
 41
0.1376
 66
1
 10
0
 20
0
 30
0
 70
128
  0
VERTEX
  8
LAYER_2
 10
97.8232
 20
131.3182
  0
VERTEX
  8
LAYER_2
 10
88.3762
 20
131.641
  0
SEQEND
  0
POLYLINE
  8
LAYER_2
 40
0.1376
 41
0.1376
 66
1
 10
0
 20
0
 30
0
  0
VERTEX
  8
LAYER_2
 10
88.1063
 20
131.6505
  0
VERTEX
  8
LAYER_2
 10
87.8255
 20
131.6601
  0
SEQEND
  0
POLYLINE
  8
LAYER_2
 40
0.1376
 41
0.1376
 66
1
 10
0
 20
0
 30
0
  0
VERTEX
  8
LAYER_2
 10
117.0214
 20
142.8202
  0
VERTEX
  8
LAYER_2
 10
117.3022
 20
142.8202
  0
SEQEND
  0
POLYLINE
  8
LAYER_2
  6
AIGENLINE024
 40
0.1376
 41
0.1376
 66
1
 10
0
 20
0
 30
0
 70
128
  0
VERTEX
  8
LAYER_2
 10
117.9361
 20
142.8202
  0
VERTEX
  8
LAYER_2
 10
121.4223
 20
142.8202
  0
SEQEND
  0
POLYLINE
  8
LAYER_2
 40
0.1376
 41
0.1376
 66
1
 10
0
 20
0
 30
0
  0
VERTEX
  8
LAYER_2
 10
121.7391
 20
142.8202
  0
VERTEX
  8
LAYER_2
 10
122.0199
 20
142.8202
  0
SEQEND
  0
POLYLINE
  8
LAYER_2
  6
AIGENLINE049
 40
0.1376
 41
0.1376
 66
1
 10
0
 20
0
 30
0
 70
128
  0
VERTEX
  8
LAYER_2
 10
122.179
 20
142.6611
 42
0.4141964238
  0
VERTEX
  8
LAYER_2
 10
122.0199
 20
142.8202
  0
SEQEND
  0
POLYLINE
  8
LAYER_2
  6
AIGENLINE025
 40
0.1376
 41
0.1376
 66
1
 10
0
 20
0
 30
0
 70
128
  0
VERTEX
  8
LAYER_2
 10
122.179
 20
142.6611
  0
VERTEX
  8
LAYER_2
 10
122.179
 20
142.1044
  0
SEQEND
  0
POLYLINE
  8
LAYER_2
  6
AIGENLINE003
 40
0.1376
 41
0.1376
 66
1
 10
0
 20
0
 30
0
 70
128
  0
VERTEX
  8
LAYER_2
 10
122.0195
 20
141.9453
 42
0.3919151358
  0
VERTEX
  8
LAYER_2
 10
122.1786
 20
142.1037
  0
SEQEND
  0
POLYLINE
  8
LAYER_2
 40
0.1376
 41
0.1376
 66
1
 10
0
 20
0
 30
0
  0
VERTEX
  8
LAYER_2
 10
122.0195
 20
141.9453
  0
VERTEX
  8
LAYER_2
 10
121.7391
 20
141.9453
  0
SEQEND
  0
POLYLINE
  8
LAYER_2
  6
AIGENLINE026
 40
0.1376
 41
0.1376
 66
1
 10
0
 20
0
 30
0
 70
128
  0
VERTEX
  8
LAYER_2
 10
121.2117
 20
141.9453
  0
VERTEX
  8
LAYER_2
 10
118.3108
 20
141.9453
  0
SEQEND
  0
POLYLINE
  8
LAYER_2
 40
0.1376
 41
0.1376
 66
1
 10
0
 20
0
 30
0
  0
VERTEX
  8
LAYER_2
 10
118.0469
 20
141.9453
  0
VERTEX
  8
LAYER_2
 10
117.7661
 20
141.9453
  0
SEQEND
  0
POLYLINE
  8
LAYER_2
 40
0.1376
 41
0.1376
 66
1
 10
0
 20
0
 30
0
  0
VERTEX
  8
LAYER_2
 10
117.7665
 20
141.9453
 42
0.178309284
  0
VERTEX
  8
LAYER_2
 10
117.5079
 20
141.8497
  0
SEQEND
  0
POLYLINE
  8
LAYER_2
 40
0.1376
 41
0.1376
 66
1
 10
0
 20
0
 30
0
  0
VERTEX
  8
LAYER_2
 10
117.4909
 20
141.8345
 42
0.1773079545
  0
VERTEX
  8
LAYER_2
 10
117.3706
 20
141.5865
  0
SEQEND
  0
POLYLINE
  8
LAYER_2
  6
AIGENLINE027
 40
0.1376
 41
0.1376
 66
1
 10
0
 20
0
 30
0
 70
128
  0
VERTEX
  8
LAYER_2
 10
115.7027
 20
128.5017
 42
0.3839231878
  0
VERTEX
  8
LAYER_2
 10
116.1017
 20
128.7867
  0
SEQEND
  0
POLYLINE
  8
LAYER_2
 40
0.1376
 41
0.1376
 66
1
 10
0
 20
0
 30
0
  0
VERTEX
  8
LAYER_2
 10
115.7027
 20
128.5017
  0
VERTEX
  8
LAYER_2
 10
115.4219
 20
128.5017
  0
SEQEND
  0
POLYLINE
  8
LAYER_2
 40
0.1376
 41
0.1376
 66
1
 10
0
 20
0
 30
0
  0
VERTEX
  8
LAYER_2
 10
115.3288
 20
128.5017
  0
VERTEX
  8
LAYER_2
 10
115.0479
 20
128.5017
  0
VERTEX
  8
LAYER_2
 10
114.7908
 20
128.6138
  0
SEQEND
  0
POLYLINE
  8
LAYER_2
  6
AIGENLINE028
 40
0.1376
 41
0.1376
 66
1
 10
0
 20
0
 30
0
 70
128
  0
VERTEX
  8
LAYER_2
 10
114.3039
 20
128.7281
 42
0.08701033718
  0
VERTEX
  8
LAYER_2
 10
113.5568
 20
128.6847
  0
SEQEND
  0
POLYLINE
  8
LAYER_2
 40
0.1376
 41
0.1376
 66
1
 10
0
 20
0
 30
0
  0
VERTEX
  8
LAYER_2
 10
113.3169
 20
128.6138
  0
VERTEX
  8
LAYER_2
 10
113.0593
 20
128.5016
  0
SEQEND
  0
POLYLINE
  8
LAYER_2
  6
AIGENLINE050
 40
0.1376
 41
0.1376
 66
1
 10
0
 20
0
 30
0
 70
128
  0
VERTEX
  8
LAYER_2
 10
114.9605
 20
129.3928
 42
0.3942649878
  0
VERTEX
  8
LAYER_2
 10
115.1605
 20
129.4951
  0
VERTEX
  8
LAYER_2
 10
115.1675
 20
129.5247
  0
SEQEND
  0
POLYLINE
  8
LAYER_2
 40
0.1376
 41
0.1376
 66
1
 10
0
 20
0
 30
0
  0
VERTEX
  8
LAYER_2
 10
115.1675
 20
129.5243
  0
VERTEX
  8
LAYER_2
 10
115.2018
 20
129.8027
  0
SEQEND
  0
POLYLINE
  8
LAYER_2
 40
0.1376
 41
0.1376
 66
1
 10
0
 20
0
 30
0
  0
VERTEX
  8
LAYER_2
 10
115.2776
 20
130.4246
  0
VERTEX
  8
LAYER_2
 10
115.3118
 20
130.703
  0
SEQEND
  0
POLYLINE
  8
LAYER_2
  6
AIGENLINE030
 40
0.1376
 41
0.1376
 66
1
 10
0
 20
0
 30
0
 70
128
  0
VERTEX
  8
LAYER_2
 10
115.3118
 20
130.7033
 42
0.4142448255
  0
VERTEX
  8
LAYER_2
 10
115.1732
 20
130.8804
  0
VERTEX
  8
LAYER_2
 10
115.1421
 20
130.8811
  0
SEQEND
  0
POLYLINE
  8
LAYER_2
 40
0.1376
 41
0.1376
 66
1
 10
0
 20
0
 30
0
  0
VERTEX
  8
LAYER_2
 10
115.1421
 20
130.8815
  0
VERTEX
  8
LAYER_2
 10
114.862
 20
130.861
  0
SEQEND
  0
POLYLINE
  8
LAYER_2
  6
AIGENLINE031
 40
0.1376
 41
0.1376
 66
1
 10
0
 20
0
 30
0
 70
128
  0
VERTEX
  8
LAYER_2
 10
114.1706
 20
130.8102
  0
VERTEX
  8
LAYER_2
 10
113.1338
 20
130.734
  0
SEQEND
  0
POLYLINE
  8
LAYER_2
 40
0.1376
 41
0.1376
 66
1
 10
0
 20
0
 30
0
  0
VERTEX
  8
LAYER_2
 10
112.7877
 20
130.709
  0
VERTEX
  8
LAYER_2
 10
112.5083
 20
130.6885
  0
SEQEND
  0
POLYLINE
  8
LAYER_2
  6
AIGENLINE032
 40
0.1376
 41
0.1376
 66
1
 10
0
 20
0
 30
0
 70
128
  0
VERTEX
  8
LAYER_2
 10
112.5079
 20
130.6885
 42
0.3918654704
  0
VERTEX
  8
LAYER_2
 10
112.3608
 20
130.5181
  0
VERTEX
  8
LAYER_2
 10
112.3707
 20
130.4733
  0
SEQEND
  0
POLYLINE
  8
LAYER_2
 40
0.1376
 41
0.1376
 66
1
 10
0
 20
0
 30
0
  0
VERTEX
  8
LAYER_2
 10
112.3707
 20
130.4737
  0
VERTEX
  8
LAYER_2
 10
112.4698
 20
130.2108
  0
SEQEND
  0
POLYLINE
  8
LAYER_2
 40
0.1376
 41
0.1376
 66
1
 10
0
 20
0
 30
0
  0
VERTEX
  8
LAYER_2
 10
112.6678
 20
129.6856
  0
VERTEX
  8
LAYER_2
 10
112.7669
 20
129.4231
  0
SEQEND
  0
POLYLINE
  8
LAYER_2
  6
AIGENLINE003
 40
0.1376
 41
0.1376
 66
1
 10
0
 20
0
 30
0
 70
128
  0
VERTEX
  8
LAYER_2
 10
112.7669
 20
129.4231
 42
0.3929103024
  0
VERTEX
  8
LAYER_2
 10
112.9715
 20
129.3303
  0
SEQEND
  0
POLYLINE
  8
LAYER_2
 40
0.1376
 41
0.1376
 66
1
 10
0
 20
0
 30
0
  0
VERTEX
  8
LAYER_2
 10
114.9605
 20
129.3928
  0
VERTEX
  8
LAYER_2
 10
114.6902
 20
129.4675
  0
SEQEND
  0
POLYLINE
  8
LAYER_2
  6
AIGENLINE033
 40
0.1376
 41
0.1376
 66
1
 10
0
 20
0
 30
0
 70
128
  0
VERTEX
  8
LAYER_2
 10
114.2062
 20
129.5339
 42
0.06282296444
  0
VERTEX
  8
LAYER_2
 10
113.4781
 20
129.481
  0
SEQEND
  0
POLYLINE
  8
LAYER_2
 40
0.1376
 41
0.1376
 66
1
 10
0
 20
0
 30
0
  0
VERTEX
  8
LAYER_2
 10
113.2382
 20
129.4224
  0
VERTEX
  8
LAYER_2
 10
112.9729
 20
129.331
  0
SEQEND
  0
POLYLINE
  8
LAYER_2
 40
0.1376
 41
0.1376
 66
1
 10
0
 20
0
 30
0
  0
VERTEX
  8
LAYER_2
 10
115.4685
 20
131.7677
  0
VERTEX
  8
LAYER_2
 10
115.1876
 20
131.7677
  0
SEQEND
  0
POLYLINE
  8
LAYER_2
  6
AIGENLINE034
 40
0.1376
 41
0.1376
 66
1
 10
0
 20
0
 30
0
 70
128
  0
VERTEX
  8
LAYER_2
 10
114.6303
 20
131.7677
  0
VERTEX
  8
LAYER_2
 10
88.1409
 20
131.7684
  0
SEQEND
  0
POLYLINE
  8
LAYER_2
 40
0.1376
 41
0.1376
 66
1
 10
0
 20
0
 30
0
  0
VERTEX
  8
LAYER_2
 10
87.8618
 20
131.768
  0
VERTEX
  8
LAYER_2
 10
87.5814
 20
131.768
  0
SEQEND
  0
POLYLINE
  8
LAYER_2
 40
0.1376
 41
0.1376
 66
1
 10
0
 20
0
 30
0
  0
VERTEX
  8
LAYER_2
 10
104.4057
 20
131.2904
  0
VERTEX
  8
LAYER_2
 10
104.1252
 20
131.2904
  0
SEQEND
  0
POLYLINE
  8
LAYER_2
  6
AIGENLINE035
 40
0.1376
 41
0.1376
 66
1
 10
0
 20
0
 30
0
 70
128
  0
VERTEX
  8
LAYER_2
 10
103.5474
 20
131.2904
  0
VERTEX
  8
LAYER_2
 10
99.2132
 20
131.2904
  0
SEQEND
  0
POLYLINE
  8
LAYER_2
 40
0.1376
 41
0.1376
 66
1
 10
0
 20
0
 30
0
  0
VERTEX
  8
LAYER_2
 10
98.9242
 20
131.2904
  0
VERTEX
  8
LAYER_2
 10
98.6434
 20
131.2904
  0
SEQEND
  0
POLYLINE
  8
LAYER_2
 40
0.1376
 41
0.1376
 66
1
 10
0
 20
0
 30
0
  0
VERTEX
  8
LAYER_2
 10
103.4031
 20
130.3784
  0
VERTEX
  8
LAYER_2
 10
103.1226
 20
130.3784
  0
SEQEND
  0
POLYLINE
  8
LAYER_2
  6
AIGENLINE036
 40
0.1376
 41
0.1376
 66
1
 10
0
 20
0
 30
0
 70
128
  0
VERTEX
  8
LAYER_2
 10
102.4834
 20
130.3784
  0
VERTEX
  8
LAYER_2
 10
100.2465
 20
130.3784
  0
SEQEND
  0
POLYLINE
  8
LAYER_2
 40
0.1376
 41
0.1376
 66
1
 10
0
 20
0
 30
0
  0
VERTEX
  8
LAYER_2
 10
99.9268
 20
130.3784
  0
VERTEX
  8
LAYER_2
 10
99.646
 20
130.3784
  0
SEQEND
  0
POLYLINE
  8
LAYER_2
 40
0.1376
 41
0.1376
 66
1
 10
0
 20
0
 30
0
  0
VERTEX
  8
LAYER_2
 10
103.3544
 20
129.2975
  0
VERTEX
  8
LAYER_2
 10
103.0736
 20
129.2975
  0
SEQEND
  0
POLYLINE
  8
LAYER_2
  6
AIGENLINE037
 40
0.1376
 41
0.1376
 66
1
 10
0
 20
0
 30
0
 70
128
  0
VERTEX
  8
LAYER_2
 10
102.4541
 20
129.2975
  0
VERTEX
  8
LAYER_2
 10
100.2853
 20
129.2975
  0
SEQEND
  0
POLYLINE
  8
LAYER_2
 40
0.1376
 41
0.1376
 66
1
 10
0
 20
0
 30
0
  0
VERTEX
  8
LAYER_2
 10
99.9759
 20
129.2975
  0
VERTEX
  8
LAYER_2
 10
99.6951
 20
129.2975
  0
SEQEND
  0
POLYLINE
  8
LAYER_2
 40
0.1376
 41
0.1376
 66
1
 10
0
 20
0
 30
0
  0
VERTEX
  8
LAYER_2
 10
115.0476
 20
128.5017
  0
VERTEX
  8
LAYER_2
 10
114.7671
 20
128.5017
  0
SEQEND
  0
POLYLINE
  8
LAYER_2
  6
AIGENLINE038
 40
0.1376
 41
0.1376
 66
1
 10
0
 20
0
 30
0
 70
128
  0
VERTEX
  8
LAYER_2
 10
114.2916
 20
128.5017
  0
VERTEX
  8
LAYER_2
 10
113.5779
 20
128.5017
  0
SEQEND
  0
POLYLINE
  8
LAYER_2
 40
0.1376
 41
0.1376
 66
1
 10
0
 20
0
 30
0
  0
VERTEX
  8
LAYER_2
 10
113.3402
 20
128.5017
  0
VERTEX
  8
LAYER_2
 10
113.0593
 20
128.5017
  0
VERTEX
  8
LAYER_2
 10
112.7789
 20
128.5017
  0
SEQEND
  0
POLYLINE
  8
LAYER_2
  6
AIGENLINE039
 40
0.1376
 41
0.1376
 66
1
 10
0
 20
0
 30
0
 70
128
  0
VERTEX
  8
LAYER_2
 10
112.219
 20
128.5017
  0
VERTEX
  8
LAYER_2
 10
91.2362
 20
128.502
  0
SEQEND
  0
POLYLINE
  8
LAYER_2
 40
0.1376
 41
0.1376
 66
1
 10
0
 20
0
 30
0
  0
VERTEX
  8
LAYER_2
 10
90.9564
 20
128.502
  0
VERTEX
  8
LAYER_2
 10
90.6756
 20
128.502
  0
SEQEND
  0
POLYLINE
  8
LAYER_2
 40
0.1376
 41
0.1376
 66
1
 10
0
 20
0
 30
0
  0
VERTEX
  8
LAYER_2
 10
117.0214
 20
142.8202
  0
VERTEX
  8
LAYER_2
 10
116.7406
 20
142.8202
  0
SEQEND
  0
POLYLINE
  8
LAYER_2
  6
AIGENLINE040
 40
0.1376
 41
0.1376
 66
1
 10
0
 20
0
 30
0
 70
128
  0
VERTEX
  8
LAYER_2
 10
116.1885
 20
142.8202
  0
VERTEX
  8
LAYER_2
 10
86.6179
 20
142.8205
  0
SEQEND
  0
POLYLINE
  8
LAYER_2
 40
0.1376
 41
0.1376
 66
1
 10
0
 20
0
 30
0
  0
VERTEX
  8
LAYER_2
 10
86.3417
 20
142.8205
  0
VERTEX
  8
LAYER_2
 10
86.0609
 20
142.8205
  0
SEQEND
  0
POLYLINE
  8
LAYER_2
 40
0.1376
 41
0.1376
 66
1
 10
0
 20
0
 30
0
  0
VERTEX
  8
LAYER_2
 10
116.1017
 20
128.7885
  0
VERTEX
  8
LAYER_2
 10
116.1296
 20
129.0679
  0
SEQEND
  0
POLYLINE
  8
LAYER_2
  6
AIGENLINE041
 40
0.1376
 41
0.1376
 66
1
 10
0
 20
0
 30
0
 70
128
  0
VERTEX
  8
LAYER_2
 10
116.1874
 20
129.6506
  0
VERTEX
  8
LAYER_2
 10
117.3135
 20
141.0161
  0
SEQEND
  0
POLYLINE
  8
LAYER_2
 40
0.1376
 41
0.1376
 66
1
 10
0
 20
0
 30
0
  0
VERTEX
  8
LAYER_2
 10
117.3428
 20
141.3075
  0
VERTEX
  8
LAYER_2
 10
117.3706
 20
141.5869
  0
SEQEND
  0
POLYLINE
  8
LAYER_2
 40
0.1376
 41
0.1376
 66
1
 10
0
 20
0
 30
0
  0
VERTEX
  8
LAYER_2
 10
115.5895
 20
132.0058
  0
VERTEX
  8
LAYER_2
 10
115.6173
 20
132.2852
  0
SEQEND
  0
POLYLINE
  8
LAYER_2
  6
AIGENLINE042
 40
0.1376
 41
0.1376
 66
1
 10
0
 20
0
 30
0
 70
128
  0
VERTEX
  8
LAYER_2
 10
115.6748
 20
132.8673
  0
VERTEX
  8
LAYER_2
 10
116.5695
 20
141.8917
  0
SEQEND
  0
POLYLINE
  8
LAYER_2
 40
0.1376
 41
0.1376
 66
1
 10
0
 20
0
 30
0
  0
VERTEX
  8
LAYER_2
 10
116.5984
 20
142.1824
  0
VERTEX
  8
LAYER_2
 10
116.6263
 20
142.4618
  0
SEQEND
  0
POLYLINE
  8
LAYER_2
 40
0.1376
 41
0.1376
 66
1
 10
0
 20
0
 30
0
  0
VERTEX
  8
LAYER_2
 10
117.0217
 20
142.8202
 42
0.1782639013
  0
VERTEX
  8
LAYER_2
 10
116.7632
 20
142.7246
  0
SEQEND
  0
POLYLINE
  8
LAYER_2
 40
0.1376
 41
0.1376
 66
1
 10
0
 20
0
 30
0
  0
VERTEX
  8
LAYER_2
 10
116.7466
 20
142.7094
 42
0.1776392025
  0
VERTEX
  8
LAYER_2
 10
116.6263
 20
142.4618
  0
SEQEND
  0
POLYLINE
  8
LAYER_2
 40
0.1376
 41
0.1376
 66
1
 10
0
 20
0
 30
0
  0
VERTEX
  8
LAYER_2
 10
92.056
 20
130.5778
 42
0.1107862997
  0
VERTEX
  8
LAYER_2
 10
91.7801
 20
130.5368
  0
SEQEND
  0
POLYLINE
  8
LAYER_2
 40
0.1376
 41
0.1376
 66
1
 10
0
 20
0
 30
0
  0
VERTEX
  8
LAYER_2
 10
91.5671
 20
130.4007
 42
0.1094866938
  0
VERTEX
  8
LAYER_2
 10
91.4136
 20
130.1675
  0
SEQEND
  0
POLYLINE
  8
LAYER_2
 40
0.1376
 41
0.1376
 66
1
 10
0
 20
0
 30
0
  0
VERTEX
  8
LAYER_2
 10
91.414
 20
130.1675
  0
VERTEX
  8
LAYER_2
 10
91.3148
 20
129.9046
  0
SEQEND
  0
POLYLINE
  8
LAYER_2
  6
AIGENLINE020
 40
0.1376
 41
0.1376
 66
1
 10
0
 20
0
 30
0
 70
128
  0
VERTEX
  8
LAYER_2
 10
91.1843
 20
129.5589
  0
VERTEX
  8
LAYER_2
 10
90.9885
 20
129.0403
  0
SEQEND
  0
POLYLINE
  8
LAYER_2
 40
0.1376
 41
0.1376
 66
1
 10
0
 20
0
 30
0
  0
VERTEX
  8
LAYER_2
 10
90.9236
 20
128.8675
  0
VERTEX
  8
LAYER_2
 10
90.8245
 20
128.605
  0
SEQEND
  0
POLYLINE
  8
LAYER_2
  6
AIGENLINE021
 40
0.1376
 41
0.1376
 66
1
 10
0
 20
0
 30
0
 70
128
  0
VERTEX
  8
LAYER_2
 10
90.6759
 20
128.502
 42
0.312719061
  0
VERTEX
  8
LAYER_2
 10
90.8245
 20
128.605
  0
SEQEND
  0
POLYLINE
  8
LAYER_2
 40
0.1376
 41
0.1376
 66
1
 10
0
 20
0
 30
0
  0
VERTEX
  8
LAYER_2
 10
89.9905
 20
128.502
  0
VERTEX
  8
LAYER_2
 10
90.271
 20
128.502
  0
SEQEND
  0
POLYLINE
  8
LAYER_2
 40
0.1376
 41
0.1376
 66
1
 10
0
 20
0
 30
0
  0
VERTEX
  8
LAYER_2
 10
90.3951
 20
128.502
  0
VERTEX
  8
LAYER_2
 10
90.6759
 20
128.502
  0
SEQEND
  0
POLYLINE
  8
LAYER_2
  6
AIGENLINE022
 40
0.1376
 41
0.1376
 66
1
 10
0
 20
0
 30
0
 70
128
  0
VERTEX
  8
LAYER_2
 10
87.4604
 20
132.0061
 42
0.3567745646
  0
VERTEX
  8
LAYER_2
 10
87.8255
 20
131.6604
  0
SEQEND
  0
POLYLINE
  8
LAYER_2
 40
0.1376
 41
0.1376
 66
1
 10
0
 20
0
 30
0
  0
VERTEX
  8
LAYER_2
 10
86.0419
 20
128.502
  0
VERTEX
  8
LAYER_2
 10
86.3223
 20
128.502
  0
SEQEND
  0
POLYLINE
  8
LAYER_2
  6
AIGENLINE051
 40
0.1376
 41
0.1376
 66
1
 10
0
 20
0
 30
0
 70
128
  0
VERTEX
  8
LAYER_2
 10
86.7887
 20
128.502
  0
VERTEX
  8
LAYER_2
 10
87.4879
 20
128.502
  0
SEQEND
  0
POLYLINE
  8
LAYER_2
 40
0.1376
 41
0.1376
 66
1
 10
0
 20
0
 30
0
  0
VERTEX
  8
LAYER_2
 10
87.7211
 20
128.502
  0
VERTEX
  8
LAYER_2
 10
88.0015
 20
128.502
  0
SEQEND
  0
POLYLINE
  8
LAYER_2
 40
0.1376
 41
0.1376
 66
1
 10
0
 20
0
 30
0
  0
VERTEX
  8
LAYER_2
 10
85.6439
 20
128.8996
 42
0.1772267236
  0
VERTEX
  8
LAYER_2
 10
85.7395
 20
128.641
  0
SEQEND
  0
POLYLINE
  8
LAYER_2
 40
0.1376
 41
0.1376
 66
1
 10
0
 20
0
 30
0
  0
VERTEX
  8
LAYER_2
 10
85.7829
 20
128.5976
 42
0.1775481524
  0
VERTEX
  8
LAYER_2
 10
86.0419
 20
128.502
  0
SEQEND
  0
POLYLINE
  8
LAYER_2
 40
0.1376
 41
0.1376
 66
1
 10
0
 20
0
 30
0
  0
VERTEX
  8
LAYER_2
 10
89.9905
 20
128.502
  0
VERTEX
  8
LAYER_2
 10
89.733
 20
128.6142
  0
SEQEND
  0
POLYLINE
  8
LAYER_2
  6
AIGENLINE028
 40
0.1376
 41
0.1376
 66
1
 10
0
 20
0
 30
0
 70
128
  0
VERTEX
  8
LAYER_2
 10
89.2465
 20
128.7285
 42
0.08710138817
  0
VERTEX
  8
LAYER_2
 10
88.4993
 20
128.6851
  0
SEQEND
  0
POLYLINE
  8
LAYER_2
 40
0.1376
 41
0.1376
 66
1
 10
0
 20
0
 30
0
  0
VERTEX
  8
LAYER_2
 10
88.2591
 20
128.6142
  0
VERTEX
  8
LAYER_2
 10
88.0015
 20
128.502
  0
VERTEX
  8
LAYER_2
 10
88.2823
 20
128.502
  0
SEQEND
  0
POLYLINE
  8
LAYER_2
  6
AIGENLINE052
 40
0.1376
 41
0.1376
 66
1
 10
0
 20
0
 30
0
 70
128
  0
VERTEX
  8
LAYER_2
 10
88.7582
 20
128.502
  0
VERTEX
  8
LAYER_2
 10
89.4719
 20
128.502
  0
SEQEND
  0
POLYLINE
  8
LAYER_2
 40
0.1376
 41
0.1376
 66
1
 10
0
 20
0
 30
0
  0
VERTEX
  8
LAYER_2
 10
89.7097
 20
128.502
  0
VERTEX
  8
LAYER_2
 10
89.9905
 20
128.502
  0
SEQEND
  0
POLYLINE
  8
LAYER_2
 40
0.1376
 41
0.1376
 66
1
 10
0
 20
0
 30
0
  0
VERTEX
  8
LAYER_2
 10
87.4604
 20
132.0062
  0
VERTEX
  8
LAYER_2
 10
87.4325
 20
132.2852
  0
SEQEND
  0
POLYLINE
  8
LAYER_2
  6
AIGENLINE042
 40
0.1376
 41
0.1376
 66
1
 10
0
 20
0
 30
0
 70
128
  0
VERTEX
  8
LAYER_2
 10
87.375
 20
132.8673
  0
VERTEX
  8
LAYER_2
 10
86.4807
 20
141.8917
  0
SEQEND
  0
POLYLINE
  8
LAYER_2
 40
0.1376
 41
0.1376
 66
1
 10
0
 20
0
 30
0
  0
VERTEX
  8
LAYER_2
 10
86.4518
 20
142.1827
  0
VERTEX
  8
LAYER_2
 10
86.4239
 20
142.4621
 42
0.1761100278
  0
VERTEX
  8
LAYER_2
 10
86.304
 20
142.7101
  0
SEQEND
  0
POLYLINE
  8
LAYER_2
 40
0.1376
 41
0.1376
 66
1
 10
0
 20
0
 30
0
  0
VERTEX
  8
LAYER_2
 10
86.2867
 20
142.7253
 42
0.176588664
  0
VERTEX
  8
LAYER_2
 10
86.0284
 20
142.8205
  0
SEQEND
  0
POLYLINE
  8
LAYER_2
 40
0.1376
 41
0.1376
 66
1
 10
0
 20
0
 30
0
  0
VERTEX
  8
LAYER_2
 10
70.828
 20
142.8205
  0
VERTEX
  8
LAYER_2
 10
71.1088
 20
142.8205
  0
SEQEND
  0
POLYLINE
  8
LAYER_2
  6
AIGENLINE022
 40
0.1376
 41
0.1376
 66
1
 10
0
 20
0
 30
0
 70
128
  0
VERTEX
  8
LAYER_2
 10
71.651
 20
142.8205
  0
VERTEX
  8
LAYER_2
 10
85.4767
 20
142.8205
  0
SEQEND
  0
POLYLINE
  8
LAYER_2
 40
0.1376
 41
0.1376
 66
1
 10
0
 20
0
 30
0
  0
VERTEX
  8
LAYER_2
 10
85.7476
 20
142.8205
  0
VERTEX
  8
LAYER_2
 10
86.0284
 20
142.8205
  0
SEQEND
  0
POLYLINE
  8
LAYER_2
 40
0.1376
 41
0.1376
 66
1
 10
0
 20
0
 30
0
  0
VERTEX
  8
LAYER_2
 10
71.6101
 20
141.9453
  0
VERTEX
  8
LAYER_2
 10
71.8905
 20
141.9453
  0
SEQEND
  0
POLYLINE
  8
LAYER_2
  6
AIGENLINE053
 40
0.1376
 41
0.1376
 66
1
 10
0
 20
0
 30
0
 70
128
  0
VERTEX
  8
LAYER_2
 10
72.4592
 20
141.9453
  0
VERTEX
  8
LAYER_2
 10
84.6815
 20
141.9453
  0
SEQEND
  0
POLYLINE
  8
LAYER_2
 40
0.1376
 41
0.1376
 66
1
 10
0
 20
0
 30
0
  0
VERTEX
  8
LAYER_2
 10
84.9659
 20
141.9453
  0
VERTEX
  8
LAYER_2
 10
85.2463
 20
141.9453
  0
SEQEND
  0
POLYLINE
  8
LAYER_2
 40
0.1376
 41
0.1376
 66
1
 10
0
 20
0
 30
0
  0
VERTEX
  8
LAYER_2
 10
71.6101
 20
141.9453
 42
0.1773050515
  0
VERTEX
  8
LAYER_2
 10
71.3511
 20
141.8501
  0
SEQEND
  0
POLYLINE
  8
LAYER_2
 40
0.1376
 41
0.1376
 66
1
 10
0
 20
0
 30
0
  0
VERTEX
  8
LAYER_2
 10
71.3081
 20
141.8067
 42
0.1778918061
  0
VERTEX
  8
LAYER_2
 10
71.2125
 20
141.5477
  0
VERTEX
  8
LAYER_2
 10
71.2125
 20
141.2673
  0
SEQEND
  0
POLYLINE
  8
LAYER_2
  6
AIGENLINE054
 40
0.1376
 41
0.1376
 66
1
 10
0
 20
0
 30
0
 70
128
  0
VERTEX
  8
LAYER_2
 10
71.2125
 20
140.6919
  0
VERTEX
  8
LAYER_2
 10
71.2125
 20
129.4679
  0
SEQEND
  0
POLYLINE
  8
LAYER_2
 40
0.1376
 41
0.1376
 66
1
 10
0
 20
0
 30
0
  0
VERTEX
  8
LAYER_2
 10
71.2125
 20
129.1804
  0
VERTEX
  8
LAYER_2
 10
71.2125
 20
128.8996
  0
SEQEND
  0
POLYLINE
  8
LAYER_2
 40
0.1376
 41
0.1376
 66
1
 10
0
 20
0
 30
0
  0
VERTEX
  8
LAYER_2
 10
70.2579
 20
130.7206
  0
VERTEX
  8
LAYER_2
 10
70.2579
 20
130.4402
  0
SEQEND
  0
POLYLINE
  8
LAYER_2
 40
0.1376
 41
0.1376
 66
1
 10
0
 20
0
 30
0
  0
VERTEX
  8
LAYER_2
 10
70.2579
 20
129.9759
  0
VERTEX
  8
LAYER_2
 10
70.2579
 20
129.6951
  0
SEQEND
  0
POLYLINE
  8
LAYER_2
  6
AIGENLINE055
 40
0.1376
 41
0.1376
 66
1
 10
0
 20
0
 30
0
 70
128
  0
VERTEX
  8
LAYER_2
 10
70.019
 20
129.4566
 42
0.4143237776
  0
VERTEX
  8
LAYER_2
 10
70.2579
 20
129.6955
  0
SEQEND
  0
POLYLINE
  8
LAYER_2
  6
AIGENLINE056
 40
0.1376
 41
0.1376
 66
1
 10
0
 20
0
 30
0
 70
128
  0
VERTEX
  8
LAYER_2
 10
70.2579
 20
130.7206
 42
0.392673115
  0
VERTEX
  8
LAYER_2
 10
70.0194
 20
130.9595
  0
VERTEX
  8
LAYER_2
 10
70.0014
 20
130.9587
  0
SEQEND
  0
POLYLINE
  8
LAYER_2
 40
0.1376
 41
0.1376
 66
1
 10
0
 20
0
 30
0
  0
VERTEX
  8
LAYER_2
 10
70.8146
 20
128.502
 42
0.1761199911
  0
VERTEX
  8
LAYER_2
 10
71.0735
 20
128.5976
  0
SEQEND
  0
POLYLINE
  8
LAYER_2
 40
0.1376
 41
0.1376
 66
1
 10
0
 20
0
 30
0
  0
VERTEX
  8
LAYER_2
 10
71.1165
 20
128.641
 42
0.1777179618
  0
VERTEX
  8
LAYER_2
 10
71.2121
 20
128.8999
  0
SEQEND
  0
POLYLINE
  8
LAYER_2
 40
0.1376
 41
0.1376
 66
1
 10
0
 20
0
 30
0
  0
VERTEX
  8
LAYER_2
 10
85.6439
 20
141.5477
  0
VERTEX
  8
LAYER_2
 10
85.6439
 20
141.2673
  0
SEQEND
  0
POLYLINE
  8
LAYER_2
  6
AIGENLINE054
 40
0.1376
 41
0.1376
 66
1
 10
0
 20
0
 30
0
 70
128
  0
VERTEX
  8
LAYER_2
 10
85.6439
 20
140.6919
  0
VERTEX
  8
LAYER_2
 10
85.6439
 20
129.4679
  0
SEQEND
  0
POLYLINE
  8
LAYER_2
 40
0.1376
 41
0.1376
 66
1
 10
0
 20
0
 30
0
  0
VERTEX
  8
LAYER_2
 10
85.6439
 20
129.1804
  0
VERTEX
  8
LAYER_2
 10
85.6439
 20
128.8996
  0
SEQEND
  0
POLYLINE
  8
LAYER_2
 40
0.1376
 41
0.1376
 66
1
 10
0
 20
0
 30
0
  0
VERTEX
  8
LAYER_2
 10
85.6439
 20
141.5477
 42
0.1779869476
  0
VERTEX
  8
LAYER_2
 10
85.5483
 20
141.8067
  0
SEQEND
  0
POLYLINE
  8
LAYER_2
 40
0.1376
 41
0.1376
 66
1
 10
0
 20
0
 30
0
  0
VERTEX
  8
LAYER_2
 10
85.5049
 20
141.8497
 42
0.1780536002
  0
VERTEX
  8
LAYER_2
 10
85.2463
 20
141.9453
  0
SEQEND
  0
POLYLINE
  8
LAYER_2
 40
0.1376
 41
0.1376
 66
1
 10
0
 20
0
 30
0
  0
VERTEX
  8
LAYER_2
 10
86.837
 20
129.4566
  0
VERTEX
  8
LAYER_2
 10
87.1178
 20
129.4566
  0
SEQEND
  0
POLYLINE
  8
LAYER_2
 40
0.1376
 41
0.1376
 66
1
 10
0
 20
0
 30
0
  0
VERTEX
  8
LAYER_2
 10
87.6953
 20
129.4566
  0
VERTEX
  8
LAYER_2
 10
87.9758
 20
129.4566
  0
SEQEND
  0
POLYLINE
  8
LAYER_2
 40
0.1376
 41
0.1376
 66
1
 10
0
 20
0
 30
0
  0
VERTEX
  8
LAYER_2
 10
86.8547
 20
130.9587
  0
VERTEX
  8
LAYER_2
 10
87.1348
 20
130.9383
  0
SEQEND
  0
POLYLINE
  8
LAYER_2
  6
AIGENLINE044
 40
0.1376
 41
0.1376
 66
1
 10
0
 20
0
 30
0
 70
128
  0
VERTEX
  8
LAYER_2
 10
87.7599
 20
130.8924
  0
VERTEX
  8
LAYER_2
 10
89.9489
 20
130.7319
  0
SEQEND
  0
POLYLINE
  8
LAYER_2
 40
0.1376
 41
0.1376
 66
1
 10
0
 20
0
 30
0
  0
VERTEX
  8
LAYER_2
 10
90.2618
 20
130.709
  0
VERTEX
  8
LAYER_2
 10
90.5415
 20
130.6885
  0
SEQEND
  0
POLYLINE
  8
LAYER_2
  6
AIGENLINE032
 40
0.1376
 41
0.1376
 66
1
 10
0
 20
0
 30
0
 70
128
  0
VERTEX
  8
LAYER_2
 10
90.6791
 20
130.4737
 42
0.4131457118
  0
VERTEX
  8
LAYER_2
 10
90.5863
 20
130.6783
  0
VERTEX
  8
LAYER_2
 10
90.5419
 20
130.6885
  0
SEQEND
  0
POLYLINE
  8
LAYER_2
 40
0.1376
 41
0.1376
 66
1
 10
0
 20
0
 30
0
  0
VERTEX
  8
LAYER_2
 10
90.6791
 20
130.4737
  0
VERTEX
  8
LAYER_2
 10
90.58
 20
130.2108
  0
SEQEND
  0
POLYLINE
  8
LAYER_2
 40
0.1376
 41
0.1376
 66
1
 10
0
 20
0
 30
0
  0
VERTEX
  8
LAYER_2
 10
90.3821
 20
129.6859
  0
VERTEX
  8
LAYER_2
 10
90.2829
 20
129.4231
  0
SEQEND
  0
POLYLINE
  8
LAYER_2
  6
AIGENLINE003
 40
0.1376
 41
0.1376
 66
1
 10
0
 20
0
 30
0
 70
128
  0
VERTEX
  8
LAYER_2
 10
90.0769
 20
129.331
 42
0.3923802036
  0
VERTEX
  8
LAYER_2
 10
90.2826
 20
129.4221
  0
SEQEND
  0
POLYLINE
  8
LAYER_2
 40
0.1376
 41
0.1376
 66
1
 10
0
 20
0
 30
0
  0
VERTEX
  8
LAYER_2
 10
90.0769
 20
129.331
  0
VERTEX
  8
LAYER_2
 10
89.8078
 20
129.415
  0
SEQEND
  0
POLYLINE
  8
LAYER_2
  6
AIGENLINE046
 40
0.1376
 41
0.1376
 66
1
 10
0
 20
0
 30
0
 70
128
  0
VERTEX
  8
LAYER_2
 10
89.3114
 20
129.5141
 42
0.05030454891
  0
VERTEX
  8
LAYER_2
 10
88.5557
 20
129.5367
  0
SEQEND
  0
POLYLINE
  8
LAYER_2
 40
0.1376
 41
0.1376
 66
1
 10
0
 20
0
 30
0
  0
VERTEX
  8
LAYER_2
 10
88.3035
 20
129.5106
  0
VERTEX
  8
LAYER_2
 10
88.0262
 20
129.4619
  0
SEQEND
  0
POLYLINE
  8
LAYER_2
  6
AIGENLINE047
 40
0.1376
 41
0.1376
 66
1
 10
0
 20
0
 30
0
 70
128
  0
VERTEX
  8
LAYER_2
 10
87.9758
 20
129.4566
  0
VERTEX
  8
LAYER_2
 10
88.0259
 20
129.4619
  0
SEQEND
  0
POLYLINE
  8
LAYER_2
 40
0.1376
 41
0.1376
 66
1
 10
0
 20
0
 30
0
  0
VERTEX
  8
LAYER_2
 10
86.5985
 20
130.7206
  0
VERTEX
  8
LAYER_2
 10
86.5985
 20
130.4402
  0
SEQEND
  0
POLYLINE
  8
LAYER_2
 40
0.1376
 41
0.1376
 66
1
 10
0
 20
0
 30
0
  0
VERTEX
  8
LAYER_2
 10
86.5985
 20
129.9759
  0
VERTEX
  8
LAYER_2
 10
86.5985
 20
129.6951
  0
SEQEND
  0
POLYLINE
  8
LAYER_2
  6
AIGENLINE057
 40
0.1376
 41
0.1376
 66
1
 10
0
 20
0
 30
0
 70
128
  0
VERTEX
  8
LAYER_2
 10
86.5985
 20
129.6951
 42
0.4141945579
  0
VERTEX
  8
LAYER_2
 10
86.837
 20
129.4566
  0
SEQEND
  0
POLYLINE
  8
LAYER_2
  6
AIGENLINE058
 40
0.1376
 41
0.1376
 66
1
 10
0
 20
0
 30
0
 70
128
  0
VERTEX
  8
LAYER_2
 10
86.8547
 20
130.9587
 42
0.4135600949
  0
VERTEX
  8
LAYER_2
 10
86.5989
 20
130.7379
  0
VERTEX
  8
LAYER_2
 10
86.5982
 20
130.7206
  0
SEQEND
  0
POLYLINE
  8
LAYER_2
 40
0.1376
 41
0.1376
 66
1
 10
0
 20
0
 30
0
  0
VERTEX
  8
LAYER_2
 10
101.1009
 20
99.4239
  0
VERTEX
  8
LAYER_2
 10
101.1009
 20
99.7047
  0
VERTEX
  8
LAYER_2
 10
101.3817
 20
99.7047
  0
SEQEND
  0
POLYLINE
  8
LAYER_2
 40
0.1376
 41
0.1376
 66
1
 10
0
 20
0
 30
0
  0
VERTEX
  8
LAYER_2
 10
101.6159
 20
99.7044
  0
VERTEX
  8
LAYER_2
 10
101.8964
 20
99.7044
  0
VERTEX
  8
LAYER_2
 10
101.8964
 20
99.4239
  0
SEQEND
  0
POLYLINE
  8
LAYER_2
 40
0.1376
 41
0.1376
 66
1
 10
0
 20
0
 30
0
  0
VERTEX
  8
LAYER_2
 10
101.8964
 20
99.3488
  0
VERTEX
  8
LAYER_2
 10
101.8964
 20
99.0683
  0
VERTEX
  8
LAYER_2
 10
101.6156
 20
99.0683
  0
SEQEND
  0
POLYLINE
  8
LAYER_2
 40
0.1376
 41
0.1376
 66
1
 10
0
 20
0
 30
0
  0
VERTEX
  8
LAYER_2
 10
101.3813
 20
99.0683
  0
VERTEX
  8
LAYER_2
 10
101.1009
 20
99.0683
  0
VERTEX
  8
LAYER_2
 10
101.1009
 20
99.3488
  0
SEQEND
  0
POLYLINE
  8
LAYER_2
  6
AIGENLINE004
 40
0.1376
 41
0.1376
 66
1
 10
0
 20
0
 30
0
 70
128
  0
VERTEX
  8
LAYER_2
 10
101.2236
 20
98.7223
  0
VERTEX
  8
LAYER_2
 10
101.2236
 20
98.9089
  0
SEQEND
  0
POLYLINE
  8
LAYER_2
  6
AIGENLINE005
 40
0.1376
 41
0.1376
 66
1
 10
0
 20
0
 30
0
 70
128
  0
VERTEX
  8
LAYER_2
 10
101.2236
 20
98.7223
 42
0.3938200666
  0
VERTEX
  8
LAYER_2
 10
101.3404
 20
98.7018
  0
VERTEX
  8
LAYER_2
 10
101.3612
 20
98.7223
  0
SEQEND
  0
POLYLINE
  8
LAYER_2
  6
AIGENLINE006
 40
0.1376
 41
0.1376
 66
1
 10
0
 20
0
 30
0
 70
128
  0
VERTEX
  8
LAYER_2
 10
101.2924
 20
98.6863
  0
VERTEX
  8
LAYER_2
 10
101.7048
 20
98.6863
  0
SEQEND
  0
POLYLINE
  8
LAYER_2
  6
AIGENLINE005
 40
0.1376
 41
0.1376
 66
1
 10
0
 20
0
 30
0
 70
128
  0
VERTEX
  8
LAYER_2
 10
101.636
 20
98.7223
 42
0.3938200666
  0
VERTEX
  8
LAYER_2
 10
101.7528
 20
98.7018
  0
VERTEX
  8
LAYER_2
 10
101.7736
 20
98.7223
  0
SEQEND
  0
INSERT
  8
LAYER_2
  2
AIGNBL0201002A
 10
0
 20
0
 30
0
  0
POLYLINE
  8
LAYER_2
  6
AIGENLINE007
 40
0.1376
 41
0.1376
 66
1
 10
0
 20
0
 30
0
 70
128
  0
VERTEX
  8
LAYER_2
 10
101.3612
 20
98.7223
 42
0.2600645245
  0
VERTEX
  8
LAYER_2
 10
101.636
 20
98.7223
  0
SEQEND
  0
POLYLINE
  8
LAYER_2
  6
AIGENLINE004
 40
0.1376
 41
0.1376
 66
1
 10
0
 20
0
 30
0
 70
128
  0
VERTEX
  8
LAYER_2
 10
101.7736
 20
98.9089
  0
VERTEX
  8
LAYER_2
 10
101.7736
 20
98.7223
  0
SEQEND
  0
POLYLINE
  8
LAYER_2
  6
AIGENLINE010
 40
0.1376
 41
0.1376
 66
1
 10
0
 20
0
 30
0
 70
128
  0
VERTEX
  8
LAYER_2
 10
101.7736
 20
98.905
  0
VERTEX
  8
LAYER_2
 10
101.7701
 20
98.9092
  0
SEQEND
  0
POLYLINE
  8
LAYER_2
  6
AIGENLINE009
 40
0.1376
 41
0.1376
 66
1
 10
0
 20
0
 30
0
 70
128
  0
VERTEX
  8
LAYER_2
 10
101.3866
 20
98.9089
  0
VERTEX
  8
LAYER_2
 10
101.6106
 20
98.9089
  0
SEQEND
  0
POLYLINE
  8
LAYER_2
  6
AIGENLINE008
 40
0.1376
 41
0.1376
 66
1
 10
0
 20
0
 30
0
 70
128
  0
VERTEX
  8
LAYER_2
 10
101.3612
 20
98.905
  0
VERTEX
  8
LAYER_2
 10
101.3581
 20
98.9092
  0
SEQEND
  0
INSERT
  8
LAYER_2
  2
AIGNBL0201002B
 10
0
 20
0
 30
0
  0
POLYLINE
  8
LAYER_2
  6
AIGENLINE008
 40
0.1376
 41
0.1376
 66
1
 10
0
 20
0
 30
0
 70
128
  0
VERTEX
  8
LAYER_2
 10
101.6392
 20
98.9089
  0
VERTEX
  8
LAYER_2
 10
101.636
 20
98.9047
  0
SEQEND
  0
POLYLINE
  8
LAYER_2
  6
AIGENLINE059
 40
0.1376
 41
0.1376
 66
1
 10
0
 20
0
 30
0
 70
128
  0
VERTEX
  8
LAYER_2
 10
101.2236
 20
98.9089
  0
VERTEX
  8
LAYER_2
 10
101.7736
 20
98.9089
  0
SEQEND
  0
POLYLINE
  8
LAYER_2
  6
AIGENLINE010
 40
0.1376
 41
0.1376
 66
1
 10
0
 20
0
 30
0
 70
128
  0
VERTEX
  8
LAYER_2
 10
101.2272
 20
98.9089
  0
VERTEX
  8
LAYER_2
 10
101.2236
 20
98.9047
  0
SEQEND
  0
POLYLINE
  8
LAYER_2
 40
0.1376
 41
0.1376
 66
1
 10
0
 20
0
 30
0
  0
VERTEX
  8
LAYER_2
 10
101.3397
 20
98.9089
  0
VERTEX
  8
LAYER_2
 10
101.3397
 20
99.1897
  0
SEQEND
  0
POLYLINE
  8
LAYER_2
  6
AIGENLINE060
 40
0.1376
 41
0.1376
 66
1
 10
0
 20
0
 30
0
 70
128
  0
VERTEX
  8
LAYER_2
 10
101.3397
 20
99.583
  0
VERTEX
  8
LAYER_2
 10
101.3397
 20
99.6007
  0
VERTEX
  8
LAYER_2
 10
101.3873
 20
99.648
  0
VERTEX
  8
LAYER_2
 10
101.6099
 20
99.648
  0
VERTEX
  8
LAYER_2
 10
101.6576
 20
99.6007
  0
VERTEX
  8
LAYER_2
 10
101.6576
 20
99.3865
  0
SEQEND
  0
POLYLINE
  8
LAYER_2
 40
0.1376
 41
0.1376
 66
1
 10
0
 20
0
 30
0
  0
VERTEX
  8
LAYER_2
 10
101.6576
 20
99.1897
  0
VERTEX
  8
LAYER_2
 10
101.6576
 20
98.9089
  0
SEQEND
  0
POLYLINE
  8
LAYER_2
 40
0.1376
 41
0.1376
 66
1
 10
0
 20
0
 30
0
  0
VERTEX
  8
LAYER_2
 10
101.3715
 20
98.9089
  0
VERTEX
  8
LAYER_2
 10
101.3715
 20
99.1897
  0
SEQEND
  0
POLYLINE
  8
LAYER_2
 40
0.1376
 41
0.1376
 66
1
 10
0
 20
0
 30
0
  0
VERTEX
  8
LAYER_2
 10
101.3715
 20
99.3199
  0
VERTEX
  8
LAYER_2
 10
101.3715
 20
99.6007
  0
SEQEND
  0
POLYLINE
  8
LAYER_2
 40
0.1376
 41
0.1376
 66
1
 10
0
 20
0
 30
0
  0
VERTEX
  8
LAYER_2
 10
101.6258
 20
98.9089
  0
VERTEX
  8
LAYER_2
 10
101.6258
 20
99.1897
  0
SEQEND
  0
POLYLINE
  8
LAYER_2
 40
0.1376
 41
0.1376
 66
1
 10
0
 20
0
 30
0
  0
VERTEX
  8
LAYER_2
 10
101.6258
 20
99.3199
  0
VERTEX
  8
LAYER_2
 10
101.6258
 20
99.6007
  0
SEQEND
  0
POLYLINE
  8
LAYER_2
  6
AIGENLINE012
 40
0.1376
 41
0.1376
 66
1
 10
0
 20
0
 30
0
 70
128
  0
VERTEX
  8
LAYER_2
 10
101.3397
 20
99.6007
  0
VERTEX
  8
LAYER_2
 10
101.6576
 20
99.6007
  0
SEQEND
  0
POLYLINE
  8
LAYER_2
 40
0.1376
 41
0.1376
 66
1
 10
0
 20
0
 30
0
  0
VERTEX
  8
LAYER_2
 10
55.9951
 20
98.9089
  0
VERTEX
  8
LAYER_2
 10
55.7143
 20
98.9089
  0
VERTEX
  8
LAYER_2
 10
55.7143
 20
99.068
  0
VERTEX
  8
LAYER_2
 10
55.9951
 20
99.068
  0
SEQEND
  0
POLYLINE
  8
LAYER_2
 40
0.1376
 41
0.1376
 66
1
 10
0
 20
0
 30
0
  0
VERTEX
  8
LAYER_2
 10
56.4329
 20
99.0683
  0
VERTEX
  8
LAYER_2
 10
56.7137
 20
99.0683
  0
VERTEX
  8
LAYER_2
 10
56.7137
 20
98.9092
  0
VERTEX
  8
LAYER_2
 10
56.4329
 20
98.9092
  0
SEQEND
  0
POLYLINE
  8
LAYER_2
 40
0.1376
 41
0.1376
 66
1
 10
0
 20
0
 30
0
  0
VERTEX
  8
LAYER_2
 10
182.6627
 20
128.8199
  0
VERTEX
  8
LAYER_2
 10
182.9432
 20
128.8199
  0
VERTEX
  8
LAYER_2
 10
182.9432
 20
129.0587
  0
VERTEX
  8
LAYER_2
 10
182.6627
 20
129.0587
  0
SEQEND
  0
POLYLINE
  8
LAYER_2
  6
AIGENLINE013
 40
0.1376
 41
0.1376
 66
1
 10
0
 20
0
 30
0
 70
128
  0
VERTEX
  8
LAYER_2
 10
182.0267
 20
129.0587
  0
VERTEX
  8
LAYER_2
 10
178.5307
 20
129.059
  0
SEQEND
  0
POLYLINE
  8
LAYER_2
 40
0.1376
 41
0.1376
 66
1
 10
0
 20
0
 30
0
  0
VERTEX
  8
LAYER_2
 10
178.2128
 20
129.059
  0
VERTEX
  8
LAYER_2
 10
177.932
 20
129.059
  0
VERTEX
  8
LAYER_2
 10
177.932
 20
128.8202
  0
VERTEX
  8
LAYER_2
 10
178.2128
 20
128.8202
  0
SEQEND
  0
POLYLINE
  8
LAYER_2
  6
AIGENLINE013
 40
0.1376
 41
0.1376
 66
1
 10
0
 20
0
 30
0
 70
128
  0
VERTEX
  8
LAYER_2
 10
178.8485
 20
128.8202
  0
VERTEX
  8
LAYER_2
 10
182.3449
 20
128.8199
  0
SEQEND
  0
POLYLINE
  8
LAYER_2
 40
0.1376
 41
0.1376
 66
1
 10
0
 20
0
 30
0
  0
VERTEX
  8
LAYER_2
 10
182.6628
 20
129.0587
  0
VERTEX
  8
LAYER_2
 10
182.9432
 20
129.0587
  0
VERTEX
  8
LAYER_2
 10
182.9432
 20
129.2975
  0
VERTEX
  8
LAYER_2
 10
182.6628
 20
129.2975
  0
SEQEND
  0
POLYLINE
  8
LAYER_2
  6
AIGENLINE013
 40
0.1376
 41
0.1376
 66
1
 10
0
 20
0
 30
0
 70
128
  0
VERTEX
  8
LAYER_2
 10
182.0267
 20
129.2975
  0
VERTEX
  8
LAYER_2
 10
178.5307
 20
129.2975
  0
SEQEND
  0
POLYLINE
  8
LAYER_2
 40
0.1376
 41
0.1376
 66
1
 10
0
 20
0
 30
0
  0
VERTEX
  8
LAYER_2
 10
178.2128
 20
129.2975
  0
VERTEX
  8
LAYER_2
 10
177.932
 20
129.2975
  0
VERTEX
  8
LAYER_2
 10
177.932
 20
129.059
  0
VERTEX
  8
LAYER_2
 10
178.2128
 20
129.059
  0
SEQEND
  0
POLYLINE
  8
LAYER_2
  6
AIGENLINE013
 40
0.1376
 41
0.1376
 66
1
 10
0
 20
0
 30
0
 70
128
  0
VERTEX
  8
LAYER_2
 10
178.8485
 20
129.059
  0
VERTEX
  8
LAYER_2
 10
182.3449
 20
129.0587
  0
SEQEND
  0
POLYLINE
  8
LAYER_2
 40
0.1376
 41
0.1376
 66
1
 10
0
 20
0
 30
0
  0
VERTEX
  8
LAYER_2
 10
182.1057
 20
128.5017
  0
VERTEX
  8
LAYER_2
 10
182.3865
 20
128.5017
  0
VERTEX
  8
LAYER_2
 10
182.3865
 20
128.8206
  0
VERTEX
  8
LAYER_2
 10
182.1057
 20
128.8206
  0
SEQEND
  0
POLYLINE
  8
LAYER_2
  6
AIGENLINE014
 40
0.1376
 41
0.1376
 66
1
 10
0
 20
0
 30
0
 70
128
  0
VERTEX
  8
LAYER_2
 10
181.6291
 20
128.8206
  0
VERTEX
  8
LAYER_2
 10
179.0076
 20
128.8206
  0
SEQEND
  0
POLYLINE
  8
LAYER_2
 40
0.1376
 41
0.1376
 66
1
 10
0
 20
0
 30
0
  0
VERTEX
  8
LAYER_2
 10
178.7691
 20
128.8206
  0
VERTEX
  8
LAYER_2
 10
178.4887
 20
128.8206
  0
VERTEX
  8
LAYER_2
 10
178.4887
 20
128.5013
  0
VERTEX
  8
LAYER_2
 10
178.7691
 20
128.5013
  0
SEQEND
  0
POLYLINE
  8
LAYER_2
  6
AIGENLINE014
 40
0.1376
 41
0.1376
 66
1
 10
0
 20
0
 30
0
 70
128
  0
VERTEX
  8
LAYER_2
 10
179.2457
 20
128.5017
  0
VERTEX
  8
LAYER_2
 10
181.8672
 20
128.5017
  0
SEQEND
  0
POLYLINE
  8
LAYER_2
  6
AIGENLINE015
 40
0.1376
 41
0.1376
 66
1
 10
0
 20
0
 30
0
 70
128
  0
VERTEX
  8
LAYER_2
 10
183.3186
 20
131.2904
  0
VERTEX
  8
LAYER_2
 10
183.2205
 20
131.2466
  0
SEQEND
  0
POLYLINE
  8
LAYER_2
 40
0.1376
 41
0.1376
 66
1
 10
0
 20
0
 30
0
  0
VERTEX
  8
LAYER_2
 10
183.2205
 20
131.2463
  0
VERTEX
  8
LAYER_2
 10
183.0176
 20
131.0522
  0
SEQEND
  0
POLYLINE
  8
LAYER_2
 40
0.1376
 41
0.1376
 66
1
 10
0
 20
0
 30
0
  0
VERTEX
  8
LAYER_2
 10
182.5188
 20
130.5728
  0
VERTEX
  8
LAYER_2
 10
182.316
 20
130.3784
  0
SEQEND
  0
POLYLINE
  8
LAYER_2
  6
AIGENLINE016
 40
0.1376
 41
0.1376
 66
1
 10
0
 20
0
 30
0
 70
128
  0
VERTEX
  8
LAYER_2
 10
182.3163
 20
130.3784
 42
0.2010092095
  0
VERTEX
  8
LAYER_2
 10
182.2673
 20
130.2634
  0
SEQEND
  0
POLYLINE
  8
LAYER_2
 40
0.1376
 41
0.1376
 66
1
 10
0
 20
0
 30
0
  0
VERTEX
  8
LAYER_2
 10
182.2673
 20
130.2638
  0
VERTEX
  8
LAYER_2
 10
182.2673
 20
129.983
  0
SEQEND
  0
POLYLINE
  8
LAYER_2
 40
0.1376
 41
0.1376
 66
1
 10
0
 20
0
 30
0
  0
VERTEX
  8
LAYER_2
 10
182.2673
 20
129.578
  0
VERTEX
  8
LAYER_2
 10
182.2673
 20
129.2972
  0
SEQEND
  0
POLYLINE
  8
LAYER_2
  6
AIGENLINE017
 40
0.1376
 41
0.1376
 66
1
 10
0
 20
0
 30
0
 70
128
  0
VERTEX
  8
LAYER_2
 10
182.2673
 20
129.2975
  0
VERTEX
  8
LAYER_2
 10
182.818
 20
129.2975
  0
SEQEND
  0
POLYLINE
  8
LAYER_2
  6
AIGENLINE048
 40
0.1376
 41
0.1376
 66
1
 10
0
 20
0
 30
0
 70
128
  0
VERTEX
  8
LAYER_2
 10
182.818
 20
129.2975
  0
VERTEX
  8
LAYER_2
 10
182.818
 20
129.7579
  0
SEQEND
  0
POLYLINE
  8
LAYER_2
 40
0.1376
 41
0.1376
 66
1
 10
0
 20
0
 30
0
  0
VERTEX
  8
LAYER_2
 10
182.818
 20
129.7579
  0
VERTEX
  8
LAYER_2
 10
183.0208
 20
129.9519
  0
SEQEND
  0
POLYLINE
  8
LAYER_2
 40
0.1376
 41
0.1376
 66
1
 10
0
 20
0
 30
0
  0
VERTEX
  8
LAYER_2
 10
183.4032
 20
130.3192
  0
VERTEX
  8
LAYER_2
 10
183.6057
 20
130.5135
  0
VERTEX
  8
LAYER_2
 10
183.8865
 20
130.5164
  0
SEQEND
  0
POLYLINE
  8
LAYER_2
  6
AIGENLINE019
 40
0.1376
 41
0.1376
 66
1
 10
0
 20
0
 30
0
 70
128
  0
VERTEX
  8
LAYER_2
 10
184.4079
 20
130.5217
  0
VERTEX
  8
LAYER_2
 10
189.3652
 20
130.5718
  0
SEQEND
  0
POLYLINE
  8
LAYER_2
 40
0.1376
 41
0.1376
 66
1
 10
0
 20
0
 30
0
  0
VERTEX
  8
LAYER_2
 10
189.6262
 20
130.5746
  0
VERTEX
  8
LAYER_2
 10
189.907
 20
130.5774
  0
SEQEND
  0
POLYLINE
  8
LAYER_2
 40
0.1376
 41
0.1376
 66
1
 10
0
 20
0
 30
0
  0
VERTEX
  8
LAYER_2
 10
190.5487
 20
130.1671
 42
0.1109761483
  0
VERTEX
  8
LAYER_2
 10
190.3953
 20
130.4003
  0
SEQEND
  0
POLYLINE
  8
LAYER_2
 40
0.1376
 41
0.1376
 66
1
 10
0
 20
0
 30
0
  0
VERTEX
  8
LAYER_2
 10
190.1829
 20
130.5365
 42
0.1110437739
  0
VERTEX
  8
LAYER_2
 10
189.907
 20
130.577
  0
SEQEND
  0
POLYLINE
  8
LAYER_2
 40
0.1376
 41
0.1376
 66
1
 10
0
 20
0
 30
0
  0
VERTEX
  8
LAYER_2
 10
190.5487
 20
130.1671
  0
VERTEX
  8
LAYER_2
 10
190.6479
 20
129.9043
  0
SEQEND
  0
POLYLINE
  8
LAYER_2
  6
AIGENLINE020
 40
0.1376
 41
0.1376
 66
1
 10
0
 20
0
 30
0
 70
128
  0
VERTEX
  8
LAYER_2
 10
190.7781
 20
129.5589
  0
VERTEX
  8
LAYER_2
 10
190.9735
 20
129.04
  0
SEQEND
  0
POLYLINE
  8
LAYER_2
 40
0.1376
 41
0.1376
 66
1
 10
0
 20
0
 30
0
  0
VERTEX
  8
LAYER_2
 10
191.0387
 20
128.8675
  0
VERTEX
  8
LAYER_2
 10
191.1379
 20
128.6046
  0
SEQEND
  0
POLYLINE
  8
LAYER_2
  6
AIGENLINE021
 40
0.1376
 41
0.1376
 66
1
 10
0
 20
0
 30
0
 70
128
  0
VERTEX
  8
LAYER_2
 10
191.1375
 20
128.605
 42
0.3118364813
  0
VERTEX
  8
LAYER_2
 10
191.2868
 20
128.502
  0
SEQEND
  0
POLYLINE
  8
LAYER_2
 40
0.1376
 41
0.1376
 66
1
 10
0
 20
0
 30
0
  0
VERTEX
  8
LAYER_2
 10
178.6083
 20
129.2975
  0
VERTEX
  8
LAYER_2
 10
178.6083
 20
129.578
  0
SEQEND
  0
POLYLINE
  8
LAYER_2
 40
0.1376
 41
0.1376
 66
1
 10
0
 20
0
 30
0
  0
VERTEX
  8
LAYER_2
 10
178.6083
 20
129.983
  0
VERTEX
  8
LAYER_2
 10
178.6083
 20
130.2638
  0
SEQEND
  0
POLYLINE
  8
LAYER_2
  6
AIGENLINE016
 40
0.1376
 41
0.1376
 66
1
 10
0
 20
0
 30
0
 70
128
  0
VERTEX
  8
LAYER_2
 10
178.6083
 20
130.2638
 42
0.2016514592
  0
VERTEX
  8
LAYER_2
 10
178.5592
 20
130.3784
  0
SEQEND
  0
POLYLINE
  8
LAYER_2
 40
0.1376
 41
0.1376
 66
1
 10
0
 20
0
 30
0
  0
VERTEX
  8
LAYER_2
 10
178.5592
 20
130.3784
  0
VERTEX
  8
LAYER_2
 10
178.3564
 20
130.5728
  0
SEQEND
  0
POLYLINE
  8
LAYER_2
 40
0.1376
 41
0.1376
 66
1
 10
0
 20
0
 30
0
  0
VERTEX
  8
LAYER_2
 10
177.8579
 20
131.0522
  0
VERTEX
  8
LAYER_2
 10
177.6551
 20
131.2463
  0
SEQEND
  0
POLYLINE
  8
LAYER_2
 40
0.1376
 41
0.1376
 66
1
 10
0
 20
0
 30
0
  0
VERTEX
  8
LAYER_2
 10
191.9722
 20
128.5017
  0
VERTEX
  8
LAYER_2
 10
191.6914
 20
128.5017
  0
SEQEND
  0
POLYLINE
  8
LAYER_2
 40
0.1376
 41
0.1376
 66
1
 10
0
 20
0
 30
0
  0
VERTEX
  8
LAYER_2
 10
191.5672
 20
128.5017
  0
VERTEX
  8
LAYER_2
 10
191.2867
 20
128.5017
  0
SEQEND
  0
POLYLINE
  8
LAYER_2
  6
AIGENLINE017
 40
0.1376
 41
0.1376
 66
1
 10
0
 20
0
 30
0
 70
128
  0
VERTEX
  8
LAYER_2
 10
178.0572
 20
129.2975
  0
VERTEX
  8
LAYER_2
 10
178.6083
 20
129.2975
  0
SEQEND
  0
POLYLINE
  8
LAYER_2
  6
AIGENLINE022
 40
0.1376
 41
0.1376
 66
1
 10
0
 20
0
 30
0
 70
128
  0
VERTEX
  8
LAYER_2
 10
194.1368
 20
131.6601
 42
0.3572746728
  0
VERTEX
  8
LAYER_2
 10
194.502
 20
132.0054
  0
SEQEND
  0
POLYLINE
  8
LAYER_2
 40
0.1376
 41
0.1376
 66
1
 10
0
 20
0
 30
0
  0
VERTEX
  8
LAYER_2
 10
194.1368
 20
131.6601
  0
VERTEX
  8
LAYER_2
 10
193.8564
 20
131.6505
  0
SEQEND
  0
POLYLINE
  8
LAYER_2
  6
AIGENLINE023
 40
0.1376
 41
0.1376
 66
1
 10
0
 20
0
 30
0
 70
128
  0
VERTEX
  8
LAYER_2
 10
193.3166
 20
131.6319
  0
VERTEX
  8
LAYER_2
 10
183.8689
 20
131.3094
  0
SEQEND
  0
POLYLINE
  8
LAYER_2
 40
0.1376
 41
0.1376
 66
1
 10
0
 20
0
 30
0
  0
VERTEX
  8
LAYER_2
 10
183.599
 20
131.2999
  0
VERTEX
  8
LAYER_2
 10
183.3189
 20
131.2904
  0
SEQEND
  0
POLYLINE
  8
LAYER_2
 40
0.1376
 41
0.1376
 66
1
 10
0
 20
0
 30
0
  0
VERTEX
  8
LAYER_2
 10
195.9342
 20
142.8202
  0
VERTEX
  8
LAYER_2
 10
196.215
 20
142.8202
  0
SEQEND
  0
POLYLINE
  8
LAYER_2
  6
AIGENLINE061
 40
0.1376
 41
0.1376
 66
1
 10
0
 20
0
 30
0
 70
128
  0
VERTEX
  8
LAYER_2
 10
196.7411
 20
142.8202
  0
VERTEX
  8
LAYER_2
 10
202.7908
 20
142.8202
  0
SEQEND
  0
POLYLINE
  8
LAYER_2
 40
0.1376
 41
0.1376
 66
1
 10
0
 20
0
 30
0
  0
VERTEX
  8
LAYER_2
 10
203.0537
 20
142.8202
  0
VERTEX
  8
LAYER_2
 10
203.3345
 20
142.8202
  0
SEQEND
  0
POLYLINE
  8
LAYER_2
 40
0.1376
 41
0.1376
 66
1
 10
0
 20
0
 30
0
  0
VERTEX
  8
LAYER_2
 10
203.3345
 20
141.9453
  0
VERTEX
  8
LAYER_2
 10
203.0537
 20
141.9453
  0
SEQEND
  0
POLYLINE
  8
LAYER_2
  6
AIGENLINE062
 40
0.1376
 41
0.1376
 66
1
 10
0
 20
0
 30
0
 70
128
  0
VERTEX
  8
LAYER_2
 10
202.4995
 20
141.9453
  0
VERTEX
  8
LAYER_2
 10
197.2367
 20
141.9453
  0
SEQEND
  0
POLYLINE
  8
LAYER_2
 40
0.1376
 41
0.1376
 66
1
 10
0
 20
0
 30
0
  0
VERTEX
  8
LAYER_2
 10
196.9594
 20
141.9453
  0
VERTEX
  8
LAYER_2
 10
196.6789
 20
141.9453
 42
0.1782639013
  0
VERTEX
  8
LAYER_2
 10
196.4204
 20
141.8497
  0
SEQEND
  0
POLYLINE
  8
LAYER_2
 40
0.1376
 41
0.1376
 66
1
 10
0
 20
0
 30
0
  0
VERTEX
  8
LAYER_2
 10
196.4034
 20
141.8345
 42
0.1773079545
  0
VERTEX
  8
LAYER_2
 10
196.2831
 20
141.5865
  0
SEQEND
  0
POLYLINE
  8
LAYER_2
  6
AIGENLINE063
 40
0.1376
 41
0.1376
 66
1
 10
0
 20
0
 30
0
 70
128
  0
VERTEX
  8
LAYER_2
 10
194.6152
 20
128.5017
 42
0.367510852
  0
VERTEX
  8
LAYER_2
 10
195.0146
 20
128.7867
  0
SEQEND
  0
POLYLINE
  8
LAYER_2
 40
0.1376
 41
0.1376
 66
1
 10
0
 20
0
 30
0
  0
VERTEX
  8
LAYER_2
 10
194.6152
 20
128.5017
  0
VERTEX
  8
LAYER_2
 10
194.3344
 20
128.5017
  0
SEQEND
  0
POLYLINE
  8
LAYER_2
 40
0.1376
 41
0.1376
 66
1
 10
0
 20
0
 30
0
  0
VERTEX
  8
LAYER_2
 10
194.2413
 20
128.5017
  0
VERTEX
  8
LAYER_2
 10
193.9604
 20
128.5017
  0
VERTEX
  8
LAYER_2
 10
193.7033
 20
128.6138
  0
SEQEND
  0
POLYLINE
  8
LAYER_2
  6
AIGENLINE028
 40
0.1376
 41
0.1376
 66
1
 10
0
 20
0
 30
0
 70
128
  0
VERTEX
  8
LAYER_2
 10
193.2164
 20
128.7281
 42
0.0870576967
  0
VERTEX
  8
LAYER_2
 10
192.4696
 20
128.6847
  0
SEQEND
  0
POLYLINE
  8
LAYER_2
 40
0.1376
 41
0.1376
 66
1
 10
0
 20
0
 30
0
  0
VERTEX
  8
LAYER_2
 10
192.2294
 20
128.6138
  0
VERTEX
  8
LAYER_2
 10
191.9718
 20
128.5016
  0
SEQEND
  0
POLYLINE
  8
LAYER_2
  6
AIGENLINE050
 40
0.1376
 41
0.1376
 66
1
 10
0
 20
0
 30
0
 70
128
  0
VERTEX
  8
LAYER_2
 10
193.8733
 20
129.3924
 42
0.4146276804
  0
VERTEX
  8
LAYER_2
 10
194.0734
 20
129.4951
  0
VERTEX
  8
LAYER_2
 10
194.0797
 20
129.5247
  0
SEQEND
  0
POLYLINE
  8
LAYER_2
 40
0.1376
 41
0.1376
 66
1
 10
0
 20
0
 30
0
  0
VERTEX
  8
LAYER_2
 10
194.08
 20
129.5243
  0
VERTEX
  8
LAYER_2
 10
194.1139
 20
129.8027
  0
SEQEND
  0
POLYLINE
  8
LAYER_2
 40
0.1376
 41
0.1376
 66
1
 10
0
 20
0
 30
0
  0
VERTEX
  8
LAYER_2
 10
194.1901
 20
130.4246
  0
VERTEX
  8
LAYER_2
 10
194.224
 20
130.703
  0
SEQEND
  0
POLYLINE
  8
LAYER_2
  6
AIGENLINE064
 40
0.1376
 41
0.1376
 66
1
 10
0
 20
0
 30
0
 70
128
  0
VERTEX
  8
LAYER_2
 10
194.2243
 20
130.7033
 42
0.4142739104
  0
VERTEX
  8
LAYER_2
 10
194.0857
 20
130.8804
  0
VERTEX
  8
LAYER_2
 10
194.0547
 20
130.8811
  0
SEQEND
  0
POLYLINE
  8
LAYER_2
 40
0.1376
 41
0.1376
 66
1
 10
0
 20
0
 30
0
  0
VERTEX
  8
LAYER_2
 10
194.055
 20
130.8811
  0
VERTEX
  8
LAYER_2
 10
193.7752
 20
130.8607
  0
SEQEND
  0
POLYLINE
  8
LAYER_2
  6
AIGENLINE031
 40
0.1376
 41
0.1376
 66
1
 10
0
 20
0
 30
0
 70
128
  0
VERTEX
  8
LAYER_2
 10
193.0838
 20
130.8099
  0
VERTEX
  8
LAYER_2
 10
192.0466
 20
130.7337
  0
SEQEND
  0
POLYLINE
  8
LAYER_2
 40
0.1376
 41
0.1376
 66
1
 10
0
 20
0
 30
0
  0
VERTEX
  8
LAYER_2
 10
191.7006
 20
130.7086
  0
VERTEX
  8
LAYER_2
 10
191.4208
 20
130.6882
  0
SEQEND
  0
POLYLINE
  8
LAYER_2
  6
AIGENLINE032
 40
0.1376
 41
0.1376
 66
1
 10
0
 20
0
 30
0
 70
128
  0
VERTEX
  8
LAYER_2
 10
191.4208
 20
130.6882
 42
0.3930570147
  0
VERTEX
  8
LAYER_2
 10
191.2737
 20
130.5181
  0
VERTEX
  8
LAYER_2
 10
191.2836
 20
130.4733
  0
SEQEND
  0
POLYLINE
  8
LAYER_2
 40
0.1376
 41
0.1376
 66
1
 10
0
 20
0
 30
0
  0
VERTEX
  8
LAYER_2
 10
191.2832
 20
130.4737
  0
VERTEX
  8
LAYER_2
 10
191.3824
 20
130.2108
  0
SEQEND
  0
POLYLINE
  8
LAYER_2
 40
0.1376
 41
0.1376
 66
1
 10
0
 20
0
 30
0
  0
VERTEX
  8
LAYER_2
 10
191.5806
 20
129.6856
  0
VERTEX
  8
LAYER_2
 10
191.6794
 20
129.4231
  0
SEQEND
  0
POLYLINE
  8
LAYER_2
  6
AIGENLINE003
 40
0.1376
 41
0.1376
 66
1
 10
0
 20
0
 30
0
 70
128
  0
VERTEX
  8
LAYER_2
 10
191.6794
 20
129.4231
 42
0.3919321702
  0
VERTEX
  8
LAYER_2
 10
191.8844
 20
129.3303
  0
SEQEND
  0
POLYLINE
  8
LAYER_2
 40
0.1376
 41
0.1376
 66
1
 10
0
 20
0
 30
0
  0
VERTEX
  8
LAYER_2
 10
193.8733
 20
129.3924
  0
VERTEX
  8
LAYER_2
 10
193.6027
 20
129.4672
  0
SEQEND
  0
POLYLINE
  8
LAYER_2
  6
AIGENLINE033
 40
0.1376
 41
0.1376
 66
1
 10
0
 20
0
 30
0
 70
128
  0
VERTEX
  8
LAYER_2
 10
193.1191
 20
129.5339
 42
0.0628056554
  0
VERTEX
  8
LAYER_2
 10
192.3906
 20
129.481
  0
SEQEND
  0
POLYLINE
  8
LAYER_2
 40
0.1376
 41
0.1376
 66
1
 10
0
 20
0
 30
0
  0
VERTEX
  8
LAYER_2
 10
192.1511
 20
129.4221
  0
VERTEX
  8
LAYER_2
 10
191.8854
 20
129.331
  0
SEQEND
  0
POLYLINE
  8
LAYER_2
 40
0.1376
 41
0.1376
 66
1
 10
0
 20
0
 30
0
  0
VERTEX
  8
LAYER_2
 10
194.381
 20
131.7677
  0
VERTEX
  8
LAYER_2
 10
194.1002
 20
131.7677
  0
SEQEND
  0
POLYLINE
  8
LAYER_2
  6
AIGENLINE034
 40
0.1376
 41
0.1376
 66
1
 10
0
 20
0
 30
0
 70
128
  0
VERTEX
  8
LAYER_2
 10
193.5428
 20
131.7677
  0
VERTEX
  8
LAYER_2
 10
167.0537
 20
131.7684
  0
SEQEND
  0
POLYLINE
  8
LAYER_2
 40
0.1376
 41
0.1376
 66
1
 10
0
 20
0
 30
0
  0
VERTEX
  8
LAYER_2
 10
166.775
 20
131.768
  0
VERTEX
  8
LAYER_2
 10
166.4942
 20
131.768
  0
SEQEND
  0
POLYLINE
  8
LAYER_2
 40
0.1376
 41
0.1376
 66
1
 10
0
 20
0
 30
0
  0
VERTEX
  8
LAYER_2
 10
183.3186
 20
131.2904
  0
VERTEX
  8
LAYER_2
 10
183.0381
 20
131.2904
  0
SEQEND
  0
POLYLINE
  8
LAYER_2
  6
AIGENLINE035
 40
0.1376
 41
0.1376
 66
1
 10
0
 20
0
 30
0
 70
128
  0
VERTEX
  8
LAYER_2
 10
182.4603
 20
131.2904
  0
VERTEX
  8
LAYER_2
 10
178.126
 20
131.2904
  0
SEQEND
  0
POLYLINE
  8
LAYER_2
 40
0.1376
 41
0.1376
 66
1
 10
0
 20
0
 30
0
  0
VERTEX
  8
LAYER_2
 10
177.8371
 20
131.2904
  0
VERTEX
  8
LAYER_2
 10
177.5566
 20
131.2904
  0
SEQEND
  0
POLYLINE
  8
LAYER_2
 40
0.1376
 41
0.1376
 66
1
 10
0
 20
0
 30
0
  0
VERTEX
  8
LAYER_2
 10
182.3163
 20
130.3784
  0
VERTEX
  8
LAYER_2
 10
182.0355
 20
130.3784
  0
SEQEND
  0
POLYLINE
  8
LAYER_2
  6
AIGENLINE036
 40
0.1376
 41
0.1376
 66
1
 10
0
 20
0
 30
0
 70
128
  0
VERTEX
  8
LAYER_2
 10
181.3966
 20
130.3784
  0
VERTEX
  8
LAYER_2
 10
179.159
 20
130.3784
  0
SEQEND
  0
POLYLINE
  8
LAYER_2
 40
0.1376
 41
0.1376
 66
1
 10
0
 20
0
 30
0
  0
VERTEX
  8
LAYER_2
 10
178.8397
 20
130.3784
  0
VERTEX
  8
LAYER_2
 10
178.5589
 20
130.3784
  0
SEQEND
  0
POLYLINE
  8
LAYER_2
 40
0.1376
 41
0.1376
 66
1
 10
0
 20
0
 30
0
  0
VERTEX
  8
LAYER_2
 10
182.2673
 20
129.2975
  0
VERTEX
  8
LAYER_2
 10
181.9865
 20
129.2975
  0
SEQEND
  0
POLYLINE
  8
LAYER_2
  6
AIGENLINE037
 40
0.1376
 41
0.1376
 66
1
 10
0
 20
0
 30
0
 70
128
  0
VERTEX
  8
LAYER_2
 10
181.367
 20
129.2975
  0
VERTEX
  8
LAYER_2
 10
179.1985
 20
129.2975
  0
SEQEND
  0
POLYLINE
  8
LAYER_2
 40
0.1376
 41
0.1376
 66
1
 10
0
 20
0
 30
0
  0
VERTEX
  8
LAYER_2
 10
178.8887
 20
129.2975
  0
VERTEX
  8
LAYER_2
 10
178.6079
 20
129.2975
  0
SEQEND
  0
POLYLINE
  8
LAYER_2
 40
0.1376
 41
0.1376
 66
1
 10
0
 20
0
 30
0
  0
VERTEX
  8
LAYER_2
 10
193.9605
 20
128.5017
  0
VERTEX
  8
LAYER_2
 10
193.68
 20
128.5017
  0
SEQEND
  0
POLYLINE
  8
LAYER_2
  6
AIGENLINE038
 40
0.1376
 41
0.1376
 66
1
 10
0
 20
0
 30
0
 70
128
  0
VERTEX
  8
LAYER_2
 10
193.2041
 20
128.5017
  0
VERTEX
  8
LAYER_2
 10
192.4904
 20
128.5017
  0
SEQEND
  0
POLYLINE
  8
LAYER_2
 40
0.1376
 41
0.1376
 66
1
 10
0
 20
0
 30
0
  0
VERTEX
  8
LAYER_2
 10
192.2527
 20
128.5017
  0
VERTEX
  8
LAYER_2
 10
191.9718
 20
128.5017
  0
SEQEND
  0
POLYLINE
  8
LAYER_2
 40
0.1376
 41
0.1376
 66
1
 10
0
 20
0
 30
0
  0
VERTEX
  8
LAYER_2
 10
191.9722
 20
128.5017
  0
VERTEX
  8
LAYER_2
 10
191.6914
 20
128.5017
  0
SEQEND
  0
POLYLINE
  8
LAYER_2
  6
AIGENLINE039
 40
0.1376
 41
0.1376
 66
1
 10
0
 20
0
 30
0
 70
128
  0
VERTEX
  8
LAYER_2
 10
191.1319
 20
128.5017
  0
VERTEX
  8
LAYER_2
 10
170.149
 20
128.502
  0
SEQEND
  0
POLYLINE
  8
LAYER_2
 40
0.1376
 41
0.1376
 66
1
 10
0
 20
0
 30
0
  0
VERTEX
  8
LAYER_2
 10
169.8693
 20
128.502
  0
VERTEX
  8
LAYER_2
 10
169.5884
 20
128.502
  0
SEQEND
  0
POLYLINE
  8
LAYER_2
 40
0.1376
 41
0.1376
 66
1
 10
0
 20
0
 30
0
  0
VERTEX
  8
LAYER_2
 10
195.9342
 20
142.8202
  0
VERTEX
  8
LAYER_2
 10
195.6534
 20
142.8202
  0
SEQEND
  0
POLYLINE
  8
LAYER_2
  6
AIGENLINE040
 40
0.1376
 41
0.1376
 66
1
 10
0
 20
0
 30
0
 70
128
  0
VERTEX
  8
LAYER_2
 10
195.101
 20
142.8202
  0
VERTEX
  8
LAYER_2
 10
165.5308
 20
142.8205
  0
SEQEND
  0
POLYLINE
  8
LAYER_2
 40
0.1376
 41
0.1376
 66
1
 10
0
 20
0
 30
0
  0
VERTEX
  8
LAYER_2
 10
165.2546
 20
142.8205
  0
VERTEX
  8
LAYER_2
 10
164.9738
 20
142.8205
  0
SEQEND
  0
POLYLINE
  8
LAYER_2
 40
0.1376
 41
0.1376
 66
1
 10
0
 20
0
 30
0
  0
VERTEX
  8
LAYER_2
 10
195.0146
 20
128.7885
  0
VERTEX
  8
LAYER_2
 10
195.0424
 20
129.0679
  0
SEQEND
  0
POLYLINE
  8
LAYER_2
  6
AIGENLINE041
 40
0.1376
 41
0.1376
 66
1
 10
0
 20
0
 30
0
 70
128
  0
VERTEX
  8
LAYER_2
 10
195.0999
 20
129.6506
  0
VERTEX
  8
LAYER_2
 10
196.2267
 20
141.0161
  0
SEQEND
  0
POLYLINE
  8
LAYER_2
 40
0.1376
 41
0.1376
 66
1
 10
0
 20
0
 30
0
  0
VERTEX
  8
LAYER_2
 10
196.2556
 20
141.3075
  0
VERTEX
  8
LAYER_2
 10
196.2835
 20
141.5869
  0
SEQEND
  0
POLYLINE
  8
LAYER_2
 40
0.1376
 41
0.1376
 66
1
 10
0
 20
0
 30
0
  0
VERTEX
  8
LAYER_2
 10
194.502
 20
132.0058
  0
VERTEX
  8
LAYER_2
 10
194.5298
 20
132.2852
  0
SEQEND
  0
POLYLINE
  8
LAYER_2
  6
AIGENLINE042
 40
0.1376
 41
0.1376
 66
1
 10
0
 20
0
 30
0
 70
128
  0
VERTEX
  8
LAYER_2
 10
194.5877
 20
132.8673
  0
VERTEX
  8
LAYER_2
 10
195.4824
 20
141.8917
  0
SEQEND
  0
POLYLINE
  8
LAYER_2
 40
0.1376
 41
0.1376
 66
1
 10
0
 20
0
 30
0
  0
VERTEX
  8
LAYER_2
 10
195.5109
 20
142.1824
  0
VERTEX
  8
LAYER_2
 10
195.5388
 20
142.4618
  0
SEQEND
  0
POLYLINE
  8
LAYER_2
 40
0.1376
 41
0.1376
 66
1
 10
0
 20
0
 30
0
  0
VERTEX
  8
LAYER_2
 10
195.9343
 20
142.8202
 42
0.178309284
  0
VERTEX
  8
LAYER_2
 10
195.6757
 20
142.7246
  0
SEQEND
  0
POLYLINE
  8
LAYER_2
 40
0.1376
 41
0.1376
 66
1
 10
0
 20
0
 30
0
  0
VERTEX
  8
LAYER_2
 10
195.6591
 20
142.7094
 42
0.1764917002
  0
VERTEX
  8
LAYER_2
 10
195.5384
 20
142.4618
  0
SEQEND
  0
POLYLINE
  8
LAYER_2
  6
AIGENLINE065
 40
0.1376
 41
0.1376
 66
1
 10
0
 20
0
 30
0
 70
128
  0
VERTEX
  8
LAYER_2
 10
177.6554
 20
131.2463
  0
VERTEX
  8
LAYER_2
 10
177.5566
 20
131.29
  0
SEQEND
  0
POLYLINE
  8
LAYER_2
  6
AIGENLINE048
 40
0.1376
 41
0.1376
 66
1
 10
0
 20
0
 30
0
 70
128
  0
VERTEX
  8
LAYER_2
 10
178.0572
 20
129.2975
  0
VERTEX
  8
LAYER_2
 10
178.0572
 20
129.7579
  0
SEQEND
  0
POLYLINE
  8
LAYER_2
 40
0.1376
 41
0.1376
 66
1
 10
0
 20
0
 30
0
  0
VERTEX
  8
LAYER_2
 10
178.0572
 20
129.7579
  0
VERTEX
  8
LAYER_2
 10
177.8544
 20
129.9519
  0
SEQEND
  0
POLYLINE
  8
LAYER_2
 40
0.1376
 41
0.1376
 66
1
 10
0
 20
0
 30
0
  0
VERTEX
  8
LAYER_2
 10
177.4723
 20
130.3195
  0
VERTEX
  8
LAYER_2
 10
177.2695
 20
130.5139
  0
SEQEND
  0
POLYLINE
  8
LAYER_2
 40
0.1376
 41
0.1376
 66
1
 10
0
 20
0
 30
0
  0
VERTEX
  8
LAYER_2
 10
177.2698
 20
130.5139
  0
VERTEX
  8
LAYER_2
 10
176.989
 20
130.5167
  0
SEQEND
  0
POLYLINE
  8
LAYER_2
  6
AIGENLINE019
 40
0.1376
 41
0.1376
 66
1
 10
0
 20
0
 30
0
 70
128
  0
VERTEX
  8
LAYER_2
 10
176.4673
 20
130.522
  0
VERTEX
  8
LAYER_2
 10
171.51
 20
130.5721
  0
SEQEND
  0
POLYLINE
  8
LAYER_2
 40
0.1376
 41
0.1376
 66
1
 10
0
 20
0
 30
0
  0
VERTEX
  8
LAYER_2
 10
171.249
 20
130.5749
  0
VERTEX
  8
LAYER_2
 10
170.9685
 20
130.5778
 42
0.1107862997
  0
VERTEX
  8
LAYER_2
 10
170.6926
 20
130.5368
  0
SEQEND
  0
POLYLINE
  8
LAYER_2
 40
0.1376
 41
0.1376
 66
1
 10
0
 20
0
 30
0
  0
VERTEX
  8
LAYER_2
 10
170.4799
 20
130.4007
 42
0.1093579775
  0
VERTEX
  8
LAYER_2
 10
170.3265
 20
130.1675
  0
SEQEND
  0
POLYLINE
  8
LAYER_2
 40
0.1376
 41
0.1376
 66
1
 10
0
 20
0
 30
0
  0
VERTEX
  8
LAYER_2
 10
170.3268
 20
130.1675
  0
VERTEX
  8
LAYER_2
 10
170.2277
 20
129.9046
  0
SEQEND
  0
POLYLINE
  8
LAYER_2
  6
AIGENLINE020
 40
0.1376
 41
0.1376
 66
1
 10
0
 20
0
 30
0
 70
128
  0
VERTEX
  8
LAYER_2
 10
170.0972
 20
129.5589
  0
VERTEX
  8
LAYER_2
 10
169.9017
 20
129.0403
  0
SEQEND
  0
POLYLINE
  8
LAYER_2
 40
0.1376
 41
0.1376
 66
1
 10
0
 20
0
 30
0
  0
VERTEX
  8
LAYER_2
 10
169.8365
 20
128.8675
  0
VERTEX
  8
LAYER_2
 10
169.7373
 20
128.605
  0
SEQEND
  0
POLYLINE
  8
LAYER_2
  6
AIGENLINE021
 40
0.1376
 41
0.1376
 66
1
 10
0
 20
0
 30
0
 70
128
  0
VERTEX
  8
LAYER_2
 10
169.5888
 20
128.502
 42
0.3048622961
  0
VERTEX
  8
LAYER_2
 10
169.7373
 20
128.605
  0
SEQEND
  0
POLYLINE
  8
LAYER_2
 40
0.1376
 41
0.1376
 66
1
 10
0
 20
0
 30
0
  0
VERTEX
  8
LAYER_2
 10
168.9034
 20
128.502
  0
VERTEX
  8
LAYER_2
 10
169.1838
 20
128.502
  0
SEQEND
  0
POLYLINE
  8
LAYER_2
 40
0.1376
 41
0.1376
 66
1
 10
0
 20
0
 30
0
  0
VERTEX
  8
LAYER_2
 10
169.308
 20
128.502
  0
VERTEX
  8
LAYER_2
 10
169.5888
 20
128.502
  0
SEQEND
  0
POLYLINE
  8
LAYER_2
  6
AIGENLINE022
 40
0.1376
 41
0.1376
 66
1
 10
0
 20
0
 30
0
 70
128
  0
VERTEX
  8
LAYER_2
 10
166.3732
 20
132.0065
 42
0.3567868348
  0
VERTEX
  8
LAYER_2
 10
166.7387
 20
131.6604
  0
SEQEND
  0
POLYLINE
  8
LAYER_2
 40
0.1376
 41
0.1376
 66
1
 10
0
 20
0
 30
0
  0
VERTEX
  8
LAYER_2
 10
166.7387
 20
131.6601
  0
VERTEX
  8
LAYER_2
 10
167.0188
 20
131.6505
  0
SEQEND
  0
POLYLINE
  8
LAYER_2
  6
AIGENLINE023
 40
0.1376
 41
0.1376
 66
1
 10
0
 20
0
 30
0
 70
128
  0
VERTEX
  8
LAYER_2
 10
167.5589
 20
131.6322
  0
VERTEX
  8
LAYER_2
 10
177.0063
 20
131.3091
  0
SEQEND
  0
POLYLINE
  8
LAYER_2
 40
0.1376
 41
0.1376
 66
1
 10
0
 20
0
 30
0
  0
VERTEX
  8
LAYER_2
 10
177.2762
 20
131.2999
  0
VERTEX
  8
LAYER_2
 10
177.5566
 20
131.2904
  0
SEQEND
  0
POLYLINE
  8
LAYER_2
 40
0.1376
 41
0.1376
 66
1
 10
0
 20
0
 30
0
  0
VERTEX
  8
LAYER_2
 10
164.9413
 20
142.8206
  0
VERTEX
  8
LAYER_2
 10
164.6605
 20
142.8206
  0
SEQEND
  0
POLYLINE
  8
LAYER_2
  6
AIGENLINE061
 40
0.1376
 41
0.1376
 66
1
 10
0
 20
0
 30
0
 70
128
  0
VERTEX
  8
LAYER_2
 10
164.1345
 20
142.8205
  0
VERTEX
  8
LAYER_2
 10
161.241
 20
142.8202
  0
SEQEND
  0
POLYLINE
  8
LAYER_2
 40
0.1376
 41
0.1376
 66
1
 10
0
 20
0
 30
0
  0
VERTEX
  8
LAYER_2
 10
160.9779
 20
142.8202
  0
VERTEX
  8
LAYER_2
 10
160.697
 20
142.8202
  0
SEQEND
  0
POLYLINE
  8
LAYER_2
 40
0.1376
 41
0.1376
 66
1
 10
0
 20
0
 30
0
  0
VERTEX
  8
LAYER_2
 10
160.6971
 20
141.9453
  0
VERTEX
  8
LAYER_2
 10
160.9775
 20
141.9453
  0
SEQEND
  0
POLYLINE
  8
LAYER_2
  6
AIGENLINE066
 40
0.1376
 41
0.1376
 66
1
 10
0
 20
0
 30
0
 70
128
  0
VERTEX
  8
LAYER_2
 10
161.5652
 20
141.9453
  0
VERTEX
  8
LAYER_2
 10
163.6223
 20
141.9453
  0
SEQEND
  0
POLYLINE
  8
LAYER_2
 40
0.1376
 41
0.1376
 66
1
 10
0
 20
0
 30
0
  0
VERTEX
  8
LAYER_2
 10
163.9161
 20
141.9453
  0
VERTEX
  8
LAYER_2
 10
164.1969
 20
141.9453
  0
SEQEND
  0
POLYLINE
  8
LAYER_2
 40
0.1376
 41
0.1376
 66
1
 10
0
 20
0
 30
0
  0
VERTEX
  8
LAYER_2
 10
164.5924
 20
141.5869
 42
0.1775237448
  0
VERTEX
  8
LAYER_2
 10
164.4721
 20
141.8349
  0
SEQEND
  0
POLYLINE
  8
LAYER_2
 40
0.1376
 41
0.1376
 66
1
 10
0
 20
0
 30
0
  0
VERTEX
  8
LAYER_2
 10
164.4552
 20
141.8501
 42
0.1773096385
  0
VERTEX
  8
LAYER_2
 10
164.1966
 20
141.9457
  0
SEQEND
  0
POLYLINE
  8
LAYER_2
 40
0.1376
 41
0.1376
 66
1
 10
0
 20
0
 30
0
  0
VERTEX
  8
LAYER_2
 10
165.6606
 20
128.502
  0
VERTEX
  8
LAYER_2
 10
165.9414
 20
128.502
  0
SEQEND
  0
POLYLINE
  8
LAYER_2
 40
0.1376
 41
0.1376
 66
1
 10
0
 20
0
 30
0
  0
VERTEX
  8
LAYER_2
 10
166.6343
 20
128.502
  0
VERTEX
  8
LAYER_2
 10
166.9147
 20
128.502
  0
SEQEND
  0
POLYLINE
  8
LAYER_2
 40
0.1376
 41
0.1376
 66
1
 10
0
 20
0
 30
0
  0
VERTEX
  8
LAYER_2
 10
165.2634
 20
128.8788
 42
0.1778944547
  0
VERTEX
  8
LAYER_2
 10
165.3728
 20
128.6258
  0
SEQEND
  0
POLYLINE
  8
LAYER_2
 40
0.1376
 41
0.1376
 66
1
 10
0
 20
0
 30
0
  0
VERTEX
  8
LAYER_2
 10
165.402
 20
128.5973
 42
0.1767048248
  0
VERTEX
  8
LAYER_2
 10
165.661
 20
128.502
  0
SEQEND
  0
POLYLINE
  8
LAYER_2
 40
0.1376
 41
0.1376
 66
1
 10
0
 20
0
 30
0
  0
VERTEX
  8
LAYER_2
 10
168.9034
 20
128.502
  0
VERTEX
  8
LAYER_2
 10
168.6458
 20
128.6142
  0
SEQEND
  0
POLYLINE
  8
LAYER_2
  6
AIGENLINE028
 40
0.1376
 41
0.1376
 66
1
 10
0
 20
0
 30
0
 70
128
  0
VERTEX
  8
LAYER_2
 10
168.1594
 20
128.7285
 42
0.08710774115
  0
VERTEX
  8
LAYER_2
 10
167.4125
 20
128.6851
  0
SEQEND
  0
POLYLINE
  8
LAYER_2
 40
0.1376
 41
0.1376
 66
1
 10
0
 20
0
 30
0
  0
VERTEX
  8
LAYER_2
 10
167.1723
 20
128.6142
  0
VERTEX
  8
LAYER_2
 10
166.9147
 20
128.502
  0
SEQEND
  0
POLYLINE
  8
LAYER_2
  6
AIGENLINE029
 40
0.1376
 41
0.1376
 66
1
 10
0
 20
0
 30
0
 70
128
  0
VERTEX
  8
LAYER_2
 10
166.7952
 20
129.5251
 42
0.3931242442
  0
VERTEX
  8
LAYER_2
 10
166.9726
 20
129.3864
  0
VERTEX
  8
LAYER_2
 10
167.0022
 20
129.3928
  0
SEQEND
  0
POLYLINE
  8
LAYER_2
 40
0.1376
 41
0.1376
 66
1
 10
0
 20
0
 30
0
  0
VERTEX
  8
LAYER_2
 10
166.7952
 20
129.5251
  0
VERTEX
  8
LAYER_2
 10
166.7613
 20
129.8034
  0
SEQEND
  0
POLYLINE
  8
LAYER_2
 40
0.1376
 41
0.1376
 66
1
 10
0
 20
0
 30
0
  0
VERTEX
  8
LAYER_2
 10
166.6851
 20
130.425
  0
VERTEX
  8
LAYER_2
 10
166.6512
 20
130.7033
  0
SEQEND
  0
POLYLINE
  8
LAYER_2
  6
AIGENLINE030
 40
0.1376
 41
0.1376
 66
1
 10
0
 20
0
 30
0
 70
128
  0
VERTEX
  8
LAYER_2
 10
166.8209
 20
130.8815
 42
0.390600901
  0
VERTEX
  8
LAYER_2
 10
166.6505
 20
130.7347
  0
VERTEX
  8
LAYER_2
 10
166.6512
 20
130.7037
  0
SEQEND
  0
POLYLINE
  8
LAYER_2
 40
0.1376
 41
0.1376
 66
1
 10
0
 20
0
 30
0
  0
VERTEX
  8
LAYER_2
 10
166.8209
 20
130.8815
  0
VERTEX
  8
LAYER_2
 10
167.1003
 20
130.861
  0
SEQEND
  0
POLYLINE
  8
LAYER_2
  6
AIGENLINE031
 40
0.1376
 41
0.1376
 66
1
 10
0
 20
0
 30
0
 70
128
  0
VERTEX
  8
LAYER_2
 10
167.7921
 20
130.8102
  0
VERTEX
  8
LAYER_2
 10
168.8286
 20
130.734
  0
SEQEND
  0
POLYLINE
  8
LAYER_2
 40
0.1376
 41
0.1376
 66
1
 10
0
 20
0
 30
0
  0
VERTEX
  8
LAYER_2
 10
169.175
 20
130.7093
  0
VERTEX
  8
LAYER_2
 10
169.4544
 20
130.6889
  0
SEQEND
  0
POLYLINE
  8
LAYER_2
  6
AIGENLINE032
 40
0.1376
 41
0.1376
 66
1
 10
0
 20
0
 30
0
 70
128
  0
VERTEX
  8
LAYER_2
 10
169.592
 20
130.4737
 42
0.3927937353
  0
VERTEX
  8
LAYER_2
 10
169.4992
 20
130.6786
  0
VERTEX
  8
LAYER_2
 10
169.4548
 20
130.6889
  0
SEQEND
  0
POLYLINE
  8
LAYER_2
 40
0.1376
 41
0.1376
 66
1
 10
0
 20
0
 30
0
  0
VERTEX
  8
LAYER_2
 10
169.592
 20
130.4737
  0
VERTEX
  8
LAYER_2
 10
169.4929
 20
130.2112
  0
SEQEND
  0
POLYLINE
  8
LAYER_2
 40
0.1376
 41
0.1376
 66
1
 10
0
 20
0
 30
0
  0
VERTEX
  8
LAYER_2
 10
169.2949
 20
129.6859
  0
VERTEX
  8
LAYER_2
 10
169.1958
 20
129.4231
  0
SEQEND
  0
POLYLINE
  8
LAYER_2
  6
AIGENLINE003
 40
0.1376
 41
0.1376
 66
1
 10
0
 20
0
 30
0
 70
128
  0
VERTEX
  8
LAYER_2
 10
168.9898
 20
129.3314
 42
0.393506545
  0
VERTEX
  8
LAYER_2
 10
169.1955
 20
129.4224
  0
SEQEND
  0
POLYLINE
  8
LAYER_2
 40
0.1376
 41
0.1376
 66
1
 10
0
 20
0
 30
0
  0
VERTEX
  8
LAYER_2
 10
168.9898
 20
129.3314
  0
VERTEX
  8
LAYER_2
 10
168.7245
 20
129.4224
  0
SEQEND
  0
POLYLINE
  8
LAYER_2
  6
AIGENLINE033
 40
0.1376
 41
0.1376
 66
1
 10
0
 20
0
 30
0
 70
128
  0
VERTEX
  8
LAYER_2
 10
168.2458
 20
129.5187
 42
0.06292347249
  0
VERTEX
  8
LAYER_2
 10
167.5152
 20
129.5113
  0
SEQEND
  0
POLYLINE
  8
LAYER_2
 40
0.1376
 41
0.1376
 66
1
 10
0
 20
0
 30
0
  0
VERTEX
  8
LAYER_2
 10
167.2728
 20
129.4676
  0
VERTEX
  8
LAYER_2
 10
167.0022
 20
129.3928
  0
SEQEND
  0
POLYLINE
  8
LAYER_2
 40
0.1376
 41
0.1376
 66
1
 10
0
 20
0
 30
0
  0
VERTEX
  8
LAYER_2
 10
166.9147
 20
128.502
  0
VERTEX
  8
LAYER_2
 10
167.1956
 20
128.502
  0
SEQEND
  0
POLYLINE
  8
LAYER_2
  6
AIGENLINE038
 40
0.1376
 41
0.1376
 66
1
 10
0
 20
0
 30
0
 70
128
  0
VERTEX
  8
LAYER_2
 10
167.6711
 20
128.502
  0
VERTEX
  8
LAYER_2
 10
168.3848
 20
128.502
  0
SEQEND
  0
POLYLINE
  8
LAYER_2
 40
0.1376
 41
0.1376
 66
1
 10
0
 20
0
 30
0
  0
VERTEX
  8
LAYER_2
 10
168.6225
 20
128.502
  0
VERTEX
  8
LAYER_2
 10
168.9034
 20
128.502
  0
SEQEND
  0
POLYLINE
  8
LAYER_2
 40
0.1376
 41
0.1376
 66
1
 10
0
 20
0
 30
0
  0
VERTEX
  8
LAYER_2
 10
165.2634
 20
128.8788
  0
VERTEX
  8
LAYER_2
 10
165.2486
 20
129.1592
  0
SEQEND
  0
POLYLINE
  8
LAYER_2
  6
AIGENLINE067
 40
0.1376
 41
0.1376
 66
1
 10
0
 20
0
 30
0
 70
128
  0
VERTEX
  8
LAYER_2
 10
165.2182
 20
129.7374
  0
VERTEX
  8
LAYER_2
 10
164.6224
 20
141.0175
  0
SEQEND
  0
POLYLINE
  8
LAYER_2
 40
0.1376
 41
0.1376
 66
1
 10
0
 20
0
 30
0
  0
VERTEX
  8
LAYER_2
 10
164.6072
 20
141.3068
  0
VERTEX
  8
LAYER_2
 10
164.5924
 20
141.5869
  0
SEQEND
  0
POLYLINE
  8
LAYER_2
 40
0.1376
 41
0.1376
 66
1
 10
0
 20
0
 30
0
  0
VERTEX
  8
LAYER_2
 10
166.3732
 20
132.0065
  0
VERTEX
  8
LAYER_2
 10
166.3454
 20
132.2855
  0
SEQEND
  0
POLYLINE
  8
LAYER_2
  6
AIGENLINE042
 40
0.1376
 41
0.1376
 66
1
 10
0
 20
0
 30
0
 70
128
  0
VERTEX
  8
LAYER_2
 10
166.2879
 20
132.8676
  0
VERTEX
  8
LAYER_2
 10
165.3936
 20
141.8917
  0
SEQEND
  0
POLYLINE
  8
LAYER_2
 40
0.1376
 41
0.1376
 66
1
 10
0
 20
0
 30
0
  0
VERTEX
  8
LAYER_2
 10
165.3646
 20
142.1827
  0
VERTEX
  8
LAYER_2
 10
165.3368
 20
142.4621
  0
SEQEND
  0
POLYLINE
  8
LAYER_2
 40
0.1376
 41
0.1376
 66
1
 10
0
 20
0
 30
0
  0
VERTEX
  8
LAYER_2
 10
165.3371
 20
142.4621
 42
0.1779734473
  0
VERTEX
  8
LAYER_2
 10
165.2168
 20
142.7101
  0
SEQEND
  0
POLYLINE
  8
LAYER_2
 40
0.1376
 41
0.1376
 66
1
 10
0
 20
0
 30
0
  0
VERTEX
  8
LAYER_2
 10
165.1999
 20
142.7253
 42
0.1766233884
  0
VERTEX
  8
LAYER_2
 10
164.9413
 20
142.8205
  0
SEQEND
  0
POLYLINE
  8
LAYER_2
  6
AIGENLINE025
 40
0.1376
 41
0.1376
 66
1
 10
0
 20
0
 30
0
 70
128
  0
VERTEX
  8
LAYER_2
 10
160.5379
 20
142.6614
  0
VERTEX
  8
LAYER_2
 10
160.5379
 20
142.1044
  0
SEQEND
  0
INSERT
  8
LAYER_2
  2
AIGNBL0201002C
 10
0
 20
0
 30
0
  0
POLYLINE
  8
LAYER_2
  6
AIGENLINE025
 40
0.1376
 41
0.1376
 66
1
 10
0
 20
0
 30
0
 70
128
  0
VERTEX
  8
LAYER_2
 10
203.4936
 20
142.6614
  0
VERTEX
  8
LAYER_2
 10
203.4936
 20
142.1044
  0
SEQEND
  0
INSERT
  8
LAYER_2
  2
AIGNBL0201002D
 10
0
 20
0
 30
0
  0
POLYLINE
  8
LAYER_2
 40
0.1376
 41
0.1376
 66
1
 10
0
 20
0
 30
0
  0
VERTEX
  8
LAYER_2
 10
101.2797
 20
98.9075
  0
VERTEX
  8
LAYER_2
 10
100.9989
 20
98.9075
  0
VERTEX
  8
LAYER_2
 10
100.9989
 20
99.0662
  0
VERTEX
  8
LAYER_2
 10
101.2797
 20
99.0662
  0
SEQEND
  0
POLYLINE
  8
LAYER_2
 40
0.1376
 41
0.1376
 66
1
 10
0
 20
0
 30
0
  0
VERTEX
  8
LAYER_2
 10
101.7175
 20
99.0666
  0
VERTEX
  8
LAYER_2
 10
101.9983
 20
99.0666
  0
VERTEX
  8
LAYER_2
 10
101.9983
 20
98.9075
  0
VERTEX
  8
LAYER_2
 10
101.7175
 20
98.9075
  0
SEQEND
  0
POLYLINE
  8
LAYER_2
 40
0.1376
 41
0.1376
 66
1
 10
0
 20
0
 30
0
  0
VERTEX
  8
LAYER_2
 10
175.4541
 20
99.4589
  0
VERTEX
  8
LAYER_2
 10
175.4541
 20
99.7393
  0
VERTEX
  8
LAYER_2
 10
175.7345
 20
99.7393
  0
SEQEND
  0
POLYLINE
  8
LAYER_2
 40
0.1376
 41
0.1376
 66
1
 10
0
 20
0
 30
0
  0
VERTEX
  8
LAYER_2
 10
175.9688
 20
99.7393
  0
VERTEX
  8
LAYER_2
 10
176.2496
 20
99.7393
  0
VERTEX
  8
LAYER_2
 10
176.2496
 20
99.4585
  0
SEQEND
  0
POLYLINE
  8
LAYER_2
 40
0.1376
 41
0.1376
 66
1
 10
0
 20
0
 30
0
  0
VERTEX
  8
LAYER_2
 10
176.2496
 20
99.3837
  0
VERTEX
  8
LAYER_2
 10
176.2496
 20
99.1029
  0
VERTEX
  8
LAYER_2
 10
175.9688
 20
99.1029
  0
SEQEND
  0
POLYLINE
  8
LAYER_2
 40
0.1376
 41
0.1376
 66
1
 10
0
 20
0
 30
0
  0
VERTEX
  8
LAYER_2
 10
175.7346
 20
99.1029
  0
VERTEX
  8
LAYER_2
 10
175.4541
 20
99.1029
  0
VERTEX
  8
LAYER_2
 10
175.4541
 20
99.3837
  0
SEQEND
  0
POLYLINE
  8
LAYER_2
  6
AIGENLINE004
 40
0.1376
 41
0.1376
 66
1
 10
0
 20
0
 30
0
 70
128
  0
VERTEX
  8
LAYER_2
 10
175.5776
 20
98.7568
  0
VERTEX
  8
LAYER_2
 10
175.5776
 20
98.9438
  0
SEQEND
  0
POLYLINE
  8
LAYER_2
  6
AIGENLINE005
 40
0.1376
 41
0.1376
 66
1
 10
0
 20
0
 30
0
 70
128
  0
VERTEX
  8
LAYER_2
 10
175.5776
 20
98.7568
 42
0.3935705725
  0
VERTEX
  8
LAYER_2
 10
175.6943
 20
98.7364
  0
VERTEX
  8
LAYER_2
 10
175.7144
 20
98.7568
  0
SEQEND
  0
POLYLINE
  8
LAYER_2
  6
AIGENLINE006
 40
0.1376
 41
0.1376
 66
1
 10
0
 20
0
 30
0
 70
128
  0
VERTEX
  8
LAYER_2
 10
175.6464
 20
98.7209
  0
VERTEX
  8
LAYER_2
 10
176.0584
 20
98.7209
  0
SEQEND
  0
POLYLINE
  8
LAYER_2
  6
AIGENLINE005
 40
0.1376
 41
0.1376
 66
1
 10
0
 20
0
 30
0
 70
128
  0
VERTEX
  8
LAYER_2
 10
175.9896
 20
98.7568
 42
0.3933133774
  0
VERTEX
  8
LAYER_2
 10
176.1064
 20
98.7364
  0
VERTEX
  8
LAYER_2
 10
176.1268
 20
98.7568
  0
SEQEND
  0
INSERT
  8
LAYER_2
  2
AIGNBL0201002E
 10
0
 20
0
 30
0
  0
POLYLINE
  8
LAYER_2
  6
AIGENLINE007
 40
0.1376
 41
0.1376
 66
1
 10
0
 20
0
 30
0
 70
128
  0
VERTEX
  8
LAYER_2
 10
175.7148
 20
98.7568
 42
0.2542484472
  0
VERTEX
  8
LAYER_2
 10
175.9896
 20
98.7568
  0
SEQEND
  0
POLYLINE
  8
LAYER_2
  6
AIGENLINE004
 40
0.1376
 41
0.1376
 66
1
 10
0
 20
0
 30
0
 70
128
  0
VERTEX
  8
LAYER_2
 10
176.1268
 20
98.9438
  0
VERTEX
  8
LAYER_2
 10
176.1268
 20
98.7568
  0
SEQEND
  0
POLYLINE
  8
LAYER_2
  6
AIGENLINE008
 40
0.1376
 41
0.1376
 66
1
 10
0
 20
0
 30
0
 70
128
  0
VERTEX
  8
LAYER_2
 10
176.1268
 20
98.9396
  0
VERTEX
  8
LAYER_2
 10
176.1237
 20
98.9438
  0
SEQEND
  0
POLYLINE
  8
LAYER_2
  6
AIGENLINE009
 40
0.1376
 41
0.1376
 66
1
 10
0
 20
0
 30
0
 70
128
  0
VERTEX
  8
LAYER_2
 10
175.7402
 20
98.9438
  0
VERTEX
  8
LAYER_2
 10
175.9642
 20
98.9438
  0
SEQEND
  0
POLYLINE
  8
LAYER_2
  6
AIGENLINE008
 40
0.1376
 41
0.1376
 66
1
 10
0
 20
0
 30
0
 70
128
  0
VERTEX
  8
LAYER_2
 10
175.7148
 20
98.9396
  0
VERTEX
  8
LAYER_2
 10
175.7116
 20
98.9438
  0
SEQEND
  0
INSERT
  8
LAYER_2
  2
AIGNBL0201002F
 10
0
 20
0
 30
0
  0
POLYLINE
  8
LAYER_2
  6
AIGENLINE010
 40
0.1376
 41
0.1376
 66
1
 10
0
 20
0
 30
0
 70
128
  0
VERTEX
  8
LAYER_2
 10
175.9928
 20
98.9438
  0
VERTEX
  8
LAYER_2
 10
175.9892
 20
98.9396
  0
SEQEND
  0
POLYLINE
  8
LAYER_2
  6
AIGENLINE011
 40
0.1376
 41
0.1376
 66
1
 10
0
 20
0
 30
0
 70
128
  0
VERTEX
  8
LAYER_2
 10
175.5776
 20
98.9438
  0
VERTEX
  8
LAYER_2
 10
176.1268
 20
98.9438
  0
SEQEND
  0
POLYLINE
  8
LAYER_2
  6
AIGENLINE008
 40
0.1376
 41
0.1376
 66
1
 10
0
 20
0
 30
0
 70
128
  0
VERTEX
  8
LAYER_2
 10
175.5804
 20
98.9438
  0
VERTEX
  8
LAYER_2
 10
175.5772
 20
98.9396
  0
SEQEND
  0
POLYLINE
  8
LAYER_2
 40
0.1376
 41
0.1376
 66
1
 10
0
 20
0
 30
0
  0
VERTEX
  8
LAYER_2
 10
175.6933
 20
98.9438
  0
VERTEX
  8
LAYER_2
 10
175.6933
 20
99.2246
  0
SEQEND
  0
POLYLINE
  8
LAYER_2
  6
AIGENLINE060
 40
0.1376
 41
0.1376
 66
1
 10
0
 20
0
 30
0
 70
128
  0
VERTEX
  8
LAYER_2
 10
175.6933
 20
99.6176
  0
VERTEX
  8
LAYER_2
 10
175.6933
 20
99.6353
  0
VERTEX
  8
LAYER_2
 10
175.7405
 20
99.6829
  0
VERTEX
  8
LAYER_2
 10
175.9635
 20
99.6829
  0
VERTEX
  8
LAYER_2
 10
176.0111
 20
99.6353
  0
VERTEX
  8
LAYER_2
 10
176.0111
 20
99.4211
  0
SEQEND
  0
POLYLINE
  8
LAYER_2
 40
0.1376
 41
0.1376
 66
1
 10
0
 20
0
 30
0
  0
VERTEX
  8
LAYER_2
 10
176.0111
 20
99.2243
  0
VERTEX
  8
LAYER_2
 10
176.0111
 20
98.9438
  0
SEQEND
  0
POLYLINE
  8
LAYER_2
 40
0.1376
 41
0.1376
 66
1
 10
0
 20
0
 30
0
  0
VERTEX
  8
LAYER_2
 10
175.725
 20
98.9438
  0
VERTEX
  8
LAYER_2
 10
175.725
 20
99.2246
  0
SEQEND
  0
POLYLINE
  8
LAYER_2
 40
0.1376
 41
0.1376
 66
1
 10
0
 20
0
 30
0
  0
VERTEX
  8
LAYER_2
 10
175.725
 20
99.3548
  0
VERTEX
  8
LAYER_2
 10
175.725
 20
99.6356
  0
SEQEND
  0
POLYLINE
  8
LAYER_2
 40
0.1376
 41
0.1376
 66
1
 10
0
 20
0
 30
0
  0
VERTEX
  8
LAYER_2
 10
175.9794
 20
98.9438
  0
VERTEX
  8
LAYER_2
 10
175.9794
 20
99.2246
  0
SEQEND
  0
POLYLINE
  8
LAYER_2
 40
0.1376
 41
0.1376
 66
1
 10
0
 20
0
 30
0
  0
VERTEX
  8
LAYER_2
 10
175.9794
 20
99.3548
  0
VERTEX
  8
LAYER_2
 10
175.9794
 20
99.6356
  0
SEQEND
  0
POLYLINE
  8
LAYER_2
  6
AIGENLINE012
 40
0.1376
 41
0.1376
 66
1
 10
0
 20
0
 30
0
 70
128
  0
VERTEX
  8
LAYER_2
 10
175.6933
 20
99.6356
  0
VERTEX
  8
LAYER_2
 10
176.0111
 20
99.6356
  0
SEQEND
  0
POLYLINE
  8
LAYER_2
 40
0.1376
 41
0.1376
 66
1
 10
0
 20
0
 30
0
  0
VERTEX
  8
LAYER_2
 10
175.6333
 20
98.942
  0
VERTEX
  8
LAYER_2
 10
175.3525
 20
98.942
  0
VERTEX
  8
LAYER_2
 10
175.3525
 20
99.1011
  0
VERTEX
  8
LAYER_2
 10
175.6333
 20
99.1011
  0
SEQEND
  0
POLYLINE
  8
LAYER_2
 40
0.1376
 41
0.1376
 66
1
 10
0
 20
0
 30
0
  0
VERTEX
  8
LAYER_2
 10
176.0715
 20
99.1015
  0
VERTEX
  8
LAYER_2
 10
176.3519
 20
99.1015
  0
VERTEX
  8
LAYER_2
 10
176.3519
 20
98.9424
  0
VERTEX
  8
LAYER_2
 10
176.0715
 20
98.9424
  0
SEQEND
  0
POLYLINE
  8
LAYER_2
 40
0.1376
 41
0.1376
 66
1
 10
0
 20
0
 30
0
  0
VERTEX
  8
LAYER_2
 10
188.1816
 20
99.4589
  0
VERTEX
  8
LAYER_2
 10
188.1816
 20
99.7393
  0
VERTEX
  8
LAYER_2
 10
188.4624
 20
99.7393
  0
SEQEND
  0
POLYLINE
  8
LAYER_2
 40
0.1376
 41
0.1376
 66
1
 10
0
 20
0
 30
0
  0
VERTEX
  8
LAYER_2
 10
188.6967
 20
99.7393
  0
VERTEX
  8
LAYER_2
 10
188.9775
 20
99.7393
  0
VERTEX
  8
LAYER_2
 10
188.9775
 20
99.4585
  0
SEQEND
  0
POLYLINE
  8
LAYER_2
 40
0.1376
 41
0.1376
 66
1
 10
0
 20
0
 30
0
  0
VERTEX
  8
LAYER_2
 10
188.9775
 20
99.3837
  0
VERTEX
  8
LAYER_2
 10
188.9775
 20
99.1029
  0
VERTEX
  8
LAYER_2
 10
188.6967
 20
99.1029
  0
SEQEND
  0
POLYLINE
  8
LAYER_2
 40
0.1376
 41
0.1376
 66
1
 10
0
 20
0
 30
0
  0
VERTEX
  8
LAYER_2
 10
188.4624
 20
99.1029
  0
VERTEX
  8
LAYER_2
 10
188.1816
 20
99.1029
  0
VERTEX
  8
LAYER_2
 10
188.1816
 20
99.3837
  0
SEQEND
  0
POLYLINE
  8
LAYER_2
  6
AIGENLINE004
 40
0.1376
 41
0.1376
 66
1
 10
0
 20
0
 30
0
 70
128
  0
VERTEX
  8
LAYER_2
 10
188.3047
 20
98.7568
  0
VERTEX
  8
LAYER_2
 10
188.3047
 20
98.9438
  0
SEQEND
  0
POLYLINE
  8
LAYER_2
  6
AIGENLINE005
 40
0.1376
 41
0.1376
 66
1
 10
0
 20
0
 30
0
 70
128
  0
VERTEX
  8
LAYER_2
 10
188.3047
 20
98.7568
 42
0.3932733093
  0
VERTEX
  8
LAYER_2
 10
188.4215
 20
98.7364
  0
VERTEX
  8
LAYER_2
 10
188.442
 20
98.7568
  0
SEQEND
  0
POLYLINE
  8
LAYER_2
  6
AIGENLINE006
 40
0.1376
 41
0.1376
 66
1
 10
0
 20
0
 30
0
 70
128
  0
VERTEX
  8
LAYER_2
 10
188.3735
 20
98.7209
  0
VERTEX
  8
LAYER_2
 10
188.7859
 20
98.7209
  0
SEQEND
  0
POLYLINE
  8
LAYER_2
  6
AIGENLINE005
 40
0.1376
 41
0.1376
 66
1
 10
0
 20
0
 30
0
 70
128
  0
VERTEX
  8
LAYER_2
 10
188.7171
 20
98.7568
 42
0.3944937833
  0
VERTEX
  8
LAYER_2
 10
188.8335
 20
98.7364
  0
VERTEX
  8
LAYER_2
 10
188.854
 20
98.7568
  0
SEQEND
  0
INSERT
  8
LAYER_2
  2
AIGNBL02010030
 10
0
 20
0
 30
0
  0
POLYLINE
  8
LAYER_2
  6
AIGENLINE007
 40
0.1376
 41
0.1376
 66
1
 10
0
 20
0
 30
0
 70
128
  0
VERTEX
  8
LAYER_2
 10
188.442
 20
98.7568
 42
0.2542419003
  0
VERTEX
  8
LAYER_2
 10
188.7168
 20
98.7568
  0
SEQEND
  0
POLYLINE
  8
LAYER_2
  6
AIGENLINE004
 40
0.1376
 41
0.1376
 66
1
 10
0
 20
0
 30
0
 70
128
  0
VERTEX
  8
LAYER_2
 10
188.8544
 20
98.9438
  0
VERTEX
  8
LAYER_2
 10
188.8544
 20
98.7568
  0
SEQEND
  0
POLYLINE
  8
LAYER_2
  6
AIGENLINE008
 40
0.1376
 41
0.1376
 66
1
 10
0
 20
0
 30
0
 70
128
  0
VERTEX
  8
LAYER_2
 10
188.8544
 20
98.9396
  0
VERTEX
  8
LAYER_2
 10
188.8512
 20
98.9438
  0
SEQEND
  0
POLYLINE
  8
LAYER_2
  6
AIGENLINE009
 40
0.1376
 41
0.1376
 66
1
 10
0
 20
0
 30
0
 70
128
  0
VERTEX
  8
LAYER_2
 10
188.4677
 20
98.9438
  0
VERTEX
  8
LAYER_2
 10
188.6914
 20
98.9438
  0
SEQEND
  0
POLYLINE
  8
LAYER_2
  6
AIGENLINE008
 40
0.1376
 41
0.1376
 66
1
 10
0
 20
0
 30
0
 70
128
  0
VERTEX
  8
LAYER_2
 10
188.442
 20
98.9396
  0
VERTEX
  8
LAYER_2
 10
188.4388
 20
98.9438
  0
SEQEND
  0
INSERT
  8
LAYER_2
  2
AIGNBL02010031
 10
0
 20
0
 30
0
  0
POLYLINE
  8
LAYER_2
  6
AIGENLINE010
 40
0.1376
 41
0.1376
 66
1
 10
0
 20
0
 30
0
 70
128
  0
VERTEX
  8
LAYER_2
 10
188.7203
 20
98.9438
  0
VERTEX
  8
LAYER_2
 10
188.7168
 20
98.9396
  0
SEQEND
  0
POLYLINE
  8
LAYER_2
  6
AIGENLINE011
 40
0.1376
 41
0.1376
 66
1
 10
0
 20
0
 30
0
 70
128
  0
VERTEX
  8
LAYER_2
 10
188.3047
 20
98.9438
  0
VERTEX
  8
LAYER_2
 10
188.854
 20
98.9438
  0
SEQEND
  0
POLYLINE
  8
LAYER_2
  6
AIGENLINE008
 40
0.1376
 41
0.1376
 66
1
 10
0
 20
0
 30
0
 70
128
  0
VERTEX
  8
LAYER_2
 10
188.3079
 20
98.9438
  0
VERTEX
  8
LAYER_2
 10
188.3047
 20
98.9396
  0
SEQEND
  0
POLYLINE
  8
LAYER_2
 40
0.1376
 41
0.1376
 66
1
 10
0
 20
0
 30
0
  0
VERTEX
  8
LAYER_2
 10
188.4204
 20
98.9438
  0
VERTEX
  8
LAYER_2
 10
188.4204
 20
99.2246
  0
SEQEND
  0
POLYLINE
  8
LAYER_2
  6
AIGENLINE060
 40
0.1376
 41
0.1376
 66
1
 10
0
 20
0
 30
0
 70
128
  0
VERTEX
  8
LAYER_2
 10
188.4204
 20
99.6176
  0
VERTEX
  8
LAYER_2
 10
188.4204
 20
99.6353
  0
VERTEX
  8
LAYER_2
 10
188.4681
 20
99.6829
  0
VERTEX
  8
LAYER_2
 10
188.691
 20
99.6829
  0
VERTEX
  8
LAYER_2
 10
188.7383
 20
99.6353
  0
VERTEX
  8
LAYER_2
 10
188.7383
 20
99.4211
  0
SEQEND
  0
POLYLINE
  8
LAYER_2
 40
0.1376
 41
0.1376
 66
1
 10
0
 20
0
 30
0
  0
VERTEX
  8
LAYER_2
 10
188.7386
 20
99.2243
  0
VERTEX
  8
LAYER_2
 10
188.7386
 20
98.9438
  0
SEQEND
  0
POLYLINE
  8
LAYER_2
 40
0.1376
 41
0.1376
 66
1
 10
0
 20
0
 30
0
  0
VERTEX
  8
LAYER_2
 10
188.4522
 20
98.9438
  0
VERTEX
  8
LAYER_2
 10
188.4522
 20
99.2246
  0
SEQEND
  0
POLYLINE
  8
LAYER_2
 40
0.1376
 41
0.1376
 66
1
 10
0
 20
0
 30
0
  0
VERTEX
  8
LAYER_2
 10
188.4522
 20
99.3548
  0
VERTEX
  8
LAYER_2
 10
188.4522
 20
99.6356
  0
SEQEND
  0
POLYLINE
  8
LAYER_2
 40
0.1376
 41
0.1376
 66
1
 10
0
 20
0
 30
0
  0
VERTEX
  8
LAYER_2
 10
188.7069
 20
98.9438
  0
VERTEX
  8
LAYER_2
 10
188.7069
 20
99.2246
  0
SEQEND
  0
POLYLINE
  8
LAYER_2
 40
0.1376
 41
0.1376
 66
1
 10
0
 20
0
 30
0
  0
VERTEX
  8
LAYER_2
 10
188.7069
 20
99.3548
  0
VERTEX
  8
LAYER_2
 10
188.7069
 20
99.6356
  0
SEQEND
  0
POLYLINE
  8
LAYER_2
  6
AIGENLINE012
 40
0.1376
 41
0.1376
 66
1
 10
0
 20
0
 30
0
 70
128
  0
VERTEX
  8
LAYER_2
 10
188.4204
 20
99.6356
  0
VERTEX
  8
LAYER_2
 10
188.7383
 20
99.6356
  0
SEQEND
  0
POLYLINE
  8
LAYER_2
 40
0.1376
 41
0.1376
 66
1
 10
0
 20
0
 30
0
  0
VERTEX
  8
LAYER_2
 10
188.3608
 20
98.942
  0
VERTEX
  8
LAYER_2
 10
188.08
 20
98.942
  0
VERTEX
  8
LAYER_2
 10
188.08
 20
99.1011
  0
VERTEX
  8
LAYER_2
 10
188.3608
 20
99.1011
  0
SEQEND
  0
POLYLINE
  8
LAYER_2
 40
0.1376
 41
0.1376
 66
1
 10
0
 20
0
 30
0
  0
VERTEX
  8
LAYER_2
 10
188.7986
 20
99.1015
  0
VERTEX
  8
LAYER_2
 10
189.0794
 20
99.1015
  0
VERTEX
  8
LAYER_2
 10
189.0794
 20
98.9424
  0
VERTEX
  8
LAYER_2
 10
188.7986
 20
98.9424
  0
SEQEND
  0
POLYLINE
  8
LAYER_2
 40
0.1376
 41
0.1376
 66
1
 10
0
 20
0
 30
0
  0
VERTEX
  8
LAYER_2
 10
37.2238
 20
172.909
  0
VERTEX
  8
LAYER_2
 10
37.0343
 20
172.7019
  0
SEQEND
  0
POLYLINE
  8
LAYER_2
  6
AIGENLINE068
 40
0.1376
 41
0.1376
 66
1
 10
0
 20
0
 30
0
 70
128
  0
VERTEX
  8
LAYER_2
 10
36.6378
 20
172.269
  0
VERTEX
  8
LAYER_2
 10
36.0434
 20
171.6196
  0
SEQEND
  0
POLYLINE
  8
LAYER_2
 40
0.1376
 41
0.1376
 66
1
 10
0
 20
0
 30
0
  0
VERTEX
  8
LAYER_2
 10
35.8448
 20
171.4033
  0
VERTEX
  8
LAYER_2
 10
35.6553
 20
171.1962
  0
SEQEND
  0
POLYLINE
  8
LAYER_2
 40
0.1376
 41
0.1376
 66
1
 10
0
 20
0
 30
0
  0
VERTEX
  8
LAYER_2
 10
36.1563
 20
173.1566
  0
VERTEX
  8
LAYER_2
 10
35.9668
 20
172.9495
  0
SEQEND
  0
POLYLINE
  8
LAYER_2
  6
AIGENLINE069
 40
0.1376
 41
0.1376
 66
1
 10
0
 20
0
 30
0
 70
128
  0
VERTEX
  8
LAYER_2
 10
35.6913
 20
172.649
  0
VERTEX
  8
LAYER_2
 10
35.2782
 20
172.1985
  0
SEQEND
  0
POLYLINE
  8
LAYER_2
 40
0.1376
 41
0.1376
 66
1
 10
0
 20
0
 30
0
  0
VERTEX
  8
LAYER_2
 10
35.141
 20
172.0478
  0
VERTEX
  8
LAYER_2
 10
34.9515
 20
171.8411
  0
SEQEND
  0
POLYLINE
  8
LAYER_2
 40
0.1376
 41
0.1376
 66
1
 10
0
 20
0
 30
0
  0
VERTEX
  8
LAYER_2
 10
35.3696
 20
216.9353
  0
VERTEX
  8
LAYER_2
 10
35.5766
 20
217.1247
  0
SEQEND
  0
POLYLINE
  8
LAYER_2
 40
0.1376
 41
0.1376
 66
1
 10
0
 20
0
 30
0
  0
VERTEX
  8
LAYER_2
 10
35.8666
 20
217.3907
  0
VERTEX
  8
LAYER_2
 10
36.0737
 20
217.5798
  0
SEQEND
  0
POLYLINE
  8
LAYER_2
 40
0.1376
 41
0.1376
 66
1
 10
0
 20
0
 30
0
  0
VERTEX
  8
LAYER_2
 10
119.7406
 20
172.9093
  0
VERTEX
  8
LAYER_2
 10
119.9304
 20
172.7022
  0
SEQEND
  0
POLYLINE
  8
LAYER_2
  6
AIGENLINE068
 40
0.1376
 41
0.1376
 66
1
 10
0
 20
0
 30
0
 70
128
  0
VERTEX
  8
LAYER_2
 10
120.3266
 20
172.269
  0
VERTEX
  8
LAYER_2
 10
120.921
 20
171.6196
  0
SEQEND
  0
POLYLINE
  8
LAYER_2
 40
0.1376
 41
0.1376
 66
1
 10
0
 20
0
 30
0
  0
VERTEX
  8
LAYER_2
 10
121.1193
 20
171.4033
  0
VERTEX
  8
LAYER_2
 10
121.309
 20
171.1962
  0
SEQEND
  0
POLYLINE
  8
LAYER_2
 40
0.1376
 41
0.1376
 66
1
 10
0
 20
0
 30
0
  0
VERTEX
  8
LAYER_2
 10
120.8081
 20
173.1566
  0
VERTEX
  8
LAYER_2
 10
120.9979
 20
172.9495
  0
SEQEND
  0
POLYLINE
  8
LAYER_2
  6
AIGENLINE069
 40
0.1376
 41
0.1376
 66
1
 10
0
 20
0
 30
0
 70
128
  0
VERTEX
  8
LAYER_2
 10
121.2731
 20
172.649
  0
VERTEX
  8
LAYER_2
 10
121.6858
 20
172.1985
  0
SEQEND
  0
POLYLINE
  8
LAYER_2
 40
0.1376
 41
0.1376
 66
1
 10
0
 20
0
 30
0
  0
VERTEX
  8
LAYER_2
 10
121.8234
 20
172.0478
  0
VERTEX
  8
LAYER_2
 10
122.0128
 20
171.8411
  0
VERTEX
  8
LAYER_2
 10
121.8058
 20
171.6513
  0
SEQEND
  0
POLYLINE
  8
LAYER_2
 40
0.1376
 41
0.1376
 66
1
 10
0
 20
0
 30
0
  0
VERTEX
  8
LAYER_2
 10
121.5161
 20
171.386
  0
VERTEX
  8
LAYER_2
 10
121.309
 20
171.1962
  0
SEQEND
  0
POLYLINE
  8
LAYER_2
 40
0.1376
 41
0.1376
 66
1
 10
0
 20
0
 30
0
  0
VERTEX
  8
LAYER_2
 10
34.9515
 20
171.8411
  0
VERTEX
  8
LAYER_2
 10
35.1586
 20
171.6513
  0
SEQEND
  0
POLYLINE
  8
LAYER_2
 40
0.1376
 41
0.1376
 66
1
 10
0
 20
0
 30
0
  0
VERTEX
  8
LAYER_2
 10
35.4486
 20
171.386
  0
VERTEX
  8
LAYER_2
 10
35.6557
 20
171.1962
  0
SEQEND
  0
INSERT
  8
LAYER_2
  2
AIGNBL02010032
 10
0
 20
0
 30
0
  0
POLYLINE
  8
LAYER_2
 40
0.1376
 41
0.1376
 66
1
 10
0
 20
0
 30
0
  0
VERTEX
  8
LAYER_2
 10
118.9557
 20
215.467
  0
VERTEX
  8
LAYER_2
 10
119.1451
 20
215.6737
  0
SEQEND
  0
POLYLINE
  8
LAYER_2
  6
AIGENLINE070
 40
0.1376
 41
0.1376
 66
1
 10
0
 20
0
 30
0
 70
128
  0
VERTEX
  8
LAYER_2
 10
119.4566
 20
216.0138
  0
VERTEX
  8
LAYER_2
 10
120.5456
 20
217.203
  0
SEQEND
  0
POLYLINE
  8
LAYER_2
 40
0.1376
 41
0.1376
 66
1
 10
0
 20
0
 30
0
  0
VERTEX
  8
LAYER_2
 10
120.7012
 20
217.3731
  0
VERTEX
  8
LAYER_2
 10
120.891
 20
217.5798
  0
SEQEND
  0
POLYLINE
  8
LAYER_2
 40
0.1376
 41
0.1376
 66
1
 10
0
 20
0
 30
0
  0
VERTEX
  8
LAYER_2
 10
120.153
 20
215.3608
  0
VERTEX
  8
LAYER_2
 10
120.3424
 20
215.5679
  0
SEQEND
  0
POLYLINE
  8
LAYER_2
  6
AIGENLINE071
 40
0.1376
 41
0.1376
 66
1
 10
0
 20
0
 30
0
 70
128
  0
VERTEX
  8
LAYER_2
 10
120.697
 20
215.9546
  0
VERTEX
  8
LAYER_2
 10
121.2283
 20
216.5349
  0
SEQEND
  0
POLYLINE
  8
LAYER_2
 40
0.1376
 41
0.1376
 66
1
 10
0
 20
0
 30
0
  0
VERTEX
  8
LAYER_2
 10
121.4054
 20
216.7282
  0
VERTEX
  8
LAYER_2
 10
121.5952
 20
216.9353
  0
SEQEND
  0
POLYLINE
  8
LAYER_2
 40
0.1376
 41
0.1376
 66
1
 10
0
 20
0
 30
0
  0
VERTEX
  8
LAYER_2
 10
121.5948
 20
216.9353
  0
VERTEX
  8
LAYER_2
 10
121.3881
 20
217.1247
  0
SEQEND
  0
POLYLINE
  8
LAYER_2
 40
0.1376
 41
0.1376
 66
1
 10
0
 20
0
 30
0
  0
VERTEX
  8
LAYER_2
 10
121.0977
 20
217.3907
  0
VERTEX
  8
LAYER_2
 10
120.8907
 20
217.5798
  0
SEQEND
  0
POLYLINE
  8
LAYER_2
 40
0.1376
 41
0.1376
 66
1
 10
0
 20
0
 30
0
  0
VERTEX
  8
LAYER_2
 10
38.0087
 20
215.467
  0
VERTEX
  8
LAYER_2
 10
37.8192
 20
215.6737
  0
SEQEND
  0
POLYLINE
  8
LAYER_2
  6
AIGENLINE070
 40
0.1376
 41
0.1376
 66
1
 10
0
 20
0
 30
0
 70
128
  0
VERTEX
  8
LAYER_2
 10
37.5077
 20
216.0138
  0
VERTEX
  8
LAYER_2
 10
36.4187
 20
217.203
  0
SEQEND
  0
POLYLINE
  8
LAYER_2
 40
0.1376
 41
0.1376
 66
1
 10
0
 20
0
 30
0
  0
VERTEX
  8
LAYER_2
 10
36.2628
 20
217.3731
  0
VERTEX
  8
LAYER_2
 10
36.0734
 20
217.5798
  0
SEQEND
  0
POLYLINE
  8
LAYER_2
 40
0.1376
 41
0.1376
 66
1
 10
0
 20
0
 30
0
  0
VERTEX
  8
LAYER_2
 10
36.8114
 20
215.3608
  0
VERTEX
  8
LAYER_2
 10
36.6219
 20
215.5679
  0
SEQEND
  0
POLYLINE
  8
LAYER_2
  6
AIGENLINE071
 40
0.1376
 41
0.1376
 66
1
 10
0
 20
0
 30
0
 70
128
  0
VERTEX
  8
LAYER_2
 10
36.2677
 20
215.9546
  0
VERTEX
  8
LAYER_2
 10
35.7361
 20
216.5349
  0
SEQEND
  0
POLYLINE
  8
LAYER_2
 40
0.1376
 41
0.1376
 66
1
 10
0
 20
0
 30
0
  0
VERTEX
  8
LAYER_2
 10
35.559
 20
216.7282
  0
VERTEX
  8
LAYER_2
 10
35.3696
 20
216.9353
  0
SEQEND
  0
POLYLINE
  8
LAYER_2
 40
0.2787
 41
0.2787
 66
1
 10
0
 20
0
 30
0
  0
VERTEX
  8
LAYER_2
 10
119.3959
 20
215.666
  0
VERTEX
  8
LAYER_2
 10
37.4622
 20
215.666
  0
SEQEND
  0
POLYLINE
  8
LAYER_2
 40
0.2787
 41
0.2787
 66
1
 10
0
 20
0
 30
0
  0
VERTEX
  8
LAYER_2
 10
37.4622
 20
215.666
 42
0.4142056952
  0
VERTEX
  8
LAYER_2
 10
34.6781
 20
212.8819
  0
SEQEND
  0
POLYLINE
  8
LAYER_2
 40
0.2787
 41
0.2787
 66
1
 10
0
 20
0
 30
0
  0
VERTEX
  8
LAYER_2
 10
34.6781
 20
212.8815
  0
VERTEX
  8
LAYER_2
 10
34.6781
 20
175.4945
  0
SEQEND
  0
CIRCLE
  8
LAYER_2
 10
55.3608
 20
210.8929
 40
1.3919
  0
CIRCLE
  8
LAYER_2
 10
101.4981
 20
210.8929
 40
1.3919
  0
POLYLINE
  8
LAYER_2
 40
0.2787
 41
0.2787
 66
1
 10
0
 20
0
 30
0
  0
VERTEX
  8
LAYER_2
 10
119.1377
 20
215.666
  0
VERTEX
  8
LAYER_2
 10
120.8907
 20
217.5798
  0
SEQEND
  0
POLYLINE
  8
LAYER_2
 40
0.2787
 41
0.2787
 66
1
 10
0
 20
0
 30
0
  0
VERTEX
  8
LAYER_2
 10
120.2955
 20
215.5164
  0
VERTEX
  8
LAYER_2
 10
121.5948
 20
216.9356
  0
SEQEND
  0
POLYLINE
  8
LAYER_2
 40
0.2787
 41
0.2787
 66
1
 10
0
 20
0
 30
0
  0
VERTEX
  8
LAYER_2
 10
121.5948
 20
216.9353
  0
VERTEX
  8
LAYER_2
 10
120.8907
 20
217.5801
  0
SEQEND
  0
POLYLINE
  8
LAYER_2
 40
0.2787
 41
0.2787
 66
1
 10
0
 20
0
 30
0
  0
VERTEX
  8
LAYER_2
 10
37.8267
 20
215.666
  0
VERTEX
  8
LAYER_2
 10
36.0734
 20
217.5798
  0
SEQEND
  0
POLYLINE
  8
LAYER_2
 40
0.2787
 41
0.2787
 66
1
 10
0
 20
0
 30
0
  0
VERTEX
  8
LAYER_2
 10
36.6445
 20
215.5432
  0
VERTEX
  8
LAYER_2
 10
35.3699
 20
216.9352
  0
SEQEND
  0
POLYLINE
  8
LAYER_2
 40
0.2787
 41
0.2787
 66
1
 10
0
 20
0
 30
0
  0
VERTEX
  8
LAYER_2
 10
35.3696
 20
216.9352
  0
VERTEX
  8
LAYER_2
 10
36.0734
 20
217.5801
  0
SEQEND
  0
CIRCLE
  8
LAYER_2
 10
101.4981
 20
192.5971
 40
15.1137
  0
CIRCLE
  8
LAYER_2
 10
101.4978
 20
192.5971
 40
13.9725
  0
POLYLINE
  8
LAYER_2
 40
0.2787
 41
0.2787
 66
1
 10
0
 20
0
 30
0
  0
VERTEX
  8
LAYER_2
 10
34.6781
 20
175.4944
 42
0.4142037679
  0
VERTEX
  8
LAYER_2
 10
37.4622
 20
172.7103
  0
SEQEND
  0
POLYLINE
  8
LAYER_2
 40
0.2787
 41
0.2787
 66
1
 10
0
 20
0
 30
0
  0
VERTEX
  8
LAYER_2
 10
37.0675
 20
172.7385
  0
VERTEX
  8
LAYER_2
 10
35.6553
 20
171.1969
  0
SEQEND
  0
POLYLINE
  8
LAYER_2
 40
0.2787
 41
0.2787
 66
1
 10
0
 20
0
 30
0
  0
VERTEX
  8
LAYER_2
 10
36.0825
 20
173.0761
  0
VERTEX
  8
LAYER_2
 10
34.9515
 20
171.8414
  0
SEQEND
  0
INSERT
  8
LAYER_2
  2
AIGNBL02010033
 10
0
 20
0
 30
0
  0
POLYLINE
  8
LAYER_2
 40
0.067
 41
0.067
 66
1
 10
0
 20
0
 30
0
  0
VERTEX
  8
LAYER_2
 10
34.8983
 20
76.0806
  0
VERTEX
  8
LAYER_2
 10
34.8983
 20
73.3233
  0
SEQEND
  0
POLYLINE
  8
LAYER_2
 40
0.067
 41
0.067
 66
1
 10
0
 20
0
 30
0
  0
VERTEX
  8
LAYER_2
 10
121.9599
 20
76.0806
  0
VERTEX
  8
LAYER_2
 10
121.9599
 20
73.3233
  0
SEQEND
  0
POLYLINE
  8
LAYER_2
 40
0.067
 41
0.067
 66
1
 10
0
 20
0
 30
0
  0
VERTEX
  8
LAYER_2
 10
35.6938
 20
73.3374
  0
VERTEX
  8
LAYER_2
 10
77.2714
 20
73.3374
  0
SEQEND
  0
POLYLINE
  8
LAYER_2
 40
0.067
 41
0.067
 66
1
 10
0
 20
0
 30
0
  0
VERTEX
  8
LAYER_2
 10
121.1644
 20
73.3374
  0
VERTEX
  8
LAYER_2
 10
82.1126
 20
73.3374
  0
SEQEND
  0
POLYLINE
  8
LAYER_2
 40
0.05
 41
0.05
 66
1
 10
0
 20
0
 30
0
  0
VERTEX
  8
LAYER_2
 10
34.8983
 20
73.3374
  0
VERTEX
  8
LAYER_2
 10
35.6934
 20
73.2051
  0
VERTEX
  8
LAYER_2
 10
35.6934
 20
73.4701
  0
SEQEND
  0
POLYLINE
  8
LAYER_2
 40
0.05
 41
0.05
 66
1
 10
0
 20
0
 30
0
  0
VERTEX
  8
LAYER_2
 10
121.1644
 20
73.2051
  0
VERTEX
  8
LAYER_2
 10
121.9599
 20
73.3378
  0
VERTEX
  8
LAYER_2
 10
121.1644
 20
73.4701
  0
SEQEND
  0
TEXT
  8
LAYER_2
 10
77.4101
 20
72.966
 11
77.4101
 21
72.966
 40
2.3272
 41
0.5
  1
1100
  0
POLYLINE
  8
LAYER_2
 40
0.067
 41
0.067
 66
1
 10
0
 20
0
 30
0
  0
VERTEX
  8
LAYER_2
 10
34.0414
 20
142.8205
  0
VERTEX
  8
LAYER_2
 10
28.0801
 20
142.8205
  0
SEQEND
  0
POLYLINE
  8
LAYER_2
 40
0.067
 41
0.067
 66
1
 10
0
 20
0
 30
0
  0
VERTEX
  8
LAYER_2
 10
33.3824
 20
128.502
  0
VERTEX
  8
LAYER_2
 10
28.0801
 20
128.502
  0
SEQEND
  0
POLYLINE
  8
LAYER_2
 40
0.067
 41
0.067
 66
1
 10
0
 20
0
 30
0
  0
VERTEX
  8
LAYER_2
 10
28.0946
 20
142.0254
  0
VERTEX
  8
LAYER_2
 10
28.0946
 20
138.5399
  0
SEQEND
  0
POLYLINE
  8
LAYER_2
 40
0.067
 41
0.067
 66
1
 10
0
 20
0
 30
0
  0
VERTEX
  8
LAYER_2
 10
28.0946
 20
129.2975
  0
VERTEX
  8
LAYER_2
 10
28.0946
 20
134.7532
  0
SEQEND
  0
POLYLINE
  8
LAYER_2
 40
0.05
 41
0.05
 66
1
 10
0
 20
0
 30
0
  0
VERTEX
  8
LAYER_2
 10
27.9623
 20
142.025
  0
VERTEX
  8
LAYER_2
 10
28.2272
 20
142.025
  0
VERTEX
  8
LAYER_2
 10
28.0946
 20
142.8202
  0
SEQEND
  0
POLYLINE
  8
LAYER_2
 40
0.05
 41
0.05
 66
1
 10
0
 20
0
 30
0
  0
VERTEX
  8
LAYER_2
 10
27.9623
 20
129.2975
  0
VERTEX
  8
LAYER_2
 10
28.0946
 20
128.502
  0
VERTEX
  8
LAYER_2
 10
28.2272
 20
129.2975
  0
SEQEND
  0
TEXT
  8
LAYER_2
 10
28.4665
 20
134.8932
 11
28.4665
 21
134.8932
 40
2.3272
 41
0.5
 50
89.99999999
  1
180
  0
POLYLINE
  8
LAYER_2
 40
0.067
 41
0.067
 66
1
 10
0
 20
0
 30
0
  0
VERTEX
  8
LAYER_2
 10
34.6778
 20
143.1783
  0
VERTEX
  8
LAYER_2
 10
34.6778
 20
147.0518
  0
SEQEND
  0
POLYLINE
  8
LAYER_2
 40
0.067
 41
0.067
 66
1
 10
0
 20
0
 30
0
  0
VERTEX
  8
LAYER_2
 10
122.1801
 20
143.1783
  0
VERTEX
  8
LAYER_2
 10
122.1801
 20
147.0518
  0
SEQEND
  0
POLYLINE
  8
LAYER_2
 40
0.067
 41
0.067
 66
1
 10
0
 20
0
 30
0
  0
VERTEX
  8
LAYER_2
 10
35.4733
 20
147.0369
  0
VERTEX
  8
LAYER_2
 10
77.2704
 20
147.0369
  0
SEQEND
  0
POLYLINE
  8
LAYER_2
 40
0.067
 41
0.067
 66
1
 10
0
 20
0
 30
0
  0
VERTEX
  8
LAYER_2
 10
121.3845
 20
147.0369
  0
VERTEX
  8
LAYER_2
 10
81.8322
 20
147.0369
  0
SEQEND
  0
POLYLINE
  8
LAYER_2
 40
0.05
 41
0.05
 66
1
 10
0
 20
0
 30
0
  0
VERTEX
  8
LAYER_2
 10
34.6778
 20
147.0373
  0
VERTEX
  8
LAYER_2
 10
35.4733
 20
146.9043
  0
VERTEX
  8
LAYER_2
 10
35.4733
 20
147.1699
  0
SEQEND
  0
POLYLINE
  8
LAYER_2
 40
0.05
 41
0.05
 66
1
 10
0
 20
0
 30
0
  0
VERTEX
  8
LAYER_2
 10
121.3845
 20
146.9047
  0
VERTEX
  8
LAYER_2
 10
122.1801
 20
147.0373
  0
VERTEX
  8
LAYER_2
 10
121.3845
 20
147.1696
  0
SEQEND
  0
TEXT
  8
LAYER_2
 10
77.4098
 20
146.6655
 11
77.4098
 21
146.6655
 40
2.3272
 41
0.5
  1
1100
  0
POLYLINE
  8
LAYER_2
 40
0.067
 41
0.067
 66
1
 10
0
 20
0
 30
0
  0
VERTEX
  8
LAYER_2
 10
38.6564
 20
100.6608
  0
VERTEX
  8
LAYER_2
 10
38.6564
 20
102.9768
  0
SEQEND
  0
POLYLINE
  8
LAYER_2
 40
0.067
 41
0.067
 66
1
 10
0
 20
0
 30
0
  0
VERTEX
  8
LAYER_2
 10
118.2039
 20
100.6608
  0
VERTEX
  8
LAYER_2
 10
118.2039
 20
102.9768
  0
SEQEND
  0
POLYLINE
  8
LAYER_2
 40
0.067
 41
0.067
 66
1
 10
0
 20
0
 30
0
  0
VERTEX
  8
LAYER_2
 10
39.4519
 20
102.9623
  0
VERTEX
  8
LAYER_2
 10
77.2707
 20
102.9623
  0
SEQEND
  0
POLYLINE
  8
LAYER_2
 40
0.067
 41
0.067
 66
1
 10
0
 20
0
 30
0
  0
VERTEX
  8
LAYER_2
 10
117.4084
 20
102.9623
  0
VERTEX
  8
LAYER_2
 10
81.8325
 20
102.9623
  0
SEQEND
  0
POLYLINE
  8
LAYER_2
 40
0.05
 41
0.05
 66
1
 10
0
 20
0
 30
0
  0
VERTEX
  8
LAYER_2
 10
38.6564
 20
102.9623
  0
VERTEX
  8
LAYER_2
 10
39.4519
 20
102.83
  0
VERTEX
  8
LAYER_2
 10
39.4519
 20
103.0946
  0
SEQEND
  0
POLYLINE
  8
LAYER_2
 40
0.05
 41
0.05
 66
1
 10
0
 20
0
 30
0
  0
VERTEX
  8
LAYER_2
 10
117.4084
 20
102.8297
  0
VERTEX
  8
LAYER_2
 10
118.2039
 20
102.962
  0
VERTEX
  8
LAYER_2
 10
117.4084
 20
103.0946
  0
SEQEND
  0
TEXT
  8
LAYER_2
 10
77.4098
 20
102.5904
 11
77.4098
 21
102.5904
 40
2.3272
 41
0.5
  1
1000
  0
POLYLINE
  8
LAYER_2
 40
0.067
 41
0.067
 66
1
 10
0
 20
0
 30
0
  0
VERTEX
  8
LAYER_2
 10
121.5038
 20
142.8202
  0
VERTEX
  8
LAYER_2
 10
126.9609
 20
142.8202
  0
SEQEND
  0
POLYLINE
  8
LAYER_2
 40
0.067
 41
0.067
 66
1
 10
0
 20
0
 30
0
  0
VERTEX
  8
LAYER_2
 10
124.0131
 20
76.7619
  0
VERTEX
  8
LAYER_2
 10
126.9609
 20
76.7619
  0
SEQEND
  0
POLYLINE
  8
LAYER_2
 40
0.067
 41
0.067
 66
1
 10
0
 20
0
 30
0
  0
VERTEX
  8
LAYER_2
 10
126.9468
 20
142.0247
  0
VERTEX
  8
LAYER_2
 10
126.9468
 20
112.416
  0
SEQEND
  0
POLYLINE
  8
LAYER_2
 40
0.067
 41
0.067
 66
1
 10
0
 20
0
 30
0
  0
VERTEX
  8
LAYER_2
 10
126.9468
 20
77.5574
  0
VERTEX
  8
LAYER_2
 10
126.9468
 20
108.8495
  0
SEQEND
  0
POLYLINE
  8
LAYER_2
 40
0.05
 41
0.05
 66
1
 10
0
 20
0
 30
0
  0
VERTEX
  8
LAYER_2
 10
126.8141
 20
142.0247
  0
VERTEX
  8
LAYER_2
 10
127.0794
 20
142.0247
  0
VERTEX
  8
LAYER_2
 10
126.9468
 20
142.8202
  0
SEQEND
  0
POLYLINE
  8
LAYER_2
 40
0.05
 41
0.05
 66
1
 10
0
 20
0
 30
0
  0
VERTEX
  8
LAYER_2
 10
126.8141
 20
77.5574
  0
VERTEX
  8
LAYER_2
 10
126.9468
 20
76.7619
  0
VERTEX
  8
LAYER_2
 10
127.0794
 20
77.5574
  0
SEQEND
  0
TEXT
  8
LAYER_2
 10
127.3181
 20
109.0504
 11
127.3181
 21
109.0504
 40
2.3272
 41
0.5
 50
89.99999999
  1
830
  0
POLYLINE
  8
LAYER_2
 40
0.067
 41
0.067
 66
1
 10
0
 20
0
 30
0
  0
VERTEX
  8
LAYER_2
 10
118.0071
 20
100.2632
  0
VERTEX
  8
LAYER_2
 10
122.5399
 20
100.2632
  0
SEQEND
  0
POLYLINE
  8
LAYER_2
 40
0.067
 41
0.067
 66
1
 10
0
 20
0
 30
0
  0
VERTEX
  8
LAYER_2
 10
116.6866
 20
99.0698
  0
VERTEX
  8
LAYER_2
 10
122.5399
 20
99.0698
  0
SEQEND
  0
POLYLINE
  8
LAYER_2
 40
0.067
 41
0.067
 66
1
 10
0
 20
0
 30
0
  0
VERTEX
  8
LAYER_2
 10
122.5254
 20
101.0584
  0
VERTEX
  8
LAYER_2
 10
122.5254
 20
101.8539
  0
SEQEND
  0
POLYLINE
  8
LAYER_2
 40
0.067
 41
0.067
 66
1
 10
0
 20
0
 30
0
  0
VERTEX
  8
LAYER_2
 10
122.5254
 20
98.2742
  0
VERTEX
  8
LAYER_2
 10
122.5254
 20
97.4787
  0
VERTEX
  8
LAYER_2
 10
123.1333
 20
97.4787
  0
SEQEND
  0
POLYLINE
  8
LAYER_2
 40
0.05
 41
0.05
 66
1
 10
0
 20
0
 30
0
  0
VERTEX
  8
LAYER_2
 10
122.3928
 20
101.0584
  0
VERTEX
  8
LAYER_2
 10
122.5258
 20
100.2632
  0
VERTEX
  8
LAYER_2
 10
122.6581
 20
101.0584
  0
SEQEND
  0
POLYLINE
  8
LAYER_2
 40
0.05
 41
0.05
 66
1
 10
0
 20
0
 30
0
  0
VERTEX
  8
LAYER_2
 10
122.3928
 20
98.2742
  0
VERTEX
  8
LAYER_2
 10
122.6581
 20
98.2742
  0
VERTEX
  8
LAYER_2
 10
122.5258
 20
99.0697
  0
SEQEND
  0
TEXT
  8
LAYER_2
 10
123.0628
 20
96.8264
 11
123.0628
 21
96.8264
 40
2.3272
 41
0.5
  1
15
  0
POLYLINE
  8
LAYER_2
 40
0.067
 41
0.067
 66
1
 10
0
 20
0
 30
0
  0
VERTEX
  8
LAYER_2
 10
46.5657
 20
99.0352
  0
VERTEX
  8
LAYER_2
 10
44.7711
 20
99.0352
  0
SEQEND
  0
POLYLINE
  8
LAYER_2
 40
0.067
 41
0.067
 66
1
 10
0
 20
0
 30
0
  0
VERTEX
  8
LAYER_2
 10
46.5657
 20
96.6486
  0
VERTEX
  8
LAYER_2
 10
44.7711
 20
96.6486
  0
SEQEND
  0
POLYLINE
  8
LAYER_2
 40
0.067
 41
0.067
 66
1
 10
0
 20
0
 30
0
  0
VERTEX
  8
LAYER_2
 10
44.7856
 20
98.2397
  0
VERTEX
  8
LAYER_2
 10
44.7856
 20
97.4442
  0
SEQEND
  0
POLYLINE
  8
LAYER_2
 40
0.067
 41
0.067
 66
1
 10
0
 20
0
 30
0
  0
VERTEX
  8
LAYER_2
 10
44.7856
 20
96.6486
  0
VERTEX
  8
LAYER_2
 10
44.7856
 20
95.8531
  0
VERTEX
  8
LAYER_2
 10
43.9904
 20
95.8531
  0
SEQEND
  0
POLYLINE
  8
LAYER_2
 40
0.05
 41
0.05
 66
1
 10
0
 20
0
 30
0
  0
VERTEX
  8
LAYER_2
 10
44.6529
 20
98.2393
  0
VERTEX
  8
LAYER_2
 10
44.9182
 20
98.2393
  0
VERTEX
  8
LAYER_2
 10
44.7856
 20
99.0348
  0
SEQEND
  0
POLYLINE
  8
LAYER_2
 40
0.05
 41
0.05
 66
1
 10
0
 20
0
 30
0
  0
VERTEX
  8
LAYER_2
 10
44.6529
 20
97.4442
  0
VERTEX
  8
LAYER_2
 10
44.7856
 20
96.6486
  0
VERTEX
  8
LAYER_2
 10
44.9182
 20
97.4442
  0
SEQEND
  0
TEXT
  8
LAYER_2
 10
41.6797
 20
94.6394
 11
41.6797
 21
94.6394
 40
2.3272
 41
0.5
  1
30
  0
POLYLINE
  8
LAYER_2
 40
0.067
 41
0.067
 66
1
 10
0
 20
0
 30
0
  0
VERTEX
  8
LAYER_2
 10
171.2913
 20
99.0352
  0
VERTEX
  8
LAYER_2
 10
169.4967
 20
99.0352
  0
SEQEND
  0
POLYLINE
  8
LAYER_2
 40
0.067
 41
0.067
 66
1
 10
0
 20
0
 30
0
  0
VERTEX
  8
LAYER_2
 10
171.2913
 20
96.6486
  0
VERTEX
  8
LAYER_2
 10
169.4967
 20
96.6486
  0
SEQEND
  0
POLYLINE
  8
LAYER_2
 40
0.067
 41
0.067
 66
1
 10
0
 20
0
 30
0
  0
VERTEX
  8
LAYER_2
 10
169.5112
 20
98.2397
  0
VERTEX
  8
LAYER_2
 10
169.5112
 20
97.4442
  0
SEQEND
  0
POLYLINE
  8
LAYER_2
 40
0.067
 41
0.067
 66
1
 10
0
 20
0
 30
0
  0
VERTEX
  8
LAYER_2
 10
169.5112
 20
96.6486
  0
VERTEX
  8
LAYER_2
 10
169.5112
 20
95.8531
  0
VERTEX
  8
LAYER_2
 10
168.7157
 20
95.8531
  0
SEQEND
  0
POLYLINE
  8
LAYER_2
 40
0.05
 41
0.05
 66
1
 10
0
 20
0
 30
0
  0
VERTEX
  8
LAYER_2
 10
169.3786
 20
98.2393
  0
VERTEX
  8
LAYER_2
 10
169.6435
 20
98.2393
  0
VERTEX
  8
LAYER_2
 10
169.5112
 20
99.0348
  0
SEQEND
  0
POLYLINE
  8
LAYER_2
 40
0.05
 41
0.05
 66
1
 10
0
 20
0
 30
0
  0
VERTEX
  8
LAYER_2
 10
169.3786
 20
97.4442
  0
VERTEX
  8
LAYER_2
 10
169.5112
 20
96.6486
  0
VERTEX
  8
LAYER_2
 10
169.6435
 20
97.4442
  0
SEQEND
  0
TEXT
  8
LAYER_2
 10
166.4052
 20
94.6394
 11
166.4052
 21
94.6394
 40
2.3272
 41
0.5
  1
30
  0
POLYLINE
  8
LAYER_2
 40
0.067
 41
0.067
 66
1
 10
0
 20
0
 30
0
  0
VERTEX
  8
LAYER_2
 10
103.1597
 20
96.6486
  0
VERTEX
  8
LAYER_2
 10
107.8428
 20
96.6486
  0
SEQEND
  0
POLYLINE
  8
LAYER_2
 40
0.067
 41
0.067
 66
1
 10
0
 20
0
 30
0
  0
VERTEX
  8
LAYER_2
 10
103.1597
 20
76.7619
  0
VERTEX
  8
LAYER_2
 10
107.8428
 20
76.7619
  0
SEQEND
  0
POLYLINE
  8
LAYER_2
 40
0.067
 41
0.067
 66
1
 10
0
 20
0
 30
0
  0
VERTEX
  8
LAYER_2
 10
107.8287
 20
95.8531
  0
VERTEX
  8
LAYER_2
 10
107.8287
 20
89.3356
  0
SEQEND
  0
POLYLINE
  8
LAYER_2
 40
0.067
 41
0.067
 66
1
 10
0
 20
0
 30
0
  0
VERTEX
  8
LAYER_2
 10
107.8287
 20
77.5574
  0
VERTEX
  8
LAYER_2
 10
107.8287
 20
85.7587
  0
SEQEND
  0
POLYLINE
  8
LAYER_2
 40
0.05
 41
0.05
 66
1
 10
0
 20
0
 30
0
  0
VERTEX
  8
LAYER_2
 10
107.6964
 20
95.8528
  0
VERTEX
  8
LAYER_2
 10
107.9613
 20
95.8528
  0
VERTEX
  8
LAYER_2
 10
107.8287
 20
96.6483
  0
SEQEND
  0
POLYLINE
  8
LAYER_2
 40
0.05
 41
0.05
 66
1
 10
0
 20
0
 30
0
  0
VERTEX
  8
LAYER_2
 10
107.6964
 20
77.5574
  0
VERTEX
  8
LAYER_2
 10
107.8287
 20
76.7619
  0
VERTEX
  8
LAYER_2
 10
107.9613
 20
77.5574
  0
SEQEND
  0
TEXT
  8
LAYER_2
 10
108.2005
 20
85.9696
 11
108.2005
 21
85.9696
 40
2.3272
 41
0.5
 50
89.99999999
  1
250
  0
POLYLINE
  8
LAYER_2
 40
0.067
 41
0.067
 66
1
 10
0
 20
0
 30
0
  0
VERTEX
  8
LAYER_2
 10
100.7294
 20
131.2904
  0
VERTEX
  8
LAYER_2
 10
100.9883
 20
131.2904
  0
SEQEND
  0
POLYLINE
  8
LAYER_2
 40
0.067
 41
0.067
 66
1
 10
0
 20
0
 30
0
  0
VERTEX
  8
LAYER_2
 10
100.746
 20
142.8205
  0
VERTEX
  8
LAYER_2
 10
100.9883
 20
142.8205
  0
SEQEND
  0
POLYLINE
  8
LAYER_2
 40
0.067
 41
0.067
 66
1
 10
0
 20
0
 30
0
  0
VERTEX
  8
LAYER_2
 10
101.0032
 20
132.0859
  0
VERTEX
  8
LAYER_2
 10
101.0032
 20
135.0196
  0
SEQEND
  0
POLYLINE
  8
LAYER_2
 40
0.067
 41
0.067
 66
1
 10
0
 20
0
 30
0
  0
VERTEX
  8
LAYER_2
 10
101.0032
 20
142.025
  0
VERTEX
  8
LAYER_2
 10
101.0032
 20
138.8105
  0
SEQEND
  0
POLYLINE
  8
LAYER_2
 40
0.05
 41
0.05
 66
1
 10
0
 20
0
 30
0
  0
VERTEX
  8
LAYER_2
 10
100.8702
 20
132.0855
  0
VERTEX
  8
LAYER_2
 10
101.0028
 20
131.29
  0
VERTEX
  8
LAYER_2
 10
101.1355
 20
132.0855
  0
SEQEND
  0
POLYLINE
  8
LAYER_2
 40
0.05
 41
0.05
 66
1
 10
0
 20
0
 30
0
  0
VERTEX
  8
LAYER_2
 10
100.8702
 20
142.025
  0
VERTEX
  8
LAYER_2
 10
101.1355
 20
142.025
  0
VERTEX
  8
LAYER_2
 10
101.0028
 20
142.8202
  0
SEQEND
  0
TEXT
  8
LAYER_2
 10
101.3749
 20
135.1588
 11
101.3749
 21
135.1588
 40
2.3272
 41
0.5
 50
89.99999999
  1
145
  0
POLYLINE
  8
LAYER_2
 40
0.067
 41
0.067
 66
1
 10
0
 20
0
 30
0
  0
VERTEX
  8
LAYER_2
 10
54.1193
 20
131.2904
  0
VERTEX
  8
LAYER_2
 10
54.9007
 20
131.2904
  0
SEQEND
  0
POLYLINE
  8
LAYER_2
 40
0.067
 41
0.067
 66
1
 10
0
 20
0
 30
0
  0
VERTEX
  8
LAYER_2
 10
54.1193
 20
142.8205
  0
VERTEX
  8
LAYER_2
 10
54.9007
 20
142.8205
  0
SEQEND
  0
POLYLINE
  8
LAYER_2
 40
0.067
 41
0.067
 66
1
 10
0
 20
0
 30
0
  0
VERTEX
  8
LAYER_2
 10
54.9149
 20
132.0862
  0
VERTEX
  8
LAYER_2
 10
54.9149
 20
135.0196
  0
SEQEND
  0
POLYLINE
  8
LAYER_2
 40
0.067
 41
0.067
 66
1
 10
0
 20
0
 30
0
  0
VERTEX
  8
LAYER_2
 10
54.9149
 20
142.0254
  0
VERTEX
  8
LAYER_2
 10
54.9149
 20
138.8105
  0
SEQEND
  0
POLYLINE
  8
LAYER_2
 40
0.05
 41
0.05
 66
1
 10
0
 20
0
 30
0
  0
VERTEX
  8
LAYER_2
 10
54.7822
 20
132.0862
  0
VERTEX
  8
LAYER_2
 10
54.9152
 20
131.2907
  0
VERTEX
  8
LAYER_2
 10
55.0468
 20
132.0862
  0
SEQEND
  0
POLYLINE
  8
LAYER_2
 40
0.05
 41
0.05
 66
1
 10
0
 20
0
 30
0
  0
VERTEX
  8
LAYER_2
 10
54.7822
 20
142.025
  0
VERTEX
  8
LAYER_2
 10
55.0468
 20
142.025
  0
VERTEX
  8
LAYER_2
 10
54.9152
 20
142.8202
  0
SEQEND
  0
TEXT
  8
LAYER_2
 10
55.2865
 20
135.1597
 11
55.2865
 21
135.1597
 40
2.3272
 41
0.5
 50
89.99999999
  1
145
  0
POLYLINE
  8
LAYER_2
 40
0.067
 41
0.067
 66
1
 10
0
 20
0
 30
0
  0
VERTEX
  8
LAYER_2
 10
181.4813
 20
76.7619
  0
VERTEX
  8
LAYER_2
 10
180.4921
 20
76.7619
  0
SEQEND
  0
POLYLINE
  8
LAYER_2
 40
0.067
 41
0.067
 66
1
 10
0
 20
0
 30
0
  0
VERTEX
  8
LAYER_2
 10
181.4813
 20
96.6486
  0
VERTEX
  8
LAYER_2
 10
180.4921
 20
96.6486
  0
SEQEND
  0
POLYLINE
  8
LAYER_2
 40
0.067
 41
0.067
 66
1
 10
0
 20
0
 30
0
  0
VERTEX
  8
LAYER_2
 10
180.5062
 20
77.5574
  0
VERTEX
  8
LAYER_2
 10
180.5062
 20
85.7587
  0
SEQEND
  0
POLYLINE
  8
LAYER_2
 40
0.067
 41
0.067
 66
1
 10
0
 20
0
 30
0
  0
VERTEX
  8
LAYER_2
 10
180.5062
 20
95.8531
  0
VERTEX
  8
LAYER_2
 10
180.5062
 20
89.3356
  0
SEQEND
  0
POLYLINE
  8
LAYER_2
 40
0.05
 41
0.05
 66
1
 10
0
 20
0
 30
0
  0
VERTEX
  8
LAYER_2
 10
180.3736
 20
77.5574
  0
VERTEX
  8
LAYER_2
 10
180.5062
 20
76.7619
  0
VERTEX
  8
LAYER_2
 10
180.6385
 20
77.5574
  0
SEQEND
  0
POLYLINE
  8
LAYER_2
 40
0.05
 41
0.05
 66
1
 10
0
 20
0
 30
0
  0
VERTEX
  8
LAYER_2
 10
180.3736
 20
95.8528
  0
VERTEX
  8
LAYER_2
 10
180.6385
 20
95.8528
  0
VERTEX
  8
LAYER_2
 10
180.5062
 20
96.6483
  0
SEQEND
  0
TEXT
  8
LAYER_2
 10
180.8779
 20
85.9699
 11
180.8779
 21
85.9699
 40
2.3272
 41
0.5
 50
89.99999999
  1
250
  0
POLYLINE
  8
LAYER_2
 40
0.067
 41
0.067
 66
1
 10
0
 20
0
 30
0
  0
VERTEX
  8
LAYER_2
 10
159.9015
 20
142.8202
  0
VERTEX
  8
LAYER_2
 10
148.8268
 20
142.8202
  0
SEQEND
  0
POLYLINE
  8
LAYER_2
 40
0.067
 41
0.067
 66
1
 10
0
 20
0
 30
0
  0
VERTEX
  8
LAYER_2
 10
158.5514
 20
76.7619
  0
VERTEX
  8
LAYER_2
 10
148.8271
 20
76.7619
  0
SEQEND
  0
POLYLINE
  8
LAYER_2
 40
0.067
 41
0.067
 66
1
 10
0
 20
0
 30
0
  0
VERTEX
  8
LAYER_2
 10
148.8412
 20
142.025
  0
VERTEX
  8
LAYER_2
 10
148.8412
 20
112.4164
  0
SEQEND
  0
POLYLINE
  8
LAYER_2
 40
0.067
 41
0.067
 66
1
 10
0
 20
0
 30
0
  0
VERTEX
  8
LAYER_2
 10
148.8412
 20
77.5574
  0
VERTEX
  8
LAYER_2
 10
148.8412
 20
108.8498
  0
SEQEND
  0
POLYLINE
  8
LAYER_2
 40
0.05
 41
0.05
 66
1
 10
0
 20
0
 30
0
  0
VERTEX
  8
LAYER_2
 10
148.7086
 20
142.025
  0
VERTEX
  8
LAYER_2
 10
148.9735
 20
142.025
  0
VERTEX
  8
LAYER_2
 10
148.8412
 20
142.8202
  0
SEQEND
  0
POLYLINE
  8
LAYER_2
 40
0.05
 41
0.05
 66
1
 10
0
 20
0
 30
0
  0
VERTEX
  8
LAYER_2
 10
148.7086
 20
77.5574
  0
VERTEX
  8
LAYER_2
 10
148.8412
 20
76.7619
  0
VERTEX
  8
LAYER_2
 10
148.9735
 20
77.5574
  0
SEQEND
  0
TEXT
  8
LAYER_2
 10
149.2129
 20
109.05
 11
149.2129
 21
109.05
 40
2.3272
 41
0.5
 50
89.99999999
  1
830
  0
POLYLINE
  8
LAYER_2
 40
0.067
 41
0.067
 66
1
 10
0
 20
0
 30
0
  0
VERTEX
  8
LAYER_2
 10
203.4936
 20
143.1783
  0
VERTEX
  8
LAYER_2
 10
203.4936
 20
145.2808
  0
SEQEND
  0
POLYLINE
  8
LAYER_2
 40
0.067
 41
0.067
 66
1
 10
0
 20
0
 30
0
  0
VERTEX
  8
LAYER_2
 10
205.2846
 20
143.1783
  0
VERTEX
  8
LAYER_2
 10
205.2846
 20
145.2808
  0
SEQEND
  0
POLYLINE
  8
LAYER_2
 40
0.067
 41
0.067
 66
1
 10
0
 20
0
 30
0
  0
VERTEX
  8
LAYER_2
 10
202.6981
 20
145.2667
  0
VERTEX
  8
LAYER_2
 10
201.9026
 20
145.2667
  0
SEQEND
  0
POLYLINE
  8
LAYER_2
 40
0.067
 41
0.067
 66
1
 10
0
 20
0
 30
0
  0
VERTEX
  8
LAYER_2
 10
206.0805
 20
145.2667
  0
VERTEX
  8
LAYER_2
 10
206.8757
 20
145.2667
  0
SEQEND
  0
POLYLINE
  8
LAYER_2
 40
0.05
 41
0.05
 66
1
 10
0
 20
0
 30
0
  0
VERTEX
  8
LAYER_2
 10
202.6984
 20
145.1341
  0
VERTEX
  8
LAYER_2
 10
203.4932
 20
145.2667
  0
VERTEX
  8
LAYER_2
 10
202.6984
 20
145.3993
  0
SEQEND
  0
POLYLINE
  8
LAYER_2
 40
0.05
 41
0.05
 66
1
 10
0
 20
0
 30
0
  0
VERTEX
  8
LAYER_2
 10
205.2846
 20
145.2667
  0
VERTEX
  8
LAYER_2
 10
206.0801
 20
145.1341
  0
VERTEX
  8
LAYER_2
 10
206.0801
 20
145.3993
  0
SEQEND
  0
TEXT
  8
LAYER_2
 10
202.9177
 20
146.5088
 11
202.9177
 21
146.5088
 40
2.3272
 41
0.5
  1
25
  0
POLYLINE
  8
LAYER_2
 40
0.067
 41
0.067
 66
1
 10
0
 20
0
 30
0
  0
VERTEX
  8
LAYER_2
 10
160.5379
 20
143.1783
  0
VERTEX
  8
LAYER_2
 10
160.5379
 20
145.2808
  0
SEQEND
  0
POLYLINE
  8
LAYER_2
 40
0.067
 41
0.067
 66
1
 10
0
 20
0
 30
0
  0
VERTEX
  8
LAYER_2
 10
203.4936
 20
142.8999
  0
VERTEX
  8
LAYER_2
 10
203.4936
 20
145.2808
  0
SEQEND
  0
POLYLINE
  8
LAYER_2
 40
0.067
 41
0.067
 66
1
 10
0
 20
0
 30
0
  0
VERTEX
  8
LAYER_2
 10
161.3335
 20
145.2667
  0
VERTEX
  8
LAYER_2
 10
181.0742
 20
145.2667
  0
SEQEND
  0
POLYLINE
  8
LAYER_2
 40
0.067
 41
0.067
 66
1
 10
0
 20
0
 30
0
  0
VERTEX
  8
LAYER_2
 10
202.6981
 20
145.2667
  0
VERTEX
  8
LAYER_2
 10
184.6408
 20
145.2667
  0
SEQEND
  0
POLYLINE
  8
LAYER_2
 40
0.05
 41
0.05
 66
1
 10
0
 20
0
 30
0
  0
VERTEX
  8
LAYER_2
 10
160.5379
 20
145.2667
  0
VERTEX
  8
LAYER_2
 10
161.3334
 20
145.1341
  0
VERTEX
  8
LAYER_2
 10
161.3334
 20
145.3993
  0
SEQEND
  0
POLYLINE
  8
LAYER_2
 40
0.05
 41
0.05
 66
1
 10
0
 20
0
 30
0
  0
VERTEX
  8
LAYER_2
 10
202.6984
 20
145.1341
  0
VERTEX
  8
LAYER_2
 10
203.4932
 20
145.2667
  0
VERTEX
  8
LAYER_2
 10
202.6984
 20
145.3993
  0
SEQEND
  0
TEXT
  8
LAYER_2
 10
181.2746
 20
144.8955
 11
181.2746
 21
144.8955
 40
2.3272
 41
0.5
  1
540
  0
POLYLINE
  8
LAYER_2
 40
0.067
 41
0.067
 66
1
 10
0
 20
0
 30
0
  0
VERTEX
  8
LAYER_2
 10
159.1473
 20
76.0806
  0
VERTEX
  8
LAYER_2
 10
159.1473
 20
72.8467
  0
SEQEND
  0
POLYLINE
  8
LAYER_2
 40
0.067
 41
0.067
 66
1
 10
0
 20
0
 30
0
  0
VERTEX
  8
LAYER_2
 10
205.2846
 20
76.0768
  0
VERTEX
  8
LAYER_2
 10
205.2846
 20
72.8464
  0
SEQEND
  0
POLYLINE
  8
LAYER_2
 40
0.067
 41
0.067
 66
1
 10
0
 20
0
 30
0
  0
VERTEX
  8
LAYER_2
 10
159.9428
 20
72.8608
  0
VERTEX
  8
LAYER_2
 10
181.2746
 20
72.8608
  0
SEQEND
  0
POLYLINE
  8
LAYER_2
 40
0.067
 41
0.067
 66
1
 10
0
 20
0
 30
0
  0
VERTEX
  8
LAYER_2
 10
204.4894
 20
72.8608
  0
VERTEX
  8
LAYER_2
 10
184.8415
 20
72.8608
  0
SEQEND
  0
POLYLINE
  8
LAYER_2
 40
0.05
 41
0.05
 66
1
 10
0
 20
0
 30
0
  0
VERTEX
  8
LAYER_2
 10
159.1473
 20
72.8608
  0
VERTEX
  8
LAYER_2
 10
159.9424
 20
72.7278
  0
VERTEX
  8
LAYER_2
 10
159.9424
 20
72.9935
  0
SEQEND
  0
POLYLINE
  8
LAYER_2
 40
0.05
 41
0.05
 66
1
 10
0
 20
0
 30
0
  0
VERTEX
  8
LAYER_2
 10
204.4895
 20
72.7282
  0
VERTEX
  8
LAYER_2
 10
205.2846
 20
72.8608
  0
VERTEX
  8
LAYER_2
 10
204.4895
 20
72.9935
  0
SEQEND
  0
TEXT
  8
LAYER_2
 10
181.4748
 20
72.4889
 11
181.4748
 21
72.4889
 40
2.3272
 41
0.5
  1
580
  0
POLYLINE
  8
LAYER_2
 40
0.067
 41
0.067
 66
1
 10
0
 20
0
 30
0
  0
VERTEX
  8
LAYER_2
 10
159.9015
 20
142.8202
  0
VERTEX
  8
LAYER_2
 10
153.458
 20
142.8202
  0
SEQEND
  0
POLYLINE
  8
LAYER_2
 40
0.067
 41
0.067
 66
1
 10
0
 20
0
 30
0
  0
VERTEX
  8
LAYER_2
 10
158.6795
 20
128.502
  0
VERTEX
  8
LAYER_2
 10
153.4584
 20
128.502
  0
SEQEND
  0
POLYLINE
  8
LAYER_2
 40
0.067
 41
0.067
 66
1
 10
0
 20
0
 30
0
  0
VERTEX
  8
LAYER_2
 10
153.4729
 20
142.025
  0
VERTEX
  8
LAYER_2
 10
153.4729
 20
138.2556
  0
SEQEND
  0
POLYLINE
  8
LAYER_2
 40
0.067
 41
0.067
 66
1
 10
0
 20
0
 30
0
  0
VERTEX
  8
LAYER_2
 10
153.4729
 20
129.2975
  0
VERTEX
  8
LAYER_2
 10
153.4729
 20
134.7504
  0
SEQEND
  0
POLYLINE
  8
LAYER_2
 40
0.05
 41
0.05
 66
1
 10
0
 20
0
 30
0
  0
VERTEX
  8
LAYER_2
 10
153.3399
 20
142.025
  0
VERTEX
  8
LAYER_2
 10
153.6048
 20
142.025
  0
VERTEX
  8
LAYER_2
 10
153.4725
 20
142.8202
  0
SEQEND
  0
POLYLINE
  8
LAYER_2
 40
0.05
 41
0.05
 66
1
 10
0
 20
0
 30
0
  0
VERTEX
  8
LAYER_2
 10
153.3399
 20
129.2975
  0
VERTEX
  8
LAYER_2
 10
153.4725
 20
128.502
  0
VERTEX
  8
LAYER_2
 10
153.6048
 20
129.2975
  0
SEQEND
  0
TEXT
  8
LAYER_2
 10
153.8442
 20
134.8903
 11
153.8442
 21
134.8903
 40
2.3272
 41
0.5
 50
89.99999999
  1
180
  0
POLYLINE
  8
LAYER_2
 40
0.067
 41
0.067
 66
1
 10
0
 20
0
 30
0
  0
VERTEX
  8
LAYER_2
 10
163.9366
 20
100.6608
  0
VERTEX
  8
LAYER_2
 10
163.9366
 20
103.3659
  0
SEQEND
  0
POLYLINE
  8
LAYER_2
 40
0.067
 41
0.067
 66
1
 10
0
 20
0
 30
0
  0
VERTEX
  8
LAYER_2
 10
200.5281
 20
100.6608
  0
VERTEX
  8
LAYER_2
 10
200.5281
 20
103.3659
  0
SEQEND
  0
POLYLINE
  8
LAYER_2
 40
0.067
 41
0.067
 66
1
 10
0
 20
0
 30
0
  0
VERTEX
  8
LAYER_2
 10
164.7321
 20
103.3518
  0
VERTEX
  8
LAYER_2
 10
181.2784
 20
103.3518
  0
SEQEND
  0
POLYLINE
  8
LAYER_2
 40
0.067
 41
0.067
 66
1
 10
0
 20
0
 30
0
  0
VERTEX
  8
LAYER_2
 10
199.733
 20
103.3518
  0
VERTEX
  8
LAYER_2
 10
184.8697
 20
103.3518
  0
SEQEND
  0
POLYLINE
  8
LAYER_2
 40
0.05
 41
0.05
 66
1
 10
0
 20
0
 30
0
  0
VERTEX
  8
LAYER_2
 10
163.9366
 20
103.3518
  0
VERTEX
  8
LAYER_2
 10
164.7318
 20
103.2191
  0
VERTEX
  8
LAYER_2
 10
164.7318
 20
103.4844
  0
SEQEND
  0
POLYLINE
  8
LAYER_2
 40
0.05
 41
0.05
 66
1
 10
0
 20
0
 30
0
  0
VERTEX
  8
LAYER_2
 10
199.733
 20
103.2191
  0
VERTEX
  8
LAYER_2
 10
200.5281
 20
103.3518
  0
VERTEX
  8
LAYER_2
 10
199.733
 20
103.4844
  0
SEQEND
  0
TEXT
  8
LAYER_2
 10
181.503
 20
102.9804
 11
181.503
 21
102.9804
 40
2.3272
 41
0.5
  1
460
  0
POLYLINE
  8
LAYER_2
 40
0.067
 41
0.067
 66
1
 10
0
 20
0
 30
0
  0
VERTEX
  8
LAYER_2
 10
158.6795
 20
128.502
  0
VERTEX
  8
LAYER_2
 10
153.4584
 20
128.502
  0
SEQEND
  0
POLYLINE
  8
LAYER_2
 40
0.067
 41
0.067
 66
1
 10
0
 20
0
 30
0
  0
VERTEX
  8
LAYER_2
 10
156.4574
 20
100.2632
  0
VERTEX
  8
LAYER_2
 10
153.458
 20
100.2632
  0
SEQEND
  0
POLYLINE
  8
LAYER_2
 40
0.067
 41
0.067
 66
1
 10
0
 20
0
 30
0
  0
VERTEX
  8
LAYER_2
 10
153.4729
 20
127.7065
  0
VERTEX
  8
LAYER_2
 10
153.4729
 20
117.0092
  0
SEQEND
  0
POLYLINE
  8
LAYER_2
 40
0.067
 41
0.067
 66
1
 10
0
 20
0
 30
0
  0
VERTEX
  8
LAYER_2
 10
153.4729
 20
101.0584
  0
VERTEX
  8
LAYER_2
 10
153.4729
 20
113.4395
  0
SEQEND
  0
POLYLINE
  8
LAYER_2
 40
0.05
 41
0.05
 66
1
 10
0
 20
0
 30
0
  0
VERTEX
  8
LAYER_2
 10
153.3399
 20
127.7065
  0
VERTEX
  8
LAYER_2
 10
153.6048
 20
127.7065
  0
VERTEX
  8
LAYER_2
 10
153.4725
 20
128.502
  0
SEQEND
  0
POLYLINE
  8
LAYER_2
 40
0.05
 41
0.05
 66
1
 10
0
 20
0
 30
0
  0
VERTEX
  8
LAYER_2
 10
153.3399
 20
101.0584
  0
VERTEX
  8
LAYER_2
 10
153.4725
 20
100.2632
  0
VERTEX
  8
LAYER_2
 10
153.6048
 20
101.0584
  0
SEQEND
  0
TEXT
  8
LAYER_2
 10
153.8443
 20
113.6389
 11
153.8443
 21
113.6389
 40
2.3272
 41
0.5
 50
89.99999999
  1
355
  0
POLYLINE
  8
LAYER_2
 40
0.067
 41
0.067
 66
1
 10
0
 20
0
 30
0
  0
VERTEX
  8
LAYER_2
 10
156.4574
 20
100.2632
  0
VERTEX
  8
LAYER_2
 10
153.458
 20
100.2632
  0
SEQEND
  0
POLYLINE
  8
LAYER_2
 40
0.067
 41
0.067
 66
1
 10
0
 20
0
 30
0
  0
VERTEX
  8
LAYER_2
 10
165.4652
 20
76.7619
  0
VERTEX
  8
LAYER_2
 10
153.458
 20
76.7619
  0
SEQEND
  0
POLYLINE
  8
LAYER_2
 40
0.067
 41
0.067
 66
1
 10
0
 20
0
 30
0
  0
VERTEX
  8
LAYER_2
 10
153.4729
 20
99.4673
  0
VERTEX
  8
LAYER_2
 10
153.4729
 20
91.145
  0
SEQEND
  0
POLYLINE
  8
LAYER_2
 40
0.067
 41
0.067
 66
1
 10
0
 20
0
 30
0
  0
VERTEX
  8
LAYER_2
 10
153.4729
 20
77.5574
  0
VERTEX
  8
LAYER_2
 10
153.4729
 20
87.5636
  0
SEQEND
  0
POLYLINE
  8
LAYER_2
 40
0.05
 41
0.05
 66
1
 10
0
 20
0
 30
0
  0
VERTEX
  8
LAYER_2
 10
153.3399
 20
99.4673
  0
VERTEX
  8
LAYER_2
 10
153.6048
 20
99.4673
  0
VERTEX
  8
LAYER_2
 10
153.4725
 20
100.2628
  0
SEQEND
  0
POLYLINE
  8
LAYER_2
 40
0.05
 41
0.05
 66
1
 10
0
 20
0
 30
0
  0
VERTEX
  8
LAYER_2
 10
153.3399
 20
77.5574
  0
VERTEX
  8
LAYER_2
 10
153.4725
 20
76.7619
  0
VERTEX
  8
LAYER_2
 10
153.6048
 20
77.5574
  0
SEQEND
  0
TEXT
  8
LAYER_2
 10
153.8444
 20
87.7745
 11
153.8444
 21
87.7745
 40
2.3272
 41
0.5
 50
89.99999999
  1
295
  0
POLYLINE
  8
LAYER_2
 40
0.067
 41
0.067
 66
1
 10
0
 20
0
 30
0
  0
VERTEX
  8
LAYER_2
 10
31.0837
 20
100.2632
  0
VERTEX
  8
LAYER_2
 10
28.0843
 20
100.2632
  0
SEQEND
  0
POLYLINE
  8
LAYER_2
 40
0.067
 41
0.067
 66
1
 10
0
 20
0
 30
0
  0
VERTEX
  8
LAYER_2
 10
40.0915
 20
76.7619
  0
VERTEX
  8
LAYER_2
 10
28.0843
 20
76.7619
  0
SEQEND
  0
POLYLINE
  8
LAYER_2
 40
0.067
 41
0.067
 66
1
 10
0
 20
0
 30
0
  0
VERTEX
  8
LAYER_2
 10
28.0988
 20
99.4673
  0
VERTEX
  8
LAYER_2
 10
28.0988
 20
91.145
  0
SEQEND
  0
POLYLINE
  8
LAYER_2
 40
0.067
 41
0.067
 66
1
 10
0
 20
0
 30
0
  0
VERTEX
  8
LAYER_2
 10
28.0988
 20
77.5574
  0
VERTEX
  8
LAYER_2
 10
28.0988
 20
87.5636
  0
SEQEND
  0
POLYLINE
  8
LAYER_2
 40
0.05
 41
0.05
 66
1
 10
0
 20
0
 30
0
  0
VERTEX
  8
LAYER_2
 10
27.9665
 20
99.4673
  0
VERTEX
  8
LAYER_2
 10
28.2315
 20
99.4673
  0
VERTEX
  8
LAYER_2
 10
28.0995
 20
100.2628
  0
SEQEND
  0
POLYLINE
  8
LAYER_2
 40
0.05
 41
0.05
 66
1
 10
0
 20
0
 30
0
  0
VERTEX
  8
LAYER_2
 10
27.9665
 20
77.5574
  0
VERTEX
  8
LAYER_2
 10
28.0995
 20
76.7619
  0
VERTEX
  8
LAYER_2
 10
28.2315
 20
77.5574
  0
SEQEND
  0
TEXT
  8
LAYER_2
 10
28.4708
 20
87.7747
 11
28.4708
 21
87.7747
 40
2.3272
 41
0.5
 50
89.99999999
  1
295
  0
POLYLINE
  8
LAYER_2
 40
0.067
 41
0.067
 66
1
 10
0
 20
0
 30
0
  0
VERTEX
  8
LAYER_2
 10
34.4513
 20
100.2632
  0
VERTEX
  8
LAYER_2
 10
28.0847
 20
100.2632
  0
SEQEND
  0
POLYLINE
  8
LAYER_2
 40
0.067
 41
0.067
 66
1
 10
0
 20
0
 30
0
  0
VERTEX
  8
LAYER_2
 10
33.7034
 20
128.502
  0
VERTEX
  8
LAYER_2
 10
28.0851
 20
128.502
  0
SEQEND
  0
POLYLINE
  8
LAYER_2
 40
0.067
 41
0.067
 66
1
 10
0
 20
0
 30
0
  0
VERTEX
  8
LAYER_2
 10
28.0992
 20
101.0584
  0
VERTEX
  8
LAYER_2
 10
28.0992
 20
113.4394
  0
SEQEND
  0
POLYLINE
  8
LAYER_2
 40
0.067
 41
0.067
 66
1
 10
0
 20
0
 30
0
  0
VERTEX
  8
LAYER_2
 10
28.0992
 20
127.7065
  0
VERTEX
  8
LAYER_2
 10
28.0992
 20
117.29
  0
SEQEND
  0
POLYLINE
  8
LAYER_2
 40
0.05
 41
0.05
 66
1
 10
0
 20
0
 30
0
  0
VERTEX
  8
LAYER_2
 10
27.9665
 20
101.0584
  0
VERTEX
  8
LAYER_2
 10
28.0992
 20
100.2632
  0
VERTEX
  8
LAYER_2
 10
28.2315
 20
101.0584
  0
SEQEND
  0
POLYLINE
  8
LAYER_2
 40
0.05
 41
0.05
 66
1
 10
0
 20
0
 30
0
  0
VERTEX
  8
LAYER_2
 10
27.9665
 20
127.7065
  0
VERTEX
  8
LAYER_2
 10
28.2315
 20
127.7065
  0
VERTEX
  8
LAYER_2
 10
28.0992
 20
128.502
  0
SEQEND
  0
TEXT
  8
LAYER_2
 10
28.4706
 20
113.6391
 11
28.4706
 21
113.6391
 40
2.3272
 41
0.5
 50
89.99999999
  1
355
  0
POLYLINE
  8
LAYER_2
 40
0.067
 41
0.067
 66
1
 10
0
 20
0
 30
0
  0
VERTEX
  8
LAYER_2
 10
59.3542
 20
189.6627
  0
VERTEX
  8
LAYER_2
 10
58.5583
 20
189.6627
  0
VERTEX
  8
LAYER_2
 10
57.2947
 20
190.8223
  0
SEQEND
  0
TEXT
  8
LAYER_2
 10
59.6019
 20
189.2984
 11
59.6019
 21
189.2984
 40
2.3272
 41
0.5
  1
46
  0
POLYLINE
  8
LAYER_2
 40
0.05
 41
0.05
 66
1
 10
0
 20
0
 30
0
  0
VERTEX
  8
LAYER_2
 10
57.3843
 20
190.92
  0
VERTEX
  8
LAYER_2
 10
57.2047
 20
190.7246
  0
VERTEX
  8
LAYER_2
 10
56.7084
 20
191.3603
  0
SEQEND
  0
POLYLINE
  8
LAYER_2
 40
0.067
 41
0.067
 66
1
 10
0
 20
0
 30
0
  0
VERTEX
  8
LAYER_2
 10
55.353
 20
192.5971
  0
VERTEX
  8
LAYER_2
 10
55.3675
 20
192.5971
  0
SEQEND
  0
POLYLINE
  8
LAYER_2
 40
0.067
 41
0.067
 66
1
 10
0
 20
0
 30
0
  0
VERTEX
  8
LAYER_2
 10
55.3601
 20
192.5897
  0
VERTEX
  8
LAYER_2
 10
55.3601
 20
192.6042
  0
SEQEND
  0
POLYLINE
  8
LAYER_2
 40
0.067
 41
0.067
 66
1
 10
0
 20
0
 30
0
  0
VERTEX
  8
LAYER_2
 10
34.6778
 20
174.6986
  0
VERTEX
  8
LAYER_2
 10
34.6778
 20
165.5846
  0
SEQEND
  0
POLYLINE
  8
LAYER_2
 40
0.067
 41
0.067
 66
1
 10
0
 20
0
 30
0
  0
VERTEX
  8
LAYER_2
 10
122.1801
 20
174.6986
  0
VERTEX
  8
LAYER_2
 10
122.1801
 20
165.5846
  0
SEQEND
  0
POLYLINE
  8
LAYER_2
 40
0.067
 41
0.067
 66
1
 10
0
 20
0
 30
0
  0
VERTEX
  8
LAYER_2
 10
35.4733
 20
165.5987
  0
VERTEX
  8
LAYER_2
 10
77.2704
 20
165.5987
  0
SEQEND
  0
POLYLINE
  8
LAYER_2
 40
0.067
 41
0.067
 66
1
 10
0
 20
0
 30
0
  0
VERTEX
  8
LAYER_2
 10
121.3845
 20
165.5987
  0
VERTEX
  8
LAYER_2
 10
81.8322
 20
165.5987
  0
SEQEND
  0
POLYLINE
  8
LAYER_2
 40
0.05
 41
0.05
 66
1
 10
0
 20
0
 30
0
  0
VERTEX
  8
LAYER_2
 10
34.6778
 20
165.5987
  0
VERTEX
  8
LAYER_2
 10
35.4733
 20
165.4661
  0
VERTEX
  8
LAYER_2
 10
35.4733
 20
165.7313
  0
SEQEND
  0
POLYLINE
  8
LAYER_2
 40
0.05
 41
0.05
 66
1
 10
0
 20
0
 30
0
  0
VERTEX
  8
LAYER_2
 10
121.3845
 20
165.4664
  0
VERTEX
  8
LAYER_2
 10
122.1801
 20
165.5987
  0
VERTEX
  8
LAYER_2
 10
121.3845
 20
165.7313
  0
SEQEND
  0
TEXT
  8
LAYER_2
 10
77.4098
 20
165.2274
 11
77.4098
 21
165.2274
 40
2.3272
 41
0.5
  1
1100
  0
POLYLINE
  8
LAYER_2
 40
0.067
 41
0.067
 66
1
 10
0
 20
0
 30
0
  0
VERTEX
  8
LAYER_2
 10
120.1914
 20
215.666
  0
VERTEX
  8
LAYER_2
 10
125.6976
 20
215.666
  0
SEQEND
  0
POLYLINE
  8
LAYER_2
 40
0.067
 41
0.067
 66
1
 10
0
 20
0
 30
0
  0
VERTEX
  8
LAYER_2
 10
120.1914
 20
172.7104
  0
VERTEX
  8
LAYER_2
 10
125.6976
 20
172.7104
  0
SEQEND
  0
POLYLINE
  8
LAYER_2
 40
0.067
 41
0.067
 66
1
 10
0
 20
0
 30
0
  0
VERTEX
  8
LAYER_2
 10
125.6838
 20
214.8701
  0
VERTEX
  8
LAYER_2
 10
125.6838
 20
196.8132
  0
SEQEND
  0
POLYLINE
  8
LAYER_2
 40
0.067
 41
0.067
 66
1
 10
0
 20
0
 30
0
  0
VERTEX
  8
LAYER_2
 10
125.6838
 20
173.5059
  0
VERTEX
  8
LAYER_2
 10
125.6838
 20
193.2466
  0
SEQEND
  0
POLYLINE
  8
LAYER_2
 40
0.05
 41
0.05
 66
1
 10
0
 20
0
 30
0
  0
VERTEX
  8
LAYER_2
 10
125.5509
 20
214.8701
  0
VERTEX
  8
LAYER_2
 10
125.8161
 20
214.8701
  0
VERTEX
  8
LAYER_2
 10
125.6835
 20
215.6656
  0
SEQEND
  0
POLYLINE
  8
LAYER_2
 40
0.05
 41
0.05
 66
1
 10
0
 20
0
 30
0
  0
VERTEX
  8
LAYER_2
 10
125.5509
 20
173.5055
  0
VERTEX
  8
LAYER_2
 10
125.6835
 20
172.71
  0
VERTEX
  8
LAYER_2
 10
125.8161
 20
173.5055
  0
SEQEND
  0
TEXT
  8
LAYER_2
 10
126.0552
 20
193.4469
 11
126.0552
 21
193.4469
 40
2.3272
 41
0.5
 50
89.99999999
  1
540
  0
POLYLINE
  8
LAYER_2
 40
0.067
 41
0.067
 66
1
 10
0
 20
0
 30
0
  0
VERTEX
  8
LAYER_2
 10
40.2464
 20
191.9678
  0
VERTEX
  8
LAYER_2
 10
40.2464
 20
168.392
  0
SEQEND
  0
POLYLINE
  8
LAYER_2
 40
0.067
 41
0.067
 66
1
 10
0
 20
0
 30
0
  0
VERTEX
  8
LAYER_2
 10
70.4745
 20
191.9678
  0
VERTEX
  8
LAYER_2
 10
70.4745
 20
168.392
  0
SEQEND
  0
POLYLINE
  8
LAYER_2
 40
0.067
 41
0.067
 66
1
 10
0
 20
0
 30
0
  0
VERTEX
  8
LAYER_2
 10
41.0419
 20
168.4065
  0
VERTEX
  8
LAYER_2
 10
54.4196
 20
168.4065
  0
SEQEND
  0
POLYLINE
  8
LAYER_2
 40
0.067
 41
0.067
 66
1
 10
0
 20
0
 30
0
  0
VERTEX
  8
LAYER_2
 10
69.679
 20
168.4065
  0
VERTEX
  8
LAYER_2
 10
57.7046
 20
168.4065
  0
SEQEND
  0
POLYLINE
  8
LAYER_2
 40
0.05
 41
0.05
 66
1
 10
0
 20
0
 30
0
  0
VERTEX
  8
LAYER_2
 10
40.2464
 20
168.4061
  0
VERTEX
  8
LAYER_2
 10
41.0415
 20
168.2735
  0
VERTEX
  8
LAYER_2
 10
41.0415
 20
168.5384
  0
SEQEND
  0
POLYLINE
  8
LAYER_2
 40
0.05
 41
0.05
 66
1
 10
0
 20
0
 30
0
  0
VERTEX
  8
LAYER_2
 10
69.6786
 20
168.2735
  0
VERTEX
  8
LAYER_2
 10
70.4741
 20
168.4058
  0
VERTEX
  8
LAYER_2
 10
69.6786
 20
168.5384
  0
SEQEND
  0
TEXT
  8
LAYER_2
 10
54.6183
 20
168.0344
 11
54.6183
 21
168.0344
 40
2.3272
 41
0.5
  1
380
  0
POLYLINE
  8
LAYER_2
 40
0.067
 41
0.067
 66
1
 10
0
 20
0
 30
0
  0
VERTEX
  8
LAYER_2
 10
56.1556
 20
207.7112
  0
VERTEX
  8
LAYER_2
 10
58.231
 20
207.7112
  0
SEQEND
  0
POLYLINE
  8
LAYER_2
 40
0.067
 41
0.067
 66
1
 10
0
 20
0
 30
0
  0
VERTEX
  8
LAYER_2
 10
56.1556
 20
210.8929
  0
VERTEX
  8
LAYER_2
 10
58.231
 20
210.8929
  0
SEQEND
  0
POLYLINE
  8
LAYER_2
 40
0.067
 41
0.067
 66
1
 10
0
 20
0
 30
0
  0
VERTEX
  8
LAYER_2
 10
58.2169
 20
208.5064
  0
VERTEX
  8
LAYER_2
 10
58.2169
 20
208.675
  0
SEQEND
  0
POLYLINE
  8
LAYER_2
 40
0.067
 41
0.067
 66
1
 10
0
 20
0
 30
0
  0
VERTEX
  8
LAYER_2
 10
58.2169
 20
210.0974
  0
VERTEX
  8
LAYER_2
 10
58.2169
 20
210.0879
  0
SEQEND
  0
POLYLINE
  8
LAYER_2
 40
0.05
 41
0.05
 66
1
 10
0
 20
0
 30
0
  0
VERTEX
  8
LAYER_2
 10
58.0842
 20
208.5064
  0
VERTEX
  8
LAYER_2
 10
58.2169
 20
207.7112
  0
VERTEX
  8
LAYER_2
 10
58.3492
 20
208.5064
  0
SEQEND
  0
POLYLINE
  8
LAYER_2
 40
0.05
 41
0.05
 66
1
 10
0
 20
0
 30
0
  0
VERTEX
  8
LAYER_2
 10
58.0842
 20
210.0974
  0
VERTEX
  8
LAYER_2
 10
58.3492
 20
210.0974
  0
VERTEX
  8
LAYER_2
 10
58.2169
 20
210.8926
  0
SEQEND
  0
TEXT
  8
LAYER_2
 10
58.0844
 20
208.6163
 11
58.0844
 21
208.6163
 40
2.3272
 41
0.5
  1
40
  0
POLYLINE
  8
LAYER_2
 40
0.067
 41
0.067
 66
1
 10
0
 20
0
 30
0
  0
VERTEX
  8
LAYER_2
 10
56.1556
 20
210.8929
  0
VERTEX
  8
LAYER_2
 10
58.231
 20
210.8929
  0
SEQEND
  0
POLYLINE
  8
LAYER_2
 40
0.067
 41
0.067
 66
1
 10
0
 20
0
 30
0
  0
VERTEX
  8
LAYER_2
 10
56.1556
 20
215.666
  0
VERTEX
  8
LAYER_2
 10
58.231
 20
215.666
  0
SEQEND
  0
POLYLINE
  8
LAYER_2
 40
0.067
 41
0.067
 66
1
 10
0
 20
0
 30
0
  0
VERTEX
  8
LAYER_2
 10
58.2169
 20
211.6884
  0
VERTEX
  8
LAYER_2
 10
58.2169
 20
213.2791
  0
SEQEND
  0
POLYLINE
  8
LAYER_2
 40
0.067
 41
0.067
 66
1
 10
0
 20
0
 30
0
  0
VERTEX
  8
LAYER_2
 10
58.2169
 20
214.8701
  0
VERTEX
  8
LAYER_2
 10
58.2169
 20
214.6683
  0
SEQEND
  0
POLYLINE
  8
LAYER_2
 40
0.05
 41
0.05
 66
1
 10
0
 20
0
 30
0
  0
VERTEX
  8
LAYER_2
 10
58.0842
 20
211.6884
  0
VERTEX
  8
LAYER_2
 10
58.2169
 20
210.8929
  0
VERTEX
  8
LAYER_2
 10
58.3492
 20
211.6884
  0
SEQEND
  0
POLYLINE
  8
LAYER_2
 40
0.05
 41
0.05
 66
1
 10
0
 20
0
 30
0
  0
VERTEX
  8
LAYER_2
 10
58.0842
 20
214.8701
  0
VERTEX
  8
LAYER_2
 10
58.3492
 20
214.8701
  0
VERTEX
  8
LAYER_2
 10
58.2169
 20
215.6656
  0
SEQEND
  0
TEXT
  8
LAYER_2
 10
56.4206
 20
213.2203
 11
56.4206
 21
213.2203
 40
2.3272
 41
0.5
  1
60
  0
POLYLINE
  8
LAYER_2
 40
0.067
 41
0.067
 66
1
 10
0
 20
0
 30
0
  0
VERTEX
  8
LAYER_2
 10
56.1556
 20
192.5971
  0
VERTEX
  8
LAYER_2
 10
58.231
 20
192.5971
  0
SEQEND
  0
POLYLINE
  8
LAYER_2
 40
0.067
 41
0.067
 66
1
 10
0
 20
0
 30
0
  0
VERTEX
  8
LAYER_2
 10
56.1531
 20
207.7112
  0
VERTEX
  8
LAYER_2
 10
58.231
 20
207.7112
  0
SEQEND
  0
POLYLINE
  8
LAYER_2
 40
0.067
 41
0.067
 66
1
 10
0
 20
0
 30
0
  0
VERTEX
  8
LAYER_2
 10
58.2169
 20
193.3926
  0
VERTEX
  8
LAYER_2
 10
58.2169
 20
199.2431
  0
SEQEND
  0
POLYLINE
  8
LAYER_2
 40
0.067
 41
0.067
 66
1
 10
0
 20
0
 30
0
  0
VERTEX
  8
LAYER_2
 10
58.2169
 20
206.9157
  0
VERTEX
  8
LAYER_2
 10
58.2169
 20
202.749
  0
SEQEND
  0
POLYLINE
  8
LAYER_2
 40
0.05
 41
0.05
 66
1
 10
0
 20
0
 30
0
  0
VERTEX
  8
LAYER_2
 10
58.0842
 20
193.3927
  0
VERTEX
  8
LAYER_2
 10
58.2169
 20
192.5971
  0
VERTEX
  8
LAYER_2
 10
58.3492
 20
193.3927
  0
SEQEND
  0
POLYLINE
  8
LAYER_2
 40
0.05
 41
0.05
 66
1
 10
0
 20
0
 30
0
  0
VERTEX
  8
LAYER_2
 10
58.0842
 20
206.9157
  0
VERTEX
  8
LAYER_2
 10
58.3492
 20
206.9157
  0
VERTEX
  8
LAYER_2
 10
58.2169
 20
207.7112
  0
SEQEND
  0
TEXT
  8
LAYER_2
 10
58.5883
 20
199.382
 11
58.5883
 21
199.382
 40
2.3272
 41
0.5
 50
89.99999999
  1
190
  0
POLYLINE
  8
LAYER_2
 40
0.067
 41
0.067
 66
1
 10
0
 20
0
 30
0
  0
VERTEX
  8
LAYER_2
 10
70.4741
 20
191.9678
  0
VERTEX
  8
LAYER_2
 10
70.4741
 20
168.4093
  0
SEQEND
  0
POLYLINE
  8
LAYER_2
 40
0.067
 41
0.067
 66
1
 10
0
 20
0
 30
0
  0
VERTEX
  8
LAYER_2
 10
86.3833
 20
191.9678
  0
VERTEX
  8
LAYER_2
 10
86.3833
 20
168.4093
  0
SEQEND
  0
POLYLINE
  8
LAYER_2
 40
0.067
 41
0.067
 66
1
 10
0
 20
0
 30
0
  0
VERTEX
  8
LAYER_2
 10
71.2696
 20
168.4237
  0
VERTEX
  8
LAYER_2
 10
77.4821
 20
168.4237
  0
SEQEND
  0
POLYLINE
  8
LAYER_2
 40
0.067
 41
0.067
 66
1
 10
0
 20
0
 30
0
  0
VERTEX
  8
LAYER_2
 10
85.5882
 20
168.4237
  0
VERTEX
  8
LAYER_2
 10
81.0589
 20
168.4237
  0
SEQEND
  0
POLYLINE
  8
LAYER_2
 40
0.05
 41
0.05
 66
1
 10
0
 20
0
 30
0
  0
VERTEX
  8
LAYER_2
 10
70.4741
 20
168.4234
  0
VERTEX
  8
LAYER_2
 10
71.2696
 20
168.2907
  0
VERTEX
  8
LAYER_2
 10
71.2696
 20
168.5557
  0
SEQEND
  0
POLYLINE
  8
LAYER_2
 40
0.05
 41
0.05
 66
1
 10
0
 20
0
 30
0
  0
VERTEX
  8
LAYER_2
 10
85.5878
 20
168.2907
  0
VERTEX
  8
LAYER_2
 10
86.3833
 20
168.4234
  0
VERTEX
  8
LAYER_2
 10
85.5878
 20
168.5557
  0
SEQEND
  0
TEXT
  8
LAYER_2
 10
77.6928
 20
168.0517
 11
77.6928
 21
168.0517
 40
2.3272
 41
0.5
  1
200
  0
POLYLINE
  8
LAYER_2
 40
0.067
 41
0.067
 66
1
 10
0
 20
0
 30
0
  0
VERTEX
  8
LAYER_2
 10
40.2464
 20
191.9678
  0
VERTEX
  8
LAYER_2
 10
40.2464
 20
168.3775
  0
SEQEND
  0
POLYLINE
  8
LAYER_2
 40
0.067
 41
0.067
 66
1
 10
0
 20
0
 30
0
  0
VERTEX
  8
LAYER_2
 10
34.6781
 20
191.9678
  0
VERTEX
  8
LAYER_2
 10
34.6781
 20
168.3775
  0
SEQEND
  0
POLYLINE
  8
LAYER_2
 40
0.067
 41
0.067
 66
1
 10
0
 20
0
 30
0
  0
VERTEX
  8
LAYER_2
 10
39.4508
 20
168.392
  0
VERTEX
  8
LAYER_2
 10
38.7153
 20
168.392
  0
SEQEND
  0
POLYLINE
  8
LAYER_2
 40
0.067
 41
0.067
 66
1
 10
0
 20
0
 30
0
  0
VERTEX
  8
LAYER_2
 10
35.4736
 20
168.392
  0
VERTEX
  8
LAYER_2
 10
36.2092
 20
168.392
  0
SEQEND
  0
POLYLINE
  8
LAYER_2
 40
0.05
 41
0.05
 66
1
 10
0
 20
0
 30
0
  0
VERTEX
  8
LAYER_2
 10
39.4505
 20
168.259
  0
VERTEX
  8
LAYER_2
 10
40.246
 20
168.3916
  0
VERTEX
  8
LAYER_2
 10
39.4505
 20
168.5239
  0
SEQEND
  0
POLYLINE
  8
LAYER_2
 40
0.05
 41
0.05
 66
1
 10
0
 20
0
 30
0
  0
VERTEX
  8
LAYER_2
 10
34.6778
 20
168.3916
  0
VERTEX
  8
LAYER_2
 10
35.4733
 20
168.2586
  0
VERTEX
  8
LAYER_2
 10
35.4733
 20
168.5243
  0
SEQEND
  0
TEXT
  8
LAYER_2
 10
36.4046
 20
168.02
 11
36.4046
 21
168.02
 40
2.3272
 41
0.5
  1
70
  0
POLYLINE
  8
LAYER_2
 40
0.067
 41
0.067
 66
1
 10
0
 20
0
 30
0
  0
VERTEX
  8
LAYER_2
 10
86.3833
 20
191.9678
  0
VERTEX
  8
LAYER_2
 10
86.3833
 20
168.4241
  0
SEQEND
  0
POLYLINE
  8
LAYER_2
 40
0.067
 41
0.067
 66
1
 10
0
 20
0
 30
0
  0
VERTEX
  8
LAYER_2
 10
116.6115
 20
191.9537
  0
VERTEX
  8
LAYER_2
 10
116.6115
 20
168.4234
  0
SEQEND
  0
POLYLINE
  8
LAYER_2
 40
0.067
 41
0.067
 66
1
 10
0
 20
0
 30
0
  0
VERTEX
  8
LAYER_2
 10
87.1792
 20
168.4382
  0
VERTEX
  8
LAYER_2
 10
100.5565
 20
168.4382
  0
SEQEND
  0
POLYLINE
  8
LAYER_2
 40
0.067
 41
0.067
 66
1
 10
0
 20
0
 30
0
  0
VERTEX
  8
LAYER_2
 10
115.8159
 20
168.4382
  0
VERTEX
  8
LAYER_2
 10
104.1221
 20
168.4382
  0
SEQEND
  0
POLYLINE
  8
LAYER_2
 40
0.05
 41
0.05
 66
1
 10
0
 20
0
 30
0
  0
VERTEX
  8
LAYER_2
 10
86.3837
 20
168.4379
  0
VERTEX
  8
LAYER_2
 10
87.1792
 20
168.3052
  0
VERTEX
  8
LAYER_2
 10
87.1792
 20
168.5701
  0
SEQEND
  0
POLYLINE
  8
LAYER_2
 40
0.05
 41
0.05
 66
1
 10
0
 20
0
 30
0
  0
VERTEX
  8
LAYER_2
 10
115.8163
 20
168.3052
  0
VERTEX
  8
LAYER_2
 10
116.6118
 20
168.4379
  0
VERTEX
  8
LAYER_2
 10
115.8163
 20
168.5701
  0
SEQEND
  0
TEXT
  8
LAYER_2
 10
100.756
 20
168.0661
 11
100.756
 21
168.0661
 40
2.3272
 41
0.5
  1
380
  0
POLYLINE
  8
LAYER_2
 40
0.067
 41
0.067
 66
1
 10
0
 20
0
 30
0
  0
VERTEX
  8
LAYER_2
 10
116.6118
 20
191.9678
  0
VERTEX
  8
LAYER_2
 10
116.6118
 20
168.4379
  0
SEQEND
  0
POLYLINE
  8
LAYER_2
 40
0.067
 41
0.067
 66
1
 10
0
 20
0
 30
0
  0
VERTEX
  8
LAYER_2
 10
122.1804
 20
191.9678
  0
VERTEX
  8
LAYER_2
 10
122.1804
 20
168.4379
  0
SEQEND
  0
POLYLINE
  8
LAYER_2
 40
0.067
 41
0.067
 66
1
 10
0
 20
0
 30
0
  0
VERTEX
  8
LAYER_2
 10
117.4073
 20
168.4523
  0
VERTEX
  8
LAYER_2
 10
118.1432
 20
168.4523
  0
SEQEND
  0
POLYLINE
  8
LAYER_2
 40
0.067
 41
0.067
 66
1
 10
0
 20
0
 30
0
  0
VERTEX
  8
LAYER_2
 10
121.3849
 20
168.4523
  0
VERTEX
  8
LAYER_2
 10
120.649
 20
168.4523
  0
SEQEND
  0
POLYLINE
  8
LAYER_2
 40
0.05
 41
0.05
 66
1
 10
0
 20
0
 30
0
  0
VERTEX
  8
LAYER_2
 10
116.6118
 20
168.452
  0
VERTEX
  8
LAYER_2
 10
117.407
 20
168.319
  0
VERTEX
  8
LAYER_2
 10
117.407
 20
168.5846
  0
SEQEND
  0
POLYLINE
  8
LAYER_2
 40
0.05
 41
0.05
 66
1
 10
0
 20
0
 30
0
  0
VERTEX
  8
LAYER_2
 10
121.3845
 20
168.3193
  0
VERTEX
  8
LAYER_2
 10
122.1801
 20
168.452
  0
VERTEX
  8
LAYER_2
 10
121.3845
 20
168.5846
  0
SEQEND
  0
TEXT
  8
LAYER_2
 10
118.3386
 20
168.0806
 11
118.3386
 21
168.0806
 40
2.3272
 41
0.5
  1
70
  0
POLYLINE
  8
LAYER_2
 40
0.067
 41
0.067
 66
1
 10
0
 20
0
 30
0
  0
VERTEX
  8
LAYER_2
 10
119.1539
 20
172.3717
  0
VERTEX
  8
LAYER_2
 10
119.3384
 20
172.5407
  0
SEQEND
  0
POLYLINE
  8
LAYER_2
 40
0.067
 41
0.067
 66
1
 10
0
 20
0
 30
0
  0
VERTEX
  8
LAYER_2
 10
120.7224
 20
170.6593
  0
VERTEX
  8
LAYER_2
 10
120.9069
 20
170.8279
  0
SEQEND
  0
POLYLINE
  8
LAYER_2
 40
0.067
 41
0.067
 66
1
 10
0
 20
0
 30
0
  0
VERTEX
  8
LAYER_2
 10
119.8863
 20
171.9632
  0
VERTEX
  8
LAYER_2
 10
120.3802
 20
171.4241
  0
SEQEND
  0
POLYLINE
  8
LAYER_2
 40
0.067
 41
0.067
 66
1
 10
0
 20
0
 30
0
  0
VERTEX
  8
LAYER_2
 10
120.9175
 20
170.8378
  0
VERTEX
  8
LAYER_2
 10
121.8037
 20
169.8698
  0
VERTEX
  8
LAYER_2
 10
122.5992
 20
169.8698
  0
SEQEND
  0
POLYLINE
  8
LAYER_2
 40
0.05
 41
0.05
 66
1
 10
0
 20
0
 30
0
  0
VERTEX
  8
LAYER_2
 10
119.984
 20
172.0531
  0
VERTEX
  8
LAYER_2
 10
119.7886
 20
171.8739
  0
VERTEX
  8
LAYER_2
 10
119.349
 20
172.5502
  0
SEQEND
  0
POLYLINE
  8
LAYER_2
 40
0.05
 41
0.05
 66
1
 10
0
 20
0
 30
0
  0
VERTEX
  8
LAYER_2
 10
120.4779
 20
171.5141
  0
VERTEX
  8
LAYER_2
 10
120.2821
 20
171.3345
  0
VERTEX
  8
LAYER_2
 10
120.9171
 20
170.8378
  0
SEQEND
  0
TEXT
  8
LAYER_2
 10
122.8103
 20
169.2175
 11
122.8103
 21
169.2175
 40
2.3272
 41
0.5
  1
30
  0
POLYLINE
  8
LAYER_2
 40
0.067
 41
0.067
 66
1
 10
0
 20
0
 30
0
  0
VERTEX
  8
LAYER_2
 10
56.1662
 20
207.7112
  0
VERTEX
  8
LAYER_2
 10
78.3855
 20
207.7112
  0
SEQEND
  0
POLYLINE
  8
LAYER_2
 40
0.067
 41
0.067
 66
1
 10
0
 20
0
 30
0
  0
VERTEX
  8
LAYER_2
 10
56.145
 20
177.4831
  0
VERTEX
  8
LAYER_2
 10
78.3855
 20
177.4831
  0
SEQEND
  0
POLYLINE
  8
LAYER_2
 40
0.067
 41
0.067
 66
1
 10
0
 20
0
 30
0
  0
VERTEX
  8
LAYER_2
 10
78.3711
 20
206.9157
  0
VERTEX
  8
LAYER_2
 10
78.3711
 20
191.8542
  0
SEQEND
  0
POLYLINE
  8
LAYER_2
 40
0.067
 41
0.067
 66
1
 10
0
 20
0
 30
0
  0
VERTEX
  8
LAYER_2
 10
78.3711
 20
178.2786
  0
VERTEX
  8
LAYER_2
 10
78.3711
 20
188.0082
  0
SEQEND
  0
POLYLINE
  8
LAYER_2
 40
0.05
 41
0.05
 66
1
 10
0
 20
0
 30
0
  0
VERTEX
  8
LAYER_2
 10
78.2384
 20
206.9157
  0
VERTEX
  8
LAYER_2
 10
78.5037
 20
206.9157
  0
VERTEX
  8
LAYER_2
 10
78.3711
 20
207.7112
  0
SEQEND
  0
POLYLINE
  8
LAYER_2
 40
0.05
 41
0.05
 66
1
 10
0
 20
0
 30
0
  0
VERTEX
  8
LAYER_2
 10
78.2384
 20
178.2782
  0
VERTEX
  8
LAYER_2
 10
78.3711
 20
177.4827
  0
VERTEX
  8
LAYER_2
 10
78.5037
 20
178.2782
  0
SEQEND
  0
TEXT
  8
LAYER_2
 10
78.743
 20
188.4881
 11
78.743
 21
188.4881
 40
2.3272
 41
0.5
 50
89.99999999
  1
380
  0
POLYLINE
  8
LAYER_2
 40
0.067
 41
0.067
 66
1
 10
0
 20
0
 30
0
  0
VERTEX
  8
LAYER_2
 10
56.1757
 20
177.4827
  0
VERTEX
  8
LAYER_2
 10
78.3855
 20
177.4827
  0
SEQEND
  0
POLYLINE
  8
LAYER_2
 40
0.067
 41
0.067
 66
1
 10
0
 20
0
 30
0
  0
VERTEX
  8
LAYER_2
 10
56.1757
 20
172.71
  0
VERTEX
  8
LAYER_2
 10
78.3855
 20
172.71
  0
SEQEND
  0
POLYLINE
  8
LAYER_2
 40
0.067
 41
0.067
 66
1
 10
0
 20
0
 30
0
  0
VERTEX
  8
LAYER_2
 10
78.3711
 20
176.6872
  0
VERTEX
  8
LAYER_2
 10
78.3711
 20
175.5103
  0
SEQEND
  0
POLYLINE
  8
LAYER_2
 40
0.067
 41
0.067
 66
1
 10
0
 20
0
 30
0
  0
VERTEX
  8
LAYER_2
 10
78.3711
 20
173.5055
  0
VERTEX
  8
LAYER_2
 10
78.3711
 20
174.1211
  0
SEQEND
  0
POLYLINE
  8
LAYER_2
 40
0.05
 41
0.05
 66
1
 10
0
 20
0
 30
0
  0
VERTEX
  8
LAYER_2
 10
78.2384
 20
176.6876
  0
VERTEX
  8
LAYER_2
 10
78.5037
 20
176.6876
  0
VERTEX
  8
LAYER_2
 10
78.3711
 20
177.4827
  0
SEQEND
  0
POLYLINE
  8
LAYER_2
 40
0.05
 41
0.05
 66
1
 10
0
 20
0
 30
0
  0
VERTEX
  8
LAYER_2
 10
78.2384
 20
173.5055
  0
VERTEX
  8
LAYER_2
 10
78.3711
 20
172.71
  0
VERTEX
  8
LAYER_2
 10
78.5037
 20
173.5055
  0
SEQEND
  0
TEXT
  8
LAYER_2
 10
77.323
 20
174.0623
 11
77.323
 21
174.0623
 40
2.3272
 41
0.5
  1
60
  0
POLYLINE
  8
LAYER_2
 40
0.067
 41
0.067
 66
1
 10
0
 20
0
 30
0
  0
VERTEX
  8
LAYER_2
 10
56.2791
 20
207.7105
  0
VERTEX
  8
LAYER_2
 10
78.3852
 20
207.7105
  0
SEQEND
  0
POLYLINE
  8
LAYER_2
 40
0.067
 41
0.067
 66
1
 10
0
 20
0
 30
0
  0
VERTEX
  8
LAYER_2
 10
56.2805
 20
215.666
  0
VERTEX
  8
LAYER_2
 10
78.3852
 20
215.666
  0
SEQEND
  0
POLYLINE
  8
LAYER_2
 40
0.067
 41
0.067
 66
1
 10
0
 20
0
 30
0
  0
VERTEX
  8
LAYER_2
 10
78.3711
 20
208.506
  0
VERTEX
  8
LAYER_2
 10
78.3711
 20
209.9351
  0
SEQEND
  0
POLYLINE
  8
LAYER_2
 40
0.067
 41
0.067
 66
1
 10
0
 20
0
 30
0
  0
VERTEX
  8
LAYER_2
 10
78.3711
 20
214.8701
  0
VERTEX
  8
LAYER_2
 10
78.3711
 20
213.441
  0
SEQEND
  0
POLYLINE
  8
LAYER_2
 40
0.05
 41
0.05
 66
1
 10
0
 20
0
 30
0
  0
VERTEX
  8
LAYER_2
 10
78.2384
 20
208.506
  0
VERTEX
  8
LAYER_2
 10
78.3711
 20
207.7105
  0
VERTEX
  8
LAYER_2
 10
78.5037
 20
208.506
  0
SEQEND
  0
POLYLINE
  8
LAYER_2
 40
0.05
 41
0.05
 66
1
 10
0
 20
0
 30
0
  0
VERTEX
  8
LAYER_2
 10
78.2384
 20
214.8701
  0
VERTEX
  8
LAYER_2
 10
78.5037
 20
214.8701
  0
VERTEX
  8
LAYER_2
 10
78.3711
 20
215.6656
  0
SEQEND
  0
TEXT
  8
LAYER_2
 10
78.7429
 20
210.0743
 11
78.7429
 21
210.0743
 40
2.3272
 41
0.5
 50
89.99999999
  1
100
  0
POLYLINE
  8
LAYER_2
 40
0.067
 41
0.067
 66
1
 10
0
 20
0
 30
0
  0
VERTEX
  8
LAYER_2
 10
101.4974
 20
210.0974
  0
VERTEX
  8
LAYER_2
 10
101.4974
 20
208.6263
  0
SEQEND
  0
POLYLINE
  8
LAYER_2
 40
0.067
 41
0.067
 66
1
 10
0
 20
0
 30
0
  0
VERTEX
  8
LAYER_2
 10
122.1801
 20
209.2712
  0
VERTEX
  8
LAYER_2
 10
122.1801
 20
208.6259
  0
SEQEND
  0
POLYLINE
  8
LAYER_2
 40
0.067
 41
0.067
 66
1
 10
0
 20
0
 30
0
  0
VERTEX
  8
LAYER_2
 10
102.2929
 20
208.6404
  0
VERTEX
  8
LAYER_2
 10
114.5403
 20
208.6404
  0
SEQEND
  0
POLYLINE
  8
LAYER_2
 40
0.067
 41
0.067
 66
1
 10
0
 20
0
 30
0
  0
VERTEX
  8
LAYER_2
 10
121.3845
 20
208.6404
  0
VERTEX
  8
LAYER_2
 10
118.1171
 20
208.6404
  0
SEQEND
  0
POLYLINE
  8
LAYER_2
 40
0.05
 41
0.05
 66
1
 10
0
 20
0
 30
0
  0
VERTEX
  8
LAYER_2
 10
101.4974
 20
208.6404
  0
VERTEX
  8
LAYER_2
 10
102.2929
 20
208.5078
  0
VERTEX
  8
LAYER_2
 10
102.2929
 20
208.7731
  0
SEQEND
  0
POLYLINE
  8
LAYER_2
 40
0.05
 41
0.05
 66
1
 10
0
 20
0
 30
0
  0
VERTEX
  8
LAYER_2
 10
121.3845
 20
208.5081
  0
VERTEX
  8
LAYER_2
 10
122.1801
 20
208.6408
  0
VERTEX
  8
LAYER_2
 10
121.3845
 20
208.7727
  0
SEQEND
  0
TEXT
  8
LAYER_2
 10
114.751
 20
207.9881
 11
114.751
 21
207.9881
 40
2.3272
 41
0.5
  1
260
  0
POLYLINE
  8
LAYER_2
 40
0.067
 41
0.067
 66
1
 10
0
 20
0
 30
0
  0
VERTEX
  8
LAYER_2
 10
35.2778
 20
217.5802
  0
VERTEX
  8
LAYER_2
 10
31.7053
 20
217.5802
  0
SEQEND
  0
POLYLINE
  8
LAYER_2
 40
0.067
 41
0.067
 66
1
 10
0
 20
0
 30
0
  0
VERTEX
  8
LAYER_2
 10
34.8598
 20
171.1966
  0
VERTEX
  8
LAYER_2
 10
31.7056
 20
171.1966
  0
SEQEND
  0
POLYLINE
  8
LAYER_2
 40
0.067
 41
0.067
 66
1
 10
0
 20
0
 30
0
  0
VERTEX
  8
LAYER_2
 10
31.7197
 20
216.7846
  0
VERTEX
  8
LAYER_2
 10
31.7197
 20
197.015
  0
SEQEND
  0
POLYLINE
  8
LAYER_2
 40
0.067
 41
0.067
 66
1
 10
0
 20
0
 30
0
  0
VERTEX
  8
LAYER_2
 10
31.7197
 20
171.9921
  0
VERTEX
  8
LAYER_2
 10
31.7197
 20
193.4456
  0
SEQEND
  0
POLYLINE
  8
LAYER_2
 40
0.05
 41
0.05
 66
1
 10
0
 20
0
 30
0
  0
VERTEX
  8
LAYER_2
 10
31.5871
 20
216.7843
  0
VERTEX
  8
LAYER_2
 10
31.8524
 20
216.7843
  0
VERTEX
  8
LAYER_2
 10
31.7201
 20
217.5798
  0
SEQEND
  0
POLYLINE
  8
LAYER_2
 40
0.05
 41
0.05
 66
1
 10
0
 20
0
 30
0
  0
VERTEX
  8
LAYER_2
 10
31.5871
 20
171.9917
  0
VERTEX
  8
LAYER_2
 10
31.7201
 20
171.1962
  0
VERTEX
  8
LAYER_2
 10
31.8524
 20
171.9917
  0
SEQEND
  0
TEXT
  8
LAYER_2
 10
32.0913
 20
193.6461
 11
32.0913
 21
193.6461
 40
2.3272
 41
0.5
 50
89.99999999
  1
585
  0
POLYLINE
  8
LAYER_2
 40
0.067
 41
0.067
 66
1
 10
0
 20
0
 30
0
  0
VERTEX
  8
LAYER_2
 10
105.8521
 20
196.2237
  0
VERTEX
  8
LAYER_2
 10
105.0569
 20
196.2237
  0
SEQEND
  0
POLYLINE
  8
LAYER_2
 40
0.067
 41
0.067
 66
1
 10
0
 20
0
 30
0
  0
VERTEX
  8
LAYER_2
 10
105.0566
 20
196.2237
  0
VERTEX
  8
LAYER_2
 10
103.3364
 20
194.4707
  0
SEQEND
  0
TEXT
  8
LAYER_2
 10
106.1002
 20
195.8591
 11
106.1002
 21
195.8591
 40
2.3272
 41
0.5
  1
46
  0
POLYLINE
  8
LAYER_2
 40
0.05
 41
0.05
 66
1
 10
0
 20
0
 30
0
  0
VERTEX
  8
LAYER_2
 10
103.2415
 20
194.5635
  0
VERTEX
  8
LAYER_2
 10
103.431
 20
194.3776
  0
VERTEX
  8
LAYER_2
 10
102.7794
 20
193.9031
  0
SEQEND
  0
POLYLINE
  8
LAYER_2
 40
0.067
 41
0.067
 66
1
 10
0
 20
0
 30
0
  0
VERTEX
  8
LAYER_2
 10
101.4904
 20
192.5971
  0
VERTEX
  8
LAYER_2
 10
101.5048
 20
192.5971
  0
SEQEND
  0
POLYLINE
  8
LAYER_2
 40
0.067
 41
0.067
 66
1
 10
0
 20
0
 30
0
  0
VERTEX
  8
LAYER_2
 10
101.4974
 20
192.5897
  0
VERTEX
  8
LAYER_2
 10
101.4974
 20
192.6042
  0
SEQEND
  0
POLYLINE
  8
LAYER_2
 40
0.067
 41
0.067
 66
1
 10
0
 20
0
 30
0
  0
VERTEX
  8
LAYER_2
 10
100.6948
 20
192.5971
  0
VERTEX
  8
LAYER_2
 10
98.4639
 20
192.5971
  0
SEQEND
  0
POLYLINE
  8
LAYER_2
 40
0.067
 41
0.067
 66
1
 10
0
 20
0
 30
0
  0
VERTEX
  8
LAYER_2
 10
100.7022
 20
210.8929
  0
VERTEX
  8
LAYER_2
 10
98.4639
 20
210.8929
  0
SEQEND
  0
POLYLINE
  8
LAYER_2
 40
0.067
 41
0.067
 66
1
 10
0
 20
0
 30
0
  0
VERTEX
  8
LAYER_2
 10
98.4783
 20
193.3927
  0
VERTEX
  8
LAYER_2
 10
98.4783
 20
200.7985
  0
SEQEND
  0
POLYLINE
  8
LAYER_2
 40
0.067
 41
0.067
 66
1
 10
0
 20
0
 30
0
  0
VERTEX
  8
LAYER_2
 10
98.4783
 20
210.0974
  0
VERTEX
  8
LAYER_2
 10
98.4783
 20
204.375
  0
SEQEND
  0
POLYLINE
  8
LAYER_2
 40
0.05
 41
0.05
 66
1
 10
0
 20
0
 30
0
  0
VERTEX
  8
LAYER_2
 10
98.3457
 20
193.3927
  0
VERTEX
  8
LAYER_2
 10
98.4783
 20
192.5971
  0
VERTEX
  8
LAYER_2
 10
98.611
 20
193.3927
  0
SEQEND
  0
POLYLINE
  8
LAYER_2
 40
0.05
 41
0.05
 66
1
 10
0
 20
0
 30
0
  0
VERTEX
  8
LAYER_2
 10
98.3457
 20
210.0974
  0
VERTEX
  8
LAYER_2
 10
98.611
 20
210.0974
  0
VERTEX
  8
LAYER_2
 10
98.4783
 20
210.8926
  0
SEQEND
  0
TEXT
  8
LAYER_2
 10
98.85
 20
201.0089
 11
98.85
 21
201.0089
 40
2.3272
 41
0.5
 50
89.99999999
  1
230
  0
POLYLINE
  8
LAYER_2
 40
0.067
 41
0.067
 66
1
 10
0
 20
0
 30
0
  0
VERTEX
  8
LAYER_2
 10
55.3604
 20
211.6884
  0
VERTEX
  8
LAYER_2
 10
55.3604
 20
212.6346
  0
SEQEND
  0
POLYLINE
  8
LAYER_2
 40
0.067
 41
0.067
 66
1
 10
0
 20
0
 30
0
  0
VERTEX
  8
LAYER_2
 10
55.3601
 20
211.6884
  0
VERTEX
  8
LAYER_2
 10
55.3601
 20
212.6345
  0
SEQEND
  0
POLYLINE
  8
LAYER_2
 40
0.067
 41
0.067
 66
1
 10
0
 20
0
 30
0
  0
VERTEX
  8
LAYER_2
 10
101.4974
 20
211.6884
  0
VERTEX
  8
LAYER_2
 10
101.4974
 20
212.6346
  0
SEQEND
  0
POLYLINE
  8
LAYER_2
 40
0.067
 41
0.067
 66
1
 10
0
 20
0
 30
0
  0
VERTEX
  8
LAYER_2
 10
101.4974
 20
211.6884
  0
VERTEX
  8
LAYER_2
 10
101.4974
 20
212.6345
  0
SEQEND
  0
POLYLINE
  8
LAYER_2
 40
0.067
 41
0.067
 66
1
 10
0
 20
0
 30
0
  0
VERTEX
  8
LAYER_2
 10
62.2682
 20
76.7619
  0
VERTEX
  8
LAYER_2
 10
63.088
 20
76.7619
  0
SEQEND
  0
POLYLINE
  8
LAYER_2
 40
0.067
 41
0.067
 66
1
 10
0
 20
0
 30
0
  0
VERTEX
  8
LAYER_2
 10
58.7365
 20
76.7619
  0
VERTEX
  8
LAYER_2
 10
46.7294
 20
76.7619
  0
SEQEND
  0
POLYLINE
  8
LAYER_2
 40
0.05
 41
0.05
 66
1
 10
0
 20
0
 30
0
  0
VERTEX
  8
LAYER_2
 10
46.6112
 20
77.5574
  0
VERTEX
  8
LAYER_2
 10
46.7438
 20
76.7619
  0
VERTEX
  8
LAYER_2
 10
46.8761
 20
77.5574
  0
SEQEND
  0
ENDSEC
  0
EOF
