  0
SECTION
  2
HEADER
  9
$ACADVER
  1
AC1009
  9
$LUNITS
 70
2
  9
$LUPREC
 70
4
  9
$LTSCALE
 40
1.0
  9
$EXTMIN
 10
-30.3177
 20
33.3285
 30
0
  9
$EXTMAX
 10
251.6749
 20
230.337
 30
0
  0
ENDSEC
  0
SECTION
  2
TABLES
  0
TABLE
  2
LTYPE
 70
256
  0
LTYPE
  2
AIGENLINE001
 70
64
  3
generate AI->DXF Converter
 72
65
 73
2
 40
0.3618
 49
0.1809
 49
-0.1809
  0
LTYPE
  2
AIGENLINE002
 70
64
  3
generate AI->DXF Converter
 72
65
 73
2
 40
0.0176
 49
0.0088
 49
-0.0088
  0
LTYPE
  2
AIGENLINE003
 70
64
  3
generate AI->DXF Converter
 72
65
 73
2
 40
0.4923
 49
0.2461
 49
-0.2461
  0
LTYPE
  2
AIGENLINE004
 70
64
  3
generate AI->DXF Converter
 72
65
 73
2
 40
1.1122
 49
0.5561
 49
-0.5561
  0
LTYPE
  2
AIGENLINE005
 70
64
  3
generate AI->DXF Converter
 72
65
 73
2
 40
0.3703
 49
0.1851
 49
-0.1851
  0
LTYPE
  2
AIGENLINE006
 70
64
  3
generate AI->DXF Converter
 72
65
 73
2
 40
0.3167
 49
0.1583
 49
-0.1583
  0
LTYPE
  2
AIGENLINE007
 70
64
  3
generate AI->DXF Converter
 72
65
 73
2
 40
0.8167
 49
0.4083
 49
-0.4083
  0
LTYPE
  2
AIGENLINE008
 70
64
  3
generate AI->DXF Converter
 72
65
 73
2
 40
0.567
 49
0.2835
 49
-0.2835
  0
LTYPE
  2
AIGENLINE009
 70
64
  3
generate AI->DXF Converter
 72
65
 73
2
 40
0.0099
 49
0.0049
 49
-0.0049
  0
LTYPE
  2
AIGENLINE010
 70
64
  3
generate AI->DXF Converter
 72
65
 73
2
 40
0.4436
 49
0.2218
 49
-0.2218
  0
LTYPE
  2
AIGENLINE011
 70
64
  3
generate AI->DXF Converter
 72
65
 73
2
 40
0.0106
 49
0.0053
 49
-0.0053
  0
LTYPE
  2
AIGENLINE012
 70
64
  3
generate AI->DXF Converter
 72
65
 73
2
 40
1.0889
 49
0.5444
 49
-0.5444
  0
LTYPE
  2
AIGENLINE013
 70
64
  3
generate AI->DXF Converter
 72
65
 73
2
 40
0.6305
 49
0.3152
 49
-0.3152
  0
LTYPE
  2
AIGENLINE014
 70
64
  3
generate AI->DXF Converter
 72
65
 73
2
 40
1.2596
 49
0.6298
 49
-0.6298
  0
LTYPE
  2
AIGENLINE015
 70
64
  3
generate AI->DXF Converter
 72
65
 73
2
 40
0.945
 49
0.4725
 49
-0.4725
  0
LTYPE
  2
AIGENLINE016
 70
64
  3
generate AI->DXF Converter
 72
65
 73
2
 40
0.2172
 49
0.1086
 49
-0.1086
  0
LTYPE
  2
AIGENLINE017
 70
64
  3
generate AI->DXF Converter
 72
65
 73
2
 40
0.2525
 49
0.1262
 49
-0.1262
  0
LTYPE
  2
AIGENLINE018
 70
64
  3
generate AI->DXF Converter
 72
65
 73
2
 40
1.0917
 49
0.5459
 49
-0.5459
  0
LTYPE
  2
AIGENLINE019
 70
64
  3
generate AI->DXF Converter
 72
65
 73
2
 40
0.9119
 49
0.4559
 49
-0.4559
  0
LTYPE
  2
AIGENLINE020
 70
64
  3
generate AI->DXF Converter
 72
65
 73
2
 40
1.122
 49
0.561
 49
-0.561
  0
LTYPE
  2
AIGENLINE021
 70
64
  3
generate AI->DXF Converter
 72
65
 73
2
 40
0.7328
 49
0.3664
 49
-0.3664
  0
LTYPE
  2
AIGENLINE022
 70
64
  3
generate AI->DXF Converter
 72
65
 73
2
 40
0.3801
 49
0.1901
 49
-0.1901
  0
LTYPE
  2
AIGENLINE023
 70
64
  3
generate AI->DXF Converter
 72
65
 73
2
 40
1.1192
 49
0.5596
 49
-0.5596
  0
LTYPE
  2
AIGENLINE024
 70
64
  3
generate AI->DXF Converter
 72
65
 73
2
 40
1.0741
 49
0.537
 49
-0.537
  0
LTYPE
  2
AIGENLINE025
 70
64
  3
generate AI->DXF Converter
 72
65
 73
2
 40
1.256
 49
0.628
 49
-0.628
  0
LTYPE
  2
AIGENLINE026
 70
64
  3
generate AI->DXF Converter
 72
65
 73
2
 40
0.4916
 49
0.2458
 49
-0.2458
  0
LTYPE
  2
AIGENLINE027
 70
64
  3
generate AI->DXF Converter
 72
65
 73
2
 40
1.103
 49
0.5515
 49
-0.5515
  0
LTYPE
  2
AIGENLINE028
 70
64
  3
generate AI->DXF Converter
 72
65
 73
2
 40
1.0452
 49
0.5226
 49
-0.5226
  0
LTYPE
  2
AIGENLINE029
 70
64
  3
generate AI->DXF Converter
 72
65
 73
2
 40
1.0628
 49
0.5314
 49
-0.5314
  0
LTYPE
  2
AIGENLINE030
 70
64
  3
generate AI->DXF Converter
 72
65
 73
2
 40
0.993
 49
0.4965
 49
-0.4965
  0
LTYPE
  2
AIGENLINE031
 70
64
  3
generate AI->DXF Converter
 72
65
 73
2
 40
0.5522
 49
0.2761
 49
-0.2761
  0
LTYPE
  2
AIGENLINE032
 70
64
  3
generate AI->DXF Converter
 72
65
 73
2
 40
0.5536
 49
0.2768
 49
-0.2768
  0
LTYPE
  2
AIGENLINE033
 70
64
  3
generate AI->DXF Converter
 72
65
 73
2
 40
1.3739
 49
0.6869
 49
-0.6869
  0
LTYPE
  2
AIGENLINE034
 70
64
  3
generate AI->DXF Converter
 72
65
 73
2
 40
0.5825
 49
0.2913
 49
-0.2913
  0
LTYPE
  2
AIGENLINE035
 70
64
  3
generate AI->DXF Converter
 72
65
 73
2
 40
0.9683
 49
0.4842
 49
-0.4842
  0
LTYPE
  2
AIGENLINE036
 70
64
  3
generate AI->DXF Converter
 72
65
 73
2
 40
1.1051
 49
0.5526
 49
-0.5526
  0
LTYPE
  2
AIGENLINE037
 70
64
  3
generate AI->DXF Converter
 72
65
 73
2
 40
1.1453
 49
0.5727
 49
-0.5727
  0
LTYPE
  2
AIGENLINE038
 70
64
  3
generate AI->DXF Converter
 72
65
 73
2
 40
1.2666
 49
0.6333
 49
-0.6333
  0
LTYPE
  2
AIGENLINE039
 70
64
  3
generate AI->DXF Converter
 72
65
 73
2
 40
1.2279
 49
0.6139
 49
-0.6139
  0
LTYPE
  2
AIGENLINE040
 70
64
  3
generate AI->DXF Converter
 72
65
 73
2
 40
0.9429
 49
0.4715
 49
-0.4715
  0
LTYPE
  2
AIGENLINE041
 70
64
  3
generate AI->DXF Converter
 72
65
 73
2
 40
1.0952
 49
0.5476
 49
-0.5476
  0
LTYPE
  2
AIGENLINE042
 70
64
  3
generate AI->DXF Converter
 72
65
 73
2
 40
1.1609
 49
0.5804
 49
-0.5804
  0
LTYPE
  2
AIGENLINE043
 70
64
  3
generate AI->DXF Converter
 72
65
 73
2
 40
1.1594
 49
0.5797
 49
-0.5797
  0
LTYPE
  2
AIGENLINE044
 70
64
  3
generate AI->DXF Converter
 72
65
 73
2
 40
0.493
 49
0.2465
 49
-0.2465
  0
LTYPE
  2
AIGENLINE045
 70
64
  3
generate AI->DXF Converter
 72
65
 73
2
 40
0.5515
 49
0.2758
 49
-0.2758
  0
LTYPE
  2
AIGENLINE046
 70
64
  3
generate AI->DXF Converter
 72
65
 73
2
 40
1.127
 49
0.5635
 49
-0.5635
  0
LTYPE
  2
AIGENLINE047
 70
64
  3
generate AI->DXF Converter
 72
65
 73
2
 40
1.0896
 49
0.5448
 49
-0.5448
  0
LTYPE
  2
AIGENLINE048
 70
64
  3
generate AI->DXF Converter
 72
65
 73
2
 40
0.7793
 49
0.3896
 49
-0.3896
  0
LTYPE
  2
AIGENLINE049
 70
64
  3
generate AI->DXF Converter
 72
65
 73
2
 40
0.9126
 49
0.4563
 49
-0.4563
  0
LTYPE
  2
AIGENLINE050
 70
64
  3
generate AI->DXF Converter
 72
65
 73
2
 40
1.0346
 49
0.5173
 49
-0.5173
  0
LTYPE
  2
AIGENLINE051
 70
64
  3
generate AI->DXF Converter
 72
65
 73
2
 40
1.0706
 49
0.5353
 49
-0.5353
  0
LTYPE
  2
AIGENLINE052
 70
64
  3
generate AI->DXF Converter
 72
65
 73
2
 40
1.0431
 49
0.5215
 49
-0.5215
  0
LTYPE
  2
AIGENLINE053
 70
64
  3
generate AI->DXF Converter
 72
65
 73
2
 40
1.0981
 49
0.549
 49
-0.549
  0
LTYPE
  2
AIGENLINE054
 70
64
  3
generate AI->DXF Converter
 72
65
 73
2
 40
1.0636
 49
0.5318
 49
-0.5318
  0
LTYPE
  2
AIGENLINE055
 70
64
  3
generate AI->DXF Converter
 72
65
 73
2
 40
1.3746
 49
0.6873
 49
-0.6873
  0
LTYPE
  2
AIGENLINE056
 70
64
  3
generate AI->DXF Converter
 72
65
 73
2
 40
1.1086
 49
0.5543
 49
-0.5543
  0
LTYPE
  2
AIGENLINE057
 70
64
  3
generate AI->DXF Converter
 72
65
 73
2
 40
1.1644
 49
0.5822
 49
-0.5822
  0
LTYPE
  2
AIGENLINE058
 70
64
  3
generate AI->DXF Converter
 72
65
 73
2
 40
1.1482
 49
0.5741
 49
-0.5741
  0
ENDTAB
  0
TABLE
  2
LAYER
 70
2
  0
LAYER
  2
LAYER_1
 70
64
 62
7
  6
CONTINUOUS
  0
LAYER
  2
LAYER_2
 70
64
 62
7
  6
CONTINUOUS
  0
ENDTAB
  0
TABLE
  2
STYLE
 70
6
  0
STYLE
  2
STANDARD
 70
0
 40
0
 50
0
 71
0
 41
0
 42
0
  3
TXT
  4
BIGFONT
  0
ENDTAB
  0
ENDSEC
  0
SECTION
  2
BLOCKS
  0
BLOCK
  8
LAYER_2
  2
AIGNBL02040009
 70
64
 10
0
 20
0
 30
0
  3
AIGNBL02040009
  0
POLYLINE
  8
LAYER_2
 40
0.05
 41
0.05
 66
1
 10
0
 20
0
 30
0
 70
1
  0
VERTEX
  8
LAYER_2
 10
106.4059
 20
39.1418
  0
VERTEX
  8
LAYER_2
 10
105.917
 20
37.9567
  0
VERTEX
  8
LAYER_2
 10
105.289
 20
37.9567
  0
VERTEX
  8
LAYER_2
 10
106.8885
 20
41.7225
  0
VERTEX
  8
LAYER_2
 10
107.6217
 20
41.7225
  0
VERTEX
  8
LAYER_2
 10
109.2281
 20
37.9567
  0
VERTEX
  8
LAYER_2
 10
108.578
 20
37.9567
  0
VERTEX
  8
LAYER_2
 10
108.0754
 20
39.1418
  0
SEQEND
  0
POLYLINE
  8
LAYER_2
 40
0.05
 41
0.05
 66
1
 10
0
 20
0
 30
0
 70
1
  0
VERTEX
  8
LAYER_2
 10
107.9496
 20
39.5207
  0
VERTEX
  8
LAYER_2
 10
107.4887
 20
40.6056
  0
VERTEX
  8
LAYER_2
 10
107.2441
 20
41.2926
  0
VERTEX
  8
LAYER_2
 10
107.2303
 20
41.2926
  0
VERTEX
  8
LAYER_2
 10
106.9926
 20
40.6101
  0
VERTEX
  8
LAYER_2
 10
106.532
 20
39.5207
  0
SEQEND
  0
ENDBLK
  0
BLOCK
  8
LAYER_2
  2
AIGNBL0204000A
 70
64
 10
0
 20
0
 30
0
  3
AIGNBL0204000A
  0
POLYLINE
  8
LAYER_2
 40
0.05
 41
0.05
 66
1
 10
0
 20
0
 30
0
 70
1
  0
VERTEX
  8
LAYER_2
 10
113.5934
 20
37.4034
 42
-0.01559967508
  0
VERTEX
  8
LAYER_2
 10
111.7913
 20
37.8395
  0
VERTEX
  8
LAYER_2
 10
111.5046
 20
37.895
 42
-0.08356944747
  0
VERTEX
  8
LAYER_2
 10
110.6406
 20
38.0612
 42
-0.0975043791
  0
VERTEX
  8
LAYER_2
 10
109.9794
 20
38.4671
 42
-0.2129077902
  0
VERTEX
  8
LAYER_2
 10
109.4307
 20
39.7998
 42
-0.0968494152
  0
VERTEX
  8
LAYER_2
 10
109.5753
 20
40.5732
 42
-0.2046438079
  0
VERTEX
  8
LAYER_2
 10
110.6228
 20
41.5974
 42
-0.09824750395
  0
VERTEX
  8
LAYER_2
 10
111.6238
 20
41.7838
 42
-0.08554009695
  0
VERTEX
  8
LAYER_2
 10
112.4924
 20
41.6425
 42
-0.1004336034
  0
VERTEX
  8
LAYER_2
 10
113.1575
 20
41.2483
 42
-0.2141019095
  0
VERTEX
  8
LAYER_2
 10
113.7329
 20
39.8784
 42
-0.09539620281
  0
VERTEX
  8
LAYER_2
 10
113.594
 20
39.1106
 42
-0.2143310008
  0
VERTEX
  8
LAYER_2
 10
112.5712
 20
38.1321
 42
-0.02339132607
  0
VERTEX
  8
LAYER_2
 10
112.3921
 20
38.0738
  0
VERTEX
  8
LAYER_2
 10
112.3921
 20
38.0514
 42
0.01711831943
  0
VERTEX
  8
LAYER_2
 10
113.7684
 20
37.8113
  0
SEQEND
  0
POLYLINE
  8
LAYER_2
 40
0.05
 41
0.05
 66
1
 10
0
 20
0
 30
0
 70
1
  0
VERTEX
  8
LAYER_2
 10
113.0907
 20
39.857
 42
0.1071543648
  0
VERTEX
  8
LAYER_2
 10
112.9394
 20
40.5618
 42
0.2976507644
  0
VERTEX
  8
LAYER_2
 10
111.6024
 20
41.3873
 42
0.1072363269
  0
VERTEX
  8
LAYER_2
 10
110.9126
 20
41.2478
 42
0.2386054241
  0
VERTEX
  8
LAYER_2
 10
110.1257
 20
40.2422
 42
0.05752774583
  0
VERTEX
  8
LAYER_2
 10
110.0801
 20
39.8122
 42
0.218096749
  0
VERTEX
  8
LAYER_2
 10
110.6107
 20
38.6168
 42
0.1772796408
  0
VERTEX
  8
LAYER_2
 10
111.5745
 20
38.2912
 42
0.1075185771
  0
VERTEX
  8
LAYER_2
 10
112.2559
 20
38.4302
 42
0.2370926009
  0
VERTEX
  8
LAYER_2
 10
113.043
 20
39.4298
 42
0.05601310134
  0
SEQEND
  0
ENDBLK
  0
BLOCK
  8
LAYER_2
  2
AIGNBL0204000B
 70
64
 10
0
 20
0
 30
0
  3
AIGNBL0204000B
  0
POLYLINE
  8
LAYER_2
 40
0.05
 41
0.05
 66
1
 10
0
 20
0
 30
0
 70
1
  0
VERTEX
  8
LAYER_2
 10
115.0603
 20
41.7225
  0
VERTEX
  8
LAYER_2
 10
115.0603
 20
39.4932
 42
0.114533087
  0
VERTEX
  8
LAYER_2
 10
115.1942
 20
38.8274
 42
0.1464774934
  0
VERTEX
  8
LAYER_2
 10
115.5446
 20
38.4422
 42
0.1362552487
  0
VERTEX
  8
LAYER_2
 10
116.1569
 20
38.2912
 42
0.1219300979
  0
VERTEX
  8
LAYER_2
 10
116.78
 20
38.4259
 42
0.1503016186
  0
VERTEX
  8
LAYER_2
 10
117.1518
 20
38.7949
 42
0.1256239276
  0
VERTEX
  8
LAYER_2
 10
117.3024
 20
39.4932
  0
VERTEX
  8
LAYER_2
 10
117.3024
 20
41.7225
  0
VERTEX
  8
LAYER_2
 10
117.917
 20
41.7225
  0
VERTEX
  8
LAYER_2
 10
117.917
 20
39.5266
 42
-0.09997505101
  0
VERTEX
  8
LAYER_2
 10
117.7821
 20
38.7839
 42
-0.1214984503
  0
VERTEX
  8
LAYER_2
 10
117.4088
 20
38.2772
 42
-0.1106235892
  0
VERTEX
  8
LAYER_2
 10
116.7834
 20
37.9706
 42
-0.06128954947
  0
VERTEX
  8
LAYER_2
 10
116.1359
 20
37.895
 42
-0.09418225932
  0
VERTEX
  8
LAYER_2
 10
115.3167
 20
38.0331
 42
-0.2431666463
  0
VERTEX
  8
LAYER_2
 10
114.5132
 20
38.9438
 42
-0.06320556818
  0
VERTEX
  8
LAYER_2
 10
114.4457
 20
39.5045
  0
VERTEX
  8
LAYER_2
 10
114.4457
 20
41.7225
  0
SEQEND
  0
ENDBLK
  0
BLOCK
  8
LAYER_2
  2
AIGNBL0204000C
 70
64
 10
0
 20
0
 30
0
  3
AIGNBL0204000C
  0
POLYLINE
  8
LAYER_2
 40
0.05
 41
0.05
 66
1
 10
0
 20
0
 30
0
 70
1
  0
VERTEX
  8
LAYER_2
 10
119.6633
 20
39.1418
  0
VERTEX
  8
LAYER_2
 10
119.1741
 20
37.9567
  0
VERTEX
  8
LAYER_2
 10
118.5461
 20
37.9567
  0
VERTEX
  8
LAYER_2
 10
120.1453
 20
41.7225
  0
VERTEX
  8
LAYER_2
 10
120.8784
 20
41.7225
  0
VERTEX
  8
LAYER_2
 10
122.4848
 20
37.9567
  0
VERTEX
  8
LAYER_2
 10
121.8354
 20
37.9567
  0
VERTEX
  8
LAYER_2
 10
121.3328
 20
39.1418
  0
SEQEND
  0
POLYLINE
  8
LAYER_2
 40
0.05
 41
0.05
 66
1
 10
0
 20
0
 30
0
 70
1
  0
VERTEX
  8
LAYER_2
 10
121.2067
 20
39.5207
  0
VERTEX
  8
LAYER_2
 10
120.7454
 20
40.6056
  0
VERTEX
  8
LAYER_2
 10
120.5008
 20
41.2926
  0
VERTEX
  8
LAYER_2
 10
120.487
 20
41.2926
  0
VERTEX
  8
LAYER_2
 10
120.2497
 20
40.6101
  0
VERTEX
  8
LAYER_2
 10
119.7887
 20
39.5207
  0
SEQEND
  0
ENDBLK
  0
BLOCK
  8
LAYER_2
  2
AIGNBL0204000D
 70
64
 10
0
 20
0
 30
0
  3
AIGNBL0204000D
  0
POLYLINE
  8
LAYER_2
 40
0.05
 41
0.05
 66
1
 10
0
 20
0
 30
0
 70
1
  0
VERTEX
  8
LAYER_2
 10
123.5256
 20
41.6777
 42
-0.03245981043
  0
VERTEX
  8
LAYER_2
 10
124.6924
 20
41.7508
 42
-0.08083972759
  0
VERTEX
  8
LAYER_2
 10
125.6489
 20
41.619
 42
-0.0781591286
  0
VERTEX
  8
LAYER_2
 10
126.0123
 20
41.4379
 42
-0.2484156816
  0
VERTEX
  8
LAYER_2
 10
126.4239
 20
40.6497
 42
-0.226147
  0
VERTEX
  8
LAYER_2
 10
126.0608
 20
39.8456
 42
-0.1097236176
  0
VERTEX
  8
LAYER_2
 10
125.4326
 20
39.5323
 42
-0.06566039781
  0
VERTEX
  8
LAYER_2
 10
124.6222
 20
39.4319
 42
-0.06233087798
  0
VERTEX
  8
LAYER_2
 10
124.1336
 20
39.4653
  0
VERTEX
  8
LAYER_2
 10
124.1336
 20
37.9567
  0
VERTEX
  8
LAYER_2
 10
123.5256
 20
37.9567
  0
SEQEND
  0
POLYLINE
  8
LAYER_2
 40
0.05
 41
0.05
 66
1
 10
0
 20
0
 30
0
 70
1
  0
VERTEX
  8
LAYER_2
 10
124.1336
 20
39.8622
 42
0.04202445636
  0
VERTEX
  8
LAYER_2
 10
124.636
 20
39.8229
 42
0.1032184983
  0
VERTEX
  8
LAYER_2
 10
125.3551
 20
39.9502
 42
0.1555899564
  0
VERTEX
  8
LAYER_2
 10
125.7199
 20
40.2546
 42
0.1352638191
  0
VERTEX
  8
LAYER_2
 10
125.8169
 20
40.6273
 42
0.1736824711
  0
VERTEX
  8
LAYER_2
 10
125.6821
 20
41.0346
 42
0.151721714
  0
VERTEX
  8
LAYER_2
 10
125.261
 20
41.2941
 42
0.06880216409
  0
VERTEX
  8
LAYER_2
 10
124.7066
 20
41.3649
 42
0.06337515897
  0
VERTEX
  8
LAYER_2
 10
124.1336
 20
41.3257
  0
SEQEND
  0
ENDBLK
  0
BLOCK
  8
LAYER_2
  2
AIGNBL0204000E
 70
64
 10
0
 20
0
 30
0
  3
AIGNBL0204000E
  0
POLYLINE
  8
LAYER_2
 40
0.05
 41
0.05
 66
1
 10
0
 20
0
 30
0
 70
1
  0
VERTEX
  8
LAYER_2
 10
127.976
 20
41.4207
 42
-0.276556311
  0
VERTEX
  8
LAYER_2
 10
127.8364
 20
41.1806
 42
-0.1265551601
  0
VERTEX
  8
LAYER_2
 10
127.5843
 20
41.1189
 42
-0.22367962
  0
VERTEX
  8
LAYER_2
 10
127.274
 20
41.2513
 42
-0.170907845
  0
VERTEX
  8
LAYER_2
 10
127.2139
 20
41.4207
 42
-0.2643879937
  0
VERTEX
  8
LAYER_2
 10
127.3633
 20
41.6678
 42
-0.1290073663
  0
VERTEX
  8
LAYER_2
 10
127.598
 20
41.7277
 42
-0.2252702025
  0
VERTEX
  8
LAYER_2
 10
127.9149
 20
41.597
 42
-0.1691869544
  0
SEQEND
  0
POLYLINE
  8
LAYER_2
 40
0.05
 41
0.05
 66
1
 10
0
 20
0
 30
0
 70
1
  0
VERTEX
  8
LAYER_2
 10
127.2904
 20
37.9567
  0
VERTEX
  8
LAYER_2
 10
127.2904
 20
40.6607
  0
VERTEX
  8
LAYER_2
 10
127.905
 20
40.6607
  0
VERTEX
  8
LAYER_2
 10
127.905
 20
37.9567
  0
SEQEND
  0
ENDBLK
  0
BLOCK
  8
LAYER_2
  2
AIGNBL0204000F
 70
64
 10
0
 20
0
 30
0
  3
AIGNBL0204000F
  0
POLYLINE
  8
LAYER_2
 40
0.05
 41
0.05
 66
1
 10
0
 20
0
 30
0
 70
1
  0
VERTEX
  8
LAYER_2
 10
129.7767
 20
39.1418
  0
VERTEX
  8
LAYER_2
 10
129.2885
 20
37.9567
  0
VERTEX
  8
LAYER_2
 10
128.6595
 20
37.9567
  0
VERTEX
  8
LAYER_2
 10
130.259
 20
41.7225
  0
VERTEX
  8
LAYER_2
 10
130.9928
 20
41.7225
  0
VERTEX
  8
LAYER_2
 10
132.5993
 20
37.9567
  0
VERTEX
  8
LAYER_2
 10
131.9495
 20
37.9567
  0
VERTEX
  8
LAYER_2
 10
131.4469
 20
39.1418
  0
SEQEND
  0
POLYLINE
  8
LAYER_2
 40
0.05
 41
0.05
 66
1
 10
0
 20
0
 30
0
 70
1
  0
VERTEX
  8
LAYER_2
 10
131.3208
 20
39.5207
  0
VERTEX
  8
LAYER_2
 10
130.8598
 20
40.6056
  0
VERTEX
  8
LAYER_2
 10
130.6159
 20
41.2926
  0
VERTEX
  8
LAYER_2
 10
130.6011
 20
41.2926
  0
VERTEX
  8
LAYER_2
 10
130.3641
 20
40.6101
  0
VERTEX
  8
LAYER_2
 10
129.9031
 20
39.5207
  0
SEQEND
  0
ENDBLK
  0
BLOCK
  8
LAYER_2
  2
AIGNBL02030008
 70
64
 10
0
 20
0
 30
0
  3
AIGNBL02030008
  0
INSERT
  8
LAYER_2
  2
AIGNBL02040009
 10
0
 20
0
 30
0
  0
INSERT
  8
LAYER_2
  2
AIGNBL0204000A
 10
0
 20
0
 30
0
  0
INSERT
  8
LAYER_2
  2
AIGNBL0204000B
 10
0
 20
0
 30
0
  0
INSERT
  8
LAYER_2
  2
AIGNBL0204000C
 10
0
 20
0
 30
0
  0
INSERT
  8
LAYER_2
  2
AIGNBL0204000D
 10
0
 20
0
 30
0
  0
INSERT
  8
LAYER_2
  2
AIGNBL0204000E
 10
0
 20
0
 30
0
  0
INSERT
  8
LAYER_2
  2
AIGNBL0204000F
 10
0
 20
0
 30
0
  0
ENDBLK
  0
BLOCK
  8
LAYER_2
  2
AIGNBL02030011
 70
64
 10
0
 20
0
 30
0
  3
AIGNBL02030011
  0
POLYLINE
  8
LAYER_2
 40
0.05
 41
0.05
 66
1
 10
0
 20
0
 30
0
 70
1
  0
VERTEX
  8
LAYER_2
 10
105.3989
 20
36.0574
  0
VERTEX
  8
LAYER_2
 10
105.9521
 20
36.0574
  0
VERTEX
  8
LAYER_2
 10
105.9521
 20
35.9637
  0
VERTEX
  8
LAYER_2
 10
105.2938
 20
35.9637
  0
VERTEX
  8
LAYER_2
 10
105.2938
 20
36.9969
  0
VERTEX
  8
LAYER_2
 10
105.9346
 20
36.9969
  0
VERTEX
  8
LAYER_2
 10
105.9346
 20
36.9035
  0
VERTEX
  8
LAYER_2
 10
105.3989
 20
36.9035
  0
VERTEX
  8
LAYER_2
 10
105.3989
 20
36.549
  0
VERTEX
  8
LAYER_2
 10
105.8994
 20
36.549
  0
VERTEX
  8
LAYER_2
 10
105.8994
 20
36.4557
  0
VERTEX
  8
LAYER_2
 10
105.3989
 20
36.4557
  0
SEQEND
  0
ENDBLK
  0
BLOCK
  8
LAYER_2
  2
AIGNBL02030012
 70
64
 10
0
 20
0
 30
0
  3
AIGNBL02030012
  0
POLYLINE
  8
LAYER_2
 40
0.05
 41
0.05
 66
1
 10
0
 20
0
 30
0
 70
1
  0
VERTEX
  8
LAYER_2
 10
107.0918
 20
36.117
  0
VERTEX
  8
LAYER_2
 10
107.0945
 20
36.117
  0
VERTEX
  8
LAYER_2
 10
107.0945
 20
36.9969
  0
VERTEX
  8
LAYER_2
 10
107.1996
 20
36.9969
  0
VERTEX
  8
LAYER_2
 10
107.1996
 20
35.9637
  0
VERTEX
  8
LAYER_2
 10
107.0687
 20
35.9637
  0
VERTEX
  8
LAYER_2
 10
106.4676
 20
36.8525
  0
VERTEX
  8
LAYER_2
 10
106.4641
 20
36.8525
  0
VERTEX
  8
LAYER_2
 10
106.4641
 20
35.9637
  0
VERTEX
  8
LAYER_2
 10
106.3594
 20
35.9637
  0
VERTEX
  8
LAYER_2
 10
106.3594
 20
36.9969
  0
VERTEX
  8
LAYER_2
 10
106.4906
 20
36.9969
  0
SEQEND
  0
ENDBLK
  0
BLOCK
  8
LAYER_2
  2
AIGNBL02030013
 70
64
 10
0
 20
0
 30
0
  3
AIGNBL02030013
  0
POLYLINE
  8
LAYER_2
 40
0.05
 41
0.05
 66
1
 10
0
 20
0
 30
0
 70
1
  0
VERTEX
  8
LAYER_2
 10
107.6726
 20
36.1756
  0
VERTEX
  8
LAYER_2
 10
107.7271
 20
36.0725
 42
0.1804993832
  0
VERTEX
  8
LAYER_2
 10
107.8404
 20
36.0309
  0
VERTEX
  8
LAYER_2
 10
107.9296
 20
36.0505
  0
VERTEX
  8
LAYER_2
 10
107.9858
 20
36.1039
  0
VERTEX
  8
LAYER_2
 10
108.0147
 20
36.1804
  0
VERTEX
  8
LAYER_2
 10
108.023
 20
36.27
  0
VERTEX
  8
LAYER_2
 10
108.023
 20
36.9969
  0
VERTEX
  8
LAYER_2
 10
108.1281
 20
36.9969
  0
VERTEX
  8
LAYER_2
 10
108.1281
 20
36.2614
  0
VERTEX
  8
LAYER_2
 10
108.1167
 20
36.1535
  0
VERTEX
  8
LAYER_2
 10
108.0754
 20
36.0485
  0
VERTEX
  8
LAYER_2
 10
107.9906
 20
35.9689
  0
VERTEX
  8
LAYER_2
 10
107.8518
 20
35.9375
 42
-0.1842921564
  0
VERTEX
  8
LAYER_2
 10
107.6671
 20
35.9974
 42
-0.176191571
  0
VERTEX
  8
LAYER_2
 10
107.5748
 20
36.149
  0
SEQEND
  0
ENDBLK
  0
BLOCK
  8
LAYER_2
  2
AIGNBL02030014
 70
64
 10
0
 20
0
 30
0
  3
AIGNBL02030014
  0
POLYLINE
  8
LAYER_2
 40
0.05
 41
0.05
 66
1
 10
0
 20
0
 30
0
 70
1
  0
VERTEX
  8
LAYER_2
 10
109.6164
 20
36.4805
 42
-0.103587114
  0
VERTEX
  8
LAYER_2
 10
109.5754
 20
36.2631
 42
-0.1000549391
  0
VERTEX
  8
LAYER_2
 10
109.4627
 20
36.0915
  0
VERTEX
  8
LAYER_2
 10
109.2918
 20
35.9785
 42
-0.09506675375
  0
VERTEX
  8
LAYER_2
 10
109.0779
 20
35.9375
 42
-0.1010765979
  0
VERTEX
  8
LAYER_2
 10
108.8643
 20
35.9785
 42
-0.1005668876
  0
VERTEX
  8
LAYER_2
 10
108.6934
 20
36.0915
 42
-0.09506076213
  0
VERTEX
  8
LAYER_2
 10
108.5801
 20
36.2631
 42
-0.0931359716
  0
VERTEX
  8
LAYER_2
 10
108.5394
 20
36.4805
 42
-0.1022959507
  0
VERTEX
  8
LAYER_2
 10
108.5801
 20
36.6978
 42
-0.1008913794
  0
VERTEX
  8
LAYER_2
 10
108.6934
 20
36.8694
 42
-0.09625543395
  0
VERTEX
  8
LAYER_2
 10
108.8643
 20
36.9824
 42
-0.0952064105
  0
VERTEX
  8
LAYER_2
 10
109.0779
 20
37.0234
 42
-0.101175466
  0
VERTEX
  8
LAYER_2
 10
109.2918
 20
36.9824
 42
-0.09853409661
  0
VERTEX
  8
LAYER_2
 10
109.4627
 20
36.8694
 42
-0.09576191851
  0
VERTEX
  8
LAYER_2
 10
109.5754
 20
36.6978
 42
-0.09397271416
  0
SEQEND
  0
POLYLINE
  8
LAYER_2
 40
0.05
 41
0.05
 66
1
 10
0
 20
0
 30
0
 70
1
  0
VERTEX
  8
LAYER_2
 10
109.5054
 20
36.4798
  0
VERTEX
  8
LAYER_2
 10
109.4765
 20
36.6517
  0
VERTEX
  8
LAYER_2
 10
109.3917
 20
36.795
  0
VERTEX
  8
LAYER_2
 10
109.2567
 20
36.8932
  0
VERTEX
  8
LAYER_2
 10
109.0779
 20
36.93
  0
VERTEX
  8
LAYER_2
 10
108.8991
 20
36.8932
  0
VERTEX
  8
LAYER_2
 10
108.7644
 20
36.795
  0
VERTEX
  8
LAYER_2
 10
108.6796
 20
36.6517
  0
VERTEX
  8
LAYER_2
 10
108.6504
 20
36.4798
  0
VERTEX
  8
LAYER_2
 10
108.6796
 20
36.3079
  0
VERTEX
  8
LAYER_2
 10
108.7644
 20
36.1649
  0
VERTEX
  8
LAYER_2
 10
108.8991
 20
36.0674
 42
0.1008257054
  0
VERTEX
  8
LAYER_2
 10
109.0779
 20
36.0309
  0
VERTEX
  8
LAYER_2
 10
109.2567
 20
36.0674
  0
VERTEX
  8
LAYER_2
 10
109.3917
 20
36.1649
  0
VERTEX
  8
LAYER_2
 10
109.4765
 20
36.3079
  0
SEQEND
  0
ENDBLK
  0
BLOCK
  8
LAYER_2
  2
AIGNBL02030015
 70
64
 10
0
 20
0
 30
0
  3
AIGNBL02030015
  0
POLYLINE
  8
LAYER_2
 40
0.05
 41
0.05
 66
1
 10
0
 20
0
 30
0
 70
1
  0
VERTEX
  8
LAYER_2
 10
110.3911
 20
35.9637
  0
VERTEX
  8
LAYER_2
 10
110.2864
 20
35.9637
  0
VERTEX
  8
LAYER_2
 10
110.2864
 20
36.4091
  0
VERTEX
  8
LAYER_2
 10
109.8996
 20
36.9969
  0
VERTEX
  8
LAYER_2
 10
110.0308
 20
36.9969
  0
VERTEX
  8
LAYER_2
 10
110.3419
 20
36.4967
  0
VERTEX
  8
LAYER_2
 10
110.6554
 20
36.9969
  0
VERTEX
  8
LAYER_2
 10
110.7777
 20
36.9969
  0
VERTEX
  8
LAYER_2
 10
110.3911
 20
36.4091
  0
SEQEND
  0
ENDBLK
  0
BLOCK
  8
LAYER_2
  2
AIGNBL02030016
 70
64
 10
0
 20
0
 30
0
  3
AIGNBL02030016
  0
POLYLINE
  8
LAYER_2
 40
0.05
 41
0.05
 66
1
 10
0
 20
0
 30
0
 70
1
  0
VERTEX
  8
LAYER_2
 10
111.6827
 20
36.9969
  0
VERTEX
  8
LAYER_2
 10
111.9904
 20
36.9969
  0
VERTEX
  8
LAYER_2
 10
112.1089
 20
36.9845
  0
VERTEX
  8
LAYER_2
 10
112.2157
 20
36.9421
  0
VERTEX
  8
LAYER_2
 10
112.2935
 20
36.8611
  0
VERTEX
  8
LAYER_2
 10
112.3232
 20
36.733
 42
-0.1787887146
  0
VERTEX
  8
LAYER_2
 10
112.2732
 20
36.5907
 42
-0.1642670326
  0
VERTEX
  8
LAYER_2
 10
112.1399
 20
36.5111
  0
VERTEX
  8
LAYER_2
 10
112.1399
 20
36.5084
 42
-0.1734673322
  0
VERTEX
  8
LAYER_2
 10
112.3066
 20
36.4302
 42
-0.1923000161
  0
VERTEX
  8
LAYER_2
 10
112.3728
 20
36.2496
  0
VERTEX
  8
LAYER_2
 10
112.3456
 20
36.1325
  0
VERTEX
  8
LAYER_2
 10
112.2694
 20
36.0419
  0
VERTEX
  8
LAYER_2
 10
112.1485
 20
35.9844
  0
VERTEX
  8
LAYER_2
 10
111.9887
 20
35.9637
  0
VERTEX
  8
LAYER_2
 10
111.6827
 20
35.9637
  0
SEQEND
  0
POLYLINE
  8
LAYER_2
 40
0.05
 41
0.05
 66
1
 10
0
 20
0
 30
0
 70
1
  0
VERTEX
  8
LAYER_2
 10
111.7878
 20
36.5445
  0
VERTEX
  8
LAYER_2
 10
111.9993
 20
36.5445
  0
VERTEX
  8
LAYER_2
 10
112.0762
 20
36.5535
  0
VERTEX
  8
LAYER_2
 10
112.1464
 20
36.5831
  0
VERTEX
  8
LAYER_2
 10
112.1985
 20
36.6396
  0
VERTEX
  8
LAYER_2
 10
112.2181
 20
36.7258
  0
VERTEX
  8
LAYER_2
 10
112.1985
 20
36.8095
  0
VERTEX
  8
LAYER_2
 10
112.1454
 20
36.8656
  0
VERTEX
  8
LAYER_2
 10
112.0665
 20
36.897
  0
VERTEX
  8
LAYER_2
 10
111.97
 20
36.9066
  0
VERTEX
  8
LAYER_2
 10
111.7878
 20
36.9066
  0
SEQEND
  0
POLYLINE
  8
LAYER_2
 40
0.05
 41
0.05
 66
1
 10
0
 20
0
 30
0
 70
1
  0
VERTEX
  8
LAYER_2
 10
111.7878
 20
36.0543
  0
VERTEX
  8
LAYER_2
 10
111.9835
 20
36.0543
  0
VERTEX
  8
LAYER_2
 10
112.092
 20
36.0653
  0
VERTEX
  8
LAYER_2
 10
112.1826
 20
36.1001
  0
VERTEX
  8
LAYER_2
 10
112.2443
 20
36.1632
  0
VERTEX
  8
LAYER_2
 10
112.2677
 20
36.2559
 42
0.2554060681
  0
VERTEX
  8
LAYER_2
 10
112.1985
 20
36.4081
 42
0.1380642909
  0
VERTEX
  8
LAYER_2
 10
112.0024
 20
36.4584
  0
VERTEX
  8
LAYER_2
 10
111.7878
 20
36.4584
  0
SEQEND
  0
ENDBLK
  0
BLOCK
  8
LAYER_2
  2
AIGNBL02030017
 70
64
 10
0
 20
0
 30
0
  3
AIGNBL02030017
  0
POLYLINE
  8
LAYER_2
 40
0.05
 41
0.05
 66
1
 10
0
 20
0
 30
0
 70
1
  0
VERTEX
  8
LAYER_2
 10
112.8048
 20
35.9637
  0
VERTEX
  8
LAYER_2
 10
112.6894
 20
35.9637
  0
VERTEX
  8
LAYER_2
 10
113.1362
 20
36.9969
  0
VERTEX
  8
LAYER_2
 10
113.2385
 20
36.9969
  0
VERTEX
  8
LAYER_2
 10
113.6819
 20
35.9637
  0
VERTEX
  8
LAYER_2
 10
113.5651
 20
35.9637
  0
VERTEX
  8
LAYER_2
 10
113.4511
 20
36.2352
  0
VERTEX
  8
LAYER_2
 10
112.9171
 20
36.2352
  0
SEQEND
  0
POLYLINE
  8
LAYER_2
 40
0.05
 41
0.05
 66
1
 10
0
 20
0
 30
0
 70
1
  0
VERTEX
  8
LAYER_2
 10
112.9564
 20
36.3316
  0
VERTEX
  8
LAYER_2
 10
113.4118
 20
36.3316
  0
VERTEX
  8
LAYER_2
 10
113.1841
 20
36.8804
  0
SEQEND
  0
ENDBLK
  0
BLOCK
  8
LAYER_2
  2
AIGNBL02030018
 70
64
 10
0
 20
0
 30
0
  3
AIGNBL02030018
  0
POLYLINE
  8
LAYER_2
 40
0.05
 41
0.05
 66
1
 10
0
 20
0
 30
0
 70
1
  0
VERTEX
  8
LAYER_2
 10
114.3665
 20
35.9637
  0
VERTEX
  8
LAYER_2
 10
114.2614
 20
35.9637
  0
VERTEX
  8
LAYER_2
 10
114.2614
 20
36.9035
  0
VERTEX
  8
LAYER_2
 10
113.9152
 20
36.9035
  0
VERTEX
  8
LAYER_2
 10
113.9152
 20
36.9969
  0
VERTEX
  8
LAYER_2
 10
114.712
 20
36.9969
  0
VERTEX
  8
LAYER_2
 10
114.712
 20
36.9035
  0
VERTEX
  8
LAYER_2
 10
114.3665
 20
36.9035
  0
SEQEND
  0
ENDBLK
  0
BLOCK
  8
LAYER_2
  2
AIGNBL02030019
 70
64
 10
0
 20
0
 30
0
  3
AIGNBL02030019
  0
POLYLINE
  8
LAYER_2
 40
0.05
 41
0.05
 66
1
 10
0
 20
0
 30
0
 70
1
  0
VERTEX
  8
LAYER_2
 10
115.0682
 20
36.9969
  0
VERTEX
  8
LAYER_2
 10
115.1729
 20
36.9969
  0
VERTEX
  8
LAYER_2
 10
115.1729
 20
36.549
  0
VERTEX
  8
LAYER_2
 10
115.7366
 20
36.549
  0
VERTEX
  8
LAYER_2
 10
115.7366
 20
36.9969
  0
VERTEX
  8
LAYER_2
 10
115.8416
 20
36.9969
  0
VERTEX
  8
LAYER_2
 10
115.8416
 20
35.9637
  0
VERTEX
  8
LAYER_2
 10
115.7366
 20
35.9637
  0
VERTEX
  8
LAYER_2
 10
115.7366
 20
36.4529
  0
VERTEX
  8
LAYER_2
 10
115.1729
 20
36.4529
  0
VERTEX
  8
LAYER_2
 10
115.1729
 20
35.9637
  0
VERTEX
  8
LAYER_2
 10
115.0682
 20
35.9637
  0
SEQEND
  0
ENDBLK
  0
BLOCK
  8
LAYER_2
  2
AIGNBL0203001A
 70
64
 10
0
 20
0
 30
0
  3
AIGNBL0203001A
  0
POLYLINE
  8
LAYER_2
 40
0.05
 41
0.05
 66
1
 10
0
 20
0
 30
0
 70
1
  0
VERTEX
  8
LAYER_2
 10
116.4221
 20
35.9637
  0
VERTEX
  8
LAYER_2
 10
116.3171
 20
35.9637
  0
VERTEX
  8
LAYER_2
 10
116.3171
 20
36.9969
  0
VERTEX
  8
LAYER_2
 10
116.6209
 20
36.9969
  0
VERTEX
  8
LAYER_2
 10
116.7615
 20
36.9824
  0
VERTEX
  8
LAYER_2
 10
116.8741
 20
36.9349
  0
VERTEX
  8
LAYER_2
 10
116.9475
 20
36.8494
  0
VERTEX
  8
LAYER_2
 10
116.9737
 20
36.7213
  0
VERTEX
  8
LAYER_2
 10
116.9537
 20
36.6176
  0
VERTEX
  8
LAYER_2
 10
116.8983
 20
36.5366
  0
VERTEX
  8
LAYER_2
 10
116.8149
 20
36.4818
  0
VERTEX
  8
LAYER_2
 10
116.7098
 20
36.4557
  0
VERTEX
  8
LAYER_2
 10
117.0119
 20
35.9637
  0
VERTEX
  8
LAYER_2
 10
116.8835
 20
35.9637
  0
VERTEX
  8
LAYER_2
 10
116.5975
 20
36.4467
  0
VERTEX
  8
LAYER_2
 10
116.4221
 20
36.4467
  0
SEQEND
  0
POLYLINE
  8
LAYER_2
 40
0.05
 41
0.05
 66
1
 10
0
 20
0
 30
0
 70
1
  0
VERTEX
  8
LAYER_2
 10
116.4221
 20
36.5373
  0
VERTEX
  8
LAYER_2
 10
116.6047
 20
36.5373
 42
0.1657798624
  0
VERTEX
  8
LAYER_2
 10
116.8004
 20
36.5831
 42
0.2503949893
  0
VERTEX
  8
LAYER_2
 10
116.869
 20
36.7213
  0
VERTEX
  8
LAYER_2
 10
116.8497
 20
36.8071
  0
VERTEX
  8
LAYER_2
 10
116.7973
 20
36.8643
  0
VERTEX
  8
LAYER_2
 10
116.7157
 20
36.8963
  0
VERTEX
  8
LAYER_2
 10
116.6092
 20
36.9066
  0
VERTEX
  8
LAYER_2
 10
116.4221
 20
36.9066
  0
SEQEND
  0
ENDBLK
  0
BLOCK
  8
LAYER_2
  2
AIGNBL0203001B
 70
64
 10
0
 20
0
 30
0
  3
AIGNBL0203001B
  0
POLYLINE
  8
LAYER_2
 40
0.05
 41
0.05
 66
1
 10
0
 20
0
 30
0
 70
1
  0
VERTEX
  8
LAYER_2
 10
118.4141
 20
36.4805
 42
-0.1000954639
  0
VERTEX
  8
LAYER_2
 10
118.3735
 20
36.2631
 42
-0.1001905425
  0
VERTEX
  8
LAYER_2
 10
118.2601
 20
36.0915
 42
-0.09571058079
  0
VERTEX
  8
LAYER_2
 10
118.0896
 20
35.9785
 42
-0.09502028874
  0
VERTEX
  8
LAYER_2
 10
117.8756
 20
35.9375
 42
-0.101175466
  0
VERTEX
  8
LAYER_2
 10
117.6617
 20
35.9785
 42
-0.1000517149
  0
VERTEX
  8
LAYER_2
 10
117.4912
 20
36.0915
 42
-0.09638651027
  0
VERTEX
  8
LAYER_2
 10
117.3782
 20
36.2631
 42
-0.0931359716
  0
VERTEX
  8
LAYER_2
 10
117.3375
 20
36.4805
 42
-0.1022959507
  0
VERTEX
  8
LAYER_2
 10
117.3782
 20
36.6978
 42
-0.1020104137
  0
VERTEX
  8
LAYER_2
 10
117.4912
 20
36.8694
 42
-0.09596829797
  0
VERTEX
  8
LAYER_2
 10
117.6617
 20
36.9824
 42
-0.09506675375
  0
VERTEX
  8
LAYER_2
 10
117.8756
 20
37.0234
 42
-0.1012083438
  0
VERTEX
  8
LAYER_2
 10
118.0896
 20
36.9824
 42
-0.1015678172
  0
VERTEX
  8
LAYER_2
 10
118.2601
 20
36.8694
 42
-0.09462760439
  0
VERTEX
  8
LAYER_2
 10
118.3735
 20
36.6978
 42
-0.09276657997
  0
SEQEND
  0
POLYLINE
  8
LAYER_2
 40
0.05
 41
0.05
 66
1
 10
0
 20
0
 30
0
 70
1
  0
VERTEX
  8
LAYER_2
 10
118.3032
 20
36.4798
  0
VERTEX
  8
LAYER_2
 10
118.2739
 20
36.6517
  0
VERTEX
  8
LAYER_2
 10
118.1891
 20
36.795
  0
VERTEX
  8
LAYER_2
 10
118.0544
 20
36.8932
  0
VERTEX
  8
LAYER_2
 10
117.8756
 20
36.93
  0
VERTEX
  8
LAYER_2
 10
117.6968
 20
36.8932
  0
VERTEX
  8
LAYER_2
 10
117.5618
 20
36.795
  0
VERTEX
  8
LAYER_2
 10
117.477
 20
36.6517
  0
VERTEX
  8
LAYER_2
 10
117.4481
 20
36.4798
  0
VERTEX
  8
LAYER_2
 10
117.477
 20
36.3079
  0
VERTEX
  8
LAYER_2
 10
117.5618
 20
36.1649
  0
VERTEX
  8
LAYER_2
 10
117.6968
 20
36.0674
  0
VERTEX
  8
LAYER_2
 10
117.8756
 20
36.0309
 42
0.1157330551
  0
VERTEX
  8
LAYER_2
 10
118.0544
 20
36.0674
  0
VERTEX
  8
LAYER_2
 10
118.1891
 20
36.1649
  0
VERTEX
  8
LAYER_2
 10
118.2739
 20
36.3079
  0
SEQEND
  0
ENDBLK
  0
BLOCK
  8
LAYER_2
  2
AIGNBL0203001C
 70
64
 10
0
 20
0
 30
0
  3
AIGNBL0203001C
  0
POLYLINE
  8
LAYER_2
 40
0.05
 41
0.05
 66
1
 10
0
 20
0
 30
0
 70
1
  0
VERTEX
  8
LAYER_2
 10
119.8559
 20
36.4805
 42
-0.1041417444
  0
VERTEX
  8
LAYER_2
 10
119.8149
 20
36.2631
 42
-0.1000549391
  0
VERTEX
  8
LAYER_2
 10
119.7022
 20
36.0915
 42
-0.09536265516
  0
VERTEX
  8
LAYER_2
 10
119.5313
 20
35.9785
 42
-0.09506675375
  0
VERTEX
  8
LAYER_2
 10
119.3174
 20
35.9375
 42
-0.101822328
  0
VERTEX
  8
LAYER_2
 10
119.1038
 20
35.9785
 42
-0.102112669
  0
VERTEX
  8
LAYER_2
 10
118.9329
 20
36.0915
 42
-0.09442769366
  0
VERTEX
  8
LAYER_2
 10
118.8196
 20
36.2631
 42
-0.0931359716
  0
VERTEX
  8
LAYER_2
 10
118.7789
 20
36.4805
 42
-0.1022959507
  0
VERTEX
  8
LAYER_2
 10
118.8196
 20
36.6978
 42
-0.1008832254
  0
VERTEX
  8
LAYER_2
 10
118.9329
 20
36.8694
 42
-0.09625543395
  0
VERTEX
  8
LAYER_2
 10
119.1038
 20
36.9824
 42
-0.09528409444
  0
VERTEX
  8
LAYER_2
 10
119.3174
 20
37.0234
 42
-0.101175466
  0
VERTEX
  8
LAYER_2
 10
119.5313
 20
36.9824
 42
-0.09853409661
  0
VERTEX
  8
LAYER_2
 10
119.7022
 20
36.8694
 42
-0.09576191851
  0
VERTEX
  8
LAYER_2
 10
119.8149
 20
36.6978
 42
-0.09400765476
  0
SEQEND
  0
POLYLINE
  8
LAYER_2
 40
0.05
 41
0.05
 66
1
 10
0
 20
0
 30
0
 70
1
  0
VERTEX
  8
LAYER_2
 10
119.7449
 20
36.4798
  0
VERTEX
  8
LAYER_2
 10
119.716
 20
36.6517
  0
VERTEX
  8
LAYER_2
 10
119.6312
 20
36.795
  0
VERTEX
  8
LAYER_2
 10
119.4962
 20
36.8932
  0
VERTEX
  8
LAYER_2
 10
119.3174
 20
36.93
  0
VERTEX
  8
LAYER_2
 10
119.1386
 20
36.8932
  0
VERTEX
  8
LAYER_2
 10
119.0039
 20
36.795
  0
VERTEX
  8
LAYER_2
 10
118.9192
 20
36.6517
  0
VERTEX
  8
LAYER_2
 10
118.8899
 20
36.4798
  0
VERTEX
  8
LAYER_2
 10
118.9192
 20
36.3079
  0
VERTEX
  8
LAYER_2
 10
119.0039
 20
36.1649
  0
VERTEX
  8
LAYER_2
 10
119.1386
 20
36.0674
 42
0.1008257054
  0
VERTEX
  8
LAYER_2
 10
119.3174
 20
36.0309
  0
VERTEX
  8
LAYER_2
 10
119.4962
 20
36.0674
  0
VERTEX
  8
LAYER_2
 10
119.6312
 20
36.1649
  0
VERTEX
  8
LAYER_2
 10
119.716
 20
36.3079
  0
SEQEND
  0
ENDBLK
  0
BLOCK
  8
LAYER_2
  2
AIGNBL0203001D
 70
64
 10
0
 20
0
 30
0
  3
AIGNBL0203001D
  0
POLYLINE
  8
LAYER_2
 40
0.05
 41
0.05
 66
1
 10
0
 20
0
 30
0
 70
1
  0
VERTEX
  8
LAYER_2
 10
120.7867
 20
36.1418
  0
VERTEX
  8
LAYER_2
 10
120.7885
 20
36.1418
  0
VERTEX
  8
LAYER_2
 10
121.134
 20
36.9969
  0
VERTEX
  8
LAYER_2
 10
121.2949
 20
36.9969
  0
VERTEX
  8
LAYER_2
 10
121.2949
 20
35.9637
  0
VERTEX
  8
LAYER_2
 10
121.1895
 20
35.9637
  0
VERTEX
  8
LAYER_2
 10
121.1895
 20
36.8611
  0
VERTEX
  8
LAYER_2
 10
121.1867
 20
36.8611
  0
VERTEX
  8
LAYER_2
 10
120.8133
 20
35.9637
  0
VERTEX
  8
LAYER_2
 10
120.7578
 20
35.9637
  0
VERTEX
  8
LAYER_2
 10
120.384
 20
36.8611
  0
VERTEX
  8
LAYER_2
 10
120.3813
 20
36.8611
  0
VERTEX
  8
LAYER_2
 10
120.3813
 20
35.9637
  0
VERTEX
  8
LAYER_2
 10
120.2762
 20
35.9637
  0
VERTEX
  8
LAYER_2
 10
120.2762
 20
36.9969
  0
VERTEX
  8
LAYER_2
 10
120.4367
 20
36.9969
  0
SEQEND
  0
ENDBLK
  0
BLOCK
  8
LAYER_2
  2
AIGNBL0203001E
 70
64
 10
0
 20
0
 30
0
  3
AIGNBL0203001E
  0
POLYLINE
  8
LAYER_2
 40
0.05
 41
0.05
 66
1
 10
0
 20
0
 30
0
 70
1
  0
VERTEX
  8
LAYER_2
 10
122.4414
 20
36.0574
  0
VERTEX
  8
LAYER_2
 10
122.9947
 20
36.0574
  0
VERTEX
  8
LAYER_2
 10
122.9947
 20
35.9637
  0
VERTEX
  8
LAYER_2
 10
122.3363
 20
35.9637
  0
VERTEX
  8
LAYER_2
 10
122.3363
 20
36.9969
  0
VERTEX
  8
LAYER_2
 10
122.9771
 20
36.9969
  0
VERTEX
  8
LAYER_2
 10
122.9771
 20
36.9035
  0
VERTEX
  8
LAYER_2
 10
122.4414
 20
36.9035
  0
VERTEX
  8
LAYER_2
 10
122.4414
 20
36.549
  0
VERTEX
  8
LAYER_2
 10
122.942
 20
36.549
  0
VERTEX
  8
LAYER_2
 10
122.942
 20
36.4557
  0
VERTEX
  8
LAYER_2
 10
122.4414
 20
36.4557
  0
SEQEND
  0
ENDBLK
  0
BLOCK
  8
LAYER_2
  2
AIGNBL0203001F
 70
64
 10
0
 20
0
 30
0
  3
AIGNBL0203001F
  0
POLYLINE
  8
LAYER_2
 40
0.05
 41
0.05
 66
1
 10
0
 20
0
 30
0
 70
1
  0
VERTEX
  8
LAYER_2
 10
123.7399
 20
36.5797
  0
VERTEX
  8
LAYER_2
 10
124.022
 20
36.9969
  0
VERTEX
  8
LAYER_2
 10
124.1471
 20
36.9969
  0
VERTEX
  8
LAYER_2
 10
123.8046
 20
36.5053
  0
VERTEX
  8
LAYER_2
 10
124.1839
 20
35.9637
  0
VERTEX
  8
LAYER_2
 10
124.0527
 20
35.9637
  0
VERTEX
  8
LAYER_2
 10
123.7371
 20
36.4295
  0
VERTEX
  8
LAYER_2
 10
123.4236
 20
35.9637
  0
VERTEX
  8
LAYER_2
 10
123.292
 20
35.9637
  0
VERTEX
  8
LAYER_2
 10
123.6717
 20
36.5066
  0
VERTEX
  8
LAYER_2
 10
123.3258
 20
36.9969
  0
VERTEX
  8
LAYER_2
 10
123.4574
 20
36.9969
  0
SEQEND
  0
ENDBLK
  0
BLOCK
  8
LAYER_2
  2
AIGNBL02030020
 70
64
 10
0
 20
0
 30
0
  3
AIGNBL02030020
  0
POLYLINE
  8
LAYER_2
 40
0.05
 41
0.05
 66
1
 10
0
 20
0
 30
0
 70
1
  0
VERTEX
  8
LAYER_2
 10
124.5502
 20
36.9969
  0
VERTEX
  8
LAYER_2
 10
124.8423
 20
36.9969
  0
VERTEX
  8
LAYER_2
 10
124.9853
 20
36.9804
  0
VERTEX
  8
LAYER_2
 10
125.0952
 20
36.929
  0
VERTEX
  8
LAYER_2
 10
125.1662
 20
36.8429
  0
VERTEX
  8
LAYER_2
 10
125.1906
 20
36.7213
  0
VERTEX
  8
LAYER_2
 10
125.1654
 20
36.5993
  0
VERTEX
  8
LAYER_2
 10
125.0938
 20
36.5132
  0
VERTEX
  8
LAYER_2
 10
124.9829
 20
36.4615
  0
VERTEX
  8
LAYER_2
 10
124.8392
 20
36.444
  0
VERTEX
  8
LAYER_2
 10
124.6552
 20
36.444
  0
VERTEX
  8
LAYER_2
 10
124.6552
 20
35.9637
  0
VERTEX
  8
LAYER_2
 10
124.5502
 20
35.9637
  0
SEQEND
  0
POLYLINE
  8
LAYER_2
 40
0.05
 41
0.05
 66
1
 10
0
 20
0
 30
0
 70
1
  0
VERTEX
  8
LAYER_2
 10
124.6552
 20
36.5328
  0
VERTEX
  8
LAYER_2
 10
124.833
 20
36.5328
 42
0.1829203509
  0
VERTEX
  8
LAYER_2
 10
125.0214
 20
36.581
 42
0.2347011275
  0
VERTEX
  8
LAYER_2
 10
125.0859
 20
36.7213
 42
0.26486771
  0
VERTEX
  8
LAYER_2
 10
125.0194
 20
36.8622
 42
0.1264027561
  0
VERTEX
  8
LAYER_2
 10
124.833
 20
36.9066
  0
VERTEX
  8
LAYER_2
 10
124.6552
 20
36.9066
  0
SEQEND
  0
ENDBLK
  0
BLOCK
  8
LAYER_2
  2
AIGNBL02030021
 70
64
 10
0
 20
0
 30
0
  3
AIGNBL02030021
  0
POLYLINE
  8
LAYER_2
 40
0.05
 41
0.05
 66
1
 10
0
 20
0
 30
0
 70
1
  0
VERTEX
  8
LAYER_2
 10
125.7029
 20
36.0574
  0
VERTEX
  8
LAYER_2
 10
126.2562
 20
36.0574
  0
VERTEX
  8
LAYER_2
 10
126.2562
 20
35.9637
  0
VERTEX
  8
LAYER_2
 10
125.5978
 20
35.9637
  0
VERTEX
  8
LAYER_2
 10
125.5978
 20
36.9969
  0
VERTEX
  8
LAYER_2
 10
126.2386
 20
36.9969
  0
VERTEX
  8
LAYER_2
 10
126.2386
 20
36.9035
  0
VERTEX
  8
LAYER_2
 10
125.7029
 20
36.9035
  0
VERTEX
  8
LAYER_2
 10
125.7029
 20
36.549
  0
VERTEX
  8
LAYER_2
 10
126.2035
 20
36.549
  0
VERTEX
  8
LAYER_2
 10
126.2035
 20
36.4557
  0
VERTEX
  8
LAYER_2
 10
125.7029
 20
36.4557
  0
SEQEND
  0
ENDBLK
  0
BLOCK
  8
LAYER_2
  2
AIGNBL02030022
 70
64
 10
0
 20
0
 30
0
  3
AIGNBL02030022
  0
POLYLINE
  8
LAYER_2
 40
0.05
 41
0.05
 66
1
 10
0
 20
0
 30
0
 70
1
  0
VERTEX
  8
LAYER_2
 10
126.7681
 20
35.9637
  0
VERTEX
  8
LAYER_2
 10
126.663
 20
35.9637
  0
VERTEX
  8
LAYER_2
 10
126.663
 20
36.9969
  0
VERTEX
  8
LAYER_2
 10
126.9669
 20
36.9969
  0
VERTEX
  8
LAYER_2
 10
127.1075
 20
36.9824
  0
VERTEX
  8
LAYER_2
 10
127.2201
 20
36.9349
  0
VERTEX
  8
LAYER_2
 10
127.2938
 20
36.8494
  0
VERTEX
  8
LAYER_2
 10
127.3197
 20
36.7213
  0
VERTEX
  8
LAYER_2
 10
127.2997
 20
36.6176
  0
VERTEX
  8
LAYER_2
 10
127.2442
 20
36.5366
  0
VERTEX
  8
LAYER_2
 10
127.1609
 20
36.4818
  0
VERTEX
  8
LAYER_2
 10
127.0558
 20
36.4557
  0
VERTEX
  8
LAYER_2
 10
127.3579
 20
35.9637
  0
VERTEX
  8
LAYER_2
 10
127.2294
 20
35.9637
  0
VERTEX
  8
LAYER_2
 10
126.9435
 20
36.4467
  0
VERTEX
  8
LAYER_2
 10
126.7681
 20
36.4467
  0
SEQEND
  0
POLYLINE
  8
LAYER_2
 40
0.05
 41
0.05
 66
1
 10
0
 20
0
 30
0
 70
1
  0
VERTEX
  8
LAYER_2
 10
126.7681
 20
36.5373
  0
VERTEX
  8
LAYER_2
 10
126.9507
 20
36.5373
 42
0.1667734107
  0
VERTEX
  8
LAYER_2
 10
127.1464
 20
36.5831
 42
0.2503091692
  0
VERTEX
  8
LAYER_2
 10
127.2149
 20
36.7213
  0
VERTEX
  8
LAYER_2
 10
127.196
 20
36.8071
  0
VERTEX
  8
LAYER_2
 10
127.1433
 20
36.8643
  0
VERTEX
  8
LAYER_2
 10
127.0616
 20
36.8963
  0
VERTEX
  8
LAYER_2
 10
126.9552
 20
36.9066
  0
VERTEX
  8
LAYER_2
 10
126.7681
 20
36.9066
  0
SEQEND
  0
ENDBLK
  0
BLOCK
  8
LAYER_2
  2
AIGNBL02030023
 70
64
 10
0
 20
0
 30
0
  3
AIGNBL02030023
  0
POLYLINE
  8
LAYER_2
 40
0.05
 41
0.05
 66
1
 10
0
 20
0
 30
0
 70
1
  0
VERTEX
  8
LAYER_2
 10
127.8437
 20
35.9637
  0
VERTEX
  8
LAYER_2
 10
127.739
 20
35.9637
  0
VERTEX
  8
LAYER_2
 10
127.739
 20
36.9969
  0
VERTEX
  8
LAYER_2
 10
127.8437
 20
36.9969
  0
SEQEND
  0
ENDBLK
  0
BLOCK
  8
LAYER_2
  2
AIGNBL02030024
 70
64
 10
0
 20
0
 30
0
  3
AIGNBL02030024
  0
POLYLINE
  8
LAYER_2
 40
0.05
 41
0.05
 66
1
 10
0
 20
0
 30
0
 70
1
  0
VERTEX
  8
LAYER_2
 10
128.4245
 20
36.0574
  0
VERTEX
  8
LAYER_2
 10
128.9775
 20
36.0574
  0
VERTEX
  8
LAYER_2
 10
128.9775
 20
35.9637
  0
VERTEX
  8
LAYER_2
 10
128.3195
 20
35.9637
  0
VERTEX
  8
LAYER_2
 10
128.3195
 20
36.9969
  0
VERTEX
  8
LAYER_2
 10
128.9602
 20
36.9969
  0
VERTEX
  8
LAYER_2
 10
128.9602
 20
36.9035
  0
VERTEX
  8
LAYER_2
 10
128.4245
 20
36.9035
  0
VERTEX
  8
LAYER_2
 10
128.4245
 20
36.549
  0
VERTEX
  8
LAYER_2
 10
128.9251
 20
36.549
  0
VERTEX
  8
LAYER_2
 10
128.9251
 20
36.4557
  0
VERTEX
  8
LAYER_2
 10
128.4245
 20
36.4557
  0
SEQEND
  0
ENDBLK
  0
BLOCK
  8
LAYER_2
  2
AIGNBL02030025
 70
64
 10
0
 20
0
 30
0
  3
AIGNBL02030025
  0
POLYLINE
  8
LAYER_2
 40
0.05
 41
0.05
 66
1
 10
0
 20
0
 30
0
 70
1
  0
VERTEX
  8
LAYER_2
 10
130.1174
 20
36.117
  0
VERTEX
  8
LAYER_2
 10
130.1202
 20
36.117
  0
VERTEX
  8
LAYER_2
 10
130.1202
 20
36.9969
  0
VERTEX
  8
LAYER_2
 10
130.2253
 20
36.9969
  0
VERTEX
  8
LAYER_2
 10
130.2253
 20
35.9637
  0
VERTEX
  8
LAYER_2
 10
130.094
 20
35.9637
  0
VERTEX
  8
LAYER_2
 10
129.4928
 20
36.8525
  0
VERTEX
  8
LAYER_2
 10
129.4897
 20
36.8525
  0
VERTEX
  8
LAYER_2
 10
129.4897
 20
35.9637
  0
VERTEX
  8
LAYER_2
 10
129.3847
 20
35.9637
  0
VERTEX
  8
LAYER_2
 10
129.3847
 20
36.9969
  0
VERTEX
  8
LAYER_2
 10
129.5163
 20
36.9969
  0
SEQEND
  0
ENDBLK
  0
BLOCK
  8
LAYER_2
  2
AIGNBL02030026
 70
64
 10
0
 20
0
 30
0
  3
AIGNBL02030026
  0
POLYLINE
  8
LAYER_2
 40
0.05
 41
0.05
 66
1
 10
0
 20
0
 30
0
 70
1
  0
VERTEX
  8
LAYER_2
 10
131.5709
 20
36.1315
  0
VERTEX
  8
LAYER_2
 10
131.5072
 20
36.0571
  0
VERTEX
  8
LAYER_2
 10
131.4211
 20
35.9954
  0
VERTEX
  8
LAYER_2
 10
131.3129
 20
35.953
  0
VERTEX
  8
LAYER_2
 10
131.184
 20
35.9375
 42
-0.1009408553
  0
VERTEX
  8
LAYER_2
 10
130.968
 20
35.9785
 42
-0.1036559164
  0
VERTEX
  8
LAYER_2
 10
130.7975
 20
36.0915
 42
-0.09812017057
  0
VERTEX
  8
LAYER_2
 10
130.6859
 20
36.2631
 42
-0.09232404316
  0
VERTEX
  8
LAYER_2
 10
130.6456
 20
36.4805
 42
-0.1041003847
  0
VERTEX
  8
LAYER_2
 10
130.6866
 20
36.6978
 42
-0.1007605982
  0
VERTEX
  8
LAYER_2
 10
130.7992
 20
36.8694
 42
-0.09536265516
  0
VERTEX
  8
LAYER_2
 10
130.9701
 20
36.9824
 42
-0.09506675375
  0
VERTEX
  8
LAYER_2
 10
131.184
 20
37.0234
  0
VERTEX
  8
LAYER_2
 10
131.2957
 20
37.0114
  0
VERTEX
  8
LAYER_2
 10
131.3987
 20
36.9779
  0
VERTEX
  8
LAYER_2
 10
131.4862
 20
36.9263
  0
VERTEX
  8
LAYER_2
 10
131.552
 20
36.8584
  0
VERTEX
  8
LAYER_2
 10
131.4645
 20
36.794
  0
VERTEX
  8
LAYER_2
 10
131.4211
 20
36.8439
  0
VERTEX
  8
LAYER_2
 10
131.3577
 20
36.8877
  0
VERTEX
  8
LAYER_2
 10
131.2781
 20
36.9183
  0
VERTEX
  8
LAYER_2
 10
131.1854
 20
36.93
  0
VERTEX
  8
LAYER_2
 10
131.0052
 20
36.8935
  0
VERTEX
  8
LAYER_2
 10
130.8702
 20
36.7954
  0
VERTEX
  8
LAYER_2
 10
130.7854
 20
36.652
  0
VERTEX
  8
LAYER_2
 10
130.7565
 20
36.4805
  0
VERTEX
  8
LAYER_2
 10
130.7865
 20
36.3089
  0
VERTEX
  8
LAYER_2
 10
130.8719
 20
36.1656
  0
VERTEX
  8
LAYER_2
 10
131.007
 20
36.0674
 42
0.1010490553
  0
VERTEX
  8
LAYER_2
 10
131.1854
 20
36.0309
  0
VERTEX
  8
LAYER_2
 10
131.3546
 20
36.0674
 42
0.1325349639
  0
VERTEX
  8
LAYER_2
 10
131.4889
 20
36.1842
  0
SEQEND
  0
ENDBLK
  0
BLOCK
  8
LAYER_2
  2
AIGNBL02030027
 70
64
 10
0
 20
0
 30
0
  3
AIGNBL02030027
  0
POLYLINE
  8
LAYER_2
 40
0.05
 41
0.05
 66
1
 10
0
 20
0
 30
0
 70
1
  0
VERTEX
  8
LAYER_2
 10
132.0581
 20
36.0574
  0
VERTEX
  8
LAYER_2
 10
132.6114
 20
36.0574
  0
VERTEX
  8
LAYER_2
 10
132.6114
 20
35.9637
  0
VERTEX
  8
LAYER_2
 10
131.953
 20
35.9637
  0
VERTEX
  8
LAYER_2
 10
131.953
 20
36.9969
  0
VERTEX
  8
LAYER_2
 10
132.5938
 20
36.9969
  0
VERTEX
  8
LAYER_2
 10
132.5938
 20
36.9035
  0
VERTEX
  8
LAYER_2
 10
132.0581
 20
36.9035
  0
VERTEX
  8
LAYER_2
 10
132.0581
 20
36.549
  0
VERTEX
  8
LAYER_2
 10
132.5586
 20
36.549
  0
VERTEX
  8
LAYER_2
 10
132.5586
 20
36.4557
  0
VERTEX
  8
LAYER_2
 10
132.0581
 20
36.4557
  0
SEQEND
  0
ENDBLK
  0
BLOCK
  8
LAYER_2
  2
AIGNBL02020004
 70
64
 10
0
 20
0
 30
0
  3
AIGNBL02020004
  0
POLYLINE
  8
LAYER_2
 40
0.05
 41
0.05
 66
1
 10
0
 20
0
 30
0
  0
VERTEX
  8
LAYER_2
 10
-1.196
 20
217.6012
 42
-0.07434374488
  0
VERTEX
  8
LAYER_2
 10
-1.3046
 20
216.4751
 42
-0.1312981164
  0
VERTEX
  8
LAYER_2
 10
-1.5732
 20
216.0054
 42
-0.208619006
  0
VERTEX
  8
LAYER_2
 10
-2.3408
 20
215.7164
 42
-0.1980855618
  0
VERTEX
  8
LAYER_2
 10
-3.0956
 20
216.0054
 42
-0.1359059684
  0
VERTEX
  8
LAYER_2
 10
-3.3746
 20
216.5106
 42
-0.06699191066
  0
VERTEX
  8
LAYER_2
 10
-3.4732
 20
217.6012
 42
-0.07470238595
  0
VERTEX
  8
LAYER_2
 10
-3.3644
 20
218.7157
 42
-0.1310826725
  0
VERTEX
  8
LAYER_2
 10
-3.0956
 20
219.1845
 42
-0.2061520596
  0
VERTEX
  8
LAYER_2
 10
-2.3408
 20
219.4732
 42
-0.1977437771
  0
VERTEX
  8
LAYER_2
 10
-1.5732
 20
219.1845
 42
-0.1358673357
  0
VERTEX
  8
LAYER_2
 10
-1.2943
 20
218.6804
 42
-0.06720044206
  0
VERTEX
  8
LAYER_2
 10
-1.196
 20
217.6012
  0
SEQEND
  0
POLYLINE
  8
LAYER_2
 40
0.05
 41
0.05
 66
1
 10
0
 20
0
 30
0
  0
VERTEX
  8
LAYER_2
 10
0.4394
 20
217.6012
 42
0.0577585355
  0
VERTEX
  8
LAYER_2
 10
0.3194
 20
218.9609
 42
0.1358747382
  0
VERTEX
  8
LAYER_2
 10
-0.303
 20
220.1395
 42
0.1777268905
  0
VERTEX
  8
LAYER_2
 10
-1.8892
 20
220.9154
 42
0.03495822391
  0
VERTEX
  8
LAYER_2
 10
-2.3408
 20
220.9436
 42
0.07961804251
  0
VERTEX
  8
LAYER_2
 10
-3.315
 20
220.7962
 42
0.1217450219
  0
VERTEX
  8
LAYER_2
 10
-4.3662
 20
220.1395
 42
0.09150776818
  0
VERTEX
  8
LAYER_2
 10
-4.8465
 20
219.4067
 42
0.07735978812
  0
VERTEX
  8
LAYER_2
 10
-5.0776
 20
218.3847
 42
0.03281807239
  0
VERTEX
  8
LAYER_2
 10
-5.1082
 20
217.6012
 42
0.05725233541
  0
VERTEX
  8
LAYER_2
 10
-4.9885
 20
216.2362
 42
0.1359864428
  0
VERTEX
  8
LAYER_2
 10
-4.3662
 20
215.0504
 42
0.175204158
  0
VERTEX
  8
LAYER_2
 10
-2.7508
 20
214.2702
 42
0.03231924249
  0
VERTEX
  8
LAYER_2
 10
-2.3408
 20
214.2463
 42
0.07899302184
  0
VERTEX
  8
LAYER_2
 10
-1.3625
 20
214.3937
 42
0.1216861451
  0
VERTEX
  8
LAYER_2
 10
-0.303
 20
215.0504
 42
0.09340304456
  0
VERTEX
  8
LAYER_2
 10
0.1681
 20
215.7463
 42
0.0774645698
  0
VERTEX
  8
LAYER_2
 10
0.4017
 20
216.7223
 42
0.02212089617
  0
VERTEX
  8
LAYER_2
 10
0.4394
 20
217.6012
  0
SEQEND
  0
POLYLINE
  8
LAYER_2
 40
0.05
 41
0.05
 66
1
 10
0
 20
0
 30
0
  0
VERTEX
  8
LAYER_2
 10
-11.3166
 20
218.2044
  0
VERTEX
  8
LAYER_2
 10
-13.8074
 20
218.2044
 42
-0.1153546446
  0
VERTEX
  8
LAYER_2
 10
-13.6562
 20
218.9079
 42
-0.3007040875
  0
VERTEX
  8
LAYER_2
 10
-12.562
 20
219.5866
 42
-0.1235431447
  0
VERTEX
  8
LAYER_2
 10
-11.9621
 20
219.4464
 42
-0.1667603161
  0
VERTEX
  8
LAYER_2
 10
-11.4672
 20
218.9079
 42
-0.1143399212
  0
VERTEX
  8
LAYER_2
 10
-11.3166
 20
218.2044
  0
SEQEND
  0
POLYLINE
  8
LAYER_2
 40
0.05
 41
0.05
 66
1
 10
0
 20
0
 30
0
 70
1
  0
VERTEX
  8
LAYER_2
 10
-9.7064
 20
217.0861
  0
VERTEX
  8
LAYER_2
 10
-9.7064
 20
217.7772
 42
0.0677042249
  0
VERTEX
  8
LAYER_2
 10
-9.852
 20
218.9102
 42
0.07767771487
  0
VERTEX
  8
LAYER_2
 10
-10.2392
 20
219.7789
 42
0.1724975422
  0
VERTEX
  8
LAYER_2
 10
-11.5857
 20
220.7996
 42
0.07776532921
  0
VERTEX
  8
LAYER_2
 10
-12.562
 20
220.9436
 42
0.0796960513
  0
VERTEX
  8
LAYER_2
 10
-13.5247
 20
220.7966
 42
0.168887661
  0
VERTEX
  8
LAYER_2
 10
-14.846
 20
219.7874
 42
0.07658055294
  0
VERTEX
  8
LAYER_2
 10
-15.2466
 20
218.9066
 42
0.07097127065
  0
VERTEX
  8
LAYER_2
 10
-15.4177
 20
217.6012
 42
0.05685454964
  0
VERTEX
  8
LAYER_2
 10
-15.2934
 20
216.4004
 42
0.07540481703
  0
VERTEX
  8
LAYER_2
 10
-14.9492
 20
215.5069
 42
0.1774924504
  0
VERTEX
  8
LAYER_2
 10
-13.6777
 20
214.4527
 42
0.08958127581
  0
VERTEX
  8
LAYER_2
 10
-12.386
 20
214.2463
 42
0.07080596686
  0
VERTEX
  8
LAYER_2
 10
-11.2943
 20
214.3814
 42
0.08369033087
  0
VERTEX
  8
LAYER_2
 10
-10.4805
 20
214.7708
 42
0.04417423811
  0
VERTEX
  8
LAYER_2
 10
-9.8948
 20
215.2768
  0
VERTEX
  8
LAYER_2
 10
-10.8887
 20
216.2442
 42
-0.09875545259
  0
VERTEX
  8
LAYER_2
 10
-11.5612
 20
215.7667
 42
-0.1006814841
  0
VERTEX
  8
LAYER_2
 10
-12.3732
 20
215.6285
 42
-0.1070981108
  0
VERTEX
  8
LAYER_2
 10
-13.0555
 20
215.7638
 42
-0.2542521374
  0
VERTEX
  8
LAYER_2
 10
-13.7778
 20
216.7415
 42
-0.04997815034
  0
VERTEX
  8
LAYER_2
 10
-13.8074
 20
217.0861
  0
SEQEND
  0
POLYLINE
  8
LAYER_2
 40
0.05
 41
0.05
 66
1
 10
0
 20
0
 30
0
 70
1
  0
VERTEX
  8
LAYER_2
 10
-16.9018
 20
223.2773
  0
VERTEX
  8
LAYER_2
 10
-18.5517
 20
223.2773
  0
VERTEX
  8
LAYER_2
 10
-18.5517
 20
221.9454
  0
VERTEX
  8
LAYER_2
 10
-16.9018
 20
221.9454
  0
SEQEND
  0
POLYLINE
  8
LAYER_2
 40
0.05
 41
0.05
 66
1
 10
0
 20
0
 30
0
 70
1
  0
VERTEX
  8
LAYER_2
 10
-16.9146
 20
220.79
  0
VERTEX
  8
LAYER_2
 10
-18.5499
 20
220.79
  0
VERTEX
  8
LAYER_2
 10
-18.5499
 20
214.3218
  0
VERTEX
  8
LAYER_2
 10
-16.9146
 20
214.3218
  0
SEQEND
  0
POLYLINE
  8
LAYER_2
 40
0.05
 41
0.05
 66
1
 10
0
 20
0
 30
0
  0
VERTEX
  8
LAYER_2
 10
-19.8205
 20
215.1386
  0
VERTEX
  8
LAYER_2
 10
-20.9274
 20
216.2317
 42
-0.1123773458
  0
VERTEX
  8
LAYER_2
 10
-21.5025
 20
215.8017
 42
-0.09517045223
  0
VERTEX
  8
LAYER_2
 10
-21.984
 20
215.7164
 42
-0.2295666259
  0
VERTEX
  8
LAYER_2
 10
-22.9149
 20
216.1436
 42
-0.1146247369
  0
VERTEX
  8
LAYER_2
 10
-23.2025
 20
216.7765
 42
-0.05302023055
  0
VERTEX
  8
LAYER_2
 10
-23.2797
 20
217.6012
 42
-0.07909887362
  0
VERTEX
  8
LAYER_2
 10
-23.1547
 20
218.5928
 42
-0.092262399
  0
VERTEX
  8
LAYER_2
 10
-22.9149
 20
219.0461
 42
-0.2338488836
  0
VERTEX
  8
LAYER_2
 10
-21.984
 20
219.4732
 42
-0.128883052
  0
VERTEX
  8
LAYER_2
 10
-21.3835
 20
219.3322
 42
-0.07812769659
  0
VERTEX
  8
LAYER_2
 10
-20.9274
 20
218.9585
  0
VERTEX
  8
LAYER_2
 10
-19.8205
 20
220.0637
 42
0.170273791
  0
VERTEX
  8
LAYER_2
 10
-21.4399
 20
220.9062
 42
0.04126809408
  0
VERTEX
  8
LAYER_2
 10
-21.984
 20
220.9436
 42
0.07342899762
  0
VERTEX
  8
LAYER_2
 10
-22.9625
 20
220.804
 42
0.1715306153
  0
VERTEX
  8
LAYER_2
 10
-24.3547
 20
219.7917
 42
0.07792315428
  0
VERTEX
  8
LAYER_2
 10
-24.7438
 20
218.9398
 42
0.07121572719
  0
VERTEX
  8
LAYER_2
 10
-24.9151
 20
217.6012
 42
0.06071119945
  0
VERTEX
  8
LAYER_2
 10
-24.7811
 20
216.4004
 42
0.07599045696
  0
VERTEX
  8
LAYER_2
 10
-24.4186
 20
215.5069
 42
0.1707838222
  0
VERTEX
  8
LAYER_2
 10
-23.1195
 20
214.4409
 42
0.08917342928
  0
VERTEX
  8
LAYER_2
 10
-21.984
 20
214.2463
 42
0.07667723183
  0
VERTEX
  8
LAYER_2
 10
-21.0013
 20
214.3855
 42
0.1303789466
  0
VERTEX
  8
LAYER_2
 10
-19.8205
 20
215.1386
  0
SEQEND
  0
ENDBLK
  0
BLOCK
  8
LAYER_2
  2
AIGNBL02020005
 70
64
 10
0
 20
0
 30
0
  3
AIGNBL02020005
  0
POLYLINE
  8
LAYER_2
 40
0.05
 41
0.05
 66
1
 10
0
 20
0
 30
0
 70
1
  0
VERTEX
  8
LAYER_2
 10
0.3288
 20
212.6805
  0
VERTEX
  8
LAYER_2
 10
0.0009
 20
212.6805
  0
VERTEX
  8
LAYER_2
 10
-0.2479
 20
211.9109
  0
VERTEX
  8
LAYER_2
 10
-0.5066
 20
212.6805
  0
VERTEX
  8
LAYER_2
 10
-0.8342
 20
212.6805
  0
VERTEX
  8
LAYER_2
 10
-0.4084
 20
211.5234
  0
VERTEX
  8
LAYER_2
 10
-0.4611
 20
211.3704
 42
-0.396721792
  0
VERTEX
  8
LAYER_2
 10
-0.6165
 20
211.2581
  0
VERTEX
  8
LAYER_2
 10
-0.6882
 20
211.2581
  0
VERTEX
  8
LAYER_2
 10
-0.6882
 20
210.9783
  0
VERTEX
  8
LAYER_2
 10
-0.5662
 20
210.9783
 42
0.2105921841
  0
VERTEX
  8
LAYER_2
 10
-0.2985
 20
211.0741
  0
VERTEX
  8
LAYER_2
 10
-0.2048
 20
211.2343
  0
SEQEND
  0
POLYLINE
  8
LAYER_2
 40
0.05
 41
0.05
 66
1
 10
0
 20
0
 30
0
 70
1
  0
VERTEX
  8
LAYER_2
 10
-0.8704
 20
211.4352
  0
VERTEX
  8
LAYER_2
 10
-0.8704
 20
211.6977
  0
VERTEX
  8
LAYER_2
 10
-0.9899
 20
211.6977
 42
-0.4758158184
  0
VERTEX
  8
LAYER_2
 10
-1.0998
 20
211.8103
  0
VERTEX
  8
LAYER_2
 10
-1.0998
 20
213.137
  0
VERTEX
  8
LAYER_2
 10
-1.4109
 20
213.137
  0
VERTEX
  8
LAYER_2
 10
-1.4109
 20
211.7914
 42
0.4199153803
  0
VERTEX
  8
LAYER_2
 10
-1.0475
 20
211.4352
  0
SEQEND
  0
POLYLINE
  8
LAYER_2
 40
0.05
 41
0.05
 66
1
 10
0
 20
0
 30
0
 70
1
  0
VERTEX
  8
LAYER_2
 10
-1.9739
 20
211.894
 42
-0.2612643935
  0
VERTEX
  8
LAYER_2
 10
-2.0214
 20
211.7363
 42
-0.1972145384
  0
VERTEX
  8
LAYER_2
 10
-2.2057
 20
211.6763
 42
-0.4351815088
  0
VERTEX
  8
LAYER_2
 10
-2.3949
 20
211.8175
 42
-0.4650020324
  0
VERTEX
  8
LAYER_2
 10
-2.2105
 20
211.9609
  0
VERTEX
  8
LAYER_2
 10
-1.9739
 20
211.9609
  0
SEQEND
  0
POLYLINE
  8
LAYER_2
 40
0.05
 41
0.05
 66
1
 10
0
 20
0
 30
0
 70
1
  0
VERTEX
  8
LAYER_2
 10
-1.6624
 20
211.4352
  0
VERTEX
  8
LAYER_2
 10
-1.6624
 20
212.2551
 42
0.2205564812
  0
VERTEX
  8
LAYER_2
 10
-1.7881
 20
212.5772
 42
0.1806009816
  0
VERTEX
  8
LAYER_2
 10
-2.194
 20
212.6947
 42
0.2375604919
  0
VERTEX
  8
LAYER_2
 10
-2.6412
 20
212.5179
  0
VERTEX
  8
LAYER_2
 10
-2.4452
 20
212.3243
 42
-0.2464065653
  0
VERTEX
  8
LAYER_2
 10
-2.2057
 20
212.4322
 42
-0.4684872669
  0
VERTEX
  8
LAYER_2
 10
-1.9739
 20
212.2358
  0
VERTEX
  8
LAYER_2
 10
-1.9739
 20
212.1738
  0
VERTEX
  8
LAYER_2
 10
-2.2633
 20
212.1738
 42
0.2103132122
  0
VERTEX
  8
LAYER_2
 10
-2.6081
 20
212.0486
 42
0.18506809
  0
VERTEX
  8
LAYER_2
 10
-2.6942
 20
211.8127
 42
0.1945609364
  0
VERTEX
  8
LAYER_2
 10
-2.5912
 20
211.533
 42
0.1980708175
  0
VERTEX
  8
LAYER_2
 10
-2.2729
 20
211.4228
 42
0.2246292991
  0
VERTEX
  8
LAYER_2
 10
-1.9663
 20
211.5426
  0
VERTEX
  8
LAYER_2
 10
-1.9663
 20
211.4352
  0
SEQEND
  0
POLYLINE
  8
LAYER_2
 40
0.05
 41
0.05
 66
1
 10
0
 20
0
 30
0
 70
1
  0
VERTEX
  8
LAYER_2
 10
-2.8758
 20
211.4352
  0
VERTEX
  8
LAYER_2
 10
-2.8758
 20
211.6977
  0
VERTEX
  8
LAYER_2
 10
-2.9884
 20
211.6977
 42
-0.4605815503
  0
VERTEX
  8
LAYER_2
 10
-3.0963
 20
211.8103
  0
VERTEX
  8
LAYER_2
 10
-3.0963
 20
212.4081
  0
VERTEX
  8
LAYER_2
 10
-2.8758
 20
212.4081
  0
VERTEX
  8
LAYER_2
 10
-2.8758
 20
212.6444
  0
VERTEX
  8
LAYER_2
 10
-3.0963
 20
212.6444
  0
VERTEX
  8
LAYER_2
 10
-3.0963
 20
213.0126
  0
VERTEX
  8
LAYER_2
 10
-3.407
 20
213.0126
  0
VERTEX
  8
LAYER_2
 10
-3.407
 20
212.6444
  0
VERTEX
  8
LAYER_2
 10
-3.539
 20
212.6444
  0
VERTEX
  8
LAYER_2
 10
-3.539
 20
212.4081
  0
VERTEX
  8
LAYER_2
 10
-3.407
 20
212.4081
  0
VERTEX
  8
LAYER_2
 10
-3.407
 20
211.7914
 42
0.4187763975
  0
VERTEX
  8
LAYER_2
 10
-3.0456
 20
211.4352
  0
SEQEND
  0
POLYLINE
  8
LAYER_2
 40
0.05
 41
0.05
 66
1
 10
0
 20
0
 30
0
 70
1
  0
VERTEX
  8
LAYER_2
 10
-3.8091
 20
213.137
  0
VERTEX
  8
LAYER_2
 10
-4.1419
 20
213.137
  0
VERTEX
  8
LAYER_2
 10
-4.1419
 20
211.4352
  0
VERTEX
  8
LAYER_2
 10
-3.8091
 20
211.4352
  0
SEQEND
  0
POLYLINE
  8
LAYER_2
 40
0.05
 41
0.05
 66
1
 10
0
 20
0
 30
0
 70
1
  0
VERTEX
  8
LAYER_2
 10
-5.0562
 20
211.4352
  0
VERTEX
  8
LAYER_2
 10
-5.0562
 20
212.231
 42
0.2135728393
  0
VERTEX
  8
LAYER_2
 10
-5.183
 20
212.5844
 42
0.1976836271
  0
VERTEX
  8
LAYER_2
 10
-5.4775
 20
212.6947
 42
0.2038428178
  0
VERTEX
  8
LAYER_2
 10
-5.7886
 20
212.5658
  0
VERTEX
  8
LAYER_2
 10
-5.7886
 20
212.6805
  0
VERTEX
  8
LAYER_2
 10
-6.0925
 20
212.6805
  0
VERTEX
  8
LAYER_2
 10
-6.0925
 20
211.4352
  0
VERTEX
  8
LAYER_2
 10
-5.7814
 20
211.4352
  0
VERTEX
  8
LAYER_2
 10
-5.7814
 20
212.1882
 42
-0.4265123439
  0
VERTEX
  8
LAYER_2
 10
-5.573
 20
212.4149
 42
-0.4361688158
  0
VERTEX
  8
LAYER_2
 10
-5.3673
 20
212.1882
  0
VERTEX
  8
LAYER_2
 10
-5.3673
 20
211.4352
  0
SEQEND
  0
POLYLINE
  8
LAYER_2
 40
0.05
 41
0.05
 66
1
 10
0
 20
0
 30
0
 70
1
  0
VERTEX
  8
LAYER_2
 10
-6.437
 20
213.1467
  0
VERTEX
  8
LAYER_2
 10
-6.7553
 20
213.1467
  0
VERTEX
  8
LAYER_2
 10
-6.7553
 20
212.8931
  0
VERTEX
  8
LAYER_2
 10
-6.437
 20
212.8931
  0
SEQEND
  0
POLYLINE
  8
LAYER_2
 40
0.05
 41
0.05
 66
1
 10
0
 20
0
 30
0
 70
1
  0
VERTEX
  8
LAYER_2
 10
-6.4394
 20
212.6444
  0
VERTEX
  8
LAYER_2
 10
-6.7508
 20
212.6444
  0
VERTEX
  8
LAYER_2
 10
-6.7508
 20
211.4352
  0
VERTEX
  8
LAYER_2
 10
-6.4394
 20
211.4352
  0
SEQEND
  0
POLYLINE
  8
LAYER_2
 40
0.05
 41
0.05
 66
1
 10
0
 20
0
 30
0
  0
VERTEX
  8
LAYER_2
 10
-7.8994
 20
212.1738
  0
VERTEX
  8
LAYER_2
 10
-8.3735
 20
212.1738
  0
VERTEX
  8
LAYER_2
 10
-8.3445
 20
212.3074
 42
-0.3006254692
  0
VERTEX
  8
LAYER_2
 10
-8.1365
 20
212.4363
 42
-0.3004502708
  0
VERTEX
  8
LAYER_2
 10
-7.9284
 20
212.3074
  0
VERTEX
  8
LAYER_2
 10
-7.8994
 20
212.1738
  0
SEQEND
  0
POLYLINE
  8
LAYER_2
 40
0.05
 41
0.05
 66
1
 10
0
 20
0
 30
0
 70
1
  0
VERTEX
  8
LAYER_2
 10
-7.5932
 20
211.9609
  0
VERTEX
  8
LAYER_2
 10
-7.5932
 20
212.0925
 42
0.1727949422
  0
VERTEX
  8
LAYER_2
 10
-7.7261
 20
212.5161
 42
0.2293242446
  0
VERTEX
  8
LAYER_2
 10
-8.1365
 20
212.6947
 42
0.4082688927
  0
VERTEX
  8
LAYER_2
 10
-8.6757
 20
212.151
 42
0.02665393029
  0
VERTEX
  8
LAYER_2
 10
-8.6797
 20
212.0591
 42
0.1685110564
  0
VERTEX
  8
LAYER_2
 10
-8.5537
 20
211.6061
 42
0.2404561047
  0
VERTEX
  8
LAYER_2
 10
-8.103
 20
211.4207
 42
0.2250390665
  0
VERTEX
  8
LAYER_2
 10
-7.629
 20
211.6167
  0
VERTEX
  8
LAYER_2
 10
-7.8181
 20
211.801
 42
-0.2242451699
  0
VERTEX
  8
LAYER_2
 10
-8.1003
 20
211.6839
 42
-0.4312737558
  0
VERTEX
  8
LAYER_2
 10
-8.3735
 20
211.9609
  0
SEQEND
  0
POLYLINE
  8
LAYER_2
 40
0.05
 41
0.05
 66
1
 10
0
 20
0
 30
0
  0
VERTEX
  8
LAYER_2
 10
-9.2778
 20
212.0591
 42
-0.253040373
  0
VERTEX
  8
LAYER_2
 10
-9.3737
 20
211.7317
 42
-0.1751487426
  0
VERTEX
  8
LAYER_2
 10
-9.4911
 20
211.7004
 42
-0.3550784466
  0
VERTEX
  8
LAYER_2
 10
-9.6774
 20
211.8331
 42
-0.1590539016
  0
VERTEX
  8
LAYER_2
 10
-9.7016
 20
212.0591
 42
-0.2613372193
  0
VERTEX
  8
LAYER_2
 10
-9.6054
 20
212.3859
 42
-0.1728730088
  0
VERTEX
  8
LAYER_2
 10
-9.4911
 20
212.4149
 42
-0.3508351005
  0
VERTEX
  8
LAYER_2
 10
-9.3031
 20
212.2839
 42
-0.1617280931
  0
VERTEX
  8
LAYER_2
 10
-9.2778
 20
212.0591
  0
SEQEND
  0
POLYLINE
  8
LAYER_2
 40
0.05
 41
0.05
 66
1
 10
0
 20
0
 30
0
 70
1
  0
VERTEX
  8
LAYER_2
 10
-8.9667
 20
211.4352
  0
VERTEX
  8
LAYER_2
 10
-8.9667
 20
213.137
  0
VERTEX
  8
LAYER_2
 10
-9.2778
 20
213.137
  0
VERTEX
  8
LAYER_2
 10
-9.2778
 20
212.5707
 42
0.2263222596
  0
VERTEX
  8
LAYER_2
 10
-9.582
 20
212.6947
 42
0.2021447193
  0
VERTEX
  8
LAYER_2
 10
-9.8835
 20
212.5824
 42
0.1955994833
  0
VERTEX
  8
LAYER_2
 10
-10.0116
 20
212.1647
 42
0.01858076917
  0
VERTEX
  8
LAYER_2
 10
-10.013
 20
212.0591
 42
0.1992737425
  0
VERTEX
  8
LAYER_2
 10
-9.8835
 20
211.533
 42
0.1967798833
  0
VERTEX
  8
LAYER_2
 10
-9.5796
 20
211.4207
 42
0.2329721531
  0
VERTEX
  8
LAYER_2
 10
-9.2709
 20
211.5523
  0
VERTEX
  8
LAYER_2
 10
-9.2709
 20
211.4352
  0
SEQEND
  0
POLYLINE
  8
LAYER_2
 40
0.05
 41
0.05
 66
1
 10
0
 20
0
 30
0
 70
1
  0
VERTEX
  8
LAYER_2
 10
-10.6062
 20
211.894
 42
-0.2606176184
  0
VERTEX
  8
LAYER_2
 10
-10.6541
 20
211.7363
 42
-0.1975146001
  0
VERTEX
  8
LAYER_2
 10
-10.8384
 20
211.6763
 42
-0.4358674545
  0
VERTEX
  8
LAYER_2
 10
-11.0272
 20
211.8175
 42
-0.4654392595
  0
VERTEX
  8
LAYER_2
 10
-10.8433
 20
211.9609
  0
VERTEX
  8
LAYER_2
 10
-10.6062
 20
211.9609
  0
SEQEND
  0
POLYLINE
  8
LAYER_2
 40
0.05
 41
0.05
 66
1
 10
0
 20
0
 30
0
 70
1
  0
VERTEX
  8
LAYER_2
 10
-10.2951
 20
211.4352
  0
VERTEX
  8
LAYER_2
 10
-10.2951
 20
212.2551
 42
0.2204713638
  0
VERTEX
  8
LAYER_2
 10
-10.4207
 20
212.5772
 42
0.1806796456
  0
VERTEX
  8
LAYER_2
 10
-10.8267
 20
212.6947
 42
0.2375604919
  0
VERTEX
  8
LAYER_2
 10
-11.2739
 20
212.5179
  0
VERTEX
  8
LAYER_2
 10
-11.0779
 20
212.3243
 42
-0.2460763492
  0
VERTEX
  8
LAYER_2
 10
-10.8384
 20
212.4322
 42
-0.4683426501
  0
VERTEX
  8
LAYER_2
 10
-10.6062
 20
212.2358
  0
VERTEX
  8
LAYER_2
 10
-10.6062
 20
212.1738
  0
VERTEX
  8
LAYER_2
 10
-10.896
 20
212.1738
 42
0.2105830771
  0
VERTEX
  8
LAYER_2
 10
-11.2407
 20
212.0486
 42
0.1847749138
  0
VERTEX
  8
LAYER_2
 10
-11.3266
 20
211.8127
 42
0.1946881207
  0
VERTEX
  8
LAYER_2
 10
-11.2239
 20
211.533
 42
0.1984095291
  0
VERTEX
  8
LAYER_2
 10
-10.9053
 20
211.4228
 42
0.2251045156
  0
VERTEX
  8
LAYER_2
 10
-10.599
 20
211.5426
  0
VERTEX
  8
LAYER_2
 10
-10.599
 20
211.4352
  0
SEQEND
  0
POLYLINE
  8
LAYER_2
 40
0.05
 41
0.05
 66
1
 10
0
 20
0
 30
0
 70
1
  0
VERTEX
  8
LAYER_2
 10
-11.5733
 20
211.4352
  0
VERTEX
  8
LAYER_2
 10
-11.5733
 20
212.231
 42
0.2096424971
  0
VERTEX
  8
LAYER_2
 10
-11.7097
 20
212.5844
 42
0.1904514856
  0
VERTEX
  8
LAYER_2
 10
-12.016
 20
212.6947
 42
0.2201014615
  0
VERTEX
  8
LAYER_2
 10
-12.3894
 20
212.5369
 42
0.2475119635
  0
VERTEX
  8
LAYER_2
 10
-12.7198
 20
212.6947
 42
0.1971786765
  0
VERTEX
  8
LAYER_2
 10
-13.0309
 20
212.5658
  0
VERTEX
  8
LAYER_2
 10
-13.0309
 20
212.6805
  0
VERTEX
  8
LAYER_2
 10
-13.3348
 20
212.6805
  0
VERTEX
  8
LAYER_2
 10
-13.3348
 20
211.4352
  0
VERTEX
  8
LAYER_2
 10
-13.0233
 20
211.4352
  0
VERTEX
  8
LAYER_2
 10
-13.0233
 20
212.1882
 42
-0.4265481482
  0
VERTEX
  8
LAYER_2
 10
-12.8153
 20
212.4149
 42
-0.4361688158
  0
VERTEX
  8
LAYER_2
 10
-12.6096
 20
212.1882
  0
VERTEX
  8
LAYER_2
 10
-12.6096
 20
211.4352
  0
VERTEX
  8
LAYER_2
 10
-12.2985
 20
211.4352
  0
VERTEX
  8
LAYER_2
 10
-12.2985
 20
212.1951
 42
-0.4236814191
  0
VERTEX
  8
LAYER_2
 10
-12.0904
 20
212.4149
 42
-0.4367319455
  0
VERTEX
  8
LAYER_2
 10
-11.8844
 20
212.1882
  0
VERTEX
  8
LAYER_2
 10
-11.8844
 20
211.4352
  0
SEQEND
  0
POLYLINE
  8
LAYER_2
 40
0.05
 41
0.05
 66
1
 10
0
 20
0
 30
0
  0
VERTEX
  8
LAYER_2
 10
-13.8973
 20
212.0229
 42
-0.2061577285
  0
VERTEX
  8
LAYER_2
 10
-14.0003
 20
211.6401
 42
-0.1860547104
  0
VERTEX
  8
LAYER_2
 10
-14.1915
 20
211.5736
 42
-0.2912351062
  0
VERTEX
  8
LAYER_2
 10
-14.4327
 20
211.7044
 42
-0.1074256356
  0
VERTEX
  8
LAYER_2
 10
-14.4882
 20
212.0229
 42
-0.2074793493
  0
VERTEX
  8
LAYER_2
 10
-14.3843
 20
212.406
 42
-0.1847812498
  0
VERTEX
  8
LAYER_2
 10
-14.1915
 20
212.4725
 42
-0.2924886932
  0
VERTEX
  8
LAYER_2
 10
-13.9523
 20
212.3416
 42
-0.1065173685
  0
VERTEX
  8
LAYER_2
 10
-13.8973
 20
212.0229
  0
SEQEND
  0
POLYLINE
  8
LAYER_2
 40
0.05
 41
0.05
 66
1
 10
0
 20
0
 30
0
 70
1
  0
VERTEX
  8
LAYER_2
 10
-13.7247
 20
211.4352
  0
VERTEX
  8
LAYER_2
 10
-13.7247
 20
213.137
  0
VERTEX
  8
LAYER_2
 10
-13.8973
 20
213.137
  0
VERTEX
  8
LAYER_2
 10
-13.8973
 20
212.4749
 42
0.2526586678
  0
VERTEX
  8
LAYER_2
 10
-14.2298
 20
212.6258
 42
0.19617536
  0
VERTEX
  8
LAYER_2
 10
-14.5171
 20
212.5224
 42
0.2062736322
  0
VERTEX
  8
LAYER_2
 10
-14.6608
 20
212.0229
 42
0.1925049638
  0
VERTEX
  8
LAYER_2
 10
-14.5171
 20
211.5234
 42
0.1893263809
  0
VERTEX
  8
LAYER_2
 10
-14.2298
 20
211.4207
 42
0.2549957718
  0
VERTEX
  8
LAYER_2
 10
-13.8949
 20
211.5761
  0
VERTEX
  8
LAYER_2
 10
-13.8949
 20
211.4352
  0
SEQEND
  0
POLYLINE
  8
LAYER_2
 40
0.05
 41
0.05
 66
1
 10
0
 20
0
 30
0
 70
1
  0
VERTEX
  8
LAYER_2
 10
-15.0173
 20
211.4352
  0
VERTEX
  8
LAYER_2
 10
-15.0173
 20
212.1882
 42
0.2089360908
  0
VERTEX
  8
LAYER_2
 10
-15.1393
 20
212.5156
 42
0.1977212202
  0
VERTEX
  8
LAYER_2
 10
-15.4411
 20
212.6258
 42
0.2189458741
  0
VERTEX
  8
LAYER_2
 10
-15.7711
 20
212.4818
  0
VERTEX
  8
LAYER_2
 10
-15.7711
 20
212.6113
  0
VERTEX
  8
LAYER_2
 10
-15.9434
 20
212.6113
  0
VERTEX
  8
LAYER_2
 10
-15.9434
 20
211.4352
  0
VERTEX
  8
LAYER_2
 10
-15.7711
 20
211.4352
  0
VERTEX
  8
LAYER_2
 10
-15.7711
 20
212.1593
 42
-0.4284576329
  0
VERTEX
  8
LAYER_2
 10
-15.479
 20
212.4725
 42
-0.4466039224
  0
VERTEX
  8
LAYER_2
 10
-15.1896
 20
212.1593
  0
VERTEX
  8
LAYER_2
 10
-15.1896
 20
211.4352
  0
SEQEND
  0
POLYLINE
  8
LAYER_2
 40
0.05
 41
0.05
 66
1
 10
0
 20
0
 30
0
 70
1
  0
VERTEX
  8
LAYER_2
 10
-16.5346
 20
211.8506
 42
-0.2283736068
  0
VERTEX
  8
LAYER_2
 10
-16.5945
 20
211.6477
 42
-0.1936527339
  0
VERTEX
  8
LAYER_2
 10
-16.8553
 20
211.5688
 42
-0.4421173513
  0
VERTEX
  8
LAYER_2
 10
-17.1281
 20
211.77
 42
-0.3470924647
  0
VERTEX
  8
LAYER_2
 10
-16.9968
 20
211.9592
 42
-0.1261120874
  0
VERTEX
  8
LAYER_2
 10
-16.8625
 20
211.9774
  0
VERTEX
  8
LAYER_2
 10
-16.5346
 20
211.9774
  0
SEQEND
  0
POLYLINE
  8
LAYER_2
 40
0.05
 41
0.05
 66
1
 10
0
 20
0
 30
0
 70
1
  0
VERTEX
  8
LAYER_2
 10
-16.362
 20
211.4352
  0
VERTEX
  8
LAYER_2
 10
-16.362
 20
212.233
 42
0.2383829599
  0
VERTEX
  8
LAYER_2
 10
-16.4898
 20
212.5337
 42
0.1599209503
  0
VERTEX
  8
LAYER_2
 10
-16.8336
 20
212.6258
 42
0.2578644009
  0
VERTEX
  8
LAYER_2
 10
-17.2501
 20
212.4487
  0
VERTEX
  8
LAYER_2
 10
-17.133
 20
212.3409
 42
-0.2730960706
  0
VERTEX
  8
LAYER_2
 10
-16.8364
 20
212.4776
 42
-0.4521672334
  0
VERTEX
  8
LAYER_2
 10
-16.5346
 20
212.2193
  0
VERTEX
  8
LAYER_2
 10
-16.5346
 20
212.1066
  0
VERTEX
  8
LAYER_2
 10
-16.8863
 20
212.1066
 42
0.2189203862
  0
VERTEX
  8
LAYER_2
 10
-17.2226
 20
211.9822
 42
0.17494127
  0
VERTEX
  8
LAYER_2
 10
-17.2956
 20
211.7673
 42
0.2075768001
  0
VERTEX
  8
LAYER_2
 10
-17.2071
 20
211.5282
 42
0.2128603639
  0
VERTEX
  8
LAYER_2
 10
-16.8742
 20
211.4207
 42
0.2247839487
  0
VERTEX
  8
LAYER_2
 10
-16.5346
 20
211.5471
  0
VERTEX
  8
LAYER_2
 10
-16.5346
 20
211.4352
  0
SEQEND
  0
POLYLINE
  8
LAYER_2
 40
0.05
 41
0.05
 66
1
 10
0
 20
0
 30
0
 70
1
  0
VERTEX
  8
LAYER_2
 10
-17.6211
 20
211.4352
  0
VERTEX
  8
LAYER_2
 10
-17.6211
 20
212.1903
 42
0.2163078196
  0
VERTEX
  8
LAYER_2
 10
-17.7538
 20
212.5281
 42
0.1798246735
  0
VERTEX
  8
LAYER_2
 10
-18.0449
 20
212.6258
 42
0.2190712165
  0
VERTEX
  8
LAYER_2
 10
-18.3749
 20
212.4818
  0
VERTEX
  8
LAYER_2
 10
-18.3749
 20
213.137
  0
VERTEX
  8
LAYER_2
 10
-18.5475
 20
213.137
  0
VERTEX
  8
LAYER_2
 10
-18.5475
 20
211.4352
  0
VERTEX
  8
LAYER_2
 10
-18.3749
 20
211.4352
  0
VERTEX
  8
LAYER_2
 10
-18.3749
 20
212.1617
 42
-0.4350388577
  0
VERTEX
  8
LAYER_2
 10
-18.0807
 20
212.4725
 42
-0.4517618327
  0
VERTEX
  8
LAYER_2
 10
-17.7934
 20
212.1617
  0
VERTEX
  8
LAYER_2
 10
-17.7934
 20
211.4352
  0
SEQEND
  0
ENDBLK
  0
BLOCK
  8
LAYER_2
  2
AIGNBL02020007
 70
64
 10
0
 20
0
 30
0
  3
AIGNBL02020007
  0
INSERT
  8
LAYER_2
  2
AIGNBL02030008
 10
0
 20
0
 30
0
  0
ENDBLK
  0
BLOCK
  8
LAYER_2
  2
AIGNBL02020010
 70
64
 10
0
 20
0
 30
0
  3
AIGNBL02020010
  0
INSERT
  8
LAYER_2
  2
AIGNBL02030011
 10
0
 20
0
 30
0
  0
INSERT
  8
LAYER_2
  2
AIGNBL02030012
 10
0
 20
0
 30
0
  0
INSERT
  8
LAYER_2
  2
AIGNBL02030013
 10
0
 20
0
 30
0
  0
INSERT
  8
LAYER_2
  2
AIGNBL02030014
 10
0
 20
0
 30
0
  0
INSERT
  8
LAYER_2
  2
AIGNBL02030015
 10
0
 20
0
 30
0
  0
INSERT
  8
LAYER_2
  2
AIGNBL02030016
 10
0
 20
0
 30
0
  0
INSERT
  8
LAYER_2
  2
AIGNBL02030017
 10
0
 20
0
 30
0
  0
INSERT
  8
LAYER_2
  2
AIGNBL02030018
 10
0
 20
0
 30
0
  0
INSERT
  8
LAYER_2
  2
AIGNBL02030019
 10
0
 20
0
 30
0
  0
INSERT
  8
LAYER_2
  2
AIGNBL0203001A
 10
0
 20
0
 30
0
  0
INSERT
  8
LAYER_2
  2
AIGNBL0203001B
 10
0
 20
0
 30
0
  0
INSERT
  8
LAYER_2
  2
AIGNBL0203001C
 10
0
 20
0
 30
0
  0
INSERT
  8
LAYER_2
  2
AIGNBL0203001D
 10
0
 20
0
 30
0
  0
INSERT
  8
LAYER_2
  2
AIGNBL0203001E
 10
0
 20
0
 30
0
  0
INSERT
  8
LAYER_2
  2
AIGNBL0203001F
 10
0
 20
0
 30
0
  0
INSERT
  8
LAYER_2
  2
AIGNBL02030020
 10
0
 20
0
 30
0
  0
INSERT
  8
LAYER_2
  2
AIGNBL02030021
 10
0
 20
0
 30
0
  0
INSERT
  8
LAYER_2
  2
AIGNBL02030022
 10
0
 20
0
 30
0
  0
INSERT
  8
LAYER_2
  2
AIGNBL02030023
 10
0
 20
0
 30
0
  0
INSERT
  8
LAYER_2
  2
AIGNBL02030024
 10
0
 20
0
 30
0
  0
INSERT
  8
LAYER_2
  2
AIGNBL02030025
 10
0
 20
0
 30
0
  0
INSERT
  8
LAYER_2
  2
AIGNBL02030026
 10
0
 20
0
 30
0
  0
INSERT
  8
LAYER_2
  2
AIGNBL02030027
 10
0
 20
0
 30
0
  0
ENDBLK
  0
BLOCK
  8
LAYER_2
  2
AIGNBL02010002
 70
64
 10
0
 20
0
 30
0
  3
AIGNBL02010002
  0
POLYLINE
  8
LAYER_2
 40
0.7056
 41
0.7056
 66
1
 10
0
 20
0
 30
0
 70
1
  0
VERTEX
  8
LAYER_2
 10
251.6749
 20
230.337
  0
VERTEX
  8
LAYER_2
 10
251.6749
 20
33.3285
  0
VERTEX
  8
LAYER_2
 10
-30.3177
 20
33.3285
  0
VERTEX
  8
LAYER_2
 10
-30.3177
 20
230.337
  0
SEQEND
  0
ENDBLK
  0
BLOCK
  8
LAYER_2
  2
AIGNBL02010003
 70
64
 10
0
 20
0
 30
0
  3
AIGNBL02010003
  0
INSERT
  8
LAYER_2
  2
AIGNBL02020004
 10
0
 20
0
 30
0
  0
POLYLINE
  8
LAYER_2
 40
0.05
 41
0.05
 66
1
 10
0
 20
0
 30
0
  0
VERTEX
  8
LAYER_2
 10
-6.457
 20
223.2684
  0
VERTEX
  8
LAYER_2
 10
-8.0924
 20
223.2684
  0
VERTEX
  8
LAYER_2
 10
-8.0924
 20
216.1939
 42
0.09304299953
  0
VERTEX
  8
LAYER_2
 10
-7.9518
 20
215.4241
 42
0.2872011141
  0
VERTEX
  8
LAYER_2
 10
-6.4597
 20
214.3359
  0
VERTEX
  8
LAYER_2
 10
-6.457
 20
223.2684
  0
SEQEND
  0
INSERT
  8
LAYER_2
  2
AIGNBL02020005
 10
0
 20
0
 30
0
  0
ENDBLK
  0
BLOCK
  8
LAYER_2
  2
AIGNBL02010006
 70
64
 10
0
 20
0
 30
0
  3
AIGNBL02010006
  0
INSERT
  8
LAYER_2
  2
AIGNBL02020007
 10
0
 20
0
 30
0
  0
INSERT
  8
LAYER_2
  2
AIGNBL02020010
 10
0
 20
0
 30
0
  0
ENDBLK
  0
BLOCK
  8
LAYER_2
  2
AIGNBL02010028
 70
64
 10
0
 20
0
 30
0
  3
AIGNBL02010028
  0
POLYLINE
  8
LAYER_2
  6
AIGENLINE001
 40
0.1376
 41
0.1376
 66
1
 10
0
 20
0
 30
0
 70
128
  0
VERTEX
  8
LAYER_2
 10
53.6489
 20
94.1392
  0
VERTEX
  8
LAYER_2
 10
53.6489
 20
93.9586
  0
SEQEND
  0
POLYLINE
  8
LAYER_2
  6
AIGENLINE001
 40
0.1376
 41
0.1376
 66
1
 10
0
 20
0
 30
0
 70
128
  0
VERTEX
  8
LAYER_2
 10
53.9213
 20
94.1392
  0
VERTEX
  8
LAYER_2
 10
53.9213
 20
93.9586
  0
SEQEND
  0
ENDBLK
  0
BLOCK
  8
LAYER_2
  2
AIGNBL02010029
 70
64
 10
0
 20
0
 30
0
  3
AIGNBL02010029
  0
POLYLINE
  8
LAYER_2
  6
AIGENLINE002
 40
0.1376
 41
0.1376
 66
1
 10
0
 20
0
 30
0
 70
128
  0
VERTEX
  8
LAYER_2
 10
53.9213
 20
94.1392
  0
VERTEX
  8
LAYER_2
 10
53.9135
 20
94.1434
  0
SEQEND
  0
POLYLINE
  8
LAYER_2
  6
AIGENLINE002
 40
0.1376
 41
0.1376
 66
1
 10
0
 20
0
 30
0
 70
128
  0
VERTEX
  8
LAYER_2
 10
53.657
 20
94.1434
  0
VERTEX
  8
LAYER_2
 10
53.6493
 20
94.1392
  0
SEQEND
  0
ENDBLK
  0
BLOCK
  8
LAYER_2
  2
AIGNBL0201002A
 70
64
 10
0
 20
0
 30
0
  3
AIGNBL0201002A
  0
POLYLINE
  8
LAYER_2
  6
AIGENLINE001
 40
0.1376
 41
0.1376
 66
1
 10
0
 20
0
 30
0
 70
128
  0
VERTEX
  8
LAYER_2
 10
98.5209
 20
94.1392
  0
VERTEX
  8
LAYER_2
 10
98.5209
 20
93.9586
  0
SEQEND
  0
POLYLINE
  8
LAYER_2
  6
AIGENLINE001
 40
0.1376
 41
0.1376
 66
1
 10
0
 20
0
 30
0
 70
128
  0
VERTEX
  8
LAYER_2
 10
98.7932
 20
94.1392
  0
VERTEX
  8
LAYER_2
 10
98.7932
 20
93.9586
  0
SEQEND
  0
ENDBLK
  0
BLOCK
  8
LAYER_2
  2
AIGNBL0201002B
 70
64
 10
0
 20
0
 30
0
  3
AIGNBL0201002B
  0
POLYLINE
  8
LAYER_2
  6
AIGENLINE002
 40
0.1376
 41
0.1376
 66
1
 10
0
 20
0
 30
0
 70
128
  0
VERTEX
  8
LAYER_2
 10
98.7932
 20
94.1392
  0
VERTEX
  8
LAYER_2
 10
98.7854
 20
94.1434
  0
SEQEND
  0
POLYLINE
  8
LAYER_2
  6
AIGENLINE002
 40
0.1376
 41
0.1376
 66
1
 10
0
 20
0
 30
0
 70
128
  0
VERTEX
  8
LAYER_2
 10
98.5286
 20
94.1434
  0
VERTEX
  8
LAYER_2
 10
98.5209
 20
94.1392
  0
SEQEND
  0
ENDBLK
  0
BLOCK
  8
LAYER_2
  2
AIGNBL0201002C
 70
64
 10
0
 20
0
 30
0
  3
AIGNBL0201002C
  0
POLYLINE
  8
LAYER_2
  6
AIGENLINE003
 40
0.1376
 41
0.1376
 66
1
 10
0
 20
0
 30
0
 70
128
  0
VERTEX
  8
LAYER_2
 10
157.3151
 20
137.654
 42
0.3925572542
  0
VERTEX
  8
LAYER_2
 10
157.1575
 20
137.4966
  0
SEQEND
  0
POLYLINE
  8
LAYER_2
  6
AIGENLINE003
 40
0.1376
 41
0.1376
 66
1
 10
0
 20
0
 30
0
 70
128
  0
VERTEX
  8
LAYER_2
 10
157.1575
 20
136.9445
 42
0.3930432971
  0
VERTEX
  8
LAYER_2
 10
157.3151
 20
136.7876
  0
SEQEND
  0
ENDBLK
  0
BLOCK
  8
LAYER_2
  2
AIGNBL0201002D
 70
64
 10
0
 20
0
 30
0
  3
AIGNBL0201002D
  0
POLYLINE
  8
LAYER_2
  6
AIGENLINE003
 40
0.1376
 41
0.1376
 66
1
 10
0
 20
0
 30
0
 70
128
  0
VERTEX
  8
LAYER_2
 10
199.7212
 20
137.4963
 42
0.3932735802
  0
VERTEX
  8
LAYER_2
 10
199.5635
 20
137.6536
  0
SEQEND
  0
POLYLINE
  8
LAYER_2
  6
AIGENLINE003
 40
0.1376
 41
0.1376
 66
1
 10
0
 20
0
 30
0
 70
128
  0
VERTEX
  8
LAYER_2
 10
199.5635
 20
136.7872
 42
0.4140398493
  0
VERTEX
  8
LAYER_2
 10
199.7208
 20
136.9445
  0
SEQEND
  0
ENDBLK
  0
BLOCK
  8
LAYER_2
  2
AIGNBL0201002E
 70
64
 10
0
 20
0
 30
0
  3
AIGNBL0201002E
  0
POLYLINE
  8
LAYER_2
  6
AIGENLINE001
 40
0.1376
 41
0.1376
 66
1
 10
0
 20
0
 30
0
 70
128
  0
VERTEX
  8
LAYER_2
 10
172.1957
 20
94.1738
  0
VERTEX
  8
LAYER_2
 10
172.1957
 20
93.9928
  0
SEQEND
  0
POLYLINE
  8
LAYER_2
  6
AIGENLINE001
 40
0.1376
 41
0.1376
 66
1
 10
0
 20
0
 30
0
 70
128
  0
VERTEX
  8
LAYER_2
 10
172.468
 20
94.1738
  0
VERTEX
  8
LAYER_2
 10
172.468
 20
93.9928
  0
SEQEND
  0
ENDBLK
  0
BLOCK
  8
LAYER_2
  2
AIGNBL0201002F
 70
64
 10
0
 20
0
 30
0
  3
AIGNBL0201002F
  0
POLYLINE
  8
LAYER_2
  6
AIGENLINE002
 40
0.1376
 41
0.1376
 66
1
 10
0
 20
0
 30
0
 70
128
  0
VERTEX
  8
LAYER_2
 10
172.468
 20
94.1738
  0
VERTEX
  8
LAYER_2
 10
172.4603
 20
94.178
  0
SEQEND
  0
POLYLINE
  8
LAYER_2
  6
AIGENLINE002
 40
0.1376
 41
0.1376
 66
1
 10
0
 20
0
 30
0
 70
128
  0
VERTEX
  8
LAYER_2
 10
172.2034
 20
94.178
  0
VERTEX
  8
LAYER_2
 10
172.1957
 20
94.1738
  0
SEQEND
  0
ENDBLK
  0
BLOCK
  8
LAYER_2
  2
AIGNBL02010030
 70
64
 10
0
 20
0
 30
0
  3
AIGNBL02010030
  0
POLYLINE
  8
LAYER_2
  6
AIGENLINE001
 40
0.1376
 41
0.1376
 66
1
 10
0
 20
0
 30
0
 70
128
  0
VERTEX
  8
LAYER_2
 10
184.8068
 20
94.1738
  0
VERTEX
  8
LAYER_2
 10
184.8068
 20
93.9928
  0
SEQEND
  0
POLYLINE
  8
LAYER_2
  6
AIGENLINE001
 40
0.1376
 41
0.1376
 66
1
 10
0
 20
0
 30
0
 70
128
  0
VERTEX
  8
LAYER_2
 10
185.0791
 20
94.1738
  0
VERTEX
  8
LAYER_2
 10
185.0791
 20
93.9928
  0
SEQEND
  0
ENDBLK
  0
BLOCK
  8
LAYER_2
  2
AIGNBL02010031
 70
64
 10
0
 20
0
 30
0
  3
AIGNBL02010031
  0
POLYLINE
  8
LAYER_2
  6
AIGENLINE002
 40
0.1376
 41
0.1376
 66
1
 10
0
 20
0
 30
0
 70
128
  0
VERTEX
  8
LAYER_2
 10
185.0791
 20
94.1738
  0
VERTEX
  8
LAYER_2
 10
185.0713
 20
94.178
  0
SEQEND
  0
POLYLINE
  8
LAYER_2
  6
AIGENLINE002
 40
0.1376
 41
0.1376
 66
1
 10
0
 20
0
 30
0
 70
128
  0
VERTEX
  8
LAYER_2
 10
184.8149
 20
94.178
  0
VERTEX
  8
LAYER_2
 10
184.8071
 20
94.1738
  0
SEQEND
  0
ENDBLK
  0
BLOCK
  8
LAYER_2
  2
AIGNBL02010032
 70
64
 10
0
 20
0
 30
0
  3
AIGNBL02010032
  0
POLYLINE
  8
LAYER_2
 40
0.2752
 41
0.2752
 66
1
 10
0
 20
0
 30
0
  0
VERTEX
  8
LAYER_2
 10
195.443
 20
94.6969
  0
VERTEX
  8
LAYER_2
 10
161.8649
 20
94.6969
  0
SEQEND
  0
POLYLINE
  8
LAYER_2
 40
0.2752
 41
0.2752
 66
1
 10
0
 20
0
 30
0
  0
VERTEX
  8
LAYER_2
 10
160.7614
 20
95.485
  0
VERTEX
  8
LAYER_2
 10
196.5458
 20
95.485
  0
SEQEND
  0
POLYLINE
  8
LAYER_2
 40
0.2752
 41
0.2752
 66
1
 10
0
 20
0
 30
0
  0
VERTEX
  8
LAYER_2
 10
160.7614
 20
95.485
 42
0.3928159794
  0
VERTEX
  8
LAYER_2
 10
160.5247
 20
95.2487
  0
SEQEND
  0
POLYLINE
  8
LAYER_2
 40
0.2752
 41
0.2752
 66
1
 10
0
 20
0
 30
0
  0
VERTEX
  8
LAYER_2
 10
160.5247
 20
94.9333
  0
VERTEX
  8
LAYER_2
 10
160.5247
 20
95.2487
  0
SEQEND
  0
POLYLINE
  8
LAYER_2
 40
0.2752
 41
0.2752
 66
1
 10
0
 20
0
 30
0
  0
VERTEX
  8
LAYER_2
 10
160.5247
 20
94.9333
 42
0.4141774591
  0
VERTEX
  8
LAYER_2
 10
160.7614
 20
94.6966
  0
SEQEND
  0
POLYLINE
  8
LAYER_2
 40
0.2752
 41
0.2752
 66
1
 10
0
 20
0
 30
0
  0
VERTEX
  8
LAYER_2
 10
161.8649
 20
94.6969
  0
VERTEX
  8
LAYER_2
 10
160.7611
 20
94.6969
  0
SEQEND
  0
POLYLINE
  8
LAYER_2
 40
0.2752
 41
0.2752
 66
1
 10
0
 20
0
 30
0
  0
VERTEX
  8
LAYER_2
 10
162.1013
 20
94.4602
 42
0.3930319599
  0
VERTEX
  8
LAYER_2
 10
161.8649
 20
94.6969
  0
SEQEND
  0
POLYLINE
  8
LAYER_2
 40
0.2752
 41
0.2752
 66
1
 10
0
 20
0
 30
0
  0
VERTEX
  8
LAYER_2
 10
196.7825
 20
95.2487
 42
0.4141264552
  0
VERTEX
  8
LAYER_2
 10
196.5462
 20
95.485
  0
SEQEND
  0
POLYLINE
  8
LAYER_2
 40
0.2752
 41
0.2752
 66
1
 10
0
 20
0
 30
0
  0
VERTEX
  8
LAYER_2
 10
196.7825
 20
94.9333
  0
VERTEX
  8
LAYER_2
 10
196.7825
 20
95.2487
  0
SEQEND
  0
POLYLINE
  8
LAYER_2
 40
0.2752
 41
0.2752
 66
1
 10
0
 20
0
 30
0
  0
VERTEX
  8
LAYER_2
 10
196.5462
 20
94.6969
 42
0.3927815996
  0
VERTEX
  8
LAYER_2
 10
196.7829
 20
94.9333
  0
SEQEND
  0
POLYLINE
  8
LAYER_2
 40
0.2752
 41
0.2752
 66
1
 10
0
 20
0
 30
0
  0
VERTEX
  8
LAYER_2
 10
195.443
 20
94.6969
  0
VERTEX
  8
LAYER_2
 10
196.5462
 20
94.6969
  0
SEQEND
  0
POLYLINE
  8
LAYER_2
 40
0.2752
 41
0.2752
 66
1
 10
0
 20
0
 30
0
  0
VERTEX
  8
LAYER_2
 10
195.443
 20
94.6969
 42
0.4142256608
  0
VERTEX
  8
LAYER_2
 10
195.2063
 20
94.4602
  0
SEQEND
  0
POLYLINE
  8
LAYER_2
 40
0.2752
 41
0.2752
 66
1
 10
0
 20
0
 30
0
  0
VERTEX
  8
LAYER_2
 10
37.7281
 20
94.6969
  0
VERTEX
  8
LAYER_2
 10
113.8699
 20
94.6969
  0
SEQEND
  0
POLYLINE
  8
LAYER_2
 40
0.2752
 41
0.2752
 66
1
 10
0
 20
0
 30
0
 70
1
  0
VERTEX
  8
LAYER_2
 10
200.0732
 20
72.3118
  0
VERTEX
  8
LAYER_2
 10
200.4673
 20
72.3118
  0
VERTEX
  8
LAYER_2
 10
200.4673
 20
72.1985
  0
VERTEX
  8
LAYER_2
 10
200.0732
 20
72.1985
  0
SEQEND
  0
POLYLINE
  8
LAYER_2
 40
0.2752
 41
0.2752
 66
1
 10
0
 20
0
 30
0
 70
1
  0
VERTEX
  8
LAYER_2
 10
156.8491
 20
72.3118
  0
VERTEX
  8
LAYER_2
 10
157.2432
 20
72.3118
  0
VERTEX
  8
LAYER_2
 10
157.2432
 20
72.1985
  0
VERTEX
  8
LAYER_2
 10
156.8491
 20
72.1985
  0
SEQEND
  0
POLYLINE
  8
LAYER_2
 40
0.2752
 41
0.2752
 66
1
 10
0
 20
0
 30
0
  0
VERTEX
  8
LAYER_2
 10
184.0141
 20
94.3029
  0
VERTEX
  8
LAYER_2
 10
185.8658
 20
94.3029
  0
SEQEND
  0
POLYLINE
  8
LAYER_2
 40
0.2752
 41
0.2752
 66
1
 10
0
 20
0
 30
0
  0
VERTEX
  8
LAYER_2
 10
185.8658
 20
94.1452
  0
VERTEX
  8
LAYER_2
 10
184.0141
 20
94.1452
  0
SEQEND
  0
POLYLINE
  8
LAYER_2
 40
0.2752
 41
0.2752
 66
1
 10
0
 20
0
 30
0
  0
VERTEX
  8
LAYER_2
 10
184.0141
 20
94.3029
  0
VERTEX
  8
LAYER_2
 10
184.0141
 20
94.1452
  0
SEQEND
  0
POLYLINE
  8
LAYER_2
 40
0.2752
 41
0.2752
 66
1
 10
0
 20
0
 30
0
  0
VERTEX
  8
LAYER_2
 10
185.8658
 20
94.3029
  0
VERTEX
  8
LAYER_2
 10
185.8658
 20
94.1452
  0
SEQEND
  0
POLYLINE
  8
LAYER_2
 40
0.2752
 41
0.2752
 66
1
 10
0
 20
0
 30
0
  0
VERTEX
  8
LAYER_2
 10
184.9433
 20
91.9036
  0
VERTEX
  8
LAYER_2
 10
184.9433
 20
94.1106
  0
SEQEND
  0
POLYLINE
  8
LAYER_2
 40
0.2752
 41
0.2752
 66
1
 10
0
 20
0
 30
0
  0
VERTEX
  8
LAYER_2
 10
171.4026
 20
94.3029
  0
VERTEX
  8
LAYER_2
 10
173.2547
 20
94.3029
  0
SEQEND
  0
POLYLINE
  8
LAYER_2
 40
0.2752
 41
0.2752
 66
1
 10
0
 20
0
 30
0
  0
VERTEX
  8
LAYER_2
 10
198.8417
 20
136.7872
  0
VERTEX
  8
LAYER_2
 10
198.8396
 20
136.7872
  0
SEQEND
  0
POLYLINE
  8
LAYER_2
 40
0.2752
 41
0.2752
 66
1
 10
0
 20
0
 30
0
  0
VERTEX
  8
LAYER_2
 10
195.7274
 20
136.7872
  0
VERTEX
  8
LAYER_2
 10
195.7266
 20
136.7872
  0
SEQEND
  0
POLYLINE
  8
LAYER_2
 40
0.2752
 41
0.2752
 66
1
 10
0
 20
0
 30
0
  0
VERTEX
  8
LAYER_2
 10
196.2474
 20
136.7872
  0
VERTEX
  8
LAYER_2
 10
196.2368
 20
136.7872
  0
SEQEND
  0
POLYLINE
  8
LAYER_2
 40
0.2752
 41
0.2752
 66
1
 10
0
 20
0
 30
0
  0
VERTEX
  8
LAYER_2
 10
161.9425
 20
123.5524
 42
0.1883835928
  0
VERTEX
  8
LAYER_2
 10
162.1588
 20
123.4663
  0
SEQEND
  0
POLYLINE
  8
LAYER_2
 40
0.2752
 41
0.2752
 66
1
 10
0
 20
0
 30
0
  0
VERTEX
  8
LAYER_2
 10
161.8445
 20
123.7637
 42
0.186852299
  0
VERTEX
  8
LAYER_2
 10
161.9425
 20
123.5524
  0
SEQEND
  0
POLYLINE
  8
LAYER_2
 40
0.2752
 41
0.2752
 66
1
 10
0
 20
0
 30
0
  0
VERTEX
  8
LAYER_2
 10
161.8445
 20
123.7637
  0
VERTEX
  8
LAYER_2
 10
161.1527
 20
135.8418
  0
SEQEND
  0
POLYLINE
  8
LAYER_2
 40
0.2752
 41
0.2752
 66
1
 10
0
 20
0
 30
0
  0
VERTEX
  8
LAYER_2
 10
161.0736
 20
136.6295
 42
0.2618934711
  0
VERTEX
  8
LAYER_2
 10
160.8076
 20
136.7868
  0
SEQEND
  0
POLYLINE
  8
LAYER_2
 40
0.2752
 41
0.2752
 66
1
 10
0
 20
0
 30
0
  0
VERTEX
  8
LAYER_2
 10
198.5157
 20
136.6295
  0
VERTEX
  8
LAYER_2
 10
198.5157
 20
136.7868
  0
SEQEND
  0
POLYLINE
  8
LAYER_2
 40
0.2752
 41
0.2752
 66
1
 10
0
 20
0
 30
0
  0
VERTEX
  8
LAYER_2
 10
198.9098
 20
136.6295
  0
VERTEX
  8
LAYER_2
 10
198.9098
 20
136.7868
  0
SEQEND
  0
POLYLINE
  8
LAYER_2
 40
0.2752
 41
0.2752
 66
1
 10
0
 20
0
 30
0
  0
VERTEX
  8
LAYER_2
 10
157.9226
 20
136.6295
  0
VERTEX
  8
LAYER_2
 10
157.9226
 20
136.7868
  0
SEQEND
  0
POLYLINE
  8
LAYER_2
 40
0.2752
 41
0.2752
 66
1
 10
0
 20
0
 30
0
  0
VERTEX
  8
LAYER_2
 10
158.317
 20
136.6295
  0
VERTEX
  8
LAYER_2
 10
158.317
 20
136.7868
  0
SEQEND
  0
POLYLINE
  8
LAYER_2
 40
0.2752
 41
0.2752
 66
1
 10
0
 20
0
 30
0
  0
VERTEX
  8
LAYER_2
 10
199.7212
 20
137.4963
 42
0.3932735802
  0
VERTEX
  8
LAYER_2
 10
199.5635
 20
137.6536
  0
SEQEND
  0
POLYLINE
  8
LAYER_2
 40
0.2752
 41
0.2752
 66
1
 10
0
 20
0
 30
0
  0
VERTEX
  8
LAYER_2
 10
157.3151
 20
137.654
 42
0.3925572542
  0
VERTEX
  8
LAYER_2
 10
157.1575
 20
137.4966
  0
SEQEND
  0
POLYLINE
  8
LAYER_2
 40
0.2752
 41
0.2752
 66
1
 10
0
 20
0
 30
0
  0
VERTEX
  8
LAYER_2
 10
157.1575
 20
136.9445
 42
0.3930432971
  0
VERTEX
  8
LAYER_2
 10
157.3151
 20
136.7876
  0
SEQEND
  0
POLYLINE
  8
LAYER_2
 40
0.2752
 41
0.2752
 66
1
 10
0
 20
0
 30
0
  0
VERTEX
  8
LAYER_2
 10
199.5635
 20
136.7872
 42
0.4140398493
  0
VERTEX
  8
LAYER_2
 10
199.7208
 20
136.9445
  0
SEQEND
  0
POLYLINE
  8
LAYER_2
 40
0.2752
 41
0.2752
 66
1
 10
0
 20
0
 30
0
  0
VERTEX
  8
LAYER_2
 10
157.1575
 20
137.4963
  0
VERTEX
  8
LAYER_2
 10
157.1575
 20
136.9449
  0
SEQEND
  0
POLYLINE
  8
LAYER_2
 40
0.2752
 41
0.2752
 66
1
 10
0
 20
0
 30
0
  0
VERTEX
  8
LAYER_2
 10
199.7212
 20
137.4963
  0
VERTEX
  8
LAYER_2
 10
199.7212
 20
136.9449
  0
SEQEND
  0
POLYLINE
  8
LAYER_2
 40
0.2752
 41
0.2752
 66
1
 10
0
 20
0
 30
0
  0
VERTEX
  8
LAYER_2
 10
196.6788
 20
123.4663
  0
VERTEX
  8
LAYER_2
 10
162.1591
 20
123.4663
  0
SEQEND
  0
POLYLINE
  8
LAYER_2
 40
0.2752
 41
0.2752
 66
1
 10
0
 20
0
 30
0
  0
VERTEX
  8
LAYER_2
 10
197.5085
 20
123.4663
  0
VERTEX
  8
LAYER_2
 10
196.6792
 20
123.4663
  0
SEQEND
  0
POLYLINE
  8
LAYER_2
 40
0.2752
 41
0.2752
 66
1
 10
0
 20
0
 30
0
  0
VERTEX
  8
LAYER_2
 10
196.1863
 20
136.6295
  0
VERTEX
  8
LAYER_2
 10
196.1941
 20
136.7868
  0
SEQEND
  0
POLYLINE
  8
LAYER_2
 40
0.2752
 41
0.2752
 66
1
 10
0
 20
0
 30
0
  0
VERTEX
  8
LAYER_2
 10
196.9621
 20
137.654
  0
VERTEX
  8
LAYER_2
 10
159.9162
 20
137.654
  0
VERTEX
  8
LAYER_2
 10
157.3151
 20
137.654
  0
SEQEND
  0
POLYLINE
  8
LAYER_2
 40
0.2752
 41
0.2752
 66
1
 10
0
 20
0
 30
0
  0
VERTEX
  8
LAYER_2
 10
199.5635
 20
137.654
  0
VERTEX
  8
LAYER_2
 10
196.9624
 20
137.654
  0
SEQEND
  0
POLYLINE
  8
LAYER_2
 40
0.2752
 41
0.2752
 66
1
 10
0
 20
0
 30
0
  0
VERTEX
  8
LAYER_2
 10
196.9621
 20
136.7872
  0
VERTEX
  8
LAYER_2
 10
159.9162
 20
136.7872
  0
VERTEX
  8
LAYER_2
 10
157.3151
 20
136.7872
  0
SEQEND
  0
POLYLINE
  8
LAYER_2
 40
0.2752
 41
0.2752
 66
1
 10
0
 20
0
 30
0
  0
VERTEX
  8
LAYER_2
 10
199.5635
 20
136.7872
  0
VERTEX
  8
LAYER_2
 10
196.9624
 20
136.7872
  0
SEQEND
  0
POLYLINE
  8
LAYER_2
 40
0.2752
 41
0.2752
 66
1
 10
0
 20
0
 30
0
  0
VERTEX
  8
LAYER_2
 10
173.2547
 20
94.1452
  0
VERTEX
  8
LAYER_2
 10
171.4026
 20
94.1452
  0
SEQEND
  0
POLYLINE
  8
LAYER_2
 40
0.2752
 41
0.2752
 66
1
 10
0
 20
0
 30
0
  0
VERTEX
  8
LAYER_2
 10
171.4026
 20
94.3029
  0
VERTEX
  8
LAYER_2
 10
171.4026
 20
94.1452
  0
SEQEND
  0
POLYLINE
  8
LAYER_2
 40
0.2752
 41
0.2752
 66
1
 10
0
 20
0
 30
0
  0
VERTEX
  8
LAYER_2
 10
173.2547
 20
94.3029
  0
VERTEX
  8
LAYER_2
 10
173.2547
 20
94.1452
  0
SEQEND
  0
POLYLINE
  8
LAYER_2
 40
0.2752
 41
0.2752
 66
1
 10
0
 20
0
 30
0
  0
VERTEX
  8
LAYER_2
 10
172.3318
 20
91.9036
  0
VERTEX
  8
LAYER_2
 10
172.3318
 20
94.1106
  0
SEQEND
  0
POLYLINE
  8
LAYER_2
 40
0.2752
 41
0.2752
 66
1
 10
0
 20
0
 30
0
  0
VERTEX
  8
LAYER_2
 10
158.7862
 20
91.9036
  0
VERTEX
  8
LAYER_2
 10
198.4892
 20
91.9036
  0
SEQEND
  0
POLYLINE
  8
LAYER_2
 40
0.2752
 41
0.2752
 66
1
 10
0
 20
0
 30
0
  0
VERTEX
  8
LAYER_2
 10
198.4141
 20
94.3029
  0
VERTEX
  8
LAYER_2
 10
158.8614
 20
94.3029
  0
SEQEND
  0
POLYLINE
  8
LAYER_2
 40
0.2752
 41
0.2752
 66
1
 10
0
 20
0
 30
0
  0
VERTEX
  8
LAYER_2
 10
158.1622
 20
72.3114
  0
VERTEX
  8
LAYER_2
 10
156.4184
 20
72.3114
  0
SEQEND
  0
POLYLINE
  8
LAYER_2
 40
0.2752
 41
0.2752
 66
1
 10
0
 20
0
 30
0
  0
VERTEX
  8
LAYER_2
 10
156.4184
 20
72.3114
  0
VERTEX
  8
LAYER_2
 10
155.7795
 20
72.3114
  0
SEQEND
  0
POLYLINE
  8
LAYER_2
 40
0.2752
 41
0.2752
 66
1
 10
0
 20
0
 30
0
  0
VERTEX
  8
LAYER_2
 10
158.4412
 20
135.8418
  0
VERTEX
  8
LAYER_2
 10
156.4184
 20
72.3114
  0
SEQEND
  0
POLYLINE
  8
LAYER_2
 40
0.2752
 41
0.2752
 66
1
 10
0
 20
0
 30
0
  0
VERTEX
  8
LAYER_2
 10
157.8027
 20
135.8418
  0
VERTEX
  8
LAYER_2
 10
155.7795
 20
72.3114
  0
SEQEND
  0
POLYLINE
  8
LAYER_2
 40
0.2752
 41
0.2752
 66
1
 10
0
 20
0
 30
0
  0
VERTEX
  8
LAYER_2
 10
158.7862
 20
91.9036
  0
VERTEX
  8
LAYER_2
 10
158.1622
 20
72.3114
  0
SEQEND
  0
POLYLINE
  8
LAYER_2
 40
0.2752
 41
0.2752
 66
1
 10
0
 20
0
 30
0
  0
VERTEX
  8
LAYER_2
 10
160.1853
 20
135.8418
  0
VERTEX
  8
LAYER_2
 10
158.8614
 20
94.3025
  0
SEQEND
  0
POLYLINE
  8
LAYER_2
 40
0.2752
 41
0.2752
 66
1
 10
0
 20
0
 30
0
  0
VERTEX
  8
LAYER_2
 10
199.1133
 20
72.3114
  0
VERTEX
  8
LAYER_2
 10
200.8571
 20
72.3114
  0
SEQEND
  0
POLYLINE
  8
LAYER_2
 40
0.2752
 41
0.2752
 66
1
 10
0
 20
0
 30
0
  0
VERTEX
  8
LAYER_2
 10
200.8571
 20
72.3114
  0
VERTEX
  8
LAYER_2
 10
201.496
 20
72.3114
  0
SEQEND
  0
POLYLINE
  8
LAYER_2
 40
0.2752
 41
0.2752
 66
1
 10
0
 20
0
 30
0
  0
VERTEX
  8
LAYER_2
 10
198.8339
 20
136.3924
  0
VERTEX
  8
LAYER_2
 10
200.8567
 20
72.8621
  0
SEQEND
  0
POLYLINE
  8
LAYER_2
 40
0.2752
 41
0.2752
 66
1
 10
0
 20
0
 30
0
  0
VERTEX
  8
LAYER_2
 10
199.4728
 20
136.3924
  0
VERTEX
  8
LAYER_2
 10
201.496
 20
72.8621
  0
SEQEND
  0
POLYLINE
  8
LAYER_2
 40
0.2752
 41
0.2752
 66
1
 10
0
 20
0
 30
0
  0
VERTEX
  8
LAYER_2
 10
198.4892
 20
91.9036
  0
VERTEX
  8
LAYER_2
 10
199.1133
 20
72.3114
  0
SEQEND
  0
POLYLINE
  8
LAYER_2
 40
0.2752
 41
0.2752
 66
1
 10
0
 20
0
 30
0
  0
VERTEX
  8
LAYER_2
 10
197.0901
 20
136.3924
  0
VERTEX
  8
LAYER_2
 10
198.4141
 20
94.3029
  0
SEQEND
  0
POLYLINE
  8
LAYER_2
 40
0.2752
 41
0.2752
 66
1
 10
0
 20
0
 30
0
  0
VERTEX
  8
LAYER_2
 10
197.3335
 20
136.6295
  0
VERTEX
  8
LAYER_2
 10
199.6982
 20
136.6295
  0
SEQEND
  0
POLYLINE
  8
LAYER_2
 40
0.2752
 41
0.2752
 66
1
 10
0
 20
0
 30
0
  0
VERTEX
  8
LAYER_2
 10
197.3335
 20
135.8418
  0
VERTEX
  8
LAYER_2
 10
199.6982
 20
135.8418
  0
SEQEND
  0
POLYLINE
  8
LAYER_2
 40
0.2752
 41
0.2752
 66
1
 10
0
 20
0
 30
0
  0
VERTEX
  8
LAYER_2
 10
199.6979
 20
136.6295
  0
VERTEX
  8
LAYER_2
 10
199.6979
 20
135.8414
  0
SEQEND
  0
POLYLINE
  8
LAYER_2
 40
0.2752
 41
0.2752
 66
1
 10
0
 20
0
 30
0
  0
VERTEX
  8
LAYER_2
 10
159.4992
 20
135.8418
  0
VERTEX
  8
LAYER_2
 10
197.3332
 20
135.8418
  0
SEQEND
  0
POLYLINE
  8
LAYER_2
 40
0.2752
 41
0.2752
 66
1
 10
0
 20
0
 30
0
  0
VERTEX
  8
LAYER_2
 10
157.5286
 20
136.6295
  0
VERTEX
  8
LAYER_2
 10
159.4992
 20
136.6295
  0
VERTEX
  8
LAYER_2
 10
197.3332
 20
136.6295
  0
SEQEND
  0
POLYLINE
  8
LAYER_2
 40
0.2752
 41
0.2752
 66
1
 10
0
 20
0
 30
0
  0
VERTEX
  8
LAYER_2
 10
157.5286
 20
135.8418
  0
VERTEX
  8
LAYER_2
 10
159.4992
 20
135.8418
  0
SEQEND
  0
POLYLINE
  8
LAYER_2
 40
0.2752
 41
0.2752
 66
1
 10
0
 20
0
 30
0
  0
VERTEX
  8
LAYER_2
 10
157.5286
 20
135.8418
  0
VERTEX
  8
LAYER_2
 10
157.5286
 20
136.6299
  0
SEQEND
  0
POLYLINE
  8
LAYER_2
 40
0.2752
 41
0.2752
 66
1
 10
0
 20
0
 30
0
  0
VERTEX
  8
LAYER_2
 10
115.2097
 20
95.2487
 42
0.414128109
  0
VERTEX
  8
LAYER_2
 10
114.9734
 20
95.485
  0
SEQEND
  0
POLYLINE
  8
LAYER_2
 40
0.2752
 41
0.2752
 66
1
 10
0
 20
0
 30
0
  0
VERTEX
  8
LAYER_2
 10
115.2097
 20
94.9333
  0
VERTEX
  8
LAYER_2
 10
115.2097
 20
95.2487
  0
SEQEND
  0
POLYLINE
  8
LAYER_2
 40
0.2752
 41
0.2752
 66
1
 10
0
 20
0
 30
0
  0
VERTEX
  8
LAYER_2
 10
114.9734
 20
94.6969
 42
0.3931095318
  0
VERTEX
  8
LAYER_2
 10
115.2094
 20
94.9333
  0
SEQEND
  0
POLYLINE
  8
LAYER_2
 40
0.2752
 41
0.2752
 66
1
 10
0
 20
0
 30
0
  0
VERTEX
  8
LAYER_2
 10
113.8695
 20
94.6969
  0
VERTEX
  8
LAYER_2
 10
114.9734
 20
94.6969
  0
SEQEND
  0
POLYLINE
  8
LAYER_2
 40
0.2752
 41
0.2752
 66
1
 10
0
 20
0
 30
0
  0
VERTEX
  8
LAYER_2
 10
113.8695
 20
94.6969
 42
0.3934753113
  0
VERTEX
  8
LAYER_2
 10
113.6335
 20
94.4602
  0
SEQEND
  0
POLYLINE
  8
LAYER_2
 40
0.2752
 41
0.2752
 66
1
 10
0
 20
0
 30
0
  0
VERTEX
  8
LAYER_2
 10
113.6331
 20
94.3029
  0
VERTEX
  8
LAYER_2
 10
113.6331
 20
94.4602
  0
SEQEND
  0
POLYLINE
  8
LAYER_2
 40
0.2752
 41
0.2752
 66
1
 10
0
 20
0
 30
0
  0
VERTEX
  8
LAYER_2
 10
37.9644
 20
94.3029
  0
VERTEX
  8
LAYER_2
 10
113.6335
 20
94.3029
  0
SEQEND
  0
POLYLINE
  8
LAYER_2
 40
0.2752
 41
0.2752
 66
1
 10
0
 20
0
 30
0
  0
VERTEX
  8
LAYER_2
 10
114.9734
 20
95.485
  0
VERTEX
  8
LAYER_2
 10
36.6242
 20
95.485
  0
SEQEND
  0
POLYLINE
  8
LAYER_2
 40
0.2752
 41
0.2752
 66
1
 10
0
 20
0
 30
0
  0
VERTEX
  8
LAYER_2
 10
36.6246
 20
95.485
 42
0.3929488875
  0
VERTEX
  8
LAYER_2
 10
36.3879
 20
95.2487
  0
SEQEND
  0
POLYLINE
  8
LAYER_2
 40
0.2752
 41
0.2752
 66
1
 10
0
 20
0
 30
0
  0
VERTEX
  8
LAYER_2
 10
36.3879
 20
94.9333
  0
VERTEX
  8
LAYER_2
 10
36.3879
 20
95.2487
  0
SEQEND
  0
POLYLINE
  8
LAYER_2
 40
0.2752
 41
0.2752
 66
1
 10
0
 20
0
 30
0
  0
VERTEX
  8
LAYER_2
 10
36.3879
 20
94.9333
 42
0.4142507122
  0
VERTEX
  8
LAYER_2
 10
36.6246
 20
94.6966
  0
SEQEND
  0
POLYLINE
  8
LAYER_2
 40
0.2752
 41
0.2752
 66
1
 10
0
 20
0
 30
0
  0
VERTEX
  8
LAYER_2
 10
37.7281
 20
94.6969
  0
VERTEX
  8
LAYER_2
 10
36.6246
 20
94.6969
  0
SEQEND
  0
POLYLINE
  8
LAYER_2
 40
0.2752
 41
0.2752
 66
1
 10
0
 20
0
 30
0
  0
VERTEX
  8
LAYER_2
 10
37.9644
 20
94.4602
 42
0.4142567274
  0
VERTEX
  8
LAYER_2
 10
37.7277
 20
94.6969
  0
SEQEND
  0
POLYLINE
  8
LAYER_2
 40
0.2752
 41
0.2752
 66
1
 10
0
 20
0
 30
0
  0
VERTEX
  8
LAYER_2
 10
37.9644
 20
94.3029
  0
VERTEX
  8
LAYER_2
 10
37.9644
 20
94.4602
  0
SEQEND
  0
POLYLINE
  8
LAYER_2
 40
0.2752
 41
0.2752
 66
1
 10
0
 20
0
 30
0
  0
VERTEX
  8
LAYER_2
 10
35.5698
 20
91.9036
  0
VERTEX
  8
LAYER_2
 10
116.0278
 20
91.9036
  0
SEQEND
  0
POLYLINE
  8
LAYER_2
 40
0.2752
 41
0.2752
 66
1
 10
0
 20
0
 30
0
  0
VERTEX
  8
LAYER_2
 10
35.6431
 20
94.3029
  0
VERTEX
  8
LAYER_2
 10
115.9544
 20
94.3029
  0
SEQEND
  0
POLYLINE
  8
LAYER_2
 40
0.2752
 41
0.2752
 66
1
 10
0
 20
0
 30
0
  0
VERTEX
  8
LAYER_2
 10
88.8008
 20
136.7872
  0
VERTEX
  8
LAYER_2
 10
88.7944
 20
136.7872
  0
SEQEND
  0
POLYLINE
  8
LAYER_2
 40
0.2752
 41
0.2752
 66
1
 10
0
 20
0
 30
0
  0
VERTEX
  8
LAYER_2
 10
109.1335
 20
136.7872
  0
VERTEX
  8
LAYER_2
 10
109.1328
 20
136.7872
  0
VERTEX
  8
LAYER_2
 10
109.1317
 20
136.7872
  0
SEQEND
  0
POLYLINE
  8
LAYER_2
 40
0.2752
 41
0.2752
 66
1
 10
0
 20
0
 30
0
  0
VERTEX
  8
LAYER_2
 10
113.0264
 20
123.5482
 42
0.1876890743
  0
VERTEX
  8
LAYER_2
 10
113.128
 20
123.751
  0
SEQEND
  0
POLYLINE
  8
LAYER_2
 40
0.2752
 41
0.2752
 66
1
 10
0
 20
0
 30
0
  0
VERTEX
  8
LAYER_2
 10
112.8147
 20
123.4663
 42
0.1873697415
  0
VERTEX
  8
LAYER_2
 10
113.026
 20
123.5482
  0
SEQEND
  0
POLYLINE
  8
LAYER_2
 40
0.2752
 41
0.2752
 66
1
 10
0
 20
0
 30
0
  0
VERTEX
  8
LAYER_2
 10
114.3267
 20
135.8421
  0
VERTEX
  8
LAYER_2
 10
113.128
 20
123.7506
  0
SEQEND
  0
POLYLINE
  8
LAYER_2
 40
0.2752
 41
0.2752
 66
1
 10
0
 20
0
 30
0
  0
VERTEX
  8
LAYER_2
 10
114.6975
 20
136.7872
 42
0.2542310746
  0
VERTEX
  8
LAYER_2
 10
114.4332
 20
136.6302
  0
SEQEND
  0
POLYLINE
  8
LAYER_2
 40
0.2752
 41
0.2752
 66
1
 10
0
 20
0
 30
0
  0
VERTEX
  8
LAYER_2
 10
62.7943
 20
136.7872
  0
VERTEX
  8
LAYER_2
 10
62.8003
 20
136.7872
  0
SEQEND
  0
POLYLINE
  8
LAYER_2
 40
0.2752
 41
0.2752
 66
1
 10
0
 20
0
 30
0
  0
VERTEX
  8
LAYER_2
 10
42.4627
 20
136.7872
  0
VERTEX
  8
LAYER_2
 10
42.4638
 20
136.7872
  0
SEQEND
  0
POLYLINE
  8
LAYER_2
 40
0.2752
 41
0.2752
 66
1
 10
0
 20
0
 30
0
  0
VERTEX
  8
LAYER_2
 10
42.462
 20
136.7872
  0
VERTEX
  8
LAYER_2
 10
42.4627
 20
136.7872
  0
SEQEND
  0
POLYLINE
  8
LAYER_2
 40
0.2752
 41
0.2752
 66
1
 10
0
 20
0
 30
0
  0
VERTEX
  8
LAYER_2
 10
36.8962
 20
136.7872
  0
VERTEX
  8
LAYER_2
 10
36.8976
 20
136.7872
  0
SEQEND
  0
POLYLINE
  8
LAYER_2
 40
0.2752
 41
0.2752
 66
1
 10
0
 20
0
 30
0
  0
VERTEX
  8
LAYER_2
 10
38.4671
 20
123.7506
 42
0.1845383308
  0
VERTEX
  8
LAYER_2
 10
38.5691
 20
123.5482
  0
SEQEND
  0
POLYLINE
  8
LAYER_2
 40
0.2752
 41
0.2752
 66
1
 10
0
 20
0
 30
0
  0
VERTEX
  8
LAYER_2
 10
38.5694
 20
123.5482
 42
0.186570507
  0
VERTEX
  8
LAYER_2
 10
38.7808
 20
123.4663
  0
SEQEND
  0
POLYLINE
  8
LAYER_2
 40
0.2752
 41
0.2752
 66
1
 10
0
 20
0
 30
0
  0
VERTEX
  8
LAYER_2
 10
38.4671
 20
123.7506
  0
VERTEX
  8
LAYER_2
 10
37.2688
 20
135.8421
  0
SEQEND
  0
POLYLINE
  8
LAYER_2
 40
0.2752
 41
0.2752
 66
1
 10
0
 20
0
 30
0
  0
VERTEX
  8
LAYER_2
 10
37.1622
 20
136.6299
 42
0.2609407606
  0
VERTEX
  8
LAYER_2
 10
36.8976
 20
136.7872
  0
SEQEND
  0
POLYLINE
  8
LAYER_2
 40
0.2752
 41
0.2752
 66
1
 10
0
 20
0
 30
0
  0
VERTEX
  8
LAYER_2
 10
36.898
 20
136.7872
  0
VERTEX
  8
LAYER_2
 10
36.9015
 20
136.7868
  0
SEQEND
  0
POLYLINE
  8
LAYER_2
 40
0.2752
 41
0.2752
 66
1
 10
0
 20
0
 30
0
  0
VERTEX
  8
LAYER_2
 10
35.0074
 20
136.6299
  0
VERTEX
  8
LAYER_2
 10
35.0074
 20
136.7872
  0
SEQEND
  0
POLYLINE
  8
LAYER_2
 40
0.2752
 41
0.2752
 66
1
 10
0
 20
0
 30
0
  0
VERTEX
  8
LAYER_2
 10
116.588
 20
136.6299
  0
VERTEX
  8
LAYER_2
 10
116.588
 20
136.7872
  0
SEQEND
  0
POLYLINE
  8
LAYER_2
 40
0.2752
 41
0.2752
 66
1
 10
0
 20
0
 30
0
  0
VERTEX
  8
LAYER_2
 10
119.1499
 20
137.4966
 42
0.3925089288
  0
VERTEX
  8
LAYER_2
 10
118.9922
 20
137.654
  0
SEQEND
  0
POLYLINE
  8
LAYER_2
 40
0.2752
 41
0.2752
 66
1
 10
0
 20
0
 30
0
  0
VERTEX
  8
LAYER_2
 10
118.9918
 20
136.7872
 42
0.4143088726
  0
VERTEX
  8
LAYER_2
 10
119.1495
 20
136.9449
  0
SEQEND
  0
POLYLINE
  8
LAYER_2
 40
0.2752
 41
0.2752
 66
1
 10
0
 20
0
 30
0
  0
VERTEX
  8
LAYER_2
 10
119.1499
 20
137.4966
  0
VERTEX
  8
LAYER_2
 10
119.1499
 20
136.9452
  0
SEQEND
  0
POLYLINE
  8
LAYER_2
 40
0.2752
 41
0.2752
 66
1
 10
0
 20
0
 30
0
  0
VERTEX
  8
LAYER_2
 10
112.8147
 20
123.4663
  0
VERTEX
  8
LAYER_2
 10
38.7811
 20
123.4663
  0
SEQEND
  0
POLYLINE
  8
LAYER_2
 40
0.2752
 41
0.2752
 66
1
 10
0
 20
0
 30
0
  0
VERTEX
  8
LAYER_2
 10
118.9918
 20
137.6543
  0
VERTEX
  8
LAYER_2
 10
116.3912
 20
137.6543
  0
SEQEND
  0
POLYLINE
  8
LAYER_2
 40
0.2752
 41
0.2752
 66
1
 10
0
 20
0
 30
0
  0
VERTEX
  8
LAYER_2
 10
116.3908
 20
137.6543
  0
VERTEX
  8
LAYER_2
 10
75.7977
 20
137.6543
  0
SEQEND
  0
POLYLINE
  8
LAYER_2
 40
0.2752
 41
0.2752
 66
1
 10
0
 20
0
 30
0
  0
VERTEX
  8
LAYER_2
 10
116.3908
 20
136.7872
  0
VERTEX
  8
LAYER_2
 10
75.7977
 20
136.7872
  0
SEQEND
  0
POLYLINE
  8
LAYER_2
 40
0.2752
 41
0.2752
 66
1
 10
0
 20
0
 30
0
  0
VERTEX
  8
LAYER_2
 10
118.9918
 20
136.7872
  0
VERTEX
  8
LAYER_2
 10
116.3912
 20
136.7872
  0
SEQEND
  0
POLYLINE
  8
LAYER_2
 40
0.2752
 41
0.2752
 66
1
 10
0
 20
0
 30
0
  0
VERTEX
  8
LAYER_2
 10
32.6033
 20
137.6543
 42
0.4142569561
  0
VERTEX
  8
LAYER_2
 10
32.4459
 20
137.497
  0
SEQEND
  0
POLYLINE
  8
LAYER_2
 40
0.2752
 41
0.2752
 66
1
 10
0
 20
0
 30
0
  0
VERTEX
  8
LAYER_2
 10
32.4459
 20
136.9449
 42
0.3924239435
  0
VERTEX
  8
LAYER_2
 10
32.6033
 20
136.7872
  0
SEQEND
  0
POLYLINE
  8
LAYER_2
 40
0.2752
 41
0.2752
 66
1
 10
0
 20
0
 30
0
  0
VERTEX
  8
LAYER_2
 10
32.4459
 20
137.4966
  0
VERTEX
  8
LAYER_2
 10
32.4459
 20
136.9452
  0
SEQEND
  0
POLYLINE
  8
LAYER_2
 40
0.2752
 41
0.2752
 66
1
 10
0
 20
0
 30
0
  0
VERTEX
  8
LAYER_2
 10
32.6033
 20
137.6543
  0
VERTEX
  8
LAYER_2
 10
35.2043
 20
137.6543
  0
SEQEND
  0
POLYLINE
  8
LAYER_2
 40
0.2752
 41
0.2752
 66
1
 10
0
 20
0
 30
0
  0
VERTEX
  8
LAYER_2
 10
35.2046
 20
137.6543
  0
VERTEX
  8
LAYER_2
 10
75.7974
 20
137.6543
  0
SEQEND
  0
POLYLINE
  8
LAYER_2
 40
0.2752
 41
0.2752
 66
1
 10
0
 20
0
 30
0
  0
VERTEX
  8
LAYER_2
 10
35.2046
 20
136.7872
  0
VERTEX
  8
LAYER_2
 10
75.7974
 20
136.7872
  0
SEQEND
  0
POLYLINE
  8
LAYER_2
 40
0.2752
 41
0.2752
 66
1
 10
0
 20
0
 30
0
  0
VERTEX
  8
LAYER_2
 10
32.6033
 20
136.7872
  0
VERTEX
  8
LAYER_2
 10
35.2043
 20
136.7872
  0
SEQEND
  0
POLYLINE
  8
LAYER_2
 40
0.2752
 41
0.2752
 66
1
 10
0
 20
0
 30
0
  0
VERTEX
  8
LAYER_2
 10
96.7446
 20
91.9036
  0
VERTEX
  8
LAYER_2
 10
96.7446
 20
94.3029
  0
SEQEND
  0
POLYLINE
  8
LAYER_2
 40
0.2752
 41
0.2752
 66
1
 10
0
 20
0
 30
0
  0
VERTEX
  8
LAYER_2
 10
54.714
 20
91.9036
  0
VERTEX
  8
LAYER_2
 10
54.714
 20
94.3029
  0
SEQEND
  0
POLYLINE
  8
LAYER_2
 40
0.2752
 41
0.2752
 66
1
 10
0
 20
0
 30
0
  0
VERTEX
  8
LAYER_2
 10
32.6643
 20
72.3114
  0
VERTEX
  8
LAYER_2
 10
33.3617
 20
72.3114
  0
SEQEND
  0
POLYLINE
  8
LAYER_2
 40
0.2752
 41
0.2752
 66
1
 10
0
 20
0
 30
0
  0
VERTEX
  8
LAYER_2
 10
34.6286
 20
135.8421
  0
VERTEX
  8
LAYER_2
 10
32.6643
 20
72.3114
  0
SEQEND
  0
POLYLINE
  8
LAYER_2
 40
0.2752
 41
0.2752
 66
1
 10
0
 20
0
 30
0
  0
VERTEX
  8
LAYER_2
 10
33.3617
 20
72.3114
  0
VERTEX
  8
LAYER_2
 10
34.9588
 20
72.3114
  0
SEQEND
  0
POLYLINE
  8
LAYER_2
 40
0.2752
 41
0.2752
 66
1
 10
0
 20
0
 30
0
  0
VERTEX
  8
LAYER_2
 10
35.326
 20
135.8421
  0
VERTEX
  8
LAYER_2
 10
33.3621
 20
72.3114
  0
SEQEND
  0
POLYLINE
  8
LAYER_2
 40
0.2752
 41
0.2752
 66
1
 10
0
 20
0
 30
0
  0
VERTEX
  8
LAYER_2
 10
35.5687
 20
91.9382
  0
VERTEX
  8
LAYER_2
 10
34.9588
 20
72.3118
  0
SEQEND
  0
POLYLINE
  8
LAYER_2
 40
0.2752
 41
0.2752
 66
1
 10
0
 20
0
 30
0
  0
VERTEX
  8
LAYER_2
 10
36.9234
 20
135.8421
  0
VERTEX
  8
LAYER_2
 10
35.6421
 20
94.3025
  0
SEQEND
  0
POLYLINE
  8
LAYER_2
 40
0.2752
 41
0.2752
 66
1
 10
0
 20
0
 30
0
  0
VERTEX
  8
LAYER_2
 10
118.9315
 20
72.3111
  0
VERTEX
  8
LAYER_2
 10
118.2341
 20
72.3111
  0
SEQEND
  0
POLYLINE
  8
LAYER_2
 40
0.2752
 41
0.2752
 66
1
 10
0
 20
0
 30
0
  0
VERTEX
  8
LAYER_2
 10
116.9672
 20
135.8421
  0
VERTEX
  8
LAYER_2
 10
118.9312
 20
72.2327
  0
SEQEND
  0
POLYLINE
  8
LAYER_2
 40
0.2752
 41
0.2752
 66
1
 10
0
 20
0
 30
0
  0
VERTEX
  8
LAYER_2
 10
118.2337
 20
72.3111
  0
VERTEX
  8
LAYER_2
 10
116.6367
 20
72.3111
  0
SEQEND
  0
POLYLINE
  8
LAYER_2
 40
0.2752
 41
0.2752
 66
1
 10
0
 20
0
 30
0
  0
VERTEX
  8
LAYER_2
 10
116.2695
 20
135.8421
  0
VERTEX
  8
LAYER_2
 10
118.2337
 20
72.2327
  0
SEQEND
  0
POLYLINE
  8
LAYER_2
 40
0.2752
 41
0.2752
 66
1
 10
0
 20
0
 30
0
  0
VERTEX
  8
LAYER_2
 10
116.0267
 20
91.9382
  0
VERTEX
  8
LAYER_2
 10
116.6367
 20
72.2327
  0
SEQEND
  0
POLYLINE
  8
LAYER_2
 40
0.2752
 41
0.2752
 66
1
 10
0
 20
0
 30
0
  0
VERTEX
  8
LAYER_2
 10
114.6724
 20
135.8421
  0
VERTEX
  8
LAYER_2
 10
115.9534
 20
94.3025
  0
SEQEND
  0
POLYLINE
  8
LAYER_2
 40
0.2752
 41
0.2752
 66
1
 10
0
 20
0
 30
0
  0
VERTEX
  8
LAYER_2
 10
35.3729
 20
72.3114
  0
VERTEX
  8
LAYER_2
 10
34.9591
 20
72.3114
  0
SEQEND
  0
POLYLINE
  8
LAYER_2
 40
0.2752
 41
0.2752
 66
1
 10
0
 20
0
 30
0
  0
VERTEX
  8
LAYER_2
 10
35.9832
 20
91.9382
  0
VERTEX
  8
LAYER_2
 10
35.3729
 20
72.3118
  0
SEQEND
  0
POLYLINE
  8
LAYER_2
 40
0.2752
 41
0.2752
 66
1
 10
0
 20
0
 30
0
  0
VERTEX
  8
LAYER_2
 10
37.3308
 20
135.2156
  0
VERTEX
  8
LAYER_2
 10
36.0563
 20
94.3025
  0
SEQEND
  0
POLYLINE
  8
LAYER_2
 40
0.2752
 41
0.2752
 66
1
 10
0
 20
0
 30
0
  0
VERTEX
  8
LAYER_2
 10
116.2225
 20
72.3111
  0
VERTEX
  8
LAYER_2
 10
116.6367
 20
72.3111
  0
SEQEND
  0
POLYLINE
  8
LAYER_2
 40
0.2752
 41
0.2752
 66
1
 10
0
 20
0
 30
0
  0
VERTEX
  8
LAYER_2
 10
115.6126
 20
91.9382
  0
VERTEX
  8
LAYER_2
 10
116.2225
 20
72.2327
  0
SEQEND
  0
POLYLINE
  8
LAYER_2
 40
0.2752
 41
0.2752
 66
1
 10
0
 20
0
 30
0
  0
VERTEX
  8
LAYER_2
 10
114.2699
 20
135.2819
  0
VERTEX
  8
LAYER_2
 10
115.5392
 20
94.3029
  0
SEQEND
  0
POLYLINE
  8
LAYER_2
 40
0.2752
 41
0.2752
 66
1
 10
0
 20
0
 30
0
  0
VERTEX
  8
LAYER_2
 10
34.8106
 20
136.6299
  0
VERTEX
  8
LAYER_2
 10
75.7974
 20
136.6299
  0
SEQEND
  0
POLYLINE
  8
LAYER_2
 40
0.2752
 41
0.2752
 66
1
 10
0
 20
0
 30
0
  0
VERTEX
  8
LAYER_2
 10
34.8106
 20
135.8421
  0
VERTEX
  8
LAYER_2
 10
75.7974
 20
135.8421
  0
SEQEND
  0
POLYLINE
  8
LAYER_2
 40
0.2752
 41
0.2752
 66
1
 10
0
 20
0
 30
0
  0
VERTEX
  8
LAYER_2
 10
32.84
 20
136.6299
  0
VERTEX
  8
LAYER_2
 10
34.8106
 20
136.6299
  0
SEQEND
  0
POLYLINE
  8
LAYER_2
 40
0.2752
 41
0.2752
 66
1
 10
0
 20
0
 30
0
  0
VERTEX
  8
LAYER_2
 10
32.84
 20
135.8421
  0
VERTEX
  8
LAYER_2
 10
34.8106
 20
135.8421
  0
SEQEND
  0
POLYLINE
  8
LAYER_2
 40
0.2752
 41
0.2752
 66
1
 10
0
 20
0
 30
0
  0
VERTEX
  8
LAYER_2
 10
32.84
 20
135.8421
  0
VERTEX
  8
LAYER_2
 10
32.84
 20
136.6302
  0
SEQEND
  0
POLYLINE
  8
LAYER_2
 40
0.2752
 41
0.2752
 66
1
 10
0
 20
0
 30
0
  0
VERTEX
  8
LAYER_2
 10
116.7852
 20
136.6299
  0
VERTEX
  8
LAYER_2
 10
118.7555
 20
136.6299
  0
SEQEND
  0
POLYLINE
  8
LAYER_2
 40
0.2752
 41
0.2752
 66
1
 10
0
 20
0
 30
0
  0
VERTEX
  8
LAYER_2
 10
118.7555
 20
135.8421
  0
VERTEX
  8
LAYER_2
 10
118.7555
 20
136.6302
  0
SEQEND
  0
POLYLINE
  8
LAYER_2
 40
0.2752
 41
0.2752
 66
1
 10
0
 20
0
 30
0
  0
VERTEX
  8
LAYER_2
 10
116.7852
 20
135.8421
  0
VERTEX
  8
LAYER_2
 10
118.7555
 20
135.8421
  0
SEQEND
  0
POLYLINE
  8
LAYER_2
 40
0.2752
 41
0.2752
 66
1
 10
0
 20
0
 30
0
  0
VERTEX
  8
LAYER_2
 10
75.7977
 20
136.6299
  0
VERTEX
  8
LAYER_2
 10
116.7852
 20
136.6299
  0
SEQEND
  0
POLYLINE
  8
LAYER_2
 40
0.2752
 41
0.2752
 66
1
 10
0
 20
0
 30
0
  0
VERTEX
  8
LAYER_2
 10
75.7977
 20
135.8421
  0
VERTEX
  8
LAYER_2
 10
116.7852
 20
135.8421
  0
SEQEND
  0
POLYLINE
  8
LAYER_2
 40
0.2752
 41
0.2752
 66
1
 10
0
 20
0
 30
0
  0
VERTEX
  8
LAYER_2
 10
35.4015
 20
136.6299
  0
VERTEX
  8
LAYER_2
 10
35.4015
 20
136.7872
  0
SEQEND
  0
POLYLINE
  8
LAYER_2
 40
0.2752
 41
0.2752
 66
1
 10
0
 20
0
 30
0
  0
VERTEX
  8
LAYER_2
 10
116.194
 20
136.6299
  0
VERTEX
  8
LAYER_2
 10
116.194
 20
136.7872
  0
SEQEND
  0
POLYLINE
  8
LAYER_2
 40
0.2752
 41
0.2752
 66
1
 10
0
 20
0
 30
0
 70
1
  0
VERTEX
  8
LAYER_2
 10
117.6322
 20
72.3111
  0
VERTEX
  8
LAYER_2
 10
117.2385
 20
72.3111
  0
VERTEX
  8
LAYER_2
 10
117.2385
 20
72.1985
  0
VERTEX
  8
LAYER_2
 10
117.6322
 20
72.1985
  0
SEQEND
  0
POLYLINE
  8
LAYER_2
 40
0.2752
 41
0.2752
 66
1
 10
0
 20
0
 30
0
 70
1
  0
VERTEX
  8
LAYER_2
 10
33.9632
 20
72.3118
  0
VERTEX
  8
LAYER_2
 10
34.3571
 20
72.3118
  0
VERTEX
  8
LAYER_2
 10
34.3571
 20
72.1985
  0
VERTEX
  8
LAYER_2
 10
33.9632
 20
72.1985
  0
SEQEND
  0
ENDBLK
  0
BLOCK
  8
LAYER_2
  2
AIGNBL02010033
 70
64
 10
0
 20
0
 30
0
  3
AIGNBL02010033
  0
POLYLINE
  8
LAYER_2
  6
AIGENLINE004
 40
0.1376
 41
0.1376
 66
1
 10
0
 20
0
 30
0
 70
128
  0
VERTEX
  8
LAYER_2
 10
75.8323
 20
205.8935
  0
VERTEX
  8
LAYER_2
 10
75.8323
 20
206.8309
  0
SEQEND
  0
ENDBLK
  0
BLOCK
  8
LAYER_2
  2
AIGNBL02010034
 70
64
 10
0
 20
0
 30
0
  3
AIGNBL02010034
  0
POLYLINE
  8
LAYER_2
  6
AIGENLINE004
 40
0.1376
 41
0.1376
 66
1
 10
0
 20
0
 30
0
 70
128
  0
VERTEX
  8
LAYER_2
 10
75.8323
 20
205.8935
  0
VERTEX
  8
LAYER_2
 10
75.8323
 20
206.8309
  0
SEQEND
  0
ENDBLK
  0
ENDSEC
  0
SECTION
  2
ENTITIES
  0
TEXT
  8
LAYER_2
 10
-26.2556
 20
43.1712
 11
-26.2556
 21
43.1712
 40
3.2995
 41
0.5
  1
仕様
  0
POLYLINE
  8
LAYER_2
 40
0.3528
 41
0.3528
 66
1
 10
0
 20
0
 30
0
  0
VERTEX
  8
LAYER_2
 10
250.4089
 20
51.9507
  0
VERTEX
  8
LAYER_2
 10
-29.1405
 20
51.9507
  0
SEQEND
  0
INSERT
  8
LAYER_2
  2
AIGNBL02010002
 10
0
 20
0
 30
0
  0
POLYLINE
  8
LAYER_2
 40
0.3528
 41
0.3528
 66
1
 10
0
 20
0
 30
0
  0
VERTEX
  8
LAYER_2
 10
-29.3178
 20
229.3369
  0
VERTEX
  8
LAYER_2
 10
-29.3178
 20
34.3283
  0
VERTEX
  8
LAYER_2
 10
250.6748
 20
34.3283
  0
VERTEX
  8
LAYER_2
 10
250.6748
 20
229.3369
  0
VERTEX
  8
LAYER_2
 10
-29.3178
 20
229.3369
  0
SEQEND
  0
POLYLINE
  8
LAYER_2
 40
0.3528
 41
0.3528
 66
1
 10
0
 20
0
 30
0
  0
VERTEX
  8
LAYER_2
 10
250.4089
 20
60.4597
  0
VERTEX
  8
LAYER_2
 10
-29.1405
 20
60.4597
  0
SEQEND
  0
POLYLINE
  8
LAYER_2
 40
0.3528
 41
0.3528
 66
1
 10
0
 20
0
 30
0
  0
VERTEX
  8
LAYER_2
 10
250.6748
 20
43.4416
  0
VERTEX
  8
LAYER_2
 10
102.0225
 20
43.4416
  0
SEQEND
  0
TEXT
  8
LAYER_2
 10
182.8808
 20
49.4743
 11
182.8808
 21
49.4743
 40
2.1997
 41
0.5
  1
縮尺
  0
POLYLINE
  8
LAYER_2
 40
0.3528
 41
0.3528
 66
1
 10
0
 20
0
 30
0
  0
VERTEX
  8
LAYER_2
 10
181.3526
 20
43.4416
  0
VERTEX
  8
LAYER_2
 10
181.3526
 20
51.9507
  0
SEQEND
  0
TEXT
  8
LAYER_2
 10
102.7211
 20
57.9834
 11
102.7211
 21
57.9834
 40
2.1997
 41
0.5
  1
品番
  0
TEXT
  8
LAYER_2
 10
-28.1609
 20
57.9834
 11
-28.1609
 21
57.9834
 40
2.1997
 41
0.5
  1
品名
  0
TEXT
  8
LAYER_2
 10
102.7211
 20
49.4743
 11
102.7211
 21
49.4743
 40
2.1997
 41
0.5
  1
重量
  0
TEXT
  8
LAYER_2
 10
105.6444
 20
54.1714
 11
105.6444
 21
54.1714
 40
4.6883
 41
0.5
  1
CIE-CALAR/（洗面ボウル） CIE-CASTD/（フレーム） CIE-CAPIDL/（ボトムシェルフ）
  0
TEXT
  8
LAYER_2
 10
149.5454
 20
45.7175
 11
149.5454
 21
45.7175
 40
3.7615
 41
0.5
  1
-
  0
POLYLINE
  8
LAYER_2
 40
0.3528
 41
0.3528
 66
1
 10
0
 20
0
 30
0
  0
VERTEX
  8
LAYER_2
 10
102.0225
 20
34.7539
  0
VERTEX
  8
LAYER_2
 10
102.0225
 20
60.4597
  0
SEQEND
  0
TEXT
  8
LAYER_2
 10
-15.3768
 20
54.891
 11
-15.3768
 21
54.891
 40
3.6373
 41
0.5
  1
カティーノレクタングル洗面台
  0
INSERT
  8
LAYER_2
  2
AIGNBL02010003
 10
0
 20
0
 30
0
  0
TEXT
  8
LAYER_2
 10
-15.6835
 20
45.3736
 11
-15.6835
 21
45.3736
 40
3.5541
 41
0.5
  1
●サイズ：W1100×D580×H830mm●陶器×スチール●オーバーフローなし
  0
TEXT
  8
LAYER_2
 10
-15.6835
 20
40.6235
 11
-15.6835
 21
40.6235
 40
3.5541
 41
0.5
  1
●設置方法：自立型●水栓取付穴：1穴●排水金具別途
  0
TEXT
  8
LAYER_2
 10
237.263
 20
63.2582
 11
237.263
 21
63.2582
 40
2.9618
 41
0.5
  1
単位：mm
  0
TEXT
  8
LAYER_2
 10
135.6768
 20
39.5359
 11
135.6768
 21
39.5359
 40
3.3853
 41
0.5
  1
●TEL 0120-65-1232●FAX 06-6532-1580
  0
TEXT
  8
LAYER_2
 10
135.6768
 20
36.0212
 11
135.6768
 21
36.0212
 40
3.3853
 41
0.5
  1
hits@hiratatile.co.jp
  0
TEXT
  8
LAYER_2
 10
240.3591
 20
225.8432
 11
240.3591
 21
225.8432
 40
2.0732
 41
0.5
  1
180604RT
  0
INSERT
  8
LAYER_2
  2
AIGNBL02010006
 10
0
 20
0
 30
0
  0
POLYLINE
  8
LAYER_2
 40
0.5539
 41
0.5539
 66
1
 10
0
 20
0
 30
0
  0
VERTEX
  8
LAYER_2
 10
149.167
 20
72.1982
  0
VERTEX
  8
LAYER_2
 10
201.4956
 20
72.1982
  0
SEQEND
  0
POLYLINE
  8
LAYER_2
 40
0.5539
 41
0.5539
 66
1
 10
0
 20
0
 30
0
  0
VERTEX
  8
LAYER_2
 10
201.496
 20
152.2921
  0
VERTEX
  8
LAYER_2
 10
201.496
 20
72.7492
  0
SEQEND
  0
POLYLINE
  8
LAYER_2
 40
0.5539
 41
0.5539
 66
1
 10
0
 20
0
 30
0
  0
VERTEX
  8
LAYER_2
 10
122.4244
 20
72.1982
  0
VERTEX
  8
LAYER_2
 10
29.1711
 20
72.1982
  0
SEQEND
  0
POLYLINE
  8
LAYER_2
 40
0.1376
 41
0.1376
 66
1
 10
0
 20
0
 30
0
  0
VERTEX
  8
LAYER_2
 10
53.391
 20
94.6535
  0
VERTEX
  8
LAYER_2
 10
53.391
 20
94.9319
  0
VERTEX
  8
LAYER_2
 10
53.6694
 20
94.9319
  0
SEQEND
  0
POLYLINE
  8
LAYER_2
 40
0.1376
 41
0.1376
 66
1
 10
0
 20
0
 30
0
  0
VERTEX
  8
LAYER_2
 10
53.9012
 20
94.9319
  0
VERTEX
  8
LAYER_2
 10
54.1795
 20
94.9319
  0
VERTEX
  8
LAYER_2
 10
54.1795
 20
94.6535
  0
SEQEND
  0
POLYLINE
  8
LAYER_2
 40
0.1376
 41
0.1376
 66
1
 10
0
 20
0
 30
0
  0
VERTEX
  8
LAYER_2
 10
54.1795
 20
94.5791
  0
VERTEX
  8
LAYER_2
 10
54.1795
 20
94.3011
  0
VERTEX
  8
LAYER_2
 10
53.9012
 20
94.3011
  0
SEQEND
  0
POLYLINE
  8
LAYER_2
 40
0.1376
 41
0.1376
 66
1
 10
0
 20
0
 30
0
  0
VERTEX
  8
LAYER_2
 10
53.669
 20
94.3011
  0
VERTEX
  8
LAYER_2
 10
53.391
 20
94.3011
  0
VERTEX
  8
LAYER_2
 10
53.391
 20
94.5795
  0
SEQEND
  0
POLYLINE
  8
LAYER_2
  6
AIGENLINE005
 40
0.1376
 41
0.1376
 66
1
 10
0
 20
0
 30
0
 70
128
  0
VERTEX
  8
LAYER_2
 10
53.5131
 20
93.9582
  0
VERTEX
  8
LAYER_2
 10
53.5131
 20
94.1434
  0
SEQEND
  0
POLYLINE
  8
LAYER_2
  6
AIGENLINE006
 40
0.1376
 41
0.1376
 66
1
 10
0
 20
0
 30
0
 70
128
  0
VERTEX
  8
LAYER_2
 10
53.5131
 20
93.9582
 42
0.4143699247
  0
VERTEX
  8
LAYER_2
 10
53.6285
 20
93.9378
  0
VERTEX
  8
LAYER_2
 10
53.6489
 20
93.9582
  0
SEQEND
  0
POLYLINE
  8
LAYER_2
  6
AIGENLINE007
 40
0.1376
 41
0.1376
 66
1
 10
0
 20
0
 30
0
 70
128
  0
VERTEX
  8
LAYER_2
 10
53.5808
 20
93.9229
  0
VERTEX
  8
LAYER_2
 10
53.9894
 20
93.9229
  0
SEQEND
  0
POLYLINE
  8
LAYER_2
  6
AIGENLINE006
 40
0.1376
 41
0.1376
 66
1
 10
0
 20
0
 30
0
 70
128
  0
VERTEX
  8
LAYER_2
 10
53.9213
 20
93.9582
 42
0.4109331408
  0
VERTEX
  8
LAYER_2
 10
54.0373
 20
93.9378
  0
VERTEX
  8
LAYER_2
 10
54.0574
 20
93.9582
  0
SEQEND
  0
INSERT
  8
LAYER_2
  2
AIGNBL02010028
 10
0
 20
0
 30
0
  0
POLYLINE
  8
LAYER_2
  6
AIGENLINE008
 40
0.1376
 41
0.1376
 66
1
 10
0
 20
0
 30
0
 70
128
  0
VERTEX
  8
LAYER_2
 10
53.6489
 20
93.9582
 42
0.2602972223
  0
VERTEX
  8
LAYER_2
 10
53.9213
 20
93.9582
  0
SEQEND
  0
POLYLINE
  8
LAYER_2
  6
AIGENLINE005
 40
0.1376
 41
0.1376
 66
1
 10
0
 20
0
 30
0
 70
128
  0
VERTEX
  8
LAYER_2
 10
54.0574
 20
94.1434
  0
VERTEX
  8
LAYER_2
 10
54.0574
 20
93.9582
  0
SEQEND
  0
POLYLINE
  8
LAYER_2
  6
AIGENLINE009
 40
0.1376
 41
0.1376
 66
1
 10
0
 20
0
 30
0
 70
128
  0
VERTEX
  8
LAYER_2
 10
54.0574
 20
94.1392
  0
VERTEX
  8
LAYER_2
 10
54.0543
 20
94.1434
  0
SEQEND
  0
POLYLINE
  8
LAYER_2
  6
AIGENLINE010
 40
0.1376
 41
0.1376
 66
1
 10
0
 20
0
 30
0
 70
128
  0
VERTEX
  8
LAYER_2
 10
53.6743
 20
94.1434
  0
VERTEX
  8
LAYER_2
 10
53.8959
 20
94.1434
  0
SEQEND
  0
POLYLINE
  8
LAYER_2
  6
AIGENLINE011
 40
0.1376
 41
0.1376
 66
1
 10
0
 20
0
 30
0
 70
128
  0
VERTEX
  8
LAYER_2
 10
53.6489
 20
94.1392
  0
VERTEX
  8
LAYER_2
 10
53.6458
 20
94.1434
  0
SEQEND
  0
INSERT
  8
LAYER_2
  2
AIGNBL02010029
 10
0
 20
0
 30
0
  0
POLYLINE
  8
LAYER_2
  6
AIGENLINE011
 40
0.1376
 41
0.1376
 66
1
 10
0
 20
0
 30
0
 70
128
  0
VERTEX
  8
LAYER_2
 10
53.9244
 20
94.1434
  0
VERTEX
  8
LAYER_2
 10
53.9213
 20
94.1392
  0
SEQEND
  0
POLYLINE
  8
LAYER_2
  6
AIGENLINE012
 40
0.1376
 41
0.1376
 66
1
 10
0
 20
0
 30
0
 70
128
  0
VERTEX
  8
LAYER_2
 10
53.5131
 20
94.1434
  0
VERTEX
  8
LAYER_2
 10
54.0574
 20
94.1434
  0
SEQEND
  0
POLYLINE
  8
LAYER_2
  6
AIGENLINE009
 40
0.1376
 41
0.1376
 66
1
 10
0
 20
0
 30
0
 70
128
  0
VERTEX
  8
LAYER_2
 10
53.5159
 20
94.1434
  0
VERTEX
  8
LAYER_2
 10
53.5128
 20
94.1392
  0
SEQEND
  0
POLYLINE
  8
LAYER_2
 40
0.1376
 41
0.1376
 66
1
 10
0
 20
0
 30
0
  0
VERTEX
  8
LAYER_2
 10
53.6278
 20
94.1434
  0
VERTEX
  8
LAYER_2
 10
53.6278
 20
94.4218
  0
SEQEND
  0
POLYLINE
  8
LAYER_2
 40
0.1376
 41
0.1376
 66
1
 10
0
 20
0
 30
0
  0
VERTEX
  8
LAYER_2
 10
53.6846
 20
94.8761
  0
VERTEX
  8
LAYER_2
 10
53.8955
 20
94.8761
  0
VERTEX
  8
LAYER_2
 10
53.9428
 20
94.8289
  0
VERTEX
  8
LAYER_2
 10
53.9428
 20
94.5505
  0
SEQEND
  0
POLYLINE
  8
LAYER_2
 40
0.1376
 41
0.1376
 66
1
 10
0
 20
0
 30
0
  0
VERTEX
  8
LAYER_2
 10
53.9428
 20
94.4214
  0
VERTEX
  8
LAYER_2
 10
53.9428
 20
94.1434
  0
SEQEND
  0
POLYLINE
  8
LAYER_2
 40
0.1376
 41
0.1376
 66
1
 10
0
 20
0
 30
0
  0
VERTEX
  8
LAYER_2
 10
53.6592
 20
94.1434
  0
VERTEX
  8
LAYER_2
 10
53.6592
 20
94.4218
  0
SEQEND
  0
POLYLINE
  8
LAYER_2
 40
0.1376
 41
0.1376
 66
1
 10
0
 20
0
 30
0
  0
VERTEX
  8
LAYER_2
 10
53.6592
 20
94.5509
  0
VERTEX
  8
LAYER_2
 10
53.6592
 20
94.8289
  0
SEQEND
  0
POLYLINE
  8
LAYER_2
 40
0.1376
 41
0.1376
 66
1
 10
0
 20
0
 30
0
  0
VERTEX
  8
LAYER_2
 10
53.9114
 20
94.1434
  0
VERTEX
  8
LAYER_2
 10
53.9114
 20
94.4218
  0
SEQEND
  0
POLYLINE
  8
LAYER_2
 40
0.1376
 41
0.1376
 66
1
 10
0
 20
0
 30
0
  0
VERTEX
  8
LAYER_2
 10
53.9114
 20
94.5509
  0
VERTEX
  8
LAYER_2
 10
53.9114
 20
94.8289
  0
SEQEND
  0
POLYLINE
  8
LAYER_2
  6
AIGENLINE013
 40
0.1376
 41
0.1376
 66
1
 10
0
 20
0
 30
0
 70
128
  0
VERTEX
  8
LAYER_2
 10
53.6278
 20
94.8289
  0
VERTEX
  8
LAYER_2
 10
53.9428
 20
94.8289
  0
SEQEND
  0
POLYLINE
  8
LAYER_2
 40
0.1376
 41
0.1376
 66
1
 10
0
 20
0
 30
0
  0
VERTEX
  8
LAYER_2
 10
73.6514
 20
123.7817
  0
VERTEX
  8
LAYER_2
 10
73.3731
 20
123.7817
  0
VERTEX
  8
LAYER_2
 10
73.3731
 20
124.0184
  0
VERTEX
  8
LAYER_2
 10
73.6514
 20
124.0184
  0
SEQEND
  0
POLYLINE
  8
LAYER_2
  6
AIGENLINE014
 40
0.1376
 41
0.1376
 66
1
 10
0
 20
0
 30
0
 70
128
  0
VERTEX
  8
LAYER_2
 10
74.2811
 20
124.0181
  0
VERTEX
  8
LAYER_2
 10
77.7458
 20
124.0181
  0
SEQEND
  0
POLYLINE
  8
LAYER_2
 40
0.1376
 41
0.1376
 66
1
 10
0
 20
0
 30
0
  0
VERTEX
  8
LAYER_2
 10
78.0608
 20
124.0181
  0
VERTEX
  8
LAYER_2
 10
78.3391
 20
124.0181
  0
VERTEX
  8
LAYER_2
 10
78.3391
 20
123.7817
  0
VERTEX
  8
LAYER_2
 10
78.0608
 20
123.7817
  0
SEQEND
  0
POLYLINE
  8
LAYER_2
  6
AIGENLINE014
 40
0.1376
 41
0.1376
 66
1
 10
0
 20
0
 30
0
 70
128
  0
VERTEX
  8
LAYER_2
 10
77.4307
 20
123.7817
  0
VERTEX
  8
LAYER_2
 10
73.9661
 20
123.7817
  0
SEQEND
  0
POLYLINE
  8
LAYER_2
 40
0.1376
 41
0.1376
 66
1
 10
0
 20
0
 30
0
  0
VERTEX
  8
LAYER_2
 10
73.6514
 20
124.0181
  0
VERTEX
  8
LAYER_2
 10
73.3731
 20
124.0181
  0
VERTEX
  8
LAYER_2
 10
73.3731
 20
124.2548
  0
VERTEX
  8
LAYER_2
 10
73.6514
 20
124.2548
  0
SEQEND
  0
POLYLINE
  8
LAYER_2
  6
AIGENLINE014
 40
0.1376
 41
0.1376
 66
1
 10
0
 20
0
 30
0
 70
128
  0
VERTEX
  8
LAYER_2
 10
74.2811
 20
124.2548
  0
VERTEX
  8
LAYER_2
 10
77.7458
 20
124.2548
  0
SEQEND
  0
POLYLINE
  8
LAYER_2
 40
0.1376
 41
0.1376
 66
1
 10
0
 20
0
 30
0
  0
VERTEX
  8
LAYER_2
 10
78.0608
 20
124.2548
  0
VERTEX
  8
LAYER_2
 10
78.3391
 20
124.2548
  0
VERTEX
  8
LAYER_2
 10
78.3391
 20
124.0181
  0
VERTEX
  8
LAYER_2
 10
78.0608
 20
124.0181
  0
SEQEND
  0
POLYLINE
  8
LAYER_2
  6
AIGENLINE014
 40
0.1376
 41
0.1376
 66
1
 10
0
 20
0
 30
0
 70
128
  0
VERTEX
  8
LAYER_2
 10
77.4307
 20
124.0181
  0
VERTEX
  8
LAYER_2
 10
73.9661
 20
124.0181
  0
SEQEND
  0
POLYLINE
  8
LAYER_2
 40
0.1376
 41
0.1376
 66
1
 10
0
 20
0
 30
0
  0
VERTEX
  8
LAYER_2
 10
74.2028
 20
123.4663
  0
VERTEX
  8
LAYER_2
 10
73.9248
 20
123.4663
  0
VERTEX
  8
LAYER_2
 10
73.9248
 20
123.7824
  0
VERTEX
  8
LAYER_2
 10
74.2028
 20
123.7824
  0
SEQEND
  0
POLYLINE
  8
LAYER_2
  6
AIGENLINE015
 40
0.1376
 41
0.1376
 66
1
 10
0
 20
0
 30
0
 70
128
  0
VERTEX
  8
LAYER_2
 10
74.6752
 20
123.7824
  0
VERTEX
  8
LAYER_2
 10
77.273
 20
123.7824
  0
SEQEND
  0
POLYLINE
  8
LAYER_2
 40
0.1376
 41
0.1376
 66
1
 10
0
 20
0
 30
0
  0
VERTEX
  8
LAYER_2
 10
77.5091
 20
123.7824
  0
VERTEX
  8
LAYER_2
 10
77.7874
 20
123.7824
  0
VERTEX
  8
LAYER_2
 10
77.7874
 20
123.466
  0
VERTEX
  8
LAYER_2
 10
77.5091
 20
123.466
  0
SEQEND
  0
POLYLINE
  8
LAYER_2
  6
AIGENLINE015
 40
0.1376
 41
0.1376
 66
1
 10
0
 20
0
 30
0
 70
128
  0
VERTEX
  8
LAYER_2
 10
77.0367
 20
123.4663
  0
VERTEX
  8
LAYER_2
 10
74.4392
 20
123.4663
  0
SEQEND
  0
POLYLINE
  8
LAYER_2
  6
AIGENLINE016
 40
0.1376
 41
0.1376
 66
1
 10
0
 20
0
 30
0
 70
128
  0
VERTEX
  8
LAYER_2
 10
73.0852
 20
126.1859
  0
VERTEX
  8
LAYER_2
 10
72.9875
 20
126.2293
  0
SEQEND
  0
POLYLINE
  8
LAYER_2
 40
0.1376
 41
0.1376
 66
1
 10
0
 20
0
 30
0
  0
VERTEX
  8
LAYER_2
 10
73.0852
 20
126.1859
  0
VERTEX
  8
LAYER_2
 10
73.2859
 20
125.9936
  0
SEQEND
  0
POLYLINE
  8
LAYER_2
 40
0.1376
 41
0.1376
 66
1
 10
0
 20
0
 30
0
  0
VERTEX
  8
LAYER_2
 10
73.7805
 20
125.5184
  0
VERTEX
  8
LAYER_2
 10
73.9813
 20
125.3258
  0
SEQEND
  0
POLYLINE
  8
LAYER_2
  6
AIGENLINE017
 40
0.1376
 41
0.1376
 66
1
 10
0
 20
0
 30
0
 70
128
  0
VERTEX
  8
LAYER_2
 10
74.0296
 20
125.2122
 42
0.1980947499
  0
VERTEX
  8
LAYER_2
 10
73.9813
 20
125.3262
  0
SEQEND
  0
POLYLINE
  8
LAYER_2
 40
0.1376
 41
0.1376
 66
1
 10
0
 20
0
 30
0
  0
VERTEX
  8
LAYER_2
 10
74.0296
 20
125.2122
  0
VERTEX
  8
LAYER_2
 10
74.0296
 20
124.9339
  0
SEQEND
  0
POLYLINE
  8
LAYER_2
 40
0.1376
 41
0.1376
 66
1
 10
0
 20
0
 30
0
  0
VERTEX
  8
LAYER_2
 10
74.0296
 20
124.5328
  0
VERTEX
  8
LAYER_2
 10
74.0296
 20
124.2544
  0
SEQEND
  0
POLYLINE
  8
LAYER_2
  6
AIGENLINE018
 40
0.1376
 41
0.1376
 66
1
 10
0
 20
0
 30
0
 70
128
  0
VERTEX
  8
LAYER_2
 10
74.0296
 20
124.2548
  0
VERTEX
  8
LAYER_2
 10
73.4839
 20
124.2548
  0
SEQEND
  0
POLYLINE
  8
LAYER_2
  6
AIGENLINE019
 40
0.1376
 41
0.1376
 66
1
 10
0
 20
0
 30
0
 70
128
  0
VERTEX
  8
LAYER_2
 10
73.4839
 20
124.2548
  0
VERTEX
  8
LAYER_2
 10
73.4839
 20
124.7106
  0
SEQEND
  0
POLYLINE
  8
LAYER_2
 40
0.1376
 41
0.1376
 66
1
 10
0
 20
0
 30
0
  0
VERTEX
  8
LAYER_2
 10
73.4839
 20
124.7106
  0
VERTEX
  8
LAYER_2
 10
73.2831
 20
124.9032
  0
SEQEND
  0
POLYLINE
  8
LAYER_2
 40
0.1376
 41
0.1376
 66
1
 10
0
 20
0
 30
0
  0
VERTEX
  8
LAYER_2
 10
72.9039
 20
125.2672
  0
VERTEX
  8
LAYER_2
 10
72.7032
 20
125.4599
  0
VERTEX
  8
LAYER_2
 10
72.4252
 20
125.4606
  0
SEQEND
  0
POLYLINE
  8
LAYER_2
  6
AIGENLINE020
 40
0.1376
 41
0.1376
 66
1
 10
0
 20
0
 30
0
 70
128
  0
VERTEX
  8
LAYER_2
 10
71.8643
 20
125.4616
  0
VERTEX
  8
LAYER_2
 10
44.0869
 20
125.5219
  0
SEQEND
  0
POLYLINE
  8
LAYER_2
 40
0.1376
 41
0.1376
 66
1
 10
0
 20
0
 30
0
  0
VERTEX
  8
LAYER_2
 10
43.8064
 20
125.5227
  0
VERTEX
  8
LAYER_2
 10
43.5281
 20
125.5234
  0
SEQEND
  0
POLYLINE
  8
LAYER_2
 40
0.1376
 41
0.1376
 66
1
 10
0
 20
0
 30
0
  0
VERTEX
  8
LAYER_2
 10
43.5284
 20
125.523
 42
0.1091749975
  0
VERTEX
  8
LAYER_2
 10
43.255
 20
125.4828
  0
SEQEND
  0
POLYLINE
  8
LAYER_2
 40
0.1376
 41
0.1376
 66
1
 10
0
 20
0
 30
0
  0
VERTEX
  8
LAYER_2
 10
43.0441
 20
125.3477
 42
0.1096153967
  0
VERTEX
  8
LAYER_2
 10
42.8924
 20
125.1166
  0
VERTEX
  8
LAYER_2
 10
42.7943
 20
124.8563
  0
SEQEND
  0
POLYLINE
  8
LAYER_2
  6
AIGENLINE021
 40
0.1376
 41
0.1376
 66
1
 10
0
 20
0
 30
0
 70
128
  0
VERTEX
  8
LAYER_2
 10
42.6652
 20
124.5137
  0
VERTEX
  8
LAYER_2
 10
42.4712
 20
124.0001
  0
SEQEND
  0
POLYLINE
  8
LAYER_2
 40
0.1376
 41
0.1376
 66
1
 10
0
 20
0
 30
0
  0
VERTEX
  8
LAYER_2
 10
42.4066
 20
123.8286
  0
VERTEX
  8
LAYER_2
 10
42.3085
 20
123.5686
  0
SEQEND
  0
POLYLINE
  8
LAYER_2
  6
AIGENLINE022
 40
0.1376
 41
0.1376
 66
1
 10
0
 20
0
 30
0
 70
128
  0
VERTEX
  8
LAYER_2
 10
42.1611
 20
123.4663
 42
0.3010342266
  0
VERTEX
  8
LAYER_2
 10
42.3089
 20
123.5683
  0
SEQEND
  0
POLYLINE
  8
LAYER_2
 40
0.1376
 41
0.1376
 66
1
 10
0
 20
0
 30
0
  0
VERTEX
  8
LAYER_2
 10
77.6555
 20
124.2548
  0
VERTEX
  8
LAYER_2
 10
77.6555
 20
124.5331
  0
SEQEND
  0
POLYLINE
  8
LAYER_2
 40
0.1376
 41
0.1376
 66
1
 10
0
 20
0
 30
0
  0
VERTEX
  8
LAYER_2
 10
77.6555
 20
124.9342
  0
VERTEX
  8
LAYER_2
 10
77.6555
 20
125.2122
  0
SEQEND
  0
POLYLINE
  8
LAYER_2
  6
AIGENLINE017
 40
0.1376
 41
0.1376
 66
1
 10
0
 20
0
 30
0
 70
128
  0
VERTEX
  8
LAYER_2
 10
77.7038
 20
125.3258
 42
0.2016064113
  0
VERTEX
  8
LAYER_2
 10
77.6555
 20
125.2122
  0
SEQEND
  0
POLYLINE
  8
LAYER_2
 40
0.1376
 41
0.1376
 66
1
 10
0
 20
0
 30
0
  0
VERTEX
  8
LAYER_2
 10
77.7038
 20
125.3258
  0
VERTEX
  8
LAYER_2
 10
77.9045
 20
125.5184
  0
SEQEND
  0
POLYLINE
  8
LAYER_2
 40
0.1376
 41
0.1376
 66
1
 10
0
 20
0
 30
0
  0
VERTEX
  8
LAYER_2
 10
78.3991
 20
125.9936
  0
VERTEX
  8
LAYER_2
 10
78.5998
 20
126.1859
  0
SEQEND
  0
POLYLINE
  8
LAYER_2
  6
AIGENLINE016
 40
0.1376
 41
0.1376
 66
1
 10
0
 20
0
 30
0
 70
128
  0
VERTEX
  8
LAYER_2
 10
78.6972
 20
126.2296
  0
VERTEX
  8
LAYER_2
 10
78.5995
 20
126.1862
  0
SEQEND
  0
POLYLINE
  8
LAYER_2
 40
0.1376
 41
0.1376
 66
1
 10
0
 20
0
 30
0
  0
VERTEX
  8
LAYER_2
 10
41.482
 20
123.4663
  0
VERTEX
  8
LAYER_2
 10
41.7603
 20
123.4663
  0
SEQEND
  0
POLYLINE
  8
LAYER_2
 40
0.1376
 41
0.1376
 66
1
 10
0
 20
0
 30
0
  0
VERTEX
  8
LAYER_2
 10
41.8831
 20
123.4663
  0
VERTEX
  8
LAYER_2
 10
42.1614
 20
123.4663
  0
SEQEND
  0
POLYLINE
  8
LAYER_2
 40
0.1376
 41
0.1376
 66
1
 10
0
 20
0
 30
0
  0
VERTEX
  8
LAYER_2
 10
108.0656
 20
125.523
  0
VERTEX
  8
LAYER_2
 10
107.7876
 20
125.5223
  0
SEQEND
  0
POLYLINE
  8
LAYER_2
  6
AIGENLINE023
 40
0.1376
 41
0.1376
 66
1
 10
0
 20
0
 30
0
 70
128
  0
VERTEX
  8
LAYER_2
 10
107.2281
 20
125.5209
  0
VERTEX
  8
LAYER_2
 10
79.5389
 20
125.4609
  0
SEQEND
  0
POLYLINE
  8
LAYER_2
 40
0.1376
 41
0.1376
 66
1
 10
0
 20
0
 30
0
  0
VERTEX
  8
LAYER_2
 10
79.2595
 20
125.4606
  0
VERTEX
  8
LAYER_2
 10
78.9812
 20
125.4599
  0
SEQEND
  0
POLYLINE
  8
LAYER_2
 40
0.1376
 41
0.1376
 66
1
 10
0
 20
0
 30
0
  0
VERTEX
  8
LAYER_2
 10
78.9816
 20
125.4599
  0
VERTEX
  8
LAYER_2
 10
78.7808
 20
125.2672
  0
SEQEND
  0
POLYLINE
  8
LAYER_2
 40
0.1376
 41
0.1376
 66
1
 10
0
 20
0
 30
0
  0
VERTEX
  8
LAYER_2
 10
78.4016
 20
124.9032
  0
VERTEX
  8
LAYER_2
 10
78.2012
 20
124.7105
  0
SEQEND
  0
POLYLINE
  8
LAYER_2
  6
AIGENLINE019
 40
0.1376
 41
0.1376
 66
1
 10
0
 20
0
 30
0
 70
128
  0
VERTEX
  8
LAYER_2
 10
78.2012
 20
124.7106
  0
VERTEX
  8
LAYER_2
 10
78.2012
 20
124.2548
  0
SEQEND
  0
POLYLINE
  8
LAYER_2
  6
AIGENLINE018
 40
0.1376
 41
0.1376
 66
1
 10
0
 20
0
 30
0
 70
128
  0
VERTEX
  8
LAYER_2
 10
78.2012
 20
124.2548
  0
VERTEX
  8
LAYER_2
 10
77.6555
 20
124.2548
  0
SEQEND
  0
POLYLINE
  8
LAYER_2
  6
AIGENLINE024
 40
0.1376
 41
0.1376
 66
1
 10
0
 20
0
 30
0
 70
128
  0
VERTEX
  8
LAYER_2
 10
38.9748
 20
126.9387
 42
0.3430587927
  0
VERTEX
  8
LAYER_2
 10
39.3371
 20
126.5958
  0
SEQEND
  0
POLYLINE
  8
LAYER_2
 40
0.1376
 41
0.1376
 66
1
 10
0
 20
0
 30
0
  0
VERTEX
  8
LAYER_2
 10
39.3371
 20
126.5958
  0
VERTEX
  8
LAYER_2
 10
39.6154
 20
126.5926
  0
SEQEND
  0
POLYLINE
  8
LAYER_2
  6
AIGENLINE020
 40
0.1376
 41
0.1376
 66
1
 10
0
 20
0
 30
0
 70
128
  0
VERTEX
  8
LAYER_2
 10
40.176
 20
126.5866
  0
VERTEX
  8
LAYER_2
 10
72.4291
 20
126.2353
  0
SEQEND
  0
POLYLINE
  8
LAYER_2
 40
0.1376
 41
0.1376
 66
1
 10
0
 20
0
 30
0
  0
VERTEX
  8
LAYER_2
 10
72.7095
 20
126.2324
  0
VERTEX
  8
LAYER_2
 10
72.9879
 20
126.2293
  0
SEQEND
  0
POLYLINE
  8
LAYER_2
 40
0.1376
 41
0.1376
 66
1
 10
0
 20
0
 30
0
  0
VERTEX
  8
LAYER_2
 10
78.6972
 20
126.2296
  0
VERTEX
  8
LAYER_2
 10
78.9755
 20
126.2324
  0
SEQEND
  0
POLYLINE
  8
LAYER_2
  6
AIGENLINE023
 40
0.1376
 41
0.1376
 66
1
 10
0
 20
0
 30
0
 70
128
  0
VERTEX
  8
LAYER_2
 10
79.5347
 20
126.2388
  0
VERTEX
  8
LAYER_2
 10
111.6996
 20
126.5894
  0
SEQEND
  0
POLYLINE
  8
LAYER_2
 40
0.1376
 41
0.1376
 66
1
 10
0
 20
0
 30
0
  0
VERTEX
  8
LAYER_2
 10
111.979
 20
126.5926
  0
VERTEX
  8
LAYER_2
 10
112.2573
 20
126.5958
  0
SEQEND
  0
POLYLINE
  8
LAYER_2
 40
0.1376
 41
0.1376
 66
1
 10
0
 20
0
 30
0
  0
VERTEX
  8
LAYER_2
 10
37.5559
 20
137.6543
  0
VERTEX
  8
LAYER_2
 10
37.2776
 20
137.6543
  0
SEQEND
  0
POLYLINE
  8
LAYER_2
  6
AIGENLINE025
 40
0.1376
 41
0.1376
 66
1
 10
0
 20
0
 30
0
 70
128
  0
VERTEX
  8
LAYER_2
 10
36.6496
 20
137.6543
  0
VERTEX
  8
LAYER_2
 10
33.1959
 20
137.6543
  0
SEQEND
  0
POLYLINE
  8
LAYER_2
 40
0.1376
 41
0.1376
 66
1
 10
0
 20
0
 30
0
  0
VERTEX
  8
LAYER_2
 10
32.8816
 20
137.6543
  0
VERTEX
  8
LAYER_2
 10
32.6033
 20
137.6543
  0
SEQEND
  0
POLYLINE
  8
LAYER_2
  6
AIGENLINE026
 40
0.1376
 41
0.1376
 66
1
 10
0
 20
0
 30
0
 70
128
  0
VERTEX
  8
LAYER_2
 10
32.6033
 20
137.6543
 42
0.4142569561
  0
VERTEX
  8
LAYER_2
 10
32.4459
 20
137.497
  0
SEQEND
  0
POLYLINE
  8
LAYER_2
  6
AIGENLINE027
 40
0.1376
 41
0.1376
 66
1
 10
0
 20
0
 30
0
 70
128
  0
VERTEX
  8
LAYER_2
 10
32.4459
 20
137.4966
  0
VERTEX
  8
LAYER_2
 10
32.4459
 20
136.9452
  0
SEQEND
  0
POLYLINE
  8
LAYER_2
  6
AIGENLINE003
 40
0.1376
 41
0.1376
 66
1
 10
0
 20
0
 30
0
 70
128
  0
VERTEX
  8
LAYER_2
 10
32.4459
 20
136.9449
 42
0.3924239435
  0
VERTEX
  8
LAYER_2
 10
32.6033
 20
136.7872
  0
SEQEND
  0
POLYLINE
  8
LAYER_2
 40
0.1376
 41
0.1376
 66
1
 10
0
 20
0
 30
0
  0
VERTEX
  8
LAYER_2
 10
32.6033
 20
136.7872
  0
VERTEX
  8
LAYER_2
 10
32.8816
 20
136.7872
  0
SEQEND
  0
POLYLINE
  8
LAYER_2
  6
AIGENLINE028
 40
0.1376
 41
0.1376
 66
1
 10
0
 20
0
 30
0
 70
128
  0
VERTEX
  8
LAYER_2
 10
33.4041
 20
136.7872
  0
VERTEX
  8
LAYER_2
 10
36.2789
 20
136.7872
  0
SEQEND
  0
POLYLINE
  8
LAYER_2
 40
0.1376
 41
0.1376
 66
1
 10
0
 20
0
 30
0
  0
VERTEX
  8
LAYER_2
 10
36.5399
 20
136.7872
  0
VERTEX
  8
LAYER_2
 10
36.8183
 20
136.7872
  0
SEQEND
  0
POLYLINE
  8
LAYER_2
  6
AIGENLINE029
 40
0.1376
 41
0.1376
 66
1
 10
0
 20
0
 30
0
 70
128
  0
VERTEX
  8
LAYER_2
 10
38.4675
 20
123.7489
 42
0.3835006778
  0
VERTEX
  8
LAYER_2
 10
38.863
 20
123.4663
  0
SEQEND
  0
POLYLINE
  8
LAYER_2
 40
0.1376
 41
0.1376
 66
1
 10
0
 20
0
 30
0
  0
VERTEX
  8
LAYER_2
 10
38.8626
 20
123.4663
  0
VERTEX
  8
LAYER_2
 10
39.1409
 20
123.4663
  0
SEQEND
  0
POLYLINE
  8
LAYER_2
 40
0.1376
 41
0.1376
 66
1
 10
0
 20
0
 30
0
  0
VERTEX
  8
LAYER_2
 10
39.2334
 20
123.4663
  0
VERTEX
  8
LAYER_2
 10
39.5117
 20
123.4663
  0
SEQEND
  0
POLYLINE
  8
LAYER_2
 40
0.1376
 41
0.1376
 66
1
 10
0
 20
0
 30
0
  0
VERTEX
  8
LAYER_2
 10
41.482
 20
123.4663
  0
VERTEX
  8
LAYER_2
 10
41.2269
 20
123.5774
  0
SEQEND
  0
POLYLINE
  8
LAYER_2
  6
AIGENLINE030
 40
0.1376
 41
0.1376
 66
1
 10
0
 20
0
 30
0
 70
128
  0
VERTEX
  8
LAYER_2
 10
40.7447
 20
123.6907
 42
0.08639551199
  0
VERTEX
  8
LAYER_2
 10
40.0042
 20
123.648
  0
SEQEND
  0
POLYLINE
  8
LAYER_2
 40
0.1376
 41
0.1376
 66
1
 10
0
 20
0
 30
0
  0
VERTEX
  8
LAYER_2
 10
39.7664
 20
123.5774
  0
VERTEX
  8
LAYER_2
 10
39.5114
 20
123.4663
  0
SEQEND
  0
POLYLINE
  8
LAYER_2
  6
AIGENLINE031
 40
0.1376
 41
0.1376
 66
1
 10
0
 20
0
 30
0
 70
128
  0
VERTEX
  8
LAYER_2
 10
39.3932
 20
124.4802
 42
0.3916380318
  0
VERTEX
  8
LAYER_2
 10
39.5689
 20
124.3426
  0
VERTEX
  8
LAYER_2
 10
39.5981
 20
124.3493
  0
SEQEND
  0
POLYLINE
  8
LAYER_2
 40
0.1376
 41
0.1376
 66
1
 10
0
 20
0
 30
0
  0
VERTEX
  8
LAYER_2
 10
39.3932
 20
124.4802
  0
VERTEX
  8
LAYER_2
 10
39.3593
 20
124.7557
  0
SEQEND
  0
POLYLINE
  8
LAYER_2
 40
0.1376
 41
0.1376
 66
1
 10
0
 20
0
 30
0
  0
VERTEX
  8
LAYER_2
 10
39.2838
 20
125.372
  0
VERTEX
  8
LAYER_2
 10
39.25
 20
125.6475
  0
SEQEND
  0
POLYLINE
  8
LAYER_2
  6
AIGENLINE032
 40
0.1376
 41
0.1376
 66
1
 10
0
 20
0
 30
0
 70
128
  0
VERTEX
  8
LAYER_2
 10
39.4182
 20
125.8243
 42
0.3912740725
  0
VERTEX
  8
LAYER_2
 10
39.2492
 20
125.6786
  0
VERTEX
  8
LAYER_2
 10
39.2503
 20
125.6475
  0
SEQEND
  0
POLYLINE
  8
LAYER_2
 40
0.1376
 41
0.1376
 66
1
 10
0
 20
0
 30
0
  0
VERTEX
  8
LAYER_2
 10
39.4182
 20
125.8243
  0
VERTEX
  8
LAYER_2
 10
39.6959
 20
125.8038
  0
SEQEND
  0
POLYLINE
  8
LAYER_2
  6
AIGENLINE033
 40
0.1376
 41
0.1376
 66
1
 10
0
 20
0
 30
0
 70
128
  0
VERTEX
  8
LAYER_2
 10
40.381
 20
125.7537
  0
VERTEX
  8
LAYER_2
 10
41.4082
 20
125.6782
  0
SEQEND
  0
POLYLINE
  8
LAYER_2
 40
0.1376
 41
0.1376
 66
1
 10
0
 20
0
 30
0
  0
VERTEX
  8
LAYER_2
 10
41.7508
 20
125.6535
  0
VERTEX
  8
LAYER_2
 10
42.0284
 20
125.6331
  0
SEQEND
  0
POLYLINE
  8
LAYER_2
  6
AIGENLINE034
 40
0.1376
 41
0.1376
 66
1
 10
0
 20
0
 30
0
 70
128
  0
VERTEX
  8
LAYER_2
 10
42.1642
 20
125.4203
 42
0.3931162903
  0
VERTEX
  8
LAYER_2
 10
42.0722
 20
125.6232
  0
VERTEX
  8
LAYER_2
 10
42.0281
 20
125.6331
  0
SEQEND
  0
POLYLINE
  8
LAYER_2
 40
0.1376
 41
0.1376
 66
1
 10
0
 20
0
 30
0
  0
VERTEX
  8
LAYER_2
 10
42.1642
 20
125.4203
  0
VERTEX
  8
LAYER_2
 10
42.0662
 20
125.16
  0
SEQEND
  0
POLYLINE
  8
LAYER_2
 40
0.1376
 41
0.1376
 66
1
 10
0
 20
0
 30
0
  0
VERTEX
  8
LAYER_2
 10
41.87
 20
124.6396
  0
VERTEX
  8
LAYER_2
 10
41.772
 20
124.3796
  0
SEQEND
  0
POLYLINE
  8
LAYER_2
  6
AIGENLINE003
 40
0.1376
 41
0.1376
 66
1
 10
0
 20
0
 30
0
 70
128
  0
VERTEX
  8
LAYER_2
 10
41.5677
 20
124.2883
 42
0.3925523362
  0
VERTEX
  8
LAYER_2
 10
41.7713
 20
124.3779
  0
SEQEND
  0
POLYLINE
  8
LAYER_2
 40
0.1376
 41
0.1376
 66
1
 10
0
 20
0
 30
0
  0
VERTEX
  8
LAYER_2
 10
41.5677
 20
124.2883
  0
VERTEX
  8
LAYER_2
 10
41.3045
 20
124.3782
  0
SEQEND
  0
POLYLINE
  8
LAYER_2
  6
AIGENLINE035
 40
0.1376
 41
0.1376
 66
1
 10
0
 20
0
 30
0
 70
128
  0
VERTEX
  8
LAYER_2
 10
40.8304
 20
124.4738
 42
0.06361010947
  0
VERTEX
  8
LAYER_2
 10
40.1068
 20
124.4664
  0
SEQEND
  0
POLYLINE
  8
LAYER_2
 40
0.1376
 41
0.1376
 66
1
 10
0
 20
0
 30
0
  0
VERTEX
  8
LAYER_2
 10
39.8663
 20
124.423
  0
VERTEX
  8
LAYER_2
 10
39.5981
 20
124.349
  0
SEQEND
  0
POLYLINE
  8
LAYER_2
 40
0.1376
 41
0.1376
 66
1
 10
0
 20
0
 30
0
  0
VERTEX
  8
LAYER_2
 10
39.3371
 20
126.5958
  0
VERTEX
  8
LAYER_2
 10
39.6154
 20
126.5958
  0
SEQEND
  0
POLYLINE
  8
LAYER_2
  6
AIGENLINE036
 40
0.1376
 41
0.1376
 66
1
 10
0
 20
0
 30
0
 70
128
  0
VERTEX
  8
LAYER_2
 10
40.1675
 20
126.5958
  0
VERTEX
  8
LAYER_2
 10
111.7027
 20
126.5954
  0
SEQEND
  0
POLYLINE
  8
LAYER_2
 40
0.1376
 41
0.1376
 66
1
 10
0
 20
0
 30
0
  0
VERTEX
  8
LAYER_2
 10
111.979
 20
126.5954
  0
VERTEX
  8
LAYER_2
 10
112.2573
 20
126.5954
  0
SEQEND
  0
POLYLINE
  8
LAYER_2
 40
0.1376
 41
0.1376
 66
1
 10
0
 20
0
 30
0
  0
VERTEX
  8
LAYER_2
 10
72.9879
 20
126.2296
  0
VERTEX
  8
LAYER_2
 10
73.2662
 20
126.2296
  0
SEQEND
  0
POLYLINE
  8
LAYER_2
  6
AIGENLINE037
 40
0.1376
 41
0.1376
 66
1
 10
0
 20
0
 30
0
 70
128
  0
VERTEX
  8
LAYER_2
 10
73.8384
 20
126.2296
  0
VERTEX
  8
LAYER_2
 10
78.1328
 20
126.2296
  0
SEQEND
  0
POLYLINE
  8
LAYER_2
 40
0.1376
 41
0.1376
 66
1
 10
0
 20
0
 30
0
  0
VERTEX
  8
LAYER_2
 10
78.4192
 20
126.2296
  0
VERTEX
  8
LAYER_2
 10
78.6976
 20
126.2296
  0
SEQEND
  0
POLYLINE
  8
LAYER_2
 40
0.1376
 41
0.1376
 66
1
 10
0
 20
0
 30
0
  0
VERTEX
  8
LAYER_2
 10
73.9809
 20
125.3258
  0
VERTEX
  8
LAYER_2
 10
74.2593
 20
125.3258
  0
SEQEND
  0
POLYLINE
  8
LAYER_2
  6
AIGENLINE038
 40
0.1376
 41
0.1376
 66
1
 10
0
 20
0
 30
0
 70
128
  0
VERTEX
  8
LAYER_2
 10
74.8925
 20
125.3258
  0
VERTEX
  8
LAYER_2
 10
77.109
 20
125.3258
  0
SEQEND
  0
POLYLINE
  8
LAYER_2
 40
0.1376
 41
0.1376
 66
1
 10
0
 20
0
 30
0
  0
VERTEX
  8
LAYER_2
 10
77.4258
 20
125.3258
  0
VERTEX
  8
LAYER_2
 10
77.7041
 20
125.3258
  0
SEQEND
  0
POLYLINE
  8
LAYER_2
 40
0.1376
 41
0.1376
 66
1
 10
0
 20
0
 30
0
  0
VERTEX
  8
LAYER_2
 10
74.0296
 20
124.2548
  0
VERTEX
  8
LAYER_2
 10
74.3079
 20
124.2548
  0
SEQEND
  0
POLYLINE
  8
LAYER_2
  6
AIGENLINE039
 40
0.1376
 41
0.1376
 66
1
 10
0
 20
0
 30
0
 70
128
  0
VERTEX
  8
LAYER_2
 10
74.9214
 20
124.2548
  0
VERTEX
  8
LAYER_2
 10
77.0706
 20
124.2548
  0
SEQEND
  0
POLYLINE
  8
LAYER_2
 40
0.1376
 41
0.1376
 66
1
 10
0
 20
0
 30
0
  0
VERTEX
  8
LAYER_2
 10
77.3775
 20
124.2548
  0
VERTEX
  8
LAYER_2
 10
77.6555
 20
124.2548
  0
SEQEND
  0
POLYLINE
  8
LAYER_2
 40
0.1376
 41
0.1376
 66
1
 10
0
 20
0
 30
0
  0
VERTEX
  8
LAYER_2
 10
39.5114
 20
123.4663
  0
VERTEX
  8
LAYER_2
 10
39.7897
 20
123.4663
  0
SEQEND
  0
POLYLINE
  8
LAYER_2
  6
AIGENLINE040
 40
0.1376
 41
0.1376
 66
1
 10
0
 20
0
 30
0
 70
128
  0
VERTEX
  8
LAYER_2
 10
40.261
 20
123.4663
  0
VERTEX
  8
LAYER_2
 10
40.968
 20
123.4663
  0
SEQEND
  0
POLYLINE
  8
LAYER_2
 40
0.1376
 41
0.1376
 66
1
 10
0
 20
0
 30
0
  0
VERTEX
  8
LAYER_2
 10
41.204
 20
123.4663
  0
VERTEX
  8
LAYER_2
 10
41.4823
 20
123.4663
  0
SEQEND
  0
POLYLINE
  8
LAYER_2
 40
0.1376
 41
0.1376
 66
1
 10
0
 20
0
 30
0
  0
VERTEX
  8
LAYER_2
 10
37.5559
 20
137.6543
  0
VERTEX
  8
LAYER_2
 10
37.8342
 20
137.6543
  0
SEQEND
  0
POLYLINE
  8
LAYER_2
  6
AIGENLINE041
 40
0.1376
 41
0.1376
 66
1
 10
0
 20
0
 30
0
 70
128
  0
VERTEX
  8
LAYER_2
 10
38.3818
 20
137.6543
  0
VERTEX
  8
LAYER_2
 10
67.6817
 20
137.6543
  0
SEQEND
  0
POLYLINE
  8
LAYER_2
 40
0.1376
 41
0.1376
 66
1
 10
0
 20
0
 30
0
  0
VERTEX
  8
LAYER_2
 10
67.9558
 20
137.6543
  0
VERTEX
  8
LAYER_2
 10
68.2338
 20
137.6543
  0
SEQEND
  0
POLYLINE
  8
LAYER_2
 40
0.1376
 41
0.1376
 66
1
 10
0
 20
0
 30
0
  0
VERTEX
  8
LAYER_2
 10
38.4671
 20
123.7507
  0
VERTEX
  8
LAYER_2
 10
38.4396
 20
124.0276
  0
SEQEND
  0
POLYLINE
  8
LAYER_2
  6
AIGENLINE042
 40
0.1376
 41
0.1376
 66
1
 10
0
 20
0
 30
0
 70
128
  0
VERTEX
  8
LAYER_2
 10
38.3825
 20
124.6051
  0
VERTEX
  8
LAYER_2
 10
37.2663
 20
135.8664
  0
SEQEND
  0
POLYLINE
  8
LAYER_2
 40
0.1376
 41
0.1376
 66
1
 10
0
 20
0
 30
0
  0
VERTEX
  8
LAYER_2
 10
37.2377
 20
136.1554
  0
VERTEX
  8
LAYER_2
 10
37.2102
 20
136.4319
  0
SEQEND
  0
POLYLINE
  8
LAYER_2
 40
0.1376
 41
0.1376
 66
1
 10
0
 20
0
 30
0
  0
VERTEX
  8
LAYER_2
 10
37.2102
 20
136.4319
 42
0.1767560319
  0
VERTEX
  8
LAYER_2
 10
37.0909
 20
136.6775
  0
SEQEND
  0
POLYLINE
  8
LAYER_2
 40
0.1376
 41
0.1376
 66
1
 10
0
 20
0
 30
0
  0
VERTEX
  8
LAYER_2
 10
37.074
 20
136.6927
 42
0.1775878719
  0
VERTEX
  8
LAYER_2
 10
36.8179
 20
136.7872
  0
SEQEND
  0
POLYLINE
  8
LAYER_2
 40
0.1376
 41
0.1376
 66
1
 10
0
 20
0
 30
0
  0
VERTEX
  8
LAYER_2
 10
38.9748
 20
126.9387
  0
VERTEX
  8
LAYER_2
 10
38.9473
 20
127.2156
  0
SEQEND
  0
POLYLINE
  8
LAYER_2
  6
AIGENLINE043
 40
0.1376
 41
0.1376
 66
1
 10
0
 20
0
 30
0
 70
128
  0
VERTEX
  8
LAYER_2
 10
38.8905
 20
127.7921
  0
VERTEX
  8
LAYER_2
 10
38.0043
 20
136.7336
  0
SEQEND
  0
POLYLINE
  8
LAYER_2
 40
0.1376
 41
0.1376
 66
1
 10
0
 20
0
 30
0
  0
VERTEX
  8
LAYER_2
 10
37.9754
 20
137.0225
  0
VERTEX
  8
LAYER_2
 10
37.9478
 20
137.2991
  0
SEQEND
  0
POLYLINE
  8
LAYER_2
 40
0.1376
 41
0.1376
 66
1
 10
0
 20
0
 30
0
  0
VERTEX
  8
LAYER_2
 10
37.9478
 20
137.2991
 42
0.1768106331
  0
VERTEX
  8
LAYER_2
 10
37.8286
 20
137.5446
  0
SEQEND
  0
POLYLINE
  8
LAYER_2
 40
0.1376
 41
0.1376
 66
1
 10
0
 20
0
 30
0
  0
VERTEX
  8
LAYER_2
 10
37.8117
 20
137.5598
 42
0.1776014841
  0
VERTEX
  8
LAYER_2
 10
37.5559
 20
137.6543
  0
SEQEND
  0
POLYLINE
  8
LAYER_2
 40
0.1376
 41
0.1376
 66
1
 10
0
 20
0
 30
0
  0
VERTEX
  8
LAYER_2
 10
108.7013
 20
125.1163
 42
0.1122369032
  0
VERTEX
  8
LAYER_2
 10
108.55
 20
125.3473
  0
SEQEND
  0
POLYLINE
  8
LAYER_2
 40
0.1376
 41
0.1376
 66
1
 10
0
 20
0
 30
0
  0
VERTEX
  8
LAYER_2
 10
108.339
 20
125.4821
 42
0.1124710413
  0
VERTEX
  8
LAYER_2
 10
108.0656
 20
125.5226
  0
SEQEND
  0
POLYLINE
  8
LAYER_2
 40
0.1376
 41
0.1376
 66
1
 10
0
 20
0
 30
0
  0
VERTEX
  8
LAYER_2
 10
108.7013
 20
125.1163
  0
VERTEX
  8
LAYER_2
 10
108.7994
 20
124.8562
  0
SEQEND
  0
POLYLINE
  8
LAYER_2
  6
AIGENLINE021
 40
0.1376
 41
0.1376
 66
1
 10
0
 20
0
 30
0
 70
128
  0
VERTEX
  8
LAYER_2
 10
108.9289
 20
124.5137
  0
VERTEX
  8
LAYER_2
 10
109.1229
 20
123.9997
  0
SEQEND
  0
POLYLINE
  8
LAYER_2
 40
0.1376
 41
0.1376
 66
1
 10
0
 20
0
 30
0
  0
VERTEX
  8
LAYER_2
 10
109.1874
 20
123.8286
  0
VERTEX
  8
LAYER_2
 10
109.2855
 20
123.5683
  0
SEQEND
  0
POLYLINE
  8
LAYER_2
  6
AIGENLINE022
 40
0.1376
 41
0.1376
 66
1
 10
0
 20
0
 30
0
 70
128
  0
VERTEX
  8
LAYER_2
 10
109.2855
 20
123.5683
 42
0.3040844979
  0
VERTEX
  8
LAYER_2
 10
109.433
 20
123.4663
  0
SEQEND
  0
POLYLINE
  8
LAYER_2
 40
0.1376
 41
0.1376
 66
1
 10
0
 20
0
 30
0
  0
VERTEX
  8
LAYER_2
 10
110.1121
 20
123.4663
  0
VERTEX
  8
LAYER_2
 10
109.8341
 20
123.4663
  0
SEQEND
  0
POLYLINE
  8
LAYER_2
 40
0.1376
 41
0.1376
 66
1
 10
0
 20
0
 30
0
  0
VERTEX
  8
LAYER_2
 10
109.711
 20
123.4663
  0
VERTEX
  8
LAYER_2
 10
109.433
 20
123.4663
  0
SEQEND
  0
POLYLINE
  8
LAYER_2
  6
AIGENLINE024
 40
0.1376
 41
0.1376
 66
1
 10
0
 20
0
 30
0
 70
128
  0
VERTEX
  8
LAYER_2
 10
112.257
 20
126.5954
 42
0.3561743079
  0
VERTEX
  8
LAYER_2
 10
112.6193
 20
126.938
  0
SEQEND
  0
POLYLINE
  8
LAYER_2
 40
0.1376
 41
0.1376
 66
1
 10
0
 20
0
 30
0
  0
VERTEX
  8
LAYER_2
 10
114.0381
 20
137.654
  0
VERTEX
  8
LAYER_2
 10
114.3165
 20
137.654
  0
SEQEND
  0
POLYLINE
  8
LAYER_2
  6
AIGENLINE025
 40
0.1376
 41
0.1376
 66
1
 10
0
 20
0
 30
0
 70
128
  0
VERTEX
  8
LAYER_2
 10
114.9444
 20
137.654
  0
VERTEX
  8
LAYER_2
 10
118.3985
 20
137.654
  0
SEQEND
  0
POLYLINE
  8
LAYER_2
 40
0.1376
 41
0.1376
 66
1
 10
0
 20
0
 30
0
  0
VERTEX
  8
LAYER_2
 10
118.7124
 20
137.654
  0
VERTEX
  8
LAYER_2
 10
118.9908
 20
137.654
  0
SEQEND
  0
POLYLINE
  8
LAYER_2
  6
AIGENLINE044
 40
0.1376
 41
0.1376
 66
1
 10
0
 20
0
 30
0
 70
128
  0
VERTEX
  8
LAYER_2
 10
119.1485
 20
137.4963
 42
0.4141656887
  0
VERTEX
  8
LAYER_2
 10
118.9908
 20
137.654
  0
SEQEND
  0
POLYLINE
  8
LAYER_2
  6
AIGENLINE027
 40
0.1376
 41
0.1376
 66
1
 10
0
 20
0
 30
0
 70
128
  0
VERTEX
  8
LAYER_2
 10
119.1485
 20
137.4963
  0
VERTEX
  8
LAYER_2
 10
119.1485
 20
136.9442
  0
SEQEND
  0
POLYLINE
  8
LAYER_2
  6
AIGENLINE003
 40
0.1376
 41
0.1376
 66
1
 10
0
 20
0
 30
0
 70
128
  0
VERTEX
  8
LAYER_2
 10
118.9908
 20
136.7868
 42
0.4142061919
  0
VERTEX
  8
LAYER_2
 10
119.1481
 20
136.9442
  0
SEQEND
  0
POLYLINE
  8
LAYER_2
 40
0.1376
 41
0.1376
 66
1
 10
0
 20
0
 30
0
  0
VERTEX
  8
LAYER_2
 10
118.9908
 20
136.7868
  0
VERTEX
  8
LAYER_2
 10
118.7124
 20
136.7868
  0
SEQEND
  0
POLYLINE
  8
LAYER_2
  6
AIGENLINE028
 40
0.1376
 41
0.1376
 66
1
 10
0
 20
0
 30
0
 70
128
  0
VERTEX
  8
LAYER_2
 10
118.19
 20
136.7868
  0
VERTEX
  8
LAYER_2
 10
115.3155
 20
136.7868
  0
SEQEND
  0
POLYLINE
  8
LAYER_2
 40
0.1376
 41
0.1376
 66
1
 10
0
 20
0
 30
0
  0
VERTEX
  8
LAYER_2
 10
115.0541
 20
136.7868
  0
VERTEX
  8
LAYER_2
 10
114.7758
 20
136.7868
  0
SEQEND
  0
POLYLINE
  8
LAYER_2
 40
0.1376
 41
0.1376
 66
1
 10
0
 20
0
 30
0
  0
VERTEX
  8
LAYER_2
 10
114.7761
 20
136.7868
 42
0.1777305488
  0
VERTEX
  8
LAYER_2
 10
114.52
 20
136.6923
  0
SEQEND
  0
POLYLINE
  8
LAYER_2
 40
0.1376
 41
0.1376
 66
1
 10
0
 20
0
 30
0
  0
VERTEX
  8
LAYER_2
 10
114.5031
 20
136.6771
 42
0.1770736148
  0
VERTEX
  8
LAYER_2
 10
114.3839
 20
136.4319
  0
SEQEND
  0
POLYLINE
  8
LAYER_2
  6
AIGENLINE029
 40
0.1376
 41
0.1376
 66
1
 10
0
 20
0
 30
0
 70
128
  0
VERTEX
  8
LAYER_2
 10
112.7314
 20
123.4663
 42
0.3667405468
  0
VERTEX
  8
LAYER_2
 10
113.1266
 20
123.7482
  0
SEQEND
  0
POLYLINE
  8
LAYER_2
 40
0.1376
 41
0.1376
 66
1
 10
0
 20
0
 30
0
  0
VERTEX
  8
LAYER_2
 10
112.7314
 20
123.4663
  0
VERTEX
  8
LAYER_2
 10
112.4531
 20
123.4663
  0
SEQEND
  0
POLYLINE
  8
LAYER_2
 40
0.1376
 41
0.1376
 66
1
 10
0
 20
0
 30
0
  0
VERTEX
  8
LAYER_2
 10
112.3607
 20
123.4663
  0
VERTEX
  8
LAYER_2
 10
112.0823
 20
123.4663
  0
SEQEND
  0
POLYLINE
  8
LAYER_2
 40
0.1376
 41
0.1376
 66
1
 10
0
 20
0
 30
0
  0
VERTEX
  8
LAYER_2
 10
112.0827
 20
123.4663
  0
VERTEX
  8
LAYER_2
 10
111.8276
 20
123.5771
  0
SEQEND
  0
POLYLINE
  8
LAYER_2
  6
AIGENLINE030
 40
0.1376
 41
0.1376
 66
1
 10
0
 20
0
 30
0
 70
128
  0
VERTEX
  8
LAYER_2
 10
111.3454
 20
123.6903
 42
0.08640663008
  0
VERTEX
  8
LAYER_2
 10
110.6049
 20
123.6476
  0
SEQEND
  0
POLYLINE
  8
LAYER_2
 40
0.1376
 41
0.1376
 66
1
 10
0
 20
0
 30
0
  0
VERTEX
  8
LAYER_2
 10
110.3671
 20
123.5771
  0
VERTEX
  8
LAYER_2
 10
110.1121
 20
123.4663
  0
SEQEND
  0
POLYLINE
  8
LAYER_2
  6
AIGENLINE045
 40
0.1376
 41
0.1376
 66
1
 10
0
 20
0
 30
0
 70
128
  0
VERTEX
  8
LAYER_2
 10
111.9959
 20
124.349
 42
0.3946903453
  0
VERTEX
  8
LAYER_2
 10
112.1942
 20
124.4506
  0
VERTEX
  8
LAYER_2
 10
112.2009
 20
124.4798
  0
SEQEND
  0
POLYLINE
  8
LAYER_2
 40
0.1376
 41
0.1376
 66
1
 10
0
 20
0
 30
0
  0
VERTEX
  8
LAYER_2
 10
112.2009
 20
124.4795
  0
VERTEX
  8
LAYER_2
 10
112.2347
 20
124.7554
  0
SEQEND
  0
POLYLINE
  8
LAYER_2
 40
0.1376
 41
0.1376
 66
1
 10
0
 20
0
 30
0
  0
VERTEX
  8
LAYER_2
 10
112.3102
 20
125.3717
  0
VERTEX
  8
LAYER_2
 10
112.3437
 20
125.6472
  0
SEQEND
  0
POLYLINE
  8
LAYER_2
  6
AIGENLINE032
 40
0.1376
 41
0.1376
 66
1
 10
0
 20
0
 30
0
 70
128
  0
VERTEX
  8
LAYER_2
 10
112.3437
 20
125.6475
 42
0.393265105
  0
VERTEX
  8
LAYER_2
 10
112.2062
 20
125.8232
  0
VERTEX
  8
LAYER_2
 10
112.1758
 20
125.8243
  0
SEQEND
  0
POLYLINE
  8
LAYER_2
 40
0.1376
 41
0.1376
 66
1
 10
0
 20
0
 30
0
  0
VERTEX
  8
LAYER_2
 10
112.1758
 20
125.8239
  0
VERTEX
  8
LAYER_2
 10
111.8982
 20
125.8035
  0
SEQEND
  0
POLYLINE
  8
LAYER_2
  6
AIGENLINE033
 40
0.1376
 41
0.1376
 66
1
 10
0
 20
0
 30
0
 70
128
  0
VERTEX
  8
LAYER_2
 10
111.2131
 20
125.7534
  0
VERTEX
  8
LAYER_2
 10
110.1858
 20
125.6779
  0
SEQEND
  0
POLYLINE
  8
LAYER_2
 40
0.1376
 41
0.1376
 66
1
 10
0
 20
0
 30
0
  0
VERTEX
  8
LAYER_2
 10
109.8429
 20
125.6532
  0
VERTEX
  8
LAYER_2
 10
109.566
 20
125.6327
  0
SEQEND
  0
POLYLINE
  8
LAYER_2
  6
AIGENLINE034
 40
0.1376
 41
0.1376
 66
1
 10
0
 20
0
 30
0
 70
128
  0
VERTEX
  8
LAYER_2
 10
109.5656
 20
125.6327
 42
0.3918272821
  0
VERTEX
  8
LAYER_2
 10
109.4203
 20
125.4641
  0
VERTEX
  8
LAYER_2
 10
109.4298
 20
125.42
  0
SEQEND
  0
POLYLINE
  8
LAYER_2
 40
0.1376
 41
0.1376
 66
1
 10
0
 20
0
 30
0
  0
VERTEX
  8
LAYER_2
 10
109.4298
 20
125.42
  0
VERTEX
  8
LAYER_2
 10
109.5279
 20
125.1596
  0
SEQEND
  0
POLYLINE
  8
LAYER_2
 40
0.1376
 41
0.1376
 66
1
 10
0
 20
0
 30
0
  0
VERTEX
  8
LAYER_2
 10
109.724
 20
124.6393
  0
VERTEX
  8
LAYER_2
 10
109.8221
 20
124.3789
  0
SEQEND
  0
POLYLINE
  8
LAYER_2
  6
AIGENLINE003
 40
0.1376
 41
0.1376
 66
1
 10
0
 20
0
 30
0
 70
128
  0
VERTEX
  8
LAYER_2
 10
109.8221
 20
124.3789
 42
0.3921564415
  0
VERTEX
  8
LAYER_2
 10
110.0253
 20
124.2876
  0
SEQEND
  0
POLYLINE
  8
LAYER_2
 40
0.1376
 41
0.1376
 66
1
 10
0
 20
0
 30
0
  0
VERTEX
  8
LAYER_2
 10
111.9959
 20
124.349
  0
VERTEX
  8
LAYER_2
 10
111.7281
 20
124.423
  0
SEQEND
  0
POLYLINE
  8
LAYER_2
  6
AIGENLINE035
 40
0.1376
 41
0.1376
 66
1
 10
0
 20
0
 30
0
 70
128
  0
VERTEX
  8
LAYER_2
 10
111.2487
 20
124.4887
 42
0.0622976504
  0
VERTEX
  8
LAYER_2
 10
110.5269
 20
124.4368
  0
SEQEND
  0
POLYLINE
  8
LAYER_2
 40
0.1376
 41
0.1376
 66
1
 10
0
 20
0
 30
0
  0
VERTEX
  8
LAYER_2
 10
110.2895
 20
124.3782
  0
VERTEX
  8
LAYER_2
 10
110.0263
 20
124.2879
  0
SEQEND
  0
POLYLINE
  8
LAYER_2
 40
0.1376
 41
0.1376
 66
1
 10
0
 20
0
 30
0
  0
VERTEX
  8
LAYER_2
 10
112.0827
 20
123.4663
  0
VERTEX
  8
LAYER_2
 10
111.8043
 20
123.4663
  0
SEQEND
  0
POLYLINE
  8
LAYER_2
  6
AIGENLINE040
 40
0.1376
 41
0.1376
 66
1
 10
0
 20
0
 30
0
 70
128
  0
VERTEX
  8
LAYER_2
 10
111.333
 20
123.4663
  0
VERTEX
  8
LAYER_2
 10
110.6261
 20
123.4663
  0
SEQEND
  0
POLYLINE
  8
LAYER_2
 40
0.1376
 41
0.1376
 66
1
 10
0
 20
0
 30
0
  0
VERTEX
  8
LAYER_2
 10
110.3901
 20
123.4663
  0
VERTEX
  8
LAYER_2
 10
110.1121
 20
123.4663
  0
SEQEND
  0
POLYLINE
  8
LAYER_2
 40
0.1376
 41
0.1376
 66
1
 10
0
 20
0
 30
0
  0
VERTEX
  8
LAYER_2
 10
114.0381
 20
137.654
  0
VERTEX
  8
LAYER_2
 10
113.7601
 20
137.654
  0
SEQEND
  0
POLYLINE
  8
LAYER_2
  6
AIGENLINE041
 40
0.1376
 41
0.1376
 66
1
 10
0
 20
0
 30
0
 70
128
  0
VERTEX
  8
LAYER_2
 10
113.2126
 20
137.654
  0
VERTEX
  8
LAYER_2
 10
83.912
 20
137.6543
  0
SEQEND
  0
POLYLINE
  8
LAYER_2
 40
0.1376
 41
0.1376
 66
1
 10
0
 20
0
 30
0
  0
VERTEX
  8
LAYER_2
 10
83.6382
 20
137.6543
  0
VERTEX
  8
LAYER_2
 10
83.3599
 20
137.6543
  0
SEQEND
  0
POLYLINE
  8
LAYER_2
 40
0.1376
 41
0.1376
 66
1
 10
0
 20
0
 30
0
  0
VERTEX
  8
LAYER_2
 10
113.1266
 20
123.7503
  0
VERTEX
  8
LAYER_2
 10
113.1541
 20
124.0269
  0
SEQEND
  0
POLYLINE
  8
LAYER_2
  6
AIGENLINE042
 40
0.1376
 41
0.1376
 66
1
 10
0
 20
0
 30
0
 70
128
  0
VERTEX
  8
LAYER_2
 10
113.2116
 20
124.6044
  0
VERTEX
  8
LAYER_2
 10
114.3278
 20
135.8664
  0
SEQEND
  0
POLYLINE
  8
LAYER_2
 40
0.1376
 41
0.1376
 66
1
 10
0
 20
0
 30
0
  0
VERTEX
  8
LAYER_2
 10
114.3563
 20
136.155
  0
VERTEX
  8
LAYER_2
 10
114.3838
 20
136.4319
  0
SEQEND
  0
POLYLINE
  8
LAYER_2
 40
0.1376
 41
0.1376
 66
1
 10
0
 20
0
 30
0
  0
VERTEX
  8
LAYER_2
 10
112.6193
 20
126.938
  0
VERTEX
  8
LAYER_2
 10
112.6468
 20
127.2149
  0
SEQEND
  0
POLYLINE
  8
LAYER_2
  6
AIGENLINE043
 40
0.1376
 41
0.1376
 66
1
 10
0
 20
0
 30
0
 70
128
  0
VERTEX
  8
LAYER_2
 10
112.7039
 20
127.7917
  0
VERTEX
  8
LAYER_2
 10
113.5905
 20
136.7336
  0
SEQEND
  0
POLYLINE
  8
LAYER_2
 40
0.1376
 41
0.1376
 66
1
 10
0
 20
0
 30
0
  0
VERTEX
  8
LAYER_2
 10
113.6187
 20
137.0221
  0
VERTEX
  8
LAYER_2
 10
113.6462
 20
137.2987
  0
SEQEND
  0
POLYLINE
  8
LAYER_2
 40
0.1376
 41
0.1376
 66
1
 10
0
 20
0
 30
0
  0
VERTEX
  8
LAYER_2
 10
114.0381
 20
137.654
 42
0.1777173545
  0
VERTEX
  8
LAYER_2
 10
113.7824
 20
137.5594
  0
SEQEND
  0
POLYLINE
  8
LAYER_2
 40
0.1376
 41
0.1376
 66
1
 10
0
 20
0
 30
0
  0
VERTEX
  8
LAYER_2
 10
113.7654
 20
137.5443
 42
0.1771684795
  0
VERTEX
  8
LAYER_2
 10
113.6462
 20
137.2987
  0
SEQEND
  0
POLYLINE
  8
LAYER_2
 40
0.1376
 41
0.1376
 66
1
 10
0
 20
0
 30
0
  0
VERTEX
  8
LAYER_2
 10
68.2663
 20
137.6543
  0
VERTEX
  8
LAYER_2
 10
68.5446
 20
137.6543
  0
SEQEND
  0
POLYLINE
  8
LAYER_2
  6
AIGENLINE024
 40
0.1376
 41
0.1376
 66
1
 10
0
 20
0
 30
0
 70
128
  0
VERTEX
  8
LAYER_2
 10
69.0815
 20
137.6543
  0
VERTEX
  8
LAYER_2
 10
82.781
 20
137.6543
  0
SEQEND
  0
POLYLINE
  8
LAYER_2
 40
0.1376
 41
0.1376
 66
1
 10
0
 20
0
 30
0
  0
VERTEX
  8
LAYER_2
 10
83.0498
 20
137.6543
  0
VERTEX
  8
LAYER_2
 10
83.3278
 20
137.6543
  0
SEQEND
  0
POLYLINE
  8
LAYER_2
 40
0.1376
 41
0.1376
 66
1
 10
0
 20
0
 30
0
  0
VERTEX
  8
LAYER_2
 10
69.041
 20
136.7872
  0
VERTEX
  8
LAYER_2
 10
69.3193
 20
136.7872
  0
SEQEND
  0
POLYLINE
  8
LAYER_2
  6
AIGENLINE046
 40
0.1376
 41
0.1376
 66
1
 10
0
 20
0
 30
0
 70
128
  0
VERTEX
  8
LAYER_2
 10
69.8823
 20
136.7872
  0
VERTEX
  8
LAYER_2
 10
81.9932
 20
136.7872
  0
SEQEND
  0
POLYLINE
  8
LAYER_2
 40
0.1376
 41
0.1376
 66
1
 10
0
 20
0
 30
0
  0
VERTEX
  8
LAYER_2
 10
82.2747
 20
136.7872
  0
VERTEX
  8
LAYER_2
 10
82.5531
 20
136.7872
  0
SEQEND
  0
POLYLINE
  8
LAYER_2
 40
0.1376
 41
0.1376
 66
1
 10
0
 20
0
 30
0
  0
VERTEX
  8
LAYER_2
 10
98.2626
 20
94.6535
  0
VERTEX
  8
LAYER_2
 10
98.2626
 20
94.9319
  0
VERTEX
  8
LAYER_2
 10
98.541
 20
94.9319
  0
SEQEND
  0
POLYLINE
  8
LAYER_2
 40
0.1376
 41
0.1376
 66
1
 10
0
 20
0
 30
0
  0
VERTEX
  8
LAYER_2
 10
98.7731
 20
94.9319
  0
VERTEX
  8
LAYER_2
 10
99.0511
 20
94.9319
  0
VERTEX
  8
LAYER_2
 10
99.0511
 20
94.6535
  0
SEQEND
  0
POLYLINE
  8
LAYER_2
 40
0.1376
 41
0.1376
 66
1
 10
0
 20
0
 30
0
  0
VERTEX
  8
LAYER_2
 10
99.0511
 20
94.5791
  0
VERTEX
  8
LAYER_2
 10
99.0511
 20
94.3011
  0
VERTEX
  8
LAYER_2
 10
98.7727
 20
94.3011
  0
SEQEND
  0
POLYLINE
  8
LAYER_2
 40
0.1376
 41
0.1376
 66
1
 10
0
 20
0
 30
0
  0
VERTEX
  8
LAYER_2
 10
98.5406
 20
94.3011
  0
VERTEX
  8
LAYER_2
 10
98.2626
 20
94.3011
  0
VERTEX
  8
LAYER_2
 10
98.2626
 20
94.5795
  0
SEQEND
  0
POLYLINE
  8
LAYER_2
  6
AIGENLINE005
 40
0.1376
 41
0.1376
 66
1
 10
0
 20
0
 30
0
 70
128
  0
VERTEX
  8
LAYER_2
 10
98.3843
 20
93.9582
  0
VERTEX
  8
LAYER_2
 10
98.3843
 20
94.1434
  0
SEQEND
  0
POLYLINE
  8
LAYER_2
  6
AIGENLINE006
 40
0.1376
 41
0.1376
 66
1
 10
0
 20
0
 30
0
 70
128
  0
VERTEX
  8
LAYER_2
 10
98.3843
 20
93.9582
 42
0.3913687463
  0
VERTEX
  8
LAYER_2
 10
98.5
 20
93.9378
  0
VERTEX
  8
LAYER_2
 10
98.5209
 20
93.9582
  0
SEQEND
  0
POLYLINE
  8
LAYER_2
  6
AIGENLINE007
 40
0.1376
 41
0.1376
 66
1
 10
0
 20
0
 30
0
 70
128
  0
VERTEX
  8
LAYER_2
 10
98.4528
 20
93.9229
  0
VERTEX
  8
LAYER_2
 10
98.8609
 20
93.9229
  0
SEQEND
  0
POLYLINE
  8
LAYER_2
  6
AIGENLINE006
 40
0.1376
 41
0.1376
 66
1
 10
0
 20
0
 30
0
 70
128
  0
VERTEX
  8
LAYER_2
 10
98.7932
 20
93.9582
 42
0.3912939432
  0
VERTEX
  8
LAYER_2
 10
98.9089
 20
93.9378
  0
VERTEX
  8
LAYER_2
 10
98.929
 20
93.9582
  0
SEQEND
  0
INSERT
  8
LAYER_2
  2
AIGNBL0201002A
 10
0
 20
0
 30
0
  0
POLYLINE
  8
LAYER_2
  6
AIGENLINE008
 40
0.1376
 41
0.1376
 66
1
 10
0
 20
0
 30
0
 70
128
  0
VERTEX
  8
LAYER_2
 10
98.5209
 20
93.9582
 42
0.2606943192
  0
VERTEX
  8
LAYER_2
 10
98.7932
 20
93.9582
  0
SEQEND
  0
POLYLINE
  8
LAYER_2
  6
AIGENLINE005
 40
0.1376
 41
0.1376
 66
1
 10
0
 20
0
 30
0
 70
128
  0
VERTEX
  8
LAYER_2
 10
98.9294
 20
94.1434
  0
VERTEX
  8
LAYER_2
 10
98.9294
 20
93.9582
  0
SEQEND
  0
POLYLINE
  8
LAYER_2
  6
AIGENLINE011
 40
0.1376
 41
0.1376
 66
1
 10
0
 20
0
 30
0
 70
128
  0
VERTEX
  8
LAYER_2
 10
98.9294
 20
94.1392
  0
VERTEX
  8
LAYER_2
 10
98.9262
 20
94.1434
  0
SEQEND
  0
POLYLINE
  8
LAYER_2
  6
AIGENLINE010
 40
0.1376
 41
0.1376
 66
1
 10
0
 20
0
 30
0
 70
128
  0
VERTEX
  8
LAYER_2
 10
98.5462
 20
94.1434
  0
VERTEX
  8
LAYER_2
 10
98.7678
 20
94.1434
  0
SEQEND
  0
POLYLINE
  8
LAYER_2
  6
AIGENLINE009
 40
0.1376
 41
0.1376
 66
1
 10
0
 20
0
 30
0
 70
128
  0
VERTEX
  8
LAYER_2
 10
98.5209
 20
94.1392
  0
VERTEX
  8
LAYER_2
 10
98.5173
 20
94.1434
  0
SEQEND
  0
INSERT
  8
LAYER_2
  2
AIGNBL0201002B
 10
0
 20
0
 30
0
  0
POLYLINE
  8
LAYER_2
  6
AIGENLINE009
 40
0.1376
 41
0.1376
 66
1
 10
0
 20
0
 30
0
 70
128
  0
VERTEX
  8
LAYER_2
 10
98.796
 20
94.1434
  0
VERTEX
  8
LAYER_2
 10
98.7932
 20
94.1392
  0
SEQEND
  0
POLYLINE
  8
LAYER_2
  6
AIGENLINE047
 40
0.1376
 41
0.1376
 66
1
 10
0
 20
0
 30
0
 70
128
  0
VERTEX
  8
LAYER_2
 10
98.3843
 20
94.1434
  0
VERTEX
  8
LAYER_2
 10
98.9294
 20
94.1434
  0
SEQEND
  0
POLYLINE
  8
LAYER_2
  6
AIGENLINE011
 40
0.1376
 41
0.1376
 66
1
 10
0
 20
0
 30
0
 70
128
  0
VERTEX
  8
LAYER_2
 10
98.3879
 20
94.1434
  0
VERTEX
  8
LAYER_2
 10
98.385
 20
94.1392
  0
SEQEND
  0
POLYLINE
  8
LAYER_2
 40
0.1376
 41
0.1376
 66
1
 10
0
 20
0
 30
0
  0
VERTEX
  8
LAYER_2
 10
98.4993
 20
94.1434
  0
VERTEX
  8
LAYER_2
 10
98.4993
 20
94.4218
  0
SEQEND
  0
POLYLINE
  8
LAYER_2
  6
AIGENLINE048
 40
0.1376
 41
0.1376
 66
1
 10
0
 20
0
 30
0
 70
128
  0
VERTEX
  8
LAYER_2
 10
98.4993
 20
94.8112
  0
VERTEX
  8
LAYER_2
 10
98.4993
 20
94.8289
  0
VERTEX
  8
LAYER_2
 10
98.547
 20
94.8761
  0
VERTEX
  8
LAYER_2
 10
98.7671
 20
94.8761
  0
VERTEX
  8
LAYER_2
 10
98.8144
 20
94.8289
  0
VERTEX
  8
LAYER_2
 10
98.8144
 20
94.6165
  0
SEQEND
  0
POLYLINE
  8
LAYER_2
 40
0.1376
 41
0.1376
 66
1
 10
0
 20
0
 30
0
  0
VERTEX
  8
LAYER_2
 10
98.8144
 20
94.4214
  0
VERTEX
  8
LAYER_2
 10
98.8144
 20
94.1434
  0
SEQEND
  0
POLYLINE
  8
LAYER_2
 40
0.1376
 41
0.1376
 66
1
 10
0
 20
0
 30
0
  0
VERTEX
  8
LAYER_2
 10
98.5307
 20
94.1434
  0
VERTEX
  8
LAYER_2
 10
98.5307
 20
94.4218
  0
SEQEND
  0
POLYLINE
  8
LAYER_2
 40
0.1376
 41
0.1376
 66
1
 10
0
 20
0
 30
0
  0
VERTEX
  8
LAYER_2
 10
98.5307
 20
94.5509
  0
VERTEX
  8
LAYER_2
 10
98.5307
 20
94.8289
  0
SEQEND
  0
POLYLINE
  8
LAYER_2
 40
0.1376
 41
0.1376
 66
1
 10
0
 20
0
 30
0
  0
VERTEX
  8
LAYER_2
 10
98.783
 20
94.1434
  0
VERTEX
  8
LAYER_2
 10
98.783
 20
94.4218
  0
SEQEND
  0
POLYLINE
  8
LAYER_2
 40
0.1376
 41
0.1376
 66
1
 10
0
 20
0
 30
0
  0
VERTEX
  8
LAYER_2
 10
98.783
 20
94.5509
  0
VERTEX
  8
LAYER_2
 10
98.783
 20
94.8289
  0
SEQEND
  0
POLYLINE
  8
LAYER_2
  6
AIGENLINE013
 40
0.1376
 41
0.1376
 66
1
 10
0
 20
0
 30
0
 70
128
  0
VERTEX
  8
LAYER_2
 10
98.4993
 20
94.8289
  0
VERTEX
  8
LAYER_2
 10
98.8144
 20
94.8289
  0
SEQEND
  0
POLYLINE
  8
LAYER_2
 40
0.1376
 41
0.1376
 66
1
 10
0
 20
0
 30
0
  0
VERTEX
  8
LAYER_2
 10
53.5685
 20
94.1434
  0
VERTEX
  8
LAYER_2
 10
53.2902
 20
94.1434
  0
VERTEX
  8
LAYER_2
 10
53.2902
 20
94.3011
  0
VERTEX
  8
LAYER_2
 10
53.5685
 20
94.3011
  0
SEQEND
  0
POLYLINE
  8
LAYER_2
 40
0.1376
 41
0.1376
 66
1
 10
0
 20
0
 30
0
  0
VERTEX
  8
LAYER_2
 10
54.0024
 20
94.3011
  0
VERTEX
  8
LAYER_2
 10
54.2804
 20
94.3011
  0
VERTEX
  8
LAYER_2
 10
54.2804
 20
94.1434
  0
VERTEX
  8
LAYER_2
 10
54.0024
 20
94.1434
  0
SEQEND
  0
POLYLINE
  8
LAYER_2
 40
0.1376
 41
0.1376
 66
1
 10
0
 20
0
 30
0
  0
VERTEX
  8
LAYER_2
 10
179.0801
 20
123.7813
  0
VERTEX
  8
LAYER_2
 10
179.3585
 20
123.7813
  0
VERTEX
  8
LAYER_2
 10
179.3585
 20
124.0181
  0
VERTEX
  8
LAYER_2
 10
179.0801
 20
124.0181
  0
SEQEND
  0
POLYLINE
  8
LAYER_2
  6
AIGENLINE014
 40
0.1376
 41
0.1376
 66
1
 10
0
 20
0
 30
0
 70
128
  0
VERTEX
  8
LAYER_2
 10
178.4501
 20
124.0181
  0
VERTEX
  8
LAYER_2
 10
174.9858
 20
124.0184
  0
SEQEND
  0
POLYLINE
  8
LAYER_2
 40
0.1376
 41
0.1376
 66
1
 10
0
 20
0
 30
0
  0
VERTEX
  8
LAYER_2
 10
174.6708
 20
124.0181
  0
VERTEX
  8
LAYER_2
 10
174.3928
 20
124.0181
  0
VERTEX
  8
LAYER_2
 10
174.3928
 20
123.7817
  0
VERTEX
  8
LAYER_2
 10
174.6708
 20
123.7817
  0
SEQEND
  0
POLYLINE
  8
LAYER_2
  6
AIGENLINE014
 40
0.1376
 41
0.1376
 66
1
 10
0
 20
0
 30
0
 70
128
  0
VERTEX
  8
LAYER_2
 10
175.3008
 20
123.7817
  0
VERTEX
  8
LAYER_2
 10
178.7654
 20
123.7813
  0
SEQEND
  0
POLYLINE
  8
LAYER_2
 40
0.1376
 41
0.1376
 66
1
 10
0
 20
0
 30
0
  0
VERTEX
  8
LAYER_2
 10
179.0801
 20
124.0181
  0
VERTEX
  8
LAYER_2
 10
179.3585
 20
124.0181
  0
VERTEX
  8
LAYER_2
 10
179.3585
 20
124.2544
  0
VERTEX
  8
LAYER_2
 10
179.0801
 20
124.2544
  0
SEQEND
  0
POLYLINE
  8
LAYER_2
  6
AIGENLINE014
 40
0.1376
 41
0.1376
 66
1
 10
0
 20
0
 30
0
 70
128
  0
VERTEX
  8
LAYER_2
 10
178.4501
 20
124.2544
  0
VERTEX
  8
LAYER_2
 10
174.9858
 20
124.2544
  0
SEQEND
  0
POLYLINE
  8
LAYER_2
 40
0.1376
 41
0.1376
 66
1
 10
0
 20
0
 30
0
  0
VERTEX
  8
LAYER_2
 10
174.6708
 20
124.2544
  0
VERTEX
  8
LAYER_2
 10
174.3928
 20
124.2544
  0
VERTEX
  8
LAYER_2
 10
174.3928
 20
124.0181
  0
VERTEX
  8
LAYER_2
 10
174.6708
 20
124.0181
  0
SEQEND
  0
POLYLINE
  8
LAYER_2
  6
AIGENLINE014
 40
0.1376
 41
0.1376
 66
1
 10
0
 20
0
 30
0
 70
128
  0
VERTEX
  8
LAYER_2
 10
175.3008
 20
124.0181
  0
VERTEX
  8
LAYER_2
 10
178.7654
 20
124.0177
  0
SEQEND
  0
POLYLINE
  8
LAYER_2
 40
0.1376
 41
0.1376
 66
1
 10
0
 20
0
 30
0
  0
VERTEX
  8
LAYER_2
 10
178.5284
 20
123.466
  0
VERTEX
  8
LAYER_2
 10
178.8067
 20
123.466
  0
VERTEX
  8
LAYER_2
 10
178.8067
 20
123.7821
  0
VERTEX
  8
LAYER_2
 10
178.5284
 20
123.7821
  0
SEQEND
  0
POLYLINE
  8
LAYER_2
  6
AIGENLINE015
 40
0.1376
 41
0.1376
 66
1
 10
0
 20
0
 30
0
 70
128
  0
VERTEX
  8
LAYER_2
 10
178.0564
 20
123.7821
  0
VERTEX
  8
LAYER_2
 10
175.4585
 20
123.7821
  0
SEQEND
  0
POLYLINE
  8
LAYER_2
 40
0.1376
 41
0.1376
 66
1
 10
0
 20
0
 30
0
  0
VERTEX
  8
LAYER_2
 10
175.2225
 20
123.7821
  0
VERTEX
  8
LAYER_2
 10
174.9442
 20
123.7821
  0
VERTEX
  8
LAYER_2
 10
174.9442
 20
123.4656
  0
VERTEX
  8
LAYER_2
 10
175.2225
 20
123.4656
  0
SEQEND
  0
POLYLINE
  8
LAYER_2
  6
AIGENLINE015
 40
0.1376
 41
0.1376
 66
1
 10
0
 20
0
 30
0
 70
128
  0
VERTEX
  8
LAYER_2
 10
175.6945
 20
123.466
  0
VERTEX
  8
LAYER_2
 10
178.2924
 20
123.466
  0
SEQEND
  0
POLYLINE
  8
LAYER_2
  6
AIGENLINE016
 40
0.1376
 41
0.1376
 66
1
 10
0
 20
0
 30
0
 70
128
  0
VERTEX
  8
LAYER_2
 10
179.7303
 20
126.2293
  0
VERTEX
  8
LAYER_2
 10
179.6326
 20
126.1859
  0
SEQEND
  0
POLYLINE
  8
LAYER_2
 40
0.1376
 41
0.1376
 66
1
 10
0
 20
0
 30
0
  0
VERTEX
  8
LAYER_2
 10
179.6329
 20
126.1859
  0
VERTEX
  8
LAYER_2
 10
179.4322
 20
125.9933
  0
SEQEND
  0
POLYLINE
  8
LAYER_2
 40
0.1376
 41
0.1376
 66
1
 10
0
 20
0
 30
0
  0
VERTEX
  8
LAYER_2
 10
178.9376
 20
125.5181
  0
VERTEX
  8
LAYER_2
 10
178.7369
 20
125.3258
  0
SEQEND
  0
POLYLINE
  8
LAYER_2
  6
AIGENLINE017
 40
0.1376
 41
0.1376
 66
1
 10
0
 20
0
 30
0
 70
128
  0
VERTEX
  8
LAYER_2
 10
178.7369
 20
125.3258
 42
0.2020286304
  0
VERTEX
  8
LAYER_2
 10
178.6882
 20
125.2119
  0
SEQEND
  0
POLYLINE
  8
LAYER_2
 40
0.1376
 41
0.1376
 66
1
 10
0
 20
0
 30
0
  0
VERTEX
  8
LAYER_2
 10
178.6885
 20
125.2119
  0
VERTEX
  8
LAYER_2
 10
178.6885
 20
124.9339
  0
SEQEND
  0
POLYLINE
  8
LAYER_2
 40
0.1376
 41
0.1376
 66
1
 10
0
 20
0
 30
0
  0
VERTEX
  8
LAYER_2
 10
178.6885
 20
124.5324
  0
VERTEX
  8
LAYER_2
 10
178.6885
 20
124.2544
  0
SEQEND
  0
POLYLINE
  8
LAYER_2
  6
AIGENLINE018
 40
0.1376
 41
0.1376
 66
1
 10
0
 20
0
 30
0
 70
128
  0
VERTEX
  8
LAYER_2
 10
178.6885
 20
124.2544
  0
VERTEX
  8
LAYER_2
 10
179.2343
 20
124.2544
  0
SEQEND
  0
POLYLINE
  8
LAYER_2
  6
AIGENLINE049
 40
0.1376
 41
0.1376
 66
1
 10
0
 20
0
 30
0
 70
128
  0
VERTEX
  8
LAYER_2
 10
179.2343
 20
124.2544
  0
VERTEX
  8
LAYER_2
 10
179.2343
 20
124.7109
  0
SEQEND
  0
POLYLINE
  8
LAYER_2
 40
0.1376
 41
0.1376
 66
1
 10
0
 20
0
 30
0
  0
VERTEX
  8
LAYER_2
 10
179.2343
 20
124.7106
  0
VERTEX
  8
LAYER_2
 10
179.435
 20
124.9032
  0
SEQEND
  0
POLYLINE
  8
LAYER_2
 40
0.1376
 41
0.1376
 66
1
 10
0
 20
0
 30
0
  0
VERTEX
  8
LAYER_2
 10
179.8139
 20
125.2672
  0
VERTEX
  8
LAYER_2
 10
180.0146
 20
125.4595
  0
VERTEX
  8
LAYER_2
 10
180.293
 20
125.4623
  0
SEQEND
  0
POLYLINE
  8
LAYER_2
  6
AIGENLINE050
 40
0.1376
 41
0.1376
 66
1
 10
0
 20
0
 30
0
 70
128
  0
VERTEX
  8
LAYER_2
 10
180.8098
 20
125.4676
  0
VERTEX
  8
LAYER_2
 10
185.7219
 20
125.5174
  0
SEQEND
  0
POLYLINE
  8
LAYER_2
 40
0.1376
 41
0.1376
 66
1
 10
0
 20
0
 30
0
  0
VERTEX
  8
LAYER_2
 10
185.9801
 20
125.5202
  0
VERTEX
  8
LAYER_2
 10
186.2584
 20
125.523
  0
SEQEND
  0
POLYLINE
  8
LAYER_2
 40
0.1376
 41
0.1376
 66
1
 10
0
 20
0
 30
0
  0
VERTEX
  8
LAYER_2
 10
186.8942
 20
125.1163
 42
0.1110771288
  0
VERTEX
  8
LAYER_2
 10
186.7421
 20
125.3473
  0
SEQEND
  0
POLYLINE
  8
LAYER_2
 40
0.1376
 41
0.1376
 66
1
 10
0
 20
0
 30
0
  0
VERTEX
  8
LAYER_2
 10
186.5319
 20
125.4821
 42
0.1120965381
  0
VERTEX
  8
LAYER_2
 10
186.2584
 20
125.5227
  0
SEQEND
  0
POLYLINE
  8
LAYER_2
 40
0.1376
 41
0.1376
 66
1
 10
0
 20
0
 30
0
  0
VERTEX
  8
LAYER_2
 10
186.8942
 20
125.1163
  0
VERTEX
  8
LAYER_2
 10
186.9922
 20
124.8563
  0
SEQEND
  0
POLYLINE
  8
LAYER_2
  6
AIGENLINE021
 40
0.1376
 41
0.1376
 66
1
 10
0
 20
0
 30
0
 70
128
  0
VERTEX
  8
LAYER_2
 10
187.1217
 20
124.5137
  0
VERTEX
  8
LAYER_2
 10
187.315
 20
123.9997
  0
SEQEND
  0
POLYLINE
  8
LAYER_2
 40
0.1376
 41
0.1376
 66
1
 10
0
 20
0
 30
0
  0
VERTEX
  8
LAYER_2
 10
187.3799
 20
123.8286
  0
VERTEX
  8
LAYER_2
 10
187.478
 20
123.5683
  0
SEQEND
  0
POLYLINE
  8
LAYER_2
  6
AIGENLINE022
 40
0.1376
 41
0.1376
 66
1
 10
0
 20
0
 30
0
 70
128
  0
VERTEX
  8
LAYER_2
 10
187.478
 20
123.5683
 42
0.3122667343
  0
VERTEX
  8
LAYER_2
 10
187.6255
 20
123.4663
  0
SEQEND
  0
POLYLINE
  8
LAYER_2
 40
0.1376
 41
0.1376
 66
1
 10
0
 20
0
 30
0
  0
VERTEX
  8
LAYER_2
 10
175.0627
 20
124.2544
  0
VERTEX
  8
LAYER_2
 10
175.0627
 20
124.5327
  0
SEQEND
  0
POLYLINE
  8
LAYER_2
 40
0.1376
 41
0.1376
 66
1
 10
0
 20
0
 30
0
  0
VERTEX
  8
LAYER_2
 10
175.0627
 20
124.9339
  0
VERTEX
  8
LAYER_2
 10
175.0627
 20
125.2122
  0
SEQEND
  0
POLYLINE
  8
LAYER_2
  6
AIGENLINE017
 40
0.1376
 41
0.1376
 66
1
 10
0
 20
0
 30
0
 70
128
  0
VERTEX
  8
LAYER_2
 10
175.0627
 20
125.2119
 42
0.2024623844
  0
VERTEX
  8
LAYER_2
 10
175.014
 20
125.3258
  0
SEQEND
  0
POLYLINE
  8
LAYER_2
 40
0.1376
 41
0.1376
 66
1
 10
0
 20
0
 30
0
  0
VERTEX
  8
LAYER_2
 10
175.014
 20
125.3258
  0
VERTEX
  8
LAYER_2
 10
174.8133
 20
125.5181
  0
SEQEND
  0
POLYLINE
  8
LAYER_2
 40
0.1376
 41
0.1376
 66
1
 10
0
 20
0
 30
0
  0
VERTEX
  8
LAYER_2
 10
174.319
 20
125.9933
  0
VERTEX
  8
LAYER_2
 10
174.1187
 20
126.1859
  0
SEQEND
  0
POLYLINE
  8
LAYER_2
 40
0.1376
 41
0.1376
 66
1
 10
0
 20
0
 30
0
  0
VERTEX
  8
LAYER_2
 10
188.3046
 20
123.4663
  0
VERTEX
  8
LAYER_2
 10
188.0266
 20
123.4663
  0
SEQEND
  0
POLYLINE
  8
LAYER_2
 40
0.1376
 41
0.1376
 66
1
 10
0
 20
0
 30
0
  0
VERTEX
  8
LAYER_2
 10
187.9038
 20
123.4663
  0
VERTEX
  8
LAYER_2
 10
187.6255
 20
123.4663
  0
SEQEND
  0
POLYLINE
  8
LAYER_2
  6
AIGENLINE018
 40
0.1376
 41
0.1376
 66
1
 10
0
 20
0
 30
0
 70
128
  0
VERTEX
  8
LAYER_2
 10
174.5169
 20
124.2544
  0
VERTEX
  8
LAYER_2
 10
175.0627
 20
124.2544
  0
SEQEND
  0
POLYLINE
  8
LAYER_2
  6
AIGENLINE024
 40
0.1376
 41
0.1376
 66
1
 10
0
 20
0
 30
0
 70
128
  0
VERTEX
  8
LAYER_2
 10
190.4498
 20
126.5954
 42
0.3561700271
  0
VERTEX
  8
LAYER_2
 10
190.8117
 20
126.938
  0
SEQEND
  0
POLYLINE
  8
LAYER_2
 40
0.1376
 41
0.1376
 66
1
 10
0
 20
0
 30
0
  0
VERTEX
  8
LAYER_2
 10
190.4498
 20
126.5954
  0
VERTEX
  8
LAYER_2
 10
190.1718
 20
126.5859
  0
SEQEND
  0
POLYLINE
  8
LAYER_2
  6
AIGENLINE051
 40
0.1376
 41
0.1376
 66
1
 10
0
 20
0
 30
0
 70
128
  0
VERTEX
  8
LAYER_2
 10
189.637
 20
126.5679
  0
VERTEX
  8
LAYER_2
 10
180.2757
 20
126.248
  0
SEQEND
  0
POLYLINE
  8
LAYER_2
 40
0.1376
 41
0.1376
 66
1
 10
0
 20
0
 30
0
  0
VERTEX
  8
LAYER_2
 10
180.0083
 20
126.2388
  0
VERTEX
  8
LAYER_2
 10
179.7303
 20
126.2293
  0
SEQEND
  0
POLYLINE
  8
LAYER_2
 40
0.1376
 41
0.1376
 66
1
 10
0
 20
0
 30
0
  0
VERTEX
  8
LAYER_2
 10
192.2306
 20
137.654
  0
VERTEX
  8
LAYER_2
 10
192.509
 20
137.654
  0
SEQEND
  0
POLYLINE
  8
LAYER_2
  6
AIGENLINE052
 40
0.1376
 41
0.1376
 66
1
 10
0
 20
0
 30
0
 70
128
  0
VERTEX
  8
LAYER_2
 10
193.03
 20
137.654
  0
VERTEX
  8
LAYER_2
 10
199.0248
 20
137.654
  0
SEQEND
  0
POLYLINE
  8
LAYER_2
 40
0.1376
 41
0.1376
 66
1
 10
0
 20
0
 30
0
  0
VERTEX
  8
LAYER_2
 10
199.2851
 20
137.654
  0
VERTEX
  8
LAYER_2
 10
199.5634
 20
137.654
  0
SEQEND
  0
POLYLINE
  8
LAYER_2
 40
0.1376
 41
0.1376
 66
1
 10
0
 20
0
 30
0
  0
VERTEX
  8
LAYER_2
 10
199.5635
 20
136.7872
  0
VERTEX
  8
LAYER_2
 10
199.2851
 20
136.7872
  0
SEQEND
  0
POLYLINE
  8
LAYER_2
  6
AIGENLINE053
 40
0.1376
 41
0.1376
 66
1
 10
0
 20
0
 30
0
 70
128
  0
VERTEX
  8
LAYER_2
 10
198.7362
 20
136.7872
  0
VERTEX
  8
LAYER_2
 10
193.5211
 20
136.7868
  0
SEQEND
  0
POLYLINE
  8
LAYER_2
 40
0.1376
 41
0.1376
 66
1
 10
0
 20
0
 30
0
  0
VERTEX
  8
LAYER_2
 10
193.2466
 20
136.7868
  0
VERTEX
  8
LAYER_2
 10
192.9683
 20
136.7868
  0
SEQEND
  0
POLYLINE
  8
LAYER_2
 40
0.1376
 41
0.1376
 66
1
 10
0
 20
0
 30
0
  0
VERTEX
  8
LAYER_2
 10
192.9686
 20
136.7868
 42
0.1777305488
  0
VERTEX
  8
LAYER_2
 10
192.7125
 20
136.6923
  0
SEQEND
  0
POLYLINE
  8
LAYER_2
 40
0.1376
 41
0.1376
 66
1
 10
0
 20
0
 30
0
  0
VERTEX
  8
LAYER_2
 10
192.6956
 20
136.6771
 42
0.1780528876
  0
VERTEX
  8
LAYER_2
 10
192.5763
 20
136.4319
  0
SEQEND
  0
POLYLINE
  8
LAYER_2
  6
AIGENLINE054
 40
0.1376
 41
0.1376
 66
1
 10
0
 20
0
 30
0
 70
128
  0
VERTEX
  8
LAYER_2
 10
190.9239
 20
123.4663
 42
0.3675918489
  0
VERTEX
  8
LAYER_2
 10
191.319
 20
123.7482
  0
SEQEND
  0
POLYLINE
  8
LAYER_2
 40
0.1376
 41
0.1376
 66
1
 10
0
 20
0
 30
0
  0
VERTEX
  8
LAYER_2
 10
190.9239
 20
123.4663
  0
VERTEX
  8
LAYER_2
 10
190.6456
 20
123.4663
  0
SEQEND
  0
POLYLINE
  8
LAYER_2
 40
0.1376
 41
0.1376
 66
1
 10
0
 20
0
 30
0
  0
VERTEX
  8
LAYER_2
 10
190.5531
 20
123.4663
  0
VERTEX
  8
LAYER_2
 10
190.2748
 20
123.4663
  0
SEQEND
  0
POLYLINE
  8
LAYER_2
 40
0.1376
 41
0.1376
 66
1
 10
0
 20
0
 30
0
  0
VERTEX
  8
LAYER_2
 10
190.2752
 20
123.4663
  0
VERTEX
  8
LAYER_2
 10
190.0201
 20
123.5771
  0
SEQEND
  0
POLYLINE
  8
LAYER_2
  6
AIGENLINE030
 40
0.1376
 41
0.1376
 66
1
 10
0
 20
0
 30
0
 70
128
  0
VERTEX
  8
LAYER_2
 10
189.5379
 20
123.6903
 42
0.08649334007
  0
VERTEX
  8
LAYER_2
 10
188.7977
 20
123.6476
  0
SEQEND
  0
POLYLINE
  8
LAYER_2
 40
0.1376
 41
0.1376
 66
1
 10
0
 20
0
 30
0
  0
VERTEX
  8
LAYER_2
 10
188.5596
 20
123.5771
  0
VERTEX
  8
LAYER_2
 10
188.3045
 20
123.4663
  0
SEQEND
  0
POLYLINE
  8
LAYER_2
  6
AIGENLINE045
 40
0.1376
 41
0.1376
 66
1
 10
0
 20
0
 30
0
 70
128
  0
VERTEX
  8
LAYER_2
 10
190.1884
 20
124.3486
 42
0.3925837455
  0
VERTEX
  8
LAYER_2
 10
190.387
 20
124.4506
  0
VERTEX
  8
LAYER_2
 10
190.3934
 20
124.4795
  0
SEQEND
  0
POLYLINE
  8
LAYER_2
 40
0.1376
 41
0.1376
 66
1
 10
0
 20
0
 30
0
  0
VERTEX
  8
LAYER_2
 10
190.3934
 20
124.4795
  0
VERTEX
  8
LAYER_2
 10
190.4269
 20
124.7554
  0
SEQEND
  0
POLYLINE
  8
LAYER_2
 40
0.1376
 41
0.1376
 66
1
 10
0
 20
0
 30
0
  0
VERTEX
  8
LAYER_2
 10
190.5027
 20
125.3717
  0
VERTEX
  8
LAYER_2
 10
190.5362
 20
125.6472
  0
SEQEND
  0
POLYLINE
  8
LAYER_2
  6
AIGENLINE032
 40
0.1376
 41
0.1376
 66
1
 10
0
 20
0
 30
0
 70
128
  0
VERTEX
  8
LAYER_2
 10
190.5362
 20
125.6475
 42
0.3934061929
  0
VERTEX
  8
LAYER_2
 10
190.3986
 20
125.8232
  0
VERTEX
  8
LAYER_2
 10
190.3683
 20
125.8239
  0
SEQEND
  0
POLYLINE
  8
LAYER_2
 40
0.1376
 41
0.1376
 66
1
 10
0
 20
0
 30
0
  0
VERTEX
  8
LAYER_2
 10
190.3683
 20
125.8236
  0
VERTEX
  8
LAYER_2
 10
190.0914
 20
125.8035
  0
SEQEND
  0
POLYLINE
  8
LAYER_2
  6
AIGENLINE055
 40
0.1376
 41
0.1376
 66
1
 10
0
 20
0
 30
0
 70
128
  0
VERTEX
  8
LAYER_2
 10
189.4059
 20
125.753
  0
VERTEX
  8
LAYER_2
 10
188.3786
 20
125.6775
  0
SEQEND
  0
POLYLINE
  8
LAYER_2
 40
0.1376
 41
0.1376
 66
1
 10
0
 20
0
 30
0
  0
VERTEX
  8
LAYER_2
 10
188.0357
 20
125.6528
  0
VERTEX
  8
LAYER_2
 10
187.7585
 20
125.6324
  0
SEQEND
  0
POLYLINE
  8
LAYER_2
  6
AIGENLINE034
 40
0.1376
 41
0.1376
 66
1
 10
0
 20
0
 30
0
 70
128
  0
VERTEX
  8
LAYER_2
 10
187.7585
 20
125.6327
 42
0.4142750697
  0
VERTEX
  8
LAYER_2
 10
187.6128
 20
125.4641
  0
VERTEX
  8
LAYER_2
 10
187.6223
 20
125.42
  0
SEQEND
  0
POLYLINE
  8
LAYER_2
 40
0.1376
 41
0.1376
 66
1
 10
0
 20
0
 30
0
  0
VERTEX
  8
LAYER_2
 10
187.6223
 20
125.42
  0
VERTEX
  8
LAYER_2
 10
187.7204
 20
125.1596
  0
SEQEND
  0
POLYLINE
  8
LAYER_2
 40
0.1376
 41
0.1376
 66
1
 10
0
 20
0
 30
0
  0
VERTEX
  8
LAYER_2
 10
187.9165
 20
124.6393
  0
VERTEX
  8
LAYER_2
 10
188.0146
 20
124.3789
  0
SEQEND
  0
POLYLINE
  8
LAYER_2
  6
AIGENLINE003
 40
0.1376
 41
0.1376
 66
1
 10
0
 20
0
 30
0
 70
128
  0
VERTEX
  8
LAYER_2
 10
188.0146
 20
124.3789
 42
0.3921564414
  0
VERTEX
  8
LAYER_2
 10
188.2178
 20
124.2876
  0
SEQEND
  0
POLYLINE
  8
LAYER_2
 40
0.1376
 41
0.1376
 66
1
 10
0
 20
0
 30
0
  0
VERTEX
  8
LAYER_2
 10
190.1884
 20
124.3486
  0
VERTEX
  8
LAYER_2
 10
189.9203
 20
124.4227
  0
SEQEND
  0
POLYLINE
  8
LAYER_2
  6
AIGENLINE035
 40
0.1376
 41
0.1376
 66
1
 10
0
 20
0
 30
0
 70
128
  0
VERTEX
  8
LAYER_2
 10
189.4412
 20
124.4887
 42
0.062295505
  0
VERTEX
  8
LAYER_2
 10
188.7194
 20
124.4368
  0
SEQEND
  0
POLYLINE
  8
LAYER_2
 40
0.1376
 41
0.1376
 66
1
 10
0
 20
0
 30
0
  0
VERTEX
  8
LAYER_2
 10
188.482
 20
124.3779
  0
VERTEX
  8
LAYER_2
 10
188.2188
 20
124.2879
  0
SEQEND
  0
POLYLINE
  8
LAYER_2
 40
0.1376
 41
0.1376
 66
1
 10
0
 20
0
 30
0
  0
VERTEX
  8
LAYER_2
 10
190.6914
 20
126.7023
  0
VERTEX
  8
LAYER_2
 10
190.4138
 20
126.7023
  0
SEQEND
  0
POLYLINE
  8
LAYER_2
  6
AIGENLINE036
 40
0.1376
 41
0.1376
 66
1
 10
0
 20
0
 30
0
 70
128
  0
VERTEX
  8
LAYER_2
 10
189.861
 20
126.7023
  0
VERTEX
  8
LAYER_2
 10
163.6136
 20
126.7031
  0
SEQEND
  0
POLYLINE
  8
LAYER_2
 40
0.1376
 41
0.1376
 66
1
 10
0
 20
0
 30
0
  0
VERTEX
  8
LAYER_2
 10
163.3374
 20
126.7027
  0
VERTEX
  8
LAYER_2
 10
163.0594
 20
126.7027
  0
SEQEND
  0
POLYLINE
  8
LAYER_2
 40
0.1376
 41
0.1376
 66
1
 10
0
 20
0
 30
0
  0
VERTEX
  8
LAYER_2
 10
179.7303
 20
126.2293
  0
VERTEX
  8
LAYER_2
 10
179.4523
 20
126.2293
  0
SEQEND
  0
POLYLINE
  8
LAYER_2
  6
AIGENLINE037
 40
0.1376
 41
0.1376
 66
1
 10
0
 20
0
 30
0
 70
128
  0
VERTEX
  8
LAYER_2
 10
178.8797
 20
126.2293
  0
VERTEX
  8
LAYER_2
 10
174.5854
 20
126.2293
  0
SEQEND
  0
POLYLINE
  8
LAYER_2
 40
0.1376
 41
0.1376
 66
1
 10
0
 20
0
 30
0
  0
VERTEX
  8
LAYER_2
 10
174.2989
 20
126.2293
  0
VERTEX
  8
LAYER_2
 10
174.0206
 20
126.2293
  0
SEQEND
  0
POLYLINE
  8
LAYER_2
 40
0.1376
 41
0.1376
 66
1
 10
0
 20
0
 30
0
  0
VERTEX
  8
LAYER_2
 10
178.7369
 20
125.3258
  0
VERTEX
  8
LAYER_2
 10
178.4589
 20
125.3258
  0
SEQEND
  0
POLYLINE
  8
LAYER_2
  6
AIGENLINE038
 40
0.1376
 41
0.1376
 66
1
 10
0
 20
0
 30
0
 70
128
  0
VERTEX
  8
LAYER_2
 10
177.8256
 20
125.3258
  0
VERTEX
  8
LAYER_2
 10
175.6088
 20
125.3258
  0
SEQEND
  0
POLYLINE
  8
LAYER_2
 40
0.1376
 41
0.1376
 66
1
 10
0
 20
0
 30
0
  0
VERTEX
  8
LAYER_2
 10
175.292
 20
125.3258
  0
VERTEX
  8
LAYER_2
 10
175.014
 20
125.3258
  0
SEQEND
  0
POLYLINE
  8
LAYER_2
 40
0.1376
 41
0.1376
 66
1
 10
0
 20
0
 30
0
  0
VERTEX
  8
LAYER_2
 10
178.6885
 20
124.2544
  0
VERTEX
  8
LAYER_2
 10
178.4102
 20
124.2544
  0
SEQEND
  0
POLYLINE
  8
LAYER_2
  6
AIGENLINE039
 40
0.1376
 41
0.1376
 66
1
 10
0
 20
0
 30
0
 70
128
  0
VERTEX
  8
LAYER_2
 10
177.7964
 20
124.2544
  0
VERTEX
  8
LAYER_2
 10
175.6476
 20
124.2544
  0
SEQEND
  0
POLYLINE
  8
LAYER_2
 40
0.1376
 41
0.1376
 66
1
 10
0
 20
0
 30
0
  0
VERTEX
  8
LAYER_2
 10
175.3407
 20
124.2544
  0
VERTEX
  8
LAYER_2
 10
175.0627
 20
124.2544
  0
SEQEND
  0
POLYLINE
  8
LAYER_2
 40
0.1376
 41
0.1376
 66
1
 10
0
 20
0
 30
0
  0
VERTEX
  8
LAYER_2
 10
190.2752
 20
123.4663
  0
VERTEX
  8
LAYER_2
 10
189.9968
 20
123.4663
  0
SEQEND
  0
POLYLINE
  8
LAYER_2
  6
AIGENLINE040
 40
0.1376
 41
0.1376
 66
1
 10
0
 20
0
 30
0
 70
128
  0
VERTEX
  8
LAYER_2
 10
189.5255
 20
123.4663
  0
VERTEX
  8
LAYER_2
 10
188.8186
 20
123.4663
  0
SEQEND
  0
POLYLINE
  8
LAYER_2
 40
0.1376
 41
0.1376
 66
1
 10
0
 20
0
 30
0
  0
VERTEX
  8
LAYER_2
 10
188.5829
 20
123.4663
  0
VERTEX
  8
LAYER_2
 10
188.3046
 20
123.4663
  0
VERTEX
  8
LAYER_2
 10
188.0266
 20
123.4663
  0
SEQEND
  0
POLYLINE
  8
LAYER_2
  6
AIGENLINE056
 40
0.1376
 41
0.1376
 66
1
 10
0
 20
0
 30
0
 70
128
  0
VERTEX
  8
LAYER_2
 10
187.472
 20
123.4663
  0
VERTEX
  8
LAYER_2
 10
166.681
 20
123.4667
  0
SEQEND
  0
POLYLINE
  8
LAYER_2
 40
0.1376
 41
0.1376
 66
1
 10
0
 20
0
 30
0
  0
VERTEX
  8
LAYER_2
 10
166.4038
 20
123.4663
  0
VERTEX
  8
LAYER_2
 10
166.1254
 20
123.4663
  0
SEQEND
  0
POLYLINE
  8
LAYER_2
 40
0.1376
 41
0.1376
 66
1
 10
0
 20
0
 30
0
  0
VERTEX
  8
LAYER_2
 10
192.2306
 20
137.654
  0
VERTEX
  8
LAYER_2
 10
191.9526
 20
137.654
  0
SEQEND
  0
POLYLINE
  8
LAYER_2
  6
AIGENLINE041
 40
0.1376
 41
0.1376
 66
1
 10
0
 20
0
 30
0
 70
128
  0
VERTEX
  8
LAYER_2
 10
191.4048
 20
137.654
  0
VERTEX
  8
LAYER_2
 10
162.1048
 20
137.6543
  0
SEQEND
  0
POLYLINE
  8
LAYER_2
 40
0.1376
 41
0.1376
 66
1
 10
0
 20
0
 30
0
  0
VERTEX
  8
LAYER_2
 10
161.8311
 20
137.6543
  0
VERTEX
  8
LAYER_2
 10
161.5527
 20
137.6543
  0
SEQEND
  0
POLYLINE
  8
LAYER_2
 40
0.1376
 41
0.1376
 66
1
 10
0
 20
0
 30
0
  0
VERTEX
  8
LAYER_2
 10
191.3194
 20
123.7503
  0
VERTEX
  8
LAYER_2
 10
191.3469
 20
124.0269
  0
SEQEND
  0
POLYLINE
  8
LAYER_2
  6
AIGENLINE042
 40
0.1376
 41
0.1376
 66
1
 10
0
 20
0
 30
0
 70
128
  0
VERTEX
  8
LAYER_2
 10
191.4041
 20
124.6044
  0
VERTEX
  8
LAYER_2
 10
192.5206
 20
135.8664
  0
SEQEND
  0
POLYLINE
  8
LAYER_2
 40
0.1376
 41
0.1376
 66
1
 10
0
 20
0
 30
0
  0
VERTEX
  8
LAYER_2
 10
192.5488
 20
136.155
  0
VERTEX
  8
LAYER_2
 10
192.5763
 20
136.4319
  0
SEQEND
  0
POLYLINE
  8
LAYER_2
 40
0.1376
 41
0.1376
 66
1
 10
0
 20
0
 30
0
  0
VERTEX
  8
LAYER_2
 10
190.8117
 20
126.938
  0
VERTEX
  8
LAYER_2
 10
190.8392
 20
127.2149
  0
SEQEND
  0
POLYLINE
  8
LAYER_2
  6
AIGENLINE043
 40
0.1376
 41
0.1376
 66
1
 10
0
 20
0
 30
0
 70
128
  0
VERTEX
  8
LAYER_2
 10
190.8964
 20
127.7917
  0
VERTEX
  8
LAYER_2
 10
191.7829
 20
136.7336
  0
SEQEND
  0
POLYLINE
  8
LAYER_2
 40
0.1376
 41
0.1376
 66
1
 10
0
 20
0
 30
0
  0
VERTEX
  8
LAYER_2
 10
191.8112
 20
137.0221
  0
VERTEX
  8
LAYER_2
 10
191.8387
 20
137.2987
  0
SEQEND
  0
POLYLINE
  8
LAYER_2
 40
0.1376
 41
0.1376
 66
1
 10
0
 20
0
 30
0
  0
VERTEX
  8
LAYER_2
 10
192.2306
 20
137.654
 42
0.1785614055
  0
VERTEX
  8
LAYER_2
 10
191.9749
 20
137.5594
  0
SEQEND
  0
POLYLINE
  8
LAYER_2
 40
0.1376
 41
0.1376
 66
1
 10
0
 20
0
 30
0
  0
VERTEX
  8
LAYER_2
 10
191.9579
 20
137.5443
 42
0.1771684795
  0
VERTEX
  8
LAYER_2
 10
191.8387
 20
137.2987
  0
SEQEND
  0
POLYLINE
  8
LAYER_2
  6
AIGENLINE016
 40
0.1376
 41
0.1376
 66
1
 10
0
 20
0
 30
0
 70
128
  0
VERTEX
  8
LAYER_2
 10
174.1187
 20
126.1859
  0
VERTEX
  8
LAYER_2
 10
174.0206
 20
126.2289
  0
SEQEND
  0
POLYLINE
  8
LAYER_2
  6
AIGENLINE049
 40
0.1376
 41
0.1376
 66
1
 10
0
 20
0
 30
0
 70
128
  0
VERTEX
  8
LAYER_2
 10
174.5169
 20
124.2544
  0
VERTEX
  8
LAYER_2
 10
174.5169
 20
124.7109
  0
SEQEND
  0
POLYLINE
  8
LAYER_2
 40
0.1376
 41
0.1376
 66
1
 10
0
 20
0
 30
0
  0
VERTEX
  8
LAYER_2
 10
174.5169
 20
124.7106
  0
VERTEX
  8
LAYER_2
 10
174.3162
 20
124.9032
  0
SEQEND
  0
POLYLINE
  8
LAYER_2
 40
0.1376
 41
0.1376
 66
1
 10
0
 20
0
 30
0
  0
VERTEX
  8
LAYER_2
 10
173.9373
 20
125.2672
  0
VERTEX
  8
LAYER_2
 10
173.7366
 20
125.4599
  0
VERTEX
  8
LAYER_2
 10
173.4583
 20
125.4627
  0
SEQEND
  0
POLYLINE
  8
LAYER_2
  6
AIGENLINE050
 40
0.1376
 41
0.1376
 66
1
 10
0
 20
0
 30
0
 70
128
  0
VERTEX
  8
LAYER_2
 10
172.9414
 20
125.468
  0
VERTEX
  8
LAYER_2
 10
168.0294
 20
125.5177
  0
SEQEND
  0
POLYLINE
  8
LAYER_2
 40
0.1376
 41
0.1376
 66
1
 10
0
 20
0
 30
0
  0
VERTEX
  8
LAYER_2
 10
167.7708
 20
125.5205
  0
VERTEX
  8
LAYER_2
 10
167.4928
 20
125.5234
  0
SEQEND
  0
POLYLINE
  8
LAYER_2
 40
0.1376
 41
0.1376
 66
1
 10
0
 20
0
 30
0
  0
VERTEX
  8
LAYER_2
 10
167.4928
 20
125.523
 42
0.1093256897
  0
VERTEX
  8
LAYER_2
 10
167.2194
 20
125.4828
  0
SEQEND
  0
POLYLINE
  8
LAYER_2
 40
0.1376
 41
0.1376
 66
1
 10
0
 20
0
 30
0
  0
VERTEX
  8
LAYER_2
 10
167.0084
 20
125.3477
 42
0.1086846517
  0
VERTEX
  8
LAYER_2
 10
166.8567
 20
125.1166
  0
VERTEX
  8
LAYER_2
 10
166.7587
 20
124.8562
  0
SEQEND
  0
POLYLINE
  8
LAYER_2
  6
AIGENLINE021
 40
0.1376
 41
0.1376
 66
1
 10
0
 20
0
 30
0
 70
128
  0
VERTEX
  8
LAYER_2
 10
166.6295
 20
124.5137
  0
VERTEX
  8
LAYER_2
 10
166.4355
 20
124.0001
  0
SEQEND
  0
POLYLINE
  8
LAYER_2
 40
0.1376
 41
0.1376
 66
1
 10
0
 20
0
 30
0
  0
VERTEX
  8
LAYER_2
 10
166.371
 20
123.8286
  0
VERTEX
  8
LAYER_2
 10
166.2729
 20
123.5686
  0
SEQEND
  0
POLYLINE
  8
LAYER_2
  6
AIGENLINE022
 40
0.1376
 41
0.1376
 66
1
 10
0
 20
0
 30
0
 70
128
  0
VERTEX
  8
LAYER_2
 10
166.1254
 20
123.4663
 42
0.3021864103
  0
VERTEX
  8
LAYER_2
 10
166.2729
 20
123.5683
  0
SEQEND
  0
POLYLINE
  8
LAYER_2
 40
0.1376
 41
0.1376
 66
1
 10
0
 20
0
 30
0
  0
VERTEX
  8
LAYER_2
 10
165.4463
 20
123.4663
  0
VERTEX
  8
LAYER_2
 10
165.7247
 20
123.4663
  0
SEQEND
  0
POLYLINE
  8
LAYER_2
 40
0.1376
 41
0.1376
 66
1
 10
0
 20
0
 30
0
  0
VERTEX
  8
LAYER_2
 10
165.8474
 20
123.4663
  0
VERTEX
  8
LAYER_2
 10
166.1258
 20
123.4663
  0
SEQEND
  0
POLYLINE
  8
LAYER_2
  6
AIGENLINE024
 40
0.1376
 41
0.1376
 66
1
 10
0
 20
0
 30
0
 70
128
  0
VERTEX
  8
LAYER_2
 10
162.9395
 20
126.9387
 42
0.3428139496
  0
VERTEX
  8
LAYER_2
 10
163.3014
 20
126.5958
  0
SEQEND
  0
POLYLINE
  8
LAYER_2
 40
0.1376
 41
0.1376
 66
1
 10
0
 20
0
 30
0
  0
VERTEX
  8
LAYER_2
 10
163.3014
 20
126.5958
  0
VERTEX
  8
LAYER_2
 10
163.5794
 20
126.5863
  0
SEQEND
  0
POLYLINE
  8
LAYER_2
  6
AIGENLINE051
 40
0.1376
 41
0.1376
 66
1
 10
0
 20
0
 30
0
 70
128
  0
VERTEX
  8
LAYER_2
 10
164.1142
 20
126.5679
  0
VERTEX
  8
LAYER_2
 10
173.4752
 20
126.248
  0
SEQEND
  0
POLYLINE
  8
LAYER_2
 40
0.1376
 41
0.1376
 66
1
 10
0
 20
0
 30
0
  0
VERTEX
  8
LAYER_2
 10
173.7429
 20
126.2388
  0
VERTEX
  8
LAYER_2
 10
174.0209
 20
126.2293
  0
SEQEND
  0
POLYLINE
  8
LAYER_2
 40
0.1376
 41
0.1376
 66
1
 10
0
 20
0
 30
0
  0
VERTEX
  8
LAYER_2
 10
161.5206
 20
137.6543
  0
VERTEX
  8
LAYER_2
 10
161.2423
 20
137.6543
  0
SEQEND
  0
POLYLINE
  8
LAYER_2
  6
AIGENLINE052
 40
0.1376
 41
0.1376
 66
1
 10
0
 20
0
 30
0
 70
128
  0
VERTEX
  8
LAYER_2
 10
160.7212
 20
137.6543
  0
VERTEX
  8
LAYER_2
 10
157.8535
 20
137.654
  0
SEQEND
  0
POLYLINE
  8
LAYER_2
 40
0.1376
 41
0.1376
 66
1
 10
0
 20
0
 30
0
  0
VERTEX
  8
LAYER_2
 10
157.5931
 20
137.654
  0
VERTEX
  8
LAYER_2
 10
157.3151
 20
137.654
  0
SEQEND
  0
POLYLINE
  8
LAYER_2
 40
0.1376
 41
0.1376
 66
1
 10
0
 20
0
 30
0
  0
VERTEX
  8
LAYER_2
 10
157.3148
 20
136.7872
  0
VERTEX
  8
LAYER_2
 10
157.5931
 20
136.7872
  0
SEQEND
  0
POLYLINE
  8
LAYER_2
  6
AIGENLINE057
 40
0.1376
 41
0.1376
 66
1
 10
0
 20
0
 30
0
 70
128
  0
VERTEX
  8
LAYER_2
 10
158.1756
 20
136.7872
  0
VERTEX
  8
LAYER_2
 10
160.2136
 20
136.7872
  0
SEQEND
  0
POLYLINE
  8
LAYER_2
 40
0.1376
 41
0.1376
 66
1
 10
0
 20
0
 30
0
  0
VERTEX
  8
LAYER_2
 10
160.5046
 20
136.7872
  0
VERTEX
  8
LAYER_2
 10
160.7829
 20
136.7872
  0
SEQEND
  0
POLYLINE
  8
LAYER_2
 40
0.1376
 41
0.1376
 66
1
 10
0
 20
0
 30
0
  0
VERTEX
  8
LAYER_2
 10
161.1749
 20
136.432
 42
0.1782343896
  0
VERTEX
  8
LAYER_2
 10
161.0556
 20
136.6775
  0
SEQEND
  0
POLYLINE
  8
LAYER_2
 40
0.1376
 41
0.1376
 66
1
 10
0
 20
0
 30
0
  0
VERTEX
  8
LAYER_2
 10
161.0391
 20
136.6927
 42
0.1774638894
  0
VERTEX
  8
LAYER_2
 10
160.7829
 20
136.7872
  0
SEQEND
  0
POLYLINE
  8
LAYER_2
 40
0.1376
 41
0.1376
 66
1
 10
0
 20
0
 30
0
  0
VERTEX
  8
LAYER_2
 10
162.2336
 20
123.4663
  0
VERTEX
  8
LAYER_2
 10
162.5115
 20
123.4663
  0
SEQEND
  0
POLYLINE
  8
LAYER_2
 40
0.1376
 41
0.1376
 66
1
 10
0
 20
0
 30
0
  0
VERTEX
  8
LAYER_2
 10
163.1981
 20
123.4663
  0
VERTEX
  8
LAYER_2
 10
163.476
 20
123.4663
  0
SEQEND
  0
POLYLINE
  8
LAYER_2
 40
0.1376
 41
0.1376
 66
1
 10
0
 20
0
 30
0
  0
VERTEX
  8
LAYER_2
 10
161.8395
 20
123.8399
 42
0.1775910165
  0
VERTEX
  8
LAYER_2
 10
161.9478
 20
123.5891
  0
SEQEND
  0
POLYLINE
  8
LAYER_2
 40
0.1376
 41
0.1376
 66
1
 10
0
 20
0
 30
0
  0
VERTEX
  8
LAYER_2
 10
161.9771
 20
123.5609
 42
0.1773031721
  0
VERTEX
  8
LAYER_2
 10
162.2336
 20
123.4663
  0
SEQEND
  0
POLYLINE
  8
LAYER_2
 40
0.1376
 41
0.1376
 66
1
 10
0
 20
0
 30
0
  0
VERTEX
  8
LAYER_2
 10
165.4463
 20
123.4663
  0
VERTEX
  8
LAYER_2
 10
165.1916
 20
123.5774
  0
SEQEND
  0
POLYLINE
  8
LAYER_2
  6
AIGENLINE030
 40
0.1376
 41
0.1376
 66
1
 10
0
 20
0
 30
0
 70
128
  0
VERTEX
  8
LAYER_2
 10
164.709
 20
123.6907
 42
0.08643301559
  0
VERTEX
  8
LAYER_2
 10
163.9689
 20
123.648
  0
SEQEND
  0
POLYLINE
  8
LAYER_2
 40
0.1376
 41
0.1376
 66
1
 10
0
 20
0
 30
0
  0
VERTEX
  8
LAYER_2
 10
163.7311
 20
123.5774
  0
VERTEX
  8
LAYER_2
 10
163.4761
 20
123.4663
  0
SEQEND
  0
POLYLINE
  8
LAYER_2
  6
AIGENLINE031
 40
0.1376
 41
0.1376
 66
1
 10
0
 20
0
 30
0
 70
128
  0
VERTEX
  8
LAYER_2
 10
163.3575
 20
124.4802
 42
0.3914828329
  0
VERTEX
  8
LAYER_2
 10
163.5332
 20
124.3426
  0
VERTEX
  8
LAYER_2
 10
163.5625
 20
124.3493
  0
SEQEND
  0
POLYLINE
  8
LAYER_2
 40
0.1376
 41
0.1376
 66
1
 10
0
 20
0
 30
0
  0
VERTEX
  8
LAYER_2
 10
163.3575
 20
124.4802
  0
VERTEX
  8
LAYER_2
 10
163.324
 20
124.7557
  0
SEQEND
  0
POLYLINE
  8
LAYER_2
 40
0.1376
 41
0.1376
 66
1
 10
0
 20
0
 30
0
  0
VERTEX
  8
LAYER_2
 10
163.2485
 20
125.372
  0
VERTEX
  8
LAYER_2
 10
163.215
 20
125.6475
  0
SEQEND
  0
POLYLINE
  8
LAYER_2
  6
AIGENLINE032
 40
0.1376
 41
0.1376
 66
1
 10
0
 20
0
 30
0
 70
128
  0
VERTEX
  8
LAYER_2
 10
163.3829
 20
125.8243
 42
0.3912740725
  0
VERTEX
  8
LAYER_2
 10
163.2139
 20
125.6786
  0
VERTEX
  8
LAYER_2
 10
163.215
 20
125.6475
  0
SEQEND
  0
POLYLINE
  8
LAYER_2
 40
0.1376
 41
0.1376
 66
1
 10
0
 20
0
 30
0
  0
VERTEX
  8
LAYER_2
 10
163.3829
 20
125.8243
  0
VERTEX
  8
LAYER_2
 10
163.6602
 20
125.8038
  0
SEQEND
  0
POLYLINE
  8
LAYER_2
  6
AIGENLINE033
 40
0.1376
 41
0.1376
 66
1
 10
0
 20
0
 30
0
 70
128
  0
VERTEX
  8
LAYER_2
 10
164.3453
 20
125.7537
  0
VERTEX
  8
LAYER_2
 10
165.3729
 20
125.6782
  0
SEQEND
  0
POLYLINE
  8
LAYER_2
 40
0.1376
 41
0.1376
 66
1
 10
0
 20
0
 30
0
  0
VERTEX
  8
LAYER_2
 10
165.7155
 20
125.6535
  0
VERTEX
  8
LAYER_2
 10
165.9928
 20
125.6331
  0
SEQEND
  0
POLYLINE
  8
LAYER_2
  6
AIGENLINE034
 40
0.1376
 41
0.1376
 66
1
 10
0
 20
0
 30
0
 70
128
  0
VERTEX
  8
LAYER_2
 10
166.129
 20
125.4203
 42
0.3918848705
  0
VERTEX
  8
LAYER_2
 10
166.0369
 20
125.6232
  0
VERTEX
  8
LAYER_2
 10
165.9928
 20
125.6331
  0
SEQEND
  0
POLYLINE
  8
LAYER_2
 40
0.1376
 41
0.1376
 66
1
 10
0
 20
0
 30
0
  0
VERTEX
  8
LAYER_2
 10
166.129
 20
125.4203
  0
VERTEX
  8
LAYER_2
 10
166.0309
 20
125.16
  0
SEQEND
  0
POLYLINE
  8
LAYER_2
 40
0.1376
 41
0.1376
 66
1
 10
0
 20
0
 30
0
  0
VERTEX
  8
LAYER_2
 10
165.8344
 20
124.6396
  0
VERTEX
  8
LAYER_2
 10
165.7363
 20
124.3793
  0
SEQEND
  0
POLYLINE
  8
LAYER_2
  6
AIGENLINE003
 40
0.1376
 41
0.1376
 66
1
 10
0
 20
0
 30
0
 70
128
  0
VERTEX
  8
LAYER_2
 10
165.532
 20
124.2883
 42
0.3917765019
  0
VERTEX
  8
LAYER_2
 10
165.736
 20
124.3779
  0
SEQEND
  0
POLYLINE
  8
LAYER_2
 40
0.1376
 41
0.1376
 66
1
 10
0
 20
0
 30
0
  0
VERTEX
  8
LAYER_2
 10
165.532
 20
124.2883
  0
VERTEX
  8
LAYER_2
 10
165.2692
 20
124.3779
  0
SEQEND
  0
POLYLINE
  8
LAYER_2
  6
AIGENLINE035
 40
0.1376
 41
0.1376
 66
1
 10
0
 20
0
 30
0
 70
128
  0
VERTEX
  8
LAYER_2
 10
164.7951
 20
124.4738
 42
0.06355921176
  0
VERTEX
  8
LAYER_2
 10
164.0708
 20
124.4664
  0
SEQEND
  0
POLYLINE
  8
LAYER_2
 40
0.1376
 41
0.1376
 66
1
 10
0
 20
0
 30
0
  0
VERTEX
  8
LAYER_2
 10
163.8306
 20
124.423
  0
VERTEX
  8
LAYER_2
 10
163.5628
 20
124.349
  0
SEQEND
  0
POLYLINE
  8
LAYER_2
 40
0.1376
 41
0.1376
 66
1
 10
0
 20
0
 30
0
  0
VERTEX
  8
LAYER_2
 10
163.4761
 20
123.4663
  0
VERTEX
  8
LAYER_2
 10
163.7544
 20
123.4663
  0
SEQEND
  0
POLYLINE
  8
LAYER_2
  6
AIGENLINE040
 40
0.1376
 41
0.1376
 66
1
 10
0
 20
0
 30
0
 70
128
  0
VERTEX
  8
LAYER_2
 10
164.2254
 20
123.4663
  0
VERTEX
  8
LAYER_2
 10
164.9327
 20
123.4663
  0
SEQEND
  0
POLYLINE
  8
LAYER_2
 40
0.1376
 41
0.1376
 66
1
 10
0
 20
0
 30
0
  0
VERTEX
  8
LAYER_2
 10
165.1683
 20
123.4663
  0
VERTEX
  8
LAYER_2
 10
165.4467
 20
123.4663
  0
SEQEND
  0
POLYLINE
  8
LAYER_2
 40
0.1376
 41
0.1376
 66
1
 10
0
 20
0
 30
0
  0
VERTEX
  8
LAYER_2
 10
161.8395
 20
123.8399
  0
VERTEX
  8
LAYER_2
 10
161.8247
 20
124.1175
  0
SEQEND
  0
POLYLINE
  8
LAYER_2
  6
AIGENLINE058
 40
0.1376
 41
0.1376
 66
1
 10
0
 20
0
 30
0
 70
128
  0
VERTEX
  8
LAYER_2
 10
161.7951
 20
124.6904
  0
VERTEX
  8
LAYER_2
 10
161.2049
 20
135.8679
  0
SEQEND
  0
POLYLINE
  8
LAYER_2
 40
0.1376
 41
0.1376
 66
1
 10
0
 20
0
 30
0
  0
VERTEX
  8
LAYER_2
 10
161.1897
 20
136.1543
  0
VERTEX
  8
LAYER_2
 10
161.1749
 20
136.4319
  0
SEQEND
  0
POLYLINE
  8
LAYER_2
 40
0.1376
 41
0.1376
 66
1
 10
0
 20
0
 30
0
  0
VERTEX
  8
LAYER_2
 10
162.9395
 20
126.9387
  0
VERTEX
  8
LAYER_2
 10
162.912
 20
127.2156
  0
SEQEND
  0
POLYLINE
  8
LAYER_2
  6
AIGENLINE043
 40
0.1376
 41
0.1376
 66
1
 10
0
 20
0
 30
0
 70
128
  0
VERTEX
  8
LAYER_2
 10
162.8548
 20
127.7921
  0
VERTEX
  8
LAYER_2
 10
161.9686
 20
136.7336
  0
SEQEND
  0
POLYLINE
  8
LAYER_2
 40
0.1376
 41
0.1376
 66
1
 10
0
 20
0
 30
0
  0
VERTEX
  8
LAYER_2
 10
161.9401
 20
137.0225
  0
VERTEX
  8
LAYER_2
 10
161.9125
 20
137.2991
  0
SEQEND
  0
POLYLINE
  8
LAYER_2
 40
0.1376
 41
0.1376
 66
1
 10
0
 20
0
 30
0
  0
VERTEX
  8
LAYER_2
 10
161.9129
 20
137.2991
 42
0.1781873852
  0
VERTEX
  8
LAYER_2
 10
161.7937
 20
137.5446
  0
SEQEND
  0
POLYLINE
  8
LAYER_2
 40
0.1376
 41
0.1376
 66
1
 10
0
 20
0
 30
0
  0
VERTEX
  8
LAYER_2
 10
161.7767
 20
137.5598
 42
0.1777710861
  0
VERTEX
  8
LAYER_2
 10
161.5206
 20
137.6543
  0
SEQEND
  0
POLYLINE
  8
LAYER_2
  6
AIGENLINE027
 40
0.1376
 41
0.1376
 66
1
 10
0
 20
0
 30
0
 70
128
  0
VERTEX
  8
LAYER_2
 10
157.1575
 20
137.4963
  0
VERTEX
  8
LAYER_2
 10
157.1575
 20
136.9449
  0
SEQEND
  0
INSERT
  8
LAYER_2
  2
AIGNBL0201002C
 10
0
 20
0
 30
0
  0
POLYLINE
  8
LAYER_2
  6
AIGENLINE027
 40
0.1376
 41
0.1376
 66
1
 10
0
 20
0
 30
0
 70
128
  0
VERTEX
  8
LAYER_2
 10
199.7212
 20
137.4963
  0
VERTEX
  8
LAYER_2
 10
199.7212
 20
136.9449
  0
SEQEND
  0
INSERT
  8
LAYER_2
  2
AIGNBL0201002D
 10
0
 20
0
 30
0
  0
POLYLINE
  8
LAYER_2
 40
0.1376
 41
0.1376
 66
1
 10
0
 20
0
 30
0
  0
VERTEX
  8
LAYER_2
 10
98.4397
 20
94.1417
  0
VERTEX
  8
LAYER_2
 10
98.1617
 20
94.1417
  0
VERTEX
  8
LAYER_2
 10
98.1617
 20
94.2994
  0
VERTEX
  8
LAYER_2
 10
98.4397
 20
94.2994
  0
SEQEND
  0
POLYLINE
  8
LAYER_2
 40
0.1376
 41
0.1376
 66
1
 10
0
 20
0
 30
0
  0
VERTEX
  8
LAYER_2
 10
98.8736
 20
94.2997
  0
VERTEX
  8
LAYER_2
 10
99.152
 20
94.2997
  0
VERTEX
  8
LAYER_2
 10
99.152
 20
94.142
  0
VERTEX
  8
LAYER_2
 10
98.8736
 20
94.142
  0
SEQEND
  0
POLYLINE
  8
LAYER_2
 40
0.1376
 41
0.1376
 66
1
 10
0
 20
0
 30
0
  0
VERTEX
  8
LAYER_2
 10
171.9374
 20
94.6881
  0
VERTEX
  8
LAYER_2
 10
171.9374
 20
94.9664
  0
VERTEX
  8
LAYER_2
 10
172.2154
 20
94.9664
  0
SEQEND
  0
POLYLINE
  8
LAYER_2
 40
0.1376
 41
0.1376
 66
1
 10
0
 20
0
 30
0
  0
VERTEX
  8
LAYER_2
 10
172.4475
 20
94.9661
  0
VERTEX
  8
LAYER_2
 10
172.7259
 20
94.9661
  0
VERTEX
  8
LAYER_2
 10
172.7259
 20
94.6881
  0
SEQEND
  0
POLYLINE
  8
LAYER_2
 40
0.1376
 41
0.1376
 66
1
 10
0
 20
0
 30
0
  0
VERTEX
  8
LAYER_2
 10
172.7255
 20
94.6137
  0
VERTEX
  8
LAYER_2
 10
172.7255
 20
94.3353
  0
VERTEX
  8
LAYER_2
 10
172.4475
 20
94.3353
  0
SEQEND
  0
POLYLINE
  8
LAYER_2
 40
0.1376
 41
0.1376
 66
1
 10
0
 20
0
 30
0
  0
VERTEX
  8
LAYER_2
 10
172.2154
 20
94.3357
  0
VERTEX
  8
LAYER_2
 10
171.9371
 20
94.3357
  0
VERTEX
  8
LAYER_2
 10
171.9371
 20
94.614
  0
SEQEND
  0
POLYLINE
  8
LAYER_2
  6
AIGENLINE005
 40
0.1376
 41
0.1376
 66
1
 10
0
 20
0
 30
0
 70
128
  0
VERTEX
  8
LAYER_2
 10
172.0595
 20
93.9928
  0
VERTEX
  8
LAYER_2
 10
172.0595
 20
94.1776
  0
SEQEND
  0
POLYLINE
  8
LAYER_2
  6
AIGENLINE006
 40
0.1376
 41
0.1376
 66
1
 10
0
 20
0
 30
0
 70
128
  0
VERTEX
  8
LAYER_2
 10
172.0595
 20
93.9928
 42
0.4110745985
  0
VERTEX
  8
LAYER_2
 10
172.1752
 20
93.9723
  0
VERTEX
  8
LAYER_2
 10
172.1957
 20
93.9928
  0
SEQEND
  0
POLYLINE
  8
LAYER_2
  6
AIGENLINE007
 40
0.1376
 41
0.1376
 66
1
 10
0
 20
0
 30
0
 70
128
  0
VERTEX
  8
LAYER_2
 10
172.1279
 20
93.9572
  0
VERTEX
  8
LAYER_2
 10
172.5361
 20
93.9572
  0
SEQEND
  0
POLYLINE
  8
LAYER_2
  6
AIGENLINE006
 40
0.1376
 41
0.1376
 66
1
 10
0
 20
0
 30
0
 70
128
  0
VERTEX
  8
LAYER_2
 10
172.468
 20
93.9928
 42
0.3907650546
  0
VERTEX
  8
LAYER_2
 10
172.5837
 20
93.9723
  0
VERTEX
  8
LAYER_2
 10
172.6042
 20
93.9928
  0
SEQEND
  0
INSERT
  8
LAYER_2
  2
AIGNBL0201002E
 10
0
 20
0
 30
0
  0
POLYLINE
  8
LAYER_2
  6
AIGENLINE008
 40
0.1376
 41
0.1376
 66
1
 10
0
 20
0
 30
0
 70
128
  0
VERTEX
  8
LAYER_2
 10
172.1957
 20
93.9928
 42
0.260685207
  0
VERTEX
  8
LAYER_2
 10
172.468
 20
93.9928
  0
SEQEND
  0
POLYLINE
  8
LAYER_2
  6
AIGENLINE005
 40
0.1376
 41
0.1376
 66
1
 10
0
 20
0
 30
0
 70
128
  0
VERTEX
  8
LAYER_2
 10
172.6042
 20
94.178
  0
VERTEX
  8
LAYER_2
 10
172.6042
 20
93.9928
  0
SEQEND
  0
POLYLINE
  8
LAYER_2
  6
AIGENLINE009
 40
0.1376
 41
0.1376
 66
1
 10
0
 20
0
 30
0
 70
128
  0
VERTEX
  8
LAYER_2
 10
172.6042
 20
94.1738
  0
VERTEX
  8
LAYER_2
 10
172.601
 20
94.178
  0
SEQEND
  0
POLYLINE
  8
LAYER_2
  6
AIGENLINE010
 40
0.1376
 41
0.1376
 66
1
 10
0
 20
0
 30
0
 70
128
  0
VERTEX
  8
LAYER_2
 10
172.2211
 20
94.178
  0
VERTEX
  8
LAYER_2
 10
172.4426
 20
94.178
  0
SEQEND
  0
POLYLINE
  8
LAYER_2
  6
AIGENLINE009
 40
0.1376
 41
0.1376
 66
1
 10
0
 20
0
 30
0
 70
128
  0
VERTEX
  8
LAYER_2
 10
172.1957
 20
94.1738
  0
VERTEX
  8
LAYER_2
 10
172.1925
 20
94.178
  0
SEQEND
  0
INSERT
  8
LAYER_2
  2
AIGNBL0201002F
 10
0
 20
0
 30
0
  0
POLYLINE
  8
LAYER_2
  6
AIGENLINE011
 40
0.1376
 41
0.1376
 66
1
 10
0
 20
0
 30
0
 70
128
  0
VERTEX
  8
LAYER_2
 10
172.4712
 20
94.178
  0
VERTEX
  8
LAYER_2
 10
172.468
 20
94.1738
  0
SEQEND
  0
POLYLINE
  8
LAYER_2
  6
AIGENLINE012
 40
0.1376
 41
0.1376
 66
1
 10
0
 20
0
 30
0
 70
128
  0
VERTEX
  8
LAYER_2
 10
172.0595
 20
94.178
  0
VERTEX
  8
LAYER_2
 10
172.6042
 20
94.178
  0
SEQEND
  0
POLYLINE
  8
LAYER_2
  6
AIGENLINE009
 40
0.1376
 41
0.1376
 66
1
 10
0
 20
0
 30
0
 70
128
  0
VERTEX
  8
LAYER_2
 10
172.0627
 20
94.178
  0
VERTEX
  8
LAYER_2
 10
172.0595
 20
94.1738
  0
SEQEND
  0
POLYLINE
  8
LAYER_2
 40
0.1376
 41
0.1376
 66
1
 10
0
 20
0
 30
0
  0
VERTEX
  8
LAYER_2
 10
172.1741
 20
94.178
  0
VERTEX
  8
LAYER_2
 10
172.1741
 20
94.456
  0
SEQEND
  0
POLYLINE
  8
LAYER_2
  6
AIGENLINE048
 40
0.1376
 41
0.1376
 66
1
 10
0
 20
0
 30
0
 70
128
  0
VERTEX
  8
LAYER_2
 10
172.1741
 20
94.8458
  0
VERTEX
  8
LAYER_2
 10
172.1741
 20
94.8634
  0
VERTEX
  8
LAYER_2
 10
172.2214
 20
94.9107
  0
VERTEX
  8
LAYER_2
 10
172.4423
 20
94.9107
  0
VERTEX
  8
LAYER_2
 10
172.4895
 20
94.8634
  0
VERTEX
  8
LAYER_2
 10
172.4895
 20
94.6511
  0
SEQEND
  0
POLYLINE
  8
LAYER_2
 40
0.1376
 41
0.1376
 66
1
 10
0
 20
0
 30
0
  0
VERTEX
  8
LAYER_2
 10
172.4895
 20
94.456
  0
VERTEX
  8
LAYER_2
 10
172.4895
 20
94.1776
  0
SEQEND
  0
POLYLINE
  8
LAYER_2
 40
0.1376
 41
0.1376
 66
1
 10
0
 20
0
 30
0
  0
VERTEX
  8
LAYER_2
 10
172.2059
 20
94.178
  0
VERTEX
  8
LAYER_2
 10
172.2059
 20
94.456
  0
SEQEND
  0
POLYLINE
  8
LAYER_2
 40
0.1376
 41
0.1376
 66
1
 10
0
 20
0
 30
0
  0
VERTEX
  8
LAYER_2
 10
172.2059
 20
94.5851
  0
VERTEX
  8
LAYER_2
 10
172.2059
 20
94.8634
  0
SEQEND
  0
POLYLINE
  8
LAYER_2
 40
0.1376
 41
0.1376
 66
1
 10
0
 20
0
 30
0
  0
VERTEX
  8
LAYER_2
 10
172.4581
 20
94.178
  0
VERTEX
  8
LAYER_2
 10
172.4581
 20
94.456
  0
SEQEND
  0
POLYLINE
  8
LAYER_2
 40
0.1376
 41
0.1376
 66
1
 10
0
 20
0
 30
0
  0
VERTEX
  8
LAYER_2
 10
172.4581
 20
94.5851
  0
VERTEX
  8
LAYER_2
 10
172.4581
 20
94.8634
  0
SEQEND
  0
POLYLINE
  8
LAYER_2
  6
AIGENLINE013
 40
0.1376
 41
0.1376
 66
1
 10
0
 20
0
 30
0
 70
128
  0
VERTEX
  8
LAYER_2
 10
172.1741
 20
94.8634
  0
VERTEX
  8
LAYER_2
 10
172.4895
 20
94.8634
  0
SEQEND
  0
POLYLINE
  8
LAYER_2
 40
0.1376
 41
0.1376
 66
1
 10
0
 20
0
 30
0
  0
VERTEX
  8
LAYER_2
 10
172.1149
 20
94.1762
  0
VERTEX
  8
LAYER_2
 10
171.8369
 20
94.1762
  0
VERTEX
  8
LAYER_2
 10
171.8369
 20
94.3339
  0
VERTEX
  8
LAYER_2
 10
172.1149
 20
94.3339
  0
SEQEND
  0
POLYLINE
  8
LAYER_2
 40
0.1376
 41
0.1376
 66
1
 10
0
 20
0
 30
0
  0
VERTEX
  8
LAYER_2
 10
172.5491
 20
94.3339
  0
VERTEX
  8
LAYER_2
 10
172.8271
 20
94.3339
  0
VERTEX
  8
LAYER_2
 10
172.8271
 20
94.1766
  0
VERTEX
  8
LAYER_2
 10
172.5491
 20
94.1766
  0
SEQEND
  0
POLYLINE
  8
LAYER_2
 40
0.1376
 41
0.1376
 66
1
 10
0
 20
0
 30
0
  0
VERTEX
  8
LAYER_2
 10
184.5489
 20
94.6881
  0
VERTEX
  8
LAYER_2
 10
184.5489
 20
94.9664
  0
VERTEX
  8
LAYER_2
 10
184.8272
 20
94.9664
  0
SEQEND
  0
POLYLINE
  8
LAYER_2
 40
0.1376
 41
0.1376
 66
1
 10
0
 20
0
 30
0
  0
VERTEX
  8
LAYER_2
 10
185.059
 20
94.9661
  0
VERTEX
  8
LAYER_2
 10
185.3373
 20
94.9661
  0
VERTEX
  8
LAYER_2
 10
185.3373
 20
94.6881
  0
SEQEND
  0
POLYLINE
  8
LAYER_2
 40
0.1376
 41
0.1376
 66
1
 10
0
 20
0
 30
0
  0
VERTEX
  8
LAYER_2
 10
185.3374
 20
94.6137
  0
VERTEX
  8
LAYER_2
 10
185.3374
 20
94.3353
  0
VERTEX
  8
LAYER_2
 10
185.059
 20
94.3353
  0
SEQEND
  0
POLYLINE
  8
LAYER_2
 40
0.1376
 41
0.1376
 66
1
 10
0
 20
0
 30
0
  0
VERTEX
  8
LAYER_2
 10
184.8269
 20
94.3357
  0
VERTEX
  8
LAYER_2
 10
184.5489
 20
94.3357
  0
VERTEX
  8
LAYER_2
 10
184.5489
 20
94.614
  0
SEQEND
  0
POLYLINE
  8
LAYER_2
  6
AIGENLINE005
 40
0.1376
 41
0.1376
 66
1
 10
0
 20
0
 30
0
 70
128
  0
VERTEX
  8
LAYER_2
 10
184.671
 20
93.9928
  0
VERTEX
  8
LAYER_2
 10
184.671
 20
94.1776
  0
SEQEND
  0
POLYLINE
  8
LAYER_2
  6
AIGENLINE006
 40
0.1376
 41
0.1376
 66
1
 10
0
 20
0
 30
0
 70
128
  0
VERTEX
  8
LAYER_2
 10
184.671
 20
93.9928
 42
0.3919458774
  0
VERTEX
  8
LAYER_2
 10
184.7863
 20
93.9723
  0
VERTEX
  8
LAYER_2
 10
184.8068
 20
93.9928
  0
SEQEND
  0
POLYLINE
  8
LAYER_2
  6
AIGENLINE007
 40
0.1376
 41
0.1376
 66
1
 10
0
 20
0
 30
0
 70
128
  0
VERTEX
  8
LAYER_2
 10
184.739
 20
93.9572
  0
VERTEX
  8
LAYER_2
 10
185.1472
 20
93.9572
  0
SEQEND
  0
POLYLINE
  8
LAYER_2
  6
AIGENLINE006
 40
0.1376
 41
0.1376
 66
1
 10
0
 20
0
 30
0
 70
128
  0
VERTEX
  8
LAYER_2
 10
185.0791
 20
93.9928
 42
0.3907650546
  0
VERTEX
  8
LAYER_2
 10
185.1948
 20
93.9723
  0
VERTEX
  8
LAYER_2
 10
185.2153
 20
93.9928
  0
SEQEND
  0
INSERT
  8
LAYER_2
  2
AIGNBL02010030
 10
0
 20
0
 30
0
  0
POLYLINE
  8
LAYER_2
  6
AIGENLINE008
 40
0.1376
 41
0.1376
 66
1
 10
0
 20
0
 30
0
 70
128
  0
VERTEX
  8
LAYER_2
 10
184.8068
 20
93.9928
 42
0.254934708
  0
VERTEX
  8
LAYER_2
 10
185.0791
 20
93.9928
  0
SEQEND
  0
POLYLINE
  8
LAYER_2
  6
AIGENLINE005
 40
0.1376
 41
0.1376
 66
1
 10
0
 20
0
 30
0
 70
128
  0
VERTEX
  8
LAYER_2
 10
185.2153
 20
94.178
  0
VERTEX
  8
LAYER_2
 10
185.2153
 20
93.9928
  0
SEQEND
  0
POLYLINE
  8
LAYER_2
  6
AIGENLINE009
 40
0.1376
 41
0.1376
 66
1
 10
0
 20
0
 30
0
 70
128
  0
VERTEX
  8
LAYER_2
 10
185.2153
 20
94.1738
  0
VERTEX
  8
LAYER_2
 10
185.2121
 20
94.178
  0
SEQEND
  0
POLYLINE
  8
LAYER_2
  6
AIGENLINE010
 40
0.1376
 41
0.1376
 66
1
 10
0
 20
0
 30
0
 70
128
  0
VERTEX
  8
LAYER_2
 10
184.8322
 20
94.178
  0
VERTEX
  8
LAYER_2
 10
185.0541
 20
94.178
  0
SEQEND
  0
POLYLINE
  8
LAYER_2
  6
AIGENLINE009
 40
0.1376
 41
0.1376
 66
1
 10
0
 20
0
 30
0
 70
128
  0
VERTEX
  8
LAYER_2
 10
184.8068
 20
94.1738
  0
VERTEX
  8
LAYER_2
 10
184.8036
 20
94.178
  0
SEQEND
  0
INSERT
  8
LAYER_2
  2
AIGNBL02010031
 10
0
 20
0
 30
0
  0
POLYLINE
  8
LAYER_2
  6
AIGENLINE011
 40
0.1376
 41
0.1376
 66
1
 10
0
 20
0
 30
0
 70
128
  0
VERTEX
  8
LAYER_2
 10
185.0826
 20
94.178
  0
VERTEX
  8
LAYER_2
 10
185.0795
 20
94.1738
  0
SEQEND
  0
POLYLINE
  8
LAYER_2
  6
AIGENLINE012
 40
0.1376
 41
0.1376
 66
1
 10
0
 20
0
 30
0
 70
128
  0
VERTEX
  8
LAYER_2
 10
184.671
 20
94.178
  0
VERTEX
  8
LAYER_2
 10
185.2153
 20
94.178
  0
SEQEND
  0
POLYLINE
  8
LAYER_2
  6
AIGENLINE009
 40
0.1376
 41
0.1376
 66
1
 10
0
 20
0
 30
0
 70
128
  0
VERTEX
  8
LAYER_2
 10
184.6738
 20
94.178
  0
VERTEX
  8
LAYER_2
 10
184.6706
 20
94.1738
  0
SEQEND
  0
POLYLINE
  8
LAYER_2
 40
0.1376
 41
0.1376
 66
1
 10
0
 20
0
 30
0
  0
VERTEX
  8
LAYER_2
 10
184.7853
 20
94.178
  0
VERTEX
  8
LAYER_2
 10
184.7853
 20
94.456
  0
SEQEND
  0
POLYLINE
  8
LAYER_2
  6
AIGENLINE048
 40
0.1376
 41
0.1376
 66
1
 10
0
 20
0
 30
0
 70
128
  0
VERTEX
  8
LAYER_2
 10
184.7853
 20
94.8458
  0
VERTEX
  8
LAYER_2
 10
184.7853
 20
94.8634
  0
VERTEX
  8
LAYER_2
 10
184.8325
 20
94.9107
  0
VERTEX
  8
LAYER_2
 10
185.0534
 20
94.9107
  0
VERTEX
  8
LAYER_2
 10
185.1006
 20
94.8634
  0
VERTEX
  8
LAYER_2
 10
185.1006
 20
94.6511
  0
SEQEND
  0
POLYLINE
  8
LAYER_2
 40
0.1376
 41
0.1376
 66
1
 10
0
 20
0
 30
0
  0
VERTEX
  8
LAYER_2
 10
185.1006
 20
94.456
  0
VERTEX
  8
LAYER_2
 10
185.1006
 20
94.1776
  0
SEQEND
  0
POLYLINE
  8
LAYER_2
 40
0.1376
 41
0.1376
 66
1
 10
0
 20
0
 30
0
  0
VERTEX
  8
LAYER_2
 10
184.817
 20
94.178
  0
VERTEX
  8
LAYER_2
 10
184.817
 20
94.456
  0
SEQEND
  0
POLYLINE
  8
LAYER_2
 40
0.1376
 41
0.1376
 66
1
 10
0
 20
0
 30
0
  0
VERTEX
  8
LAYER_2
 10
184.817
 20
94.5851
  0
VERTEX
  8
LAYER_2
 10
184.817
 20
94.8634
  0
SEQEND
  0
POLYLINE
  8
LAYER_2
 40
0.1376
 41
0.1376
 66
1
 10
0
 20
0
 30
0
  0
VERTEX
  8
LAYER_2
 10
185.0692
 20
94.178
  0
VERTEX
  8
LAYER_2
 10
185.0692
 20
94.456
  0
SEQEND
  0
POLYLINE
  8
LAYER_2
 40
0.1376
 41
0.1376
 66
1
 10
0
 20
0
 30
0
  0
VERTEX
  8
LAYER_2
 10
185.0692
 20
94.5851
  0
VERTEX
  8
LAYER_2
 10
185.0692
 20
94.8634
  0
SEQEND
  0
POLYLINE
  8
LAYER_2
  6
AIGENLINE013
 40
0.1376
 41
0.1376
 66
1
 10
0
 20
0
 30
0
 70
128
  0
VERTEX
  8
LAYER_2
 10
184.7853
 20
94.8634
  0
VERTEX
  8
LAYER_2
 10
185.1006
 20
94.8634
  0
SEQEND
  0
POLYLINE
  8
LAYER_2
 40
0.1376
 41
0.1376
 66
1
 10
0
 20
0
 30
0
  0
VERTEX
  8
LAYER_2
 10
184.7263
 20
94.1762
  0
VERTEX
  8
LAYER_2
 10
184.448
 20
94.1762
  0
VERTEX
  8
LAYER_2
 10
184.448
 20
94.3339
  0
VERTEX
  8
LAYER_2
 10
184.7263
 20
94.3339
  0
SEQEND
  0
POLYLINE
  8
LAYER_2
 40
0.1376
 41
0.1376
 66
1
 10
0
 20
0
 30
0
  0
VERTEX
  8
LAYER_2
 10
185.1603
 20
94.3339
  0
VERTEX
  8
LAYER_2
 10
185.4382
 20
94.3339
  0
VERTEX
  8
LAYER_2
 10
185.4382
 20
94.1766
  0
VERTEX
  8
LAYER_2
 10
185.1603
 20
94.1766
  0
SEQEND
  0
INSERT
  8
LAYER_2
  2
AIGNBL02010032
 10
0
 20
0
 30
0
  0
POLYLINE
  8
LAYER_2
 40
0.067
 41
0.067
 66
1
 10
0
 20
0
 30
0
  0
VERTEX
  8
LAYER_2
 10
32.6643
 20
71.5233
  0
VERTEX
  8
LAYER_2
 10
32.6643
 20
68.791
  0
SEQEND
  0
POLYLINE
  8
LAYER_2
 40
0.067
 41
0.067
 66
1
 10
0
 20
0
 30
0
  0
VERTEX
  8
LAYER_2
 10
118.9315
 20
71.5233
  0
VERTEX
  8
LAYER_2
 10
118.9315
 20
68.791
  0
SEQEND
  0
POLYLINE
  8
LAYER_2
 40
0.067
 41
0.067
 66
1
 10
0
 20
0
 30
0
  0
VERTEX
  8
LAYER_2
 10
33.4524
 20
68.8055
  0
VERTEX
  8
LAYER_2
 10
74.6508
 20
68.8055
  0
SEQEND
  0
POLYLINE
  8
LAYER_2
 40
0.067
 41
0.067
 66
1
 10
0
 20
0
 30
0
  0
VERTEX
  8
LAYER_2
 10
118.1431
 20
68.8055
  0
VERTEX
  8
LAYER_2
 10
79.4476
 20
68.8055
  0
SEQEND
  0
POLYLINE
  8
LAYER_2
 40
0.05
 41
0.05
 66
1
 10
0
 20
0
 30
0
  0
VERTEX
  8
LAYER_2
 10
32.6643
 20
68.8055
  0
VERTEX
  8
LAYER_2
 10
33.4527
 20
68.6739
  0
VERTEX
  8
LAYER_2
 10
33.4527
 20
68.9367
  0
SEQEND
  0
POLYLINE
  8
LAYER_2
 40
0.05
 41
0.05
 66
1
 10
0
 20
0
 30
0
  0
VERTEX
  8
LAYER_2
 10
118.1431
 20
68.6743
  0
VERTEX
  8
LAYER_2
 10
118.9315
 20
68.8055
  0
VERTEX
  8
LAYER_2
 10
118.1431
 20
68.9367
  0
SEQEND
  0
TEXT
  8
LAYER_2
 10
74.7883
 20
68.4372
 11
74.7883
 21
68.4372
 40
2.306
 41
0.5
  1
1100
  0
POLYLINE
  8
LAYER_2
 40
0.067
 41
0.067
 66
1
 10
0
 20
0
 30
0
  0
VERTEX
  8
LAYER_2
 10
31.8152
 20
137.6543
  0
VERTEX
  8
LAYER_2
 10
25.9086
 20
137.6543
  0
SEQEND
  0
POLYLINE
  8
LAYER_2
 40
0.067
 41
0.067
 66
1
 10
0
 20
0
 30
0
  0
VERTEX
  8
LAYER_2
 10
31.1625
 20
123.4663
  0
VERTEX
  8
LAYER_2
 10
25.9086
 20
123.4663
  0
SEQEND
  0
POLYLINE
  8
LAYER_2
 40
0.067
 41
0.067
 66
1
 10
0
 20
0
 30
0
  0
VERTEX
  8
LAYER_2
 10
25.9231
 20
136.8662
  0
VERTEX
  8
LAYER_2
 10
25.9231
 20
133.4125
  0
SEQEND
  0
POLYLINE
  8
LAYER_2
 40
0.067
 41
0.067
 66
1
 10
0
 20
0
 30
0
  0
VERTEX
  8
LAYER_2
 10
25.9231
 20
124.2548
  0
VERTEX
  8
LAYER_2
 10
25.9231
 20
129.6604
  0
SEQEND
  0
POLYLINE
  8
LAYER_2
 40
0.05
 41
0.05
 66
1
 10
0
 20
0
 30
0
  0
VERTEX
  8
LAYER_2
 10
25.7918
 20
136.8662
  0
VERTEX
  8
LAYER_2
 10
26.0546
 20
136.8662
  0
VERTEX
  8
LAYER_2
 10
25.9231
 20
137.6543
  0
SEQEND
  0
POLYLINE
  8
LAYER_2
 40
0.05
 41
0.05
 66
1
 10
0
 20
0
 30
0
  0
VERTEX
  8
LAYER_2
 10
25.7918
 20
124.2548
  0
VERTEX
  8
LAYER_2
 10
25.9231
 20
123.4663
  0
VERTEX
  8
LAYER_2
 10
26.0546
 20
124.2548
  0
SEQEND
  0
TEXT
  8
LAYER_2
 10
26.2909
 20
129.7991
 11
26.2909
 21
129.7991
 40
2.306
 41
0.5
 50
89.99999999
  1
180
  0
POLYLINE
  8
LAYER_2
 40
0.067
 41
0.067
 66
1
 10
0
 20
0
 30
0
  0
VERTEX
  8
LAYER_2
 10
32.4459
 20
138.0089
  0
VERTEX
  8
LAYER_2
 10
32.4459
 20
141.8467
  0
SEQEND
  0
POLYLINE
  8
LAYER_2
 40
0.067
 41
0.067
 66
1
 10
0
 20
0
 30
0
  0
VERTEX
  8
LAYER_2
 10
119.1499
 20
138.0089
  0
VERTEX
  8
LAYER_2
 10
119.1499
 20
141.8467
  0
SEQEND
  0
POLYLINE
  8
LAYER_2
 40
0.067
 41
0.067
 66
1
 10
0
 20
0
 30
0
  0
VERTEX
  8
LAYER_2
 10
33.2344
 20
141.8323
  0
VERTEX
  8
LAYER_2
 10
74.6501
 20
141.8323
  0
SEQEND
  0
POLYLINE
  8
LAYER_2
 40
0.067
 41
0.067
 66
1
 10
0
 20
0
 30
0
  0
VERTEX
  8
LAYER_2
 10
118.3614
 20
141.8323
  0
VERTEX
  8
LAYER_2
 10
79.1703
 20
141.8323
  0
SEQEND
  0
POLYLINE
  8
LAYER_2
 40
0.05
 41
0.05
 66
1
 10
0
 20
0
 30
0
  0
VERTEX
  8
LAYER_2
 10
32.4456
 20
141.8323
  0
VERTEX
  8
LAYER_2
 10
33.234
 20
141.7007
  0
VERTEX
  8
LAYER_2
 10
33.234
 20
141.9642
  0
SEQEND
  0
POLYLINE
  8
LAYER_2
 40
0.05
 41
0.05
 66
1
 10
0
 20
0
 30
0
  0
VERTEX
  8
LAYER_2
 10
118.3614
 20
141.701
  0
VERTEX
  8
LAYER_2
 10
119.1499
 20
141.833
  0
VERTEX
  8
LAYER_2
 10
118.3614
 20
141.9635
  0
SEQEND
  0
TEXT
  8
LAYER_2
 10
74.7879
 20
141.4643
 11
74.7879
 21
141.4643
 40
2.306
 41
0.5
  1
1100
  0
POLYLINE
  8
LAYER_2
 40
0.067
 41
0.067
 66
1
 10
0
 20
0
 30
0
  0
VERTEX
  8
LAYER_2
 10
36.3879
 20
95.8791
  0
VERTEX
  8
LAYER_2
 10
36.3879
 20
98.1739
  0
SEQEND
  0
POLYLINE
  8
LAYER_2
 40
0.067
 41
0.067
 66
1
 10
0
 20
0
 30
0
  0
VERTEX
  8
LAYER_2
 10
115.2094
 20
95.8791
  0
VERTEX
  8
LAYER_2
 10
115.2094
 20
98.1739
  0
SEQEND
  0
POLYLINE
  8
LAYER_2
 40
0.067
 41
0.067
 66
1
 10
0
 20
0
 30
0
  0
VERTEX
  8
LAYER_2
 10
37.176
 20
98.1594
  0
VERTEX
  8
LAYER_2
 10
74.6494
 20
98.1594
  0
SEQEND
  0
POLYLINE
  8
LAYER_2
 40
0.067
 41
0.067
 66
1
 10
0
 20
0
 30
0
  0
VERTEX
  8
LAYER_2
 10
114.4212
 20
98.1594
  0
VERTEX
  8
LAYER_2
 10
79.1699
 20
98.1594
  0
SEQEND
  0
POLYLINE
  8
LAYER_2
 40
0.05
 41
0.05
 66
1
 10
0
 20
0
 30
0
  0
VERTEX
  8
LAYER_2
 10
36.3879
 20
98.1598
  0
VERTEX
  8
LAYER_2
 10
37.1763
 20
98.0282
  0
VERTEX
  8
LAYER_2
 10
37.1763
 20
98.291
  0
SEQEND
  0
POLYLINE
  8
LAYER_2
 40
0.05
 41
0.05
 66
1
 10
0
 20
0
 30
0
  0
VERTEX
  8
LAYER_2
 10
114.4216
 20
98.0286
  0
VERTEX
  8
LAYER_2
 10
115.2101
 20
98.1598
  0
VERTEX
  8
LAYER_2
 10
114.4216
 20
98.291
  0
SEQEND
  0
TEXT
  8
LAYER_2
 10
74.7879
 20
97.7915
 11
74.7879
 21
97.7915
 40
2.306
 41
0.5
  1
1000
  0
POLYLINE
  8
LAYER_2
 40
0.067
 41
0.067
 66
1
 10
0
 20
0
 30
0
  0
VERTEX
  8
LAYER_2
 10
118.4796
 20
137.654
  0
VERTEX
  8
LAYER_2
 10
123.8866
 20
137.654
  0
SEQEND
  0
POLYLINE
  8
LAYER_2
 40
0.067
 41
0.067
 66
1
 10
0
 20
0
 30
0
  0
VERTEX
  8
LAYER_2
 10
120.966
 20
72.1982
  0
VERTEX
  8
LAYER_2
 10
123.887
 20
72.1982
  0
SEQEND
  0
POLYLINE
  8
LAYER_2
 40
0.067
 41
0.067
 66
1
 10
0
 20
0
 30
0
  0
VERTEX
  8
LAYER_2
 10
123.8729
 20
136.8655
  0
VERTEX
  8
LAYER_2
 10
123.8729
 20
107.5275
  0
SEQEND
  0
POLYLINE
  8
LAYER_2
 40
0.067
 41
0.067
 66
1
 10
0
 20
0
 30
0
  0
VERTEX
  8
LAYER_2
 10
123.8729
 20
72.9866
  0
VERTEX
  8
LAYER_2
 10
123.8729
 20
103.993
  0
SEQEND
  0
POLYLINE
  8
LAYER_2
 40
0.05
 41
0.05
 66
1
 10
0
 20
0
 30
0
  0
VERTEX
  8
LAYER_2
 10
123.7413
 20
136.8655
  0
VERTEX
  8
LAYER_2
 10
124.0037
 20
136.8655
  0
VERTEX
  8
LAYER_2
 10
123.8732
 20
137.654
  0
SEQEND
  0
POLYLINE
  8
LAYER_2
 40
0.05
 41
0.05
 66
1
 10
0
 20
0
 30
0
  0
VERTEX
  8
LAYER_2
 10
123.7413
 20
72.9866
  0
VERTEX
  8
LAYER_2
 10
123.8732
 20
72.1982
  0
VERTEX
  8
LAYER_2
 10
124.0037
 20
72.9866
  0
SEQEND
  0
TEXT
  8
LAYER_2
 10
124.2405
 20
104.1921
 11
124.2405
 21
104.1921
 40
2.306
 41
0.5
 50
89.99999999
  1
830
  0
POLYLINE
  8
LAYER_2
 40
0.067
 41
0.067
 66
1
 10
0
 20
0
 30
0
  0
VERTEX
  8
LAYER_2
 10
115.0146
 20
95.485
  0
VERTEX
  8
LAYER_2
 10
119.5062
 20
95.485
  0
SEQEND
  0
POLYLINE
  8
LAYER_2
 40
0.067
 41
0.067
 66
1
 10
0
 20
0
 30
0
  0
VERTEX
  8
LAYER_2
 10
113.7062
 20
94.3029
  0
VERTEX
  8
LAYER_2
 10
119.5062
 20
94.3029
  0
SEQEND
  0
POLYLINE
  8
LAYER_2
 40
0.067
 41
0.067
 66
1
 10
0
 20
0
 30
0
  0
VERTEX
  8
LAYER_2
 10
119.4921
 20
96.2731
  0
VERTEX
  8
LAYER_2
 10
119.4921
 20
97.0616
  0
SEQEND
  0
POLYLINE
  8
LAYER_2
 40
0.067
 41
0.067
 66
1
 10
0
 20
0
 30
0
  0
VERTEX
  8
LAYER_2
 10
119.4921
 20
93.5144
  0
VERTEX
  8
LAYER_2
 10
119.4921
 20
92.726
  0
SEQEND
  0
POLYLINE
  8
LAYER_2
 40
0.067
 41
0.067
 66
1
 10
0
 20
0
 30
0
  0
VERTEX
  8
LAYER_2
 10
119.4921
 20
92.7263
  0
VERTEX
  8
LAYER_2
 10
120.0939
 20
92.7263
  0
SEQEND
  0
POLYLINE
  8
LAYER_2
 40
0.05
 41
0.05
 66
1
 10
0
 20
0
 30
0
  0
VERTEX
  8
LAYER_2
 10
119.3605
 20
96.2731
  0
VERTEX
  8
LAYER_2
 10
119.4921
 20
95.485
  0
VERTEX
  8
LAYER_2
 10
119.623
 20
96.2731
  0
SEQEND
  0
POLYLINE
  8
LAYER_2
 40
0.05
 41
0.05
 66
1
 10
0
 20
0
 30
0
  0
VERTEX
  8
LAYER_2
 10
119.3605
 20
93.5148
  0
VERTEX
  8
LAYER_2
 10
119.623
 20
93.5148
  0
VERTEX
  8
LAYER_2
 10
119.4921
 20
94.3032
  0
SEQEND
  0
TEXT
  8
LAYER_2
 10
120.0244
 20
92.0799
 11
120.0244
 21
92.0799
 40
2.306
 41
0.5
  1
15
  0
POLYLINE
  8
LAYER_2
 40
0.067
 41
0.067
 66
1
 10
0
 20
0
 30
0
  0
VERTEX
  8
LAYER_2
 10
44.2252
 20
94.2683
  0
VERTEX
  8
LAYER_2
 10
42.4468
 20
94.2683
  0
SEQEND
  0
POLYLINE
  8
LAYER_2
 40
0.067
 41
0.067
 66
1
 10
0
 20
0
 30
0
  0
VERTEX
  8
LAYER_2
 10
44.2252
 20
91.9036
  0
VERTEX
  8
LAYER_2
 10
42.4468
 20
91.9036
  0
SEQEND
  0
POLYLINE
  8
LAYER_2
 40
0.067
 41
0.067
 66
1
 10
0
 20
0
 30
0
  0
VERTEX
  8
LAYER_2
 10
42.4609
 20
93.4798
  0
VERTEX
  8
LAYER_2
 10
42.4609
 20
92.6917
  0
SEQEND
  0
POLYLINE
  8
LAYER_2
 40
0.067
 41
0.067
 66
1
 10
0
 20
0
 30
0
  0
VERTEX
  8
LAYER_2
 10
42.4609
 20
91.9036
  0
VERTEX
  8
LAYER_2
 10
42.4609
 20
91.1152
  0
SEQEND
  0
POLYLINE
  8
LAYER_2
 40
0.067
 41
0.067
 66
1
 10
0
 20
0
 30
0
  0
VERTEX
  8
LAYER_2
 10
42.4609
 20
91.1155
  0
VERTEX
  8
LAYER_2
 10
41.6728
 20
91.1155
  0
SEQEND
  0
POLYLINE
  8
LAYER_2
 40
0.05
 41
0.05
 66
1
 10
0
 20
0
 30
0
  0
VERTEX
  8
LAYER_2
 10
42.3301
 20
93.4802
  0
VERTEX
  8
LAYER_2
 10
42.5929
 20
93.4802
  0
VERTEX
  8
LAYER_2
 10
42.4616
 20
94.2687
  0
SEQEND
  0
POLYLINE
  8
LAYER_2
 40
0.05
 41
0.05
 66
1
 10
0
 20
0
 30
0
  0
VERTEX
  8
LAYER_2
 10
42.3301
 20
92.6921
  0
VERTEX
  8
LAYER_2
 10
42.4616
 20
91.9036
  0
VERTEX
  8
LAYER_2
 10
42.5929
 20
92.6921
  0
SEQEND
  0
TEXT
  8
LAYER_2
 10
39.3837
 20
89.9132
 11
39.3837
 21
89.9132
 40
2.306
 41
0.5
  1
30
  0
POLYLINE
  8
LAYER_2
 40
0.067
 41
0.067
 66
1
 10
0
 20
0
 30
0
  0
VERTEX
  8
LAYER_2
 10
167.8128
 20
94.2683
  0
VERTEX
  8
LAYER_2
 10
166.0344
 20
94.2683
  0
SEQEND
  0
POLYLINE
  8
LAYER_2
 40
0.067
 41
0.067
 66
1
 10
0
 20
0
 30
0
  0
VERTEX
  8
LAYER_2
 10
167.8128
 20
91.9036
  0
VERTEX
  8
LAYER_2
 10
166.0344
 20
91.9036
  0
SEQEND
  0
POLYLINE
  8
LAYER_2
 40
0.067
 41
0.067
 66
1
 10
0
 20
0
 30
0
  0
VERTEX
  8
LAYER_2
 10
166.0485
 20
93.4798
  0
VERTEX
  8
LAYER_2
 10
166.0485
 20
92.6917
  0
SEQEND
  0
POLYLINE
  8
LAYER_2
 40
0.067
 41
0.067
 66
1
 10
0
 20
0
 30
0
  0
VERTEX
  8
LAYER_2
 10
166.0485
 20
91.9036
  0
VERTEX
  8
LAYER_2
 10
166.0485
 20
91.1152
  0
SEQEND
  0
POLYLINE
  8
LAYER_2
 40
0.067
 41
0.067
 66
1
 10
0
 20
0
 30
0
  0
VERTEX
  8
LAYER_2
 10
166.0485
 20
91.1155
  0
VERTEX
  8
LAYER_2
 10
165.26
 20
91.1155
  0
SEQEND
  0
POLYLINE
  8
LAYER_2
 40
0.05
 41
0.05
 66
1
 10
0
 20
0
 30
0
  0
VERTEX
  8
LAYER_2
 10
165.9173
 20
93.4802
  0
VERTEX
  8
LAYER_2
 10
166.1797
 20
93.4802
  0
VERTEX
  8
LAYER_2
 10
166.0492
 20
94.2687
  0
SEQEND
  0
POLYLINE
  8
LAYER_2
 40
0.05
 41
0.05
 66
1
 10
0
 20
0
 30
0
  0
VERTEX
  8
LAYER_2
 10
165.9173
 20
92.6921
  0
VERTEX
  8
LAYER_2
 10
166.0492
 20
91.9036
  0
VERTEX
  8
LAYER_2
 10
166.1797
 20
92.6921
  0
SEQEND
  0
TEXT
  8
LAYER_2
 10
162.9713
 20
89.9132
 11
162.9713
 21
89.9132
 40
2.306
 41
0.5
  1
30
  0
POLYLINE
  8
LAYER_2
 40
0.067
 41
0.067
 66
1
 10
0
 20
0
 30
0
  0
VERTEX
  8
LAYER_2
 10
100.3027
 20
91.9036
  0
VERTEX
  8
LAYER_2
 10
104.9432
 20
91.9036
  0
SEQEND
  0
POLYLINE
  8
LAYER_2
 40
0.067
 41
0.067
 66
1
 10
0
 20
0
 30
0
  0
VERTEX
  8
LAYER_2
 10
100.3027
 20
72.1982
  0
VERTEX
  8
LAYER_2
 10
104.9432
 20
72.1982
  0
SEQEND
  0
POLYLINE
  8
LAYER_2
 40
0.067
 41
0.067
 66
1
 10
0
 20
0
 30
0
  0
VERTEX
  8
LAYER_2
 10
104.9291
 20
91.1155
  0
VERTEX
  8
LAYER_2
 10
104.9291
 20
84.6572
  0
SEQEND
  0
POLYLINE
  8
LAYER_2
 40
0.067
 41
0.067
 66
1
 10
0
 20
0
 30
0
  0
VERTEX
  8
LAYER_2
 10
104.9291
 20
72.9866
  0
VERTEX
  8
LAYER_2
 10
104.9291
 20
81.1129
  0
SEQEND
  0
POLYLINE
  8
LAYER_2
 40
0.05
 41
0.05
 66
1
 10
0
 20
0
 30
0
  0
VERTEX
  8
LAYER_2
 10
104.7985
 20
91.1155
  0
VERTEX
  8
LAYER_2
 10
105.0606
 20
91.1155
  0
VERTEX
  8
LAYER_2
 10
104.9294
 20
91.904
  0
SEQEND
  0
POLYLINE
  8
LAYER_2
 40
0.05
 41
0.05
 66
1
 10
0
 20
0
 30
0
  0
VERTEX
  8
LAYER_2
 10
104.7985
 20
72.9866
  0
VERTEX
  8
LAYER_2
 10
104.9294
 20
72.1982
  0
VERTEX
  8
LAYER_2
 10
105.0606
 20
72.9866
  0
SEQEND
  0
TEXT
  8
LAYER_2
 10
105.2977
 20
81.3217
 11
105.2977
 21
81.3217
 40
2.306
 41
0.5
 50
89.99999999
  1
250
  0
POLYLINE
  8
LAYER_2
 40
0.067
 41
0.067
 66
1
 10
0
 20
0
 30
0
  0
VERTEX
  8
LAYER_2
 10
74.6413
 20
126.2296
  0
VERTEX
  8
LAYER_2
 10
75.4153
 20
126.2296
  0
SEQEND
  0
POLYLINE
  8
LAYER_2
 40
0.067
 41
0.067
 66
1
 10
0
 20
0
 30
0
  0
VERTEX
  8
LAYER_2
 10
74.6413
 20
137.6543
  0
VERTEX
  8
LAYER_2
 10
75.4153
 20
137.6543
  0
SEQEND
  0
POLYLINE
  8
LAYER_2
 40
0.067
 41
0.067
 66
1
 10
0
 20
0
 30
0
  0
VERTEX
  8
LAYER_2
 10
75.4294
 20
127.0177
  0
VERTEX
  8
LAYER_2
 10
75.4294
 20
129.9246
  0
SEQEND
  0
POLYLINE
  8
LAYER_2
 40
0.067
 41
0.067
 66
1
 10
0
 20
0
 30
0
  0
VERTEX
  8
LAYER_2
 10
75.4294
 20
136.8662
  0
VERTEX
  8
LAYER_2
 10
75.4294
 20
133.681
  0
SEQEND
  0
POLYLINE
  8
LAYER_2
 40
0.05
 41
0.05
 66
1
 10
0
 20
0
 30
0
  0
VERTEX
  8
LAYER_2
 10
75.2982
 20
127.0177
  0
VERTEX
  8
LAYER_2
 10
75.4298
 20
126.2293
  0
VERTEX
  8
LAYER_2
 10
75.561
 20
127.0177
  0
SEQEND
  0
POLYLINE
  8
LAYER_2
 40
0.05
 41
0.05
 66
1
 10
0
 20
0
 30
0
  0
VERTEX
  8
LAYER_2
 10
75.2982
 20
136.8662
  0
VERTEX
  8
LAYER_2
 10
75.561
 20
136.8662
  0
VERTEX
  8
LAYER_2
 10
75.4298
 20
137.6543
  0
SEQEND
  0
TEXT
  8
LAYER_2
 10
75.7978
 20
130.0636
 11
75.7978
 21
130.0636
 40
2.306
 41
0.5
 50
89.99999999
  1
145
  0
POLYLINE
  8
LAYER_2
 40
0.067
 41
0.067
 66
1
 10
0
 20
0
 30
0
  0
VERTEX
  8
LAYER_2
 10
177.9096
 20
72.1982
  0
VERTEX
  8
LAYER_2
 10
176.9292
 20
72.1982
  0
SEQEND
  0
POLYLINE
  8
LAYER_2
 40
0.067
 41
0.067
 66
1
 10
0
 20
0
 30
0
  0
VERTEX
  8
LAYER_2
 10
177.9096
 20
91.9036
  0
VERTEX
  8
LAYER_2
 10
176.9292
 20
91.9036
  0
SEQEND
  0
POLYLINE
  8
LAYER_2
 40
0.067
 41
0.067
 66
1
 10
0
 20
0
 30
0
  0
VERTEX
  8
LAYER_2
 10
176.9433
 20
72.9866
  0
VERTEX
  8
LAYER_2
 10
176.9433
 20
81.1129
  0
SEQEND
  0
POLYLINE
  8
LAYER_2
 40
0.067
 41
0.067
 66
1
 10
0
 20
0
 30
0
  0
VERTEX
  8
LAYER_2
 10
176.9433
 20
91.1155
  0
VERTEX
  8
LAYER_2
 10
176.9433
 20
84.6572
  0
SEQEND
  0
POLYLINE
  8
LAYER_2
 40
0.05
 41
0.05
 66
1
 10
0
 20
0
 30
0
  0
VERTEX
  8
LAYER_2
 10
176.8121
 20
72.9866
  0
VERTEX
  8
LAYER_2
 10
176.9437
 20
72.1982
  0
VERTEX
  8
LAYER_2
 10
177.0746
 20
72.9866
  0
SEQEND
  0
POLYLINE
  8
LAYER_2
 40
0.05
 41
0.05
 66
1
 10
0
 20
0
 30
0
  0
VERTEX
  8
LAYER_2
 10
176.8121
 20
91.1155
  0
VERTEX
  8
LAYER_2
 10
177.0746
 20
91.1155
  0
VERTEX
  8
LAYER_2
 10
176.9437
 20
91.904
  0
SEQEND
  0
TEXT
  8
LAYER_2
 10
177.3118
 20
81.3222
 11
177.3118
 21
81.3222
 40
2.306
 41
0.5
 50
89.99999999
  1
250
  0
POLYLINE
  8
LAYER_2
 40
0.067
 41
0.067
 66
1
 10
0
 20
0
 30
0
  0
VERTEX
  8
LAYER_2
 10
156.527
 20
137.654
  0
VERTEX
  8
LAYER_2
 10
145.5532
 20
137.654
  0
SEQEND
  0
POLYLINE
  8
LAYER_2
 40
0.067
 41
0.067
 66
1
 10
0
 20
0
 30
0
  0
VERTEX
  8
LAYER_2
 10
155.189
 20
72.1982
  0
VERTEX
  8
LAYER_2
 10
145.5532
 20
72.1982
  0
SEQEND
  0
POLYLINE
  8
LAYER_2
 40
0.067
 41
0.067
 66
1
 10
0
 20
0
 30
0
  0
VERTEX
  8
LAYER_2
 10
145.5676
 20
136.8659
  0
VERTEX
  8
LAYER_2
 10
145.5676
 20
107.5278
  0
SEQEND
  0
POLYLINE
  8
LAYER_2
 40
0.067
 41
0.067
 66
1
 10
0
 20
0
 30
0
  0
VERTEX
  8
LAYER_2
 10
145.5676
 20
72.9866
  0
VERTEX
  8
LAYER_2
 10
145.5676
 20
103.9933
  0
SEQEND
  0
POLYLINE
  8
LAYER_2
 40
0.05
 41
0.05
 66
1
 10
0
 20
0
 30
0
  0
VERTEX
  8
LAYER_2
 10
145.4357
 20
136.8659
  0
VERTEX
  8
LAYER_2
 10
145.6985
 20
136.8659
  0
VERTEX
  8
LAYER_2
 10
145.5676
 20
137.654
  0
SEQEND
  0
POLYLINE
  8
LAYER_2
 40
0.05
 41
0.05
 66
1
 10
0
 20
0
 30
0
  0
VERTEX
  8
LAYER_2
 10
145.4357
 20
72.9866
  0
VERTEX
  8
LAYER_2
 10
145.5676
 20
72.1982
  0
VERTEX
  8
LAYER_2
 10
145.6985
 20
72.9866
  0
SEQEND
  0
TEXT
  8
LAYER_2
 10
145.9354
 20
104.1921
 11
145.9354
 21
104.1921
 40
2.306
 41
0.5
 50
89.99999999
  1
830
  0
POLYLINE
  8
LAYER_2
 40
0.067
 41
0.067
 66
1
 10
0
 20
0
 30
0
  0
VERTEX
  8
LAYER_2
 10
199.7212
 20
138.0089
  0
VERTEX
  8
LAYER_2
 10
199.7212
 20
140.092
  0
SEQEND
  0
POLYLINE
  8
LAYER_2
 40
0.067
 41
0.067
 66
1
 10
0
 20
0
 30
0
  0
VERTEX
  8
LAYER_2
 10
201.496
 20
138.0089
  0
VERTEX
  8
LAYER_2
 10
201.496
 20
140.092
  0
SEQEND
  0
POLYLINE
  8
LAYER_2
 40
0.067
 41
0.067
 66
1
 10
0
 20
0
 30
0
  0
VERTEX
  8
LAYER_2
 10
198.9327
 20
140.0779
  0
VERTEX
  8
LAYER_2
 10
198.1442
 20
140.0779
  0
SEQEND
  0
POLYLINE
  8
LAYER_2
 40
0.067
 41
0.067
 66
1
 10
0
 20
0
 30
0
  0
VERTEX
  8
LAYER_2
 10
202.2841
 20
140.0779
  0
VERTEX
  8
LAYER_2
 10
203.0722
 20
140.0779
  0
SEQEND
  0
POLYLINE
  8
LAYER_2
 40
0.05
 41
0.05
 66
1
 10
0
 20
0
 30
0
  0
VERTEX
  8
LAYER_2
 10
198.9327
 20
139.9467
  0
VERTEX
  8
LAYER_2
 10
199.7212
 20
140.0783
  0
VERTEX
  8
LAYER_2
 10
198.9327
 20
140.2091
  0
SEQEND
  0
POLYLINE
  8
LAYER_2
 40
0.05
 41
0.05
 66
1
 10
0
 20
0
 30
0
  0
VERTEX
  8
LAYER_2
 10
201.496
 20
140.0779
  0
VERTEX
  8
LAYER_2
 10
202.2844
 20
139.9463
  0
VERTEX
  8
LAYER_2
 10
202.2844
 20
140.2098
  0
SEQEND
  0
TEXT
  8
LAYER_2
 10
199.1503
 20
141.3089
 11
199.1503
 21
141.3089
 40
2.306
 41
0.5
  1
25
  0
POLYLINE
  8
LAYER_2
 40
0.067
 41
0.067
 66
1
 10
0
 20
0
 30
0
  0
VERTEX
  8
LAYER_2
 10
157.1575
 20
138.0089
  0
VERTEX
  8
LAYER_2
 10
157.1575
 20
140.092
  0
SEQEND
  0
POLYLINE
  8
LAYER_2
 40
0.067
 41
0.067
 66
1
 10
0
 20
0
 30
0
  0
VERTEX
  8
LAYER_2
 10
199.7212
 20
137.733
  0
VERTEX
  8
LAYER_2
 10
199.7212
 20
140.092
  0
SEQEND
  0
POLYLINE
  8
LAYER_2
 40
0.067
 41
0.067
 66
1
 10
0
 20
0
 30
0
  0
VERTEX
  8
LAYER_2
 10
157.9456
 20
140.0779
  0
VERTEX
  8
LAYER_2
 10
177.5064
 20
140.0779
  0
SEQEND
  0
POLYLINE
  8
LAYER_2
 40
0.067
 41
0.067
 66
1
 10
0
 20
0
 30
0
  0
VERTEX
  8
LAYER_2
 10
198.9327
 20
140.0779
  0
VERTEX
  8
LAYER_2
 10
181.0405
 20
140.0779
  0
SEQEND
  0
POLYLINE
  8
LAYER_2
 40
0.05
 41
0.05
 66
1
 10
0
 20
0
 30
0
  0
VERTEX
  8
LAYER_2
 10
157.1575
 20
140.0779
  0
VERTEX
  8
LAYER_2
 10
157.9459
 20
139.9463
  0
VERTEX
  8
LAYER_2
 10
157.9459
 20
140.2098
  0
SEQEND
  0
POLYLINE
  8
LAYER_2
 40
0.05
 41
0.05
 66
1
 10
0
 20
0
 30
0
  0
VERTEX
  8
LAYER_2
 10
198.9327
 20
139.9467
  0
VERTEX
  8
LAYER_2
 10
199.7212
 20
140.0783
  0
VERTEX
  8
LAYER_2
 10
198.9327
 20
140.2091
  0
SEQEND
  0
TEXT
  8
LAYER_2
 10
177.705
 20
139.71
 11
177.705
 21
139.71
 40
2.306
 41
0.5
  1
540
  0
POLYLINE
  8
LAYER_2
 40
0.067
 41
0.067
 66
1
 10
0
 20
0
 30
0
  0
VERTEX
  8
LAYER_2
 10
155.7795
 20
71.5233
  0
VERTEX
  8
LAYER_2
 10
155.7795
 20
68.319
  0
SEQEND
  0
POLYLINE
  8
LAYER_2
 40
0.067
 41
0.067
 66
1
 10
0
 20
0
 30
0
  0
VERTEX
  8
LAYER_2
 10
201.496
 20
71.5194
  0
VERTEX
  8
LAYER_2
 10
201.496
 20
68.3187
  0
SEQEND
  0
POLYLINE
  8
LAYER_2
 40
0.067
 41
0.067
 66
1
 10
0
 20
0
 30
0
  0
VERTEX
  8
LAYER_2
 10
156.5676
 20
68.3328
  0
VERTEX
  8
LAYER_2
 10
177.7046
 20
68.3328
  0
SEQEND
  0
POLYLINE
  8
LAYER_2
 40
0.067
 41
0.067
 66
1
 10
0
 20
0
 30
0
  0
VERTEX
  8
LAYER_2
 10
200.7079
 20
68.3328
  0
VERTEX
  8
LAYER_2
 10
181.2391
 20
68.3328
  0
SEQEND
  0
POLYLINE
  8
LAYER_2
 40
0.05
 41
0.05
 66
1
 10
0
 20
0
 30
0
  0
VERTEX
  8
LAYER_2
 10
155.7795
 20
68.3328
  0
VERTEX
  8
LAYER_2
 10
156.5676
 20
68.2012
  0
VERTEX
  8
LAYER_2
 10
156.5676
 20
68.4644
  0
SEQEND
  0
POLYLINE
  8
LAYER_2
 40
0.05
 41
0.05
 66
1
 10
0
 20
0
 30
0
  0
VERTEX
  8
LAYER_2
 10
200.7079
 20
68.2016
  0
VERTEX
  8
LAYER_2
 10
201.496
 20
68.3331
  0
VERTEX
  8
LAYER_2
 10
200.7079
 20
68.464
  0
SEQEND
  0
TEXT
  8
LAYER_2
 10
177.9034
 20
67.9649
 11
177.9034
 21
67.9649
 40
2.306
 41
0.5
  1
580
  0
POLYLINE
  8
LAYER_2
 40
0.067
 41
0.067
 66
1
 10
0
 20
0
 30
0
  0
VERTEX
  8
LAYER_2
 10
156.527
 20
137.654
  0
VERTEX
  8
LAYER_2
 10
150.1421
 20
137.654
  0
SEQEND
  0
POLYLINE
  8
LAYER_2
 40
0.067
 41
0.067
 66
1
 10
0
 20
0
 30
0
  0
VERTEX
  8
LAYER_2
 10
155.3159
 20
123.4663
  0
VERTEX
  8
LAYER_2
 10
150.1425
 20
123.4663
  0
SEQEND
  0
POLYLINE
  8
LAYER_2
 40
0.067
 41
0.067
 66
1
 10
0
 20
0
 30
0
  0
VERTEX
  8
LAYER_2
 10
150.1566
 20
136.8659
  0
VERTEX
  8
LAYER_2
 10
150.1566
 20
133.1314
  0
SEQEND
  0
POLYLINE
  8
LAYER_2
 40
0.067
 41
0.067
 66
1
 10
0
 20
0
 30
0
  0
VERTEX
  8
LAYER_2
 10
150.1566
 20
124.2548
  0
VERTEX
  8
LAYER_2
 10
150.1566
 20
129.6576
  0
SEQEND
  0
POLYLINE
  8
LAYER_2
 40
0.05
 41
0.05
 66
1
 10
0
 20
0
 30
0
  0
VERTEX
  8
LAYER_2
 10
150.0253
 20
136.8659
  0
VERTEX
  8
LAYER_2
 10
150.2875
 20
136.8659
  0
VERTEX
  8
LAYER_2
 10
150.1569
 20
137.654
  0
SEQEND
  0
POLYLINE
  8
LAYER_2
 40
0.05
 41
0.05
 66
1
 10
0
 20
0
 30
0
  0
VERTEX
  8
LAYER_2
 10
150.0253
 20
124.2548
  0
VERTEX
  8
LAYER_2
 10
150.1569
 20
123.4663
  0
VERTEX
  8
LAYER_2
 10
150.2875
 20
124.2548
  0
SEQEND
  0
TEXT
  8
LAYER_2
 10
150.5243
 20
129.796
 11
150.5243
 21
129.796
 40
2.306
 41
0.5
 50
89.99999999
  1
180
  0
POLYLINE
  8
LAYER_2
 40
0.067
 41
0.067
 66
1
 10
0
 20
0
 30
0
  0
VERTEX
  8
LAYER_2
 10
160.5247
 20
95.8791
  0
VERTEX
  8
LAYER_2
 10
160.5247
 20
98.5598
  0
SEQEND
  0
POLYLINE
  8
LAYER_2
 40
0.067
 41
0.067
 66
1
 10
0
 20
0
 30
0
  0
VERTEX
  8
LAYER_2
 10
196.7825
 20
95.8791
  0
VERTEX
  8
LAYER_2
 10
196.7825
 20
98.5598
  0
SEQEND
  0
POLYLINE
  8
LAYER_2
 40
0.067
 41
0.067
 66
1
 10
0
 20
0
 30
0
  0
VERTEX
  8
LAYER_2
 10
161.3132
 20
98.5457
  0
VERTEX
  8
LAYER_2
 10
177.7089
 20
98.5457
  0
SEQEND
  0
POLYLINE
  8
LAYER_2
 40
0.067
 41
0.067
 66
1
 10
0
 20
0
 30
0
  0
VERTEX
  8
LAYER_2
 10
195.9948
 20
98.5457
  0
VERTEX
  8
LAYER_2
 10
181.267
 20
98.5457
  0
SEQEND
  0
POLYLINE
  8
LAYER_2
 40
0.05
 41
0.05
 66
1
 10
0
 20
0
 30
0
  0
VERTEX
  8
LAYER_2
 10
160.5247
 20
98.5457
  0
VERTEX
  8
LAYER_2
 10
161.3135
 20
98.4142
  0
VERTEX
  8
LAYER_2
 10
161.3135
 20
98.6773
  0
SEQEND
  0
POLYLINE
  8
LAYER_2
 40
0.05
 41
0.05
 66
1
 10
0
 20
0
 30
0
  0
VERTEX
  8
LAYER_2
 10
195.9948
 20
98.4145
  0
VERTEX
  8
LAYER_2
 10
196.7829
 20
98.5461
  0
VERTEX
  8
LAYER_2
 10
195.9948
 20
98.6773
  0
SEQEND
  0
TEXT
  8
LAYER_2
 10
177.9313
 20
98.1777
 11
177.9313
 21
98.1777
 40
2.306
 41
0.5
  1
460
  0
POLYLINE
  8
LAYER_2
 40
0.067
 41
0.067
 66
1
 10
0
 20
0
 30
0
  0
VERTEX
  8
LAYER_2
 10
155.316
 20
123.4663
  0
VERTEX
  8
LAYER_2
 10
150.1425
 20
123.4663
  0
SEQEND
  0
POLYLINE
  8
LAYER_2
 40
0.067
 41
0.067
 66
1
 10
0
 20
0
 30
0
  0
VERTEX
  8
LAYER_2
 10
153.1139
 20
95.485
  0
VERTEX
  8
LAYER_2
 10
150.1421
 20
95.485
  0
SEQEND
  0
POLYLINE
  8
LAYER_2
 40
0.067
 41
0.067
 66
1
 10
0
 20
0
 30
0
  0
VERTEX
  8
LAYER_2
 10
150.1566
 20
122.6782
  0
VERTEX
  8
LAYER_2
 10
150.1566
 20
112.0786
  0
SEQEND
  0
POLYLINE
  8
LAYER_2
 40
0.067
 41
0.067
 66
1
 10
0
 20
0
 30
0
  0
VERTEX
  8
LAYER_2
 10
150.1566
 20
96.2731
  0
VERTEX
  8
LAYER_2
 10
150.1566
 20
108.5413
  0
SEQEND
  0
POLYLINE
  8
LAYER_2
 40
0.05
 41
0.05
 66
1
 10
0
 20
0
 30
0
  0
VERTEX
  8
LAYER_2
 10
150.0253
 20
122.6782
  0
VERTEX
  8
LAYER_2
 10
150.2875
 20
122.6782
  0
VERTEX
  8
LAYER_2
 10
150.1569
 20
123.4667
  0
SEQEND
  0
POLYLINE
  8
LAYER_2
 40
0.05
 41
0.05
 66
1
 10
0
 20
0
 30
0
  0
VERTEX
  8
LAYER_2
 10
150.0253
 20
96.2731
  0
VERTEX
  8
LAYER_2
 10
150.1569
 20
95.485
  0
VERTEX
  8
LAYER_2
 10
150.2875
 20
96.2731
  0
SEQEND
  0
TEXT
  8
LAYER_2
 10
150.5244
 20
108.7389
 11
150.5244
 21
108.7389
 40
2.306
 41
0.5
 50
89.99999999
  1
355
  0
POLYLINE
  8
LAYER_2
 40
0.067
 41
0.067
 66
1
 10
0
 20
0
 30
0
  0
VERTEX
  8
LAYER_2
 10
153.1139
 20
95.485
  0
VERTEX
  8
LAYER_2
 10
150.1421
 20
95.485
  0
SEQEND
  0
POLYLINE
  8
LAYER_2
 40
0.067
 41
0.067
 66
1
 10
0
 20
0
 30
0
  0
VERTEX
  8
LAYER_2
 10
162.0399
 20
72.1982
  0
VERTEX
  8
LAYER_2
 10
150.1421
 20
72.1982
  0
SEQEND
  0
POLYLINE
  8
LAYER_2
 40
0.067
 41
0.067
 66
1
 10
0
 20
0
 30
0
  0
VERTEX
  8
LAYER_2
 10
150.1566
 20
94.6969
  0
VERTEX
  8
LAYER_2
 10
150.1566
 20
86.4504
  0
SEQEND
  0
POLYLINE
  8
LAYER_2
 40
0.067
 41
0.067
 66
1
 10
0
 20
0
 30
0
  0
VERTEX
  8
LAYER_2
 10
150.1566
 20
72.9866
  0
VERTEX
  8
LAYER_2
 10
150.1566
 20
82.9015
  0
SEQEND
  0
POLYLINE
  8
LAYER_2
 40
0.05
 41
0.05
 66
1
 10
0
 20
0
 30
0
  0
VERTEX
  8
LAYER_2
 10
150.0253
 20
94.6969
  0
VERTEX
  8
LAYER_2
 10
150.2875
 20
94.6969
  0
VERTEX
  8
LAYER_2
 10
150.1569
 20
95.4854
  0
SEQEND
  0
POLYLINE
  8
LAYER_2
 40
0.05
 41
0.05
 66
1
 10
0
 20
0
 30
0
  0
VERTEX
  8
LAYER_2
 10
150.0253
 20
72.9866
  0
VERTEX
  8
LAYER_2
 10
150.1569
 20
72.1982
  0
VERTEX
  8
LAYER_2
 10
150.2875
 20
72.9866
  0
SEQEND
  0
TEXT
  8
LAYER_2
 10
150.5245
 20
83.1109
 11
150.5245
 21
83.1109
 40
2.306
 41
0.5
 50
89.99999999
  1
295
  0
POLYLINE
  8
LAYER_2
 40
0.067
 41
0.067
 66
1
 10
0
 20
0
 30
0
  0
VERTEX
  8
LAYER_2
 10
28.8846
 20
95.485
  0
VERTEX
  8
LAYER_2
 10
25.9128
 20
95.485
  0
SEQEND
  0
POLYLINE
  8
LAYER_2
 40
0.067
 41
0.067
 66
1
 10
0
 20
0
 30
0
  0
VERTEX
  8
LAYER_2
 10
37.8103
 20
72.1982
  0
VERTEX
  8
LAYER_2
 10
25.9125
 20
72.1982
  0
SEQEND
  0
POLYLINE
  8
LAYER_2
 40
0.067
 41
0.067
 66
1
 10
0
 20
0
 30
0
  0
VERTEX
  8
LAYER_2
 10
25.9269
 20
94.6969
  0
VERTEX
  8
LAYER_2
 10
25.9269
 20
86.4504
  0
SEQEND
  0
POLYLINE
  8
LAYER_2
 40
0.067
 41
0.067
 66
1
 10
0
 20
0
 30
0
  0
VERTEX
  8
LAYER_2
 10
25.9269
 20
72.9866
  0
VERTEX
  8
LAYER_2
 10
25.9269
 20
82.9015
  0
SEQEND
  0
POLYLINE
  8
LAYER_2
 40
0.05
 41
0.05
 66
1
 10
0
 20
0
 30
0
  0
VERTEX
  8
LAYER_2
 10
25.7957
 20
94.6969
  0
VERTEX
  8
LAYER_2
 10
26.0582
 20
94.6969
  0
VERTEX
  8
LAYER_2
 10
25.9273
 20
95.4854
  0
SEQEND
  0
POLYLINE
  8
LAYER_2
 40
0.05
 41
0.05
 66
1
 10
0
 20
0
 30
0
  0
VERTEX
  8
LAYER_2
 10
25.7957
 20
72.9866
  0
VERTEX
  8
LAYER_2
 10
25.9273
 20
72.1982
  0
VERTEX
  8
LAYER_2
 10
26.0582
 20
72.9866
  0
SEQEND
  0
TEXT
  8
LAYER_2
 10
26.2951
 20
83.1109
 11
26.2951
 21
83.1109
 40
2.306
 41
0.5
 50
89.99999999
  1
295
  0
POLYLINE
  8
LAYER_2
 40
0.067
 41
0.067
 66
1
 10
0
 20
0
 30
0
  0
VERTEX
  8
LAYER_2
 10
32.2212
 20
95.485
  0
VERTEX
  8
LAYER_2
 10
25.9128
 20
95.485
  0
SEQEND
  0
POLYLINE
  8
LAYER_2
 40
0.067
 41
0.067
 66
1
 10
0
 20
0
 30
0
  0
VERTEX
  8
LAYER_2
 10
31.48
 20
123.4663
  0
VERTEX
  8
LAYER_2
 10
25.9128
 20
123.4663
  0
SEQEND
  0
POLYLINE
  8
LAYER_2
 40
0.067
 41
0.067
 66
1
 10
0
 20
0
 30
0
  0
VERTEX
  8
LAYER_2
 10
25.9269
 20
96.2731
  0
VERTEX
  8
LAYER_2
 10
25.9269
 20
108.5413
  0
SEQEND
  0
POLYLINE
  8
LAYER_2
 40
0.067
 41
0.067
 66
1
 10
0
 20
0
 30
0
  0
VERTEX
  8
LAYER_2
 10
25.9269
 20
122.6782
  0
VERTEX
  8
LAYER_2
 10
25.9269
 20
112.3566
  0
SEQEND
  0
POLYLINE
  8
LAYER_2
 40
0.05
 41
0.05
 66
1
 10
0
 20
0
 30
0
  0
VERTEX
  8
LAYER_2
 10
25.7957
 20
96.2731
  0
VERTEX
  8
LAYER_2
 10
25.9273
 20
95.485
  0
VERTEX
  8
LAYER_2
 10
26.0582
 20
96.2731
  0
SEQEND
  0
POLYLINE
  8
LAYER_2
 40
0.05
 41
0.05
 66
1
 10
0
 20
0
 30
0
  0
VERTEX
  8
LAYER_2
 10
25.7957
 20
122.6782
  0
VERTEX
  8
LAYER_2
 10
26.0582
 20
122.6782
  0
VERTEX
  8
LAYER_2
 10
25.9273
 20
123.4667
  0
SEQEND
  0
TEXT
  8
LAYER_2
 10
26.295
 20
108.7386
 11
26.295
 21
108.7386
 40
2.306
 41
0.5
 50
89.99999999
  1
355
  0
TEXT
  8
LAYER_2
 10
73.6014
 20
154.0513
 11
73.6014
 21
154.0513
 40
2.306
 41
0.5
  1
TOP
  0
POLYLINE
  8
LAYER_2
 40
0.067
 41
0.067
 66
1
 10
0
 20
0
 30
0
  0
VERTEX
  8
LAYER_2
 10
82.7295
 20
72.1982
  0
VERTEX
  8
LAYER_2
 10
83.5416
 20
72.1982
  0
SEQEND
  0
POLYLINE
  8
LAYER_2
 40
0.067
 41
0.067
 66
1
 10
0
 20
0
 30
0
  0
VERTEX
  8
LAYER_2
 10
79.2299
 20
72.1982
  0
VERTEX
  8
LAYER_2
 10
67.3325
 20
72.1982
  0
SEQEND
  0
POLYLINE
  8
LAYER_2
 40
0.2752
 41
0.2752
 66
1
 10
0
 20
0
 30
0
  0
VERTEX
  8
LAYER_2
 10
116.4257
 20
209.8348
  0
VERTEX
  8
LAYER_2
 10
35.2396
 20
209.8348
  0
SEQEND
  0
POLYLINE
  8
LAYER_2
 40
0.2752
 41
0.2752
 66
1
 10
0
 20
0
 30
0
  0
VERTEX
  8
LAYER_2
 10
35.2396
 20
209.8348
 42
0.414211999
  0
VERTEX
  8
LAYER_2
 10
32.4808
 20
207.0761
  0
SEQEND
  0
POLYLINE
  8
LAYER_2
 40
0.2752
 41
0.2752
 66
1
 10
0
 20
0
 30
0
  0
VERTEX
  8
LAYER_2
 10
32.4808
 20
207.0761
  0
VERTEX
  8
LAYER_2
 10
32.4808
 20
170.0301
 42
0.4142123231
  0
VERTEX
  8
LAYER_2
 10
35.2396
 20
167.2711
  0
SEQEND
  0
POLYLINE
  8
LAYER_2
 40
0.2752
 41
0.2752
 66
1
 10
0
 20
0
 30
0
  0
VERTEX
  8
LAYER_2
 10
116.4257
 20
167.2711
  0
VERTEX
  8
LAYER_2
 10
35.2396
 20
167.2711
  0
SEQEND
  0
POLYLINE
  8
LAYER_2
 40
0.2752
 41
0.2752
 66
1
 10
0
 20
0
 30
0
  0
VERTEX
  8
LAYER_2
 10
119.1845
 20
207.0761
 42
0.4142069202
  0
VERTEX
  8
LAYER_2
 10
116.4261
 20
209.8348
  0
SEQEND
  0
POLYLINE
  8
LAYER_2
 40
0.2752
 41
0.2752
 66
1
 10
0
 20
0
 30
0
  0
VERTEX
  8
LAYER_2
 10
119.1845
 20
207.0761
  0
VERTEX
  8
LAYER_2
 10
119.1845
 20
170.0301
  0
SEQEND
  0
POLYLINE
  8
LAYER_2
 40
0.2752
 41
0.2752
 66
1
 10
0
 20
0
 30
0
  0
VERTEX
  8
LAYER_2
 10
116.4257
 20
167.2711
 42
0.4142119932
  0
VERTEX
  8
LAYER_2
 10
119.1844
 20
170.0301
  0
SEQEND
  0
POLYLINE
  8
LAYER_2
 40
0.2752
 41
0.2752
 66
1
 10
0
 20
0
 30
0
  0
VERTEX
  8
LAYER_2
 10
118.6045
 20
211.0928
  0
VERTEX
  8
LAYER_2
 10
117.907
 20
211.7313
  0
SEQEND
  0
POLYLINE
  8
LAYER_2
  6
AIGENLINE004
 40
0.1376
 41
0.1376
 66
1
 10
0
 20
0
 30
0
 70
128
  0
VERTEX
  8
LAYER_2
 10
33.1659
 20
211.0928
  0
VERTEX
  8
LAYER_2
 10
33.8634
 20
211.7313
  0
SEQEND
  0
POLYLINE
  8
LAYER_2
 40
0.2752
 41
0.2752
 66
1
 10
0
 20
0
 30
0
  0
VERTEX
  8
LAYER_2
 10
119.0186
 20
166.41
  0
VERTEX
  8
LAYER_2
 10
118.3212
 20
165.7714
  0
SEQEND
  0
POLYLINE
  8
LAYER_2
 40
0.2752
 41
0.2752
 66
1
 10
0
 20
0
 30
0
  0
VERTEX
  8
LAYER_2
 10
32.7518
 20
166.41
  0
VERTEX
  8
LAYER_2
 10
33.4492
 20
165.7714
  0
SEQEND
  0
POLYLINE
  8
LAYER_2
 40
0.2752
 41
0.2752
 66
1
 10
0
 20
0
 30
0
  0
VERTEX
  8
LAYER_2
 10
116.1696
 20
209.8344
  0
VERTEX
  8
LAYER_2
 10
117.9067
 20
211.7313
  0
SEQEND
  0
POLYLINE
  8
LAYER_2
 40
0.067
 41
0.067
 66
1
 10
0
 20
0
 30
0
  0
VERTEX
  8
LAYER_2
 10
32.4805
 20
169.241
  0
VERTEX
  8
LAYER_2
 10
32.4805
 20
160.2102
  0
SEQEND
  0
POLYLINE
  8
LAYER_2
 40
0.067
 41
0.067
 66
1
 10
0
 20
0
 30
0
  0
VERTEX
  8
LAYER_2
 10
119.1841
 20
169.241
  0
VERTEX
  8
LAYER_2
 10
119.1841
 20
160.2102
  0
SEQEND
  0
POLYLINE
  8
LAYER_2
 40
0.067
 41
0.067
 66
1
 10
0
 20
0
 30
0
  0
VERTEX
  8
LAYER_2
 10
33.2686
 20
160.2247
  0
VERTEX
  8
LAYER_2
 10
74.6844
 20
160.2247
  0
SEQEND
  0
POLYLINE
  8
LAYER_2
 40
0.067
 41
0.067
 66
1
 10
0
 20
0
 30
0
  0
VERTEX
  8
LAYER_2
 10
118.396
 20
160.2247
  0
VERTEX
  8
LAYER_2
 10
79.4931
 20
160.2247
  0
SEQEND
  0
POLYLINE
  8
LAYER_2
 40
0.05
 41
0.05
 66
1
 10
0
 20
0
 30
0
  0
VERTEX
  8
LAYER_2
 10
32.4805
 20
160.2243
  0
VERTEX
  8
LAYER_2
 10
33.269
 20
160.0935
  0
VERTEX
  8
LAYER_2
 10
33.269
 20
160.3559
  0
SEQEND
  0
POLYLINE
  8
LAYER_2
 40
0.05
 41
0.05
 66
1
 10
0
 20
0
 30
0
  0
VERTEX
  8
LAYER_2
 10
118.396
 20
160.0935
  0
VERTEX
  8
LAYER_2
 10
119.1848
 20
160.2247
  0
VERTEX
  8
LAYER_2
 10
118.396
 20
160.3563
  0
SEQEND
  0
TEXT
  8
LAYER_2
 10
74.8224
 20
159.8569
 11
74.8224
 21
159.8569
 40
2.306
 41
0.5
  1
1100
  0
POLYLINE
  8
LAYER_2
 40
0.2752
 41
0.2752
 66
1
 10
0
 20
0
 30
0
  0
VERTEX
  8
LAYER_2
 10
117.3168
 20
209.6866
  0
VERTEX
  8
LAYER_2
 10
118.6045
 20
211.0928
  0
SEQEND
  0
POLYLINE
  8
LAYER_2
 40
0.067
 41
0.067
 66
1
 10
0
 20
0
 30
0
  0
VERTEX
  8
LAYER_2
 10
117.2138
 20
209.8348
  0
VERTEX
  8
LAYER_2
 10
122.6702
 20
209.8348
  0
SEQEND
  0
POLYLINE
  8
LAYER_2
 40
0.067
 41
0.067
 66
1
 10
0
 20
0
 30
0
  0
VERTEX
  8
LAYER_2
 10
117.2138
 20
167.2711
  0
VERTEX
  8
LAYER_2
 10
122.6702
 20
167.2711
  0
SEQEND
  0
POLYLINE
  8
LAYER_2
 40
0.067
 41
0.067
 66
1
 10
0
 20
0
 30
0
  0
VERTEX
  8
LAYER_2
 10
122.6561
 20
209.0463
  0
VERTEX
  8
LAYER_2
 10
122.6561
 20
191.1545
  0
SEQEND
  0
POLYLINE
  8
LAYER_2
 40
0.067
 41
0.067
 66
1
 10
0
 20
0
 30
0
  0
VERTEX
  8
LAYER_2
 10
122.6561
 20
168.0592
  0
VERTEX
  8
LAYER_2
 10
122.6561
 20
187.6197
  0
SEQEND
  0
POLYLINE
  8
LAYER_2
 40
0.05
 41
0.05
 66
1
 10
0
 20
0
 30
0
  0
VERTEX
  8
LAYER_2
 10
122.5246
 20
209.0463
  0
VERTEX
  8
LAYER_2
 10
122.787
 20
209.0463
  0
VERTEX
  8
LAYER_2
 10
122.6561
 20
209.8348
  0
SEQEND
  0
POLYLINE
  8
LAYER_2
 40
0.05
 41
0.05
 66
1
 10
0
 20
0
 30
0
  0
VERTEX
  8
LAYER_2
 10
122.5246
 20
168.0588
  0
VERTEX
  8
LAYER_2
 10
122.6561
 20
167.2707
  0
VERTEX
  8
LAYER_2
 10
122.787
 20
168.0588
  0
SEQEND
  0
TEXT
  8
LAYER_2
 10
123.0244
 20
187.8187
 11
123.0244
 21
187.8187
 40
2.306
 41
0.5
 50
89.99999999
  1
540
  0
POLYLINE
  8
LAYER_2
 40
0.2752
 41
0.2752
 66
1
 10
0
 20
0
 30
0
  0
VERTEX
  8
LAYER_2
 10
35.6005
 20
209.8348
  0
VERTEX
  8
LAYER_2
 10
33.863
 20
211.7316
  0
SEQEND
  0
POLYLINE
  8
LAYER_2
 40
0.2752
 41
0.2752
 66
1
 10
0
 20
0
 30
0
  0
VERTEX
  8
LAYER_2
 10
34.4292
 20
209.7131
  0
VERTEX
  8
LAYER_2
 10
33.1663
 20
211.0928
  0
SEQEND
  0
POLYLINE
  8
LAYER_2
 40
0.2752
 41
0.2752
 66
1
 10
0
 20
0
 30
0
  0
VERTEX
  8
LAYER_2
 10
33.1659
 20
211.0928
  0
VERTEX
  8
LAYER_2
 10
33.8634
 20
211.7313
  0
SEQEND
  0
POLYLINE
  8
LAYER_2
 40
0.2752
 41
0.2752
 66
1
 10
0
 20
0
 30
0
  0
VERTEX
  8
LAYER_2
 10
116.9087
 20
167.3141
  0
VERTEX
  8
LAYER_2
 10
118.3212
 20
165.7718
  0
SEQEND
  0
POLYLINE
  8
LAYER_2
 40
0.2752
 41
0.2752
 66
1
 10
0
 20
0
 30
0
  0
VERTEX
  8
LAYER_2
 10
117.8612
 20
167.6743
  0
VERTEX
  8
LAYER_2
 10
119.0186
 20
166.4103
  0
SEQEND
  0
POLYLINE
  8
LAYER_2
 40
0.2752
 41
0.2752
 66
1
 10
0
 20
0
 30
0
  0
VERTEX
  8
LAYER_2
 10
34.8483
 20
167.299
  0
VERTEX
  8
LAYER_2
 10
33.4492
 20
165.7718
  0
SEQEND
  0
POLYLINE
  8
LAYER_2
 40
0.2752
 41
0.2752
 66
1
 10
0
 20
0
 30
0
  0
VERTEX
  8
LAYER_2
 10
33.8722
 20
167.6341
  0
VERTEX
  8
LAYER_2
 10
32.7514
 20
166.4103
  0
SEQEND
  0
POLYLINE
  8
LAYER_2
 40
0.067
 41
0.067
 66
1
 10
0
 20
0
 30
0
  0
VERTEX
  8
LAYER_2
 10
33.0753
 20
211.7313
  0
VERTEX
  8
LAYER_2
 10
29.5355
 20
211.7313
  0
SEQEND
  0
POLYLINE
  8
LAYER_2
 40
0.067
 41
0.067
 66
1
 10
0
 20
0
 30
0
  0
VERTEX
  8
LAYER_2
 10
32.6611
 20
165.7718
  0
VERTEX
  8
LAYER_2
 10
29.5359
 20
165.7718
  0
SEQEND
  0
POLYLINE
  8
LAYER_2
 40
0.067
 41
0.067
 66
1
 10
0
 20
0
 30
0
  0
VERTEX
  8
LAYER_2
 10
29.5496
 20
210.9436
  0
VERTEX
  8
LAYER_2
 10
29.5496
 20
191.3535
  0
SEQEND
  0
POLYLINE
  8
LAYER_2
 40
0.067
 41
0.067
 66
1
 10
0
 20
0
 30
0
  0
VERTEX
  8
LAYER_2
 10
29.5496
 20
166.5595
  0
VERTEX
  8
LAYER_2
 10
29.5496
 20
187.8176
  0
SEQEND
  0
POLYLINE
  8
LAYER_2
 40
0.05
 41
0.05
 66
1
 10
0
 20
0
 30
0
  0
VERTEX
  8
LAYER_2
 10
29.4184
 20
210.9432
  0
VERTEX
  8
LAYER_2
 10
29.6812
 20
210.9432
  0
VERTEX
  8
LAYER_2
 10
29.5496
 20
211.7313
  0
SEQEND
  0
POLYLINE
  8
LAYER_2
 40
0.05
 41
0.05
 66
1
 10
0
 20
0
 30
0
  0
VERTEX
  8
LAYER_2
 10
29.4184
 20
166.5595
  0
VERTEX
  8
LAYER_2
 10
29.5496
 20
165.7714
  0
VERTEX
  8
LAYER_2
 10
29.6812
 20
166.5595
  0
SEQEND
  0
TEXT
  8
LAYER_2
 10
29.9176
 20
188.0166
 11
29.9176
 21
188.0166
 40
2.306
 41
0.5
 50
89.99999999
  1
583
  0
POLYLINE
  8
LAYER_2
 40
0.067
 41
0.067
 66
1
 10
0
 20
0
 30
0
  0
VERTEX
  8
LAYER_2
 10
34.6515
 20
211.7313
  0
VERTEX
  8
LAYER_2
 10
38.4636
 20
211.7313
  0
SEQEND
  0
POLYLINE
  8
LAYER_2
 40
0.067
 41
0.067
 66
1
 10
0
 20
0
 30
0
  0
VERTEX
  8
LAYER_2
 10
37.5831
 20
209.8348
  0
VERTEX
  8
LAYER_2
 10
38.4636
 20
209.8348
  0
SEQEND
  0
POLYLINE
  8
LAYER_2
 40
0.067
 41
0.067
 66
1
 10
0
 20
0
 30
0
  0
VERTEX
  8
LAYER_2
 10
38.4499
 20
212.5194
  0
VERTEX
  8
LAYER_2
 10
38.4499
 20
213.3079
  0
SEQEND
  0
POLYLINE
  8
LAYER_2
 40
0.067
 41
0.067
 66
1
 10
0
 20
0
 30
0
  0
VERTEX
  8
LAYER_2
 10
38.4499
 20
209.0463
  0
VERTEX
  8
LAYER_2
 10
38.4499
 20
208.2582
  0
SEQEND
  0
POLYLINE
  8
LAYER_2
 40
0.05
 41
0.05
 66
1
 10
0
 20
0
 30
0
  0
VERTEX
  8
LAYER_2
 10
38.3183
 20
212.5194
  0
VERTEX
  8
LAYER_2
 10
38.4498
 20
211.7313
  0
VERTEX
  8
LAYER_2
 10
38.5811
 20
212.5194
  0
SEQEND
  0
POLYLINE
  8
LAYER_2
 40
0.05
 41
0.05
 66
1
 10
0
 20
0
 30
0
  0
VERTEX
  8
LAYER_2
 10
38.3183
 20
209.0463
  0
VERTEX
  8
LAYER_2
 10
38.5811
 20
209.0463
  0
VERTEX
  8
LAYER_2
 10
38.4498
 20
209.8348
  0
SEQEND
  0
TEXT
  8
LAYER_2
 10
37.3645
 20
210.074
 11
37.3645
 21
210.074
 40
2.306
 41
0.5
  1
25
  0
CIRCLE
  8
LAYER_2
 10
75.8326
 20
205.1054
 40
1.379
  0
INSERT
  8
LAYER_2
  2
AIGNBL02010033
 10
0
 20
0
 30
0
  0
INSERT
  8
LAYER_2
  2
AIGNBL02010034
 10
0
 20
0
 30
0
  0
POLYLINE
  8
LAYER_2
 40
0.2752
 41
0.2752
 66
1
 10
0
 20
0
 30
0
 70
1
  0
VERTEX
  8
LAYER_2
 10
39.9686
 20
201.952
  0
VERTEX
  8
LAYER_2
 10
111.6964
 20
201.952
 42
-0.4142158281
  0
VERTEX
  8
LAYER_2
 10
114.4548
 20
199.1932
  0
VERTEX
  8
LAYER_2
 10
114.4548
 20
175.5469
 42
-0.414212972
  0
VERTEX
  8
LAYER_2
 10
111.6964
 20
172.7889
  0
VERTEX
  8
LAYER_2
 10
39.9686
 20
172.7889
 42
-0.4142186005
  0
VERTEX
  8
LAYER_2
 10
37.2098
 20
175.5469
  0
VERTEX
  8
LAYER_2
 10
37.2098
 20
199.1932
 42
-0.4142214548
  0
SEQEND
  0
CIRCLE
  8
LAYER_2
 10
75.8252
 20
186.9765
 40
1.8129
  0
CIRCLE
  8
LAYER_2
 10
75.8323
 20
186.9765
 40
2.7894
  0
POLYLINE
  8
LAYER_2
 40
0.067
 41
0.067
 66
1
 10
0
 20
0
 30
0
  0
VERTEX
  8
LAYER_2
 10
37.2098
 20
186.5818
  0
VERTEX
  8
LAYER_2
 10
37.2098
 20
181.3624
  0
SEQEND
  0
POLYLINE
  8
LAYER_2
 40
0.067
 41
0.067
 66
1
 10
0
 20
0
 30
0
  0
VERTEX
  8
LAYER_2
 10
114.4551
 20
186.5818
  0
VERTEX
  8
LAYER_2
 10
114.4551
 20
181.3624
  0
SEQEND
  0
POLYLINE
  8
LAYER_2
 40
0.067
 41
0.067
 66
1
 10
0
 20
0
 30
0
  0
VERTEX
  8
LAYER_2
 10
37.9983
 20
181.3769
  0
VERTEX
  8
LAYER_2
 10
74.8999
 20
181.3769
  0
SEQEND
  0
POLYLINE
  8
LAYER_2
 40
0.067
 41
0.067
 66
1
 10
0
 20
0
 30
0
  0
VERTEX
  8
LAYER_2
 10
113.667
 20
181.3769
  0
VERTEX
  8
LAYER_2
 10
78.4337
 20
181.3769
  0
SEQEND
  0
POLYLINE
  8
LAYER_2
 40
0.05
 41
0.05
 66
1
 10
0
 20
0
 30
0
  0
VERTEX
  8
LAYER_2
 10
37.2098
 20
181.3769
  0
VERTEX
  8
LAYER_2
 10
37.9983
 20
181.2457
  0
VERTEX
  8
LAYER_2
 10
37.9983
 20
181.5081
  0
SEQEND
  0
POLYLINE
  8
LAYER_2
 40
0.05
 41
0.05
 66
1
 10
0
 20
0
 30
0
  0
VERTEX
  8
LAYER_2
 10
113.6667
 20
181.2453
  0
VERTEX
  8
LAYER_2
 10
114.4548
 20
181.3765
  0
VERTEX
  8
LAYER_2
 10
113.6667
 20
181.5074
  0
SEQEND
  0
TEXT
  8
LAYER_2
 10
75.0976
 20
181.0083
 11
75.0976
 21
181.0083
 40
2.306
 41
0.5
  1
980
  0
POLYLINE
  8
LAYER_2
 40
0.067
 41
0.067
 66
1
 10
0
 20
0
 30
0
  0
VERTEX
  8
LAYER_2
 10
94.9472
 20
172.7882
  0
VERTEX
  8
LAYER_2
 10
88.5217
 20
172.7882
  0
SEQEND
  0
POLYLINE
  8
LAYER_2
 40
0.067
 41
0.067
 66
1
 10
0
 20
0
 30
0
  0
VERTEX
  8
LAYER_2
 10
94.4607
 20
201.9516
  0
VERTEX
  8
LAYER_2
 10
88.5217
 20
201.9516
  0
SEQEND
  0
POLYLINE
  8
LAYER_2
 40
0.067
 41
0.067
 66
1
 10
0
 20
0
 30
0
  0
VERTEX
  8
LAYER_2
 10
88.5358
 20
173.5763
  0
VERTEX
  8
LAYER_2
 10
88.5358
 20
186.4375
  0
SEQEND
  0
POLYLINE
  8
LAYER_2
 40
0.067
 41
0.067
 66
1
 10
0
 20
0
 30
0
  0
VERTEX
  8
LAYER_2
 10
88.5358
 20
201.1635
  0
VERTEX
  8
LAYER_2
 10
88.5358
 20
189.9706
  0
SEQEND
  0
POLYLINE
  8
LAYER_2
 40
0.05
 41
0.05
 66
1
 10
0
 20
0
 30
0
  0
VERTEX
  8
LAYER_2
 10
88.4046
 20
173.5763
  0
VERTEX
  8
LAYER_2
 10
88.5358
 20
172.7878
  0
VERTEX
  8
LAYER_2
 10
88.6674
 20
173.5763
  0
SEQEND
  0
POLYLINE
  8
LAYER_2
 40
0.05
 41
0.05
 66
1
 10
0
 20
0
 30
0
  0
VERTEX
  8
LAYER_2
 10
88.4046
 20
201.1638
  0
VERTEX
  8
LAYER_2
 10
88.6674
 20
201.1638
  0
VERTEX
  8
LAYER_2
 10
88.5358
 20
201.9519
  0
SEQEND
  0
TEXT
  8
LAYER_2
 10
88.9044
 20
186.6351
 11
88.9044
 21
186.6351
 40
2.306
 41
0.5
 50
89.99999999
  1
370
  0
POLYLINE
  8
LAYER_2
 40
0.067
 41
0.067
 66
1
 10
0
 20
0
 30
0
  0
VERTEX
  8
LAYER_2
 10
37.2098
 20
180.5743
  0
VERTEX
  8
LAYER_2
 10
37.2098
 20
181.3483
  0
SEQEND
  0
POLYLINE
  8
LAYER_2
 40
0.067
 41
0.067
 66
1
 10
0
 20
0
 30
0
  0
VERTEX
  8
LAYER_2
 10
32.4805
 20
182.1509
  0
VERTEX
  8
LAYER_2
 10
32.4805
 20
181.3769
  0
SEQEND
  0
POLYLINE
  8
LAYER_2
 40
0.067
 41
0.067
 66
1
 10
0
 20
0
 30
0
  0
VERTEX
  8
LAYER_2
 10
36.4217
 20
181.3624
  0
VERTEX
  8
LAYER_2
 10
35.8114
 20
181.3624
  0
SEQEND
  0
POLYLINE
  8
LAYER_2
 40
0.067
 41
0.067
 66
1
 10
0
 20
0
 30
0
  0
VERTEX
  8
LAYER_2
 10
33.269
 20
181.3624
  0
VERTEX
  8
LAYER_2
 10
33.6013
 20
181.3624
  0
SEQEND
  0
POLYLINE
  8
LAYER_2
 40
0.05
 41
0.05
 66
1
 10
0
 20
0
 30
0
  0
VERTEX
  8
LAYER_2
 10
36.4214
 20
181.2316
  0
VERTEX
  8
LAYER_2
 10
37.2095
 20
181.3621
  0
VERTEX
  8
LAYER_2
 10
36.4214
 20
181.4933
  0
SEQEND
  0
POLYLINE
  8
LAYER_2
 40
0.05
 41
0.05
 66
1
 10
0
 20
0
 30
0
  0
VERTEX
  8
LAYER_2
 10
32.4805
 20
181.3621
  0
VERTEX
  8
LAYER_2
 10
33.269
 20
181.2312
  0
VERTEX
  8
LAYER_2
 10
33.269
 20
181.4937
  0
SEQEND
  0
TEXT
  8
LAYER_2
 10
33.7999
 20
180.9942
 11
33.7999
 21
180.9942
 40
2.306
 41
0.5
  1
60
  0
POLYLINE
  8
LAYER_2
 40
0.067
 41
0.067
 66
1
 10
0
 20
0
 30
0
  0
VERTEX
  8
LAYER_2
 10
119.2734
 20
180.5743
  0
VERTEX
  8
LAYER_2
 10
119.2734
 20
181.3483
  0
SEQEND
  0
POLYLINE
  8
LAYER_2
 40
0.067
 41
0.067
 66
1
 10
0
 20
0
 30
0
  0
VERTEX
  8
LAYER_2
 10
114.544
 20
182.1509
  0
VERTEX
  8
LAYER_2
 10
114.544
 20
181.3769
  0
SEQEND
  0
POLYLINE
  8
LAYER_2
 40
0.067
 41
0.067
 66
1
 10
0
 20
0
 30
0
  0
VERTEX
  8
LAYER_2
 10
118.4849
 20
181.3624
  0
VERTEX
  8
LAYER_2
 10
117.8749
 20
181.3624
  0
SEQEND
  0
POLYLINE
  8
LAYER_2
 40
0.067
 41
0.067
 66
1
 10
0
 20
0
 30
0
  0
VERTEX
  8
LAYER_2
 10
115.3325
 20
181.3624
  0
VERTEX
  8
LAYER_2
 10
115.6644
 20
181.3624
  0
SEQEND
  0
POLYLINE
  8
LAYER_2
 40
0.05
 41
0.05
 66
1
 10
0
 20
0
 30
0
  0
VERTEX
  8
LAYER_2
 10
118.4849
 20
181.2316
  0
VERTEX
  8
LAYER_2
 10
119.2733
 20
181.3621
  0
VERTEX
  8
LAYER_2
 10
118.4849
 20
181.4933
  0
SEQEND
  0
POLYLINE
  8
LAYER_2
 40
0.05
 41
0.05
 66
1
 10
0
 20
0
 30
0
  0
VERTEX
  8
LAYER_2
 10
114.544
 20
181.3621
  0
VERTEX
  8
LAYER_2
 10
115.3325
 20
181.2312
  0
VERTEX
  8
LAYER_2
 10
115.3325
 20
181.4937
  0
SEQEND
  0
TEXT
  8
LAYER_2
 10
115.8631
 20
180.9942
 11
115.8631
 21
180.9942
 40
2.306
 41
0.5
  1
60
  0
POLYLINE
  8
LAYER_2
 40
0.067
 41
0.067
 66
1
 10
0
 20
0
 30
0
  0
VERTEX
  8
LAYER_2
 10
69.5955
 20
172.7882
  0
VERTEX
  8
LAYER_2
 10
68.8215
 20
172.7882
  0
SEQEND
  0
POLYLINE
  8
LAYER_2
 40
0.067
 41
0.067
 66
1
 10
0
 20
0
 30
0
  0
VERTEX
  8
LAYER_2
 10
68.0193
 20
167.2707
  0
VERTEX
  8
LAYER_2
 10
68.7933
 20
167.2707
  0
SEQEND
  0
POLYLINE
  8
LAYER_2
 40
0.067
 41
0.067
 66
1
 10
0
 20
0
 30
0
  0
VERTEX
  8
LAYER_2
 10
68.8074
 20
171.9994
  0
VERTEX
  8
LAYER_2
 10
68.8074
 20
171.2712
  0
SEQEND
  0
POLYLINE
  8
LAYER_2
 40
0.067
 41
0.067
 66
1
 10
0
 20
0
 30
0
  0
VERTEX
  8
LAYER_2
 10
68.8074
 20
168.0588
  0
VERTEX
  8
LAYER_2
 10
68.8074
 20
168.7876
  0
SEQEND
  0
POLYLINE
  8
LAYER_2
 40
0.05
 41
0.05
 66
1
 10
0
 20
0
 30
0
  0
VERTEX
  8
LAYER_2
 10
68.6762
 20
171.9997
  0
VERTEX
  8
LAYER_2
 10
68.9387
 20
171.9997
  0
VERTEX
  8
LAYER_2
 10
68.8074
 20
172.7882
  0
SEQEND
  0
POLYLINE
  8
LAYER_2
 40
0.05
 41
0.05
 66
1
 10
0
 20
0
 30
0
  0
VERTEX
  8
LAYER_2
 10
68.6762
 20
168.0588
  0
VERTEX
  8
LAYER_2
 10
68.8074
 20
167.2707
  0
VERTEX
  8
LAYER_2
 10
68.9387
 20
168.0588
  0
SEQEND
  0
TEXT
  8
LAYER_2
 10
69.1757
 20
168.9819
 11
69.1757
 21
168.9819
 40
2.306
 41
0.5
 50
89.99999999
  1
70
  0
POLYLINE
  8
LAYER_2
 40
0.067
 41
0.067
 66
1
 10
0
 20
0
 30
0
  0
VERTEX
  8
LAYER_2
 10
76.6204
 20
205.1054
  0
VERTEX
  8
LAYER_2
 10
78.2386
 20
205.1054
  0
SEQEND
  0
POLYLINE
  8
LAYER_2
 40
0.067
 41
0.067
 66
1
 10
0
 20
0
 30
0
  0
VERTEX
  8
LAYER_2
 10
76.6204
 20
209.8348
  0
VERTEX
  8
LAYER_2
 10
78.2386
 20
209.8348
  0
SEQEND
  0
POLYLINE
  8
LAYER_2
 40
0.067
 41
0.067
 66
1
 10
0
 20
0
 30
0
  0
VERTEX
  8
LAYER_2
 10
78.2245
 20
205.8935
  0
VERTEX
  8
LAYER_2
 10
78.2245
 20
206.7818
  0
SEQEND
  0
POLYLINE
  8
LAYER_2
 40
0.067
 41
0.067
 66
1
 10
0
 20
0
 30
0
  0
VERTEX
  8
LAYER_2
 10
78.2245
 20
209.0463
  0
VERTEX
  8
LAYER_2
 10
78.2245
 20
208.7143
  0
SEQEND
  0
POLYLINE
  8
LAYER_2
 40
0.05
 41
0.05
 66
1
 10
0
 20
0
 30
0
  0
VERTEX
  8
LAYER_2
 10
78.0929
 20
205.8939
  0
VERTEX
  8
LAYER_2
 10
78.2248
 20
205.1054
  0
VERTEX
  8
LAYER_2
 10
78.3557
 20
205.8939
  0
SEQEND
  0
POLYLINE
  8
LAYER_2
 40
0.05
 41
0.05
 66
1
 10
0
 20
0
 30
0
  0
VERTEX
  8
LAYER_2
 10
78.0929
 20
209.0463
  0
VERTEX
  8
LAYER_2
 10
78.3557
 20
209.0463
  0
VERTEX
  8
LAYER_2
 10
78.2248
 20
209.8348
  0
SEQEND
  0
TEXT
  8
LAYER_2
 10
76.908
 20
207.0505
 11
76.908
 21
207.0505
 40
2.306
 41
0.5
  1
60
  0
POLYLINE
  8
LAYER_2
 40
0.067
 41
0.067
 66
1
 10
0
 20
0
 30
0
  0
VERTEX
  8
LAYER_2
 10
76.6204
 20
205.1054
  0
VERTEX
  8
LAYER_2
 10
78.2386
 20
205.1054
  0
SEQEND
  0
POLYLINE
  8
LAYER_2
 40
0.067
 41
0.067
 66
1
 10
0
 20
0
 30
0
  0
VERTEX
  8
LAYER_2
 10
76.6204
 20
201.952
  0
VERTEX
  8
LAYER_2
 10
78.2386
 20
201.952
  0
SEQEND
  0
POLYLINE
  8
LAYER_2
 40
0.067
 41
0.067
 66
1
 10
0
 20
0
 30
0
  0
VERTEX
  8
LAYER_2
 10
78.2245
 20
204.317
  0
VERTEX
  8
LAYER_2
 10
78.2245
 20
202.7401
  0
SEQEND
  0
POLYLINE
  8
LAYER_2
 40
0.067
 41
0.067
 66
1
 10
0
 20
0
 30
0
  0
VERTEX
  8
LAYER_2
 10
78.2245
 20
201.952
  0
VERTEX
  8
LAYER_2
 10
78.2245
 20
201.1638
  0
VERTEX
  8
LAYER_2
 10
77.4364
 20
201.1638
  0
SEQEND
  0
POLYLINE
  8
LAYER_2
 40
0.05
 41
0.05
 66
1
 10
0
 20
0
 30
0
  0
VERTEX
  8
LAYER_2
 10
78.0929
 20
204.317
  0
VERTEX
  8
LAYER_2
 10
78.3557
 20
204.317
  0
VERTEX
  8
LAYER_2
 10
78.2248
 20
205.1054
  0
SEQEND
  0
POLYLINE
  8
LAYER_2
 40
0.05
 41
0.05
 66
1
 10
0
 20
0
 30
0
  0
VERTEX
  8
LAYER_2
 10
78.0929
 20
202.7401
  0
VERTEX
  8
LAYER_2
 10
78.2248
 20
201.9516
  0
VERTEX
  8
LAYER_2
 10
78.3557
 20
202.7401
  0
SEQEND
  0
TEXT
  8
LAYER_2
 10
74.4282
 20
199.7783
 11
74.4282
 21
199.7783
 40
2.306
 41
0.5
  1
40
  0
POLYLINE
  8
LAYER_2
 40
0.067
 41
0.067
 66
1
 10
0
 20
0
 30
0
  0
VERTEX
  8
LAYER_2
 10
75.0442
 20
205.1054
  0
VERTEX
  8
LAYER_2
 10
70.9834
 20
205.1054
  0
SEQEND
  0
POLYLINE
  8
LAYER_2
 40
0.067
 41
0.067
 66
1
 10
0
 20
0
 30
0
  0
VERTEX
  8
LAYER_2
 10
75.0371
 20
186.9765
  0
VERTEX
  8
LAYER_2
 10
70.9834
 20
186.9765
  0
SEQEND
  0
POLYLINE
  8
LAYER_2
 40
0.067
 41
0.067
 66
1
 10
0
 20
0
 30
0
  0
VERTEX
  8
LAYER_2
 10
70.9975
 20
204.317
  0
VERTEX
  8
LAYER_2
 10
70.9975
 20
198.6471
  0
SEQEND
  0
POLYLINE
  8
LAYER_2
 40
0.067
 41
0.067
 66
1
 10
0
 20
0
 30
0
  0
VERTEX
  8
LAYER_2
 10
70.9975
 20
187.7646
  0
VERTEX
  8
LAYER_2
 10
70.9975
 20
195.1031
  0
SEQEND
  0
POLYLINE
  8
LAYER_2
 40
0.05
 41
0.05
 66
1
 10
0
 20
0
 30
0
  0
VERTEX
  8
LAYER_2
 10
70.8662
 20
204.317
  0
VERTEX
  8
LAYER_2
 10
71.1291
 20
204.317
  0
VERTEX
  8
LAYER_2
 10
70.9978
 20
205.1054
  0
SEQEND
  0
POLYLINE
  8
LAYER_2
 40
0.05
 41
0.05
 66
1
 10
0
 20
0
 30
0
  0
VERTEX
  8
LAYER_2
 10
70.8662
 20
187.7646
  0
VERTEX
  8
LAYER_2
 10
70.9978
 20
186.9765
  0
VERTEX
  8
LAYER_2
 10
71.1291
 20
187.7646
  0
SEQEND
  0
TEXT
  8
LAYER_2
 10
71.3661
 20
195.3114
 11
71.3661
 21
195.3114
 40
2.306
 41
0.5
 50
89.99999999
  1
230
  0
POLYLINE
  8
LAYER_2
 40
0.067
 41
0.067
 66
1
 10
0
 20
0
 30
0
  0
VERTEX
  8
LAYER_2
 10
119.1841
 20
196.6751
  0
VERTEX
  8
LAYER_2
 10
119.1841
 20
194.2879
  0
SEQEND
  0
POLYLINE
  8
LAYER_2
 40
0.067
 41
0.067
 66
1
 10
0
 20
0
 30
0
  0
VERTEX
  8
LAYER_2
 10
32.4805
 20
195.8736
  0
VERTEX
  8
LAYER_2
 10
32.4805
 20
194.2738
  0
SEQEND
  0
TEXT
  8
LAYER_2
 10
73.5034
 20
191.2167
 11
73.5034
 21
191.2167
 40
2.306
 41
0.5
  1
46
  0
TEXT
  8
LAYER_2
 10
69.8691
 20
205.8825
 11
69.8691
 21
205.8825
 40
2.306
 41
0.5
  1
35
  0
ENDSEC
  0
EOF
