  0
SECTION
  2
HEADER
  9
$ACADVER
  1
AC1009
  9
$INSBASE
 10
0.0
 20
0.0
 30
0.0
  9
$EXTMIN
 10
-4.7010300000000003
 20
-21.070999999999991
 30
0.0
  9
$EXTMAX
 10
205.30099999999999
 20
275.93099999999993
 30
0.0
  9
$LIMMIN
 10
0.0
 20
0.0
  9
$LIMMAX
 10
12.0
 20
9.0
  9
$ORTHOMODE
 70
     0
  9
$REGENMODE
 70
     1
  9
$FILLMODE
 70
     1
  9
$QTEXTMODE
 70
     0
  9
$MIRRTEXT
 70
     1
  9
$DRAGMODE
 70
     2
  9
$LTSCALE
 40
1.0
  9
$OSMODE
 70
    37
  9
$ATTMODE
 70
     1
  9
$TEXTSIZE
 40
0.0
  9
$TRACEWID
 40
0.05
  9
$TEXTSTYLE
  7
STANDARD
  9
$CLAYER
  8
0
  9
$CELTYPE
  6
CONTINUOUS
  9
$CECOLOR
 62
   256
  9
$DIMSCALE
 40
1.0
  9
$DIMASZ
 40
0.18
  9
$DIMEXO
 40
0.0625
  9
$DIMDLI
 40
0.38
  9
$DIMRND
 40
0.0
  9
$DIMDLE
 40
0.0
  9
$DIMEXE
 40
0.18
  9
$DIMTP
 40
0.0
  9
$DIMTM
 40
0.0
  9
$DIMTXT
 40
0.18
  9
$DIMCEN
 40
0.09
  9
$DIMTSZ
 40
0.0
  9
$DIMTOL
 70
     0
  9
$DIMLIM
 70
     0
  9
$DIMTIH
 70
     1
  9
$DIMTOH
 70
     1
  9
$DIMSE1
 70
     0
  9
$DIMSE2
 70
     0
  9
$DIMTAD
 70
     0
  9
$DIMZIN
 70
     0
  9
$DIMBLK
  1

  9
$DIMASO
 70
     1
  9
$DIMSHO
 70
     1
  9
$DIMPOST
  1

  9
$DIMAPOST
  1

  9
$DIMALT
 70
     0
  9
$DIMALTD
 70
     2
  9
$DIMALTF
 40
25.399999999999999
  9
$DIMLFAC
 40
1.0
  9
$DIMTOFL
 70
     0
  9
$DIMTVP
 40
0.0
  9
$DIMTIX
 70
     0
  9
$DIMSOXD
 70
     0
  9
$DIMSAH
 70
     0
  9
$DIMBLK1
  1

  9
$DIMBLK2
  1

  9
$DIMSTYLE
  2
STANDARD
  9
$DIMCLRD
 70
     0
  9
$DIMCLRE
 70
     0
  9
$DIMCLRT
 70
     0
  9
$DIMTFAC
 40
1.0
  9
$DIMGAP
 40
0.09
  9
$LUNITS
 70
     2
  9
$LUPREC
 70
     4
  9
$SKETCHINC
 40
0.1
  9
$FILLETRAD
 40
0.0
  9
$AUNITS
 70
     0
  9
$AUPREC
 70
     0
  9
$MENU
  1
.
  9
$ELEVATION
 40
0.0
  9
$PELEVATION
 40
0.0
  9
$THICKNESS
 40
0.0
  9
$LIMCHECK
 70
     0
  9
$BLIPMODE
 70
     0
  9
$CHAMFERA
 40
0.0
  9
$CHAMFERB
 40
0.0
  9
$SKPOLY
 70
     0
  9
$TDCREATE
 40
2444972.375
  9
$TDUPDATE
 40
2454852.3769135182
  9
$TDINDWG
 40
0.0114442593
  9
$TDUSRTIMER
 40
0.0114442593
  9
$USRTIMER
 70
     1
  9
$ANGBASE
 50
0.0
  9
$ANGDIR
 70
     0
  9
$PDMODE
 70
     0
  9
$PDSIZE
 40
0.0
  9
$PLINEWID
 40
0.0
  9
$COORDS
 70
     1
  9
$SPLFRAME
 70
     0
  9
$SPLINETYPE
 70
     6
  9
$SPLINESEGS
 70
     8
  9
$ATTDIA
 70
     0
  9
$ATTREQ
 70
     1
  9
$HANDLING
 70
     1
  9
$HANDSEED
  5
15B
  9
$SURFTAB1
 70
     6
  9
$SURFTAB2
 70
     6
  9
$SURFTYPE
 70
     6
  9
$SURFU
 70
     6
  9
$SURFV
 70
     6
  9
$UCSNAME
  2

  9
$UCSORG
 10
0.0
 20
0.0
 30
0.0
  9
$UCSXDIR
 10
1.0
 20
0.0
 30
0.0
  9
$UCSYDIR
 10
0.0
 20
1.0
 30
0.0
  9
$PUCSNAME
  2

  9
$PUCSORG
 10
0.0
 20
0.0
 30
0.0
  9
$PUCSXDIR
 10
1.0
 20
0.0
 30
0.0
  9
$PUCSYDIR
 10
0.0
 20
1.0
 30
0.0
  9
$USERI1
 70
     0
  9
$USERI2
 70
     0
  9
$USERI3
 70
     0
  9
$USERI4
 70
     0
  9
$USERI5
 70
     0
  9
$USERR1
 40
0.0
  9
$USERR2
 40
0.0
  9
$USERR3
 40
0.0
  9
$USERR4
 40
0.0
  9
$USERR5
 40
0.0
  9
$WORLDVIEW
 70
     1
  9
$SHADEDGE
 70
     3
  9
$SHADEDIF
 70
    70
  9
$TILEMODE
 70
     1
  9
$MAXACTVP
 70
    48
  9
$PLIMCHECK
 70
     0
  9
$PEXTMIN
 10
1.0000000000000000E+020
 20
1.0000000000000000E+020
 30
1.0000000000000000E+020
  9
$PEXTMAX
 10
-1.0000000000000000E+020
 20
-1.0000000000000000E+020
 30
-1.0000000000000000E+020
  9
$PLIMMIN
 10
0.0
 20
0.0
  9
$PLIMMAX
 10
12.0
 20
9.0
  9
$UNITMODE
 70
     0
  9
$VISRETAIN
 70
     1
  9
$PLINEGEN
 70
     0
  9
$PSLTSCALE
 70
     1
  0
ENDSEC
  0
SECTION
  2
TABLES
  0
TABLE
  2
VPORT
 70
     2
  0
VPORT
  2
*ACTIVE
 70
     0
 10
0.0
 20
0.0
 11
1.0
 21
1.0
 12
237.3995557559418
 22
129.78109057696159
 13
0.0
 23
0.0
 14
1.0
 24
1.0
 15
0.0
 25
0.0
 16
0.0
 26
0.0
 36
1.0
 17
0.0
 27
0.0
 37
0.0
 40
277.92359399326949
 41
2.2894736842105261
 42
50.0
 43
0.0
 44
0.0
 50
0.0
 51
0.0
 71
     0
 72
   100
 73
     1
 74
     1
 75
     0
 76
     0
 77
     0
 78
     0
  0
ENDTAB
  0
TABLE
  2
LTYPE
 70
     5
  0
LTYPE
  2
CONTINUOUS
 70
     0
  3
Solid line
 72
    65
 73
     0
 40
0.0
  0
LTYPE
  2
AIGENLINE001
 70
     0
  3
generate AI->DXF Converter
 72
    65
 73
     3
 40
1.5522299999999991
 49
0.776115
 49
-0.776115
 49
0.0
  0
LTYPE
  2
AIGENLINE002
 70
     0
  3
generate AI->DXF Converter
 72
    65
 73
     4
 40
5.8561449999999988
 49
3.5278
 49
-0.776115
 49
0.776115
 49
-0.776115
  0
LTYPE
  2
AIGENLINE003
 70
     0
  3
generate AI->DXF Converter
 72
    65
 73
     5
 40
5.8561449999999988
 49
3.5278
 49
-0.776115
 49
0.776115
 49
-0.776115
 49
0.0
  0
LTYPE
  2
AIGENLINE004
 70
     0
  3
generate AI->DXF Converter
 72
    65
 73
     6
 40
7.4083750000000004
 49
3.5278
 49
-0.776115
 49
0.776115
 49
-0.776115
 49
0.776115
 49
-0.776115
  0
ENDTAB
  0
TABLE
  2
LAYER
 70
     2
  0
LAYER
  2
0
 70
     0
 62
     7
  6
CONTINUOUS
  0
LAYER
  2
_________2
 70
     0
 62
     7
  6
CONTINUOUS
  0
ENDTAB
  0
TABLE
  2
STYLE
 70
     1
  0
STYLE
  2
STANDARD
 70
     0
 40
0.0
 41
0.0
 50
0.0
 71
     0
 42
0.0
  3
TXT
  4
EXTFONT.SHX
  0
ENDTAB
  0
TABLE
  2
VIEW
 70
     0
  0
ENDTAB
  0
TABLE
  2
UCS
 70
     0
  0
ENDTAB
  0
TABLE
  2
APPID
 70
     1
  0
APPID
  2
ACAD
 70
     0
  0
ENDTAB
  0
TABLE
  2
DIMSTYLE
 70
     1
  0
DIMSTYLE
  2
STANDARD
 70
     0
  3

  4

  5

  6

  7

 40
1.0
 41
0.18
 42
0.0625
 43
0.38
 44
0.18
 45
0.0
 46
0.0
 47
0.0
 48
0.0
140
0.18
141
0.09
142
0.0
143
25.399999999999999
144
1.0
145
0.0
146
1.0
147
0.09
 71
     0
 72
     0
 73
     1
 74
     1
 75
     0
 76
     0
 77
     0
 78
     0
170
     0
171
     2
172
     0
173
     0
174
     0
175
     0
176
     0
177
     0
178
     0
  0
ENDTAB
  0
ENDSEC
  0
SECTION
  2
BLOCKS
  0
BLOCK
  8
0
  2
$MODEL_SPACE
 70
     0
 10
0.0
 20
0.0
 30
0.0
  3
$MODEL_SPACE
  1

  0
ENDBLK
  5
1A
  8
0
  0
BLOCK
 67
     1
  8
0
  2
$PAPER_SPACE
 70
     0
 10
0.0
 20
0.0
 30
0.0
  3
$PAPER_SPACE
  1

  0
ENDBLK
  5
17
 67
     1
  8
0
  0
ENDSEC
  0
SECTION
  2
ENTITIES
  0
TEXT
  5
25
  8
0
 62
     7
 10
171.84
 20
115.1162199999999
 30
0.0
 40
3.0923400000000001
  1
61
 50
90.0
 41
0.5
 72
     1
 11
171.84
 21
116.14700000000001
 31
0.0
  0
TEXT
  5
26
  8
0
 62
     7
 10
163.982
 20
120.0653725
 30
0.0
 40
3.0923400000000001
  1
30
 50
90.0
 41
0.5
 72
     1
 11
163.982
 21
121.22499999999999
 31
0.0
  0
TEXT
  5
27
  8
0
 62
     7
 10
126.3568299999999
 20
138.28499999999991
 30
0.0
 40
3.0923400000000001
  1
113
 41
0.5
 72
     1
 11
127.90299999999991
 21
138.28499999999991
 31
0.0
  0
TEXT
  5
28
  8
0
 62
     7
 10
90.842524999999995
 20
215.89400000000001
 30
0.0
 40
3.0923400000000001
  1
25
 41
0.5
 72
     1
 11
92.131
 21
215.89400000000001
 31
0.0
  0
TEXT
  5
29
  8
0
 62
     7
 10
74.390772499999997
 20
222.98500000000001
 30
0.0
 40
3.0923400000000001
  1
70
 41
0.5
 72
     1
 11
75.550399999999996
 21
222.98500000000001
 31
0.0
  0
TEXT
  5
2A
  8
0
 62
     7
 10
72.763772500000002
 20
215.89400000000001
 30
0.0
 40
3.0923400000000001
  1
30
 41
0.5
 72
     1
 11
73.923400000000001
 21
215.89400000000001
 31
0.0
  0
TEXT
  5
2B
  8
0
 62
     7
 10
58.213320000000003
 20
215.89400000000001
 30
0.0
 40
3.0923400000000001
  1
15
 41
0.5
 72
     1
 11
59.244100000000003
 21
215.89400000000001
 31
0.0
  0
TEXT
  5
2C
  8
0
 62
     7
 10
63.11263499999999
 20
88.347600000000014
 30
0.0
 40
3.0923400000000001
  1
138
 41
0.5
 72
     1
 11
64.916499999999985
 21
88.347600000000014
 31
0.0
  0
LINE
  5
2D
  8
0
 62
     7
 10
87.279499999999985
 20
158.227
 30
0.0
 11
87.279499999999985
 21
195.89400000000001
 31
0.0
  0
LINE
  5
2E
  8
0
 62
     7
 10
41.278899999999993
 20
184.89399999999989
 30
0.0
 11
41.278899999999993
 21
158.227
 31
0.0
  0
LINE
  5
2F
  8
0
 62
     7
 10
83.900000000000006
 20
102.604
 30
0.0
 11
83.899100000000004
 21
103.601
 31
0.0
  0
ARC
  5
30
  8
0
  6
AIGENLINE001
 62
     7
 10
68.946701000000004
 20
116.2571189999999
 30
0.0
 40
1.000032
 50
270.004954
 51
0.004925
  0
ARC
  5
31
  8
0
  6
AIGENLINE001
 62
     7
 10
68.946872999999997
 20
116.25711800000001
 30
0.0
 40
1.000030999999999
 50
179.995036
 51
269.99508500000002
  0
ARC
  5
32
  8
0
  6
AIGENLINE001
 62
     7
 10
68.946873999999994
 20
116.2572909999999
 30
0.0
 40
1.000032
 50
90.004935000000003
 51
180.00494499999991
  0
ARC
  5
33
  8
0
  6
AIGENLINE001
 62
     7
 10
68.946701000000004
 20
116.2572909999999
 30
0.0
 40
1.000032
 50
359.99507499999999
 51
89.995045999999988
  0
LINE
  5
34
  8
0
  6
AIGENLINE002
 62
     7
 10
66.771900000000002
 20
116.25700000000001
 30
0.0
 11
71.485799999999983
 21
116.25700000000001
 31
0.0
  0
LINE
  5
35
  8
0
  6
AIGENLINE002
 62
     7
 10
68.946799999999996
 20
118.84399999999989
 30
0.0
 11
68.946799999999996
 21
113.871
 31
0.0
  0
ARC
  5
36
  8
0
  6
AIGENLINE001
 62
     7
 10
78.947187
 20
116.2571189999999
 30
0.0
 40
1.000032
 50
270.004954
 51
0.004925
  0
ARC
  5
37
  8
0
  6
AIGENLINE001
 62
     7
 10
78.947360000000003
 20
116.25711800000001
 30
0.0
 40
1.000030999999999
 50
179.995036
 51
269.99508500000002
  0
ARC
  5
38
  8
0
  6
AIGENLINE001
 62
     7
 10
78.947360000000003
 20
116.2572909999999
 30
0.0
 40
1.000032
 50
90.004935000000003
 51
180.00494499999991
  0
ARC
  5
39
  8
0
  6
AIGENLINE001
 62
     7
 10
78.947187
 20
116.2572909999999
 30
0.0
 40
1.000032
 50
359.99507499999999
 51
89.995045999999988
  0
ARC
  5
3A
  8
0
 62
     7
 10
122.709407
 20
105.9776639999999
 30
0.0
 40
3.4631259999999999
 50
317.10616599999997
 51
42.893834000000012
  0
ARC
  5
3B
  8
0
 62
     7
 10
122.868803
 20
106.0636639999999
 30
0.0
 40
3.4092019999999992
 50
251.59616500000001
 51
314.2227410000001
  0
ARC
  5
3C
  8
0
 62
     7
 10
123.069603
 20
105.977478
 30
0.0
 40
3.4629019999999988
 50
137.09851399999991
 51
222.893112
  0
ARC
  5
3D
  8
0
 62
     7
 10
122.9107809999999
 20
105.8959109999999
 30
0.0
 40
3.4062260000000131
 50
73.899398999999761
 51
134.2736919999997
  0
LINE
  5
3E
  8
0
 62
     7
 10
89.536199999999994
 20
215.2299999999999
 30
0.0
 11
87.325599999999994
 21
214.63800000000001
 31
0.0
  0
LINE
  5
3F
  8
0
 62
     7
 10
87.325599999999994
 20
214.63800000000001
 30
0.0
 11
89.536199999999994
 21
214.0449999999999
 31
0.0
  0
LINE
  5
40
  8
0
 62
     7
 10
89.536199999999994
 20
214.0449999999999
 30
0.0
 11
89.536199999999994
 21
215.2299999999999
 31
0.0
  0
LINE
  5
41
  8
0
 62
     7
 10
71.191599999999994
 20
215.2299999999999
 30
0.0
 11
68.981099999999984
 21
214.63800000000001
 31
0.0
  0
LINE
  5
42
  8
0
 62
     7
 10
68.981099999999984
 20
214.63800000000001
 30
0.0
 11
71.191599999999994
 21
214.0449999999999
 31
0.0
  0
LINE
  5
43
  8
0
 62
     7
 10
71.191599999999994
 20
214.0449999999999
 30
0.0
 11
71.191599999999994
 21
215.2299999999999
 31
0.0
  0
LINE
  5
44
  8
0
 62
     7
 10
76.752600000000001
 20
214.06
 30
0.0
 11
78.963099999999983
 21
214.65199999999999
 31
0.0
  0
LINE
  5
45
  8
0
 62
     7
 10
78.963099999999983
 20
214.65199999999999
 30
0.0
 11
76.752600000000001
 21
215.24499999999989
 31
0.0
  0
LINE
  5
46
  8
0
 62
     7
 10
76.752600000000001
 20
215.24499999999989
 30
0.0
 11
76.752600000000001
 21
214.06
 31
0.0
  0
LINE
  5
47
  8
0
 62
     7
 10
61.700699999999991
 20
214.06
 30
0.0
 11
63.911200000000001
 21
214.65199999999999
 31
0.0
  0
LINE
  5
48
  8
0
 62
     7
 10
63.911200000000001
 20
214.65199999999999
 30
0.0
 11
61.700699999999991
 21
215.24499999999989
 31
0.0
  0
LINE
  5
49
  8
0
 62
     7
 10
61.700699999999991
 20
215.24499999999989
 30
0.0
 11
61.700699999999991
 21
214.06
 31
0.0
  0
LINE
  5
4A
  8
0
 62
     7
 10
57.12469999999999
 20
214.64500000000001
 30
0.0
 11
95.325000000000003
 21
214.64500000000001
 31
0.0
  0
LINE
  5
4B
  8
0
  6
AIGENLINE002
 62
     7
 10
116.53
 20
105.995
 30
0.0
 11
128.238
 21
105.995
 31
0.0
  0
LINE
  5
4C
  8
0
  6
AIGENLINE003
 62
     7
 10
38.825800000000001
 20
105.995
 30
0.0
 11
89.607500000000002
 21
105.995
 31
0.0
  0
LINE
  5
4D
  8
0
 62
     7
 10
41.278899999999993
 20
109.386
 30
0.0
 11
87.279499999999985
 21
109.386
 31
0.0
  0
LINE
  5
4E
  8
0
 62
     7
 10
63.945900000000002
 20
181.89399999999989
 30
0.0
 11
63.945900000000002
 21
195.89400000000001
 31
0.0
  0
LINE
  5
4F
  8
0
 62
     7
 10
63.945900000000002
 20
113.6989999999999
 30
0.0
 11
63.945900000000002
 21
109.386
 31
0.0
  0
LINE
  5
50
  8
0
 62
     7
 10
44.018399999999993
 20
111.846
 30
0.0
 11
41.918799999999997
 21
111.846
 31
0.0
  0
LINE
  5
51
  8
0
 62
     7
 10
41.918799999999997
 20
109.386
 30
0.0
 11
41.918799999999997
 21
111.846
 31
0.0
  0
LINE
  5
52
  8
0
 62
     7
 10
44.018399999999993
 20
109.386
 30
0.0
 11
44.018399999999993
 21
111.846
 31
0.0
  0
LINE
  5
53
  8
0
 62
     7
 10
173.768
 20
105.926
 30
0.0
 11
147.85699999999991
 21
105.926
 31
0.0
  0
LINE
  5
54
  8
0
 62
     7
 10
173.30199999999999
 20
123.9739999999999
 30
0.0
 11
172.71000000000001
 21
126.184
 31
0.0
  0
LINE
  5
55
  8
0
 62
     7
 10
172.71000000000001
 20
126.184
 30
0.0
 11
172.11799999999991
 21
123.9739999999999
 31
0.0
  0
LINE
  5
56
  8
0
 62
     7
 10
172.11799999999991
 20
123.9739999999999
 30
0.0
 11
173.30199999999999
 21
123.9739999999999
 31
0.0
  0
LINE
  5
57
  8
0
 62
     7
 10
172.1329999999999
 20
108.095
 30
0.0
 11
172.72499999999991
 21
105.88500000000001
 31
0.0
  0
LINE
  5
58
  8
0
 62
     7
 10
172.72499999999991
 20
105.88500000000001
 30
0.0
 11
173.31700000000001
 21
108.095
 31
0.0
  0
LINE
  5
59
  8
0
 62
     7
 10
173.31700000000001
 20
108.095
 30
0.0
 11
172.1329999999999
 21
108.095
 31
0.0
  0
LINE
  5
5A
  8
0
 62
     7
 10
172.7179999999999
 20
126.184
 30
0.0
 11
172.7179999999999
 21
105.88500000000001
 31
0.0
  0
LINE
  5
5B
  8
0
 62
     7
 10
111.1369999999999
 20
137.63499999999991
 30
0.0
 11
108.92700000000001
 21
137.04199999999989
 31
0.0
  0
LINE
  5
5C
  8
0
 62
     7
 10
108.92700000000001
 20
137.04199999999989
 30
0.0
 11
111.1369999999999
 21
136.4499999999999
 31
0.0
  0
LINE
  5
5D
  8
0
 62
     7
 10
111.1369999999999
 20
136.4499999999999
 30
0.0
 11
111.1369999999999
 21
137.63499999999991
 31
0.0
  0
LINE
  5
5E
  8
0
 62
     7
 10
144.286
 20
136.465
 30
0.0
 11
146.49700000000001
 21
137.05699999999999
 31
0.0
  0
LINE
  5
5F
  8
0
 62
     7
 10
146.49700000000001
 20
137.05699999999999
 30
0.0
 11
144.286
 21
137.64899999999989
 31
0.0
  0
LINE
  5
60
  8
0
 62
     7
 10
144.286
 20
137.64899999999989
 30
0.0
 11
144.286
 21
136.465
 31
0.0
  0
LINE
  5
61
  8
0
 62
     7
 10
110.7329999999999
 20
137.05000000000001
 30
0.0
 11
146.47
 21
137.05000000000001
 31
0.0
  0
LINE
  5
62
  8
0
 62
     7
 10
66.1738
 20
222.49000000000001
 30
0.0
 11
63.96329999999999
 21
221.898
 31
0.0
  0
LINE
  5
63
  8
0
 62
     7
 10
63.96329999999999
 20
221.898
 30
0.0
 11
66.1738
 21
221.30600000000001
 31
0.0
  0
LINE
  5
64
  8
0
 62
     7
 10
66.1738
 20
221.30600000000001
 30
0.0
 11
66.1738
 21
222.49000000000001
 31
0.0
  0
LINE
  5
65
  8
0
 62
     7
 10
85.060500000000005
 20
221.31999999999999
 30
0.0
 11
87.271000000000001
 21
221.91200000000001
 31
0.0
  0
LINE
  5
66
  8
0
 62
     7
 10
87.271000000000001
 20
221.91200000000001
 30
0.0
 11
85.060500000000005
 21
222.50499999999991
 31
0.0
  0
LINE
  5
67
  8
0
 62
     7
 10
85.060500000000005
 20
222.50499999999991
 30
0.0
 11
85.060500000000005
 21
221.31999999999999
 31
0.0
  0
LINE
  5
68
  8
0
 62
     7
 10
63.96329999999999
 20
221.905
 30
0.0
 11
87.268100000000004
 21
221.905
 31
0.0
  0
LINE
  5
69
  8
0
 62
     7
 10
164.739
 20
118.51300000000001
 30
0.0
 11
165.3309999999999
 21
116.30200000000001
 31
0.0
  0
LINE
  5
6A
  8
0
 62
     7
 10
165.3309999999999
 20
116.30200000000001
 30
0.0
 11
165.92400000000001
 21
118.51300000000001
 31
0.0
  0
LINE
  5
6B
  8
0
 62
     7
 10
165.92400000000001
 20
118.51300000000001
 30
0.0
 11
164.739
 21
118.51300000000001
 31
0.0
  0
LINE
  5
6C
  8
0
 62
     7
 10
165.90899999999999
 20
123.988
 30
0.0
 11
165.31700000000001
 21
126.1989999999999
 31
0.0
  0
LINE
  5
6D
  8
0
 62
     7
 10
165.31700000000001
 20
126.1989999999999
 30
0.0
 11
164.72399999999999
 21
123.988
 31
0.0
  0
LINE
  5
6E
  8
0
 62
     7
 10
164.72399999999999
 20
123.988
 30
0.0
 11
165.90899999999999
 21
123.988
 31
0.0
  0
LINE
  5
6F
  8
0
 62
     7
 10
165.32400000000001
 20
116.30200000000001
 30
0.0
 11
165.32400000000001
 21
126.1989999999999
 31
0.0
  0
LINE
  5
70
  8
0
 62
     7
 10
68.619299999999996
 20
195.89400000000001
 30
0.0
 11
69.453599999999994
 21
196.37200000000001
 31
0.0
  0
LINE
  5
71
  8
0
 62
     7
 10
67.822800000000001
 20
197.184
 30
0.0
 11
70.070400000000006
 21
198.47200000000001
 31
0.0
  0
LINE
  5
72
  8
0
 62
     7
 10
67.822800000000001
 20
199.28399999999999
 30
0.0
 11
70.070400000000006
 21
200.572
 31
0.0
  0
LINE
  5
73
  8
0
 62
     7
 10
67.822800000000001
 20
201.38399999999999
 30
0.0
 11
70.070400000000006
 21
202.67099999999999
 31
0.0
  0
LINE
  5
74
  8
0
 62
     7
 10
67.822800000000001
 20
203.4839999999999
 30
0.0
 11
70.070400000000006
 21
204.77199999999999
 31
0.0
  0
LINE
  5
75
  8
0
 62
     7
 10
67.822800000000001
 20
205.58399999999989
 30
0.0
 11
70.070400000000006
 21
206.87200000000001
 31
0.0
  0
LINE
  5
76
  8
0
 62
     7
 10
69.705200000000005
 20
207.0079999999999
 30
0.0
 11
68.946799999999996
 21
208.077
 31
0.0
  0
LINE
  5
77
  8
0
 62
     7
 10
68.1875
 20
207.0079999999999
 30
0.0
 11
68.946799999999996
 21
208.077
 31
0.0
  0
LINE
  5
78
  8
0
 62
     7
 10
68.1875
 20
195.89400000000001
 30
0.0
 11
68.1875
 21
207.0079999999999
 31
0.0
  0
LINE
  5
79
  8
0
 62
     7
 10
69.705200000000005
 20
195.89400000000001
 30
0.0
 11
69.705200000000005
 21
207.0079999999999
 31
0.0
  0
LINE
  5
7A
  8
0
  6
AIGENLINE002
 62
     7
 10
68.946799999999996
 20
194.39399999999989
 30
0.0
 11
68.946799999999996
 21
208.67699999999999
 31
0.0
  0
LINE
  5
7B
  8
0
 62
     7
 10
78.619799999999984
 20
195.89400000000001
 30
0.0
 11
79.454099999999997
 21
196.37200000000001
 31
0.0
  0
LINE
  5
7C
  8
0
 62
     7
 10
77.823300000000003
 20
197.184
 30
0.0
 11
80.070899999999995
 21
198.47200000000001
 31
0.0
  0
LINE
  5
7D
  8
0
 62
     7
 10
77.823300000000003
 20
199.28399999999999
 30
0.0
 11
80.070899999999995
 21
200.572
 31
0.0
  0
LINE
  5
7E
  8
0
 62
     7
 10
77.823300000000003
 20
201.38399999999999
 30
0.0
 11
80.070899999999995
 21
202.67099999999999
 31
0.0
  0
LINE
  5
7F
  8
0
 62
     7
 10
77.823300000000003
 20
203.4839999999999
 30
0.0
 11
80.070899999999995
 21
204.77199999999999
 31
0.0
  0
LINE
  5
80
  8
0
 62
     7
 10
77.823300000000003
 20
205.58399999999989
 30
0.0
 11
80.070899999999995
 21
206.87200000000001
 31
0.0
  0
LINE
  5
81
  8
0
 62
     7
 10
79.705699999999993
 20
207.0079999999999
 30
0.0
 11
78.947299999999998
 21
208.077
 31
0.0
  0
LINE
  5
82
  8
0
 62
     7
 10
78.188000000000002
 20
207.0079999999999
 30
0.0
 11
78.947299999999998
 21
208.077
 31
0.0
  0
LINE
  5
83
  8
0
 62
     7
 10
78.188000000000002
 20
195.89400000000001
 30
0.0
 11
78.188000000000002
 21
207.0079999999999
 31
0.0
  0
LINE
  5
84
  8
0
 62
     7
 10
79.705699999999993
 20
195.89400000000001
 30
0.0
 11
79.705699999999993
 21
207.0079999999999
 31
0.0
  0
LINE
  5
85
  8
0
  6
AIGENLINE002
 62
     7
 10
78.947299999999998
 20
194.39399999999989
 30
0.0
 11
78.947299999999998
 21
208.67699999999999
 31
0.0
  0
LINE
  5
86
  8
0
 62
     7
 10
146.524
 20
116.5839999999999
 30
0.0
 11
147.001
 21
115.7499999999999
 31
0.0
  0
LINE
  5
87
  8
0
 62
     7
 10
147.81399999999991
 20
117.381
 30
0.0
 11
149.10099999999991
 21
115.1329999999999
 31
0.0
  0
LINE
  5
88
  8
0
 62
     7
 10
149.9139999999999
 20
117.381
 30
0.0
 11
151.20099999999999
 21
115.1329999999999
 31
0.0
  0
LINE
  5
89
  8
0
 62
     7
 10
152.01400000000001
 20
117.381
 30
0.0
 11
153.30099999999999
 21
115.1329999999999
 31
0.0
  0
LINE
  5
8A
  8
0
 62
     7
 10
154.114
 20
117.381
 30
0.0
 11
155.40199999999999
 21
115.1329999999999
 31
0.0
  0
LINE
  5
8B
  8
0
 62
     7
 10
156.214
 20
117.381
 30
0.0
 11
157.50099999999989
 21
115.1329999999999
 31
0.0
  0
LINE
  5
8C
  8
0
 62
     7
 10
157.63800000000001
 20
115.4989999999999
 30
0.0
 11
158.70599999999999
 21
116.25700000000001
 31
0.0
  0
LINE
  5
8D
  8
0
 62
     7
 10
157.63800000000001
 20
117.017
 30
0.0
 11
158.70599999999999
 21
116.25700000000001
 31
0.0
  0
LINE
  5
8E
  8
0
 62
     7
 10
146.524
 20
117.017
 30
0.0
 11
157.63800000000001
 21
117.017
 31
0.0
  0
LINE
  5
8F
  8
0
 62
     7
 10
146.524
 20
115.4989999999999
 30
0.0
 11
157.63800000000001
 21
115.4989999999999
 31
0.0
  0
LINE
  5
90
  8
0
  6
AIGENLINE002
 62
     7
 10
76.772400000000005
 20
116.25700000000001
 30
0.0
 11
81.4863
 21
116.25700000000001
 31
0.0
  0
LINE
  5
91
  8
0
  6
AIGENLINE002
 62
     7
 10
145.02399999999989
 20
116.25700000000001
 30
0.0
 11
159.30699999999999
 21
116.25700000000001
 31
0.0
  0
LINE
  5
92
  8
0
 62
     7
 10
159.756
 20
116.25700000000001
 30
0.0
 11
165.78599999999989
 21
116.25700000000001
 31
0.0
  0
LINE
  5
93
  8
0
 62
     7
 10
146.524
 20
138.09999999999999
 30
0.0
 11
146.524
 21
127.2799999999999
 31
0.0
  0
LINE
  5
94
  8
0
 62
     7
 10
108.85599999999999
 20
138.09999999999999
 30
0.0
 11
108.85599999999999
 21
118.26900000000001
 31
0.0
  0
LINE
  5
95
  8
0
 62
     7
 10
63.945900000000002
 20
222.95500000000001
 30
0.0
 11
63.945900000000002
 21
197.20399999999989
 31
0.0
  0
LINE
  5
96
  8
0
  6
AIGENLINE002
 62
     7
 10
122.90600000000001
 20
113.738
 30
0.0
 11
122.90600000000001
 21
98.503500000000003
 31
0.0
  0
LINE
  5
97
  8
0
  6
AIGENLINE002
 62
     7
 10
78.947299999999998
 20
118.84399999999989
 30
0.0
 11
78.947299999999998
 21
113.871
 31
0.0
  0
LINE
  5
98
  8
0
 62
     7
 10
78.947299999999998
 20
215.69499999999999
 30
0.0
 11
78.947299999999998
 21
209.52500000000001
 31
0.0
  0
LINE
  5
99
  8
0
 62
     7
 10
68.946799999999996
 20
215.69499999999999
 30
0.0
 11
68.946799999999996
 21
209.52500000000001
 31
0.0
  0
LINE
  5
9A
  8
0
 62
     7
 10
87.279499999999985
 20
222.95500000000001
 30
0.0
 11
87.279499999999985
 21
197.20399999999989
 31
0.0
  0
LINE
  5
9B
  8
0
 62
     7
 10
173.768
 20
126.258
 30
0.0
 11
147.5629999999999
 21
126.258
 31
0.0
  0
LINE
  5
9C
  8
0
 62
     7
 10
41.278899999999993
 20
86.349500000000006
 30
0.0
 11
41.278899999999993
 21
101.553
 31
0.0
  0
LINE
  5
9D
  8
0
 62
     7
 10
87.279499999999985
 20
86.349500000000006
 30
0.0
 11
87.279499999999985
 21
102.551
 31
0.0
  0
LINE
  5
9E
  8
0
 62
     7
 10
43.5625
 20
87.984499999999997
 30
0.0
 11
41.352099999999993
 21
87.392300000000006
 31
0.0
  0
LINE
  5
9F
  8
0
 62
     7
 10
41.352099999999993
 20
87.392300000000006
 30
0.0
 11
43.5625
 21
86.799700000000001
 31
0.0
  0
LINE
  5
A0
  8
0
 62
     7
 10
43.5625
 20
86.799700000000001
 30
0.0
 11
43.5625
 21
87.984499999999997
 31
0.0
  0
LINE
  5
A1
  8
0
 62
     7
 10
85.023600000000016
 20
86.814499999999995
 30
0.0
 11
87.234200000000001
 21
87.406800000000004
 31
0.0
  0
LINE
  5
A2
  8
0
 62
     7
 10
87.234200000000001
 20
87.406800000000004
 30
0.0
 11
85.023600000000016
 21
87.998999999999995
 31
0.0
  0
LINE
  5
A3
  8
0
 62
     7
 10
85.023600000000016
 20
87.998999999999995
 30
0.0
 11
85.023600000000016
 21
86.814499999999995
 31
0.0
  0
LINE
  5
A4
  8
0
 62
     7
 10
41.352099999999993
 20
87.399500000000003
 30
0.0
 11
87.234200000000001
 21
87.399500000000003
 31
0.0
  0
LINE
  5
A5
  8
0
 62
     7
 10
44.018399999999993
 20
100.14399999999991
 30
0.0
 11
41.918799999999997
 21
100.14399999999991
 31
0.0
  0
LINE
  5
A6
  8
0
 62
     7
 10
83.900000000000006
 20
102.604
 30
0.0
 11
41.278899999999993
 21
102.604
 31
0.0
  0
LINE
  5
A7
  8
0
 62
     7
 10
84.539400000000015
 20
101.0089999999999
 30
0.0
 11
86.638700000000014
 21
101.0089999999999
 31
0.0
  0
LINE
  5
A8
  8
0
 62
     7
 10
41.918799999999997
 20
100.14399999999991
 30
0.0
 11
44.018399999999993
 21
100.14399999999991
 31
0.0
  0
LINE
  5
A9
  8
0
 62
     7
 10
41.918799999999997
 20
102.604
 30
0.0
 11
41.918799999999997
 21
100.14399999999991
 31
0.0
  0
LINE
  5
AA
  8
0
 62
     7
 10
44.018399999999993
 20
102.604
 30
0.0
 11
44.018399999999993
 21
100.14399999999991
 31
0.0
  0
LINE
  5
AB
  8
0
 62
     7
 10
84.539400000000015
 20
113.6989999999999
 30
0.0
 11
84.539400000000015
 21
109.386
 31
0.0
  0
LINE
  5
AC
  8
0
 62
     7
 10
86.639499999999984
 20
113.6989999999999
 30
0.0
 11
86.639499999999984
 21
109.38499999999991
 31
0.0
  0
LINE
  5
AD
  8
0
 62
     7
 10
84.539400000000015
 20
103.601
 30
0.0
 11
84.539400000000015
 21
101.0089999999999
 31
0.0
  0
LINE
  5
AE
  8
0
 62
     7
 10
86.639499999999984
 20
103.601
 30
0.0
 11
86.639499999999984
 21
101.0089999999999
 31
0.0
  0
LINE
  5
AF
  8
0
 62
     7
 10
84.539400000000015
 20
101.705
 30
0.0
 11
86.639499999999984
 21
101.705
 31
0.0
  0
LINE
  5
B0
  8
0
 62
     7
 10
83.899100000000004
 20
103.601
 30
0.0
 11
87.279499999999985
 21
103.601
 31
0.0
  0
LINE
  5
B1
  8
0
  6
AIGENLINE004
 62
     7
 10
44.658700000000003
 20
80.405199999999994
 30
0.0
 11
44.658700000000003
 21
113.6989999999999
 31
0.0
  0
LINE
  5
B2
  8
0
  6
AIGENLINE004
 62
     7
 10
83.899100000000004
 20
80.405199999999994
 30
0.0
 11
83.899100000000004
 21
113.6989999999999
 31
0.0
  0
LINE
  5
B3
  8
0
  6
AIGENLINE004
 62
     7
 10
83.899100000000004
 20
80.406300000000002
 30
0.0
 11
44.658700000000003
 21
80.406300000000002
 31
0.0
  0
LINE
  5
B4
  8
0
 62
     7
 10
87.279499999999985
 20
126.258
 30
0.0
 11
87.279499999999985
 21
103.601
 31
0.0
  0
LINE
  5
B5
  8
0
 62
     7
 10
123.572
 20
109.348
 30
0.0
 11
123.572
 21
109.3429999999999
 31
0.0
  0
LINE
  5
B6
  8
0
 62
     7
 10
123.572
 20
102.6689999999999
 30
0.0
 11
123.572
 21
100.14399999999991
 31
0.0
  0
LINE
  5
B7
  8
0
 62
     7
 10
123.572
 20
111.874
 30
0.0
 11
123.572
 21
109.348
 31
0.0
  0
LINE
  5
B8
  8
0
 62
     7
 10
122.2399999999999
 20
102.6689999999999
 30
0.0
 11
122.2399999999999
 21
100.14399999999991
 31
0.0
  0
LINE
  5
B9
  8
0
 62
     7
 10
122.2399999999999
 20
111.874
 30
0.0
 11
122.2399999999999
 21
109.348
 31
0.0
  0
LINE
  5
BA
  8
0
 62
     7
 10
123.572
 20
111.874
 30
0.0
 11
122.2399999999999
 21
111.874
 31
0.0
  0
LINE
  5
BB
  8
0
 62
     7
 10
122.2399999999999
 20
100.14399999999991
 30
0.0
 11
123.572
 21
100.14399999999991
 31
0.0
  0
LINE
  5
BC
  8
0
 62
     7
 10
41.278899999999993
 20
109.386
 30
0.0
 11
41.278899999999993
 21
102.604
 31
0.0
  0
LINE
  5
BD
  8
0
 62
     7
 10
41.278899999999993
 20
126.258
 30
0.0
 11
41.278899999999993
 21
113.6989999999999
 31
0.0
  0
LINE
  5
BE
  8
0
 62
     7
 10
41.278899999999993
 20
113.6989999999999
 30
0.0
 11
87.278899999999993
 21
113.6989999999999
 31
0.0
  0
LINE
  5
BF
  8
0
 62
     7
 10
109.152
 20
115.73399999999999
 30
0.0
 11
108.8689999999999
 21
116.101
 31
0.0
  0
ARC
  5
C0
  8
0
 62
     7
 10
131.55668499999999
 20
96.038557999999995
 30
0.0
 40
30.306927999999999
 50
89.464720999999983
 51
138.501983
  0
LINE
  5
C1
  8
0
 62
     7
 10
146.524
 20
105.926
 30
0.0
 11
145.43600000000001
 21
105.926
 31
0.0
  0
ARC
  5
C2
  8
0
 62
     7
 10
124.9206199999999
 20
100.82456500000001
 30
0.0
 40
21.688082000000001
 50
74.361508000000001
 51
136.571923
  0
ARC
  5
C3
  8
0
 62
     7
 10
123.668907
 20
100.601567
 30
0.0
 40
22.409220000000001
 50
13.745810999999989
 51
59.645679999999999
  0
ARC
  5
C4
  8
0
 62
     7
 10
125.251277
 20
102.57434000000001
 30
0.0
 40
19.910647999999998
 50
60.706212000000001
 51
65.441613000000004
  0
LINE
  5
C5
  8
0
 62
     7
 10
130.76699999999991
 20
121.709
 30
0.0
 11
131.79300000000001
 21
122.3449999999999
 31
0.0
  0
LINE
  5
C6
  8
0
 62
     7
 10
131.84
 20
126.34399999999989
 30
0.0
 11
132.58500000000001
 21
125.2259999999999
 31
0.0
  0
LINE
  5
C7
  8
0
 62
     7
 10
133.52500000000001
 20
121.381
 30
0.0
 11
133.52500000000001
 21
120.6849999999999
 31
0.0
  0
LINE
  5
C8
  8
0
 62
     7
 10
133.52500000000001
 20
126.258
 30
0.0
 11
133.52500000000001
 21
125.455
 31
0.0
  0
LINE
  5
C9
  8
0
 62
     7
 10
120.64
 20
101.0089999999999
 30
0.0
 11
119.4989999999999
 21
101.705
 31
0.0
  0
LINE
  5
CA
  8
0
 62
     7
 10
119.4989999999999
 20
101.705
 30
0.0
 11
133.95599999999999
 21
125.40899999999991
 31
0.0
  0
LINE
  5
CB
  8
0
  6
AIGENLINE002
 62
     7
 10
135.85900000000001
 20
121.985
 30
0.0
 11
130.93299999999991
 21
124.994
 31
0.0
  0
LINE
  5
CD
  8
0
 62
     7
 10
120.64
 20
101.0089999999999
 30
0.0
 11
135.0979999999999
 21
124.71299999999999
 31
0.0
  0
ARC
  5
CE
  8
0
 62
     7
 10
133.447135
 20
123.340194
 30
0.0
 40
2.1165549999999991
 50
2.1034739999999998
 51
87.896516000000005
  0
ARC
  5
CF
  8
0
 62
     7
 10
133.60251700000001
 20
123.3405429999999
 30
0.0
 40
2.1162070000000002
 50
92.104039999999998
 51
177.905619
  0
ARC
  5
D0
  8
0
 62
     7
 10
133.60251199999999
 20
123.4955709999999
 30
0.0
 40
2.1162149999999991
 50
182.103937
 51
267.89609300000001
  0
ARC
  5
D1
  8
0
 62
     7
 10
133.44713899999999
 20
123.4959209999999
 30
0.0
 40
2.116563999999999
 50
272.10335099999992
 51
357.88697000000002
  0
LINE
  5
E2
  8
0
 62
     7
 10
146.524
 20
105.926
 30
0.0
 11
146.524
 21
126.258
 31
0.0
  0
LINE
  5
E3
  8
0
 62
     7
 10
133.52500000000001
 20
126.258
 30
0.0
 11
146.524
 21
126.258
 31
0.0
  0
LINE
  5
E4
  8
0
 62
     7
 10
41.278899999999993
 20
184.89399999999989
 30
0.0
 11
63.945900000000002
 21
184.89399999999989
 31
0.0
  0
LINE
  5
E5
  8
0
  6
AIGENLINE003
 62
     7
 10
38.958799999999997
 20
182.89400000000001
 30
0.0
 11
89.303600000000003
 21
182.89400000000001
 31
0.0
  0
LINE
  5
E6
  8
0
 62
     7
 10
63.945900000000002
 20
182.89400000000001
 30
0.0
 11
87.279499999999985
 21
182.89400000000001
 31
0.0
  0
LINE
  5
E7
  8
0
 62
     7
 10
41.278899999999993
 20
181.89399999999989
 30
0.0
 11
87.279499999999985
 21
181.89399999999989
 31
0.0
  0
LINE
  5
E8
  8
0
 62
     7
 10
63.945900000000002
 20
195.89400000000001
 30
0.0
 11
87.279499999999985
 21
195.89400000000001
 31
0.0
  0
LINE
  5
E9
  8
0
 62
     7
 10
41.278899999999993
 20
158.227
 30
0.0
 11
87.279499999999985
 21
158.227
 31
0.0
  0
LINE
  5
EA
  8
0
 62
     7
 10
41.278899999999993
 20
126.258
 30
0.0
 11
87.279499999999985
 21
126.258
 31
0.0
  0
TEXT
  5
EB
  8
_________2
 62
     7
 10
109.179
 20
24.226099999999999
 30
0.0
 40
3.9357000000000002
  1
アクセリオ/アドロイト　シングル紙巻器
 41
0.5
  0
LINE
  5
EC
  8
_________2
 62
     7
 10
205.30099999999999
 20
127.411
 30
0.0
 11
183.55099999999999
 21
127.411
 31
0.0
  0
LINE
  5
ED
  8
_________2
 62
     7
 10
100.2999999999999
 20
-4.0910799999999998
 30
0.0
 11
100.2999999999999
 21
-21.070999999999991
 31
0.0
  0
LINE
  5
EE
  8
_________2
 62
     7
 10
100.2999999999999
 20
275.93099999999993
 30
0.0
 11
100.2999999999999
 21
258.911
 31
0.0
  0
LINE
  5
EF
  8
_________2
 62
     7
 10
17.049399999999991
 20
127.411
 30
0.0
 11
-4.7010300000000003
 21
127.411
 31
0.0
  0
LINE
  5
F0
  8
_________2
 62
     7
 10
76.740799999999993
 20
29.8047
 30
0.0
 11
74.554599999999994
 21
29.8047
 31
0.0
  0
LINE
  5
F1
  8
_________2
 62
     7
 10
77.233500000000006
 20
29.8047
 30
0.0
 11
76.981300000000005
 21
29.8047
 31
0.0
  0
LINE
  5
F2
  8
_________2
 62
     7
 10
77.726200000000006
 20
29.8047
 30
0.0
 11
80.6511
 21
29.8047
 31
0.0
  0
LINE
  5
F3
  8
_________2
 62
     7
 10
77.233500000000006
 20
29.8047
 30
0.0
 11
77.485699999999994
 21
29.8047
 31
0.0
  0
LINE
  5
F4
  8
_________2
 62
     7
 10
70.837299999999999
 20
29.8047
 30
0.0
 11
68.650300000000001
 21
29.8047
 31
0.0
  0
LINE
  5
F5
  8
_________2
 62
     7
 10
71.329300000000003
 20
29.8047
 30
0.0
 11
71.077799999999996
 21
29.8047
 31
0.0
  0
LINE
  5
F6
  8
_________2
 62
     7
 10
71.329300000000003
 20
30.2974
 30
0.0
 11
71.329300000000003
 21
32.484400000000001
 31
0.0
  0
LINE
  5
F7
  8
_________2
 62
     7
 10
71.329300000000003
 20
29.8047
 30
0.0
 11
71.329300000000003
 21
30.057300000000001
 31
0.0
  0
LINE
  5
F8
  8
_________2
 62
     7
 10
71.821899999999999
 20
29.8047
 30
0.0
 11
74.008899999999997
 21
29.8047
 31
0.0
  0
LINE
  5
F9
  8
_________2
 62
     7
 10
71.329300000000003
 20
29.8047
 30
0.0
 11
71.581400000000002
 21
29.8047
 31
0.0
  0
LINE
  5
FA
  8
_________2
 62
     7
 10
71.329300000000003
 20
29.312799999999999
 30
0.0
 11
71.329300000000003
 21
27.126200000000001
 31
0.0
  0
LINE
  5
FB
  8
_________2
 62
     7
 10
71.329300000000003
 20
29.8047
 30
0.0
 11
71.329300000000003
 21
29.5532
 31
0.0
  0
LINE
  5
FC
  8
_________2
 62
     7
 10
75.040300000000002
 20
28.5852
 30
0.0
 11
80.218299999999985
 21
27.720400000000001
 31
0.0
  0
LINE
  5
FD
  8
_________2
 62
     7
 10
75.040300000000002
 20
31.024699999999999
 30
0.0
 11
80.218299999999985
 21
31.8901
 31
0.0
  0
LINE
  5
FE
  8
_________2
 62
     7
 10
80.218299999999985
 20
27.720400000000001
 30
0.0
 11
80.218299999999985
 21
31.8901
 31
0.0
  0
LINE
  5
FF
  8
_________2
 62
     7
 10
75.040300000000002
 20
28.5852
 30
0.0
 11
75.040300000000002
 21
31.024699999999999
 31
0.0
  0
ARC
  5
100
  8
_________2
 62
     7
 10
71.282674
 20
29.757801000000001
 30
0.0
 40
1.267714
 50
2.1220840000000001
 51
87.894083999999992
  0
ARC
  5
101
  8
_________2
 62
     7
 10
71.375812999999994
 20
29.758545999999999
 30
0.0
 40
1.2669680000000001
 50
92.105782999999988
 51
177.91037
  0
ARC
  5
102
  8
_________2
 62
     7
 10
71.376186000000004
 20
29.851671
 30
0.0
 40
1.2673680000000001
 50
182.12203600000001
 51
267.877993
  0
ARC
  5
103
  8
_________2
 62
     7
 10
71.282368999999989
 20
29.852347999999999
 30
0.0
 40
1.2680439999999991
 50
272.11916400000001
 51
357.84848499999993
  0
ARC
  5
104
  8
_________2
 62
     7
 10
71.248890000000003
 20
29.724731999999989
 30
0.0
 40
2.1668310000000002
 50
2.1161439999999989
 51
87.874379000000005
  0
ARC
  5
105
  8
_________2
 62
     7
 10
71.408928000000003
 20
29.726146
 30
0.0
 40
2.165392999999999
 50
92.108508999999998
 51
177.91986499999999
  0
ARC
  5
106
  8
_________2
 62
     7
 10
71.409267
 20
29.884751999999999
 30
0.0
 40
2.1657829999999998
 50
182.117133
 51
267.88289700000001
  0
ARC
  5
107
  8
_________2
 62
     7
 10
71.249286999999995
 20
29.885429999999989
 30
0.0
 40
2.1664590000000001
 50
272.11546800000002
 51
357.86560400000002
  0
TEXT
  5
108
  8
_________2
 62
     7
 10
104.605
 20
1.6794899999999999
 30
0.0
 40
3.0923400000000001
  1
図番
 41
0.5
  0
LINE
  5
109
  8
_________2
 62
     7
 10
103.55
 20
5.9087199999999989
 30
0.0
 11
183.55099999999999
 21
5.9087199999999989
 31
0.0
  0
TEXT
  5
10A
  8
_________2
 62
     7
 10
104.605
 20
11.679299999999991
 30
0.0
 40
3.0923400000000001
  1
品番
 41
0.5
  0
TEXT
  5
10B
  8
_________2
 62
     7
 10
104.605
 20
31.8184
 30
0.0
 40
3.0923400000000001
  1
名称
 41
0.5
  0
TEXT
  5
10C
  8
_________2
 62
     7
 10
91.844958333333338
 20
26.822299999999998
 30
0.0
 40
3.6545800000000002
  1
mm
 41
0.5
 72
     1
 11
93.367699999999985
 21
26.822299999999998
 31
0.0
  0
TEXT
  5
10D
  8
_________2
 62
     7
 10
85.642999999999986
 20
31.8184
 30
0.0
 40
3.0923400000000001
  1
単位
 41
0.5
  0
TEXT
  5
10E
  8
_________2
 62
     7
 10
85.642999999999986
 20
19.410799999999991
 30
0.0
 40
3.0923400000000001
  1
尺度
 41
0.5
  0
TEXT
  5
10F
  8
_________2
 62
     7
 10
90.548558666666679
 20
13.218199999999991
 30
0.0
 40
3.6545800000000002
  1
1 ： 3
 41
0.5
 72
     1
 11
93.959500000000006
 21
13.218199999999991
 31
0.0
  0
TEXT
  5
110
  8
_________2
 62
     7
 10
137.4824625
 20
9.1082000000000001
 30
0.0
 40
3.9357000000000002
  1
CEA310T
 41
0.5
 72
     1
 11
143.55000000000001
 21
9.1082000000000001
 31
0.0
  0
TEXT
  5
111
  8
_________2
 62
     7
 10
137.4824625
 20
-0.8926299999999999
 30
0.0
 40
3.9357000000000002
  1
CEA310T
 41
0.5
 72
     1
 11
143.55000000000001
 21
-0.8926299999999999
 31
0.0
  0
TEXT
  5
112
  8
_________2
 62
     7
 10
39.364190666666659
 20
13.603400000000001
 30
0.0
 40
3.6545800000000002
  1
高橋
 41
0.5
 72
     1
 11
41.313299999999998
 21
13.603400000000001
 31
0.0
  0
TEXT
  5
113
  8
_________2
 62
     7
 10
20.790190666666671
 20
13.603400000000001
 30
0.0
 40
3.6545800000000002
  1
石原
 41
0.5
 72
     1
 11
22.7393
 21
13.603400000000001
 31
0.0
  0
TEXT
  5
114
  8
_________2
 62
     7
 10
67.785600000000002
 20
13.218199999999991
 30
0.0
 40
3.6545800000000002
  1
09.01.16
 41
0.5
  0
TEXT
  5
115
  8
_________2
 62
     7
 10
66.5929
 20
19.410799999999991
 30
0.0
 40
3.0923400000000001
  1
日付
 41
0.5
  0
TEXT
  5
116
  8
_________2
 62
     7
 10
29.639199999999992
 20
19.410799999999991
 30
0.0
 40
3.0923400000000001
  1
検図
 41
0.5
  0
TEXT
  5
117
  8
_________2
 62
     7
 10
18.020900000000001
 20
5.21143
 30
0.0
 40
3.0923400000000001
  1
備考
 41
0.5
  0
TEXT
  5
118
  8
_________2
 62
     7
 10
18.020900000000001
 20
19.410799999999991
 30
0.0
 40
3.0923400000000001
  1
製図
 41
0.5
  0
TEXT
  5
119
  8
_________2
 62
     7
 10
23.788265333333339
 20
27.936800000000002
 30
0.0
 40
4.4979399999999989
  1
セラトレーディング株式会社
 41
0.5
 72
     1
 11
41.180300000000003
 21
27.936800000000002
 31
0.0
  0
LINE
  5
11A
  8
_________2
 62
     7
 10
183.55099999999999
 20
-4.0910799999999998
 30
0.0
 11
17.049399999999991
 21
-4.0910799999999998
 31
0.0
  0
LINE
  5
11B
  8
_________2
 62
     7
 10
17.049399999999991
 20
-4.0910799999999998
 30
0.0
 11
17.049399999999991
 21
258.911
 31
0.0
  0
LINE
  5
11C
  8
_________2
 62
     7
 10
17.049399999999991
 20
258.911
 30
0.0
 11
183.55099999999999
 21
258.911
 31
0.0
  0
LINE
  5
11D
  8
_________2
 62
     7
 10
183.55099999999999
 20
258.911
 30
0.0
 11
183.55099999999999
 21
-4.0910799999999998
 31
0.0
  0
LINE
  5
11E
  8
_________2
 62
     7
 10
65.549700000000001
 20
9.4092999999999982
 30
0.0
 11
65.549700000000001
 21
35.909100000000002
 31
0.0
  0
LINE
  5
11F
  8
_________2
 62
     7
 10
84.549599999999984
 20
9.4092999999999982
 30
0.0
 11
84.549599999999984
 21
35.909100000000002
 31
0.0
  0
LINE
  5
120
  8
_________2
 62
     7
 10
103.55
 20
-4.0910799999999998
 30
0.0
 11
103.55
 21
35.909100000000002
 31
0.0
  0
LINE
  5
121
  8
_________2
 62
     7
 10
28.549199999999988
 20
9.4092999999999982
 30
0.0
 11
28.549199999999988
 21
23.409199999999998
 31
0.0
  0
LINE
  5
122
  8
_________2
 62
     7
 10
17.049399999999991
 20
9.4092999999999982
 30
0.0
 11
103.55
 21
9.4092999999999982
 31
0.0
  0
LINE
  5
123
  8
_________2
 62
     7
 10
17.049399999999991
 20
23.409199999999998
 30
0.0
 11
103.55
 21
23.409199999999998
 31
0.0
  0
LINE
  5
124
  8
_________2
 62
     7
 10
103.55
 20
15.9085
 30
0.0
 11
183.55099999999999
 21
15.9085
 31
0.0
  0
LINE
  5
125
  8
_________2
 62
     7
 10
17.049399999999991
 20
35.909100000000002
 30
0.0
 11
183.55099999999999
 21
35.909100000000002
 31
0.0
  0
CIRCLE
  5
147
  8
0
  6
AIGENLINE004
 62
     7
 10
124.75837907326181
 20
101.3162503107944
 30
0.0
 40
20.910336082152799
  0
CIRCLE
  5
14D
  8
0
  6
AIGENLINE004
 62
     7
 10
124.75837907326181
 20
101.3162503107944
 30
0.0
 40
8.5559456032483663
  0
ENDSEC
  0
EOF
