  0
SECTION
  2
HEADER
  9
$ACADVER
  1
AC1009
  9
$INSBASE
 10
0.0
 20
0.0
 30
0.0
  9
$EXTMIN
 10
-4.7010300000000003
 20
-21.071200000000001
 30
0.0
  9
$EXTMAX
 10
205.30099999999999
 20
275.93099999999993
 30
0.0
  9
$LIMMIN
 10
0.0
 20
0.0
  9
$LIMMAX
 10
12.0
 20
9.0
  9
$ORTHOMODE
 70
     0
  9
$REGENMODE
 70
     1
  9
$FILLMODE
 70
     1
  9
$QTEXTMODE
 70
     0
  9
$MIRRTEXT
 70
     1
  9
$DRAGMODE
 70
     2
  9
$LTSCALE
 40
1.0
  9
$OSMODE
 70
    37
  9
$ATTMODE
 70
     1
  9
$TEXTSIZE
 40
0.0
  9
$TRACEWID
 40
0.05
  9
$TEXTSTYLE
  7
STANDARD
  9
$CLAYER
  8
0
  9
$CELTYPE
  6
CONTINUOUS
  9
$CECOLOR
 62
   256
  9
$DIMSCALE
 40
1.0
  9
$DIMASZ
 40
0.18
  9
$DIMEXO
 40
0.0625
  9
$DIMDLI
 40
0.38
  9
$DIMRND
 40
0.0
  9
$DIMDLE
 40
0.0
  9
$DIMEXE
 40
0.18
  9
$DIMTP
 40
0.0
  9
$DIMTM
 40
0.0
  9
$DIMTXT
 40
0.18
  9
$DIMCEN
 40
0.09
  9
$DIMTSZ
 40
0.0
  9
$DIMTOL
 70
     0
  9
$DIMLIM
 70
     0
  9
$DIMTIH
 70
     1
  9
$DIMTOH
 70
     1
  9
$DIMSE1
 70
     0
  9
$DIMSE2
 70
     0
  9
$DIMTAD
 70
     0
  9
$DIMZIN
 70
     0
  9
$DIMBLK
  1

  9
$DIMASO
 70
     1
  9
$DIMSHO
 70
     1
  9
$DIMPOST
  1

  9
$DIMAPOST
  1

  9
$DIMALT
 70
     0
  9
$DIMALTD
 70
     2
  9
$DIMALTF
 40
25.399999999999999
  9
$DIMLFAC
 40
1.0
  9
$DIMTOFL
 70
     0
  9
$DIMTVP
 40
0.0
  9
$DIMTIX
 70
     0
  9
$DIMSOXD
 70
     0
  9
$DIMSAH
 70
     0
  9
$DIMBLK1
  1

  9
$DIMBLK2
  1

  9
$DIMSTYLE
  2
STANDARD
  9
$DIMCLRD
 70
     0
  9
$DIMCLRE
 70
     0
  9
$DIMCLRT
 70
     0
  9
$DIMTFAC
 40
1.0
  9
$DIMGAP
 40
0.09
  9
$LUNITS
 70
     2
  9
$LUPREC
 70
     4
  9
$SKETCHINC
 40
0.1
  9
$FILLETRAD
 40
0.0
  9
$AUNITS
 70
     0
  9
$AUPREC
 70
     0
  9
$MENU
  1
.
  9
$ELEVATION
 40
0.0
  9
$PELEVATION
 40
0.0
  9
$THICKNESS
 40
0.0
  9
$LIMCHECK
 70
     0
  9
$BLIPMODE
 70
     0
  9
$CHAMFERA
 40
0.0
  9
$CHAMFERB
 40
0.0
  9
$SKPOLY
 70
     0
  9
$TDCREATE
 40
2444972.375
  9
$TDUPDATE
 40
2454421.287166331
  9
$TDINDWG
 40
0.0012024074
  9
$TDUSRTIMER
 40
0.0012024074
  9
$USRTIMER
 70
     1
  9
$ANGBASE
 50
0.0
  9
$ANGDIR
 70
     0
  9
$PDMODE
 70
     0
  9
$PDSIZE
 40
0.0
  9
$PLINEWID
 40
0.0
  9
$COORDS
 70
     1
  9
$SPLFRAME
 70
     0
  9
$SPLINETYPE
 70
     6
  9
$SPLINESEGS
 70
     8
  9
$ATTDIA
 70
     0
  9
$ATTREQ
 70
     1
  9
$HANDLING
 70
     1
  9
$HANDSEED
  5
15A
  9
$SURFTAB1
 70
     6
  9
$SURFTAB2
 70
     6
  9
$SURFTYPE
 70
     6
  9
$SURFU
 70
     6
  9
$SURFV
 70
     6
  9
$UCSNAME
  2

  9
$UCSORG
 10
0.0
 20
0.0
 30
0.0
  9
$UCSXDIR
 10
1.0
 20
0.0
 30
0.0
  9
$UCSYDIR
 10
0.0
 20
1.0
 30
0.0
  9
$PUCSNAME
  2

  9
$PUCSORG
 10
0.0
 20
0.0
 30
0.0
  9
$PUCSXDIR
 10
1.0
 20
0.0
 30
0.0
  9
$PUCSYDIR
 10
0.0
 20
1.0
 30
0.0
  9
$USERI1
 70
     0
  9
$USERI2
 70
     0
  9
$USERI3
 70
     0
  9
$USERI4
 70
     0
  9
$USERI5
 70
     0
  9
$USERR1
 40
0.0
  9
$USERR2
 40
0.0
  9
$USERR3
 40
0.0
  9
$USERR4
 40
0.0
  9
$USERR5
 40
0.0
  9
$WORLDVIEW
 70
     1
  9
$SHADEDGE
 70
     3
  9
$SHADEDIF
 70
    70
  9
$TILEMODE
 70
     1
  9
$MAXACTVP
 70
    48
  9
$PLIMCHECK
 70
     0
  9
$PEXTMIN
 10
1.0000000000000000E+020
 20
1.0000000000000000E+020
 30
1.0000000000000000E+020
  9
$PEXTMAX
 10
-1.0000000000000000E+020
 20
-1.0000000000000000E+020
 30
-1.0000000000000000E+020
  9
$PLIMMIN
 10
0.0
 20
0.0
  9
$PLIMMAX
 10
12.0
 20
9.0
  9
$UNITMODE
 70
     0
  9
$VISRETAIN
 70
     1
  9
$PLINEGEN
 70
     0
  9
$PSLTSCALE
 70
     1
  0
ENDSEC
  0
SECTION
  2
TABLES
  0
TABLE
  2
VPORT
 70
     2
  0
VPORT
  2
*ACTIVE
 70
     0
 10
0.0
 20
0.0
 11
1.0
 21
1.0
 12
146.82023322232331
 22
127.96734560060089
 13
0.0
 23
0.0
 14
1.0
 24
1.0
 15
0.0
 25
0.0
 16
0.0
 26
0.0
 36
1.0
 17
0.0
 27
0.0
 37
0.0
 40
301.0372460184775
 41
2.1842105263157889
 42
50.0
 43
0.0
 44
0.0
 50
0.0
 51
0.0
 71
     0
 72
   100
 73
     1
 74
     1
 75
     0
 76
     0
 77
     0
 78
     0
  0
ENDTAB
  0
TABLE
  2
LTYPE
 70
     5
  0
LTYPE
  2
CONTINUOUS
 70
     0
  3
Solid line
 72
    65
 73
     0
 40
0.0
  0
LTYPE
  2
AIGENLINE001
 70
     0
  3
generate AI->DXF Converter
 72
    65
 73
     3
 40
1.5522299999999991
 49
0.776115
 49
-0.776115
 49
0.0
  0
LTYPE
  2
AIGENLINE002
 70
     0
  3
generate AI->DXF Converter
 72
    65
 73
     4
 40
5.8561449999999988
 49
3.5278
 49
-0.776115
 49
0.776115
 49
-0.776115
  0
LTYPE
  2
AIGENLINE003
 70
     0
  3
generate AI->DXF Converter
 72
    65
 73
     5
 40
5.8561449999999988
 49
3.5278
 49
-0.776115
 49
0.776115
 49
-0.776115
 49
0.0
  0
LTYPE
  2
AIGENLINE004
 70
     0
  3
generate AI->DXF Converter
 72
    65
 73
     6
 40
7.4083750000000004
 49
3.5278
 49
-0.776115
 49
0.776115
 49
-0.776115
 49
0.776115
 49
-0.776115
  0
ENDTAB
  0
TABLE
  2
LAYER
 70
     2
  0
LAYER
  2
0
 70
     0
 62
     7
  6
CONTINUOUS
  0
LAYER
  2
_________2
 70
     0
 62
     7
  6
CONTINUOUS
  0
ENDTAB
  0
TABLE
  2
STYLE
 70
     1
  0
STYLE
  2
STANDARD
 70
     0
 40
0.0
 41
0.0
 50
0.0
 71
     0
 42
0.0
  3
TXT
  4
EXTFONT.SHX
  0
ENDTAB
  0
TABLE
  2
VIEW
 70
     0
  0
ENDTAB
  0
TABLE
  2
UCS
 70
     0
  0
ENDTAB
  0
TABLE
  2
APPID
 70
     1
  0
APPID
  2
ACAD
 70
     0
  0
ENDTAB
  0
TABLE
  2
DIMSTYLE
 70
     1
  0
DIMSTYLE
  2
STANDARD
 70
     0
  3

  4

  5

  6

  7

 40
1.0
 41
0.18
 42
0.0625
 43
0.38
 44
0.18
 45
0.0
 46
0.0
 47
0.0
 48
0.0
140
0.18
141
0.09
142
0.0
143
25.399999999999999
144
1.0
145
0.0
146
1.0
147
0.09
 71
     0
 72
     0
 73
     1
 74
     1
 75
     0
 76
     0
 77
     0
 78
     0
170
     0
171
     2
172
     0
173
     0
174
     0
175
     0
176
     0
177
     0
178
     0
  0
ENDTAB
  0
ENDSEC
  0
SECTION
  2
BLOCKS
  0
BLOCK
  8
0
  2
$MODEL_SPACE
 70
     0
 10
0.0
 20
0.0
 30
0.0
  3
$MODEL_SPACE
  1

  0
ENDBLK
  5
1A
  8
0
  0
BLOCK
 67
     1
  8
0
  2
$PAPER_SPACE
 70
     0
 10
0.0
 20
0.0
 30
0.0
  3
$PAPER_SPACE
  1

  0
ENDBLK
  5
17
 67
     1
  8
0
  0
ENDSEC
  0
SECTION
  2
ENTITIES
  0
TEXT
  5
25
  8
0
 62
     7
 10
168.4909999999999
 20
113.23022
 30
0.0
 40
3.0923400000000001
  1
61
 50
90.0
 41
0.5
 72
     1
 11
168.4909999999999
 21
114.261
 31
0.0
  0
TEXT
  5
26
  8
0
 62
     7
 10
162.59700000000001
 20
116.8253725
 30
0.0
 40
3.0923400000000001
  1
30
 50
90.0
 41
0.5
 72
     1
 11
162.59700000000001
 21
117.985
 31
0.0
  0
TEXT
  5
27
  8
0
 62
     7
 10
133.91783000000001
 20
132.44599999999991
 30
0.0
 40
3.0923400000000001
  1
113
 41
0.5
 72
     1
 11
135.464
 21
132.44599999999991
 31
0.0
  0
TEXT
  5
28
  8
0
 62
     7
 10
65.936087499999999
 20
132.32900000000001
 30
0.0
 40
3.0923400000000001
  1
280
 41
0.5
 72
     1
 11
67.868799999999993
 21
132.32900000000001
 31
0.0
  0
TEXT
  5
29
  8
0
 62
     7
 10
65.908734999999993
 20
214.17299999999989
 30
0.0
 40
3.0923400000000001
  1
144
 41
0.5
 72
     1
 11
67.712599999999995
 21
214.17299999999989
 31
0.0
  0
TEXT
  5
2A
  8
0
 62
     7
 10
66.166429999999991
 20
207.31599999999989
 30
0.0
 40
3.0923400000000001
  1
114
 41
0.5
 72
     1
 11
67.712599999999995
 21
207.31599999999989
 31
0.0
  0
LINE
  5
2B
  8
0
 62
     7
 10
101.297
 20
110.91500000000001
 30
0.0
 11
103.547
 21
110.91500000000001
 31
0.0
  0
LINE
  5
2C
  8
0
 62
     7
 10
101.297
 20
102.622
 30
0.0
 11
103.547
 21
102.622
 31
0.0
  0
LINE
  5
2D
  8
0
 62
     7
 10
101.297
 20
102.622
 30
0.0
 11
101.297
 21
103.872
 31
0.0
  0
LINE
  5
2E
  8
0
 62
     7
 10
101.297
 20
108.91500000000001
 30
0.0
 11
101.297
 21
110.91500000000001
 31
0.0
  0
LINE
  5
2F
  8
0
 62
     7
 10
103.547
 20
108.91500000000001
 30
0.0
 11
103.547
 21
110.91500000000001
 31
0.0
  0
LINE
  5
30
  8
0
 62
     7
 10
103.547
 20
102.622
 30
0.0
 11
103.547
 21
103.872
 31
0.0
  0
LINE
  5
31
  8
0
 62
     7
 10
36.296500000000002
 20
110.91500000000001
 30
0.0
 11
34.046500000000002
 21
110.91500000000001
 31
0.0
  0
LINE
  5
32
  8
0
 62
     7
 10
36.296500000000002
 20
102.622
 30
0.0
 11
34.046500000000002
 21
102.622
 31
0.0
  0
LINE
  5
33
  8
0
 62
     7
 10
36.296500000000002
 20
102.622
 30
0.0
 11
36.296500000000002
 21
103.872
 31
0.0
  0
LINE
  5
34
  8
0
 62
     7
 10
71.831900000000005
 20
103.872
 30
0.0
 11
71.831900000000005
 21
104.6189999999999
 31
0.0
  0
LINE
  5
35
  8
0
 62
     7
 10
65.761799999999994
 20
104.6189999999999
 30
0.0
 11
65.762500000000003
 21
103.872
 31
0.0
  0
ARC
  5
36
  8
0
  6
AIGENLINE001
 62
     7
 10
54.518987000000003
 20
114.140173
 30
0.0
 40
0.7791140000000001
 50
272.10281700000002
 51
357.89719300000002
  0
ARC
  5
37
  8
0
  6
AIGENLINE001
 62
     7
 10
54.57654999999999
 20
114.14056100000001
 30
0.0
 40
0.779516
 50
182.1302169999999
 51
267.86981299999991
  0
ARC
  5
38
  8
0
  6
AIGENLINE001
 62
     7
 10
54.576163000000001
 20
114.082998
 30
0.0
 40
0.7791140000000001
 50
92.102779999999996
 51
177.89718999999991
  0
ARC
  5
39
  8
0
  6
AIGENLINE001
 62
     7
 10
54.518594999999998
 20
114.082606
 30
0.0
 40
0.779521
 50
2.130561999999999
 51
87.869427999999999
  0
LINE
  5
3A
  8
0
  6
AIGENLINE002
 62
     7
 10
52.9163
 20
114.11199999999999
 30
0.0
 11
56.451900000000002
 21
114.11199999999999
 31
0.0
  0
LINE
  5
3B
  8
0
 62
     7
 10
50.797699999999992
 20
214.27199999999999
 30
0.0
 11
50.797699999999992
 21
192.749
 31
0.0
  0
LINE
  5
3C
  8
0
 62
     7
 10
86.797799999999995
 20
214.27199999999999
 30
0.0
 11
86.797799999999995
 21
192.749
 31
0.0
  0
LINE
  5
3D
  8
0
 62
     7
 10
50.797699999999992
 20
191.869
 30
0.0
 11
50.797699999999992
 21
181.369
 31
0.0
  0
LINE
  5
3E
  8
0
 62
     7
 10
86.797799999999995
 20
191.869
 30
0.0
 11
86.797799999999995
 21
181.369
 31
0.0
  0
LINE
  5
3F
  8
0
  6
AIGENLINE002
 62
     7
 10
54.547600000000003
 20
116.66249999999999
 30
0.0
 11
54.547600000000003
 21
112.322
 31
0.0
  0
ARC
  5
40
  8
0
  6
AIGENLINE001
 62
     7
 10
83.019408999999996
 20
114.140173
 30
0.0
 40
0.7791140000000001
 50
272.10281700000002
 51
357.89719300000002
  0
ARC
  5
41
  8
0
  6
AIGENLINE001
 62
     7
 10
83.076971999999984
 20
114.14056100000001
 30
0.0
 40
0.779516
 50
182.1302169999999
 51
267.86981299999991
  0
ARC
  5
42
  8
0
  6
AIGENLINE001
 62
     7
 10
83.076583999999997
 20
114.082998
 30
0.0
 40
0.7791140000000001
 50
92.102779999999996
 51
177.89718999999991
  0
ARC
  5
43
  8
0
  6
AIGENLINE001
 62
     7
 10
83.019017000000005
 20
114.082606
 30
0.0
 40
0.779521
 50
2.130561999999999
 51
87.869427999999999
  0
LINE
  5
44
  8
0
  6
AIGENLINE002
 62
     7
 10
81.416700000000006
 20
114.11199999999999
 30
0.0
 11
84.952299999999994
 21
114.11199999999999
 31
0.0
  0
LINE
  5
45
  8
0
  6
AIGENLINE002
 62
     7
 10
83.047999999999973
 20
116.66249999999999
 30
0.0
 11
83.047999999999973
 21
112.322
 31
0.0
  0
LINE
  5
46
  8
0
  6
AIGENLINE003
 62
     7
 10
31.918299999999991
 20
106.41500000000001
 30
0.0
 11
105.297
 21
106.41500000000001
 31
0.0
  0
LINE
  5
48
  8
0
  6
AIGENLINE002
 62
     7
 10
54.547600000000003
 20
190.744
 30
0.0
 11
54.547600000000003
 21
201.45699999999991
 31
0.0
  0
LINE
  5
49
  8
0
 62
     7
 10
54.301900000000003
 20
191.869
 30
0.0
 11
54.927599999999998
 21
192.227
 31
0.0
  0
LINE
  5
4A
  8
0
 62
     7
 10
53.704599999999999
 20
192.83699999999999
 30
0.0
 11
55.390300000000003
 21
193.80199999999999
 31
0.0
  0
LINE
  5
4B
  8
0
 62
     7
 10
53.704599999999999
 20
194.41200000000001
 30
0.0
 11
55.390300000000003
 21
195.3779999999999
 31
0.0
  0
LINE
  5
4C
  8
0
 62
     7
 10
53.704599999999999
 20
195.98699999999999
 30
0.0
 11
55.390300000000003
 21
196.95199999999991
 31
0.0
  0
LINE
  5
4D
  8
0
 62
     7
 10
53.704599999999999
 20
197.56200000000001
 30
0.0
 11
55.390300000000003
 21
198.52799999999991
 31
0.0
  0
LINE
  5
4E
  8
0
 62
     7
 10
53.704599999999999
 20
199.137
 30
0.0
 11
55.390300000000003
 21
200.10299999999989
 31
0.0
  0
LINE
  5
4F
  8
0
 62
     7
 10
55.116399999999992
 20
200.20500000000001
 30
0.0
 11
54.547600000000003
 21
201.00599999999989
 31
0.0
  0
LINE
  5
50
  8
0
 62
     7
 10
53.978099999999991
 20
200.20500000000001
 30
0.0
 11
54.547600000000003
 21
201.00599999999989
 31
0.0
  0
LINE
  5
51
  8
0
 62
     7
 10
53.978099999999991
 20
191.869
 30
0.0
 11
53.978099999999991
 21
200.20500000000001
 31
0.0
  0
LINE
  5
52
  8
0
 62
     7
 10
55.116399999999992
 20
191.869
 30
0.0
 11
55.116399999999992
 21
200.20500000000001
 31
0.0
  0
LINE
  5
53
  8
0
 62
     7
 10
54.547600000000003
 20
202.2059999999999
 30
0.0
 11
54.547600000000003
 21
207.04499999999999
 31
0.0
  0
LINE
  5
54
  8
0
  6
AIGENLINE002
 62
     7
 10
83.047999999999973
 20
190.744
 30
0.0
 11
83.047999999999973
 21
201.45699999999991
 31
0.0
  0
LINE
  5
55
  8
0
 62
     7
 10
82.802400000000006
 20
191.869
 30
0.0
 11
83.427999999999997
 21
192.227
 31
0.0
  0
LINE
  5
56
  8
0
 62
     7
 10
82.204999999999984
 20
192.83699999999999
 30
0.0
 11
83.890699999999995
 21
193.80199999999999
 31
0.0
  0
LINE
  5
57
  8
0
 62
     7
 10
82.204999999999984
 20
194.41200000000001
 30
0.0
 11
83.890699999999995
 21
195.3779999999999
 31
0.0
  0
LINE
  5
58
  8
0
 62
     7
 10
82.204999999999984
 20
195.98699999999999
 30
0.0
 11
83.890699999999995
 21
196.95199999999991
 31
0.0
  0
LINE
  5
59
  8
0
 62
     7
 10
82.204999999999984
 20
197.56200000000001
 30
0.0
 11
83.890699999999995
 21
198.52799999999991
 31
0.0
  0
LINE
  5
5A
  8
0
 62
     7
 10
82.204999999999984
 20
199.137
 30
0.0
 11
83.890699999999995
 21
200.10299999999989
 31
0.0
  0
LINE
  5
5B
  8
0
 62
     7
 10
83.616799999999984
 20
200.20500000000001
 30
0.0
 11
83.047999999999973
 21
201.00599999999989
 31
0.0
  0
LINE
  5
5C
  8
0
 62
     7
 10
82.478499999999997
 20
200.20500000000001
 30
0.0
 11
83.047999999999973
 21
201.00599999999989
 31
0.0
  0
LINE
  5
5D
  8
0
 62
     7
 10
82.478499999999997
 20
191.869
 30
0.0
 11
82.478499999999997
 21
200.20500000000001
 31
0.0
  0
LINE
  5
5E
  8
0
 62
     7
 10
83.616799999999984
 20
191.869
 30
0.0
 11
83.616799999999984
 21
200.20500000000001
 31
0.0
  0
LINE
  5
5F
  8
0
 62
     7
 10
83.047999999999973
 20
202.2059999999999
 30
0.0
 11
83.047999999999973
 21
207.04499999999999
 31
0.0
  0
LINE
  5
60
  8
0
  6
AIGENLINE002
 62
     7
 10
148.666
 20
114.11199999999999
 30
0.0
 11
159.37899999999999
 21
114.11199999999999
 31
0.0
  0
LINE
  5
63
  8
0
  6
AIGENLINE002
 62
     7
 10
134.76300000000001
 20
104.777
 30
0.0
 11
129.07699999999991
 21
108.245
 31
0.0
  0
LINE
  5
64
  8
0
 62
     7
 10
103.797
 20
132.62200000000001
 30
0.0
 11
103.797
 21
122.39999999999991
 31
0.0
  0
LINE
  5
65
  8
0
 62
     7
 10
53.008299999999998
 20
213.66499999999991
 30
0.0
 11
50.797699999999992
 21
213.07299999999989
 31
0.0
  0
LINE
  5
66
  8
0
 62
     7
 10
50.797699999999992
 20
213.07299999999989
 30
0.0
 11
53.008299999999998
 21
212.48099999999999
 31
0.0
  0
LINE
  5
67
  8
0
 62
     7
 10
53.008299999999998
 20
212.48099999999999
 30
0.0
 11
53.008299999999998
 21
213.66499999999991
 31
0.0
  0
LINE
  5
68
  8
0
 62
     7
 10
84.587299999999999
 20
212.4959999999999
 30
0.0
 11
86.797799999999995
 21
213.08799999999991
 31
0.0
  0
LINE
  5
69
  8
0
 62
     7
 10
86.797799999999995
 20
213.08799999999991
 30
0.0
 11
84.587299999999999
 21
213.68000000000001
 31
0.0
  0
LINE
  5
6A
  8
0
 62
     7
 10
84.587299999999999
 20
213.68000000000001
 30
0.0
 11
84.587299999999999
 21
212.4959999999999
 31
0.0
  0
LINE
  5
6B
  8
0
 62
     7
 10
50.797699999999992
 20
213.08000000000001
 30
0.0
 11
86.797799999999995
 21
213.08000000000001
 31
0.0
  0
LINE
  5
6C
  8
0
 62
     7
 10
56.758099999999999
 20
206.809
 30
0.0
 11
54.547600000000003
 21
206.21599999999989
 31
0.0
  0
LINE
  5
6D
  8
0
 62
     7
 10
54.547600000000003
 20
206.21599999999989
 30
0.0
 11
56.758099999999999
 21
205.624
 31
0.0
  0
LINE
  5
6E
  8
0
 62
     7
 10
56.758099999999999
 20
205.624
 30
0.0
 11
56.758099999999999
 21
206.809
 31
0.0
  0
LINE
  5
6F
  8
0
 62
     7
 10
80.839499999999987
 20
205.6389999999999
 30
0.0
 11
83.050100000000015
 21
206.23099999999999
 31
0.0
  0
LINE
  5
70
  8
0
 62
     7
 10
83.050100000000015
 20
206.23099999999999
 30
0.0
 11
80.839499999999987
 21
206.82299999999989
 31
0.0
  0
LINE
  5
71
  8
0
 62
     7
 10
80.839499999999987
 20
206.82299999999989
 30
0.0
 11
80.839499999999987
 21
205.6389999999999
 31
0.0
  0
LINE
  5
72
  8
0
 62
     7
 10
54.547600000000003
 20
206.22399999999999
 30
0.0
 11
83.050100000000015
 21
206.22399999999999
 31
0.0
  0
LINE
  5
73
  8
0
 62
     7
 10
33.796599999999991
 20
108.91500000000001
 30
0.0
 11
68.296999999999997
 21
108.91500000000001
 31
0.0
  0
LINE
  5
74
  8
0
 62
     7
 10
50.796900000000001
 20
112.193
 30
0.0
 11
50.796900000000001
 21
108.9579999999999
 31
0.0
  0
LINE
  5
75
  8
0
 62
     7
 10
36.006799999999998
 20
132.1039999999999
 30
0.0
 11
33.796300000000002
 21
131.512
 31
0.0
  0
LINE
  5
76
  8
0
 62
     7
 10
33.796300000000002
 20
131.512
 30
0.0
 11
36.006799999999998
 21
130.9199999999999
 31
0.0
  0
LINE
  5
77
  8
0
 62
     7
 10
36.006799999999998
 20
130.9199999999999
 30
0.0
 11
36.006799999999998
 21
132.1039999999999
 31
0.0
  0
LINE
  5
78
  8
0
 62
     7
 10
101.476
 20
130.93399999999991
 30
0.0
 11
103.687
 21
131.52600000000001
 31
0.0
  0
LINE
  5
79
  8
0
 62
     7
 10
103.687
 20
131.52600000000001
 30
0.0
 11
101.476
 21
132.119
 31
0.0
  0
LINE
  5
7A
  8
0
 62
     7
 10
101.476
 20
132.119
 30
0.0
 11
101.476
 21
130.93399999999991
 31
0.0
  0
LINE
  5
7B
  8
0
 62
     7
 10
33.796300000000002
 20
131.51900000000001
 30
0.0
 11
103.687
 21
131.51900000000001
 31
0.0
  0
LINE
  5
7C
  8
0
 62
     7
 10
33.796300000000002
 20
132.30699999999999
 30
0.0
 11
33.796300000000002
 21
122.39999999999991
 31
0.0
  0
LINE
  5
7D
  8
0
 62
     7
 10
65.762500000000003
 20
103.91500000000001
 30
0.0
 11
33.796599999999991
 21
103.91500000000001
 31
0.0
  0
LINE
  5
7E
  8
0
 62
     7
 10
66.242000000000004
 20
102.676
 30
0.0
 11
67.816400000000002
 21
102.676
 31
0.0
  0
LINE
  5
7F
  8
0
 62
     7
 10
66.242000000000004
 20
112.193
 30
0.0
 11
66.242000000000004
 21
108.9579999999999
 31
0.0
  0
LINE
  5
80
  8
0
 62
     7
 10
67.817099999999996
 20
112.193
 30
0.0
 11
67.817099999999996
 21
108.9579999999999
 31
0.0
  0
LINE
  5
81
  8
0
 62
     7
 10
66.242000000000004
 20
104.6189999999999
 30
0.0
 11
66.242000000000004
 21
102.676
 31
0.0
  0
LINE
  5
82
  8
0
 62
     7
 10
67.817099999999996
 20
104.6189999999999
 30
0.0
 11
67.817099999999996
 21
102.675
 31
0.0
  0
LINE
  5
83
  8
0
 62
     7
 10
66.242000000000004
 20
103.197
 30
0.0
 11
67.817099999999996
 21
103.197
 31
0.0
  0
LINE
  5
84
  8
0
 62
     7
 10
65.761799999999994
 20
104.6189999999999
 30
0.0
 11
68.296999999999997
 21
104.6189999999999
 31
0.0
  0
LINE
  5
85
  8
0
  6
AIGENLINE004
 62
     7
 10
36.331499999999998
 20
87.222800000000007
 30
0.0
 11
36.331499999999998
 21
112.193
 31
0.0
  0
LINE
  5
86
  8
0
  6
AIGENLINE004
 62
     7
 10
65.761799999999994
 20
87.222800000000007
 30
0.0
 11
65.761799999999994
 21
112.193
 31
0.0
  0
LINE
  5
87
  8
0
  6
AIGENLINE004
 62
     7
 10
65.761799999999994
 20
87.223500000000001
 30
0.0
 11
36.331499999999998
 21
87.223500000000001
 31
0.0
  0
LINE
  5
88
  8
0
 62
     7
 10
68.296999999999997
 20
181.369
 30
0.0
 11
68.296999999999997
 21
163.619
 31
0.0
  0
LINE
  5
89
  8
0
 62
     7
 10
68.296999999999997
 20
180.619
 30
0.0
 11
69.296999999999997
 21
180.619
 31
0.0
  0
LINE
  5
8A
  8
0
 62
     7
 10
33.796900000000001
 20
183.619
 30
0.0
 11
50.797699999999992
 21
183.619
 31
0.0
  0
LINE
  5
8B
  8
0
 62
     7
 10
86.797799999999995
 20
183.619
 30
0.0
 11
103.797
 21
183.619
 31
0.0
  0
LINE
  5
8C
  8
0
 62
     7
 10
50.797699999999992
 20
182.119
 30
0.0
 11
86.797799999999995
 21
182.119
 31
0.0
  0
LINE
  5
8D
  8
0
 62
     7
 10
33.796900000000001
 20
181.369
 30
0.0
 11
68.296999999999997
 21
181.369
 31
0.0
  0
LINE
  5
8E
  8
0
 62
     7
 10
69.296999999999997
 20
181.369
 30
0.0
 11
103.797
 21
181.369
 31
0.0
  0
LINE
  5
8F
  8
0
 62
     7
 10
50.797699999999992
 20
191.869
 30
0.0
 11
86.797799999999995
 21
191.869
 31
0.0
  0
LINE
  5
91
  8
0
 62
     7
 10
33.796599999999991
 20
163.619
 30
0.0
 11
68.296700000000001
 21
163.619
 31
0.0
  0
LINE
  5
92
  8
0
 62
     7
 10
33.796599999999991
 20
183.619
 30
0.0
 11
33.796599999999991
 21
163.619
 31
0.0
  0
LINE
  5
93
  8
0
 62
     7
 10
103.797
 20
183.619
 30
0.0
 11
103.797
 21
163.619
 31
0.0
  0
LINE
  5
94
  8
0
 62
     7
 10
69.296999999999997
 20
181.369
 30
0.0
 11
69.296999999999997
 21
163.619
 31
0.0
  0
LINE
  5
95
  8
0
 62
     7
 10
69.296999999999997
 20
163.619
 30
0.0
 11
103.797
 21
163.619
 31
0.0
  0
LINE
  5
96
  8
0
 62
     7
 10
68.296999999999997
 20
121.61199999999999
 30
0.0
 11
68.296999999999997
 21
104.6189999999999
 31
0.0
  0
LINE
  5
97
  8
0
 62
     7
 10
36.296500000000002
 20
108.91500000000001
 30
0.0
 11
36.296500000000002
 21
110.91500000000001
 31
0.0
  0
LINE
  5
98
  8
0
 62
     7
 10
34.046500000000002
 20
108.91500000000001
 30
0.0
 11
34.046500000000002
 21
110.91500000000001
 31
0.0
  0
LINE
  5
99
  8
0
 62
     7
 10
34.046500000000002
 20
102.622
 30
0.0
 11
34.046500000000002
 21
103.872
 31
0.0
  0
LINE
  5
9A
  8
0
 62
     7
 10
33.796599999999991
 20
108.91500000000001
 30
0.0
 11
33.796599999999991
 21
103.91500000000001
 31
0.0
  0
LINE
  5
9B
  8
0
 62
     7
 10
33.796599999999991
 20
121.61199999999999
 30
0.0
 11
33.796599999999991
 21
112.193
 31
0.0
  0
LINE
  5
9C
  8
0
 62
     7
 10
33.796599999999991
 20
112.193
 30
0.0
 11
68.296700000000001
 21
112.193
 31
0.0
  0
LINE
  5
9D
  8
0
 62
     7
 10
69.284099999999995
 20
104.6189999999999
 30
0.0
 11
71.831900000000005
 21
104.6189999999999
 31
0.0
  0
LINE
  5
9E
  8
0
 62
     7
 10
69.813100000000006
 20
103.197
 30
0.0
 11
71.371300000000005
 21
103.197
 31
0.0
  0
ARC
  5
9F
  8
0
 62
     7
 10
132.06598600000001
 20
106.40192999999999
 30
0.0
 40
2.5001349999999989
 50
315.00001500000002
 51
44.999984999999988
  0
ARC
  5
A0
  8
0
 62
     7
 10
132.050928
 20
106.4651999999999
 30
0.0
 40
2.555747999999999
 50
251.57428899999999
 51
314.23572000000001
  0
ARC
  5
A1
  8
0
 62
     7
 10
132.20142300000001
 20
106.40174499999991
 30
0.0
 40
2.5975419999999989
 50
137.10461599999991
 51
222.88421899999989
  0
ARC
  5
A2
  8
0
 62
     7
 10
132.08165
 20
106.34141099999999
 30
0.0
 40
2.55396
 50
73.890143000000009
 51
134.282948
  0
LINE
  5
A3
  8
0
 62
     7
 10
69.296999999999997
 20
108.91500000000001
 30
0.0
 11
103.797
 21
108.91500000000001
 31
0.0
  0
LINE
  5
A4
  8
0
 62
     7
 10
86.797300000000007
 20
112.193
 30
0.0
 11
86.797300000000007
 21
108.9579999999999
 31
0.0
  0
LINE
  5
A5
  8
0
 62
     7
 10
170.22499999999999
 20
106.363
 30
0.0
 11
151.39500000000001
 21
106.363
 31
0.0
  0
LINE
  5
A6
  8
0
 62
     7
 10
170.02199999999999
 20
119.3219999999999
 30
0.0
 11
169.429
 21
121.532
 31
0.0
  0
LINE
  5
A7
  8
0
 62
     7
 10
169.429
 20
121.532
 30
0.0
 11
168.83699999999999
 21
119.3219999999999
 31
0.0
  0
LINE
  5
A8
  8
0
 62
     7
 10
168.83699999999999
 20
119.3219999999999
 30
0.0
 11
170.02199999999999
 21
119.3219999999999
 31
0.0
  0
LINE
  5
A9
  8
0
 62
     7
 10
168.852
 20
108.547
 30
0.0
 11
169.44399999999999
 21
106.337
 31
0.0
  0
LINE
  5
AA
  8
0
 62
     7
 10
169.44399999999999
 20
106.337
 30
0.0
 11
170.03599999999989
 21
108.547
 31
0.0
  0
LINE
  5
AB
  8
0
 62
     7
 10
170.03599999999989
 20
108.547
 30
0.0
 11
168.852
 21
108.547
 31
0.0
  0
LINE
  5
AC
  8
0
 62
     7
 10
169.43700000000001
 20
121.51899999999991
 30
0.0
 11
169.43700000000001
 21
106.572
 31
0.0
  0
LINE
  5
AD
  8
0
 62
     7
 10
123.70099999999999
 20
132.1039999999999
 30
0.0
 11
121.4909999999999
 21
131.512
 31
0.0
  0
LINE
  5
AE
  8
0
 62
     7
 10
121.4909999999999
 20
131.512
 30
0.0
 11
123.70099999999999
 21
130.9199999999999
 31
0.0
  0
LINE
  5
AF
  8
0
 62
     7
 10
123.70099999999999
 20
130.9199999999999
 30
0.0
 11
123.70099999999999
 21
132.1039999999999
 31
0.0
  0
LINE
  5
B0
  8
0
 62
     7
 10
147.601
 20
130.93399999999991
 30
0.0
 11
149.81100000000001
 21
131.52600000000001
 31
0.0
  0
LINE
  5
B1
  8
0
 62
     7
 10
149.81100000000001
 20
131.52600000000001
 30
0.0
 11
147.601
 21
132.119
 31
0.0
  0
LINE
  5
B2
  8
0
 62
     7
 10
147.601
 20
132.119
 30
0.0
 11
147.601
 21
130.93399999999991
 31
0.0
  0
LINE
  5
B3
  8
0
 62
     7
 10
121.4909999999999
 20
131.51900000000001
 30
0.0
 11
149.6939999999999
 21
131.51900000000001
 31
0.0
  0
LINE
  5
B4
  8
0
 62
     7
 10
163.30699999999999
 20
116.426
 30
0.0
 11
163.89899999999989
 21
114.2149999999999
 31
0.0
  0
LINE
  5
B5
  8
0
 62
     7
 10
163.89899999999989
 20
114.2149999999999
 30
0.0
 11
164.4909999999999
 21
116.426
 31
0.0
  0
LINE
  5
B6
  8
0
 62
     7
 10
164.4909999999999
 20
116.426
 30
0.0
 11
163.30699999999999
 21
116.426
 31
0.0
  0
LINE
  5
B7
  8
0
 62
     7
 10
164.477
 20
119.43899999999999
 30
0.0
 11
163.88499999999991
 21
121.65000000000001
 31
0.0
  0
LINE
  5
B8
  8
0
 62
     7
 10
163.88499999999991
 20
121.65000000000001
 30
0.0
 11
163.292
 21
119.43899999999999
 31
0.0
  0
LINE
  5
B9
  8
0
 62
     7
 10
163.292
 20
119.43899999999999
 30
0.0
 11
164.477
 21
119.43899999999999
 31
0.0
  0
LINE
  5
BA
  8
0
 62
     7
 10
163.89199999999991
 20
114.2149999999999
 30
0.0
 11
163.89199999999991
 21
121.51899999999991
 31
0.0
  0
LINE
  5
BB
  8
0
 62
     7
 10
149.791
 20
114.357
 30
0.0
 11
150.15000000000001
 21
113.732
 31
0.0
  0
LINE
  5
BC
  8
0
 62
     7
 10
150.7589999999999
 20
114.955
 30
0.0
 11
151.72499999999991
 21
113.26899999999991
 31
0.0
  0
LINE
  5
BD
  8
0
 62
     7
 10
152.334
 20
114.955
 30
0.0
 11
153.30000000000001
 21
113.26899999999991
 31
0.0
  0
LINE
  5
BE
  8
0
 62
     7
 10
153.90899999999991
 20
114.955
 30
0.0
 11
154.875
 21
113.26899999999991
 31
0.0
  0
LINE
  5
BF
  8
0
 62
     7
 10
155.48400000000001
 20
114.955
 30
0.0
 11
156.4499999999999
 21
113.26899999999991
 31
0.0
  0
LINE
  5
C0
  8
0
 62
     7
 10
157.05899999999991
 20
114.955
 30
0.0
 11
158.02500000000001
 21
113.26899999999991
 31
0.0
  0
LINE
  5
C1
  8
0
 62
     7
 10
158.12700000000001
 20
113.54299999999991
 30
0.0
 11
158.928
 21
114.11199999999999
 31
0.0
  0
LINE
  5
C2
  8
0
 62
     7
 10
158.12700000000001
 20
114.681
 30
0.0
 11
158.928
 21
114.11199999999999
 31
0.0
  0
LINE
  5
C3
  8
0
 62
     7
 10
149.791
 20
114.681
 30
0.0
 11
158.12700000000001
 21
114.681
 31
0.0
  0
LINE
  5
C4
  8
0
 62
     7
 10
149.791
 20
113.54299999999991
 30
0.0
 11
158.12700000000001
 21
113.54299999999991
 31
0.0
  0
LINE
  5
C5
  8
0
 62
     7
 10
159.39899999999989
 20
114.11199999999999
 30
0.0
 11
164.23799999999989
 21
114.11199999999999
 31
0.0
  0
LINE
  5
C6
  8
0
 62
     7
 10
149.791
 20
132.30699999999999
 30
0.0
 11
149.791
 21
122.916
 31
0.0
  0
LINE
  5
C7
  8
0
 62
     7
 10
121.541
 20
132.30699999999999
 30
0.0
 11
121.541
 21
115.621
 31
0.0
  0
LINE
  5
C8
  8
0
 62
     7
 10
170.22499999999999
 20
121.61199999999999
 30
0.0
 11
151.17400000000001
 21
121.61199999999999
 31
0.0
  0
LINE
  5
C9
  8
0
 62
     7
 10
103.797
 20
103.91500000000001
 30
0.0
 11
71.831900000000005
 21
103.91500000000001
 31
0.0
  0
LINE
  5
CA
  8
0
 62
     7
 10
69.791399999999996
 20
102.676
 30
0.0
 11
71.365799999999993
 21
102.676
 31
0.0
  0
LINE
  5
CB
  8
0
 62
     7
 10
69.791399999999996
 20
112.193
 30
0.0
 11
69.791399999999996
 21
108.9579999999999
 31
0.0
  0
LINE
  5
CC
  8
0
 62
     7
 10
71.366500000000002
 20
112.193
 30
0.0
 11
71.366500000000002
 21
108.9579999999999
 31
0.0
  0
LINE
  5
CD
  8
0
 62
     7
 10
69.791399999999996
 20
104.6189999999999
 30
0.0
 11
69.791399999999996
 21
102.676
 31
0.0
  0
LINE
  5
CE
  8
0
 62
     7
 10
71.366500000000002
 20
104.6189999999999
 30
0.0
 11
71.366500000000002
 21
102.675
 31
0.0
  0
LINE
  5
CF
  8
0
  6
AIGENLINE004
 62
     7
 10
71.831900000000005
 20
87.222800000000007
 30
0.0
 11
71.831900000000005
 21
112.193
 31
0.0
  0
LINE
  5
D0
  8
0
  6
AIGENLINE004
 62
     7
 10
101.262
 20
87.222800000000007
 30
0.0
 11
101.262
 21
112.193
 31
0.0
  0
LINE
  5
D1
  8
0
  6
AIGENLINE004
 62
     7
 10
101.262
 20
87.223500000000001
 30
0.0
 11
71.831900000000005
 21
87.223500000000001
 31
0.0
  0
LINE
  5
D2
  8
0
 62
     7
 10
103.797
 20
121.61199999999999
 30
0.0
 11
103.797
 21
103.91500000000001
 31
0.0
  0
LINE
  5
D3
  8
0
 62
     7
 10
132.577
 20
108.929
 30
0.0
 11
132.577
 21
108.926
 31
0.0
  0
LINE
  5
D4
  8
0
 62
     7
 10
132.577
 20
103.92100000000001
 30
0.0
 11
132.577
 21
102.026
 31
0.0
  0
LINE
  5
D5
  8
0
 62
     7
 10
132.577
 20
110.824
 30
0.0
 11
132.577
 21
108.929
 31
0.0
  0
LINE
  5
D6
  8
0
 62
     7
 10
131.57900000000001
 20
103.92100000000001
 30
0.0
 11
131.57900000000001
 21
102.026
 31
0.0
  0
LINE
  5
D7
  8
0
 62
     7
 10
131.57900000000001
 20
110.824
 30
0.0
 11
131.57900000000001
 21
108.929
 31
0.0
  0
LINE
  5
D8
  8
0
 62
     7
 10
132.577
 20
110.824
 30
0.0
 11
131.57900000000001
 21
110.824
 31
0.0
  0
LINE
  5
D9
  8
0
 62
     7
 10
131.57900000000001
 20
102.026
 30
0.0
 11
132.577
 21
102.026
 31
0.0
  0
LINE
  5
DA
  8
0
 62
     7
 10
69.296999999999997
 20
108.9579999999999
 30
0.0
 11
69.296999999999997
 21
104.63
 31
0.0
  0
LINE
  5
DB
  8
0
 62
     7
 10
69.296999999999997
 20
121.61199999999999
 30
0.0
 11
69.296999999999997
 21
108.96599999999999
 31
0.0
  0
LINE
  5
DC
  8
0
 62
     7
 10
69.296999999999997
 20
112.193
 30
0.0
 11
103.797
 21
112.193
 31
0.0
  0
LINE
  5
DD
  8
0
 62
     7
 10
121.76299999999991
 20
113.71899999999989
 30
0.0
 11
121.55
 21
113.995
 31
0.0
  0
ARC
  5
DE
  8
0
 62
     7
 10
138.56662900000001
 20
98.946769000000003
 30
0.0
 40
22.730937999999998
 50
89.465624000000005
 51
138.50054900000001
  0
LINE
  5
DF
  8
0
 62
     7
 10
149.791
 20
106.363
 30
0.0
 11
148.97599999999991
 21
106.363
 31
0.0
  0
ARC
  5
E0
  8
0
 62
     7
 10
133.58895000000001
 20
102.5376599999999
 30
0.0
 40
16.26547399999999
 50
74.360534000000001
 51
136.57223500000001
  0
ARC
  5
E1
  8
0
 62
     7
 10
132.67716100000001
 20
102.34798599999991
 30
0.0
 40
16.786370999999988
 50
13.840137999999991
 51
63.970177
  0
LINE
  5
E2
  8
0
 62
     7
 10
137.9739999999999
 20
118.20099999999999
 30
0.0
 11
138.74299999999991
 21
118.6779999999999
 31
0.0
  0
LINE
  5
E3
  8
0
 62
     7
 10
138.779
 20
121.67700000000001
 30
0.0
 11
139.33699999999999
 21
120.83799999999999
 31
0.0
  0
LINE
  5
E4
  8
0
 62
     7
 10
140.04199999999989
 20
117.95399999999999
 30
0.0
 11
140.04199999999989
 21
117.432
 31
0.0
  0
LINE
  5
E5
  8
0
 62
     7
 10
140.04199999999989
 20
121.61199999999999
 30
0.0
 11
140.04199999999989
 21
121.01000000000001
 31
0.0
  0
LINE
  5
E6
  8
0
 62
     7
 10
130.3779999999999
 20
102.676
 30
0.0
 11
129.52299999999991
 21
103.197
 31
0.0
  0
LINE
  5
E7
  8
0
 62
     7
 10
129.52299999999991
 20
103.197
 30
0.0
 11
140.36600000000001
 21
120.9759999999999
 31
0.0
  0
LINE
  5
E8
  8
0
 62
     7
 10
130.3779999999999
 20
102.676
 30
0.0
 11
141.22200000000001
 21
120.45399999999989
 31
0.0
  0
ARC
  5
E9
  8
0
 62
     7
 10
139.98378
 20
119.42330699999999
 30
0.0
 40
1.58786
 50
2.1248049999999998
 51
87.888102999999987
  0
ARC
  5
EA
  8
0
 62
     7
 10
140.1011499999999
 20
119.42368
 30
0.0
 40
1.587499
 50
92.124705000000006
 51
177.88818499999999
  0
ARC
  5
EB
  8
0
 62
     7
 10
140.10148599999999
 20
119.54101199999999
 30
0.0
 40
1.587847
 50
182.1234529999999
 51
267.86365599999999
  0
ARC
  5
EC
  8
0
 62
     7
 10
139.9834449999999
 20
119.541386
 30
0.0
 40
1.588206999999999
 50
272.12351599999988
 51
357.86357599999991
  0
ARC
  5
ED
  8
0
  6
AIGENLINE004
 62
     7
 10
133.2799719999999
 20
102.828468
 30
0.0
 40
15.87036799999999
 50
0.279901
 51
44.719728000000003
  0
ARC
  5
EE
  8
0
  6
AIGENLINE004
 62
     7
 10
133.38951399999991
 20
102.71928699999989
 30
0.0
 40
15.87011
 50
45.278095999999998
 51
89.717957999999996
  0
ARC
  5
EF
  8
0
  6
AIGENLINE004
 62
     7
 10
133.5451709999999
 20
102.71984999999989
 30
0.0
 40
15.869543999999991
 50
90.279938000000001
 51
134.72271000000001
  0
ARC
  5
F0
  8
0
  6
AIGENLINE004
 62
     7
 10
133.65347899999989
 20
102.8290759999999
 30
0.0
 40
15.868895999999999
 50
135.27807999999999
 51
179.722251
  0
ARC
  5
F1
  8
0
  6
AIGENLINE004
 62
     7
 10
133.65496099999999
 20
102.9835319999999
 30
0.0
 40
15.870381
 50
180.2799389999999
 51
224.71972999999991
  0
ARC
  5
F2
  8
0
  6
AIGENLINE004
 62
     7
 10
133.54490000000001
 20
103.09387199999991
 30
0.0
 40
15.870581
 50
225.28237100000001
 51
269.72105800000003
  0
ARC
  5
F3
  8
0
  6
AIGENLINE004
 62
     7
 10
133.39011199999999
 20
103.093644
 30
0.0
 40
15.870354000000001
 50
270.279878
 51
314.71799099999998
  0
ARC
  5
F4
  8
0
  6
AIGENLINE004
 62
     7
 10
133.28143999999989
 20
102.98292099999991
 30
0.0
 40
15.868899000000001
 50
315.27809500000001
 51
359.72101700000002
  0
ARC
  5
F5
  8
0
  6
AIGENLINE004
 62
     7
 10
133.39143899999991
 20
102.874736
 30
0.0
 40
6.4931449999999993
 50
0.275853
 51
44.719636000000001
  0
ARC
  5
F6
  8
0
  6
AIGENLINE004
 62
     7
 10
133.43601200000001
 20
102.83012600000001
 30
0.0
 40
6.4931679999999989
 50
45.27609799999999
 51
89.720966999999987
  0
ARC
  5
F7
  8
0
  6
AIGENLINE004
 62
     7
 10
133.49890300000001
 20
102.830134
 30
0.0
 40
6.4931589999999986
 50
90.275924000000003
 51
134.72389499999991
  0
ARC
  5
F8
  8
0
  6
AIGENLINE004
 62
     7
 10
133.5431899999999
 20
102.874364
 30
0.0
 40
6.4931989999999988
 50
135.27619899999991
 51
179.72084699999999
  0
ARC
  5
F9
  8
0
  6
AIGENLINE004
 62
     7
 10
133.54230799999999
 20
102.937265
 30
0.0
 40
6.4923159999999998
 50
180.27596800000001
 51
224.7269859999999
  0
ARC
  5
FA
  8
0
  6
AIGENLINE004
 62
     7
 10
133.50043099999991
 20
102.98674
 30
0.0
 40
6.4977010000000002
 50
225.29680999999999
 51
269.71079700000001
  0
ARC
  5
FB
  8
0
  6
AIGENLINE004
 62
     7
 10
133.43636100000001
 20
102.98221599999999
 30
0.0
 40
6.4931700000000001
 50
270.27595400000001
 51
314.71955400000002
  0
ARC
  5
FC
  8
0
  6
AIGENLINE004
 62
     7
 10
133.39255199999991
 20
102.9367979999999
 30
0.0
 40
6.4920289999999996
 50
315.276343
 51
359.72816899999992
  0
LINE
  5
FD
  8
0
 62
     7
 10
149.791
 20
106.363
 30
0.0
 11
149.791
 21
121.61199999999999
 31
0.0
  0
LINE
  5
FE
  8
0
 62
     7
 10
140.04199999999989
 20
121.61199999999999
 30
0.0
 11
149.791
 21
121.61199999999999
 31
0.0
  0
LINE
  5
FF
  8
0
 62
     7
 10
33.796599999999991
 20
121.61199999999999
 30
0.0
 11
103.797
 21
121.61199999999999
 31
0.0
  0
TEXT
  5
100
  8
_________2
 62
     7
 10
109.179
 20
24.225899999999999
 30
0.0
 40
3.9357000000000002
  1
アクセリオ/アドロイト　ダブル紙巻器
 41
0.5
  0
LINE
  5
101
  8
_________2
 62
     7
 10
205.30099999999999
 20
127.411
 30
0.0
 11
183.55099999999999
 21
127.411
 31
0.0
  0
LINE
  5
102
  8
_________2
 62
     7
 10
100.2999999999999
 20
-4.0909000000000004
 30
0.0
 11
100.2999999999999
 21
-21.071200000000001
 31
0.0
  0
LINE
  5
103
  8
_________2
 62
     7
 10
100.2999999999999
 20
275.93099999999993
 30
0.0
 11
100.2999999999999
 21
258.911
 31
0.0
  0
LINE
  5
104
  8
_________2
 62
     7
 10
17.049399999999991
 20
127.411
 30
0.0
 11
-4.7010300000000003
 21
127.411
 31
0.0
  0
LINE
  5
105
  8
_________2
 62
     7
 10
76.740799999999993
 20
29.804899999999989
 30
0.0
 11
74.554599999999994
 21
29.804899999999989
 31
0.0
  0
LINE
  5
106
  8
_________2
 62
     7
 10
77.233500000000006
 20
29.804899999999989
 30
0.0
 11
76.981300000000005
 21
29.804899999999989
 31
0.0
  0
LINE
  5
107
  8
_________2
 62
     7
 10
77.726200000000006
 20
29.804899999999989
 30
0.0
 11
80.6511
 21
29.804899999999989
 31
0.0
  0
LINE
  5
108
  8
_________2
 62
     7
 10
77.233500000000006
 20
29.804899999999989
 30
0.0
 11
77.485699999999994
 21
29.804899999999989
 31
0.0
  0
LINE
  5
109
  8
_________2
 62
     7
 10
70.837299999999999
 20
29.804899999999989
 30
0.0
 11
68.650300000000001
 21
29.804899999999989
 31
0.0
  0
LINE
  5
10A
  8
_________2
 62
     7
 10
71.329300000000003
 20
29.804899999999989
 30
0.0
 11
71.077799999999996
 21
29.804899999999989
 31
0.0
  0
LINE
  5
10B
  8
_________2
 62
     7
 10
71.329300000000003
 20
30.297599999999999
 30
0.0
 11
71.329300000000003
 21
32.484499999999997
 31
0.0
  0
LINE
  5
10C
  8
_________2
 62
     7
 10
71.329300000000003
 20
29.804899999999989
 30
0.0
 11
71.329300000000003
 21
30.057099999999998
 31
0.0
  0
LINE
  5
10D
  8
_________2
 62
     7
 10
71.821899999999999
 20
29.804899999999989
 30
0.0
 11
74.008899999999997
 21
29.804899999999989
 31
0.0
  0
LINE
  5
10E
  8
_________2
 62
     7
 10
71.329300000000003
 20
29.804899999999989
 30
0.0
 11
71.581400000000002
 21
29.804899999999989
 31
0.0
  0
LINE
  5
10F
  8
_________2
 62
     7
 10
71.329300000000003
 20
29.312999999999999
 30
0.0
 11
71.329300000000003
 21
27.126000000000001
 31
0.0
  0
LINE
  5
110
  8
_________2
 62
     7
 10
71.329300000000003
 20
29.804899999999989
 30
0.0
 11
71.329300000000003
 21
29.553399999999989
 31
0.0
  0
LINE
  5
111
  8
_________2
 62
     7
 10
75.040300000000002
 20
28.5853
 30
0.0
 11
80.218299999999985
 21
27.720600000000001
 31
0.0
  0
LINE
  5
112
  8
_________2
 62
     7
 10
75.040300000000002
 20
31.0245
 30
0.0
 11
80.218299999999985
 21
31.889900000000001
 31
0.0
  0
LINE
  5
113
  8
_________2
 62
     7
 10
80.218299999999985
 20
27.720600000000001
 30
0.0
 11
80.218299999999985
 21
31.889900000000001
 31
0.0
  0
LINE
  5
114
  8
_________2
 62
     7
 10
75.040300000000002
 20
28.5853
 30
0.0
 11
75.040300000000002
 21
31.0245
 31
0.0
  0
ARC
  5
115
  8
_________2
 62
     7
 10
71.283017000000001
 20
29.757959
 30
0.0
 40
1.2673709999999989
 50
2.1232950000000002
 51
87.909056000000007
  0
ARC
  5
116
  8
_________2
 62
     7
 10
71.375788
 20
29.758385000000001
 30
0.0
 40
1.2669559999999991
 50
92.104701000000006
 51
177.8952689999999
  0
ARC
  5
117
  8
_________2
 62
     7
 10
71.376186000000004
 20
29.851842999999999
 30
0.0
 40
1.2673680000000001
 50
182.12203600000001
 51
267.877993
  0
ARC
  5
118
  8
_________2
 62
     7
 10
71.282368999999989
 20
29.852519999999998
 30
0.0
 40
1.2680439999999991
 50
272.11916400000001
 51
357.84848499999993
  0
ARC
  5
119
  8
_________2
 62
     7
 10
71.329257999999996
 20
29.804915000000001
 30
0.0
 40
2.0849849999999992
 50
0.00001
 51
89.999980000000008
  0
ARC
  5
11A
  8
_________2
 62
     7
 10
71.408904000000007
 20
29.725985000000001
 30
0.0
 40
2.165379999999999
 50
92.107876000000005
 51
177.91103200000001
  0
ARC
  5
11B
  8
_________2
 62
     7
 10
71.409267
 20
29.884924000000002
 30
0.0
 40
2.1657829999999998
 50
182.117133
 51
267.88289700000001
  0
ARC
  5
11C
  8
_________2
 62
     7
 10
71.249286999999995
 20
29.885601999999999
 30
0.0
 40
2.1664590000000001
 50
272.11546800000002
 51
357.86560400000002
  0
TEXT
  5
11D
  8
_________2
 62
     7
 10
104.605
 20
1.6796699999999991
 30
0.0
 40
3.0923400000000001
  1
図番
 41
0.5
  0
LINE
  5
11E
  8
_________2
 62
     7
 10
103.55
 20
5.9088900000000004
 30
0.0
 11
183.55099999999999
 21
5.9088900000000004
 31
0.0
  0
TEXT
  5
11F
  8
_________2
 62
     7
 10
104.605
 20
11.679500000000001
 30
0.0
 40
3.0923400000000001
  1
品番
 41
0.5
  0
TEXT
  5
120
  8
_________2
 62
     7
 10
104.605
 20
31.818200000000001
 30
0.0
 40
3.0923400000000001
  1
名称
 41
0.5
  0
TEXT
  5
121
  8
_________2
 62
     7
 10
91.844958333333338
 20
26.822099999999988
 30
0.0
 40
3.6545800000000002
  1
mm
 41
0.5
 72
     1
 11
93.367699999999985
 21
26.822099999999988
 31
0.0
  0
TEXT
  5
122
  8
_________2
 62
     7
 10
85.642999999999986
 20
31.818200000000001
 30
0.0
 40
3.0923400000000001
  1
単位
 41
0.5
  0
TEXT
  5
123
  8
_________2
 62
     7
 10
85.642999999999986
 20
19.410999999999991
 30
0.0
 40
3.0923400000000001
  1
尺度
 41
0.5
  0
TEXT
  5
124
  8
_________2
 62
     7
 10
90.548558666666679
 20
13.2181
 30
0.0
 40
3.6545800000000002
  1
1 ： 4
 41
0.5
 72
     1
 11
93.959500000000006
 21
13.2181
 31
0.0
  0
TEXT
  5
125
  8
_________2
 62
     7
 10
137.64644999999999
 20
9.1080299999999994
 30
0.0
 40
3.9357000000000002
  1
CEA311T
 41
0.5
 72
     1
 11
143.55000000000001
 21
9.1080299999999994
 31
0.0
  0
TEXT
  5
126
  8
_________2
 62
     7
 10
137.64644999999999
 20
-0.8924579999999998
 30
0.0
 40
3.9357000000000002
  1
CEA311T
 41
0.5
 72
     1
 11
143.55000000000001
 21
-0.8924579999999998
 31
0.0
  0
TEXT
  5
127
  8
_________2
 62
     7
 10
39.364190666666659
 20
13.60319999999999
 30
0.0
 40
3.6545800000000002
  1
高橋
 41
0.5
 72
     1
 11
41.313299999999998
 21
13.60319999999999
 31
0.0
  0
TEXT
  5
128
  8
_________2
 62
     7
 10
20.790190666666671
 20
13.60319999999999
 30
0.0
 40
3.6545800000000002
  1
石原
 41
0.5
 72
     1
 11
22.7393
 21
13.60319999999999
 31
0.0
  0
TEXT
  5
129
  8
_________2
 62
     7
 10
67.785600000000002
 20
13.2181
 30
0.0
 40
3.6545800000000002
  1
07.10.07
 41
0.5
  0
TEXT
  5
12A
  8
_________2
 62
     7
 10
66.5929
 20
19.410999999999991
 30
0.0
 40
3.0923400000000001
  1
日付
 41
0.5
  0
TEXT
  5
12B
  8
_________2
 62
     7
 10
29.639199999999992
 20
19.410999999999991
 30
0.0
 40
3.0923400000000001
  1
検図
 41
0.5
  0
TEXT
  5
12C
  8
_________2
 62
     7
 10
18.020900000000001
 20
5.2115999999999989
 30
0.0
 40
3.0923400000000001
  1
備考
 41
0.5
  0
TEXT
  5
12D
  8
_________2
 62
     7
 10
18.020900000000001
 20
19.410999999999991
 30
0.0
 40
3.0923400000000001
  1
製図
 41
0.5
  0
TEXT
  5
12E
  8
_________2
 62
     7
 10
23.788265333333339
 20
27.936999999999991
 30
0.0
 40
4.4979399999999989
  1
セラトレーディング株式会社
 41
0.5
 72
     1
 11
41.180300000000003
 21
27.936999999999991
 31
0.0
  0
LINE
  5
12F
  8
_________2
 62
     7
 10
183.55099999999999
 20
-4.0909000000000004
 30
0.0
 11
17.049399999999991
 21
-4.0909000000000004
 31
0.0
  0
LINE
  5
130
  8
_________2
 62
     7
 10
17.049399999999991
 20
-4.0909000000000004
 30
0.0
 11
17.049399999999991
 21
258.911
 31
0.0
  0
LINE
  5
131
  8
_________2
 62
     7
 10
17.049399999999991
 20
258.911
 30
0.0
 11
183.55099999999999
 21
258.911
 31
0.0
  0
LINE
  5
132
  8
_________2
 62
     7
 10
183.55099999999999
 20
258.911
 30
0.0
 11
183.55099999999999
 21
-4.0909000000000004
 31
0.0
  0
LINE
  5
133
  8
_________2
 62
     7
 10
65.549700000000001
 20
9.4091300000000011
 30
0.0
 11
65.549700000000001
 21
35.908999999999992
 31
0.0
  0
LINE
  5
134
  8
_________2
 62
     7
 10
84.549599999999984
 20
9.4091300000000011
 30
0.0
 11
84.549599999999984
 21
35.908999999999992
 31
0.0
  0
LINE
  5
135
  8
_________2
 62
     7
 10
103.55
 20
-4.0909000000000004
 30
0.0
 11
103.55
 21
35.908999999999992
 31
0.0
  0
LINE
  5
136
  8
_________2
 62
     7
 10
28.549199999999988
 20
9.4091300000000011
 30
0.0
 11
28.549199999999988
 21
23.409400000000002
 31
0.0
  0
LINE
  5
137
  8
_________2
 62
     7
 10
17.049399999999991
 20
9.4091300000000011
 30
0.0
 11
103.55
 21
9.4091300000000011
 31
0.0
  0
LINE
  5
138
  8
_________2
 62
     7
 10
17.049399999999991
 20
23.409400000000002
 30
0.0
 11
103.55
 21
23.409400000000002
 31
0.0
  0
LINE
  5
139
  8
_________2
 62
     7
 10
103.55
 20
15.908699999999991
 30
0.0
 11
183.55099999999999
 21
15.908699999999991
 31
0.0
  0
LINE
  5
13A
  8
_________2
 62
     7
 10
17.049399999999991
 20
35.908999999999992
 30
0.0
 11
183.55099999999999
 21
35.908999999999992
 31
0.0
  0
ENDSEC
  0
EOF
