  0
SECTION
  2
HEADER
  9
$ACADVER
  1
AC1009
  9
$INSBASE
 10
0.0
 20
0.0
 30
0.0
  9
$EXTMIN
 10
-4.70052
 20
-21.070900000000002
 30
0.0
  9
$EXTMAX
 10
205.30099999999999
 20
275.93099999999993
 30
0.0
  9
$LIMMIN
 10
0.0
 20
0.0
  9
$LIMMAX
 10
12.0
 20
9.0
  9
$ORTHOMODE
 70
     0
  9
$REGENMODE
 70
     1
  9
$FILLMODE
 70
     1
  9
$QTEXTMODE
 70
     0
  9
$MIRRTEXT
 70
     1
  9
$DRAGMODE
 70
     2
  9
$LTSCALE
 40
1.0
  9
$OSMODE
 70
    37
  9
$ATTMODE
 70
     1
  9
$TEXTSIZE
 40
0.0
  9
$TRACEWID
 40
0.05
  9
$TEXTSTYLE
  7
STANDARD
  9
$CLAYER
  8
0
  9
$CELTYPE
  6
CONTINUOUS
  9
$CECOLOR
 62
   256
  9
$DIMSCALE
 40
1.0
  9
$DIMASZ
 40
0.18
  9
$DIMEXO
 40
0.0625
  9
$DIMDLI
 40
0.38
  9
$DIMRND
 40
0.0
  9
$DIMDLE
 40
0.0
  9
$DIMEXE
 40
0.18
  9
$DIMTP
 40
0.0
  9
$DIMTM
 40
0.0
  9
$DIMTXT
 40
0.18
  9
$DIMCEN
 40
0.09
  9
$DIMTSZ
 40
0.0
  9
$DIMTOL
 70
     0
  9
$DIMLIM
 70
     0
  9
$DIMTIH
 70
     1
  9
$DIMTOH
 70
     1
  9
$DIMSE1
 70
     0
  9
$DIMSE2
 70
     0
  9
$DIMTAD
 70
     0
  9
$DIMZIN
 70
     0
  9
$DIMBLK
  1

  9
$DIMASO
 70
     1
  9
$DIMSHO
 70
     1
  9
$DIMPOST
  1

  9
$DIMAPOST
  1

  9
$DIMALT
 70
     0
  9
$DIMALTD
 70
     2
  9
$DIMALTF
 40
25.399999999999999
  9
$DIMLFAC
 40
1.0
  9
$DIMTOFL
 70
     0
  9
$DIMTVP
 40
0.0
  9
$DIMTIX
 70
     0
  9
$DIMSOXD
 70
     0
  9
$DIMSAH
 70
     0
  9
$DIMBLK1
  1

  9
$DIMBLK2
  1

  9
$DIMSTYLE
  2
STANDARD
  9
$DIMCLRD
 70
     0
  9
$DIMCLRE
 70
     0
  9
$DIMCLRT
 70
     0
  9
$DIMTFAC
 40
1.0
  9
$DIMGAP
 40
0.09
  9
$LUNITS
 70
     2
  9
$LUPREC
 70
     4
  9
$SKETCHINC
 40
0.1
  9
$FILLETRAD
 40
0.0
  9
$AUNITS
 70
     0
  9
$AUPREC
 70
     0
  9
$MENU
  1
.
  9
$ELEVATION
 40
0.0
  9
$PELEVATION
 40
0.0
  9
$THICKNESS
 40
0.0
  9
$LIMCHECK
 70
     0
  9
$BLIPMODE
 70
     0
  9
$CHAMFERA
 40
0.0
  9
$CHAMFERB
 40
0.0
  9
$SKPOLY
 70
     0
  9
$TDCREATE
 40
2444972.375
  9
$TDUPDATE
 40
2454178.2851746869
  9
$TDINDWG
 40
0.0001319213
  9
$TDUSRTIMER
 40
0.0001319213
  9
$USRTIMER
 70
     1
  9
$ANGBASE
 50
0.0
  9
$ANGDIR
 70
     0
  9
$PDMODE
 70
     0
  9
$PDSIZE
 40
0.0
  9
$PLINEWID
 40
0.0
  9
$COORDS
 70
     1
  9
$SPLFRAME
 70
     0
  9
$SPLINETYPE
 70
     6
  9
$SPLINESEGS
 70
     8
  9
$ATTDIA
 70
     0
  9
$ATTREQ
 70
     1
  9
$HANDLING
 70
     1
  9
$HANDSEED
  5
FF
  9
$SURFTAB1
 70
     6
  9
$SURFTAB2
 70
     6
  9
$SURFTYPE
 70
     6
  9
$SURFU
 70
     6
  9
$SURFV
 70
     6
  9
$UCSNAME
  2

  9
$UCSORG
 10
0.0
 20
0.0
 30
0.0
  9
$UCSXDIR
 10
1.0
 20
0.0
 30
0.0
  9
$UCSYDIR
 10
0.0
 20
1.0
 30
0.0
  9
$PUCSNAME
  2

  9
$PUCSORG
 10
0.0
 20
0.0
 30
0.0
  9
$PUCSXDIR
 10
1.0
 20
0.0
 30
0.0
  9
$PUCSYDIR
 10
0.0
 20
1.0
 30
0.0
  9
$USERI1
 70
     0
  9
$USERI2
 70
     0
  9
$USERI3
 70
     0
  9
$USERI4
 70
     0
  9
$USERI5
 70
     0
  9
$USERR1
 40
0.0
  9
$USERR2
 40
0.0
  9
$USERR3
 40
0.0
  9
$USERR4
 40
0.0
  9
$USERR5
 40
0.0
  9
$WORLDVIEW
 70
     1
  9
$SHADEDGE
 70
     3
  9
$SHADEDIF
 70
    70
  9
$TILEMODE
 70
     1
  9
$MAXACTVP
 70
    48
  9
$PLIMCHECK
 70
     0
  9
$PEXTMIN
 10
1.0000000000000000E+020
 20
1.0000000000000000E+020
 30
1.0000000000000000E+020
  9
$PEXTMAX
 10
-1.0000000000000000E+020
 20
-1.0000000000000000E+020
 30
-1.0000000000000000E+020
  9
$PLIMMIN
 10
0.0
 20
0.0
  9
$PLIMMAX
 10
12.0
 20
9.0
  9
$UNITMODE
 70
     0
  9
$VISRETAIN
 70
     1
  9
$PLINEGEN
 70
     0
  9
$PSLTSCALE
 70
     1
  0
ENDSEC
  0
SECTION
  2
TABLES
  0
TABLE
  2
VPORT
 70
     2
  0
VPORT
  2
*ACTIVE
 70
     0
 10
0.0
 20
0.0
 11
1.0
 21
1.0
 12
200.17533677571029
 22
127.43004999999989
 13
0.0
 23
0.0
 14
1.0
 24
1.0
 15
0.0
 25
0.0
 16
0.0
 26
0.0
 36
1.0
 17
0.0
 27
0.0
 37
0.0
 40
299.1857374999999
 41
2.1842105263157889
 42
50.0
 43
0.0
 44
0.0
 50
0.0
 51
0.0
 71
     0
 72
   100
 73
     1
 74
     1
 75
     0
 76
     0
 77
     0
 78
     0
  0
ENDTAB
  0
TABLE
  2
LTYPE
 70
     3
  0
LTYPE
  2
CONTINUOUS
 70
     0
  3
Solid line
 72
    65
 73
     0
 40
0.0
  0
LTYPE
  2
AIGENLINE001
 70
     0
  3
generate AI->DXF Converter
 72
    65
 73
     5
 40
5.8561449999999988
 49
3.5278
 49
-0.776115
 49
0.776115
 49
-0.776115
 49
0.0
  0
LTYPE
  2
AIGENLINE002
 70
     0
  3
generate AI->DXF Converter
 72
    65
 73
     3
 40
1.5522299999999991
 49
0.776115
 49
-0.776115
 49
0.0
  0
ENDTAB
  0
TABLE
  2
LAYER
 70
     2
  0
LAYER
  2
0
 70
     0
 62
     7
  6
CONTINUOUS
  0
LAYER
  2
_________2
 70
     0
 62
     7
  6
CONTINUOUS
  0
ENDTAB
  0
TABLE
  2
STYLE
 70
     1
  0
STYLE
  2
STANDARD
 70
     0
 40
0.0
 41
0.0
 50
0.0
 71
     0
 42
0.0
  3
TXT
  4
EXTFONT.SHX
  0
ENDTAB
  0
TABLE
  2
VIEW
 70
     0
  0
ENDTAB
  0
TABLE
  2
UCS
 70
     0
  0
ENDTAB
  0
TABLE
  2
APPID
 70
     1
  0
APPID
  2
ACAD
 70
     0
  0
ENDTAB
  0
TABLE
  2
DIMSTYLE
 70
     1
  0
DIMSTYLE
  2
STANDARD
 70
     0
  3

  4

  5

  6

  7

 40
1.0
 41
0.18
 42
0.0625
 43
0.38
 44
0.18
 45
0.0
 46
0.0
 47
0.0
 48
0.0
140
0.18
141
0.09
142
0.0
143
25.399999999999999
144
1.0
145
0.0
146
1.0
147
0.09
 71
     0
 72
     0
 73
     1
 74
     1
 75
     0
 76
     0
 77
     0
 78
     0
170
     0
171
     2
172
     0
173
     0
174
     0
175
     0
176
     0
177
     0
178
     0
  0
ENDTAB
  0
ENDSEC
  0
SECTION
  2
BLOCKS
  0
BLOCK
  8
0
  2
$MODEL_SPACE
 70
     0
 10
0.0
 20
0.0
 30
0.0
  3
$MODEL_SPACE
  1

  0
ENDBLK
  5
1A
  8
0
  0
BLOCK
 67
     1
  8
0
  2
$PAPER_SPACE
 70
     0
 10
0.0
 20
0.0
 30
0.0
  3
$PAPER_SPACE
  1

  0
ENDBLK
  5
17
 67
     1
  8
0
  0
ENDSEC
  0
SECTION
  2
ENTITIES
  0
TEXT
  5
23
  8
0
 62
     7
 10
133.35099999999991
 20
39.864100000000001
 30
0.0
 40
3.0923400000000001
  1
バーは左右組替えできます。
 41
0.5
  0
TEXT
  5
24
  8
0
 62
     7
 10
85.685599999999994
 20
140.0929999999999
 30
0.0
 40
3.0923400000000001
  1
%%c20
 50
90.0
 41
0.5
  0
TEXT
  5
25
  8
0
 62
     7
 10
19.880800000000001
 20
148.02000000000001
 30
0.0
 40
3.0923400000000001
  1
15
 41
0.5
  0
TEXT
  5
26
  8
0
 62
     7
 10
85.130099999999985
 20
154.8179999999999
 30
0.0
 40
3.0923400000000001
  1
400
 41
0.5
  0
TEXT
  5
27
  8
0
 62
     7
 10
80.868399999999994
 20
162.62899999999999
 30
0.0
 40
3.0923400000000001
  1
470
 41
0.5
  0
TEXT
  5
28
  8
0
 62
     7
 10
45.557899999999997
 20
148.02000000000001
 30
0.0
 40
3.0923400000000001
  1
15
 41
0.5
  0
TEXT
  5
29
  8
0
 62
     7
 10
32.854900000000001
 20
148.02000000000001
 30
0.0
 40
3.0923400000000001
  1
40
 41
0.5
  0
TEXT
  5
2A
  8
0
 62
     7
 10
33.471600000000002
 20
154.71399999999991
 30
0.0
 40
3.0923400000000001
  1
70
 41
0.5
  0
TEXT
  5
2B
  8
0
 62
     7
 10
154.637
 20
145.52000000000001
 30
0.0
 40
3.0923400000000001
  1
49
 41
0.5
  0
TEXT
  5
2C
  8
0
 62
     7
 10
177.72399999999999
 20
127.681
 30
0.0
 40
3.0923400000000001
  1
61
 50
90.0
 41
0.5
  0
TEXT
  5
2D
  8
0
 62
     7
 10
173.18299999999991
 20
139.941
 30
0.0
 40
3.0923400000000001
  1
9
 50
90.0
 41
0.5
  0
ARC
  5
2E
  8
0
 62
     7
 10
153.005753
 20
134.99984900000001
 30
0.0
 40
2.4999500000000001
 50
270.00002000000001
 51
359.99998999999991
  0
ARC
  5
2F
  8
0
 62
     7
 10
153.005753
 20
134.9998479999999
 30
0.0
 40
2.4999489999999991
 50
179.99996999999991
 51
270.00002000000001
  0
ARC
  5
30
  8
0
 62
     7
 10
153.005754
 20
134.9998479999999
 30
0.0
 40
2.4999500000000001
 50
90.0
 51
179.99996999999991
  0
ARC
  5
31
  8
0
 62
     7
 10
153.005753
 20
134.9998479999999
 30
0.0
 40
2.4999500000000001
 50
0.00001
 51
89.999980000000008
  0
ARC
  5
32
  8
0
  6
AIGENLINE002
 62
     7
 10
30.225046999999989
 20
135.00897800000001
 30
0.0
 40
0.7500020000000001
 50
270.00002000000001
 51
359.99998999999991
  0
ARC
  5
33
  8
0
  6
AIGENLINE002
 62
     7
 10
30.225046999999989
 20
135.00897800000001
 30
0.0
 40
0.7500020000000001
 50
179.99996999999991
 51
270.00002000000001
  0
ARC
  5
34
  8
0
  6
AIGENLINE002
 62
     7
 10
30.225046999999989
 20
135.00897800000001
 30
0.0
 40
0.7500020000000001
 50
90.0
 51
179.99996999999991
  0
ARC
  5
35
  8
0
  6
AIGENLINE002
 62
     7
 10
30.225046999999989
 20
135.00897800000001
 30
0.0
 40
0.7500020000000001
 50
0.00001
 51
89.999980000000008
  0
ARC
  5
36
  8
0
  6
AIGENLINE002
 62
     7
 10
40.224156000000001
 20
135.00897800000001
 30
0.0
 40
0.7500020000000001
 50
270.00002000000001
 51
359.99998999999991
  0
ARC
  5
37
  8
0
  6
AIGENLINE002
 62
     7
 10
40.224156000000001
 20
135.00897800000001
 30
0.0
 40
0.7500020000000001
 50
179.99996999999991
 51
270.00002000000001
  0
ARC
  5
38
  8
0
  6
AIGENLINE002
 62
     7
 10
40.224156000000001
 20
135.00897800000001
 30
0.0
 40
0.7500020000000001
 50
90.0
 51
179.99996999999991
  0
ARC
  5
39
  8
0
  6
AIGENLINE002
 62
     7
 10
40.224156000000001
 20
135.00897800000001
 30
0.0
 40
0.7500020000000001
 50
0.00001
 51
89.999980000000008
  0
LINE
  5
3A
  8
0
  6
AIGENLINE001
 62
     7
 10
161.59999999999991
 20
135.0
 30
0.0
 11
172.0979999999999
 21
135.0
 31
0.0
  0
LINE
  5
3B
  8
0
  6
AIGENLINE001
 62
     7
 10
148.54300000000001
 20
135.0
 30
0.0
 11
157.37
 21
135.0
 31
0.0
  0
LINE
  5
3C
  8
0
  6
AIGENLINE001
 62
     7
 10
24.464500000000001
 20
135.084
 30
0.0
 11
145.30099999999999
 21
135.084
 31
0.0
  0
LINE
  5
3D
  8
0
 62
     7
 10
162.6699999999999
 20
135.387
 30
0.0
 11
170.21000000000001
 21
135.387
 31
0.0
  0
LINE
  5
3E
  8
0
 62
     7
 10
170.21000000000001
 20
135.387
 30
0.0
 11
171.202
 21
135.0
 31
0.0
  0
LINE
  5
3F
  8
0
 62
     7
 10
171.202
 20
135.0
 30
0.0
 11
170.21000000000001
 21
134.61199999999991
 31
0.0
  0
LINE
  5
40
  8
0
 62
     7
 10
170.21000000000001
 20
134.61199999999991
 30
0.0
 11
162.6699999999999
 21
134.61199999999991
 31
0.0
  0
LINE
  5
41
  8
0
 62
     7
 10
43.974200000000003
 20
136.47499999999991
 30
0.0
 11
26.474699999999999
 21
136.47499999999991
 31
0.0
  0
LINE
  5
42
  8
0
 62
     7
 10
43.974200000000003
 20
133.37299999999991
 30
0.0
 11
26.474699999999999
 21
133.37299999999991
 31
0.0
  0
LINE
  5
43
  8
0
 62
     7
 10
177.99199999999999
 20
124.211
 30
0.0
 11
178.584
 21
122.001
 31
0.0
  0
LINE
  5
44
  8
0
 62
     7
 10
178.584
 20
122.001
 30
0.0
 11
179.17599999999999
 21
124.211
 31
0.0
  0
LINE
  5
45
  8
0
 62
     7
 10
179.17599999999999
 20
124.211
 30
0.0
 11
177.99199999999999
 21
124.211
 31
0.0
  0
LINE
  5
46
  8
0
 62
     7
 10
179.16199999999989
 20
134.97499999999999
 30
0.0
 11
178.56899999999999
 21
137.18600000000001
 31
0.0
  0
LINE
  5
47
  8
0
 62
     7
 10
178.56899999999999
 20
137.18600000000001
 30
0.0
 11
177.977
 21
134.97499999999999
 31
0.0
  0
LINE
  5
48
  8
0
 62
     7
 10
177.977
 20
134.97499999999999
 30
0.0
 11
179.16199999999989
 21
134.97499999999999
 31
0.0
  0
LINE
  5
49
  8
0
 62
     7
 10
178.577
 20
122.001
 30
0.0
 11
178.577
 21
137.18600000000001
 31
0.0
  0
LINE
  5
4A
  8
0
 62
     7
 10
141.66
 20
160.416
 30
0.0
 11
143.87
 21
161.0079999999999
 31
0.0
  0
LINE
  5
4B
  8
0
 62
     7
 10
143.87
 20
161.0079999999999
 30
0.0
 11
141.66
 21
161.60099999999991
 31
0.0
  0
LINE
  5
4C
  8
0
 62
     7
 10
141.66
 20
161.60099999999991
 30
0.0
 11
141.66
 21
160.416
 31
0.0
  0
LINE
  5
4D
  8
0
 62
     7
 10
28.718
 20
161.58600000000001
 30
0.0
 11
26.507400000000001
 21
160.99399999999989
 31
0.0
  0
LINE
  5
4E
  8
0
 62
     7
 10
26.507400000000001
 20
160.99399999999989
 30
0.0
 11
28.718
 21
160.40199999999999
 31
0.0
  0
LINE
  5
4F
  8
0
 62
     7
 10
28.718
 20
160.40199999999999
 30
0.0
 11
28.718
 21
161.58600000000001
 31
0.0
  0
LINE
  5
50
  8
0
 62
     7
 10
143.87
 20
161.001
 30
0.0
 11
26.507400000000001
 21
161.001
 31
0.0
  0
LINE
  5
51
  8
0
 62
     7
 10
41.72399999999999
 20
152.721
 30
0.0
 11
43.9345
 21
153.3129999999999
 31
0.0
  0
LINE
  5
52
  8
0
 62
     7
 10
43.9345
 20
153.3129999999999
 30
0.0
 11
41.72399999999999
 21
153.905
 31
0.0
  0
LINE
  5
53
  8
0
 62
     7
 10
41.72399999999999
 20
153.905
 30
0.0
 11
41.72399999999999
 21
152.721
 31
0.0
  0
LINE
  5
54
  8
0
 62
     7
 10
141.70599999999999
 20
152.721
 30
0.0
 11
143.917
 21
153.3129999999999
 31
0.0
  0
LINE
  5
55
  8
0
 62
     7
 10
143.917
 20
153.3129999999999
 30
0.0
 11
141.70599999999999
 21
153.905
 31
0.0
  0
LINE
  5
56
  8
0
 62
     7
 10
141.70599999999999
 20
153.905
 30
0.0
 11
141.70599999999999
 21
152.721
 31
0.0
  0
LINE
  5
57
  8
0
 62
     7
 10
46.2378
 20
153.89099999999999
 30
0.0
 11
44.027200000000001
 21
153.29900000000001
 31
0.0
  0
LINE
  5
58
  8
0
 62
     7
 10
44.027200000000001
 20
153.29900000000001
 30
0.0
 11
46.2378
 21
152.70599999999999
 31
0.0
  0
LINE
  5
59
  8
0
 62
     7
 10
46.2378
 20
152.70599999999999
 30
0.0
 11
46.2378
 21
153.89099999999999
 31
0.0
  0
LINE
  5
5A
  8
0
 62
     7
 10
28.731100000000001
 20
153.89099999999999
 30
0.0
 11
26.520499999999998
 21
153.29900000000001
 31
0.0
  0
LINE
  5
5B
  8
0
 62
     7
 10
26.520499999999998
 20
153.29900000000001
 30
0.0
 11
28.731100000000001
 21
152.70599999999999
 31
0.0
  0
LINE
  5
5C
  8
0
 62
     7
 10
28.731100000000001
 20
152.70599999999999
 30
0.0
 11
28.731100000000001
 21
153.89099999999999
 31
0.0
  0
LINE
  5
5D
  8
0
 62
     7
 10
143.917
 20
153.30600000000001
 30
0.0
 11
26.507400000000001
 21
153.30600000000001
 31
0.0
  0
LINE
  5
5E
  8
0
 62
     7
 10
24.197099999999999
 20
145.96999999999991
 30
0.0
 11
26.407699999999991
 21
146.56200000000001
 31
0.0
  0
LINE
  5
5F
  8
0
 62
     7
 10
26.407699999999991
 20
146.56200000000001
 30
0.0
 11
24.197099999999999
 21
147.155
 31
0.0
  0
LINE
  5
60
  8
0
 62
     7
 10
24.197099999999999
 20
147.155
 30
0.0
 11
24.197099999999999
 21
145.96999999999991
 31
0.0
  0
LINE
  5
61
  8
0
 62
     7
 10
37.966700000000003
 20
145.96999999999991
 30
0.0
 11
40.177300000000002
 21
146.56200000000001
 31
0.0
  0
LINE
  5
62
  8
0
 62
     7
 10
40.177300000000002
 20
146.56200000000001
 30
0.0
 11
37.966700000000003
 21
147.155
 31
0.0
  0
LINE
  5
63
  8
0
 62
     7
 10
37.966700000000003
 20
147.155
 30
0.0
 11
37.966700000000003
 21
145.96999999999991
 31
0.0
  0
LINE
  5
64
  8
0
 62
     7
 10
46.183300000000003
 20
147.1399999999999
 30
0.0
 11
43.972799999999999
 21
146.548
 31
0.0
  0
LINE
  5
65
  8
0
 62
     7
 10
43.972799999999999
 20
146.548
 30
0.0
 11
46.183300000000003
 21
145.95500000000001
 31
0.0
  0
LINE
  5
66
  8
0
 62
     7
 10
46.183300000000003
 20
145.95500000000001
 30
0.0
 11
46.183300000000003
 21
147.1399999999999
 31
0.0
  0
LINE
  5
67
  8
0
 62
     7
 10
32.482100000000003
 20
147.1399999999999
 30
0.0
 11
30.271599999999999
 21
146.548
 31
0.0
  0
LINE
  5
68
  8
0
 62
     7
 10
30.271599999999999
 20
146.548
 30
0.0
 11
32.482100000000003
 21
145.95500000000001
 31
0.0
  0
LINE
  5
69
  8
0
 62
     7
 10
32.482100000000003
 20
145.95500000000001
 30
0.0
 11
32.482100000000003
 21
147.1399999999999
 31
0.0
  0
LINE
  5
6A
  8
0
 62
     7
 10
50.436199999999999
 20
146.55500000000001
 30
0.0
 11
20.0137
 21
146.55500000000001
 31
0.0
  0
LINE
  5
6B
  8
0
 62
     7
 10
143.97499999999991
 20
138.17500000000001
 30
0.0
 11
143.97499999999991
 21
162.2939999999999
 31
0.0
  0
LINE
  5
6C
  8
0
 62
     7
 10
26.474699999999999
 20
138.80099999999999
 30
0.0
 11
26.474699999999999
 21
162.2939999999999
 31
0.0
  0
LINE
  5
6D
  8
0
 62
     7
 10
40.224200000000003
 20
138.80099999999999
 30
0.0
 11
40.224200000000003
 21
147.84700000000001
 31
0.0
  0
LINE
  5
6E
  8
0
 62
     7
 10
30.225000000000001
 20
138.80099999999999
 30
0.0
 11
30.225000000000001
 21
147.84700000000001
 31
0.0
  0
LINE
  5
6F
  8
0
 62
     7
 10
43.974200000000003
 20
138.80099999999999
 30
0.0
 11
43.974200000000003
 21
154.22999999999999
 31
0.0
  0
LINE
  5
70
  8
0
 62
     7
 10
30.225000000000001
 20
138.3539999999999
 30
0.0
 11
30.225000000000001
 21
131.3189999999999
 31
0.0
  0
LINE
  5
71
  8
0
 62
     7
 10
40.224200000000003
 20
138.3539999999999
 30
0.0
 11
40.224200000000003
 21
131.3189999999999
 31
0.0
  0
LINE
  5
72
  8
0
 62
     7
 10
88.495599999999996
 20
130.1689999999999
 30
0.0
 11
87.903400000000005
 21
132.38
 31
0.0
  0
LINE
  5
73
  8
0
 62
     7
 10
87.903400000000005
 20
132.38
 30
0.0
 11
87.311000000000007
 21
130.1689999999999
 31
0.0
  0
LINE
  5
74
  8
0
 62
     7
 10
87.311000000000007
 20
130.1689999999999
 30
0.0
 11
88.495599999999996
 21
130.1689999999999
 31
0.0
  0
LINE
  5
75
  8
0
 62
     7
 10
87.325599999999994
 20
139.84899999999999
 30
0.0
 11
87.917800000000014
 21
137.63800000000001
 31
0.0
  0
LINE
  5
76
  8
0
 62
     7
 10
87.917800000000014
 20
137.63800000000001
 30
0.0
 11
88.510199999999998
 21
139.84899999999999
 31
0.0
  0
LINE
  5
77
  8
0
 62
     7
 10
88.510199999999998
 20
139.84899999999999
 30
0.0
 11
87.325599999999994
 21
139.84899999999999
 31
0.0
  0
LINE
  5
78
  8
0
 62
     7
 10
87.910599999999988
 20
146.417
 30
0.0
 11
87.910599999999988
 21
128.047
 31
0.0
  0
LINE
  5
79
  8
0
  6
AIGENLINE001
 62
     7
 10
153.00599999999989
 20
130.64400000000001
 30
0.0
 11
153.00599999999989
 21
138.43700000000001
 31
0.0
  0
LINE
  5
7A
  8
0
 62
     7
 10
173.61799999999999
 20
139.55699999999999
 30
0.0
 11
174.2109999999999
 21
137.34700000000001
 31
0.0
  0
LINE
  5
7B
  8
0
 62
     7
 10
174.2109999999999
 20
137.34700000000001
 30
0.0
 11
174.80299999999991
 21
139.55699999999999
 31
0.0
  0
LINE
  5
7C
  8
0
 62
     7
 10
174.80299999999991
 20
139.55699999999999
 30
0.0
 11
173.61799999999999
 21
139.55699999999999
 31
0.0
  0
LINE
  5
7D
  8
0
 62
     7
 10
174.7879999999999
 20
132.6989999999999
 30
0.0
 11
174.19599999999991
 21
134.90999999999991
 31
0.0
  0
LINE
  5
7E
  8
0
 62
     7
 10
174.19599999999991
 20
134.90999999999991
 30
0.0
 11
173.60400000000001
 21
132.6989999999999
 31
0.0
  0
LINE
  5
7F
  8
0
 62
     7
 10
173.60400000000001
 20
132.6989999999999
 30
0.0
 11
174.7879999999999
 21
132.6989999999999
 31
0.0
  0
LINE
  5
80
  8
0
 62
     7
 10
174.20299999999989
 20
130.26300000000001
 30
0.0
 11
174.20299999999989
 21
142.03399999999991
 31
0.0
  0
LINE
  5
81
  8
0
 62
     7
 10
172.49499999999989
 20
135.0
 30
0.0
 11
175.4959999999999
 21
135.0
 31
0.0
  0
LINE
  5
82
  8
0
 62
     7
 10
163.6109999999999
 20
122.0
 30
0.0
 11
179.19099999999989
 21
122.0
 31
0.0
  0
LINE
  5
83
  8
0
 62
     7
 10
163.40600000000001
 20
137.25
 30
0.0
 11
179.25899999999999
 21
137.25
 31
0.0
  0
LINE
  5
84
  8
0
 62
     7
 10
160.35099999999991
 20
143.7889999999999
 30
0.0
 11
162.56200000000001
 21
144.381
 31
0.0
  0
LINE
  5
85
  8
0
 62
     7
 10
162.56200000000001
 20
144.381
 30
0.0
 11
160.35099999999991
 21
144.9729999999999
 31
0.0
  0
LINE
  5
86
  8
0
 62
     7
 10
160.35099999999991
 20
144.9729999999999
 30
0.0
 11
160.35099999999991
 21
143.7889999999999
 31
0.0
  0
LINE
  5
87
  8
0
 62
     7
 10
152.667
 20
144.958
 30
0.0
 11
150.45599999999999
 21
144.36600000000001
 31
0.0
  0
LINE
  5
88
  8
0
 62
     7
 10
150.45599999999999
 20
144.36600000000001
 30
0.0
 11
152.667
 21
143.77399999999989
 31
0.0
  0
LINE
  5
89
  8
0
 62
     7
 10
152.667
 20
143.77399999999989
 30
0.0
 11
152.667
 21
144.958
 31
0.0
  0
LINE
  5
8A
  8
0
 62
     7
 10
162.56200000000001
 20
144.37299999999991
 30
0.0
 11
150.63699999999989
 21
144.37299999999991
 31
0.0
  0
LINE
  5
8B
  8
0
 62
     7
 10
162.6699999999999
 20
138.0749999999999
 30
0.0
 11
162.6699999999999
 21
145.11799999999991
 31
0.0
  0
LINE
  5
8C
  8
0
 62
     7
 10
150.42099999999999
 20
136.78999999999991
 30
0.0
 11
150.42099999999999
 21
145.11799999999991
 31
0.0
  0
LINE
  5
8D
  8
0
 62
     7
 10
162.77499999999989
 20
135.64599999999999
 30
0.0
 11
163.7579999999999
 21
134.3539999999999
 31
0.0
  0
LINE
  5
8E
  8
0
 62
     7
 10
163.55099999999999
 20
135.64599999999999
 30
0.0
 11
164.53399999999999
 21
134.3539999999999
 31
0.0
  0
LINE
  5
8F
  8
0
 62
     7
 10
164.32599999999991
 20
135.64599999999999
 30
0.0
 11
165.309
 21
134.3539999999999
 31
0.0
  0
LINE
  5
90
  8
0
 62
     7
 10
165.102
 20
135.64599999999999
 30
0.0
 11
166.08500000000001
 21
134.3539999999999
 31
0.0
  0
LINE
  5
91
  8
0
 62
     7
 10
165.87700000000001
 20
135.64599999999999
 30
0.0
 11
166.86000000000001
 21
134.3539999999999
 31
0.0
  0
LINE
  5
92
  8
0
 62
     7
 10
166.65199999999999
 20
135.64599999999999
 30
0.0
 11
167.63499999999999
 21
134.3539999999999
 31
0.0
  0
LINE
  5
93
  8
0
 62
     7
 10
167.42799999999991
 20
135.64599999999999
 30
0.0
 11
168.41099999999989
 21
134.3539999999999
 31
0.0
  0
LINE
  5
94
  8
0
 62
     7
 10
168.203
 20
135.64599999999999
 30
0.0
 11
169.18599999999989
 21
134.3539999999999
 31
0.0
  0
LINE
  5
95
  8
0
 62
     7
 10
168.97900000000001
 20
135.64599999999999
 30
0.0
 11
169.9609999999999
 21
134.3539999999999
 31
0.0
  0
LINE
  5
96
  8
0
 62
     7
 10
169.75399999999999
 20
135.64599999999999
 30
0.0
 11
170.73699999999999
 21
134.3539999999999
 31
0.0
  0
LINE
  5
97
  8
0
 62
     7
 10
43.974200000000003
 20
132.59700000000001
 30
0.0
 11
26.474699999999999
 21
132.59700000000001
 31
0.0
  0
LINE
  5
98
  8
0
 62
     7
 10
154.09100000000001
 20
137.25
 30
0.0
 11
162.6699999999999
 21
137.25
 31
0.0
  0
LINE
  5
99
  8
0
 62
     7
 10
43.974200000000003
 20
132.339
 30
0.0
 11
43.974200000000003
 21
122.0
 31
0.0
  0
LINE
  5
9A
  8
0
 62
     7
 10
43.974200000000003
 20
122.0
 30
0.0
 11
26.474699999999999
 21
122.0
 31
0.0
  0
LINE
  5
9B
  8
0
 62
     7
 10
26.474699999999999
 20
122.0
 30
0.0
 11
26.474699999999999
 21
137.25
 31
0.0
  0
LINE
  5
9C
  8
0
 62
     7
 10
26.474699999999999
 20
137.25
 30
0.0
 11
43.974200000000003
 21
137.25
 31
0.0
  0
LINE
  5
9D
  8
0
 62
     7
 10
43.974200000000003
 20
132.49999999999989
 30
0.0
 11
143.97499999999991
 21
132.49999999999989
 31
0.0
  0
LINE
  5
9E
  8
0
 62
     7
 10
143.97499999999991
 20
132.49999999999989
 30
0.0
 11
143.97499999999991
 21
137.49899999999991
 31
0.0
  0
LINE
  5
9F
  8
0
 62
     7
 10
143.97499999999991
 20
137.49899999999991
 30
0.0
 11
43.974200000000003
 21
137.49899999999991
 31
0.0
  0
LINE
  5
A0
  8
0
 62
     7
 10
43.974200000000003
 20
137.49899999999991
 30
0.0
 11
43.974200000000003
 21
132.49999999999989
 31
0.0
  0
LINE
  5
A1
  8
0
 62
     7
 10
162.6699999999999
 20
137.25
 30
0.0
 11
162.6699999999999
 21
122.0
 31
0.0
  0
LINE
  5
A2
  8
0
 62
     7
 10
162.6699999999999
 20
122.0
 30
0.0
 11
161.636
 21
122.0
 31
0.0
  0
ARC
  5
A3
  8
0
 62
     7
 10
143.98183499999999
 20
117.9900469999999
 30
0.0
 40
18.104306000000001
 50
12.796798000000001
 51
21.941207999999989
  0
ARC
  5
A4
  8
0
 62
     7
 10
149.3606979999999
 20
119.9988019999999
 30
0.0
 40
12.36533399999999
 50
22.620428
 51
52.314568000000001
  0
ARC
  5
A5
  8
0
 62
     7
 10
145.3923189999999
 20
115.21844399999991
 30
0.0
 40
18.575662000000001
 50
51.641721999999987
 51
58.088180000000001
  0
ARC
  5
A6
  8
0
 62
     7
 10
127.7005919999999
 20
87.230790999999996
 30
0.0
 40
51.685903000000003
 50
57.840753999999997
 51
59.338413000000003
  0
ARC
  5
A7
  8
0
 62
     7
 10
145.45705000000001
 20
117.265112
 30
0.0
 40
16.795407000000001
 50
59.193484999999988
 51
67.952781000000002
  0
LINE
  5
A8
  8
_________2
 62
     7
 10
205.30099999999999
 20
127.41200000000001
 30
0.0
 11
183.55099999999999
 21
127.41200000000001
 31
0.0
  0
LINE
  5
A9
  8
_________2
 62
     7
 10
100.2999999999999
 20
-4.0909000000000004
 30
0.0
 11
100.2999999999999
 21
-21.070900000000002
 31
0.0
  0
LINE
  5
AA
  8
_________2
 62
     7
 10
100.2999999999999
 20
275.93099999999993
 30
0.0
 11
100.2999999999999
 21
258.911
 31
0.0
  0
LINE
  5
AB
  8
_________2
 62
     7
 10
17.049600000000002
 20
127.41200000000001
 30
0.0
 11
-4.70052
 21
127.41200000000001
 31
0.0
  0
LINE
  5
AC
  8
_________2
 62
     7
 10
76.741200000000006
 20
28.740500000000001
 30
0.0
 11
74.554699999999997
 21
28.740500000000001
 31
0.0
  0
LINE
  5
AD
  8
_________2
 62
     7
 10
77.233800000000002
 20
28.740500000000001
 30
0.0
 11
76.981700000000004
 21
28.740500000000001
 31
0.0
  0
LINE
  5
AE
  8
_________2
 62
     7
 10
77.726299999999995
 20
28.740500000000001
 30
0.0
 11
80.651399999999995
 21
28.740500000000001
 31
0.0
  0
LINE
  5
AF
  8
_________2
 62
     7
 10
77.233800000000002
 20
28.740500000000001
 30
0.0
 11
77.485699999999994
 21
28.740500000000001
 31
0.0
  0
LINE
  5
B0
  8
_________2
 62
     7
 10
70.837299999999999
 20
28.740500000000001
 30
0.0
 11
68.650499999999994
 21
28.740500000000001
 31
0.0
  0
LINE
  5
B1
  8
_________2
 62
     7
 10
71.329800000000006
 20
28.740500000000001
 30
0.0
 11
71.077799999999996
 21
28.740500000000001
 31
0.0
  0
LINE
  5
B2
  8
_________2
 62
     7
 10
71.329800000000006
 20
29.233000000000001
 30
0.0
 11
71.329800000000006
 21
31.419599999999999
 31
0.0
  0
LINE
  5
B3
  8
_________2
 62
     7
 10
71.329800000000006
 20
28.740500000000001
 30
0.0
 11
71.329800000000006
 21
28.992699999999989
 31
0.0
  0
LINE
  5
B4
  8
_________2
 62
     7
 10
71.822400000000002
 20
28.740500000000001
 30
0.0
 11
74.009
 21
28.740500000000001
 31
0.0
  0
LINE
  5
B5
  8
_________2
 62
     7
 10
71.329800000000006
 20
28.740500000000001
 30
0.0
 11
71.581999999999994
 21
28.740500000000001
 31
0.0
  0
LINE
  5
B6
  8
_________2
 62
     7
 10
71.329800000000006
 20
28.248100000000001
 30
0.0
 11
71.329800000000006
 21
26.061499999999992
 31
0.0
  0
LINE
  5
B7
  8
_________2
 62
     7
 10
71.329800000000006
 20
28.740500000000001
 30
0.0
 11
71.329800000000006
 21
28.488700000000001
 31
0.0
  0
LINE
  5
B8
  8
_________2
 62
     7
 10
75.040899999999993
 20
27.521000000000001
 30
0.0
 11
80.218500000000006
 21
26.6557
 31
0.0
  0
LINE
  5
B9
  8
_________2
 62
     7
 10
75.040899999999993
 20
29.960100000000001
 30
0.0
 11
80.218500000000006
 21
30.825399999999991
 31
0.0
  0
LINE
  5
BA
  8
_________2
 62
     7
 10
80.218500000000006
 20
26.6557
 30
0.0
 11
80.218500000000006
 21
30.825399999999991
 31
0.0
  0
LINE
  5
BB
  8
_________2
 62
     7
 10
75.040899999999993
 20
27.521000000000001
 30
0.0
 11
75.040899999999993
 21
29.960100000000001
 31
0.0
  0
ARC
  5
BC
  8
_________2
 62
     7
 10
71.329860999999994
 20
28.740459999999992
 30
0.0
 40
1.219657999999999
 50
0.004056
 51
90.004025999999996
  0
ARC
  5
BD
  8
_________2
 62
     7
 10
71.329689000000002
 20
28.740459999999992
 30
0.0
 40
1.219657999999999
 50
89.995953999999998
 51
179.99592399999989
  0
ARC
  5
BE
  8
_________2
 62
     7
 10
71.329689000000002
 20
28.740632000000002
 30
0.0
 40
1.2196569999999991
 50
180.00405599999999
 51
270.00406600000002
  0
ARC
  5
BF
  8
_________2
 62
     7
 10
71.329860999999994
 20
28.740632999999999
 30
0.0
 40
1.219657999999999
 50
269.99597399999999
 51
359.99594400000001
  0
ARC
  5
C0
  8
_________2
 62
     7
 10
71.329688000000004
 20
28.740632000000002
 30
0.0
 40
2.0847269999999991
 50
359.9976430000001
 51
89.997613000000015
  0
ARC
  5
C1
  8
_________2
 62
     7
 10
71.329774999999984
 20
28.740545999999998
 30
0.0
 40
2.084813
 50
90.0
 51
179.99996999999991
  0
ARC
  5
C2
  8
_________2
 62
     7
 10
71.329774999999984
 20
28.740545999999998
 30
0.0
 40
2.084811999999999
 50
179.99996999999991
 51
270.00002000000001
  0
ARC
  5
C3
  8
_________2
 62
     7
 10
71.329688000000004
 20
28.740461
 30
0.0
 40
2.0847269999999991
 50
270.00238699999989
 51
0.002357
  0
TEXT
  5
C4
  8
_________2
 62
     7
 10
32.7119
 20
18.486999999999998
 30
0.0
 40
2.5300899999999991
  1
福田
 41
0.5
  0
TEXT
  5
C5
  8
_________2
 62
     7
 10
22.456299999999992
 20
18.486999999999998
 30
0.0
 40
2.5300899999999991
  1
石原
 41
0.5
  0
TEXT
  5
C6
  8
_________2
 62
     7
 10
104.605
 20
11.6669
 30
0.0
 40
2.248969999999999
  1
図番
 41
0.5
  0
TEXT
  5
C7
  8
_________2
 62
     7
 10
104.605
 20
30.805199999999989
 30
0.0
 40
2.248969999999999
  1
名称
 41
0.5
  0
TEXT
  5
C8
  8
_________2
 62
     7
 10
90.890100000000004
 20
25.319700000000001
 30
0.0
 40
3.3734599999999988
  1
m m
 41
0.5
  0
TEXT
  5
C9
  8
_________2
 62
     7
 10
85.643199999999993
 20
30.805199999999989
 30
0.0
 40
2.248969999999999
  1
単位
 41
0.5
  0
TEXT
  5
CA
  8
_________2
 62
     7
 10
85.643199999999993
 20
20.398199999999999
 30
0.0
 40
2.248969999999999
  1
尺度
 41
0.5
  0
TEXT
  5
CB
  8
_________2
 62
     7
 10
88.186599999999984
 20
14.077999999999991
 30
0.0
 40
3.6545800000000002
  1
1 ： 4
 41
0.5
  0
TEXT
  5
CC
  8
_________2
 62
     7
 10
138.30240000000001
 20
1.64625
 30
0.0
 40
3.9357000000000002
  1
CEA331
 41
0.5
 72
     1
 11
143.55000000000001
 21
1.64625
 31
0.0
  0
TEXT
  5
CD
  8
_________2
 62
     7
 10
24.587099999999989
 20
0.7074550000000001
 30
0.0
 40
3.9357000000000002
  1
470サイズ
 41
0.5
  0
TEXT
  5
CE
  8
_________2
 62
     7
 10
109.179
 20
24.226099999999999
 30
0.0
 40
3.9357000000000002
  1
アクセリオ/アドロイト　タオルバー中
 41
0.5
  0
TEXT
  5
CF
  8
_________2
 62
     7
 10
67.785600000000002
 20
14.077999999999991
 30
0.0
 40
3.6545800000000002
  1
02.01.25
 41
0.5
  0
TEXT
  5
D0
  8
_________2
 62
     7
 10
66.593100000000007
 20
20.398199999999999
 30
0.0
 40
2.248969999999999
  1
日付
 41
0.5
  0
TEXT
  5
D1
  8
_________2
 62
     7
 10
29.639399999999998
 20
20.398199999999999
 30
0.0
 40
2.248969999999999
  1
検図
 41
0.5
  0
TEXT
  5
D2
  8
_________2
 62
     7
 10
18.021399999999989
 20
6.1988000000000003
 30
0.0
 40
2.248969999999999
  1
備考
 41
0.5
  0
TEXT
  5
D3
  8
_________2
 62
     7
 10
18.021399999999989
 20
20.398199999999999
 30
0.0
 40
2.248969999999999
  1
製図
 41
0.5
  0
TEXT
  5
D4
  8
_________2
 62
     7
 10
23.788665333333341
 20
26.7179
 30
0.0
 40
4.4979399999999989
  1
セラトレーディング株式会社
 41
0.5
 72
     1
 11
41.180700000000002
 21
26.7179
 31
0.0
  0
LINE
  5
D5
  8
_________2
 62
     7
 10
183.55099999999999
 20
-4.0909000000000004
 30
0.0
 11
17.049600000000002
 21
-4.0909000000000004
 31
0.0
  0
LINE
  5
D6
  8
_________2
 62
     7
 10
17.049600000000002
 20
-4.0909000000000004
 30
0.0
 11
17.049600000000002
 21
258.911
 31
0.0
  0
LINE
  5
D7
  8
_________2
 62
     7
 10
17.049600000000002
 20
258.911
 30
0.0
 11
183.55099999999999
 21
258.911
 31
0.0
  0
LINE
  5
D8
  8
_________2
 62
     7
 10
183.55099999999999
 20
258.911
 30
0.0
 11
183.55099999999999
 21
-4.0909000000000004
 31
0.0
  0
LINE
  5
D9
  8
_________2
 62
     7
 10
65.549700000000001
 20
9.4091300000000011
 30
0.0
 11
65.549700000000001
 21
33.909300000000002
 31
0.0
  0
LINE
  5
DA
  8
_________2
 62
     7
 10
84.549899999999994
 20
9.4091300000000011
 30
0.0
 11
84.549899999999994
 21
33.909300000000002
 31
0.0
  0
LINE
  5
DB
  8
_________2
 62
     7
 10
103.55
 20
-4.0909000000000004
 30
0.0
 11
103.55
 21
33.909300000000002
 31
0.0
  0
LINE
  5
DC
  8
_________2
 62
     7
 10
28.549700000000001
 20
9.4091300000000011
 30
0.0
 11
28.549700000000001
 21
23.409199999999998
 31
0.0
  0
LINE
  5
DD
  8
_________2
 62
     7
 10
17.049600000000002
 20
9.4091300000000011
 30
0.0
 11
103.55
 21
9.4091300000000011
 31
0.0
  0
LINE
  5
DE
  8
_________2
 62
     7
 10
17.049600000000002
 20
23.409199999999998
 30
0.0
 11
103.55
 21
23.409199999999998
 31
0.0
  0
LINE
  5
DF
  8
_________2
 62
     7
 10
103.55
 20
14.9091
 30
0.0
 11
183.55099999999999
 21
14.9091
 31
0.0
  0
LINE
  5
E0
  8
_________2
 62
     7
 10
17.049600000000002
 20
33.909300000000002
 30
0.0
 11
183.55099999999999
 21
33.909300000000002
 31
0.0
  0
ENDSEC
  0
EOF
