  0
SECTION
  2
HEADER
  9
$ACADVER
  1
AC1009
  9
$INSBASE
 10
0.0
 20
0.0
 30
0.0
  9
$EXTMIN
 10
-4.70052
 20
-21.071400000000001
 30
0.0
  9
$EXTMAX
 10
205.30099999999999
 20
275.93099999999993
 30
0.0
  9
$LIMMIN
 10
0.0
 20
0.0
  9
$LIMMAX
 10
12.0
 20
9.0
  9
$ORTHOMODE
 70
     0
  9
$REGENMODE
 70
     1
  9
$FILLMODE
 70
     1
  9
$QTEXTMODE
 70
     0
  9
$MIRRTEXT
 70
     1
  9
$DRAGMODE
 70
     2
  9
$LTSCALE
 40
1.0
  9
$OSMODE
 70
    37
  9
$ATTMODE
 70
     1
  9
$TEXTSIZE
 40
0.0
  9
$TRACEWID
 40
0.05
  9
$TEXTSTYLE
  7
STANDARD
  9
$CLAYER
  8
0
  9
$CELTYPE
  6
CONTINUOUS
  9
$CECOLOR
 62
   256
  9
$DIMSCALE
 40
1.0
  9
$DIMASZ
 40
0.18
  9
$DIMEXO
 40
0.0625
  9
$DIMDLI
 40
0.38
  9
$DIMRND
 40
0.0
  9
$DIMDLE
 40
0.0
  9
$DIMEXE
 40
0.18
  9
$DIMTP
 40
0.0
  9
$DIMTM
 40
0.0
  9
$DIMTXT
 40
0.18
  9
$DIMCEN
 40
0.09
  9
$DIMTSZ
 40
0.0
  9
$DIMTOL
 70
     0
  9
$DIMLIM
 70
     0
  9
$DIMTIH
 70
     1
  9
$DIMTOH
 70
     1
  9
$DIMSE1
 70
     0
  9
$DIMSE2
 70
     0
  9
$DIMTAD
 70
     0
  9
$DIMZIN
 70
     0
  9
$DIMBLK
  1

  9
$DIMASO
 70
     1
  9
$DIMSHO
 70
     1
  9
$DIMPOST
  1

  9
$DIMAPOST
  1

  9
$DIMALT
 70
     0
  9
$DIMALTD
 70
     2
  9
$DIMALTF
 40
25.399999999999999
  9
$DIMLFAC
 40
1.0
  9
$DIMTOFL
 70
     0
  9
$DIMTVP
 40
0.0
  9
$DIMTIX
 70
     0
  9
$DIMSOXD
 70
     0
  9
$DIMSAH
 70
     0
  9
$DIMBLK1
  1

  9
$DIMBLK2
  1

  9
$DIMSTYLE
  2
STANDARD
  9
$DIMCLRD
 70
     0
  9
$DIMCLRE
 70
     0
  9
$DIMCLRT
 70
     0
  9
$DIMTFAC
 40
1.0
  9
$DIMGAP
 40
0.09
  9
$LUNITS
 70
     2
  9
$LUPREC
 70
     4
  9
$SKETCHINC
 40
0.1
  9
$FILLETRAD
 40
0.0
  9
$AUNITS
 70
     0
  9
$AUPREC
 70
     0
  9
$MENU
  1
.
  9
$ELEVATION
 40
0.0
  9
$PELEVATION
 40
0.0
  9
$THICKNESS
 40
0.0
  9
$LIMCHECK
 70
     0
  9
$BLIPMODE
 70
     0
  9
$CHAMFERA
 40
0.0
  9
$CHAMFERB
 40
0.0
  9
$SKPOLY
 70
     0
  9
$TDCREATE
 40
2444972.375
  9
$TDUPDATE
 40
2455559.2765977541
  9
$TDINDWG
 40
0.0000064583
  9
$TDUSRTIMER
 40
0.0000064583
  9
$USRTIMER
 70
     1
  9
$ANGBASE
 50
0.0
  9
$ANGDIR
 70
     0
  9
$PDMODE
 70
     0
  9
$PDSIZE
 40
0.0
  9
$PLINEWID
 40
0.0
  9
$COORDS
 70
     1
  9
$SPLFRAME
 70
     0
  9
$SPLINETYPE
 70
     6
  9
$SPLINESEGS
 70
     8
  9
$ATTDIA
 70
     0
  9
$ATTREQ
 70
     1
  9
$HANDLING
 70
     1
  9
$HANDSEED
  5
14A
  9
$SURFTAB1
 70
     6
  9
$SURFTAB2
 70
     6
  9
$SURFTYPE
 70
     6
  9
$SURFU
 70
     6
  9
$SURFV
 70
     6
  9
$UCSNAME
  2

  9
$UCSORG
 10
0.0
 20
0.0
 30
0.0
  9
$UCSXDIR
 10
1.0
 20
0.0
 30
0.0
  9
$UCSYDIR
 10
0.0
 20
1.0
 30
0.0
  9
$PUCSNAME
  2

  9
$PUCSORG
 10
0.0
 20
0.0
 30
0.0
  9
$PUCSXDIR
 10
1.0
 20
0.0
 30
0.0
  9
$PUCSYDIR
 10
0.0
 20
1.0
 30
0.0
  9
$USERI1
 70
     0
  9
$USERI2
 70
     0
  9
$USERI3
 70
     0
  9
$USERI4
 70
     0
  9
$USERI5
 70
     0
  9
$USERR1
 40
0.0
  9
$USERR2
 40
0.0
  9
$USERR3
 40
0.0
  9
$USERR4
 40
0.0
  9
$USERR5
 40
0.0
  9
$WORLDVIEW
 70
     1
  9
$SHADEDGE
 70
     3
  9
$SHADEDIF
 70
    70
  9
$TILEMODE
 70
     1
  9
$MAXACTVP
 70
    48
  9
$PLIMCHECK
 70
     0
  9
$PEXTMIN
 10
1.0000000000000000E+020
 20
1.0000000000000000E+020
 30
1.0000000000000000E+020
  9
$PEXTMAX
 10
-1.0000000000000000E+020
 20
-1.0000000000000000E+020
 30
-1.0000000000000000E+020
  9
$PLIMMIN
 10
0.0
 20
0.0
  9
$PLIMMAX
 10
12.0
 20
9.0
  9
$UNITMODE
 70
     0
  9
$VISRETAIN
 70
     1
  9
$PLINEGEN
 70
     0
  9
$PSLTSCALE
 70
     1
  0
ENDSEC
  0
SECTION
  2
TABLES
  0
TABLE
  2
VPORT
 70
     2
  0
VPORT
  2
*ACTIVE
 70
     0
 10
0.0
 20
0.0
 11
1.0
 21
1.0
 12
205.3106854945909
 22
127.4297999999999
 13
0.0
 23
0.0
 14
1.0
 24
1.0
 15
0.0
 25
0.0
 16
0.0
 26
0.0
 36
1.0
 17
0.0
 27
0.0
 37
0.0
 40
299.2467506297229
 41
2.2894736842105261
 42
50.0
 43
0.0
 44
0.0
 50
0.0
 51
0.0
 71
     0
 72
   100
 73
     1
 74
     1
 75
     0
 76
     0
 77
     0
 78
     0
  0
ENDTAB
  0
TABLE
  2
LTYPE
 70
     4
  0
LTYPE
  2
CONTINUOUS
 70
     0
  3
Solid line
 72
    65
 73
     0
 40
0.0
  0
LTYPE
  2
AIGENLINE001
 70
     0
  3
generate AI->DXF Converter
 72
    65
 73
     6
 40
7.4083750000000004
 49
3.5278
 49
-0.776115
 49
0.776115
 49
-0.776115
 49
0.776115
 49
-0.776115
  0
LTYPE
  2
AIGENLINE002
 70
     0
  3
generate AI->DXF Converter
 72
    65
 73
     4
 40
5.8561449999999988
 49
3.5278
 49
-0.776115
 49
0.776115
 49
-0.776115
  0
LTYPE
  2
AIGENLINE003
 70
     0
  3
generate AI->DXF Converter
 72
    65
 73
     2
 40
1.5522299999999991
 49
0.776115
 49
-0.776115
  0
ENDTAB
  0
TABLE
  2
LAYER
 70
     2
  0
LAYER
  2
0
 70
     0
 62
     7
  6
CONTINUOUS
  0
LAYER
  2
_________2
 70
     0
 62
     7
  6
CONTINUOUS
  0
ENDTAB
  0
TABLE
  2
STYLE
 70
     1
  0
STYLE
  2
STANDARD
 70
     0
 40
0.0
 41
0.0
 50
0.0
 71
     0
 42
0.0
  3
TXT
  4
EXTFONT.SHX
  0
ENDTAB
  0
TABLE
  2
VIEW
 70
     0
  0
ENDTAB
  0
TABLE
  2
UCS
 70
     0
  0
ENDTAB
  0
TABLE
  2
APPID
 70
     1
  0
APPID
  2
ACAD
 70
     0
  0
ENDTAB
  0
TABLE
  2
DIMSTYLE
 70
     1
  0
DIMSTYLE
  2
STANDARD
 70
     0
  3

  4

  5

  6

  7

 40
1.0
 41
0.18
 42
0.0625
 43
0.38
 44
0.18
 45
0.0
 46
0.0
 47
0.0
 48
0.0
140
0.18
141
0.09
142
0.0
143
25.399999999999999
144
1.0
145
0.0
146
1.0
147
0.09
 71
     0
 72
     0
 73
     1
 74
     1
 75
     0
 76
     0
 77
     0
 78
     0
170
     0
171
     2
172
     0
173
     0
174
     0
175
     0
176
     0
177
     0
178
     0
  0
ENDTAB
  0
ENDSEC
  0
SECTION
  2
BLOCKS
  0
BLOCK
  8
0
  2
$MODEL_SPACE
 70
     0
 10
0.0
 20
0.0
 30
0.0
  3
$MODEL_SPACE
  1

  0
ENDBLK
  5
1A
  8
0
  0
BLOCK
 67
     1
  8
0
  2
$PAPER_SPACE
 70
     0
 10
0.0
 20
0.0
 30
0.0
  3
$PAPER_SPACE
  1

  0
ENDBLK
  5
17
 67
     1
  8
0
  0
ENDSEC
  0
SECTION
  2
ENTITIES
  0
TEXT
  5
24
  8
0
 62
     7
 10
137.06
 20
74.812547999999992
 30
0.0
 40
3.0923400000000001
  1
壁仕上面
 50
90.0
 41
0.5
 72
     1
 11
137.06
 21
78.3172
 31
0.0
  0
TEXT
  5
25
  8
0
 62
     7
 10
120.53734799999989
 20
198.38
 30
0.0
 40
3.0923400000000001
  1
壁仕上面
 41
0.5
 72
     1
 11
124.042
 21
198.38
 31
0.0
  0
TEXT
  5
26
  8
0
 62
     7
 10
145.65143999999989
 20
172.65599999999989
 30
0.0
 40
3.0923400000000001
  1
12
 41
0.5
 72
     2
 11
147.71299999999999
 21
172.65599999999989
 31
0.0
  0
TEXT
  5
27
  8
0
 62
     7
 10
157.0204279999999
 20
93.355099999999993
 30
0.0
 40
3.0923400000000001
  1
なべ頭タッピングねじ
 41
0.5
 72
     2
 11
174.9559999999999
 21
93.355099999999993
 31
0.0
  0
TEXT
  5
28
  8
0
 62
     7
 10
162.32894499999989
 20
89.489699999999999
 30
0.0
 40
3.0923400000000001
  1
%%c4×30　2本
 41
0.5
 72
     2
 11
174.9559999999999
 21
89.489699999999999
 31
0.0
  0
TEXT
  5
29
  8
0
 62
     7
 10
133.583
 20
172.726
 30
0.0
 40
3.0923400000000001
  1
5
 41
0.5
  0
TEXT
  5
2A
  8
0
 62
     7
 10
71.292535000000001
 20
78.623800000000003
 30
0.0
 40
3.0923400000000001
  1
300
 41
0.5
 72
     1
 11
73.096400000000003
 21
78.623800000000003
 31
0.0
  0
TEXT
  5
2B
  8
0
 62
     7
 10
120.9229999999999
 20
126.777135
 30
0.0
 40
3.0923400000000001
  1
300
 50
90.0
 41
0.5
 72
     1
 11
120.9229999999999
 21
128.58099999999999
 31
0.0
  0
TEXT
  5
2C
  8
0
 62
     7
 10
157.03299999999999
 20
134.66752500000001
 30
0.0
 40
3.0923400000000001
  1
59
 50
90.0
 41
0.5
 72
     1
 11
157.03299999999999
 21
135.95599999999999
 31
0.0
  0
TEXT
  5
2D
  8
0
 62
     7
 10
157.03299999999999
 20
116.17522
 30
0.0
 40
3.0923400000000001
  1
91
 50
90.0
 41
0.5
 72
     1
 11
157.03299999999999
 21
117.206
 31
0.0
  0
LINE
  5
2E
  8
0
  6
AIGENLINE001
 62
     7
 10
142.643
 20
69.941000000000003
 30
0.0
 11
142.643
 21
184.44499999999991
 31
0.0
  0
LINE
  5
2F
  8
0
  6
AIGENLINE001
 62
     7
 10
26.9877
 20
206.80299999999991
 30
0.0
 11
132.35099999999991
 21
206.80299999999991
 31
0.0
  0
LINE
  5
30
  8
0
 62
     7
 10
142.14299999999989
 20
78.3172
 30
0.0
 11
138.369
 21
76.139200000000002
 31
0.0
  0
LINE
  5
31
  8
0
 62
     7
 10
138.369
 20
76.139200000000002
 30
0.0
 11
138.369
 21
80.496499999999983
 31
0.0
  0
LINE
  5
32
  8
0
 62
     7
 10
142.14299999999989
 20
78.3172
 30
0.0
 11
138.369
 21
80.496499999999983
 31
0.0
  0
LINE
  5
33
  8
0
 62
     7
 10
124.042
 20
206.80299999999991
 30
0.0
 11
126.2199999999999
 21
202.779
 31
0.0
  0
LINE
  5
34
  8
0
 62
     7
 10
126.2199999999999
 20
202.779
 30
0.0
 11
121.86199999999999
 21
202.779
 31
0.0
  0
LINE
  5
35
  8
0
 62
     7
 10
124.042
 20
206.80299999999991
 30
0.0
 11
121.86199999999999
 21
202.779
 31
0.0
  0
LINE
  5
36
  8
0
 62
     7
 10
110.59699999999999
 20
128.58099999999999
 30
0.0
 11
110.59699999999999
 21
91.580899999999986
 31
0.0
  0
LINE
  5
37
  8
0
 62
     7
 10
110.09699999999999
 20
91.080600000000004
 30
0.0
 11
73.096400000000003
 21
91.080600000000004
 31
0.0
  0
LINE
  5
38
  8
0
 62
     7
 10
110.09699999999999
 20
91.080600000000004
 30
0.0
 11
110.59699999999999
 21
91.580899999999986
 31
0.0
  0
LINE
  5
39
  8
0
 62
     7
 10
110.59699999999999
 20
128.58099999999999
 30
0.0
 11
110.59699999999999
 21
165.5809999999999
 31
0.0
  0
LINE
  5
3A
  8
0
 62
     7
 10
110.09699999999999
 20
166.0809999999999
 30
0.0
 11
73.096400000000003
 21
166.0809999999999
 31
0.0
  0
LINE
  5
3B
  8
0
 62
     7
 10
110.09699999999999
 20
166.0809999999999
 30
0.0
 11
110.59699999999999
 21
165.5809999999999
 31
0.0
  0
LINE
  5
3C
  8
0
 62
     7
 10
35.596200000000003
 20
128.58099999999999
 30
0.0
 11
35.596200000000003
 21
91.580500000000015
 31
0.0
  0
LINE
  5
3D
  8
0
 62
     7
 10
36.096200000000003
 20
91.080600000000004
 30
0.0
 11
73.096400000000003
 21
91.080600000000004
 31
0.0
  0
LINE
  5
3E
  8
0
 62
     7
 10
36.096200000000003
 20
91.080600000000004
 30
0.0
 11
35.596200000000003
 21
91.580500000000015
 31
0.0
  0
LINE
  5
3F
  8
0
 62
     7
 10
35.596200000000003
 20
128.58099999999999
 30
0.0
 11
35.596200000000003
 21
165.5809999999999
 31
0.0
  0
LINE
  5
40
  8
0
 62
     7
 10
36.096200000000003
 20
166.0809999999999
 30
0.0
 11
73.096400000000003
 21
166.0809999999999
 31
0.0
  0
LINE
  5
41
  8
0
 62
     7
 10
36.096200000000003
 20
166.0809999999999
 30
0.0
 11
35.596200000000003
 21
165.5809999999999
 31
0.0
  0
ARC
  5
42
  8
0
 62
     7
 10
142.719865
 20
105.82910800000001
 30
0.0
 40
1.320195
 50
179.93707900000001
 51
201.0420639999999
  0
ARC
  5
43
  8
0
 62
     7
 10
141.96851100000001
 20
105.59607199999989
 30
0.0
 40
0.5378180000000001
 50
206.62034
 51
275.32398000000001
  0
ARC
  5
44
  8
0
 62
     7
 10
142.719865
 20
105.832007
 30
0.0
 40
1.320195
 50
158.95793599999999
 51
180.0629209999999
  0
ARC
  5
45
  8
0
 62
     7
 10
141.96851100000001
 20
106.0650429999999
 30
0.0
 40
0.5378180000000001
 50
84.676019999999994
 51
153.37966
  0
ARC
  5
46
  8
0
 62
     7
 10
142.96997999999991
 20
143.32972599999991
 30
0.0
 40
1.320195
 50
179.93707900000001
 51
201.0420639999999
  0
ARC
  5
47
  8
0
 62
     7
 10
142.21862599999989
 20
143.09669
 30
0.0
 40
0.5378180000000001
 50
206.62034
 51
275.32398000000001
  0
ARC
  5
48
  8
0
 62
     7
 10
142.96997999999991
 20
143.33262500000001
 30
0.0
 40
1.320195
 50
158.95793599999999
 51
180.0629209999999
  0
ARC
  5
49
  8
0
 62
     7
 10
142.21862599999989
 20
143.56566100000001
 30
0.0
 40
0.5378180000000001
 50
84.676019999999994
 51
153.37966
  0
ARC
  5
4A
  8
0
 62
     7
 10
139.406453
 20
171.94576399999991
 30
0.0
 40
0.36349
 50
182.11231599999991
 51
267.91591699999992
  0
ARC
  5
4B
  8
0
 62
     7
 10
139.38009600000001
 20
171.945684
 30
0.0
 40
0.363406
 50
272.07185099999992
 51
357.89995499999992
  0
ARC
  5
4C
  8
0
 62
     7
 10
139.37985900000001
 20
171.91899199999989
 30
0.0
 40
0.363645
 50
2.1078130000000002
 51
87.892177000000004
  0
ARC
  5
4D
  8
0
 62
     7
 10
139.406609
 20
171.91899199999989
 30
0.0
 40
0.363645
 50
92.10778599999999
 51
177.89218500000001
  0
LINE
  5
4E
  8
0
 62
     7
 10
152.06200000000001
 20
88.651499999999984
 30
0.0
 11
175.083
 21
88.651499999999984
 31
0.0
  0
LINE
  5
4F
  8
0
 62
     7
 10
148.548
 20
103.36199999999999
 30
0.0
 11
147.37999999999991
 21
105.3309999999999
 31
0.0
  0
LINE
  5
50
  8
0
 62
     7
 10
147.37999999999991
 20
105.3309999999999
 30
0.0
 11
147.40700000000001
 21
103.042
 31
0.0
  0
LINE
  5
51
  8
0
 62
     7
 10
147.40700000000001
 20
103.042
 30
0.0
 11
148.548
 21
103.36199999999999
 31
0.0
  0
LINE
  5
52
  8
0
 62
     7
 10
152.06200000000001
 20
88.651499999999984
 30
0.0
 11
147.37999999999991
 21
105.3309999999999
 31
0.0
  0
LINE
  5
53
  8
0
  6
AIGENLINE002
 62
     7
 10
150.45599999999999
 20
105.831
 30
0.0
 11
140.58699999999999
 21
105.831
 31
0.0
  0
LINE
  5
54
  8
0
 62
     7
 10
122.7589999999999
 20
91.080600000000004
 30
0.0
 11
111.59699999999999
 21
91.080600000000004
 31
0.0
  0
LINE
  5
55
  8
0
 62
     7
 10
122.7589999999999
 20
166.0809999999999
 30
0.0
 11
111.59699999999999
 21
166.0809999999999
 31
0.0
  0
LINE
  5
56
  8
0
 62
     7
 10
121.17400000000001
 20
93.291399999999996
 30
0.0
 11
121.76600000000001
 21
91.080600000000004
 31
0.0
  0
LINE
  5
57
  8
0
 62
     7
 10
121.76600000000001
 20
91.080600000000004
 30
0.0
 11
122.3579999999999
 21
93.291399999999996
 31
0.0
  0
LINE
  5
58
  8
0
 62
     7
 10
122.3579999999999
 20
93.291399999999996
 30
0.0
 11
121.17400000000001
 21
93.291399999999996
 31
0.0
  0
LINE
  5
59
  8
0
 62
     7
 10
122.351
 20
163.8709999999999
 30
0.0
 11
121.7589999999999
 21
166.0809999999999
 31
0.0
  0
LINE
  5
5A
  8
0
 62
     7
 10
121.7589999999999
 20
166.0809999999999
 30
0.0
 11
121.1659999999999
 21
163.8709999999999
 31
0.0
  0
LINE
  5
5B
  8
0
 62
     7
 10
121.1659999999999
 20
163.8709999999999
 30
0.0
 11
122.351
 21
163.8709999999999
 31
0.0
  0
LINE
  5
5C
  8
0
 62
     7
 10
121.7589999999999
 20
91.080600000000004
 30
0.0
 11
121.7589999999999
 21
166.0809999999999
 31
0.0
  0
LINE
  5
5D
  8
0
 62
     7
 10
159.12700000000001
 20
105.831
 30
0.0
 11
151.45599999999999
 21
105.831
 31
0.0
  0
LINE
  5
5E
  8
0
 62
     7
 10
142.018
 20
106.6009999999999
 30
0.0
 11
142.018
 21
105.06100000000001
 31
0.0
  0
LINE
  5
5F
  8
0
 62
     7
 10
149.51799999999989
 20
105.831
 30
0.0
 11
148.69
 21
105.48699999999999
 31
0.0
  0
LINE
  5
60
  8
0
 62
     7
 10
148.69
 20
106.17399999999989
 30
0.0
 11
149.51799999999989
 21
105.831
 31
0.0
  0
LINE
  5
61
  8
0
 62
     7
 10
148.69
 20
105.48699999999999
 30
0.0
 11
142.018
 21
105.48699999999999
 31
0.0
  0
LINE
  5
62
  8
0
 62
     7
 10
148.69
 20
106.17399999999989
 30
0.0
 11
142.018
 21
106.17399999999989
 31
0.0
  0
LINE
  5
63
  8
0
 62
     7
 10
149.19499999999991
 20
105.526
 30
0.0
 11
148.93000000000001
 21
106.2119999999999
 31
0.0
  0
LINE
  5
64
  8
0
 62
     7
 10
148.3249999999999
 20
105.3309999999999
 30
0.0
 11
147.93899999999991
 21
106.3299999999999
 31
0.0
  0
LINE
  5
65
  8
0
 62
     7
 10
147.37999999999991
 20
105.3309999999999
 30
0.0
 11
146.994
 21
106.3299999999999
 31
0.0
  0
LINE
  5
66
  8
0
 62
     7
 10
146.435
 20
105.3309999999999
 30
0.0
 11
146.048
 21
106.3299999999999
 31
0.0
  0
LINE
  5
67
  8
0
 62
     7
 10
145.49000000000001
 20
105.3309999999999
 30
0.0
 11
145.10299999999989
 21
106.3299999999999
 31
0.0
  0
LINE
  5
68
  8
0
 62
     7
 10
144.5439999999999
 20
105.3309999999999
 30
0.0
 11
144.1579999999999
 21
106.3299999999999
 31
0.0
  0
LINE
  5
69
  8
0
 62
     7
 10
143.5989999999999
 20
105.3309999999999
 30
0.0
 11
143.21199999999999
 21
106.3299999999999
 31
0.0
  0
LINE
  5
6A
  8
0
 62
     7
 10
142.65399999999991
 20
105.3309999999999
 30
0.0
 11
142.26699999999991
 21
106.3299999999999
 31
0.0
  0
LINE
  5
6B
  8
0
  6
AIGENLINE002
 62
     7
 10
150.70599999999999
 20
143.33099999999999
 30
0.0
 11
140.83699999999999
 21
143.33099999999999
 31
0.0
  0
LINE
  5
6C
  8
0
 62
     7
 10
37.806899999999992
 20
78.380200000000002
 30
0.0
 11
35.596200000000003
 21
77.787999999999997
 31
0.0
  0
LINE
  5
6D
  8
0
 62
     7
 10
35.596200000000003
 20
77.787999999999997
 30
0.0
 11
37.806899999999992
 21
77.195800000000006
 31
0.0
  0
LINE
  5
6E
  8
0
 62
     7
 10
37.806899999999992
 20
77.195800000000006
 30
0.0
 11
37.806899999999992
 21
78.380200000000002
 31
0.0
  0
LINE
  5
6F
  8
0
 62
     7
 10
108.386
 20
77.203000000000003
 30
0.0
 11
110.59699999999999
 21
77.795199999999994
 31
0.0
  0
LINE
  5
70
  8
0
 62
     7
 10
110.59699999999999
 20
77.795199999999994
 30
0.0
 11
108.386
 21
78.3874
 31
0.0
  0
LINE
  5
71
  8
0
 62
     7
 10
108.386
 20
78.3874
 30
0.0
 11
108.386
 21
77.203000000000003
 31
0.0
  0
LINE
  5
72
  8
0
 62
     7
 10
35.596200000000003
 20
77.787999999999997
 30
0.0
 11
110.59699999999999
 21
77.787999999999997
 31
0.0
  0
LINE
  5
73
  8
0
 62
     7
 10
35.596200000000003
 20
76.787899999999993
 30
0.0
 11
35.596200000000003
 21
90.080500000000001
 31
0.0
  0
LINE
  5
74
  8
0
 62
     7
 10
110.59699999999999
 20
76.795100000000005
 30
0.0
 11
110.59699999999999
 21
90.080900000000014
 31
0.0
  0
LINE
  5
75
  8
0
 62
     7
 10
159.37700000000001
 20
143.33099999999999
 30
0.0
 11
151.70599999999999
 21
143.33099999999999
 31
0.0
  0
LINE
  5
76
  8
0
 62
     7
 10
142.26900000000001
 20
144.101
 30
0.0
 11
142.26900000000001
 21
142.56099999999989
 31
0.0
  0
LINE
  5
77
  8
0
 62
     7
 10
149.76900000000001
 20
143.33099999999999
 30
0.0
 11
148.94
 21
142.98799999999989
 31
0.0
  0
LINE
  5
78
  8
0
 62
     7
 10
148.94
 20
143.67400000000001
 30
0.0
 11
149.76900000000001
 21
143.33099999999999
 31
0.0
  0
LINE
  5
79
  8
0
 62
     7
 10
148.94
 20
142.98799999999989
 30
0.0
 11
142.26900000000001
 21
142.98799999999989
 31
0.0
  0
LINE
  5
7A
  8
0
 62
     7
 10
148.94
 20
143.67400000000001
 30
0.0
 11
142.26900000000001
 21
143.67400000000001
 31
0.0
  0
LINE
  5
7B
  8
0
 62
     7
 10
149.44499999999999
 20
143.02699999999999
 30
0.0
 11
149.18000000000001
 21
143.71199999999999
 31
0.0
  0
LINE
  5
7C
  8
0
 62
     7
 10
148.57599999999991
 20
142.83099999999999
 30
0.0
 11
148.18899999999991
 21
143.83099999999999
 31
0.0
  0
LINE
  5
7D
  8
0
 62
     7
 10
147.62999999999991
 20
142.83099999999999
 30
0.0
 11
147.24399999999989
 21
143.83099999999999
 31
0.0
  0
LINE
  5
7E
  8
0
 62
     7
 10
146.68499999999989
 20
142.83099999999999
 30
0.0
 11
146.29799999999989
 21
143.83099999999999
 31
0.0
  0
LINE
  5
7F
  8
0
 62
     7
 10
145.7399999999999
 20
142.83099999999999
 30
0.0
 11
145.35299999999989
 21
143.83099999999999
 31
0.0
  0
LINE
  5
80
  8
0
 62
     7
 10
144.7939999999999
 20
142.83099999999999
 30
0.0
 11
144.4079999999999
 21
143.83099999999999
 31
0.0
  0
LINE
  5
81
  8
0
 62
     7
 10
143.8489999999999
 20
142.83099999999999
 30
0.0
 11
143.46299999999999
 21
143.83099999999999
 31
0.0
  0
LINE
  5
82
  8
0
 62
     7
 10
142.904
 20
142.83099999999999
 30
0.0
 11
142.517
 21
143.83099999999999
 31
0.0
  0
LINE
  5
83
  8
0
 62
     7
 10
144.6039999999999
 20
172.517
 30
0.0
 11
142.393
 21
171.92500000000001
 31
0.0
  0
LINE
  5
84
  8
0
 62
     7
 10
142.393
 20
171.92500000000001
 30
0.0
 11
144.6039999999999
 21
171.333
 31
0.0
  0
LINE
  5
85
  8
0
 62
     7
 10
144.6039999999999
 20
171.333
 30
0.0
 11
144.6039999999999
 21
172.517
 31
0.0
  0
LINE
  5
86
  8
0
 62
     7
 10
135.93299999999991
 20
171.34700000000001
 30
0.0
 11
138.14299999999989
 21
171.94
 31
0.0
  0
LINE
  5
87
  8
0
 62
     7
 10
138.14299999999989
 20
171.94
 30
0.0
 11
135.93299999999991
 21
172.53200000000001
 31
0.0
  0
LINE
  5
88
  8
0
 62
     7
 10
135.93299999999991
 20
172.53200000000001
 30
0.0
 11
135.93299999999991
 21
171.34700000000001
 31
0.0
  0
LINE
  5
89
  8
0
 62
     7
 10
133.51599999999991
 20
171.93199999999999
 30
0.0
 11
147.71299999999999
 21
171.93199999999999
 31
0.0
  0
LINE
  5
8A
  8
0
  6
AIGENLINE002
 62
     7
 10
140.643
 20
97.575400000000002
 30
0.0
 11
140.643
 21
91.915700000000001
 31
0.0
  0
LINE
  5
8B
  8
0
  6
AIGENLINE002
 62
     7
 10
140.643
 20
157.078
 30
0.0
 11
140.643
 21
151.41800000000001
 31
0.0
  0
LINE
  5
8C
  8
0
 62
     7
 10
139.393
 20
172.642
 30
0.0
 11
139.393
 21
166.74700000000001
 31
0.0
  0
LINE
  5
8D
  8
0
 62
     7
 10
138.14299999999989
 20
172.642
 30
0.0
 11
138.14299999999989
 21
166.71199999999999
 31
0.0
  0
LINE
  5
8E
  8
0
 62
     7
 10
157.42799999999991
 20
130.79099999999991
 30
0.0
 11
158.02099999999999
 21
128.58099999999999
 31
0.0
  0
LINE
  5
8F
  8
0
 62
     7
 10
158.02099999999999
 20
128.58099999999999
 30
0.0
 11
158.61299999999989
 21
130.79099999999991
 31
0.0
  0
LINE
  5
90
  8
0
 62
     7
 10
158.61299999999989
 20
130.79099999999991
 30
0.0
 11
157.42799999999991
 21
130.79099999999991
 31
0.0
  0
LINE
  5
91
  8
0
 62
     7
 10
157.53399999999991
 20
108.041
 30
0.0
 11
158.126
 21
105.831
 31
0.0
  0
LINE
  5
92
  8
0
 62
     7
 10
158.126
 20
105.831
 30
0.0
 11
158.71899999999991
 21
108.041
 31
0.0
  0
LINE
  5
93
  8
0
 62
     7
 10
158.71899999999991
 20
108.041
 30
0.0
 11
157.53399999999991
 21
108.041
 31
0.0
  0
LINE
  5
94
  8
0
 62
     7
 10
158.61299999999989
 20
126.37
 30
0.0
 11
158.02099999999999
 21
128.58099999999999
 31
0.0
  0
LINE
  5
95
  8
0
 62
     7
 10
158.02099999999999
 20
128.58099999999999
 30
0.0
 11
157.42799999999991
 21
126.37
 31
0.0
  0
LINE
  5
96
  8
0
 62
     7
 10
157.42799999999991
 20
126.37
 30
0.0
 11
158.61299999999989
 21
126.37
 31
0.0
  0
LINE
  5
97
  8
0
 62
     7
 10
158.95400000000001
 20
141.12
 30
0.0
 11
158.36199999999991
 21
143.33099999999999
 31
0.0
  0
LINE
  5
98
  8
0
 62
     7
 10
158.36199999999991
 20
143.33099999999999
 30
0.0
 11
157.77000000000001
 21
141.12
 31
0.0
  0
LINE
  5
99
  8
0
 62
     7
 10
157.77000000000001
 20
141.12
 30
0.0
 11
158.95400000000001
 21
141.12
 31
0.0
  0
LINE
  5
9A
  8
0
 62
     7
 10
157.86899999999989
 20
105.831
 30
0.0
 11
158.36899999999989
 21
143.33099999999999
 31
0.0
  0
LINE
  5
9B
  8
0
 62
     7
 10
158.876
 20
128.58099999999999
 30
0.0
 11
145.59100000000001
 21
128.58099999999999
 31
0.0
  0
LINE
  5
9C
  8
0
 62
     7
 10
142.26900000000001
 20
153.95599999999999
 30
0.0
 11
142.26900000000001
 21
133.58099999999999
 31
0.0
  0
LINE
  5
9D
  8
0
 62
     7
 10
139.768
 20
154.33099999999999
 30
0.0
 11
139.768
 21
133.58099999999999
 31
0.0
  0
LINE
  5
9E
  8
0
  6
AIGENLINE003
 62
     7
 10
139.768
 20
133.58099999999999
 30
0.0
 11
139.768
 21
123.581
 31
0.0
  0
LINE
  5
9F
  8
0
 62
     7
 10
139.768
 20
123.581
 30
0.0
 11
139.768
 21
95.580600000000004
 31
0.0
  0
LINE
  5
A0
  8
0
  6
AIGENLINE003
 62
     7
 10
142.26900000000001
 20
133.58099999999999
 30
0.0
 11
142.26900000000001
 21
123.581
 31
0.0
  0
LINE
  5
A1
  8
0
 62
     7
 10
142.26900000000001
 20
123.581
 30
0.0
 11
142.26900000000001
 21
95.205500000000001
 31
0.0
  0
LINE
  5
A2
  8
0
 62
     7
 10
139.393
 20
123.581
 30
0.0
 11
142.64400000000001
 21
123.581
 31
0.0
  0
LINE
  5
A3
  8
0
 62
     7
 10
139.393
 20
133.58099999999999
 30
0.0
 11
142.643
 21
133.58099999999999
 31
0.0
  0
LINE
  5
A4
  8
0
 62
     7
 10
142.643
 20
154.08099999999999
 30
0.0
 11
142.643
 21
95.080799999999996
 31
0.0
  0
LINE
  5
A5
  8
0
 62
     7
 10
139.768
 20
154.33099999999999
 30
0.0
 11
142.39399999999989
 21
154.33099999999999
 31
0.0
  0
ARC
  5
A6
  8
0
 62
     7
 10
142.38379299999991
 20
154.07171099999999
 30
0.0
 40
0.259737
 50
2.0820560000000001
 51
87.83896
  0
LINE
  5
A7
  8
0
 62
     7
 10
139.643
 20
154.70599999999999
 30
0.0
 11
142.39399999999989
 21
154.70599999999999
 31
0.0
  0
ARC
  5
A8
  8
0
 62
     7
 10
139.6527979999999
 20
154.44652099999999
 30
0.0
 40
0.259743
 50
92.084684999999993
 51
177.875812
  0
LINE
  5
A9
  8
0
 62
     7
 10
142.39399999999989
 20
154.70599999999999
 30
0.0
 11
142.39399999999989
 21
154.33099999999999
 31
0.0
  0
LINE
  5
AA
  8
0
 62
     7
 10
140.01799999999989
 20
154.33099999999999
 30
0.0
 11
140.01799999999989
 21
153.95599999999999
 31
0.0
  0
LINE
  5
AB
  8
0
  6
AIGENLINE002
 62
     7
 10
75.189999999999998
 20
105.831
 30
0.0
 11
71.306200000000004
 21
105.831
 31
0.0
  0
ARC
  5
AC
  8
0
  6
AIGENLINE003
 62
     7
 10
73.09643100000001
 20
105.830557
 30
0.0
 40
0.6249440000000001
 50
0.00001
 51
89.999980000000008
  0
ARC
  5
AD
  8
0
  6
AIGENLINE003
 62
     7
 10
73.09643100000001
 20
105.830557
 30
0.0
 40
0.6249440000000001
 50
90.0
 51
179.99996999999991
  0
ARC
  5
AE
  8
0
  6
AIGENLINE003
 62
     7
 10
73.09643100000001
 20
105.830557
 30
0.0
 40
0.6249440000000001
 50
179.99996999999991
 51
270.00002000000001
  0
ARC
  5
AF
  8
0
  6
AIGENLINE003
 62
     7
 10
73.09643100000001
 20
105.830557
 30
0.0
 40
0.6249440000000001
 50
270.00002000000001
 51
359.99998999999991
  0
LINE
  5
B0
  8
0
  6
AIGENLINE002
 62
     7
 10
75.189999999999998
 20
143.33099999999999
 30
0.0
 11
71.306200000000004
 21
143.33099999999999
 31
0.0
  0
ARC
  5
B1
  8
0
  6
AIGENLINE003
 62
     7
 10
73.09643100000001
 20
143.33083099999999
 30
0.0
 40
0.6249440000000001
 50
0.00001
 51
89.999980000000008
  0
ARC
  5
B2
  8
0
  6
AIGENLINE003
 62
     7
 10
73.09643100000001
 20
143.33083099999999
 30
0.0
 40
0.6249440000000001
 50
90.0
 51
179.99996999999991
  0
ARC
  5
B3
  8
0
  6
AIGENLINE003
 62
     7
 10
73.09643100000001
 20
143.33083099999999
 30
0.0
 40
0.6249440000000001
 50
179.99996999999991
 51
270.00002000000001
  0
ARC
  5
B4
  8
0
  6
AIGENLINE003
 62
     7
 10
73.09643100000001
 20
143.33083099999999
 30
0.0
 40
0.6249440000000001
 50
270.00002000000001
 51
359.99998999999991
  0
LINE
  5
B5
  8
0
 62
     7
 10
139.643
 20
95.205799999999996
 30
0.0
 11
142.26900000000001
 21
95.205799999999996
 31
0.0
  0
ARC
  5
B6
  8
0
 62
     7
 10
139.64335
 20
95.455931000000007
 30
0.0
 40
0.250115
 50
179.99996999999991
 51
270.00002000000001
  0
LINE
  5
B7
  8
0
 62
     7
 10
139.643
 20
94.830600000000004
 30
0.0
 11
142.39399999999989
 21
94.830600000000004
 31
0.0
  0
ARC
  5
B8
  8
0
 62
     7
 10
142.3842149999999
 20
95.089771999999996
 30
0.0
 40
0.259299
 50
272.07125200000002
 51
358.00773199999998
  0
LINE
  5
B9
  8
0
 62
     7
 10
141.768
 20
95.580600000000004
 30
0.0
 11
141.768
 21
95.205500000000001
 31
0.0
  0
LINE
  5
BA
  8
0
 62
     7
 10
139.643
 20
95.205500000000001
 30
0.0
 11
139.643
 21
94.830600000000004
 31
0.0
  0
LINE
  5
BB
  8
0
 62
     7
 10
139.768
 20
95.580600000000004
 30
0.0
 11
141.768
 21
95.580600000000004
 31
0.0
  0
LINE
  5
BC
  8
0
 62
     7
 10
140.01799999999989
 20
153.95599999999999
 30
0.0
 11
142.26900000000001
 21
153.95599999999999
 31
0.0
  0
LINE
  5
BD
  8
0
  6
AIGENLINE002
 62
     7
 10
136.59100000000001
 20
128.58099999999999
 30
0.0
 11
144.59100000000001
 21
128.58099999999999
 31
0.0
  0
LINE
  5
BE
  8
0
 62
     7
 10
139.393
 20
91.580899999999986
 30
0.0
 11
138.14299999999989
 21
91.580899999999986
 31
0.0
  0
LINE
  5
BF
  8
0
 62
     7
 10
139.393
 20
91.080600000000004
 30
0.0
 11
138.14299999999989
 21
91.080600000000004
 31
0.0
  0
LINE
  5
C0
  8
0
 62
     7
 10
139.393
 20
165.5809999999999
 30
0.0
 11
138.14299999999989
 21
165.5809999999999
 31
0.0
  0
LINE
  5
C1
  8
0
 62
     7
 10
139.393
 20
166.0809999999999
 30
0.0
 11
138.14299999999989
 21
166.0809999999999
 31
0.0
  0
LINE
  5
C2
  8
0
 62
     7
 10
139.393
 20
166.0809999999999
 30
0.0
 11
139.393
 21
91.080600000000004
 31
0.0
  0
LINE
  5
C3
  8
0
 62
     7
 10
138.14299999999989
 20
166.0809999999999
 30
0.0
 11
138.14299999999989
 21
91.080600000000004
 31
0.0
  0
LINE
  5
C4
  8
0
  6
AIGENLINE002
 62
     7
 10
73.096400000000003
 20
199.74199999999999
 30
0.0
 11
73.096400000000003
 21
210.0679999999999
 31
0.0
  0
LINE
  5
C5
  8
0
 62
     7
 10
45.971299999999992
 20
206.80299999999991
 30
0.0
 11
45.5961
 21
206.80299999999991
 31
0.0
  0
LINE
  5
C6
  8
0
 62
     7
 10
45.971299999999992
 20
206.80299999999991
 30
0.0
 11
45.971299999999992
 21
204.178
 31
0.0
  0
LINE
  5
C7
  8
0
 62
     7
 10
51.846600000000002
 20
204.178
 30
0.0
 11
45.970999999999997
 21
204.178
 31
0.0
  0
LINE
  5
C8
  8
0
 62
     7
 10
51.846299999999999
 20
204.178
 30
0.0
 11
51.846299999999999
 21
203.803
 31
0.0
  0
LINE
  5
C9
  8
0
 62
     7
 10
45.5961
 20
206.80299999999991
 30
0.0
 11
45.5961
 21
203.803
 31
0.0
  0
LINE
  5
CA
  8
0
 62
     7
 10
100.22199999999999
 20
206.80299999999991
 30
0.0
 11
100.59699999999999
 21
206.80299999999991
 31
0.0
  0
LINE
  5
CB
  8
0
 62
     7
 10
100.22199999999999
 20
206.80299999999991
 30
0.0
 11
100.22199999999999
 21
204.178
 31
0.0
  0
LINE
  5
CC
  8
0
 62
     7
 10
94.346299999999999
 20
204.178
 30
0.0
 11
100.22199999999999
 21
204.178
 31
0.0
  0
LINE
  5
CD
  8
0
 62
     7
 10
94.346599999999995
 20
204.178
 30
0.0
 11
94.346599999999995
 21
203.803
 31
0.0
  0
LINE
  5
CE
  8
0
 62
     7
 10
100.59699999999999
 20
206.80299999999991
 30
0.0
 11
100.59699999999999
 21
203.803
 31
0.0
  0
LINE
  5
CF
  8
0
  6
AIGENLINE002
 62
     7
 10
63.096299999999999
 20
157.66599999999991
 30
0.0
 11
63.096299999999999
 21
151.09700000000001
 31
0.0
  0
LINE
  5
D0
  8
0
  6
AIGENLINE002
 62
     7
 10
83.096599999999995
 20
157.66599999999991
 30
0.0
 11
83.096599999999995
 21
151.09700000000001
 31
0.0
  0
LINE
  5
D1
  8
0
  6
AIGENLINE002
 62
     7
 10
63.096299999999999
 20
207.23400000000001
 30
0.0
 11
63.096299999999999
 21
202.66
 31
0.0
  0
ARC
  5
D2
  8
0
 62
     7
 10
63.077243000000003
 20
205.0336439999999
 30
0.0
 40
0.519454
 50
2.1012559999999998
 51
87.89873399999999
  0
ARC
  5
D3
  8
0
 62
     7
 10
63.115729000000002
 20
205.03343000000001
 30
0.0
 40
0.5196830000000001
 50
92.143753999999987
 51
177.875957
  0
ARC
  5
D4
  8
0
 62
     7
 10
63.115501999999999
 20
205.0717239999999
 30
0.0
 40
0.5194479999999999
 50
182.09993900000001
 51
267.88035099999991
  0
ARC
  5
D5
  8
0
 62
     7
 10
63.077573000000001
 20
205.07140699999999
 30
0.0
 40
0.5191130000000001
 50
272.066261
 51
357.93374899999998
  0
LINE
  5
D6
  8
0
  6
AIGENLINE002
 62
     7
 10
61.488500000000002
 20
205.053
 30
0.0
 11
64.658299999999997
 21
205.053
 31
0.0
  0
LINE
  5
D7
  8
0
  6
AIGENLINE002
 62
     7
 10
83.096599999999995
 20
207.23400000000001
 30
0.0
 11
83.096599999999995
 21
202.66
 31
0.0
  0
ARC
  5
D8
  8
0
 62
     7
 10
83.077359999999999
 20
205.03365700000001
 30
0.0
 40
0.5194479999999999
 50
2.099936
 51
87.880313999999984
  0
ARC
  5
D9
  8
0
 62
     7
 10
83.115999000000002
 20
205.033265
 30
0.0
 40
0.519848
 50
92.141558999999987
 51
177.85841199999999
  0
ARC
  5
DA
  8
0
 62
     7
 10
83.115618999999995
 20
205.07173700000001
 30
0.0
 40
0.519454
 50
182.101259
 51
267.89877100000001
  0
ARC
  5
DB
  8
0
 62
     7
 10
83.077736999999999
 20
205.071348
 30
0.0
 40
0.5190580000000001
 50
272.07970799999998
 51
357.94004200000001
  0
LINE
  5
DC
  8
0
 62
     7
 10
85.596500000000006
 20
206.80299999999991
 30
0.0
 11
85.596500000000006
 21
203.803
 31
0.0
  0
LINE
  5
DD
  8
0
 62
     7
 10
60.596299999999999
 20
206.80299999999991
 30
0.0
 11
60.596299999999999
 21
203.803
 31
0.0
  0
LINE
  5
DE
  8
0
 62
     7
 10
60.596299999999999
 20
206.80299999999991
 30
0.0
 11
85.596500000000006
 21
206.80299999999991
 31
0.0
  0
LINE
  5
DF
  8
0
 62
     7
 10
60.596299999999999
 20
206.55299999999991
 30
0.0
 11
85.596500000000006
 21
206.55299999999991
 31
0.0
  0
LINE
  5
E0
  8
0
  6
AIGENLINE002
 62
     7
 10
81.488600000000005
 20
205.053
 30
0.0
 11
84.6584
 21
205.053
 31
0.0
  0
LINE
  5
E1
  8
0
 62
     7
 10
110.09699999999999
 20
203.803
 30
0.0
 11
110.09699999999999
 21
202.55299999999991
 31
0.0
  0
LINE
  5
E2
  8
0
 62
     7
 10
110.59699999999999
 20
203.803
 30
0.0
 11
110.59699999999999
 21
202.55299999999991
 31
0.0
  0
LINE
  5
E3
  8
0
 62
     7
 10
36.095999999999989
 20
203.803
 30
0.0
 11
36.095999999999989
 21
202.55299999999991
 31
0.0
  0
LINE
  5
E4
  8
0
 62
     7
 10
35.596200000000003
 20
203.803
 30
0.0
 11
35.596200000000003
 21
202.55299999999991
 31
0.0
  0
LINE
  5
E5
  8
0
 62
     7
 10
35.596200000000003
 20
203.803
 30
0.0
 11
110.59699999999999
 21
203.803
 31
0.0
  0
LINE
  5
E6
  8
0
 62
     7
 10
35.596200000000003
 20
202.55299999999991
 30
0.0
 11
110.59699999999999
 21
202.55299999999991
 31
0.0
  0
LINE
  5
E7
  8
0
  6
AIGENLINE002
 62
     7
 10
73.096400000000003
 20
88.764499999999998
 30
0.0
 11
73.096400000000003
 21
168.5259999999999
 31
0.0
  0
LINE
  5
E8
  8
0
  6
AIGENLINE002
 62
     7
 10
113.5029999999999
 20
128.58099999999999
 30
0.0
 11
32.585299999999989
 21
128.58099999999999
 31
0.0
  0
LINE
  5
E9
  8
0
  6
AIGENLINE003
 62
     7
 10
100.22199999999999
 20
133.58099999999999
 30
0.0
 11
100.22199999999999
 21
123.581
 31
0.0
  0
LINE
  5
EA
  8
0
  6
AIGENLINE003
 62
     7
 10
94.346599999999995
 20
123.581
 30
0.0
 11
100.59699999999999
 21
123.581
 31
0.0
  0
LINE
  5
EB
  8
0
  6
AIGENLINE003
 62
     7
 10
94.346599999999995
 20
133.58099999999999
 30
0.0
 11
100.59699999999999
 21
133.58099999999999
 31
0.0
  0
LINE
  5
EC
  8
0
  6
AIGENLINE003
 62
     7
 10
94.346599999999995
 20
133.58099999999999
 30
0.0
 11
94.346599999999995
 21
123.581
 31
0.0
  0
LINE
  5
ED
  8
0
  6
AIGENLINE003
 62
     7
 10
100.59699999999999
 20
133.58099999999999
 30
0.0
 11
100.59699999999999
 21
123.581
 31
0.0
  0
LINE
  5
EE
  8
0
  6
AIGENLINE003
 62
     7
 10
45.971299999999992
 20
133.58099999999999
 30
0.0
 11
45.971299999999992
 21
123.581
 31
0.0
  0
LINE
  5
EF
  8
0
  6
AIGENLINE003
 62
     7
 10
51.846299999999999
 20
123.581
 30
0.0
 11
45.5961
 21
123.581
 31
0.0
  0
LINE
  5
F0
  8
0
  6
AIGENLINE003
 62
     7
 10
51.846299999999999
 20
133.58099999999999
 30
0.0
 11
45.5961
 21
133.58099999999999
 31
0.0
  0
LINE
  5
F1
  8
0
  6
AIGENLINE003
 62
     7
 10
51.846299999999999
 20
133.58099999999999
 30
0.0
 11
51.846299999999999
 21
123.581
 31
0.0
  0
LINE
  5
F2
  8
0
  6
AIGENLINE003
 62
     7
 10
45.5961
 20
133.58099999999999
 30
0.0
 11
45.5961
 21
123.581
 31
0.0
  0
LINE
  5
F3
  8
0
  6
AIGENLINE003
 62
     7
 10
60.596299999999999
 20
95.580600000000004
 30
0.0
 11
85.596500000000006
 21
95.580600000000004
 31
0.0
  0
LINE
  5
F4
  8
0
  6
AIGENLINE003
 62
     7
 10
60.596299999999999
 20
95.205799999999996
 30
0.0
 11
85.596500000000006
 21
95.205799999999996
 31
0.0
  0
LINE
  5
F5
  8
0
  6
AIGENLINE003
 62
     7
 10
60.596299999999999
 20
153.95599999999999
 30
0.0
 11
85.596500000000006
 21
153.95599999999999
 31
0.0
  0
LINE
  5
F6
  8
0
  6
AIGENLINE003
 62
     7
 10
60.596299999999999
 20
154.33099999999999
 30
0.0
 11
85.596500000000006
 21
154.33099999999999
 31
0.0
  0
LINE
  5
F7
  8
0
  6
AIGENLINE003
 62
     7
 10
60.596299999999999
 20
94.830600000000004
 30
0.0
 11
85.596500000000006
 21
94.830600000000004
 31
0.0
  0
LINE
  5
F8
  8
0
  6
AIGENLINE003
 62
     7
 10
60.596299999999999
 20
154.70599999999999
 30
0.0
 11
85.596500000000006
 21
154.70599999999999
 31
0.0
  0
LINE
  5
F9
  8
0
  6
AIGENLINE003
 62
     7
 10
85.596500000000006
 20
154.70599999999999
 30
0.0
 11
85.596500000000006
 21
94.830600000000004
 31
0.0
  0
LINE
  5
FA
  8
0
  6
AIGENLINE003
 62
     7
 10
60.596299999999999
 20
154.70599999999999
 30
0.0
 11
60.596299999999999
 21
94.830600000000004
 31
0.0
  0
LINE
  5
FB
  8
_________2
 62
     7
 10
205.30099999999999
 20
127.411
 30
0.0
 11
183.55000000000001
 21
127.411
 31
0.0
  0
LINE
  5
FC
  8
_________2
 62
     7
 10
100.2999999999999
 20
-4.0910799999999998
 30
0.0
 11
100.2999999999999
 21
-21.071400000000001
 31
0.0
  0
LINE
  5
FD
  8
_________2
 62
     7
 10
100.2999999999999
 20
275.93099999999993
 30
0.0
 11
100.2999999999999
 21
258.911
 31
0.0
  0
LINE
  5
FE
  8
_________2
 62
     7
 10
17.049499999999998
 20
127.411
 30
0.0
 11
-4.70052
 21
127.411
 31
0.0
  0
LINE
  5
FF
  8
_________2
 62
     7
 10
76.741
 20
29.8047
 30
0.0
 11
74.554699999999997
 21
29.8047
 31
0.0
  0
LINE
  5
100
  8
_________2
 62
     7
 10
77.233699999999999
 20
29.8047
 30
0.0
 11
76.981499999999997
 21
29.8047
 31
0.0
  0
LINE
  5
101
  8
_________2
 62
     7
 10
77.726299999999995
 20
29.8047
 30
0.0
 11
80.651200000000003
 21
29.8047
 31
0.0
  0
LINE
  5
102
  8
_________2
 62
     7
 10
77.233699999999999
 20
29.8047
 30
0.0
 11
77.485500000000002
 21
29.8047
 31
0.0
  0
LINE
  5
103
  8
_________2
 62
     7
 10
70.837100000000007
 20
29.8047
 30
0.0
 11
68.650499999999994
 21
29.8047
 31
0.0
  0
LINE
  5
104
  8
_________2
 62
     7
 10
71.329400000000007
 20
29.8047
 30
0.0
 11
71.077600000000004
 21
29.8047
 31
0.0
  0
LINE
  5
105
  8
_________2
 62
     7
 10
71.329400000000007
 20
30.2974
 30
0.0
 11
71.329400000000007
 21
32.484400000000001
 31
0.0
  0
LINE
  5
106
  8
_________2
 62
     7
 10
71.329400000000007
 20
29.8047
 30
0.0
 11
71.329400000000007
 21
30.056899999999992
 31
0.0
  0
LINE
  5
107
  8
_________2
 62
     7
 10
71.822100000000006
 20
29.8047
 30
0.0
 11
74.009
 21
29.8047
 31
0.0
  0
LINE
  5
108
  8
_________2
 62
     7
 10
71.329400000000007
 20
29.8047
 30
0.0
 11
71.581599999999995
 21
29.8047
 31
0.0
  0
LINE
  5
109
  8
_________2
 62
     7
 10
71.329400000000007
 20
29.312799999999999
 30
0.0
 11
71.329400000000007
 21
27.125800000000002
 31
0.0
  0
LINE
  5
10A
  8
_________2
 62
     7
 10
71.329400000000007
 20
29.8047
 30
0.0
 11
71.329400000000007
 21
29.5532
 31
0.0
  0
LINE
  5
10B
  8
_________2
 62
     7
 10
75.040499999999994
 20
28.5852
 30
0.0
 11
80.218500000000006
 21
27.720400000000001
 31
0.0
  0
LINE
  5
10C
  8
_________2
 62
     7
 10
75.040499999999994
 20
31.0243
 30
0.0
 11
80.218500000000006
 21
31.889700000000001
 31
0.0
  0
LINE
  5
10D
  8
_________2
 62
     7
 10
80.218500000000006
 20
27.720400000000001
 30
0.0
 11
80.218500000000006
 21
31.889700000000001
 31
0.0
  0
LINE
  5
10E
  8
_________2
 62
     7
 10
75.040499999999994
 20
28.5852
 30
0.0
 11
75.040499999999994
 21
31.0243
 31
0.0
  0
ARC
  5
10F
  8
_________2
 62
     7
 10
71.28285600000001
 20
29.757811
 30
0.0
 40
1.2673589999999999
 50
2.122214
 51
87.893958999999995
  0
ARC
  5
110
  8
_________2
 62
     7
 10
71.375959999999992
 20
29.758213000000001
 30
0.0
 40
1.2669559999999991
 50
92.104701000000006
 51
177.8952689999999
  0
ARC
  5
111
  8
_________2
 62
     7
 10
71.376357999999996
 20
29.851671
 30
0.0
 40
1.2673680000000001
 50
182.12203600000001
 51
267.877993
  0
ARC
  5
112
  8
_________2
 62
     7
 10
71.282531999999989
 20
29.851998999999989
 30
0.0
 40
1.267695999999999
 50
272.12015300000002
 51
357.863674
  0
ARC
  5
113
  8
_________2
 62
     7
 10
71.329430000000002
 20
29.804742999999998
 30
0.0
 40
2.0849849999999992
 50
0.00001
 51
89.999980000000008
  0
ARC
  5
114
  8
_________2
 62
     7
 10
71.329603000000006
 20
29.804915000000001
 30
0.0
 40
2.084813
 50
90.004733999999999
 51
180.00474399999999
  0
ARC
  5
115
  8
_________2
 62
     7
 10
71.409106000000008
 20
29.884775999999999
 30
0.0
 40
2.1657950000000001
 50
182.11776599999999
 51
267.89173399999999
  0
ARC
  5
116
  8
_________2
 62
     7
 10
71.249459000000002
 20
29.885429999999989
 30
0.0
 40
2.1664590000000001
 50
272.11546800000002
 51
357.86560400000002
  0
TEXT
  5
117
  8
_________2
 62
     7
 10
104.605
 20
1.6794899999999999
 30
0.0
 40
3.0923400000000001
  1
図番
 41
0.5
  0
LINE
  5
118
  8
_________2
 62
     7
 10
103.55
 20
5.9087199999999989
 30
0.0
 11
183.55099999999999
 21
5.9087199999999989
 31
0.0
  0
TEXT
  5
119
  8
_________2
 62
     7
 10
104.605
 20
11.679299999999991
 30
0.0
 40
3.0923400000000001
  1
品番
 41
0.5
  0
TEXT
  5
11A
  8
_________2
 62
     7
 10
104.605
 20
31.818100000000001
 30
0.0
 40
3.0923400000000001
  1
名称
 41
0.5
  0
TEXT
  5
11B
  8
_________2
 62
     7
 10
91.845058333333341
 20
26.821999999999989
 30
0.0
 40
3.6545800000000002
  1
mm
 41
0.5
 72
     1
 11
93.367800000000003
 21
26.821999999999989
 31
0.0
  0
TEXT
  5
11C
  8
_________2
 62
     7
 10
85.643199999999993
 20
31.818100000000001
 30
0.0
 40
3.0923400000000001
  1
単位
 41
0.5
  0
TEXT
  5
11D
  8
_________2
 62
     7
 10
85.643199999999993
 20
19.410799999999991
 30
0.0
 40
3.0923400000000001
  1
尺度
 41
0.5
  0
TEXT
  5
11E
  8
_________2
 62
     7
 10
90.548758666666686
 20
13.2179
 30
0.0
 40
3.6545800000000002
  1
1 ： 4
 41
0.5
 72
     1
 11
93.959699999999998
 21
13.2179
 31
0.0
  0
TEXT
  5
11F
  8
_________2
 62
     7
 10
136.82651250000001
 20
9.1078600000000005
 30
0.0
 40
3.9357000000000002
  1
CED1130R
 41
0.5
 72
     1
 11
143.55000000000001
 21
9.1078600000000005
 31
0.0
  0
TEXT
  5
120
  8
_________2
 62
     7
 10
136.82651250000001
 20
-0.8926299999999999
 30
0.0
 40
3.9357000000000002
  1
CED1130R
 41
0.5
 72
     1
 11
143.55000000000001
 21
-0.8926299999999999
 31
0.0
  0
TEXT
  5
121
  8
_________2
 62
     7
 10
109.179
 20
24.2257
 30
0.0
 40
3.9357000000000002
  1
化粧鏡
 41
0.5
  0
TEXT
  5
122
  8
_________2
 62
     7
 10
39.303480999999991
 20
13.603
 30
0.0
 40
3.6545800000000002
  1
田尻
 41
0.5
 72
     1
 11
41.313499999999998
 21
13.603
 31
0.0
  0
TEXT
  5
123
  8
_________2
 62
     7
 10
20.790090666666661
 20
13.603
 30
0.0
 40
3.6545800000000002
  1
石原
 41
0.5
 72
     1
 11
22.73919999999999
 21
13.603
 31
0.0
  0
TEXT
  5
124
  8
_________2
 62
     7
 10
67.785399999999996
 20
13.2179
 30
0.0
 40
3.6545800000000002
  1
10.05.13
 41
0.5
  0
TEXT
  5
125
  8
_________2
 62
     7
 10
66.593100000000007
 20
19.410799999999991
 30
0.0
 40
3.0923400000000001
  1
日付
 41
0.5
  0
TEXT
  5
126
  8
_________2
 62
     7
 10
29.639399999999998
 20
19.410799999999991
 30
0.0
 40
3.0923400000000001
  1
検図
 41
0.5
  0
TEXT
  5
127
  8
_________2
 62
     7
 10
18.021100000000001
 20
5.21143
 30
0.0
 40
3.0923400000000001
  1
備考
 41
0.5
  0
TEXT
  5
128
  8
_________2
 62
     7
 10
18.021100000000001
 20
19.410799999999991
 30
0.0
 40
3.0923400000000001
  1
製図
 41
0.5
  0
TEXT
  5
129
  8
_________2
 62
     7
 10
23.788465333333338
 20
27.936800000000002
 30
0.0
 40
4.4979399999999989
  1
セラトレーディング株式会社
 41
0.5
 72
     1
 11
41.180500000000002
 21
27.936800000000002
 31
0.0
  0
LINE
  5
12A
  8
_________2
 62
     7
 10
183.55099999999999
 20
-4.0910799999999998
 30
0.0
 11
17.049499999999998
 21
-4.0910799999999998
 31
0.0
  0
LINE
  5
12B
  8
_________2
 62
     7
 10
17.049499999999998
 20
-4.0910799999999998
 30
0.0
 11
17.049499999999998
 21
258.911
 31
0.0
  0
LINE
  5
12C
  8
_________2
 62
     7
 10
17.049499999999998
 20
258.911
 30
0.0
 11
183.55099999999999
 21
258.911
 31
0.0
  0
LINE
  5
12D
  8
_________2
 62
     7
 10
183.55099999999999
 20
258.911
 30
0.0
 11
183.55099999999999
 21
-4.0910799999999998
 31
0.0
  0
LINE
  5
12E
  8
_________2
 62
     7
 10
65.549599999999998
 20
9.4089600000000004
 30
0.0
 11
65.549599999999998
 21
35.908799999999999
 31
0.0
  0
LINE
  5
12F
  8
_________2
 62
     7
 10
84.549700000000016
 20
9.4089600000000004
 30
0.0
 11
84.549700000000016
 21
35.908799999999999
 31
0.0
  0
LINE
  5
130
  8
_________2
 62
     7
 10
103.55
 20
-4.0910799999999998
 30
0.0
 11
103.55
 21
35.908799999999999
 31
0.0
  0
LINE
  5
131
  8
_________2
 62
     7
 10
28.549299999999992
 20
9.4089600000000004
 30
0.0
 11
28.549299999999992
 21
23.409199999999998
 31
0.0
  0
LINE
  5
132
  8
_________2
 62
     7
 10
17.049499999999998
 20
9.4089600000000004
 30
0.0
 11
103.55
 21
9.4089600000000004
 31
0.0
  0
LINE
  5
133
  8
_________2
 62
     7
 10
17.049499999999998
 20
23.409199999999998
 30
0.0
 11
103.55
 21
23.409199999999998
 31
0.0
  0
LINE
  5
134
  8
_________2
 62
     7
 10
103.55
 20
15.9085
 30
0.0
 11
183.55099999999999
 21
15.9085
 31
0.0
  0
LINE
  5
135
  8
_________2
 62
     7
 10
17.049499999999998
 20
35.908799999999999
 30
0.0
 11
183.55099999999999
 21
35.908799999999999
 31
0.0
  0
ENDSEC
  0
EOF
