  0
SECTION
  2
HEADER
  9
$ACADVER
  1
AC1009
  9
$INSBASE
 10
0.0
 20
0.0
 30
0.0
  9
$EXTMIN
 10
3640.5028296634441
 20
2847.6606923278941
 30
0.0
  9
$EXTMAX
 10
7726.2017179943541
 20
8685.7987599197386
 30
0.0
  9
$LIMMIN
 10
3640.5028296634441
 20
2847.6606923278941
  9
$LIMMAX
 10
7726.2017179943541
 20
8685.7987599197386
  9
$ORTHOMODE
 70
     0
  9
$REGENMODE
 70
     1
  9
$FILLMODE
 70
     1
  9
$QTEXTMODE
 70
     0
  9
$MIRRTEXT
 70
     1
  9
$DRAGMODE
 70
     2
  9
$LTSCALE
 40
1.0
  9
$OSMODE
 70
    37
  9
$ATTMODE
 70
     1
  9
$TEXTSIZE
 40
3.5
  9
$TRACEWID
 40
0.5
  9
$TEXTSTYLE
  7
STANDARD
  9
$CLAYER
  8
0
  9
$CELTYPE
  6
BYLAYER
  9
$CECOLOR
 62
   256
  9
$DIMSCALE
 40
1.0
  9
$DIMASZ
 40
0.18
  9
$DIMEXO
 40
0.0625
  9
$DIMDLI
 40
0.38
  9
$DIMRND
 40
0.0
  9
$DIMDLE
 40
0.0
  9
$DIMEXE
 40
0.18
  9
$DIMTP
 40
0.0
  9
$DIMTM
 40
0.0
  9
$DIMTXT
 40
0.18
  9
$DIMCEN
 40
0.09
  9
$DIMTSZ
 40
0.0
  9
$DIMTOL
 70
     0
  9
$DIMLIM
 70
     0
  9
$DIMTIH
 70
     1
  9
$DIMTOH
 70
     1
  9
$DIMSE1
 70
     0
  9
$DIMSE2
 70
     0
  9
$DIMTAD
 70
     0
  9
$DIMZIN
 70
     0
  9
$DIMBLK
  1

  9
$DIMASO
 70
     1
  9
$DIMSHO
 70
     1
  9
$DIMPOST
  1

  9
$DIMAPOST
  1

  9
$DIMALT
 70
     0
  9
$DIMALTD
 70
     2
  9
$DIMALTF
 40
25.399999999999999
  9
$DIMLFAC
 40
1.0
  9
$DIMTOFL
 70
     0
  9
$DIMTVP
 40
0.0
  9
$DIMTIX
 70
     0
  9
$DIMSOXD
 70
     0
  9
$DIMSAH
 70
     0
  9
$DIMBLK1
  1

  9
$DIMBLK2
  1

  9
$DIMSTYLE
  2
STANDARD
  9
$DIMCLRD
 70
     0
  9
$DIMCLRE
 70
     0
  9
$DIMCLRT
 70
     0
  9
$DIMTFAC
 40
1.0
  9
$DIMGAP
 40
0.09
  9
$LUNITS
 70
     2
  9
$LUPREC
 70
     4
  9
$SKETCHINC
 40
0.1
  9
$FILLETRAD
 40
2.0
  9
$AUNITS
 70
     0
  9
$AUPREC
 70
     0
  9
$MENU
  1
ACAD
  9
$ELEVATION
 40
0.0
  9
$PELEVATION
 40
0.0
  9
$THICKNESS
 40
0.0
  9
$LIMCHECK
 70
     0
  9
$BLIPMODE
 70
     0
  9
$CHAMFERA
 40
0.0
  9
$CHAMFERB
 40
0.0
  9
$SKPOLY
 70
     0
  9
$TDCREATE
 40
2458229.246680914
  9
$TDUPDATE
 40
2458229.2466933681
  9
$TDINDWG
 40
0.0000126389
  9
$TDUSRTIMER
 40
0.0000126389
  9
$USRTIMER
 70
     1
  9
$ANGBASE
 50
0.0
  9
$ANGDIR
 70
     0
  9
$PDMODE
 70
     0
  9
$PDSIZE
 40
0.0
  9
$PLINEWID
 40
0.0
  9
$COORDS
 70
     1
  9
$SPLFRAME
 70
     0
  9
$SPLINETYPE
 70
     6
  9
$SPLINESEGS
 70
     8
  9
$ATTDIA
 70
     0
  9
$ATTREQ
 70
     1
  9
$HANDLING
 70
  4097
  9
$HANDSEED
  5
937
  9
$SURFTAB1
 70
     6
  9
$SURFTAB2
 70
     6
  9
$SURFTYPE
 70
     6
  9
$SURFU
 70
     6
  9
$SURFV
 70
     6
  9
$UCSNAME
  2

  9
$UCSORG
 10
0.0
 20
0.0
 30
0.0
  9
$UCSXDIR
 10
1.0
 20
0.0
 30
0.0
  9
$UCSYDIR
 10
0.0
 20
1.0
 30
0.0
  9
$PUCSNAME
  2

  9
$PUCSORG
 10
0.0
 20
0.0
 30
0.0
  9
$PUCSXDIR
 10
1.0
 20
0.0
 30
0.0
  9
$PUCSYDIR
 10
0.0
 20
1.0
 30
0.0
  9
$USERI1
 70
     0
  9
$USERI2
 70
     0
  9
$USERI3
 70
     0
  9
$USERI4
 70
     0
  9
$USERI5
 70
     0
  9
$USERR1
 40
0.0
  9
$USERR2
 40
0.0
  9
$USERR3
 40
0.0
  9
$USERR4
 40
0.0
  9
$USERR5
 40
0.0
  9
$WORLDVIEW
 70
     1
  9
$SHADEDGE
 70
     3
  9
$SHADEDIF
 70
    70
  9
$TILEMODE
 70
     1
  9
$MAXACTVP
 70
    64
  9
$PLIMCHECK
 70
     0
  9
$PEXTMIN
 10
1.0000000000000000E+020
 20
1.0000000000000000E+020
 30
1.0000000000000000E+020
  9
$PEXTMAX
 10
-1.0000000000000000E+020
 20
-1.0000000000000000E+020
 30
-1.0000000000000000E+020
  9
$PLIMMIN
 10
0.0
 20
0.0
  9
$PLIMMAX
 10
12.0
 20
9.0
  9
$UNITMODE
 70
     0
  9
$VISRETAIN
 70
     1
  9
$PLINEGEN
 70
     0
  9
$PSLTSCALE
 70
     1
  0
ENDSEC
  0
SECTION
  2
TABLES
  0
TABLE
  2
VPORT
 70
     2
  0
VPORT
  2
*ACTIVE
 70
     0
 10
0.0
 20
0.0
 11
1.0
 21
1.0
 12
14.89380530973451
 22
4.5
 13
0.0
 23
0.0
 14
1.0
 24
1.0
 15
0.0
 25
0.0
 16
0.0
 26
0.0
 36
1.0
 17
0.0
 27
0.0
 37
0.0
 40
9.0
 41
3.3097345132743361
 42
50.0
 43
0.0
 44
0.0
 50
0.0
 51
0.0
 71
     0
 72
   100
 73
     1
 74
     1
 75
     0
 76
     0
 77
     0
 78
     0
  0
ENDTAB
  0
TABLE
  2
LTYPE
 70
     9
  0
LTYPE
  2
CONTINUOUS
 70
     0
  3
Solid line
 72
    65
 73
     0
 40
0.0
  0
LTYPE
  2
CENTER
 70
     0
  3
____ _ ____ _
 72
    65
 73
     4
 40
307.27042461009711
 49
192.0440153813106
 49
-38.408803076262132
 49
38.408803076262132
 49
-38.408803076262132
  0
LTYPE
  2
DASHDOT
 70
     0
  3
__ . __ . __ .
 72
    65
 73
     4
 40
153.6352123050485
 49
76.817606152524263
 49
-38.408803076262132
 49
0.0
 49
-38.408803076262132
  0
LTYPE
  2
DASHED
 70
     0
  3
__ __ __ __ __
 72
    65
 73
     2
 40
115.22640922878639
 49
76.817606152524263
 49
-38.408803076262132
  0
LTYPE
  2
DIVIDE
 70
     0
  3
__ . . __ . . 
 72
    65
 73
     6
 40
192.0440153813106
 49
76.817606152524263
 49
-38.408803076262132
 49
0.0
 49
-38.408803076262132
 49
0.0
 49
-38.408803076262132
  0
ENDTAB
  0
TABLE
  2
LAYER
 70
     3
  0
LAYER
  2
0
 70
     0
 62
     7
  6
CONTINUOUS
  0
LAYER
  2
1
 70
     0
 62
     7
  6
CONTINUOUS
  0
LAYER
  2
2
 70
     0
 62
     7
  6
CONTINUOUS
  0
ENDTAB
  0
TABLE
  2
STYLE
 70
     1
  0
STYLE
  2
STANDARD
 70
     0
 40
0.0
 41
1.0
 50
0.0
 71
     0
 42
3.5
  3
txt
  4
EXTFONT.SHX
  0
ENDTAB
  0
TABLE
  2
VIEW
 70
     0
  0
ENDTAB
  0
TABLE
  2
UCS
 70
     0
  0
ENDTAB
  0
TABLE
  2
APPID
 70
     1
  0
APPID
  2
ACAD
 70
     0
  0
ENDTAB
  0
TABLE
  2
DIMSTYLE
 70
     1
  0
DIMSTYLE
  2
STANDARD
 70
     0
  3

  4

  5

  6

  7

 40
1.0
 41
0.18
 42
0.0625
 43
0.38
 44
0.18
 45
0.0
 46
0.0
 47
0.0
 48
0.0
140
0.18
141
0.09
142
0.0
143
25.399999999999999
144
1.0
145
0.0
146
1.0
147
0.09
 71
     0
 72
     0
 73
     1
 74
     1
 75
     0
 76
     0
 77
     0
 78
     0
170
     0
171
     2
172
     0
173
     0
174
     0
175
     0
176
     0
177
     0
178
     0
  0
ENDTAB
  0
ENDSEC
  0
SECTION
  2
BLOCKS
  0
BLOCK
  8
0
  2
$MODEL_SPACE
 70
     0
 10
0.0
 20
0.0
 30
0.0
  3
$MODEL_SPACE
  1

  0
ENDBLK
  5
20
  8
0
  0
BLOCK
 67
     1
  8
0
  2
$PAPER_SPACE
 70
     0
 10
0.0
 20
0.0
 30
0.0
  3
$PAPER_SPACE
  1

  0
ENDBLK
  5
1C
 67
     1
  8
0
  0
BLOCK
  8
2
  2
*X0
 70
     1
 10
0.0
 20
0.0
 30
0.0
  3
*X0
  1

  0
LINE
  5
31
  8
2
 62
     7
 10
4418.9505663576283
 20
3619.9199036168279
 30
0.0
 11
4423.1978116623932
 21
3624.167148921596
 31
0.0
  0
LINE
  5
32
  8
2
 62
     7
 10
4421.5018561716961
 20
3615.4001256190322
 30
0.0
 11
4430.2688794742589
 21
3624.167148921596
 31
0.0
  0
LINE
  5
33
  8
2
 62
     7
 10
4428.5729239835609
 20
3615.4001256190322
 30
0.0
 11
4437.3399472861238
 21
3624.167148921596
 31
0.0
  0
LINE
  5
34
  8
2
 62
     7
 10
4434.1461717914099
 20
3613.902305615014
 30
0.0
 11
4444.4110150979895
 21
3624.167148921596
 31
0.0
  0
LINE
  5
35
  8
2
 62
     7
 10
4434.1461717914099
 20
3606.8312378031478
 30
0.0
 11
4451.4820829098562
 21
3624.167148921596
 31
0.0
  0
LINE
  5
36
  8
2
 62
     7
 10
4449.7861274191573
 20
3615.4001256190322
 30
0.0
 11
4458.553150721722
 21
3624.167148921596
 31
0.0
  0
LINE
  5
37
  8
2
 62
     7
 10
4434.1461717914099
 20
3599.760169991283
 30
0.0
 11
4443.4494518152533
 21
3609.0634500151259
 31
0.0
  0
LINE
  5
38
  8
2
 62
     7
 10
4456.857195231024
 20
3615.4001256190322
 30
0.0
 11
4458.7812062924877
 21
3617.3241366804959
 31
0.0
  0
LINE
  5
39
  8
2
 62
     7
 10
4434.1461717914099
 20
3592.6891021794172
 30
0.0
 11
4443.4494518152533
 21
3601.992382203262
 31
0.0
  0
LINE
  5
3A
  8
2
 62
     7
 10
4436.9919218530376
 20
3588.4637844291792
 30
0.0
 11
4443.4494518152533
 21
3594.9213143913971
 31
0.0
  0
ENDBLK
  5
3B
  8
0
  0
BLOCK
  8
2
  2
*X1
 70
     1
 10
0.0
 20
0.0
 30
0.0
  3
*X1
  1

  0
LINE
  5
3E
  8
2
 62
     7
 10
4479.8485015828919
 20
3620.00665566005
 30
0.0
 11
4484.0216479148212
 21
3624.1798019919802
 31
0.0
  0
LINE
  5
3F
  8
2
 62
     7
 10
4479.8485015828919
 20
3614.349801410558
 30
0.0
 11
4489.6785021643136
 21
3624.1798019919802
 31
0.0
  0
LINE
  5
40
  8
2
 62
     7
 10
4479.8485015828919
 20
3608.6929471610651
 30
0.0
 11
4495.335356413806
 21
3624.1798019919802
 31
0.0
  0
LINE
  5
41
  8
2
 62
     7
 10
4491.2817772764711
 20
3614.469368605151
 30
0.0
 11
4500.9922106632994
 21
3624.1798019919802
 31
0.0
  0
LINE
  5
42
  8
2
 62
     7
 10
4479.8485015828919
 20
3603.0360929115732
 30
0.0
 11
4488.2608500472816
 21
3611.4484413759642
 31
0.0
  0
LINE
  5
43
  8
2
 62
     7
 10
4496.9386315259626
 20
3614.469368605151
 30
0.0
 11
4506.6490649127909
 21
3624.1798019919802
 31
0.0
  0
LINE
  5
44
  8
2
 62
     7
 10
4479.8485015828919
 20
3597.3792386620789
 30
0.0
 11
4491.9337066681164
 21
3609.4644437473021
 31
0.0
  0
LINE
  5
45
  8
2
 62
     7
 10
4502.5954857754559
 20
3614.469368605151
 30
0.0
 11
4512.3059191622824
 21
3624.1798019919802
 31
0.0
  0
LINE
  5
46
  8
2
 62
     7
 10
4479.8485015828919
 20
3591.722384412587
 30
0.0
 11
4497.5905609176079
 21
3609.4644437473021
 31
0.0
  0
LINE
  5
47
  8
2
 62
     7
 10
4508.2523400249484
 20
3614.469368605151
 30
0.0
 11
4515.7266879154804
 21
3621.943716495683
 31
0.0
  0
LINE
  5
48
  8
2
 62
     7
 10
4493.5140813638618
 20
3599.7311099440658
 30
0.0
 11
4503.2474151671004
 21
3609.4644437473021
 31
0.0
  0
LINE
  5
49
  8
2
 62
     7
 10
4481.5362587001337
 20
3587.7532872803372
 30
0.0
 11
4488.2608500472816
 21
3594.4778786274869
 31
0.0
  0
LINE
  5
4A
  8
2
 62
     7
 10
4499.1709356133561
 20
3599.7311099440658
 30
0.0
 11
4517.9671820265557
 21
3618.5273563572669
 31
0.0
  0
LINE
  5
4B
  8
2
 62
     7
 10
4487.2090882530983
 20
3587.7692625838099
 30
0.0
 11
4488.2608500472816
 21
3588.821024377994
 31
0.0
  0
LINE
  5
4C
  8
2
 62
     7
 10
4504.8277898628467
 20
3599.7311099440658
 30
0.0
 11
4518.9947622202471
 21
3613.8980823014649
 31
0.0
  0
LINE
  5
4D
  8
2
 62
     7
 10
4507.7350797133822
 20
3596.981545545108
 30
0.0
 11
4514.9793888069871
 21
3604.2258546387152
 31
0.0
  0
LINE
  5
4E
  8
2
 62
     7
 10
4507.7522102251087
 20
3591.3418218073421
 30
0.0
 11
4516.94019608286
 21
3600.5298076650929
 31
0.0
  0
LINE
  5
4F
  8
2
 62
     7
 10
4509.8394671263859
 20
3587.7722244591268
 30
0.0
 11
4516.94019608286
 21
3594.8729534156009
 31
0.0
  0
LINE
  5
50
  8
2
 62
     7
 10
4515.4963213758792
 20
3587.7722244591268
 30
0.0
 11
4516.94019608286
 21
3589.216099166109
 31
0.0
  0
ENDBLK
  5
51
  8
0
  0
BLOCK
  8
2
  2
*X2
 70
     1
 10
0.0
 20
0.0
 30
0.0
  3
*X2
  1

  0
LINE
  5
54
  8
2
 62
     7
 10
4552.4555887633287
 20
3619.0746375970862
 30
0.0
 11
4557.0733096605063
 21
3623.6923584942629
 31
0.0
  0
LINE
  5
55
  8
2
 62
     7
 10
4544.6466279028618
 20
3605.608822487126
 30
0.0
 11
4562.6057510703959
 21
3623.5679456546609
 31
0.0
  0
LINE
  5
56
  8
2
 62
     7
 10
4536.8376670423932
 20
3592.1430073771648
 30
0.0
 11
4565.7363168653437
 21
3621.0416572001159
 31
0.0
  0
LINE
  5
57
  8
2
 62
     7
 10
4561.3877387571574
 20
3611.0362248424358
 30
0.0
 11
4567.8357852362624
 21
3617.484271321543
 31
0.0
  0
LINE
  5
58
  8
2
 62
     7
 10
4537.430178487085
 20
3587.0786645723651
 30
0.0
 11
4554.4467316268992
 21
3604.095217712179
 31
0.0
  0
LINE
  5
59
  8
2
 62
     7
 10
4563.2964439392854
 20
3607.2880757750718
 30
0.0
 11
4569.9121480374051
 21
3613.9037798731938
 31
0.0
  0
LINE
  5
5A
  8
2
 62
     7
 10
4550.6151815747053
 20
3594.6068134104921
 30
0.0
 11
4559.5429578789526
 21
3603.5345897147399
 31
0.0
  0
LINE
  5
5B
  8
2
 62
     7
 10
4543.0917949853174
 20
3587.083426821102
 30
0.0
 11
4547.5053814359107
 21
3591.497013271699
 31
0.0
  0
LINE
  5
5C
  8
2
 62
     7
 10
4556.2720358241959
 20
3594.6068134104921
 30
0.0
 11
4571.9885108385497
 21
3610.323288424845
 31
0.0
  0
LINE
  5
5D
  8
2
 62
     7
 10
4561.9288900736892
 20
3594.6068134104921
 30
0.0
 11
4574.0648736396934
 21
3606.7427969764958
 31
0.0
  0
LINE
  5
5E
  8
2
 62
     7
 10
4567.5857443231807
 20
3594.6068134104921
 30
0.0
 11
4576.141236440837
 21
3603.162305528148
 31
0.0
  0
LINE
  5
5F
  8
2
 62
     7
 10
4571.197542991109
 20
3592.5617578289271
 30
0.0
 11
4578.2175992419807
 21
3599.5818140797992
 31
0.0
  0
LINE
  5
60
  8
2
 62
     7
 10
4573.3746939620114
 20
3589.0820545503361
 30
0.0
 11
4580.2939620431234
 21
3596.0013226314509
 31
0.0
  0
LINE
  5
61
  8
2
 62
     7
 10
4577.0322854370961
 20
3587.0827917759302
 30
0.0
 11
4582.370324844268
 21
3592.4208311831012
 31
0.0
  0
LINE
  5
62
  8
2
 62
     7
 10
4582.6843854426152
 20
3587.0780375319559
 30
0.0
 11
4584.4466876454117
 21
3588.840339734752
 31
0.0
  0
ENDBLK
  5
63
  8
0
  0
BLOCK
  8
2
  2
*X3
 70
     1
 10
0.0
 20
0.0
 30
0.0
  3
*X3
  1

  0
LINE
  5
66
  8
2
 62
     7
 10
4603.1390846691647
 20
3618.8464452574908
 30
0.0
 11
4608.4724414036564
 21
3624.1798019919811
 31
0.0
  0
LINE
  5
67
  8
2
 62
     7
 10
4603.1390846691647
 20
3613.1895910079979
 30
0.0
 11
4614.1292956531479
 21
3624.1798019919811
 31
0.0
  0
LINE
  5
68
  8
2
 62
     7
 10
4603.1390846691647
 20
3607.532736758506
 30
0.0
 11
4619.7861499026403
 21
3624.1798019919811
 31
0.0
  0
LINE
  5
69
  8
2
 62
     7
 10
4615.3997034548383
 20
3614.1365012946858
 30
0.0
 11
4625.4430041521327
 21
3624.1798019919811
 31
0.0
  0
LINE
  5
6A
  8
2
 62
     7
 10
4603.1390846691647
 20
3601.875882509014
 30
0.0
 11
4612.2909585443585
 21
3611.027756384206
 31
0.0
  0
LINE
  5
6B
  8
2
 62
     7
 10
4621.0565577043299
 20
3614.1365012946858
 30
0.0
 11
4631.0998584016252
 21
3624.1798019919811
 31
0.0
  0
LINE
  5
6C
  8
2
 62
     7
 10
4603.1390846691647
 20
3596.2190282595211
 30
0.0
 11
4612.2909585443585
 21
3605.370902134714
 31
0.0
  0
LINE
  5
6D
  8
2
 62
     7
 10
4626.7134119538232
 20
3614.1365012946858
 30
0.0
 11
4636.7567126511176
 21
3624.1798019919811
 31
0.0
  0
LINE
  5
6E
  8
2
 62
     7
 10
4603.1390846691647
 20
3590.5621740100291
 30
0.0
 11
4612.2909585443585
 21
3599.714047885222
 31
0.0
  0
LINE
  5
6F
  8
2
 62
     7
 10
4632.0365110718867
 20
3613.8027461632578
 30
0.0
 11
4640.592999750198
 21
3622.3592348415691
 31
0.0
  0
LINE
  5
70
  8
2
 62
     7
 10
4605.3094576351041
 20
3587.0756927264729
 30
0.0
 11
4615.3527583323994
 21
3597.1189934237691
 31
0.0
  0
LINE
  5
71
  8
2
 62
     7
 10
4632.0365110718867
 20
3608.1458919137649
 30
0.0
 11
4641.2388977597939
 21
3617.348278601673
 31
0.0
  0
LINE
  5
72
  8
2
 62
     7
 10
4610.9663118845947
 20
3587.0756927264729
 30
0.0
 11
4621.00961258189
 21
3597.1189934237691
 31
0.0
  0
LINE
  5
73
  8
2
 62
     7
 10
4632.0365110718867
 20
3602.4890376642729
 30
0.0
 11
4641.2388977597939
 21
3611.691424352181
 31
0.0
  0
LINE
  5
74
  8
2
 62
     7
 10
4616.623166134088
 20
3587.0756927264729
 30
0.0
 11
4626.6664668313833
 21
3597.1189934237691
 31
0.0
  0
LINE
  5
75
  8
2
 62
     7
 10
4622.2800203835804
 20
3587.0756927264729
 30
0.0
 11
4641.2388977597939
 21
3606.0345701026881
 31
0.0
  0
LINE
  5
76
  8
2
 62
     7
 10
4627.9368746330729
 20
3587.0756927264729
 30
0.0
 11
4641.2388977597939
 21
3600.3777158531962
 31
0.0
  0
LINE
  5
77
  8
2
 62
     7
 10
4633.5937288825653
 20
3587.0756927264729
 30
0.0
 11
4641.2388977597939
 21
3594.7208616037028
 31
0.0
  0
ENDBLK
  5
78
  8
0
  0
BLOCK
  8
2
  2
*X4
 70
     1
 10
0.0
 20
0.0
 30
0.0
  3
*X4
  1

  0
LINE
  5
7B
  8
2
 62
     7
 10
4665.3295771301537
 20
3618.811540974064
 30
0.0
 11
4670.6978381480712
 21
3624.1798019919802
 31
0.0
  0
LINE
  5
7C
  8
2
 62
     7
 10
4665.3295771301537
 20
3613.1546867245711
 30
0.0
 11
4674.3293605890422
 21
3622.1544701834632
 31
0.0
  0
LINE
  5
7D
  8
2
 62
     7
 10
4665.3295771301537
 20
3607.4978324750791
 30
0.0
 11
4674.3293605890422
 21
3616.4976159339699
 31
0.0
  0
LINE
  5
7E
  8
2
 62
     7
 10
4665.3295771301537
 20
3601.8409782255858
 30
0.0
 11
4674.3293605890422
 21
3610.840761684477
 31
0.0
  0
LINE
  5
7F
  8
2
 62
     7
 10
4665.3295771301537
 20
3596.1841239760929
 30
0.0
 11
4674.3293605890422
 21
3605.1839074349841
 31
0.0
  0
LINE
  5
80
  8
2
 62
     7
 10
4665.3295771301537
 20
3590.5272697266
 30
0.0
 11
4674.3293605890422
 21
3599.5270531854899
 31
0.0
  0
LINE
  5
81
  8
2
 62
     7
 10
4667.5348543795199
 20
3587.0756927264752
 30
0.0
 11
4674.3293605890422
 21
3593.870198935997
 31
0.0
  0
LINE
  5
82
  8
2
 62
     7
 10
4673.1917086290141
 20
3587.075692726477
 30
0.0
 11
4674.3293605890422
 21
3588.2133446865059
 31
0.0
  0
ENDBLK
  5
83
  8
0
  0
BLOCK
  8
2
  2
*X5
 70
     1
 10
0.0
 20
0.0
 30
0.0
  3
*X5
  1

  0
LINE
  5
86
  8
2
 62
     7
 10
4689.2540105829103
 20
3620.1085574288491
 30
0.0
 11
4693.32525514604
 21
3624.1798019919802
 31
0.0
  0
LINE
  5
87
  8
2
 62
     7
 10
4689.257519993228
 20
3614.4552125896748
 30
0.0
 11
4698.4231867241469
 21
3623.620879320591
 31
0.0
  0
LINE
  5
88
  8
2
 62
     7
 10
4689.2610294035449
 20
3608.8018677505011
 30
0.0
 11
4701.1473041251784
 21
3620.6881424721291
 31
0.0
  0
LINE
  5
89
  8
2
 62
     7
 10
4698.5241647601169
 20
3612.408148857578
 30
0.0
 11
4703.8714215262107
 21
3617.75540562367
 31
0.0
  0
LINE
  5
8A
  8
2
 62
     7
 10
4689.2645388138653
 20
3603.1485229113259
 30
0.0
 11
4697.9040228667518
 21
3611.7880069642142
 31
0.0
  0
LINE
  5
8B
  8
2
 62
     7
 10
4701.2383992331943
 20
3609.4655290811629
 30
0.0
 11
4706.5955389272413
 21
3614.822668775209
 31
0.0
  0
LINE
  5
8C
  8
2
 62
     7
 10
4689.2680482241813
 20
3597.4951780721508
 30
0.0
 11
4697.9040228667518
 21
3606.1311527147218
 31
0.0
  0
LINE
  5
8D
  8
2
 62
     7
 10
4703.9526337062707
 20
3606.5229093047492
 30
0.0
 11
4709.3196563282718
 21
3611.8899319267471
 31
0.0
  0
LINE
  5
8E
  8
2
 62
     7
 10
4689.271557634499
 20
3591.8418332329779
 30
0.0
 11
4697.9040228667518
 21
3600.4742984652289
 31
0.0
  0
LINE
  5
8F
  8
2
 62
     7
 10
4722.0589588653474
 20
3618.972380214333
 30
0.0
 11
4727.2663806429973
 21
3624.1798019919802
 31
0.0
  0
LINE
  5
90
  8
2
 62
     7
 10
4706.666868179349
 20
3603.5802895283341
 30
0.0
 11
4712.043773729305
 21
3608.9571950782879
 31
0.0
  0
LINE
  5
91
  8
2
 62
     7
 10
4690.1622713774914
 20
3587.075692726477
 30
0.0
 11
4697.9040228667518
 21
3594.8174442157369
 31
0.0
  0
LINE
  5
92
  8
2
 62
     7
 10
4722.0589588653474
 20
3613.3155259648402
 30
0.0
 11
4730.6898518451708
 21
3621.946418944663
 31
0.0
  0
LINE
  5
93
  8
2
 62
     7
 10
4709.3811026524263
 20
3600.637669751919
 30
0.0
 11
4714.7678911303356
 21
3606.0244582298269
 31
0.0
  0
LINE
  5
94
  8
2
 62
     7
 10
4695.819125626982
 20
3587.075692726477
 30
0.0
 11
4697.9040228667518
 21
3589.160589966245
 31
0.0
  0
LINE
  5
95
  8
2
 62
     7
 10
4722.0589588653474
 20
3607.6586717153468
 30
0.0
 11
4730.6933612554894
 21
3616.2930741054879
 31
0.0
  0
LINE
  5
96
  8
2
 62
     7
 10
4712.0953371255036
 20
3597.6950499755039
 30
0.0
 11
4717.492008531367
 21
3603.0917213813668
 31
0.0
  0
LINE
  5
97
  8
2
 62
     7
 10
4722.0589588653474
 20
3602.0018174658549
 30
0.0
 11
4730.6968706658063
 21
3610.6397292663132
 31
0.0
  0
LINE
  5
98
  8
2
 62
     7
 10
4714.809571598581
 20
3594.7524301990879
 30
0.0
 11
4720.2161259323984
 21
3600.1589845329049
 31
0.0
  0
LINE
  5
99
  8
2
 62
     7
 10
4717.5238060716574
 20
3591.8098104226729
 30
0.0
 11
4730.700380076124
 21
3604.9863844271399
 31
0.0
  0
LINE
  5
9A
  8
2
 62
     7
 10
4720.2380405447348
 20
3588.8671906462591
 30
0.0
 11
4730.7038894864418
 21
3599.3330395879648
 31
0.0
  0
LINE
  5
9B
  8
2
 62
     7
 10
4724.103396874445
 20
3587.0756927264752
 30
0.0
 11
4730.7073988967604
 21
3593.6796947487892
 31
0.0
  0
LINE
  5
9C
  8
2
 62
     7
 10
4729.7602511239384
 20
3587.0756927264752
 30
0.0
 11
4730.7109083070764
 21
3588.026349909615
 31
0.0
  0
ENDBLK
  5
9D
  8
0
  0
BLOCK
  8
2
  2
*X6
 70
     1
 10
0.0
 20
0.0
 30
0.0
  3
*X6
  1

  0
LINE
  5
A0
  8
2
 62
     7
 10
4744.4498873493776
 20
3618.7358917003939
 30
0.0
 11
4748.7954376555681
 21
3623.081442006584
 31
0.0
  0
LINE
  5
A1
  8
2
 62
     7
 10
4743.3515273639841
 20
3611.9806774655071
 30
0.0
 11
4755.5506518904558
 21
3624.1798019919802
 31
0.0
  0
LINE
  5
A2
  8
2
 62
     7
 10
4743.3515273639841
 20
3606.3238232160152
 30
0.0
 11
4761.2075061399491
 21
3624.1798019919802
 31
0.0
  0
LINE
  5
A3
  8
2
 62
     7
 10
4756.8210596921454
 20
3614.136501294684
 30
0.0
 11
4766.8643603894416
 21
3624.1798019919802
 31
0.0
  0
LINE
  5
A4
  8
2
 62
     7
 10
4743.3515273639841
 20
3600.6669689665218
 30
0.0
 11
4752.5539140518922
 21
3609.8693556544299
 31
0.0
  0
LINE
  5
A5
  8
2
 62
     7
 10
4762.4779139416387
 20
3614.136501294684
 30
0.0
 11
4772.521214638934
 21
3624.1798019919802
 31
0.0
  0
LINE
  5
A6
  8
2
 62
     7
 10
4743.5311526385076
 20
3595.1897399915551
 30
0.0
 11
4752.5539140518922
 21
3604.2125014049379
 31
0.0
  0
LINE
  5
A7
  8
2
 62
     7
 10
4768.1347681911311
 20
3614.136501294684
 30
0.0
 11
4778.1780688884246
 21
3624.1798019919802
 31
0.0
  0
LINE
  5
A8
  8
2
 62
     7
 10
4745.2341918395323
 20
3591.235924943087
 30
0.0
 11
4752.5539140518922
 21
3598.555647155446
 31
0.0
  0
LINE
  5
A9
  8
2
 62
     7
 10
4773.7916224406226
 20
3614.136501294684
 30
0.0
 11
4781.4513404546115
 21
3621.7962193086728
 31
0.0
  0
LINE
  5
AA
  8
2
 62
     7
 10
4748.1751013960311
 20
3588.519980250092
 30
0.0
 11
4756.7741145697082
 21
3597.11899342377
 31
0.0
  0
LINE
  5
AB
  8
2
 62
     7
 10
4779.448476690116
 20
3614.136501294684
 30
0.0
 11
4781.4513404546115
 21
3616.1393650591808
 31
0.0
  0
LINE
  5
AC
  8
2
 62
     7
 10
4752.4304859107306
 20
3587.1185105153008
 30
0.0
 11
4762.4309688192006
 21
3597.11899342377
 31
0.0
  0
LINE
  5
AD
  8
2
 62
     7
 10
4772.2994665794204
 20
3601.3306369344982
 30
0.0
 11
4777.1053309396084
 21
3606.1365012946858
 31
0.0
  0
LINE
  5
AE
  8
2
 62
     7
 10
4758.0445223714014
 20
3587.0756927264752
 30
0.0
 11
4768.0878230686922
 21
3597.11899342377
 31
0.0
  0
LINE
  5
AF
  8
2
 62
     7
 10
4763.7013766208911
 20
3587.0756927264729
 30
0.0
 11
4781.4513404546115
 21
3604.8256565601969
 31
0.0
  0
LINE
  5
B0
  8
2
 62
     7
 10
4769.3582308703826
 20
3587.0756927264729
 30
0.0
 11
4781.4513404546115
 21
3599.1688023107049
 31
0.0
  0
LINE
  5
B1
  8
2
 62
     7
 10
4775.0150851198741
 20
3587.0756927264729
 30
0.0
 11
4781.4513404546115
 21
3593.511948061212
 31
0.0
  0
LINE
  5
B2
  8
2
 62
     7
 10
4780.6719393693647
 20
3587.0756927264729
 30
0.0
 11
4781.4513404546115
 21
3587.8550938117201
 31
0.0
  0
ENDBLK
  5
B3
  8
0
  0
BLOCK
  8
2
  2
*X7
 70
     1
 10
0.0
 20
0.0
 30
0.0
  3
*X7
  1

  0
LINE
  5
B6
  8
2
 62
     7
 10
4709.9245042788061
 20
3742.602427615609
 30
0.0
 11
4732.0379283331922
 21
3764.7158516699951
 31
0.0
  0
LINE
  5
B7
  8
2
 62
     7
 10
4707.6388564470253
 20
3734.659925534334
 30
0.0
 11
4739.9804304144664
 21
3767.001499501775
 31
0.0
  0
LINE
  5
B8
  8
2
 62
     7
 10
4707.0225222462559
 20
3728.386737084074
 30
0.0
 11
4746.2536188647264
 21
3767.6178337025449
 31
0.0
  0
LINE
  5
B9
  8
2
 62
     7
 10
4707.0147787034712
 20
3722.7221392917891
 30
0.0
 11
4751.9182166852179
 21
3767.6255772735408
 31
0.0
  0
LINE
  5
BA
  8
2
 62
     7
 10
4734.0978499705889
 20
3744.148356309423
 30
0.0
 11
4757.5750709347112
 21
3767.6255772735408
 31
0.0
  0
LINE
  5
BB
  8
2
 62
     7
 10
4707.0147787360156
 20
3717.0652850748438
 30
0.0
 11
4728.5165766818818
 21
3738.5670830207141
 31
0.0
  0
LINE
  5
BC
  8
2
 62
     7
 10
4739.7547042200813
 20
3744.148356309423
 30
0.0
 11
4763.2319251842046
 21
3767.6255772735431
 31
0.0
  0
LINE
  5
BD
  8
2
 62
     7
 10
4707.0147787685619
 20
3711.4084308578958
 30
0.0
 11
4728.5165766818818
 21
3732.910228771223
 31
0.0
  0
LINE
  5
BE
  8
2
 62
     7
 10
4745.4115584695728
 20
3744.148356309423
 30
0.0
 11
4768.8887794336961
 21
3767.6255772735431
 31
0.0
  0
LINE
  5
BF
  8
2
 62
     7
 10
4707.0147788011072
 20
3705.751576640951
 30
0.0
 11
4728.5165766818818
 21
3727.2533745217288
 31
0.0
  0
LINE
  5
C0
  8
2
 62
     7
 10
4751.0684127190661
 20
3744.148356309423
 30
0.0
 11
4774.5456336831894
 21
3767.6255772735431
 31
0.0
  0
LINE
  5
C1
  8
2
 62
     7
 10
4707.0147788336517
 20
3700.094722424004
 30
0.0
 11
4728.5165766818818
 21
3721.5965202722382
 31
0.0
  0
LINE
  5
C2
  8
2
 62
     7
 10
4756.7252669685577
 20
3744.148356309423
 30
0.0
 11
4780.20248793268
 21
3767.6255772735431
 31
0.0
  0
LINE
  5
C3
  8
2
 62
     7
 10
4707.014778866198
 20
3694.4378682070569
 30
0.0
 11
4728.5165766818818
 21
3715.9396660227449
 31
0.0
  0
LINE
  5
C4
  8
2
 62
     7
 10
4762.382121218051
 20
3744.148356309423
 30
0.0
 11
4785.8593421821724
 21
3767.6255772735431
 31
0.0
  0
LINE
  5
C5
  8
2
 62
     7
 10
4707.0147788987433
 20
3688.7810139901112
 30
0.0
 11
4728.5165766818818
 21
3710.2828117732529
 31
0.0
  0
LINE
  5
C6
  8
2
 62
     7
 10
4768.0389754675416
 20
3744.148356309423
 30
0.0
 11
4791.5161964316667
 21
3767.6255772735449
 31
0.0
  0
LINE
  5
C7
  8
2
 62
     7
 10
4707.0147789312887
 20
3683.1241597731641
 30
0.0
 11
4733.9643446726504
 21
3710.0737255145291
 31
0.0
  0
LINE
  5
C8
  8
2
 62
     7
 10
4773.6958297170358
 20
3744.148356309423
 30
0.0
 11
4795.7217109416451
 21
3766.1742375340309
 31
0.0
  0
LINE
  5
C9
  8
2
 62
     7
 10
4707.0147789638331
 20
3677.467305556218
 30
0.0
 11
4739.621198922142
 21
3710.0737255145291
 31
0.0
  0
LINE
  5
CA
  8
2
 62
     7
 10
4775.2049714910718
 20
3740.0006438339669
 30
0.0
 11
4797.6115172463451
 21
3762.407189589238
 31
0.0
  0
LINE
  5
CB
  8
2
 62
     7
 10
4707.0147789963776
 20
3671.8104513392709
 30
0.0
 11
4745.2780531716344
 21
3710.0737255145291
 31
0.0
  0
LINE
  5
CC
  8
2
 62
     7
 10
4775.2049714910718
 20
3734.3437895844741
 30
0.0
 11
4797.6334237123956
 21
3756.7722418058001
 31
0.0
  0
LINE
  5
CD
  8
2
 62
     7
 10
4707.0147790289238
 20
3666.1535971223238
 30
0.0
 11
4750.9349074211268
 21
3710.0737255145291
 31
0.0
  0
LINE
  5
CE
  8
2
 62
     7
 10
4775.2049714910718
 20
3728.6869353349821
 30
0.0
 11
4797.6334237123956
 21
3751.1153875563068
 31
0.0
  0
LINE
  5
CF
  8
2
 62
     7
 10
4733.5098557943711
 20
3686.991819638281
 30
0.0
 11
4756.5917616706192
 21
3710.0737255145291
 31
0.0
  0
LINE
  5
D0
  8
2
 62
     7
 10
4707.0147790614701
 20
3660.4967429053781
 30
0.0
 11
4728.5165766818818
 21
3681.9985405257898
 31
0.0
  0
LINE
  5
D1
  8
2
 62
     7
 10
4775.2049714910718
 20
3723.0300810854878
 30
0.0
 11
4797.6334237123956
 21
3745.4585333068148
 31
0.0
  0
LINE
  5
D2
  8
2
 62
     7
 10
4739.1667100438644
 20
3686.991819638281
 30
0.0
 11
4762.2486159201117
 21
3710.0737255145291
 31
0.0
  0
LINE
  5
D3
  8
2
 62
     7
 10
4707.0147790940146
 20
3654.8398886884302
 30
0.0
 11
4728.5165766818818
 21
3676.3416862762979
 31
0.0
  0
LINE
  5
D4
  8
2
 62
     7
 10
4775.2049714910718
 20
3717.3732268359968
 30
0.0
 11
4797.6334237123956
 21
3739.801679057322
 31
0.0
  0
LINE
  5
D5
  8
2
 62
     7
 10
4744.823564293356
 20
3686.991819638281
 30
0.0
 11
4767.9054701696041
 21
3710.0737255145291
 31
0.0
  0
LINE
  5
D6
  8
2
 62
     7
 10
4707.0147791265608
 20
3649.1830344714849
 30
0.0
 11
4728.5165766818818
 21
3670.6848320268059
 31
0.0
  0
LINE
  5
D7
  8
2
 62
     7
 10
4775.2049714910718
 20
3711.7163725865039
 30
0.0
 11
4797.6334237123956
 21
3734.1448248078291
 31
0.0
  0
LINE
  5
D8
  8
2
 62
     7
 10
4750.4804185428466
 20
3686.991819638281
 30
0.0
 11
4773.5623244190974
 21
3710.0737255145291
 31
0.0
  0
LINE
  5
D9
  8
2
 62
     7
 10
4707.2693457570022
 20
3643.7807468524338
 30
0.0
 11
4728.5165766818818
 21
3665.027977777313
 31
0.0
  0
LINE
  5
DA
  8
2
 62
     7
 10
4756.1372727923399
 20
3686.991819638281
 30
0.0
 11
4797.6334237123956
 21
3728.487970558338
 31
0.0
  0
LINE
  5
DB
  8
2
 62
     7
 10
4709.3144421254983
 20
3640.1689889714371
 30
0.0
 11
4728.5165766818818
 21
3659.3711235278211
 31
0.0
  0
LINE
  5
DC
  8
2
 62
     7
 10
4761.7941270418341
 20
3686.991819638281
 30
0.0
 11
4797.6334237123956
 21
3722.8311163088451
 31
0.0
  0
LINE
  5
DD
  8
2
 62
     7
 10
4712.8755432538392
 20
3638.0732358502869
 30
0.0
 11
4728.5165766818818
 21
3653.7142692783282
 31
0.0
  0
LINE
  5
DE
  8
2
 62
     7
 10
4767.4509812913257
 20
3686.991819638281
 30
0.0
 11
4797.6334237123956
 21
3717.1742620593532
 31
0.0
  0
LINE
  5
DF
  8
2
 62
     7
 10
4718.2407564845962
 20
3637.7815948315501
 30
0.0
 11
4728.5165766818818
 21
3648.0574150288362
 31
0.0
  0
LINE
  5
E0
  8
2
 62
     7
 10
4773.1078355408181
 20
3686.991819638281
 30
0.0
 11
4797.6334237123956
 21
3711.5174078098598
 31
0.0
  0
LINE
  5
E1
  8
2
 62
     7
 10
4775.270514062172
 20
3683.497643910142
 30
0.0
 11
4797.6334237123956
 21
3705.8605535603679
 31
0.0
  0
LINE
  5
E2
  8
2
 62
     7
 10
4775.270514062172
 20
3677.84078966065
 30
0.0
 11
4797.6334237123956
 21
3700.203699310875
 31
0.0
  0
LINE
  5
E3
  8
2
 62
     7
 10
4775.270514062172
 20
3672.183935411158
 30
0.0
 11
4797.6334237123956
 21
3694.546845061383
 31
0.0
  0
LINE
  5
E4
  8
2
 62
     7
 10
4775.270514062172
 20
3666.5270811616651
 30
0.0
 11
4797.6334237123956
 21
3688.8899908118901
 31
0.0
  0
LINE
  5
E5
  8
2
 62
     7
 10
4775.270514062172
 20
3660.8702269121732
 30
0.0
 11
4797.6334237123956
 21
3683.2331365623982
 31
0.0
  0
LINE
  5
E6
  8
2
 62
     7
 10
4775.270514062172
 20
3655.2133726626789
 30
0.0
 11
4797.6334237123956
 21
3677.5762823129048
 31
0.0
  0
LINE
  5
E7
  8
2
 62
     7
 10
4775.270514062172
 20
3649.556518413187
 30
0.0
 11
4797.6334237123956
 21
3671.9194280634129
 31
0.0
  0
LINE
  5
E8
  8
2
 62
     7
 10
4775.9113908521576
 20
3644.5405409536811
 30
0.0
 11
4797.6334237123956
 21
3666.2625738139209
 31
0.0
  0
LINE
  5
E9
  8
2
 62
     7
 10
4778.0728410211559
 20
3641.0451368731869
 30
0.0
 11
4797.6334237123956
 21
3660.6057195644289
 31
0.0
  0
LINE
  5
EA
  8
2
 62
     7
 10
4781.3746159078737
 20
3638.6900575104132
 30
0.0
 11
4797.6334237123956
 21
3654.948865314936
 31
0.0
  0
LINE
  5
EB
  8
2
 62
     7
 10
4786.1230074785026
 20
3637.7815948315501
 30
0.0
 11
4797.6334237123956
 21
3649.2920110654441
 31
0.0
  0
LINE
  5
EC
  8
2
 62
     7
 10
4792.2045218962003
 20
3638.2062549997549
 30
0.0
 11
4797.2087635441931
 21
3643.2104966477468
 31
0.0
  0
ENDBLK
  5
ED
  8
0
  0
BLOCK
  8
2
  2
*X8
 70
     1
 10
0.0
 20
0.0
 30
0.0
  3
*X8
  1

  0
LINE
  5
F0
  8
2
 62
     7
 10
4624.0203350142674
 20
3741.5510720934549
 30
0.0
 11
4647.5910595249698
 21
3765.1217966041572
 31
0.0
  0
LINE
  5
F1
  8
2
 62
     7
 10
4622.0090115270941
 20
3733.8828943567878
 30
0.0
 11
4655.2592372616346
 21
3767.1331200913301
 31
0.0
  0
LINE
  5
F2
  8
2
 62
     7
 10
4621.517505193855
 20
3727.734533774058
 30
0.0
 11
4661.4075978443652
 21
3767.6246264245669
 31
0.0
  0
LINE
  5
F3
  8
2
 62
     7
 10
4643.5881819787128
 20
3744.1483563094198
 30
0.0
 11
4667.0654029428351
 21
3767.6255772735431
 31
0.0
  0
LINE
  5
F4
  8
2
 62
     7
 10
4621.5165543768062
 20
3722.0767287075168
 30
0.0
 11
4643.0183523515043
 21
3743.5785266822149
 31
0.0
  0
LINE
  5
F5
  8
2
 62
     7
 10
4649.2450362282043
 20
3744.1483563094198
 30
0.0
 11
4672.7222571923276
 21
3767.6255772735431
 31
0.0
  0
LINE
  5
F6
  8
2
 62
     7
 10
4621.5165544093506
 20
3716.4198744905698
 30
0.0
 11
4643.0183523515043
 21
3737.9216724327221
 31
0.0
  0
LINE
  5
F7
  8
2
 62
     7
 10
4654.9018904776949
 20
3744.148356309418
 30
0.0
 11
4678.3791114418182
 21
3767.6255772735431
 31
0.0
  0
LINE
  5
F8
  8
2
 62
     7
 10
4621.5165544418969
 20
3710.7630202736232
 30
0.0
 11
4643.0183523515043
 21
3732.264818183231
 31
0.0
  0
LINE
  5
F9
  8
2
 62
     7
 10
4660.5587447271873
 20
3744.148356309418
 30
0.0
 11
4684.0359656913097
 21
3767.6255772735431
 31
0.0
  0
LINE
  5
FA
  8
2
 62
     7
 10
4621.5165544744423
 20
3705.1061660566761
 30
0.0
 11
4643.0183523515043
 21
3726.6079639337372
 31
0.0
  0
LINE
  5
FB
  8
2
 62
     7
 10
4666.2155989766788
 20
3744.1483563094171
 30
0.0
 11
4689.0240447186807
 21
3766.956802051423
 31
0.0
  0
LINE
  5
FC
  8
2
 62
     7
 10
4621.5165545069876
 20
3699.449311839729
 30
0.0
 11
4643.0183523515043
 21
3720.9511096842461
 31
0.0
  0
LINE
  5
FD
  8
2
 62
     7
 10
4671.8724532261704
 20
3744.1483563094171
 30
0.0
 11
4691.6794737171776
 21
3763.9553768004262
 31
0.0
  0
LINE
  5
FE
  8
2
 62
     7
 10
4621.516554539533
 20
3693.792457622782
 30
0.0
 11
4643.0183523515043
 21
3715.2942554347519
 31
0.0
  0
LINE
  5
FF
  8
2
 62
     7
 10
4677.529307475661
 20
3744.1483563094171
 30
0.0
 11
4692.0588463170061
 21
3758.6778951507622
 31
0.0
  0
LINE
  5
100
  8
2
 62
     7
 10
4621.5165545720783
 20
3688.1356034058331
 30
0.0
 11
4643.0183523515043
 21
3709.6374011852608
 31
0.0
  0
LINE
  5
101
  8
2
 62
     7
 10
4683.1861617251534
 20
3744.1483563094171
 30
0.0
 11
4692.0588463170061
 21
3753.0210409012702
 31
0.0
  0
LINE
  5
102
  8
2
 62
     7
 10
4621.5165546046237
 20
3682.4787491888869
 30
0.0
 11
4643.0183523515043
 21
3703.980546935768
 31
0.0
  0
LINE
  5
103
  8
2
 62
     7
 10
4621.5165546371691
 20
3676.8218949719399
 30
0.0
 11
4643.0183523515043
 21
3698.323692686276
 31
0.0
  0
LINE
  5
104
  8
2
 62
     7
 10
4621.5165546697126
 20
3671.1650407549928
 30
0.0
 11
4643.0183523515043
 21
3692.666838436784
 31
0.0
  0
LINE
  5
105
  8
2
 62
     7
 10
4621.5165547022589
 20
3665.5081865380462
 30
0.0
 11
4643.0183523515043
 21
3687.0099841872911
 31
0.0
  0
LINE
  5
106
  8
2
 62
     7
 10
4621.5165547348051
 20
3659.8513323210991
 30
0.0
 11
4643.0183523515043
 21
3681.3531299377992
 31
0.0
  0
LINE
  5
107
  8
2
 62
     7
 10
4621.5165547673514
 20
3654.194478104152
 30
0.0
 11
4643.0183523515043
 21
3675.6962756883058
 31
0.0
  0
LINE
  5
108
  8
2
 62
     7
 10
4621.5165547998949
 20
3648.5376238872059
 30
0.0
 11
4643.0183523515043
 21
3670.0394214388139
 31
0.0
  0
LINE
  5
109
  8
2
 62
     7
 10
4621.9174143642249
 20
3643.281629202043
 30
0.0
 11
4643.0183523515043
 21
3664.382567189321
 31
0.0
  0
LINE
  5
10A
  8
2
 62
     7
 10
4624.1455410845856
 20
3639.8529016729099
 30
0.0
 11
4643.0183523515043
 21
3658.7257129398281
 31
0.0
  0
LINE
  5
10B
  8
2
 62
     7
 10
4627.8970074332528
 20
3637.947513772086
 30
0.0
 11
4643.0183523515043
 21
3653.068858690337
 31
0.0
  0
LINE
  5
10C
  8
2
 62
     7
 10
4633.3879427422116
 20
3637.781594831552
 30
0.0
 11
4643.0183523515043
 21
3647.4120044408442
 31
0.0
  0
ENDBLK
  5
10D
  8
0
  0
BLOCK
  8
2
  2
*X9
 70
     1
 10
0.0
 20
0.0
 30
0.0
  3
*X9
  1

  0
LINE
  5
110
  8
2
 62
     7
 10
4521.9061523779874
 20
3752.5739744470229
 30
0.0
 11
4528.2221041730118
 21
3758.8899262420468
 31
0.0
  0
LINE
  5
111
  8
2
 62
     7
 10
4515.205151552128
 20
3740.2161193716711
 30
0.0
 11
4540.5799592483572
 21
3765.590927067899
 31
0.0
  0
LINE
  5
112
  8
2
 62
     7
 10
4513.5175379158791
 20
3732.8716514859289
 30
0.0
 11
4547.9244271341013
 21
3767.2785407041529
 31
0.0
  0
LINE
  5
113
  8
2
 62
     7
 10
4513.170501350849
 20
3726.8677606714082
 30
0.0
 11
4553.9283179529857
 21
3767.6255772735408
 31
0.0
  0
LINE
  5
114
  8
2
 62
     7
 10
4536.1079512383531
 20
3744.1483563094212
 30
0.0
 11
4559.5851722024781
 21
3767.6255772735431
 31
0.0
  0
LINE
  5
115
  8
2
 62
     7
 10
4513.1705013833944
 20
3721.2109064544611
 30
0.0
 11
4534.6722993531093
 21
3742.7127044241779
 31
0.0
  0
LINE
  5
116
  8
2
 62
     7
 10
4541.7648054878464
 20
3744.1483563094212
 30
0.0
 11
4565.2420264519697
 21
3767.6255772735431
 31
0.0
  0
LINE
  5
117
  8
2
 62
     7
 10
4513.1705014159397
 20
3715.554052237514
 30
0.0
 11
4534.6722993531093
 21
3737.0558501746832
 31
0.0
  0
LINE
  5
118
  8
2
 62
     7
 10
4547.421659737337
 20
3744.1483563094212
 30
0.0
 11
4570.8988807014621
 21
3767.6255772735431
 31
0.0
  0
LINE
  5
119
  8
2
 62
     7
 10
4513.1705014484851
 20
3709.8971980205661
 30
0.0
 11
4534.6722993531093
 21
3731.3989959251921
 31
0.0
  0
LINE
  5
11A
  8
2
 62
     7
 10
4553.0785139868294
 20
3744.1483563094212
 30
0.0
 11
4576.5557349509563
 21
3767.6255772735431
 31
0.0
  0
LINE
  5
11B
  8
2
 62
     7
 10
4513.1705014810286
 20
3704.2403438036208
 30
0.0
 11
4534.6722993531093
 21
3725.7421416756988
 31
0.0
  0
LINE
  5
11C
  8
2
 62
     7
 10
4558.7353682363228
 20
3744.1483563094212
 30
0.0
 11
4582.2125892004469
 21
3767.6255772735431
 31
0.0
  0
LINE
  5
11D
  8
2
 62
     7
 10
4513.1705015135758
 20
3698.5834895866728
 30
0.0
 11
4534.6722993531093
 21
3720.0852874262068
 31
0.0
  0
LINE
  5
11E
  8
2
 62
     7
 10
4564.3922224858152
 20
3744.1483563094212
 30
0.0
 11
4587.8694434499394
 21
3767.6255772735449
 31
0.0
  0
LINE
  5
11F
  8
2
 62
     7
 10
4513.1705015461212
 20
3692.9266353697258
 30
0.0
 11
4534.6860627110054
 21
3714.442196534605
 31
0.0
  0
LINE
  5
120
  8
2
 62
     7
 10
4570.0490767353076
 20
3744.1483563094212
 30
0.0
 11
4593.5262976994318
 21
3767.6255772735449
 31
0.0
  0
LINE
  5
121
  8
2
 62
     7
 10
4513.1705015786674
 20
3687.2697811527778
 30
0.0
 11
4540.342916960497
 21
3714.442196534605
 31
0.0
  0
LINE
  5
122
  8
2
 62
     7
 10
4575.7059309848
 20
3744.1483563094212
 30
0.0
 11
4599.0912038432916
 21
3767.53362916791
 31
0.0
  0
LINE
  5
123
  8
2
 62
     7
 10
4513.1705016112119
 20
3681.6129269358321
 30
0.0
 11
4545.9997712099894
 21
3714.442196534605
 31
0.0
  0
LINE
  5
124
  8
2
 62
     7
 10
4581.3627852342934
 20
3744.1483563094212
 30
0.0
 11
4602.6052884297314
 21
3765.390859504857
 31
0.0
  0
LINE
  5
125
  8
2
 62
     7
 10
4513.1705016437563
 20
3675.9560727188841
 30
0.0
 11
4551.6566254594818
 21
3714.442196534605
 31
0.0
  0
LINE
  5
126
  8
2
 62
     7
 10
4587.019639483784
 20
3744.1483563094212
 30
0.0
 11
4603.7891463836268
 21
3760.917863209263
 31
0.0
  0
LINE
  5
127
  8
2
 62
     7
 10
4513.1705016763026
 20
3670.299218501938
 30
0.0
 11
4557.3134797089751
 21
3714.4421965346069
 31
0.0
  0
LINE
  5
128
  8
2
 62
     7
 10
4592.6764937332782
 20
3744.1483563094212
 30
0.0
 11
4603.7891463836268
 21
3755.2610089597702
 31
0.0
  0
LINE
  5
129
  8
2
 62
     7
 10
4539.4931129943434
 20
3690.9649755704859
 30
0.0
 11
4562.9703339584667
 21
3714.4421965346069
 31
0.0
  0
LINE
  5
12A
  8
2
 62
     7
 10
4513.170501708848
 20
3664.6423642849891
 30
0.0
 11
4534.6722993531102
 21
3686.1441619292518
 31
0.0
  0
LINE
  5
12B
  8
2
 62
     7
 10
4598.3398634065034
 20
3744.154871733153
 30
0.0
 11
4603.782630959894
 21
3749.597639286545
 31
0.0
  0
LINE
  5
12C
  8
2
 62
     7
 10
4545.1499672438358
 20
3690.9649755704859
 30
0.0
 11
4568.62718820796
 21
3714.4421965346078
 31
0.0
  0
LINE
  5
12D
  8
2
 62
     7
 10
4513.1705017413933
 20
3658.9855100680429
 30
0.0
 11
4534.6722993531102
 21
3680.4873076797599
 31
0.0
  0
LINE
  5
12E
  8
2
 62
     7
 10
4550.8068214933282
 20
3690.9649755704859
 30
0.0
 11
4574.2840424574524
 21
3714.4421965346078
 31
0.0
  0
LINE
  5
12F
  8
2
 62
     7
 10
4513.1705017739396
 20
3653.3286558510958
 30
0.0
 11
4534.6722993531102
 21
3674.8304534302679
 31
0.0
  0
LINE
  5
130
  8
2
 62
     7
 10
4556.4636757428207
 20
3690.9649755704859
 30
0.0
 11
4579.9408967069439
 21
3714.4421965346091
 31
0.0
  0
LINE
  5
131
  8
2
 62
     7
 10
4513.170501806484
 20
3647.6718016341488
 30
0.0
 11
4534.6722993531102
 21
3669.1735991807759
 31
0.0
  0
LINE
  5
132
  8
2
 62
     7
 10
4562.1205299923131
 20
3690.9649755704859
 30
0.0
 11
4585.5977509564364
 21
3714.4421965346091
 31
0.0
  0
LINE
  5
133
  8
2
 62
     7
 10
4513.8079288886865
 20
3642.6523744668611
 30
0.0
 11
4534.6722993531102
 21
3663.516744931283
 31
0.0
  0
LINE
  5
134
  8
2
 62
     7
 10
4567.7773842418064
 20
3690.9649755704859
 30
0.0
 11
4591.2546052059288
 21
3714.44219653461
 31
0.0
  0
LINE
  5
135
  8
2
 62
     7
 10
4516.2705066687222
 20
3639.4580979974012
 30
0.0
 11
4538.0712244669921
 21
3661.2588157956729
 31
0.0
  0
LINE
  5
136
  8
2
 62
     7
 10
4573.434238491297
 20
3690.9649755704859
 30
0.0
 11
4596.9114594554221
 21
3714.44219653461
 31
0.0
  0
LINE
  5
137
  8
2
 62
     7
 10
4520.2987320910997
 20
3637.8294691702881
 30
0.0
 11
4543.7280787164837
 21
3661.2588157956729
 31
0.0
  0
LINE
  5
138
  8
2
 62
     7
 10
4579.0910927407886
 20
3690.9649755704859
 30
0.0
 11
4601.4574049139364
 21
3713.3312877436319
 31
0.0
  0
LINE
  5
139
  8
2
 62
     7
 10
4525.9077120018537
 20
3637.7815948315501
 30
0.0
 11
4549.384932965977
 21
3661.2588157956729
 31
0.0
  0
LINE
  5
13A
  8
2
 62
     7
 10
4584.7479469902819
 20
3690.9649755704859
 30
0.0
 11
4603.6695280262074
 21
3709.886556606411
 31
0.0
  0
LINE
  5
13B
  8
2
 62
     7
 10
4531.5645662513462
 20
3637.7815948315501
 30
0.0
 11
4555.0417872154676
 21
3661.2588157956729
 31
0.0
  0
LINE
  5
13C
  8
2
 62
     7
 10
4590.4048012397752
 20
3690.9649755704859
 30
0.0
 11
4603.7891463836258
 21
3704.349320714337
 31
0.0
  0
LINE
  5
13D
  8
2
 62
     7
 10
4537.2214205008404
 20
3637.7815948315501
 30
0.0
 11
4560.6986414649618
 21
3661.2588157956729
 31
0.0
  0
LINE
  5
13E
  8
2
 62
     7
 10
4596.0616554892677
 20
3690.9649755704859
 30
0.0
 11
4603.7891463836258
 21
3698.6924664648441
 31
0.0
  0
LINE
  5
13F
  8
2
 62
     7
 10
4542.878274750331
 20
3637.7815948315501
 30
0.0
 11
4566.3554957144534
 21
3661.2588157956729
 31
0.0
  0
LINE
  5
140
  8
2
 62
     7
 10
4548.5351289998234
 20
3637.7815948315501
 30
0.0
 11
4572.0123499639467
 21
3661.2588157956729
 31
0.0
  0
LINE
  5
141
  8
2
 62
     7
 10
4554.1919832493159
 20
3637.7815948315501
 30
0.0
 11
4577.6692042134391
 21
3661.2588157956729
 31
0.0
  0
LINE
  5
142
  8
2
 62
     7
 10
4559.8488374988083
 20
3637.7815948315501
 30
0.0
 11
4583.3260584629325
 21
3661.2588157956729
 31
0.0
  0
LINE
  5
143
  8
2
 62
     7
 10
4565.5056917483007
 20
3637.7815948315501
 30
0.0
 11
4588.9829127124231
 21
3661.2588157956729
 31
0.0
  0
LINE
  5
144
  8
2
 62
     7
 10
4571.1625459977922
 20
3637.7815948315501
 30
0.0
 11
4594.6397669619146
 21
3661.2588157956729
 31
0.0
  0
LINE
  5
145
  8
2
 62
     7
 10
4576.8194002472846
 20
3637.7815948315501
 30
0.0
 11
4599.9713425331129
 21
3660.9335371173761
 31
0.0
  0
LINE
  5
146
  8
2
 62
     7
 10
4582.476254496778
 20
3637.7815948315501
 30
0.0
 11
4603.0487997455639
 21
3658.354140080336
 31
0.0
  0
LINE
  5
147
  8
2
 62
     7
 10
4588.1331087462704
 20
3637.7815948315501
 30
0.0
 11
4603.7891463836258
 21
3653.4376324689069
 31
0.0
  0
LINE
  5
148
  8
2
 62
     7
 10
4593.7899629957628
 20
3637.7815948315501
 30
0.0
 11
4603.7891463836258
 21
3647.780778219415
 31
0.0
  0
LINE
  5
149
  8
2
 62
     7
 10
4599.677301321326
 20
3638.0120789076209
 30
0.0
 11
4603.558662307556
 21
3641.8934398938509
 31
0.0
  0
ENDBLK
  5
14A
  8
0
  0
BLOCK
  8
2
  2
*X10
 70
     1
 10
0.0
 20
0.0
 30
0.0
  3
*X10
  1

  0
LINE
  5
14D
  8
2
 62
     7
 10
4408.9038543668894
 20
3741.395052926785
 30
0.0
 11
4432.6889312203821
 21
3765.1801297802808
 31
0.0
  0
LINE
  5
14E
  8
2
 62
     7
 10
4406.9336995313633
 20
3733.7680438417678
 30
0.0
 11
4440.3159403054024
 21
3767.1502846158069
 31
0.0
  0
LINE
  5
14F
  8
2
 62
     7
 10
4406.4584977247869
 20
3727.6359877857012
 30
0.0
 11
4446.4479963614676
 21
3767.6254864223811
 31
0.0
  0
LINE
  5
150
  8
2
 62
     7
 10
4428.6277204979988
 20
3744.1483563094212
 30
0.0
 11
4452.104941462123
 21
3767.6255772735431
 31
0.0
  0
LINE
  5
151
  8
2
 62
     7
 10
4406.4584069061129
 20
3721.9790427175299
 30
0.0
 11
4427.9602048802481
 21
3743.48084069167
 31
0.0
  0
LINE
  5
152
  8
2
 62
     7
 10
4434.284574747493
 20
3744.1483563094212
 30
0.0
 11
4457.7617957116163
 21
3767.6255772735431
 31
0.0
  0
LINE
  5
153
  8
2
 62
     7
 10
4406.4584069386574
 20
3716.3221885005819
 30
0.0
 11
4427.9602048802481
 21
3737.823986442178
 31
0.0
  0
LINE
  5
154
  8
2
 62
     7
 10
4439.9414289969836
 20
3744.1483563094212
 30
0.0
 11
4463.4186499611078
 21
3767.6255772735431
 31
0.0
  0
LINE
  5
155
  8
2
 62
     7
 10
4406.4584069712037
 20
3710.6653342836348
 30
0.0
 11
4427.9602048802481
 21
3732.1671321926851
 31
0.0
  0
LINE
  5
156
  8
2
 62
     7
 10
4445.598283246477
 20
3744.1483563094212
 30
0.0
 11
4469.0755042106011
 21
3767.6255772735431
 31
0.0
  0
LINE
  5
157
  8
2
 62
     7
 10
4406.458407003749
 20
3705.0084800666882
 30
0.0
 11
4427.9602048802481
 21
3726.5102779431932
 31
0.0
  0
LINE
  5
158
  8
2
 62
     7
 10
4451.2551374959694
 20
3744.1483563094212
 30
0.0
 11
4474.7323584600927
 21
3767.6255772735431
 31
0.0
  0
LINE
  5
159
  8
2
 62
     7
 10
4406.4584070362953
 20
3699.351625849743
 30
0.0
 11
4427.9602048802481
 21
3720.8534236936998
 31
0.0
  0
LINE
  5
15A
  8
2
 62
     7
 10
4456.9119917454618
 20
3744.1483563094212
 30
0.0
 11
4480.389212709586
 21
3767.6255772735449
 31
0.0
  0
LINE
  5
15B
  8
2
 62
     7
 10
4406.4584070688388
 20
3693.694771632795
 30
0.0
 11
4427.9602048802481
 21
3715.1965694442069
 31
0.0
  0
LINE
  5
15C
  8
2
 62
     7
 10
4462.5688459949542
 20
3744.1483563094212
 30
0.0
 11
4486.0460669590784
 21
3767.6255772735449
 31
0.0
  0
LINE
  5
15D
  8
2
 62
     7
 10
4406.4584071013851
 20
3688.0379174158488
 30
0.0
 11
4427.9602048802481
 21
3709.539715194715
 31
0.0
  0
LINE
  5
15E
  8
2
 62
     7
 10
4468.2257002444458
 20
3744.1483563094212
 30
0.0
 11
4491.6929488577107
 21
3767.6156049226861
 31
0.0
  0
LINE
  5
15F
  8
2
 62
     7
 10
4406.4584071339314
 20
3682.3810631989031
 30
0.0
 11
4427.9602048802481
 21
3703.882860945223
 31
0.0
  0
LINE
  5
160
  8
2
 62
     7
 10
4473.8825544939391
 20
3744.1483563094212
 30
0.0
 11
4495.5410905905237
 21
3765.8068924060071
 31
0.0
  0
LINE
  5
161
  8
2
 62
     7
 10
4406.4584071664758
 20
3676.7242089819561
 30
0.0
 11
4427.9602048802481
 21
3698.226006695731
 31
0.0
  0
LINE
  5
162
  8
2
 62
     7
 10
4479.5394087434324
 20
3744.1483563094212
 30
0.0
 11
4497.0770519107627
 21
3761.6859994767519
 31
0.0
  0
LINE
  5
163
  8
2
 62
     7
 10
4406.4584071990203
 20
3671.067354765009
 30
0.0
 11
4427.9602048802481
 21
3692.5691524462381
 31
0.0
  0
LINE
  5
164
  8
2
 62
     7
 10
4485.1962629929239
 20
3744.1483563094212
 30
0.0
 11
4497.0770519107627
 21
3756.02914522726
 31
0.0
  0
LINE
  5
165
  8
2
 62
     7
 10
4406.4584072315674
 20
3665.4105005480628
 30
0.0
 11
4427.9602048802481
 21
3686.9122981967462
 31
0.0
  0
LINE
  5
166
  8
2
 62
     7
 10
4490.8531172424146
 20
3744.1483563094212
 30
0.0
 11
4497.0770519107627
 21
3750.372290977768
 31
0.0
  0
LINE
  5
167
  8
2
 62
     7
 10
4406.458407264111
 20
3659.7536463311149
 30
0.0
 11
4427.9602048802481
 21
3681.2554439472519
 31
0.0
  0
LINE
  5
168
  8
2
 62
     7
 10
4406.4584072966572
 20
3654.0967921141701
 30
0.0
 11
4427.9602048802481
 21
3675.5985896977609
 31
0.0
  0
LINE
  5
169
  8
2
 62
     7
 10
4406.4584073292026
 20
3648.4399378972221
 30
0.0
 11
4427.9602048802481
 21
3669.941735448268
 31
0.0
  0
LINE
  5
16A
  8
2
 62
     7
 10
4406.8837576691194
 20
3643.208433987646
 30
0.0
 11
4427.9602048802481
 21
3664.284881198776
 31
0.0
  0
LINE
  5
16B
  8
2
 62
     7
 10
4409.1389226449437
 20
3639.8067447139811
 30
0.0
 11
4430.5909937266379
 21
3661.2588157956729
 31
0.0
  0
LINE
  5
16C
  8
2
 62
     7
 10
4412.9200314306063
 20
3637.9309992501499
 30
0.0
 11
4436.2478479761294
 21
3661.2588157956729
 31
0.0
  0
LINE
  5
16D
  8
2
 62
     7
 10
4418.4274812614976
 20
3637.7815948315488
 30
0.0
 11
4441.9047022256227
 21
3661.2588157956729
 31
0.0
  0
LINE
  5
16E
  8
2
 62
     7
 10
4424.0843355109901
 20
3637.7815948315488
 30
0.0
 11
4447.5615564751151
 21
3661.2588157956729
 31
0.0
  0
LINE
  5
16F
  8
2
 62
     7
 10
4429.7411897604816
 20
3637.7815948315488
 30
0.0
 11
4453.2184107246076
 21
3661.2588157956729
 31
0.0
  0
LINE
  5
170
  8
2
 62
     7
 10
4435.398044009974
 20
3637.7815948315488
 30
0.0
 11
4458.8752649741
 21
3661.2588157956729
 31
0.0
  0
LINE
  5
171
  8
2
 62
     7
 10
4441.0548982594673
 20
3637.7815948315488
 30
0.0
 11
4464.5321192235924
 21
3661.2588157956729
 31
0.0
  0
LINE
  5
172
  8
2
 62
     7
 10
4446.7117525089589
 20
3637.7815948315488
 30
0.0
 11
4470.1889734730839
 21
3661.2588157956729
 31
0.0
  0
LINE
  5
173
  8
2
 62
     7
 10
4452.3686067584522
 20
3637.7815948315488
 30
0.0
 11
4475.8458277225773
 21
3661.2588157956729
 31
0.0
  0
LINE
  5
174
  8
2
 62
     7
 10
4458.0254610079437
 20
3637.7815948315488
 30
0.0
 11
4481.5026819720697
 21
3661.2588157956729
 31
0.0
  0
LINE
  5
175
  8
2
 62
     7
 10
4463.682315257437
 20
3637.7815948315488
 30
0.0
 11
4487.1595362215621
 21
3661.2588157956729
 31
0.0
  0
LINE
  5
176
  8
2
 62
     7
 10
4469.3391695069286
 20
3637.7815948315488
 30
0.0
 11
4492.665042172378
 21
3661.1074674969968
 31
0.0
  0
LINE
  5
177
  8
2
 62
     7
 10
4474.996023756421
 20
3637.7815948315488
 30
0.0
 11
4496.0395462934093
 21
3658.8251173685371
 31
0.0
  0
LINE
  5
178
  8
2
 62
     7
 10
4480.6528780059134
 20
3637.7815948315488
 30
0.0
 11
4497.0770519107637
 21
3654.2057687363981
 31
0.0
  0
LINE
  5
179
  8
2
 62
     7
 10
4486.3097322554058
 20
3637.7815948315488
 30
0.0
 11
4497.0770519107637
 21
3648.5489144869048
 31
0.0
  0
LINE
  5
17A
  8
2
 62
     7
 10
4492.0032390106044
 20
3637.818247337254
 30
0.0
 11
4497.0403994050621
 21
3642.8554077317131
 31
0.0
  0
ENDBLK
  5
17B
  8
0
  0
BLOCK
  8
2
  2
*D11
 70
     1
 10
0.0
 20
0.0
 30
0.0
  3
*D11
  1

  0
LINE
  5
17E
  8
2
 62
     7
 10
6472.0419015978123
 20
4937.3515294525923
 30
0.0
 11
6472.0419015978123
 21
4857.3515294525932
 31
0.0
  0
LINE
  5
17F
  8
2
 62
     7
 10
6472.0419015978123
 20
5017.3506358380992
 30
0.0
 11
6472.0419015978123
 21
4937.3515294525923
 31
0.0
  0
LINE
  5
180
  8
2
 62
     7
 10
6472.0419015978123
 20
5097.3506358380982
 30
0.0
 11
6472.0419015978123
 21
5017.3506358380992
 31
0.0
  0
LINE
  5
181
  8
2
 62
     7
 10
6595.0426676568504
 20
4937.3515294525923
 30
0.0
 11
6452.0419015978123
 21
4937.3515294525923
 31
0.0
  0
LINE
  5
182
  8
2
 62
     7
 10
6595.0426673345692
 20
5017.3506358380992
 30
0.0
 11
6452.0419015978123
 21
5017.3506358380992
 31
0.0
  0
SOLID
  5
183
  8
2
 62
     7
 10
6472.0419015978123
 20
5017.3506358380992
 30
0.0
 11
6466.8419015978134
 21
5057.3506358380982
 31
0.0
 12
6477.2419015978112
 22
5057.3506358380982
 32
0.0
 13
6477.2419015978112
 23
5057.3506358380982
 33
0.0
  0
SOLID
  5
184
  8
2
 62
     7
 10
6472.0419015978123
 20
4937.3515294525923
 30
0.0
 11
6477.2419015978112
 21
4897.3515294525923
 31
0.0
 12
6466.8419015978134
 22
4897.3515294525923
 32
0.0
 13
6466.8419015978134
 23
4897.3515294525923
 33
0.0
  0
TEXT
  5
185
  8
2
 62
     7
 10
6457.0419015978114
 20
4948.6204276584167
 30
0.0
 40
40.0
  1
80
 50
90.0
 41
0.9
  0
ENDBLK
  5
186
  8
0
  0
BLOCK
  8
2
  2
*D12
 70
     1
 10
0.0
 20
0.0
 30
0.0
  3
*D12
  1

  0
LINE
  5
189
  8
2
 62
     7
 10
4632.0509154376323
 20
6627.3526358380959
 30
0.0
 11
4632.0509154376323
 21
6877.3506358380982
 31
0.0
  0
LINE
  5
18A
  8
2
 62
     7
 10
4832.0509154376323
 20
6877.3506358380982
 30
0.0
 11
4612.0509154376323
 21
6877.3506358380982
 31
0.0
  0
LINE
  5
18B
  8
2
 62
     7
 10
4832.0509154376323
 20
6627.3526358380959
 30
0.0
 11
4612.0509154376323
 21
6627.3526358380959
 31
0.0
  0
SOLID
  5
18C
  8
2
 62
     7
 10
4632.0509154376323
 20
6627.3526358380959
 30
0.0
 11
4626.8509154376334
 21
6667.3526358380968
 31
0.0
 12
4637.2509154376321
 22
6667.3526358380968
 32
0.0
 13
4637.2509154376321
 23
6667.3526358380968
 33
0.0
  0
SOLID
  5
18D
  8
2
 62
     7
 10
4632.0509154376323
 20
6877.3506358380982
 30
0.0
 11
4637.2509154376321
 21
6837.3506358380982
 31
0.0
 12
4626.8509154376334
 22
6837.3506358380982
 32
0.0
 13
4626.8509154376334
 23
6837.3506358380982
 33
0.0
  0
TEXT
  5
18E
  8
2
 62
     7
 10
4617.0509154376332
 20
6704.3506358380982
 30
0.0
 40
40.0
  1
250
 50
90.0
 41
0.9
  0
ENDBLK
  5
18F
  8
0
  0
BLOCK
  8
2
  2
*D13
 70
     1
 10
0.0
 20
0.0
 30
0.0
  3
*D13
  1

  0
LINE
  5
192
  8
2
 62
     7
 10
4732.0509154376341
 20
6842.3866358380992
 30
0.0
 11
4732.0509154376341
 21
6662.3238386085213
 31
0.0
  0
LINE
  5
193
  8
2
 62
     7
 10
4964.9775587989379
 20
6662.3238386085213
 30
0.0
 11
4712.0509154376341
 21
6662.3238386085213
 31
0.0
  0
LINE
  5
194
  8
2
 62
     7
 10
4965.0219154376346
 20
6842.3866358380992
 30
0.0
 11
4712.0509154376341
 21
6842.3866358380992
 31
0.0
  0
SOLID
  5
195
  8
2
 62
     7
 10
4732.0509154376341
 20
6842.3866358380992
 30
0.0
 11
4737.250915437633
 21
6802.3866358380983
 31
0.0
 12
4726.8509154376343
 22
6802.3866358380983
 32
0.0
 13
4726.8509154376343
 23
6802.3866358380983
 33
0.0
  0
SOLID
  5
196
  8
2
 62
     7
 10
4732.0509154376341
 20
6662.3238386085213
 30
0.0
 11
4726.8509154376343
 21
6702.3238386085213
 31
0.0
 12
4737.250915437633
 22
6702.3238386085213
 32
0.0
 13
4737.250915437633
 23
6702.3238386085213
 33
0.0
  0
TEXT
  5
197
  8
2
 62
     7
 10
4717.0509154376341
 20
6711.3020754190056
 30
0.0
 40
40.0
  1
180
 50
90.0
 41
0.9
  0
ENDBLK
  5
198
  8
0
  0
BLOCK
  8
2
  2
*D14
 70
     1
 10
0.0
 20
0.0
 30
0.0
  3
*D14
  1

  0
LINE
  5
19B
  8
2
 62
     7
 10
5522.0519154376334
 20
6752.3516358380966
 30
0.0
 11
5522.0519154376334
 21
6877.3506358381019
 31
0.0
  0
LINE
  5
19C
  8
2
 62
     7
 10
5422.0519154376334
 20
6877.3506358381019
 30
0.0
 11
5542.0519154376334
 21
6877.3506358381019
 31
0.0
  0
LINE
  5
19D
  8
2
 62
     7
 10
5451.0910208182386
 20
6752.3516358380966
 30
0.0
 11
5542.0519154376334
 21
6752.3516358380966
 31
0.0
  0
SOLID
  5
19E
  8
2
 62
     7
 10
5522.0519154376334
 20
6752.3516358380966
 30
0.0
 11
5516.8519154376336
 21
6792.3516358380957
 31
0.0
 12
5527.2519154376332
 22
6792.3516358380957
 32
0.0
 13
5527.2519154376332
 23
6792.3516358380957
 33
0.0
  0
SOLID
  5
19F
  8
2
 62
     7
 10
5522.0519154376334
 20
6877.3506358381019
 30
0.0
 11
5527.2519154376332
 21
6837.350635838101
 31
0.0
 12
5516.8519154376336
 22
6837.350635838101
 32
0.0
 13
5516.8519154376336
 23
6837.350635838101
 33
0.0
  0
TEXT
  5
1A0
  8
2
 62
     7
 10
5507.0519154376334
 20
6774.5359071671
 30
0.0
 40
40.0
  1
125
 50
90.0
 41
0.9
  0
ENDBLK
  5
1A1
  8
0
  0
BLOCK
  8
2
  2
*D15
 70
     1
 10
0.0
 20
0.0
 30
0.0
  3
*D15
  1

  0
LINE
  5
1A4
  8
2
 62
     7
 10
4832.0509154376323
 20
6357.3526358380977
 30
0.0
 11
5422.0519154376334
 21
6357.3526358380977
 31
0.0
  0
LINE
  5
1A5
  8
2
 62
     7
 10
5422.0519154376334
 20
6627.3526358380959
 30
0.0
 11
5422.0519154376334
 21
6337.3526358380968
 31
0.0
  0
LINE
  5
1A6
  8
2
 62
     7
 10
4832.0509154376323
 20
6627.3526358380959
 30
0.0
 11
4832.0509154376323
 21
6337.3526358380968
 31
0.0
  0
SOLID
  5
1A7
  8
2
 62
     7
 10
4832.0509154376323
 20
6357.3526358380977
 30
0.0
 11
4872.0509154376332
 21
6362.5526358380994
 31
0.0
 12
4872.0509154376332
 22
6352.1526358380979
 32
0.0
 13
4872.0509154376332
 23
6352.1526358380979
 33
0.0
  0
SOLID
  5
1A8
  8
2
 62
     7
 10
5422.0519154376334
 20
6357.3526358380977
 30
0.0
 11
5382.0519154376334
 21
6352.1526358380979
 31
0.0
 12
5382.0519154376334
 22
6362.5526358380994
 32
0.0
 13
5382.0519154376334
 23
6362.5526358380994
 33
0.0
  0
TEXT
  5
1A9
  8
2
 62
     7
 10
5079.0519154376334
 20
6372.3526358380968
 30
0.0
 40
40.0
  1
590
 41
0.9
  0
ENDBLK
  5
1AA
  8
0
  0
BLOCK
  8
2
  2
*D16
 70
     1
 10
0.0
 20
0.0
 30
0.0
  3
*D16
  1

  0
LINE
  5
1AD
  8
2
 62
     7
 10
5142.0459154376322
 20
6997.3506358380973
 30
0.0
 11
5262.0810254376302
 21
6997.3506358380973
 31
0.0
  0
LINE
  5
1AE
  8
2
 62
     7
 10
5262.0810254376302
 20
6839.3886358380942
 30
0.0
 11
5262.0810254376302
 21
7017.3506358380982
 31
0.0
  0
LINE
  5
1AF
  8
2
 62
     7
 10
5142.0459154376322
 20
6895.9426050264401
 30
0.0
 11
5142.0459154376322
 21
7017.3506358380982
 31
0.0
  0
CIRCLE
  5
1B0
  8
2
 62
     7
 10
5142.0459154376322
 20
6997.3506358380973
 30
0.0
 40
10.0
  0
CIRCLE
  5
1B1
  8
2
 62
     7
 10
5262.0810254376302
 20
6997.3506358380973
 30
0.0
 40
10.0
  0
TEXT
  5
1B2
  8
2
 62
     7
 10
5159.5548789441154
 20
7012.3506358380982
 30
0.0
 40
40.0
  1
120
 41
0.9
  0
ENDBLK
  5
1B3
  8
0
  0
BLOCK
  8
2
  2
*D17
 70
     1
 10
0.0
 20
0.0
 30
0.0
  3
*D17
  1

  0
LINE
  5
1B6
  8
2
 62
     7
 10
5302.0512797247666
 20
6997.3506358380973
 30
0.0
 11
5412.3944747289643
 21
6997.3506358380973
 31
0.0
  0
LINE
  5
1B7
  8
2
 62
     7
 10
5262.0810254376302
 20
6997.3506358380973
 30
0.0
 11
5302.0512797247666
 21
6997.3506358380973
 31
0.0
  0
LINE
  5
1B8
  8
2
 62
     7
 10
5302.0512797247666
 20
6787.6706358380943
 30
0.0
 11
5302.0512797247666
 21
7017.3506358380982
 31
0.0
  0
LINE
  5
1B9
  8
2
 62
     7
 10
5262.0810254376302
 20
6839.3886358380942
 30
0.0
 11
5262.0810254376302
 21
7017.3506358380982
 31
0.0
  0
CIRCLE
  5
1BA
  8
2
 62
     7
 10
5262.0810254376302
 20
6997.3506358380973
 30
0.0
 40
10.0
  0
SOLID
  5
1BB
  8
2
 62
     7
 10
5302.0512797247666
 20
6997.3506358380973
 30
0.0
 11
5342.0512797247666
 21
7002.5506358380981
 31
0.0
 12
5342.0512797247666
 22
6992.1506358380984
 32
0.0
 13
5342.0512797247666
 23
6992.1506358380984
 33
0.0
  0
TEXT
  5
1BC
  8
2
 62
     7
 10
5352.3944747289643
 20
7012.3506358380982
 30
0.0
 40
40.0
  1
40
 41
0.9
  0
ENDBLK
  5
1BD
  8
0
  0
BLOCK
  8
2
  2
*D18
 70
     1
 10
0.0
 20
0.0
 30
0.0
  3
*D18
  1

  0
LINE
  5
1C0
  8
2
 62
     7
 10
4532.0509154376332
 20
4277.3506358380982
 30
0.0
 11
4532.0509154376332
 21
5077.3521028479536
 31
0.0
  0
LINE
  5
1C1
  8
2
 62
     7
 10
4963.9888096227542
 20
5077.3521028479536
 30
0.0
 11
4512.0509154376332
 21
5077.3521028479536
 31
0.0
  0
LINE
  5
1C2
  8
2
 62
     7
 10
4811.0419254376329
 20
4277.3506358380982
 30
0.0
 11
4512.0509154376332
 21
4277.3506358380982
 31
0.0
  0
SOLID
  5
1C3
  8
2
 62
     7
 10
4532.0509154376332
 20
4277.3506358380982
 30
0.0
 11
4526.8509154376334
 21
4317.3506358380982
 31
0.0
 12
4537.250915437633
 22
4317.3506358380982
 32
0.0
 13
4537.250915437633
 23
4317.3506358380982
 33
0.0
  0
SOLID
  5
1C4
  8
2
 62
     7
 10
4532.0509154376332
 20
5077.3521028479536
 30
0.0
 11
4537.250915437633
 21
5037.3521028479536
 31
0.0
 12
4526.8509154376334
 22
5037.3521028479536
 32
0.0
 13
4526.8509154376334
 23
5037.3521028479536
 33
0.0
  0
TEXT
  5
1C5
  8
2
 62
     7
 10
4517.0509154376332
 20
4639.3506358380982
 30
0.0
 40
40.0
  1
800
 50
90.0
 41
0.9
  0
ENDBLK
  5
1C6
  8
0
  0
BLOCK
  8
2
  2
*D19
 70
     1
 10
0.0
 20
0.0
 30
0.0
  3
*D19
  1

  0
LINE
  5
1C9
  8
2
 62
     7
 10
5622.0519154376343
 20
5017.3506358380992
 30
0.0
 11
5622.0519154376343
 21
4277.3506358380982
 31
0.0
  0
LINE
  5
1CA
  8
2
 62
     7
 10
5473.043925437637
 20
4277.3506358380982
 30
0.0
 11
5642.0519154376334
 21
4277.3506358380982
 31
0.0
  0
LINE
  5
1CB
  8
2
 62
     7
 10
5422.0519154376343
 20
5017.3506358380992
 30
0.0
 11
5642.0519154376334
 21
5017.3506358380992
 31
0.0
  0
SOLID
  5
1CC
  8
2
 62
     7
 10
5622.0519154376343
 20
5017.3506358380992
 30
0.0
 11
5627.2519154376332
 21
4977.3506358380992
 31
0.0
 12
5616.8519154376354
 22
4977.3506358380992
 32
0.0
 13
5616.8519154376354
 23
4977.3506358380992
 33
0.0
  0
SOLID
  5
1CD
  8
2
 62
     7
 10
5622.0519154376343
 20
4277.3506358380982
 30
0.0
 11
5616.8519154376354
 21
4317.3506358380982
 31
0.0
 12
5627.2519154376332
 22
4317.3506358380982
 32
0.0
 13
5627.2519154376332
 23
4317.3506358380982
 33
0.0
  0
TEXT
  5
1CE
  8
2
 62
     7
 10
5607.0519154376334
 20
4604.3506358380973
 30
0.0
 40
40.0
  1
740
 50
90.0
 41
0.9
  0
ENDBLK
  5
1CF
  8
0
  0
BLOCK
  8
2
  2
*D20
 70
     1
 10
0.0
 20
0.0
 30
0.0
  3
*D20
  1

  0
LINE
  5
1D2
  8
2
 62
     7
 10
5622.0519154376343
 20
5077.3521025850896
 30
0.0
 11
5622.0519154376343
 21
5189.9057363201573
 31
0.0
  0
LINE
  5
1D3
  8
2
 62
     7
 10
5622.0519154376343
 20
5017.3506358380992
 30
0.0
 11
5622.0519154376343
 21
5077.3521025850896
 31
0.0
  0
LINE
  5
1D4
  8
2
 62
     7
 10
5622.0519154376343
 20
4937.3506358380982
 30
0.0
 11
5622.0519154376343
 21
5017.3506358380992
 31
0.0
  0
LINE
  5
1D5
  8
2
 62
     7
 10
5260.0725232423511
 20
5077.3521025850896
 30
0.0
 11
5642.0519154376334
 21
5077.3521025850896
 31
0.0
  0
LINE
  5
1D6
  8
2
 62
     7
 10
5422.0519154376343
 20
5017.3506358380992
 30
0.0
 11
5642.0519154376334
 21
5017.3506358380992
 31
0.0
  0
SOLID
  5
1D7
  8
2
 62
     7
 10
5622.0519154376343
 20
5017.3506358380992
 30
0.0
 11
5627.2519154376332
 21
4977.3506358380992
 31
0.0
 12
5616.8519154376354
 22
4977.3506358380992
 32
0.0
 13
5616.8519154376354
 23
4977.3506358380992
 33
0.0
  0
SOLID
  5
1D8
  8
2
 62
     7
 10
5622.0519154376343
 20
5077.3521025850896
 30
0.0
 11
5616.8519154376354
 21
5117.3521025850896
 31
0.0
 12
5627.2519154376332
 22
5117.3521025850896
 32
0.0
 13
5627.2519154376332
 23
5117.3521025850896
 33
0.0
  0
TEXT
  5
1D9
  8
2
 62
     7
 10
5607.0519154376334
 20
5129.9057363201573
 30
0.0
 40
40.0
  1
60
 50
90.0
 41
0.9
  0
ENDBLK
  5
1DA
  8
0
  0
BLOCK
  8
2
  2
*D21
 70
     1
 10
0.0
 20
0.0
 30
0.0
  3
*D21
  1

  0
LINE
  5
1DD
  8
2
 62
     7
 10
4732.0509154376332
 20
5077.3521028479536
 30
0.0
 11
4732.0509154376332
 21
4940.3500887010714
 31
0.0
  0
LINE
  5
1DE
  8
2
 62
     7
 10
5110.0269154376356
 20
4940.3500887010714
 30
0.0
 11
4712.0509154376332
 21
4940.3500887010714
 31
0.0
  0
LINE
  5
1DF
  8
2
 62
     7
 10
4963.9888096227542
 20
5077.3521028479536
 30
0.0
 11
4712.0509154376332
 21
5077.3521028479536
 31
0.0
  0
SOLID
  5
1E0
  8
2
 62
     7
 10
4732.0509154376332
 20
5077.3521028479536
 30
0.0
 11
4737.250915437633
 21
5037.3521028479536
 31
0.0
 12
4726.8509154376334
 22
5037.3521028479536
 32
0.0
 13
4726.8509154376334
 23
5037.3521028479536
 33
0.0
  0
SOLID
  5
1E1
  8
2
 62
     7
 10
4732.0509154376332
 20
4940.3500887010714
 30
0.0
 11
4726.8509154376334
 21
4980.3500887010714
 31
0.0
 12
4737.250915437633
 22
4980.3500887010714
 32
0.0
 13
4737.250915437633
 23
4980.3500887010714
 33
0.0
  0
TEXT
  5
1E2
  8
2
 62
     7
 10
4717.0509154376332
 20
4969.7865893309681
 30
0.0
 40
40.0
  1
137
 50
90.0
 41
0.9
  0
ENDBLK
  5
1E3
  8
0
  0
BLOCK
  8
2
  2
*D22
 70
     1
 10
0.0
 20
0.0
 30
0.0
  3
*D22
  1

  0
LINE
  5
1E6
  8
2
 62
     7
 10
6962.045915437634
 20
4277.3506358381019
 30
0.0
 11
6962.045915437634
 21
4884.3484615875268
 31
0.0
  0
LINE
  5
1E7
  8
2
 62
     7
 10
6874.309420109681
 20
4884.3484615875268
 30
0.0
 11
6982.045915437634
 21
4884.3484615875268
 31
0.0
  0
LINE
  5
1E8
  8
2
 62
     7
 10
6842.0459154376404
 20
4277.3506358381019
 30
0.0
 11
6982.045915437634
 21
4277.3506358381019
 31
0.0
  0
SOLID
  5
1E9
  8
2
 62
     7
 10
6962.045915437634
 20
4277.3506358381019
 30
0.0
 11
6956.8459154376342
 21
4317.3506358381019
 31
0.0
 12
6967.2459154376356
 22
4317.3506358381019
 32
0.0
 13
6967.2459154376356
 23
4317.3506358381019
 33
0.0
  0
SOLID
  5
1EA
  8
2
 62
     7
 10
6962.045915437634
 20
4884.3484615875268
 30
0.0
 11
6967.2459154376356
 21
4844.3484615875268
 31
0.0
 12
6956.8459154376342
 22
4844.3484615875268
 32
0.0
 13
6956.8459154376342
 23
4844.3484615875268
 33
0.0
  0
TEXT
  5
1EB
  8
2
 62
     7
 10
6947.045915437634
 20
4454.9838281885341
 30
0.0
 40
40.0
  1
607
 50
90.0
 41
0.9
  0
ENDBLK
  5
1EC
  8
0
  0
BLOCK
  8
2
  2
*D23
 70
     1
 10
0.0
 20
0.0
 30
0.0
  3
*D23
  1

  0
LINE
  5
1EF
  8
2
 62
     7
 10
6962.045915437634
 20
4944.3485675558613
 30
0.0
 11
6962.045915437634
 21
5076.5671691067782
 31
0.0
  0
LINE
  5
1F0
  8
2
 62
     7
 10
6962.045915437634
 20
4884.3484615875268
 30
0.0
 11
6962.045915437634
 21
4944.3485675558613
 31
0.0
  0
LINE
  5
1F1
  8
2
 62
     7
 10
6962.045915437634
 20
4804.3484615875268
 30
0.0
 11
6962.045915437634
 21
4884.3484615875268
 31
0.0
  0
LINE
  5
1F2
  8
2
 62
     7
 10
6874.3101825728027
 20
4944.3485675558613
 30
0.0
 11
6982.045915437634
 21
4944.3485675558613
 31
0.0
  0
LINE
  5
1F3
  8
2
 62
     7
 10
6874.309420109681
 20
4884.3484615875268
 30
0.0
 11
6982.045915437634
 21
4884.3484615875268
 31
0.0
  0
SOLID
  5
1F4
  8
2
 62
     7
 10
6962.045915437634
 20
4884.3484615875268
 30
0.0
 11
6967.2459154376356
 21
4844.3484615875268
 31
0.0
 12
6956.8459154376342
 22
4844.3484615875268
 32
0.0
 13
6956.8459154376342
 23
4844.3484615875268
 33
0.0
  0
CIRCLE
  5
1F5
  8
2
 62
     7
 10
6962.045915437634
 20
4944.3485675558613
 30
0.0
 40
10.0
  0
TEXT
  5
1F6
  8
2
 62
     7
 10
7047.2274955204648
 20
5016.5671691067782
 30
0.0
 40
40.0
  1
60
 50
90.0
 41
0.9
  0
ENDBLK
  5
1F7
  8
0
  0
BLOCK
  8
2
  2
*D24
 70
     1
 10
0.0
 20
0.0
 30
0.0
  3
*D24
  1

  0
LINE
  5
1FA
  8
2
 62
     7
 10
6962.045915437634
 20
4969.3497475558634
 30
0.0
 11
6962.045915437634
 21
5096.7840487156182
 31
0.0
  0
LINE
  5
1FB
  8
2
 62
     7
 10
6962.045915437634
 20
4944.3485675558613
 30
0.0
 11
6962.045915437634
 21
4969.3497475558634
 31
0.0
  0
LINE
  5
1FC
  8
2
 62
     7
 10
6874.309419699347
 20
4969.3497475558634
 30
0.0
 11
6982.045915437634
 21
4969.3497475558634
 31
0.0
  0
LINE
  5
1FD
  8
2
 62
     7
 10
6874.3101825728027
 20
4944.3485675558613
 30
0.0
 11
6982.045915437634
 21
4944.3485675558613
 31
0.0
  0
CIRCLE
  5
1FE
  8
2
 62
     7
 10
6962.045915437634
 20
4944.3485675558613
 30
0.0
 40
10.0
  0
SOLID
  5
1FF
  8
2
 62
     7
 10
6962.045915437634
 20
4969.3497475558634
 30
0.0
 11
6956.8459154376342
 21
5009.3497475558634
 31
0.0
 12
6967.2459154376356
 22
5009.3497475558634
 32
0.0
 13
6967.2459154376356
 23
5009.3497475558634
 33
0.0
  0
TEXT
  5
200
  8
2
 62
     7
 10
6947.045915437634
 20
5036.7840487156182
 30
0.0
 40
40.0
  1
25
 50
90.0
 41
0.9
  0
ENDBLK
  5
201
  8
0
  0
BLOCK
  8
2
  2
*D25
 70
     1
 10
0.0
 20
0.0
 30
0.0
  3
*D25
  1

  0
LINE
  5
204
  8
2
 62
     7
 10
5242.0459154376322
 20
4570.3506358380992
 30
0.0
 11
5322.0459154376322
 21
4570.3506358380992
 31
0.0
  0
LINE
  5
205
  8
2
 62
     7
 10
5142.0459154376358
 20
4570.3506358380992
 30
0.0
 11
5242.0459154376322
 21
4570.3506358380992
 31
0.0
  0
LINE
  5
206
  8
2
 62
     7
 10
4905.9211087668227
 20
4570.3506358380992
 30
0.0
 11
5142.0459154376358
 21
4570.3506358380992
 31
0.0
  0
LINE
  5
207
  8
2
 62
     7
 10
5242.0459154376322
 20
4664.4021225267052
 30
0.0
 11
5242.0459154376322
 21
4550.3506358381001
 31
0.0
  0
LINE
  5
208
  8
2
 62
     7
 10
5142.0459154376358
 20
4702.7363743695132
 30
0.0
 11
5142.0459154376358
 21
4550.3506358381001
 31
0.0
  0
SOLID
  5
209
  8
2
 62
     7
 10
5142.0459154376358
 20
4570.3506358380992
 30
0.0
 11
5102.0459154376358
 21
4565.1506358381002
 31
0.0
 12
5102.0459154376358
 22
4575.5506358380999
 32
0.0
 13
5102.0459154376358
 23
4575.5506358380999
 33
0.0
  0
SOLID
  5
20A
  8
2
 62
     7
 10
5242.0459154376322
 20
4570.3506358380992
 30
0.0
 11
5282.0459154376322
 21
4575.5506358380999
 31
0.0
 12
5282.0459154376322
 22
4565.1506358381002
 32
0.0
 13
5282.0459154376322
 23
4565.1506358381002
 33
0.0
  0
TEXT
  5
20B
  8
2
 62
     7
 10
5001.4766643223784
 20
4585.3506358381001
 30
0.0
 40
40.0
  1
100
 41
0.9
  0
TEXT
  5
20C
  8
2
 62
     7
 10
4905.9211087668227
 20
4585.3506358381001
 30
0.0
 40
40.0
  1
給水
 41
0.9
  0
ENDBLK
  5
20D
  8
0
  0
BLOCK
  8
2
  2
*D26
 70
     1
 10
0.0
 20
0.0
 30
0.0
  3
*D26
  1

  0
LINE
  5
210
  8
2
 62
     7
 10
4832.0509154376332
 20
4157.3506358380982
 30
0.0
 11
4696.8880833378789
 21
4157.3506358380982
 31
0.0
  0
LINE
  5
211
  8
2
 62
     7
 10
4892.0509154376341
 20
4157.3506358380982
 30
0.0
 11
4832.0509154376332
 21
4157.3506358380982
 31
0.0
  0
LINE
  5
212
  8
2
 62
     7
 10
4972.0509154376341
 20
4157.3506358380982
 30
0.0
 11
4892.0509154376341
 21
4157.3506358380982
 31
0.0
  0
LINE
  5
213
  8
2
 62
     7
 10
4832.0509154376332
 20
4937.3515358380982
 30
0.0
 11
4832.0509154376332
 21
4137.3506358380992
 31
0.0
  0
LINE
  5
214
  8
2
 62
     7
 10
4892.0509154376341
 20
4849.8329953713701
 30
0.0
 11
4892.0509154376341
 21
4137.3506358380992
 31
0.0
  0
SOLID
  5
215
  8
2
 62
     7
 10
4892.0509154376341
 20
4157.3506358380982
 30
0.0
 11
4932.0509154376341
 21
4162.5506358380981
 31
0.0
 12
4932.0509154376341
 22
4152.1506358380984
 32
0.0
 13
4932.0509154376341
 23
4152.1506358380984
 33
0.0
  0
SOLID
  5
216
  8
2
 62
     7
 10
4832.0509154376332
 20
4157.3506358380982
 30
0.0
 11
4792.0509154376332
 21
4152.1506358380984
 31
0.0
 12
4792.0509154376332
 22
4162.5506358380981
 32
0.0
 13
4792.0509154376332
 23
4162.5506358380981
 33
0.0
  0
TEXT
  5
217
  8
2
 62
     7
 10
4696.8880833378789
 20
4172.3506358380982
 30
0.0
 40
40.0
  1
60
 41
0.9
  0
ENDBLK
  5
218
  8
0
  0
BLOCK
  8
2
  2
*D27
 70
     1
 10
0.0
 20
0.0
 30
0.0
  3
*D27
  1

  0
LINE
  5
21B
  8
2
 62
     7
 10
5422.0519154376343
 20
4157.3506358380982
 30
0.0
 11
5551.9381127503839
 21
4157.3506358380982
 31
0.0
  0
LINE
  5
21C
  8
2
 62
     7
 10
5362.0519154376352
 20
4157.3506358380982
 30
0.0
 11
5422.0519154376343
 21
4157.3506358380982
 31
0.0
  0
LINE
  5
21D
  8
2
 62
     7
 10
5282.0519154376343
 20
4157.3506358380982
 30
0.0
 11
5362.0519154376352
 21
4157.3506358380982
 31
0.0
  0
LINE
  5
21E
  8
2
 62
     7
 10
5422.0519154376343
 20
4937.3515358380982
 30
0.0
 11
5422.0519154376343
 21
4137.3506358380992
 31
0.0
  0
LINE
  5
21F
  8
2
 62
     7
 10
5362.0519154376352
 20
4849.8329953713701
 30
0.0
 11
5362.0519154376352
 21
4137.3506358380992
 31
0.0
  0
SOLID
  5
220
  8
2
 62
     7
 10
5362.0519154376352
 20
4157.3506358380982
 30
0.0
 11
5322.0519154376352
 21
4152.1506358380984
 31
0.0
 12
5322.0519154376352
 22
4162.5506358380981
 32
0.0
 13
5322.0519154376352
 23
4162.5506358380981
 33
0.0
  0
SOLID
  5
221
  8
2
 62
     7
 10
5422.0519154376343
 20
4157.3506358380982
 30
0.0
 11
5462.0519154376343
 21
4162.5506358380981
 31
0.0
 12
5462.0519154376343
 22
4152.1506358380984
 32
0.0
 13
5462.0519154376343
 23
4152.1506358380984
 33
0.0
  0
TEXT
  5
222
  8
2
 62
     7
 10
5491.9381127503848
 20
4172.3506358380982
 30
0.0
 40
40.0
  1
60
 41
0.9
  0
ENDBLK
  5
223
  8
0
  0
BLOCK
  8
2
  2
*D28
 70
     1
 10
0.0
 20
0.0
 30
0.0
  3
*D28
  1

  0
LINE
  5
226
  8
2
 62
     7
 10
4892.0509154376341
 20
4157.3506358380982
 30
0.0
 11
5362.0519154376352
 21
4157.3506358380982
 31
0.0
  0
LINE
  5
227
  8
2
 62
     7
 10
5362.0519154376352
 20
4849.8329953713701
 30
0.0
 11
5362.0519154376352
 21
4137.3506358380992
 31
0.0
  0
LINE
  5
228
  8
2
 62
     7
 10
4892.0509154376341
 20
4849.8329953713701
 30
0.0
 11
4892.0509154376341
 21
4137.3506358380992
 31
0.0
  0
SOLID
  5
229
  8
2
 62
     7
 10
4892.0509154376341
 20
4157.3506358380982
 30
0.0
 11
4932.0509154376341
 21
4162.5506358380981
 31
0.0
 12
4932.0509154376341
 22
4152.1506358380984
 32
0.0
 13
4932.0509154376341
 23
4152.1506358380984
 33
0.0
  0
SOLID
  5
22A
  8
2
 62
     7
 10
5362.0519154376352
 20
4157.3506358380982
 30
0.0
 11
5322.0519154376352
 21
4152.1506358380984
 31
0.0
 12
5322.0519154376352
 22
4162.5506358380981
 32
0.0
 13
5322.0519154376352
 23
4162.5506358380981
 33
0.0
  0
TEXT
  5
22B
  8
2
 62
     7
 10
5094.0459154376376
 20
4172.3506358380982
 30
0.0
 40
40.0
  1
470
 41
0.9
  0
ENDBLK
  5
22C
  8
0
  0
BLOCK
  8
2
  2
*D29
 70
     1
 10
0.0
 20
0.0
 30
0.0
  3
*D29
  1

  0
LINE
  5
22F
  8
2
 62
     7
 10
4832.0509154376323
 20
6457.3526358380968
 30
0.0
 11
5142.0459154376358
 21
6457.3526358380968
 31
0.0
  0
LINE
  5
230
  8
2
 62
     7
 10
5142.0459154376358
 20
6600.1268102893764
 30
0.0
 11
5142.0459154376358
 21
6437.3526358380986
 31
0.0
  0
LINE
  5
231
  8
2
 62
     7
 10
4832.0509154376323
 20
6627.3526358380959
 30
0.0
 11
4832.0509154376323
 21
6437.3526358380986
 31
0.0
  0
SOLID
  5
232
  8
2
 62
     7
 10
4832.0509154376323
 20
6457.3526358380968
 30
0.0
 11
4872.0509154376332
 21
6462.5526358380976
 31
0.0
 12
4872.0509154376332
 22
6452.1526358380979
 32
0.0
 13
4872.0509154376332
 23
6452.1526358380979
 33
0.0
  0
SOLID
  5
233
  8
2
 62
     7
 10
5142.0459154376358
 20
6457.3526358380968
 30
0.0
 11
5102.0459154376358
 21
6452.1526358380979
 31
0.0
 12
5102.0459154376358
 22
6462.5526358380976
 32
0.0
 13
5102.0459154376358
 23
6462.5526358380976
 33
0.0
  0
TEXT
  5
234
  8
2
 62
     7
 10
4945.0459154376331
 20
6472.3526358380977
 30
0.0
 40
40.0
  1
310
 41
0.9
  0
ENDBLK
  5
235
  8
0
  0
BLOCK
  8
2
  2
*D30
 70
     1
 10
0.0
 20
0.0
 30
0.0
  3
*D30
  1

  0
LINE
  5
238
  8
2
 62
     7
 10
5142.0459154376358
 20
6457.3526358380968
 30
0.0
 11
5422.0519154376334
 21
6457.3526358380968
 31
0.0
  0
LINE
  5
239
  8
2
 62
     7
 10
5422.0519154376334
 20
6627.3526358380959
 30
0.0
 11
5422.0519154376334
 21
6437.3526358380986
 31
0.0
  0
LINE
  5
23A
  8
2
 62
     7
 10
5142.0459154376358
 20
6600.1268102893764
 30
0.0
 11
5142.0459154376358
 21
6437.3526358380986
 31
0.0
  0
SOLID
  5
23B
  8
2
 62
     7
 10
5142.0459154376358
 20
6457.3526358380968
 30
0.0
 11
5182.0459154376358
 21
6462.5526358380976
 31
0.0
 12
5182.0459154376358
 22
6452.1526358380979
 32
0.0
 13
5182.0459154376358
 23
6452.1526358380979
 33
0.0
  0
SOLID
  5
23C
  8
2
 62
     7
 10
5422.0519154376334
 20
6457.3526358380968
 30
0.0
 11
5382.0519154376334
 21
6452.1526358380979
 31
0.0
 12
5382.0519154376334
 22
6462.5526358380976
 32
0.0
 13
5382.0519154376334
 23
6462.5526358380976
 33
0.0
  0
TEXT
  5
23D
  8
2
 62
     7
 10
5234.0519154376343
 20
6472.3526358380977
 30
0.0
 40
40.0
  1
280
 41
0.9
  0
ENDBLK
  5
23E
  8
0
  0
BLOCK
  8
2
  2
*D31
 70
     1
 10
0.0
 20
0.0
 30
0.0
  3
*D31
  1

  0
LINE
  5
241
  8
2
 62
     7
 10
4962.0216477575814
 20
6997.3506358380992
 30
0.0
 11
4882.0216477575814
 21
6997.3506358380992
 31
0.0
  0
LINE
  5
242
  8
2
 62
     7
 10
5142.0459154376322
 20
6997.3506358380992
 30
0.0
 11
4962.0216477575814
 21
6997.3506358380992
 31
0.0
  0
LINE
  5
243
  8
2
 62
     7
 10
4962.0216477575814
 20
6839.3890865772573
 30
0.0
 11
4962.0216477575814
 21
7017.3506358380992
 31
0.0
  0
LINE
  5
244
  8
2
 62
     7
 10
5142.0459154376322
 20
6895.9426050264401
 30
0.0
 11
5142.0459154376322
 21
7017.3506358380992
 31
0.0
  0
CIRCLE
  5
245
  8
2
 62
     7
 10
5142.0459154376322
 20
6997.3506358380992
 30
0.0
 40
10.0
  0
SOLID
  5
246
  8
2
 62
     7
 10
4962.0216477575814
 20
6997.3506358380992
 30
0.0
 11
4922.0216477575814
 21
6992.1506358380984
 31
0.0
 12
4922.0216477575814
 22
7002.5506358380981
 32
0.0
 13
4922.0216477575814
 23
7002.5506358380981
 33
0.0
  0
TEXT
  5
247
  8
2
 62
     7
 10
5010.368558504877
 20
7012.3506358380982
 30
0.0
 40
40.0
  1
180
 41
0.9
  0
ENDBLK
  5
248
  8
0
  0
BLOCK
  8
2
  2
*D32
 70
     1
 10
0.0
 20
0.0
 30
0.0
  3
*D32
  1

  0
LINE
  5
24B
  8
2
 62
     7
 10
7056.0459154376349
 20
4826.3515358380992
 30
0.0
 11
7056.0459154376349
 21
4659.3516270575874
 31
0.0
  0
LINE
  5
24C
  8
2
 62
     7
 10
7056.0459154376349
 20
4858.3511358380974
 30
0.0
 11
7056.0459154376349
 21
4826.3515358380992
 31
0.0
  0
LINE
  5
24D
  8
2
 62
     7
 10
7056.0459154376349
 20
4938.3511358380974
 30
0.0
 11
7056.0459154376349
 21
4858.3511358380974
 31
0.0
  0
LINE
  5
24E
  8
2
 62
     7
 10
6882.0459154376331
 20
4826.3515358380992
 30
0.0
 11
7076.0459154376331
 21
4826.3515358380992
 31
0.0
  0
LINE
  5
24F
  8
2
 62
     7
 10
6882.0459154376331
 20
4858.3511358380974
 30
0.0
 11
7076.0459154376331
 21
4858.3511358380974
 31
0.0
  0
SOLID
  5
250
  8
2
 62
     7
 10
7056.0459154376349
 20
4858.3511358380974
 30
0.0
 11
7050.8459154376333
 21
4898.3511358380974
 31
0.0
 12
7061.2459154376347
 22
4898.3511358380974
 32
0.0
 13
7061.2459154376347
 23
4898.3511358380974
 33
0.0
  0
SOLID
  5
251
  8
2
 62
     7
 10
7056.0459154376349
 20
4826.3515358380992
 30
0.0
 11
7061.2459154376347
 21
4786.3515358380992
 31
0.0
 12
7050.8459154376333
 22
4786.3515358380992
 32
0.0
 13
7050.8459154376333
 23
4786.3515358380992
 33
0.0
  0
TEXT
  5
252
  8
2
 62
     7
 10
7041.045915437634
 20
4707.3516270575856
 30
0.0
 40
40.0
  1
32
 50
90.0
 41
0.9
  0
TEXT
  5
253
  8
2
 62
     7
 10
7041.045915437634
 20
4659.3516270575874
 30
0.0
 40
40.0
  1
%%c
 50
90.0
 41
0.9
  0
ENDBLK
  5
254
  8
0
  0
BLOCK
  8
2
  2
*D33
 70
     1
 10
0.0
 20
0.0
 30
0.0
  3
*D33
  1

  0
LINE
  5
257
  8
2
 62
     7
 10
4632.0509154376332
 20
5077.3521028479536
 30
0.0
 11
4632.0509154376332
 21
4842.3506358380992
 31
0.0
  0
LINE
  5
258
  8
2
 62
     7
 10
5094.5661405965366
 20
4842.3506358380992
 30
0.0
 11
4612.0509154376341
 21
4842.3506358380992
 31
0.0
  0
LINE
  5
259
  8
2
 62
     7
 10
4963.9888096227542
 20
5077.3521028479536
 30
0.0
 11
4612.0509154376341
 21
5077.3521028479536
 31
0.0
  0
SOLID
  5
25A
  8
2
 62
     7
 10
4632.0509154376332
 20
5077.3521028479536
 30
0.0
 11
4637.2509154376339
 21
5037.3521028479536
 31
0.0
 12
4626.8509154376352
 22
5037.3521028479536
 32
0.0
 13
4626.8509154376352
 23
5037.3521028479536
 33
0.0
  0
SOLID
  5
25B
  8
2
 62
     7
 10
4632.0509154376332
 20
4842.3506358380992
 30
0.0
 11
4626.8509154376352
 21
4882.3506358381001
 31
0.0
 12
4637.2509154376339
 22
4882.3506358381001
 32
0.0
 13
4637.2509154376339
 23
4882.3506358381001
 33
0.0
  0
TEXT
  5
25C
  8
2
 62
     7
 10
4617.0509154376341
 20
4912.352103142648
 30
0.0
 40
40.0
  1
235
 50
90.0
 41
0.9
  0
ENDBLK
  5
25D
  8
0
  0
BLOCK
  8
2
  2
*D34
 70
     1
 10
0.0
 20
0.0
 30
0.0
  3
*D34
  1

  0
LINE
  5
260
  8
2
 62
     7
 10
4632.0511154376281
 20
4842.3506358380992
 30
0.0
 11
4632.0511154376281
 21
4277.3506358380982
 31
0.0
  0
LINE
  5
261
  8
2
 62
     7
 10
4811.0419254376329
 20
4277.3506358380982
 30
0.0
 11
4612.0511154376291
 21
4277.3506358380982
 31
0.0
  0
LINE
  5
262
  8
2
 62
     7
 10
5094.5661405965366
 20
4842.3506358380992
 30
0.0
 11
4612.0511154376291
 21
4842.3506358380992
 31
0.0
  0
SOLID
  5
263
  8
2
 62
     7
 10
4632.0511154376281
 20
4842.3506358380992
 30
0.0
 11
4637.2511154376298
 21
4802.3506358380992
 31
0.0
 12
4626.8511154376292
 22
4802.3506358380992
 32
0.0
 13
4626.8511154376292
 23
4802.3506358380992
 33
0.0
  0
SOLID
  5
264
  8
2
 62
     7
 10
4632.0511154376281
 20
4277.3506358380982
 30
0.0
 11
4626.8511154376292
 21
4317.3506358380982
 31
0.0
 12
4637.2511154376298
 22
4317.3506358380982
 32
0.0
 13
4637.2511154376298
 23
4317.3506358380982
 33
0.0
  0
TEXT
  5
265
  8
2
 62
     7
 10
4617.0511154376291
 20
4585.1284136158774
 30
0.0
 40
40.0
  1
565
 50
90.0
 41
0.9
  0
TEXT
  5
266
  8
2
 62
     7
 10
4617.0511154376291
 20
4489.5728580603227
 30
0.0
 40
40.0
  1
排水
 50
90.0
 41
0.9
  0
ENDBLK
  5
267
  8
0
  0
BLOCK
  8
2
  2
*D35
 70
     1
 10
0.0
 20
0.0
 30
0.0
  3
*D35
  1

  0
LINE
  5
26A
  8
2
 62
     7
 10
5522.0519154376352
 20
4717.3506358380992
 30
0.0
 11
5522.0519154376352
 21
5017.3506358381001
 31
0.0
  0
LINE
  5
26B
  8
2
 62
     7
 10
5422.0519154376343
 20
5017.3506358381001
 30
0.0
 11
5542.0519154376343
 21
5017.3506358381001
 31
0.0
  0
LINE
  5
26C
  8
2
 62
     7
 10
5276.0183248547446
 20
4717.3506358380992
 30
0.0
 11
5542.0519154376343
 21
4717.3506358380992
 31
0.0
  0
SOLID
  5
26D
  8
2
 62
     7
 10
5522.0519154376352
 20
4717.3506358380992
 30
0.0
 11
5516.8519154376354
 21
4757.3506358380992
 31
0.0
 12
5527.2519154376341
 22
4757.3506358380992
 32
0.0
 13
5527.2519154376341
 23
4757.3506358380992
 33
0.0
  0
SOLID
  5
26E
  8
2
 62
     7
 10
5522.0519154376352
 20
5017.3506358381001
 30
0.0
 11
5527.2519154376341
 21
4977.3506358380992
 31
0.0
 12
5516.8519154376354
 22
4977.3506358380992
 32
0.0
 13
5516.8519154376354
 23
4977.3506358380992
 33
0.0
  0
TEXT
  5
26F
  8
2
 62
     7
 10
5507.0519154376343
 20
4819.3506358380982
 30
0.0
 40
40.0
  1
300
 50
90.0
 41
0.9
  0
ENDBLK
  5
270
  8
0
  0
BLOCK
  8
2
  2
*D36
 70
     1
 10
0.0
 20
0.0
 30
0.0
  3
*D36
  1

  0
LINE
  5
273
  8
2
 62
     7
 10
5522.0522154376404
 20
4717.3506358380992
 30
0.0
 11
5522.0522154376404
 21
4277.3506358380973
 31
0.0
  0
LINE
  5
274
  8
2
 62
     7
 10
5473.0439254376433
 20
4277.3506358380973
 30
0.0
 11
5542.0522154376413
 21
4277.3506358380973
 31
0.0
  0
LINE
  5
275
  8
2
 62
     7
 10
5276.0183248547464
 20
4717.3506358380992
 30
0.0
 11
5542.0522154376413
 21
4717.3506358380992
 31
0.0
  0
SOLID
  5
276
  8
2
 62
     7
 10
5522.0522154376404
 20
4717.3506358380992
 30
0.0
 11
5527.2522154376402
 21
4677.3506358380992
 31
0.0
 12
5516.8522154376424
 22
4677.3506358380992
 32
0.0
 13
5516.8522154376424
 23
4677.3506358380992
 33
0.0
  0
SOLID
  5
277
  8
2
 62
     7
 10
5522.0522154376404
 20
4277.3506358380973
 30
0.0
 11
5516.8522154376424
 21
4317.3506358380973
 31
0.0
 12
5527.2522154376402
 22
4317.3506358380973
 32
0.0
 13
5527.2522154376402
 23
4317.3506358380973
 33
0.0
  0
TEXT
  5
278
  8
2
 62
     7
 10
5507.0522154376404
 20
4503.1472562038871
 30
0.0
 40
40.0
  1
440
 50
90.0
 41
0.9
  0
TEXT
  5
279
  8
2
 62
     7
 10
5507.0522154376404
 20
4407.5917006483323
 30
0.0
 40
40.0
  1
給水
 50
90.0
 41
0.9
  0
ENDBLK
  5
27A
  8
0
  0
ENDSEC
  0
SECTION
  2
ENTITIES
  0
INSERT
  5
27B
  8
2
 62
     7
  2
*X0
 10
0.0
 20
0.0
 30
0.0
  0
INSERT
  5
27C
  8
2
 62
     7
  2
*X1
 10
0.0
 20
0.0
 30
0.0
  0
INSERT
  5
27D
  8
2
 62
     7
  2
*X2
 10
0.0
 20
0.0
 30
0.0
  0
INSERT
  5
27E
  8
2
 62
     7
  2
*X3
 10
0.0
 20
0.0
 30
0.0
  0
INSERT
  5
27F
  8
2
 62
     7
  2
*X4
 10
0.0
 20
0.0
 30
0.0
  0
INSERT
  5
280
  8
2
 62
     7
  2
*X5
 10
0.0
 20
0.0
 30
0.0
  0
INSERT
  5
281
  8
2
 62
     7
  2
*X6
 10
0.0
 20
0.0
 30
0.0
  0
INSERT
  5
282
  8
2
 62
     7
  2
*X7
 10
0.0
 20
0.0
 30
0.0
  0
INSERT
  5
283
  8
2
 62
     7
  2
*X8
 10
0.0
 20
0.0
 30
0.0
  0
INSERT
  5
284
  8
2
 62
     7
  2
*X9
 10
0.0
 20
0.0
 30
0.0
  0
INSERT
  5
285
  8
2
 62
     7
  2
*X10
 10
0.0
 20
0.0
 30
0.0
  0
POINT
  5
286
  8
1
  6
DASHED
 62
     7
 10
7572.045915437634
 20
8527.3506358380982
 30
0.0
  0
POINT
  5
287
  8
1
  6
DASHED
 62
     7
 10
4072.045915437634
 20
3777.3506358380978
 30
0.0
  0
POINT
  5
288
  8
2
  6
DASHED
 62
     7
 10
6595.0426673345692
 20
5017.3506358380992
 30
0.0
  0
POINT
  5
289
  8
2
  6
DASHED
 62
     7
 10
6595.0426676568504
 20
4937.3515294525923
 30
0.0
  0
POINT
  5
28A
  8
2
  6
DASHED
 62
     7
 10
5473.0439254376352
 20
4277.3506358380982
 30
0.0
  0
POINT
  5
28B
  8
2
  6
DASHED
 62
     7
 10
4811.0419254376311
 20
4277.3506358380982
 30
0.0
  0
POINT
  5
28C
  8
2
  6
DASHED
 62
     7
 10
5473.0439254376352
 20
4277.3506358380982
 30
0.0
  0
POINT
  5
28D
  8
2
  6
DASHED
 62
     7
 10
6702.0459154376349
 20
4311.7626075543976
 30
0.0
  0
POINT
  5
28E
  8
2
  6
DASHED
 62
     7
 10
6842.045915437634
 20
4277.3506358381019
 30
0.0
  0
POINT
  5
28F
  8
2
  6
DASHED
 62
     7
 10
4811.0419254376347
 20
4277.3506358380982
 30
0.0
  0
POINT
  5
290
  8
2
  6
DASHED
 62
     7
 10
5066.0460172844059
 20
4297.1395149175532
 30
0.0
  0
POINT
  5
291
  8
2
  6
DASHED
 62
     7
 10
5050.1709172844139
 20
4237.3506358380982
 30
0.0
  0
POINT
  5
292
  8
2
  6
DASHED
 62
     7
 10
5081.920917284413
 20
4237.3506358380964
 30
0.0
  0
POINT
  5
293
  8
2
  6
DASHED
 62
     7
 10
4811.0419254376329
 20
4277.3506358380982
 30
0.0
  0
POINT
  5
294
  8
2
  6
DASHED
 62
     7
 10
5050.1709172844139
 20
4237.3506358380982
 30
0.0
  0
POINT
  5
295
  8
2
  6
DASHED
 62
     7
 10
5081.920917284413
 20
4237.3506358380928
 30
0.0
  0
POINT
  5
296
  8
2
  6
DASHED
 62
     7
 10
4811.0419254376329
 20
4277.3506358380982
 30
0.0
  0
POINT
  5
297
  8
2
  6
DASHED
 62
     7
 10
4811.0419254376347
 20
4277.3506358380992
 30
0.0
  0
POINT
  5
298
  8
2
  6
DASHED
 62
     7
 10
5473.0439254376352
 20
4277.3506358380982
 30
0.0
  0
POINT
  5
299
  8
2
  6
DASHED
 62
     7
 10
5066.0460172844041
 20
4306.1378386521101
 30
0.0
  0
POINT
  5
29A
  8
2
  6
DASHED
 62
     7
 10
5242.0459154376331
 20
4672.7923966725539
 30
0.0
  0
POINT
  5
29B
  8
2
  6
DASHED
 62
     7
 10
6842.045915437634
 20
4277.3506358381019
 30
0.0
  0
POINT
  5
29C
  8
2
  6
DASHED
 62
     7
 10
6702.0459154376349
 20
4311.7626075543976
 30
0.0
  0
POINT
  5
29D
  8
2
  6
DASHED
 62
     7
 10
6842.045915437634
 20
4277.3506358381019
 30
0.0
  0
POINT
  5
29E
  8
2
  6
DASHED
 62
     7
 10
6772.0459154376367
 20
4264.3506358381001
 30
0.0
  0
POINT
  5
29F
  8
2
  6
DASHED
 62
     7
 10
4811.0419254376347
 20
4277.3506358380992
 30
0.0
  0
POINT
  5
2A0
  8
2
  6
DASHED
 62
     7
 10
5473.043925437637
 20
4277.3506358381019
 30
0.0
  0
POINT
  5
2A1
  8
2
  6
DASHED
 62
     7
 10
4811.0419254376347
 20
4277.3506358380992
 30
0.0
  0
POINT
  5
2A2
  8
2
  6
DASHED
 62
     7
 10
4811.0419254376347
 20
4277.3506358380992
 30
0.0
  0
POINT
  5
2A3
  8
2
  6
DASHED
 62
     7
 10
5473.0439254376333
 20
4277.3506358381019
 30
0.0
  0
POINT
  5
2A4
  8
2
  6
DASHED
 62
     7
 10
4811.0419254376329
 20
4277.3506358380982
 30
0.0
  0
POINT
  5
2A5
  8
2
  6
DASHED
 62
     7
 10
4811.0419254376329
 20
4277.3506358380982
 30
0.0
  0
POINT
  5
2A6
  8
2
  6
DASHED
 62
     7
 10
5473.0439254376333
 20
4277.3506358380992
 30
0.0
  0
POINT
  5
2A7
  8
2
  6
DASHED
 62
     7
 10
4811.0419254376329
 20
4277.3506358380982
 30
0.0
  0
POINT
  5
2A8
  8
2
  6
DASHED
 62
     7
 10
5473.0439254376352
 20
4277.3506358380982
 30
0.0
  0
POINT
  5
2A9
  8
2
  6
DASHED
 62
     7
 10
6842.045915437634
 20
4277.3506358380982
 30
0.0
  0
POINT
  5
2AA
  8
2
  6
DASHED
 62
     7
 10
6842.045915437634
 20
4277.3506358380982
 30
0.0
  0
POINT
  5
2AB
  8
2
  6
DASHED
 62
     7
 10
6842.0459154376367
 20
4277.3506358380982
 30
0.0
  0
POINT
  5
2AC
  8
2
  6
DASHED
 62
     7
 10
5473.0439254376352
 20
4277.3506358380982
 30
0.0
  0
POINT
  5
2AD
  8
2
  6
DASHED
 62
     7
 10
5473.0439254376352
 20
4277.3506358380982
 30
0.0
  0
POINT
  5
2AE
  8
2
  6
DASHED
 62
     7
 10
6842.045915437634
 20
4277.3506358381019
 30
0.0
  0
POINT
  5
2AF
  8
2
  6
DASHED
 62
     7
 10
4811.0419254376329
 20
4277.3506358380982
 30
0.0
  0
POINT
  5
2B0
  8
2
  6
DASHED
 62
     7
 10
4811.0419254376329
 20
4277.3506358381019
 30
0.0
  0
POINT
  5
2B1
  8
2
  6
DASHED
 62
     7
 10
6842.045915437634
 20
4277.3506358381019
 30
0.0
  0
POINT
  5
2B2
  8
2
  6
DASHED
 62
     7
 10
6842.0459154376367
 20
4277.3506358380992
 30
0.0
  0
POINT
  5
2B3
  8
2
  6
DASHED
 62
     7
 10
4811.0419254376329
 20
4277.3506358380982
 30
0.0
  0
POINT
  5
2B4
  8
2
  6
DASHED
 62
     7
 10
4811.0419254376329
 20
4277.3506358380982
 30
0.0
  0
POINT
  5
2B5
  8
2
  6
DASHED
 62
     7
 10
4811.0419254376329
 20
4277.3506358380982
 30
0.0
  0
POINT
  5
2B6
  8
2
  6
DASHED
 62
     7
 10
5473.0439254376352
 20
4277.3506358380982
 30
0.0
  0
POINT
  5
2B7
  8
2
  6
DASHED
 62
     7
 10
6842.0459154376367
 20
4277.3506358381019
 30
0.0
  0
POINT
  5
2B8
  8
2
  6
DASHED
 62
     7
 10
4811.0419254376329
 20
4277.3506358380982
 30
0.0
  0
POINT
  5
2B9
  8
2
  6
DASHED
 62
     7
 10
5473.043925437637
 20
4277.3506358380992
 30
0.0
  0
POINT
  5
2BA
  8
2
  6
DASHED
 62
     7
 10
5292.0459154376322
 20
4248.6439088381012
 30
0.0
  0
POINT
  5
2BB
  8
2
  6
DASHED
 62
     7
 10
5066.0460172844059
 20
4297.1395149175532
 30
0.0
  0
POINT
  5
2BC
  8
2
  6
DASHED
 62
     7
 10
5292.0459154376322
 20
4248.6439088381012
 30
0.0
  0
POINT
  5
2BD
  8
2
  6
DASHED
 62
     7
 10
6842.0459154376404
 20
4277.3506358381046
 30
0.0
  0
POINT
  5
2BE
  8
2
  6
DASHED
 62
     7
 10
6762.0459154376376
 20
4261.6282709800962
 30
0.0
  0
POINT
  5
2BF
  8
2
  6
DASHED
 62
     7
 10
5262.0459154376358
 20
4664.4021225267024
 30
0.0
  0
POINT
  5
2C0
  8
2
  6
DASHED
 62
     7
 10
5362.0459154376358
 20
4255.9603616922459
 30
0.0
  0
POINT
  5
2C1
  8
2
  6
DASHED
 62
     7
 10
5262.0459154376358
 20
4664.4021225267024
 30
0.0
  0
POINT
  5
2C2
  8
2
  6
DASHED
 62
     7
 10
5473.043925437637
 20
4277.3506358380982
 30
0.0
  0
POINT
  5
2C3
  8
2
  6
DASHED
 62
     7
 10
5473.0439254376352
 20
4277.3506358380982
 30
0.0
  0
POINT
  5
2C4
  8
2
  6
DASHED
 62
     7
 10
4832.0509154376323
 20
6877.3506358380982
 30
0.0
  0
POINT
  5
2C5
  8
2
  6
DASHED
 62
     7
 10
4832.0509154376323
 20
6627.3526358380959
 30
0.0
  0
POINT
  5
2C6
  8
2
  6
DASHED
 62
     7
 10
4964.9775587989379
 20
6662.3238386085213
 30
0.0
  0
POINT
  5
2C7
  8
2
  6
DASHED
 62
     7
 10
4965.0219154376346
 20
6842.3866358380992
 30
0.0
  0
POINT
  5
2C8
  8
2
  6
DASHED
 62
     7
 10
5422.0519154376334
 20
6877.3506358381019
 30
0.0
  0
POINT
  5
2C9
  8
2
  6
DASHED
 62
     7
 10
5451.0910208182386
 20
6752.3516358380966
 30
0.0
  0
POINT
  5
2CA
  8
2
  6
DASHED
 62
     7
 10
5422.0519154376334
 20
6627.3526358380959
 30
0.0
  0
POINT
  5
2CB
  8
2
  6
DASHED
 62
     7
 10
4832.0509154376323
 20
6627.3526358380959
 30
0.0
  0
POINT
  5
2CC
  8
2
  6
DASHED
 62
     7
 10
5262.0810254376302
 20
6839.3886358380942
 30
0.0
  0
POINT
  5
2CD
  8
2
  6
DASHED
 62
     7
 10
5142.0459154376322
 20
6895.9426050264401
 30
0.0
  0
POINT
  5
2CE
  8
2
  6
DASHED
 62
     7
 10
5302.0512797247666
 20
6787.6706358380943
 30
0.0
  0
POINT
  5
2CF
  8
2
  6
DASHED
 62
     7
 10
5262.0810254376302
 20
6839.3886358380942
 30
0.0
  0
POINT
  5
2D0
  8
2
  6
DASHED
 62
     7
 10
4961.9734159789978
 20
6665.3245347843776
 30
0.0
  0
POINT
  5
2D1
  8
2
  6
DASHED
 62
     7
 10
5142.0459154376322
 20
6600.1268102893764
 30
0.0
  0
POINT
  5
2D2
  8
2
  6
DASHED
 62
     7
 10
5262.0810255096494
 20
6665.3245359391594
 30
0.0
  0
POINT
  5
2D3
  8
2
  6
DASHED
 62
     7
 10
5142.0459154376322
 20
6600.1268102893764
 30
0.0
  0
POINT
  5
2D4
  8
2
  6
DASHED
 62
     7
 10
4832.0509154376286
 20
6877.3506358380982
 30
0.0
  0
POINT
  5
2D5
  8
2
  6
DASHED
 62
     7
 10
5142.0459154376322
 20
6895.9426050264401
 30
0.0
  0
POINT
  5
2D6
  8
2
  6
DASHED
 62
     7
 10
5422.0519154376298
 20
6877.3506358381019
 30
0.0
  0
POINT
  5
2D7
  8
2
  6
DASHED
 62
     7
 10
5142.0459154376322
 20
6895.9426050264401
 30
0.0
  0
POINT
  5
2D8
  8
2
  6
DASHED
 62
     7
 10
4963.9888096227542
 20
5077.3521028479536
 30
0.0
  0
POINT
  5
2D9
  8
2
  6
DASHED
 62
     7
 10
4811.0419254376329
 20
4277.3506358380982
 30
0.0
  0
POINT
  5
2DA
  8
2
  6
DASHED
 62
     7
 10
5473.043925437637
 20
4277.3506358380982
 30
0.0
  0
POINT
  5
2DB
  8
2
  6
DASHED
 62
     7
 10
5422.0519154376343
 20
5017.3506358380992
 30
0.0
  0
POINT
  5
2DC
  8
2
  6
DASHED
 62
     7
 10
5260.0725232423511
 20
5077.3521025850896
 30
0.0
  0
POINT
  5
2DD
  8
2
  6
DASHED
 62
     7
 10
5422.0519154376343
 20
5017.3506358380992
 30
0.0
  0
POINT
  5
2DE
  8
2
  6
DASHED
 62
     7
 10
5422.0519154376343
 20
5017.3506358380992
 30
0.0
  0
POINT
  5
2DF
  8
2
  6
DASHED
 62
     7
 10
5422.0519154376343
 20
4937.3515358380982
 30
0.0
  0
POINT
  5
2E0
  8
2
  6
DASHED
 62
     7
 10
5110.0269154376356
 20
4940.3500887010714
 30
0.0
  0
POINT
  5
2E1
  8
2
  6
DASHED
 62
     7
 10
4963.9888096227542
 20
5077.3521028479536
 30
0.0
  0
POINT
  5
2E2
  8
2
  6
DASHED
 62
     7
 10
4811.0419254376329
 20
4277.3506358380982
 30
0.0
  0
POINT
  5
2E3
  8
2
  6
DASHED
 62
     7
 10
5110.0269154376356
 20
4940.3500887010714
 30
0.0
  0
POINT
  5
2E4
  8
2
  6
DASHED
 62
     7
 10
5473.0439254376388
 20
4277.3506358380973
 30
0.0
  0
POINT
  5
2E5
  8
2
  6
DASHED
 62
     7
 10
5270.0003489518103
 20
4713.3516358380984
 30
0.0
  0
POINT
  5
2E6
  8
2
  6
DASHED
 62
     7
 10
5422.0519154376361
 20
5017.3506358380992
 30
0.0
  0
POINT
  5
2E7
  8
2
  6
DASHED
 62
     7
 10
5270.0003489518103
 20
4713.3516358380984
 30
0.0
  0
POINT
  5
2E8
  8
2
  6
DASHED
 62
     7
 10
6842.0459154376404
 20
4277.3506358381019
 30
0.0
  0
POINT
  5
2E9
  8
2
  6
DASHED
 62
     7
 10
6717.0449015978147
 20
4217.3507358380984
 30
0.0
  0
POINT
  5
2EA
  8
2
  6
DASHED
 62
     7
 10
6842.0459154376404
 20
4277.3506358381019
 30
0.0
  0
POINT
  5
2EB
  8
2
  6
DASHED
 62
     7
 10
6772.0459154376358
 20
4261.6282709800962
 30
0.0
  0
POINT
  5
2EC
  8
2
  6
DASHED
 62
     7
 10
6874.309420109681
 20
4884.3484615875268
 30
0.0
  0
POINT
  5
2ED
  8
2
  6
DASHED
 62
     7
 10
6842.0459154376404
 20
4277.3506358381019
 30
0.0
  0
POINT
  5
2EE
  8
2
  6
DASHED
 62
     7
 10
6874.3101825728027
 20
4944.3485675558613
 30
0.0
  0
POINT
  5
2EF
  8
2
  6
DASHED
 62
     7
 10
6874.309420109681
 20
4884.3484615875268
 30
0.0
  0
POINT
  5
2F0
  8
2
  6
DASHED
 62
     7
 10
6874.309419699347
 20
4969.3497475558634
 30
0.0
  0
POINT
  5
2F1
  8
2
  6
DASHED
 62
     7
 10
6874.3101825728027
 20
4944.3485675558613
 30
0.0
  0
POINT
  5
2F2
  8
2
  6
DASHED
 62
     7
 10
5081.9209172844157
 20
4237.3506358380964
 30
0.0
  0
POINT
  5
2F3
  8
2
  6
DASHED
 62
     7
 10
5050.1709172844139
 20
4237.3506358380982
 30
0.0
  0
POINT
  5
2F4
  8
2
  6
DASHED
 62
     7
 10
5066.046017284405
 20
4212.786196682011
 30
0.0
  0
POINT
  5
2F5
  8
2
  6
DASHED
 62
     7
 10
5142.0459154376358
 20
4702.7363743695132
 30
0.0
  0
POINT
  5
2F6
  8
2
  6
DASHED
 62
     7
 10
5242.0459154376322
 20
4664.4021225267052
 30
0.0
  0
POINT
  5
2F7
  8
2
  6
DASHED
 62
     7
 10
5142.0459154376358
 20
4702.7363743695132
 30
0.0
  0
POINT
  5
2F8
  8
2
  6
DASHED
 62
     7
 10
4832.0509154376332
 20
4937.3515358380982
 30
0.0
  0
POINT
  5
2F9
  8
2
  6
DASHED
 62
     7
 10
4892.0509154376341
 20
4849.8329953713701
 30
0.0
  0
POINT
  5
2FA
  8
2
  6
DASHED
 62
     7
 10
5422.0519154376343
 20
4937.3515358380982
 30
0.0
  0
POINT
  5
2FB
  8
2
  6
DASHED
 62
     7
 10
5362.0519154376352
 20
4849.8329953713701
 30
0.0
  0
POINT
  5
2FC
  8
2
  6
DASHED
 62
     7
 10
5362.0519154376352
 20
4849.8329953713701
 30
0.0
  0
POINT
  5
2FD
  8
2
  6
DASHED
 62
     7
 10
4892.0509154376341
 20
4849.8329953713701
 30
0.0
  0
POINT
  5
2FE
  8
2
  6
DASHED
 62
     7
 10
5142.0459154376358
 20
6600.1268102893764
 30
0.0
  0
POINT
  5
2FF
  8
2
  6
DASHED
 62
     7
 10
4832.0509154376323
 20
6627.3526358380959
 30
0.0
  0
POINT
  5
300
  8
2
  6
DASHED
 62
     7
 10
5422.0519154376334
 20
6627.3526358380959
 30
0.0
  0
POINT
  5
301
  8
2
  6
DASHED
 62
     7
 10
5142.0459154376358
 20
6600.1268102893764
 30
0.0
  0
POINT
  5
302
  8
2
  6
DASHED
 62
     7
 10
4962.0216477575814
 20
6839.3890865772573
 30
0.0
  0
POINT
  5
303
  8
2
  6
DASHED
 62
     7
 10
5142.0459154376322
 20
6895.9426050264401
 30
0.0
  0
POINT
  5
304
  8
2
  6
DASHED
 62
     7
 10
6882.0459154376331
 20
4826.3515358380992
 30
0.0
  0
POINT
  5
305
  8
2
  6
DASHED
 62
     7
 10
6882.0459154376331
 20
4858.3511358380974
 30
0.0
  0
POINT
  5
306
  8
2
  6
DASHED
 62
     7
 10
5094.5661405965366
 20
4842.3506358380992
 30
0.0
  0
POINT
  5
307
  8
2
  6
DASHED
 62
     7
 10
4963.9888096227542
 20
5077.3521028479536
 30
0.0
  0
POINT
  5
308
  8
2
  6
DASHED
 62
     7
 10
4811.0419254376329
 20
4277.3506358380982
 30
0.0
  0
POINT
  5
309
  8
2
  6
DASHED
 62
     7
 10
5094.5661405965366
 20
4842.3506358380992
 30
0.0
  0
POINT
  5
30A
  8
2
  6
DASHED
 62
     7
 10
5422.0519154376343
 20
5017.3506358381001
 30
0.0
  0
POINT
  5
30B
  8
2
  6
DASHED
 62
     7
 10
5276.0183248547446
 20
4717.3506358380992
 30
0.0
  0
POINT
  5
30C
  8
2
  6
DASHED
 62
     7
 10
5473.0439254376397
 20
4277.3506358380973
 30
0.0
  0
POINT
  5
30D
  8
2
  6
DASHED
 62
     7
 10
5276.0183248547446
 20
4717.3506358380992
 30
0.0
  0
POINT
  5
30E
  8
1
  6
DASHED
 62
     7
 10
5242.045915437634
 20
4760.3505535542627
 30
0.0
  0
POINT
  5
30F
  8
1
  6
DASHED
 62
     7
 10
5302.0547154376336
 20
5017.3498467374102
 30
0.0
  0
LINE
  5
310
  8
2
 62
     7
 10
7472.0459154376304
 20
8127.350635838091
 30
0.0
 11
7472.0459154376304
 21
8027.350635838091
 31
0.0
  0
LINE
  5
311
  8
2
 62
     7
 10
6562.0459154376294
 20
8127.350635838091
 30
0.0
 11
6562.0459154376294
 21
8027.350635838091
 31
0.0
  0
LINE
  5
312
  8
2
 62
     7
 10
7572.0459154376304
 20
8127.350635838091
 30
0.0
 11
7572.0459154376304
 21
8027.350635838091
 31
0.0
  0
LINE
  5
313
  8
2
 62
     7
 10
5932.0459154376304
 20
8127.350635838091
 30
0.0
 11
5932.0459154376304
 21
8027.350635838091
 31
0.0
  0
LINE
  5
314
  8
2
 62
     7
 10
5932.0459154376304
 20
8027.350635838091
 30
0.0
 11
7572.0459154376304
 21
8027.350635838091
 31
0.0
  0
LINE
  5
315
  8
2
 62
     7
 10
5932.0459154376304
 20
8127.350635838091
 30
0.0
 11
7572.0459154376304
 21
8127.350635838091
 31
0.0
  0
LINE
  5
316
  8
2
 62
     7
 10
7472.0459154376304
 20
8227.350635838091
 30
0.0
 11
7472.0459154376304
 21
8127.350635838091
 31
0.0
  0
LINE
  5
317
  8
2
 62
     7
 10
6562.0459154376294
 20
8227.350635838091
 30
0.0
 11
6562.0459154376294
 21
8127.350635838091
 31
0.0
  0
LINE
  5
318
  8
2
 62
     7
 10
7572.0459154376304
 20
8227.350635838091
 30
0.0
 11
7572.0459154376304
 21
8127.350635838091
 31
0.0
  0
LINE
  5
319
  8
2
 62
     7
 10
5932.0459154376304
 20
8227.350635838091
 30
0.0
 11
5932.0459154376304
 21
8127.350635838091
 31
0.0
  0
LINE
  5
31A
  8
2
 62
     7
 10
5932.0459154376304
 20
8127.350635838091
 30
0.0
 11
7572.0459154376304
 21
8127.350635838091
 31
0.0
  0
LINE
  5
31B
  8
2
 62
     7
 10
5932.0459154376304
 20
8227.350635838091
 30
0.0
 11
7572.0459154376304
 21
8227.350635838091
 31
0.0
  0
LINE
  5
31C
  8
2
 62
     7
 10
7472.0459154376304
 20
8327.3506358380928
 30
0.0
 11
7472.0459154376304
 21
8227.350635838091
 31
0.0
  0
LINE
  5
31D
  8
2
 62
     7
 10
6562.0459154376294
 20
8327.3506358380928
 30
0.0
 11
6562.0459154376294
 21
8227.350635838091
 31
0.0
  0
LINE
  5
31E
  8
2
 62
     7
 10
7572.0459154376304
 20
8327.3506358380928
 30
0.0
 11
7572.0459154376304
 21
8227.350635838091
 31
0.0
  0
LINE
  5
31F
  8
2
 62
     7
 10
5932.0459154376304
 20
8327.3506358380928
 30
0.0
 11
5932.0459154376304
 21
8227.350635838091
 31
0.0
  0
LINE
  5
320
  8
2
 62
     7
 10
5932.0459154376304
 20
8227.350635838091
 30
0.0
 11
7572.0459154376304
 21
8227.350635838091
 31
0.0
  0
LINE
  5
321
  8
2
 62
     7
 10
5932.0459154376304
 20
8327.3506358380928
 30
0.0
 11
7572.0459154376304
 21
8327.3506358380928
 31
0.0
  0
LINE
  5
322
  8
2
 62
     7
 10
7472.0459154376304
 20
8427.3506358380928
 30
0.0
 11
7472.0459154376304
 21
8327.3506358380928
 31
0.0
  0
LINE
  5
323
  8
2
 62
     7
 10
6562.0459154376294
 20
8427.3506358380928
 30
0.0
 11
6562.0459154376294
 21
8327.3506358380928
 31
0.0
  0
LINE
  5
324
  8
2
 62
     7
 10
7572.0459154376304
 20
8427.3506358380928
 30
0.0
 11
7572.0459154376304
 21
8327.3506358380928
 31
0.0
  0
LINE
  5
325
  8
2
 62
     7
 10
5932.0459154376304
 20
8427.3506358380928
 30
0.0
 11
5932.0459154376304
 21
8327.3506358380928
 31
0.0
  0
LINE
  5
326
  8
2
 62
     7
 10
5932.0459154376304
 20
8327.3506358380928
 30
0.0
 11
7572.0459154376304
 21
8327.3506358380928
 31
0.0
  0
LINE
  5
327
  8
2
 62
     7
 10
5932.0459154376304
 20
8427.3506358380928
 30
0.0
 11
7572.0459154376304
 21
8427.3506358380928
 31
0.0
  0
LINE
  5
328
  8
2
 62
     7
 10
7572.0459154376304
 20
8527.350635838091
 30
0.0
 11
7572.0459154376304
 21
8427.3506358380928
 31
0.0
  0
LINE
  5
329
  8
2
 62
     7
 10
5932.0459154376304
 20
8527.350635838091
 30
0.0
 11
5932.0459154376304
 21
8427.3506358380928
 31
0.0
  0
LINE
  5
32A
  8
2
 62
     7
 10
5932.0459154376304
 20
8427.3506358380928
 30
0.0
 11
7572.0459154376304
 21
8427.3506358380928
 31
0.0
  0
LINE
  5
32B
  8
2
 62
     7
 10
5932.0459154376304
 20
8527.350635838091
 30
0.0
 11
7572.0459154376304
 21
8527.350635838091
 31
0.0
  0
LINE
  5
32C
  8
2
 62
     7
 10
4434.1461717914099
 20
3615.4001256190322
 30
0.0
 11
4418.9505663576283
 21
3615.4001256190322
 31
0.0
  0
LINE
  5
32D
  8
2
 62
     7
 10
4781.4513404546115
 20
3614.1365012946858
 30
0.0
 11
4781.4513404546115
 21
3624.1798019919802
 31
0.0
  0
LINE
  5
32E
  8
2
 62
     7
 10
4781.4513404546115
 20
3606.1365012946858
 30
0.0
 11
4772.2994665794204
 21
3606.1365012946858
 31
0.0
  0
LINE
  5
32F
  8
2
 62
     7
 10
4781.4513404546115
 20
3587.0756927264729
 30
0.0
 11
4753.3515273639841
 21
3587.0756927264752
 31
0.0
  0
LINE
  5
330
  8
2
 62
     7
 10
4752.5539140518922
 20
3597.1189934237691
 30
0.0
 11
4752.5539140518922
 21
3614.1365012946858
 31
0.0
  0
LINE
  5
331
  8
2
 62
     7
 10
4772.2994665794204
 20
3597.1189934237691
 30
0.0
 11
4752.5539140518922
 21
3597.1189934237691
 31
0.0
  0
LINE
  5
332
  8
2
 62
     7
 10
4772.2994665794204
 20
3606.1365012946858
 30
0.0
 11
4772.2994665794204
 21
3597.1189934237691
 31
0.0
  0
LINE
  5
333
  8
2
 62
     7
 10
4752.5539140518922
 20
3614.1365012946858
 30
0.0
 11
4781.4513404546115
 21
3614.1365012946858
 31
0.0
  0
LINE
  5
334
  8
2
 62
     7
 10
4781.4513404546115
 20
3587.0756927264729
 30
0.0
 11
4781.4513404546115
 21
3606.1365012946858
 31
0.0
  0
LINE
  5
335
  8
2
 62
     7
 10
4743.3515273639841
 20
3614.1798019919802
 30
0.0
 11
4743.3515273639841
 21
3597.0756927264752
 31
0.0
  0
LINE
  5
336
  8
2
 62
     7
 10
4781.4513404546115
 20
3624.1798019919802
 30
0.0
 11
4753.3515273639841
 21
3624.1798019919802
 31
0.0
  0
LINE
  5
337
  8
2
 62
     7
 10
4697.9040228667518
 20
3624.1798019919802
 30
0.0
 11
4722.0589588653474
 21
3598.1750230318462
 31
0.0
  0
LINE
  5
338
  8
2
 62
     7
 10
4697.9040228667518
 20
3613.0804716866101
 30
0.0
 11
4721.8904950858523
 21
3587.0756927264752
 31
0.0
  0
LINE
  5
339
  8
2
 62
     7
 10
4721.8904950858523
 20
3587.0756927264752
 30
0.0
 11
4730.7114984437521
 21
3587.0756927264752
 31
0.0
  0
LINE
  5
33A
  8
2
 62
     7
 10
4730.7114984437521
 20
3587.0756927264752
 30
0.0
 11
4730.6884654345167
 21
3624.1798019919802
 31
0.0
  0
LINE
  5
33B
  8
2
 62
     7
 10
4730.6884654345167
 20
3624.1798019919802
 30
0.0
 11
4722.0589588653474
 21
3624.1798019919802
 31
0.0
  0
LINE
  5
33C
  8
2
 62
     7
 10
4722.0589588653474
 20
3624.1798019919802
 30
0.0
 11
4722.0589588653474
 21
3598.1750230318462
 31
0.0
  0
LINE
  5
33D
  8
2
 62
     7
 10
4637.2388977597939
 20
3587.0756927264729
 30
0.0
 11
4603.1390846691656
 21
3587.0756927264729
 31
0.0
  0
LINE
  5
33E
  8
2
 62
     7
 10
4553.262758679688
 20
3620.4665258457562
 30
0.0
 11
4533.899081567798
 21
3587.0756944026521
 31
0.0
  0
LINE
  5
33F
  8
2
 62
     7
 10
4585.470023122577
 20
3587.0756944026521
 30
0.0
 11
4566.106346010688
 21
3620.4665258457562
 31
0.0
  0
LINE
  5
340
  8
2
 62
     7
 10
4574.6243083132558
 20
3587.0848172373899
 30
0.0
 11
4585.470023122577
 21
3587.0756944026521
 31
0.0
  0
LINE
  5
341
  8
2
 62
     7
 10
4569.918010114744
 20
3594.6068134104921
 30
0.0
 11
4574.6243083132558
 21
3587.0848172373899
 31
0.0
  0
LINE
  5
342
  8
2
 62
     7
 10
4559.6845523451884
 20
3614.3807940411461
 30
0.0
 11
4565.1996871940873
 21
3603.550652365082
 31
0.0
  0
LINE
  5
343
  8
2
 62
     7
 10
4458.7812062924877
 20
3615.4001256190322
 30
0.0
 11
4443.4494518152533
 21
3615.4001256190322
 31
0.0
  0
LINE
  5
344
  8
2
 62
     7
 10
4692.0588463170061
 20
3749.8666489088
 30
0.0
 11
4692.0588463170061
 21
3761.9072846741619
 31
0.0
  0
LINE
  5
345
  8
2
 62
     7
 10
4686.3405537176259
 20
3767.6255772735408
 30
0.0
 11
4661.5165543448766
 21
3767.6255772735431
 31
0.0
  0
LINE
  5
346
  8
2
 62
     7
 10
4643.0183523515043
 20
3744.1483563094221
 30
0.0
 11
4686.3405537176259
 21
3744.1483563094171
 31
0.0
  0
LINE
  5
347
  8
2
 62
     7
 10
4643.0183523515043
 20
3645.7815948315501
 30
0.0
 11
4643.0183523515043
 21
3744.1483563094221
 31
0.0
  0
LINE
  5
348
  8
2
 62
     7
 10
4629.5165548157502
 20
3637.781594831552
 30
0.0
 11
4635.0183523515043
 21
3637.7815948315501
 31
0.0
  0
LINE
  5
349
  8
2
 62
     7
 10
4621.5165543448802
 20
3727.6255770434109
 30
0.0
 11
4621.516554815752
 21
3645.7815947855238
 31
0.0
  0
LINE
  5
34A
  8
2
 62
     7
 10
4534.6722993531102
 20
3714.442196534605
 30
0.0
 11
4534.6722993531102
 21
3744.1483563094221
 31
0.0
  0
LINE
  5
34B
  8
2
 62
     7
 10
4603.7891463836268
 20
3696.6832681698652
 30
0.0
 11
4603.7891463836268
 21
3708.723903935228
 31
0.0
  0
LINE
  5
34C
  8
2
 62
     7
 10
4534.6722993531102
 20
3690.9649755704859
 30
0.0
 11
4598.0708537842456
 21
3690.9649755704859
 31
0.0
  0
LINE
  5
34D
  8
2
 62
     7
 10
4598.0708537842456
 20
3714.44219653461
 30
0.0
 11
4534.6722993531102
 21
3714.442196534605
 31
0.0
  0
LINE
  5
34E
  8
2
 62
     7
 10
4598.0708537842456
 20
3661.2588157956729
 30
0.0
 11
4534.6722993531102
 21
3661.258815795672
 31
0.0
  0
LINE
  5
34F
  8
2
 62
     7
 10
4603.7891463836268
 20
3643.4998874309322
 30
0.0
 11
4603.7891463836268
 21
3655.5405231962941
 31
0.0
  0
LINE
  5
350
  8
2
 62
     7
 10
4521.1705018173579
 20
3637.781594831552
 30
0.0
 11
4598.0708537842456
 21
3637.7815948315501
 31
0.0
  0
LINE
  5
351
  8
2
 62
     7
 10
4534.6722993531102
 20
3744.1483563094221
 30
0.0
 11
4598.0708537842456
 21
3744.1483563094198
 31
0.0
  0
LINE
  5
352
  8
2
 62
     7
 10
4534.6722993531102
 20
3661.258815795672
 30
0.0
 11
4534.6722993531102
 21
3690.9649755704859
 31
0.0
  0
LINE
  5
353
  8
2
 62
     7
 10
4598.0708537842456
 20
3767.6255772735458
 30
0.0
 11
4553.1705013464843
 21
3767.6255772735431
 31
0.0
  0
LINE
  5
354
  8
2
 62
     7
 10
4603.7891463836268
 20
3749.8666489088009
 30
0.0
 11
4603.7891463836268
 21
3761.9072846741642
 31
0.0
  0
LINE
  5
355
  8
2
 62
     7
 10
4513.1705013464853
 20
3727.6255770434109
 30
0.0
 11
4513.1705018173579
 21
3645.7815947855238
 31
0.0
  0
LINE
  5
356
  8
2
 62
     7
 10
4491.3587593113843
 20
3661.2588157956729
 30
0.0
 11
4427.9602048802481
 21
3661.258815795672
 31
0.0
  0
LINE
  5
357
  8
2
 62
     7
 10
4497.0770519107637
 20
3643.4998874309322
 30
0.0
 11
4497.0770519107637
 21
3655.5405231962941
 31
0.0
  0
LINE
  5
358
  8
2
 62
     7
 10
4414.4584073444958
 20
3637.781594831552
 30
0.0
 11
4491.3587593113843
 21
3637.7815948315501
 31
0.0
  0
LINE
  5
359
  8
2
 62
     7
 10
4427.9602048802481
 20
3744.1483563094221
 30
0.0
 11
4491.3587593113843
 21
3744.1483563094198
 31
0.0
  0
LINE
  5
35A
  8
2
 62
     7
 10
4427.9602048802481
 20
3661.258815795672
 30
0.0
 11
4427.9602048802481
 21
3744.1483563094221
 31
0.0
  0
LINE
  5
35B
  8
2
 62
     7
 10
4491.3587593113843
 20
3767.6255772735458
 30
0.0
 11
4446.4584068736222
 21
3767.6255772735431
 31
0.0
  0
LINE
  5
35C
  8
2
 62
     7
 10
4497.0770519107637
 20
3749.8666489088009
 30
0.0
 11
4497.0770519107637
 21
3761.9072846741642
 31
0.0
  0
LINE
  5
35D
  8
2
 62
     7
 10
4406.458406873624
 20
3727.6255770434109
 30
0.0
 11
4406.4584073444967
 21
3645.7815947855238
 31
0.0
  0
LINE
  5
35E
  8
2
 62
     7
 10
4728.5165766818818
 20
3710.0737255145282
 30
0.0
 11
4728.5165766818818
 21
3744.1483563094221
 31
0.0
  0
LINE
  5
35F
  8
2
 62
     7
 10
4728.5165766818818
 20
3710.0737255145282
 30
0.0
 11
4775.2049714910718
 21
3710.0737255145282
 31
0.0
  0
LINE
  5
360
  8
2
 62
     7
 10
4715.0147791461286
 20
3637.7815948315501
 30
0.0
 11
4720.5165766818827
 21
3637.7815948315501
 31
0.0
  0
LINE
  5
361
  8
2
 62
     7
 10
4728.5165766818818
 20
3645.7815948315501
 30
0.0
 11
4728.5165766818818
 21
3686.9918196382791
 31
0.0
  0
LINE
  5
362
  8
2
 62
     7
 10
4791.9151311130172
 20
3767.6255772735431
 30
0.0
 11
4747.0147786752559
 21
3767.6255772735408
 31
0.0
  0
LINE
  5
363
  8
2
 62
     7
 10
4797.6334237123956
 20
3645.7815948315501
 30
0.0
 11
4797.6334237123956
 21
3761.9072846741642
 31
0.0
  0
LINE
  5
364
  8
2
 62
     7
 10
4458.7812062924877
 20
3615.4001256190322
 30
0.0
 11
4458.7812062924877
 21
3624.167148921596
 31
0.0
  0
LINE
  5
365
  8
2
 62
     7
 10
4434.1461717914099
 20
3615.4001256190322
 30
0.0
 11
4434.1461717914099
 21
3588.4637844291792
 31
0.0
  0
LINE
  5
366
  8
2
 62
     7
 10
4707.0147786752568
 20
3727.6255770434109
 30
0.0
 11
4707.0147791461286
 21
3645.7815947855238
 31
0.0
  0
LINE
  5
367
  8
2
 62
     7
 10
4728.5165766818818
 20
3686.9918196382791
 30
0.0
 11
4775.270514062172
 21
3686.9918196382791
 31
0.0
  0
LINE
  5
368
  8
2
 62
     7
 10
4775.270514062172
 20
3686.9918196382791
 30
0.0
 11
4775.270514062172
 21
3648.1236714303841
 31
0.0
  0
LINE
  5
369
  8
2
 62
     7
 10
4785.612590661005
 20
3637.7815948315501
 30
0.0
 11
4789.6334237123956
 21
3637.7815948315501
 31
0.0
  0
LINE
  5
36A
  8
2
 62
     7
 10
4728.5165766818818
 20
3744.1483563094221
 30
0.0
 11
4775.2049714910718
 21
3744.1483563094221
 31
0.0
  0
LINE
  5
36B
  8
2
 62
     7
 10
4775.2049714910718
 20
3744.1483563094221
 30
0.0
 11
4775.2049714910718
 21
3710.0737255145282
 31
0.0
  0
LINE
  5
36C
  8
2
 62
     7
 10
4697.9040228667518
 20
3624.1798019919802
 30
0.0
 11
4689.2514832883462
 21
3624.1798019919802
 31
0.0
  0
LINE
  5
36D
  8
2
 62
     7
 10
4689.2514832883462
 20
3624.1798019919802
 30
0.0
 11
4689.2745162975807
 21
3587.0756927264752
 31
0.0
  0
LINE
  5
36E
  8
2
 62
     7
 10
4689.2745162975807
 20
3587.0756927264752
 30
0.0
 11
4697.9040228667518
 21
3587.0756927264752
 31
0.0
  0
LINE
  5
36F
  8
2
 62
     7
 10
4697.9040228667518
 20
3587.0756927264752
 30
0.0
 11
4697.9040228667518
 21
3613.0804716866101
 31
0.0
  0
LINE
  5
370
  8
2
 62
     7
 10
4674.3293605890422
 20
3587.0756927264752
 30
0.0
 11
4674.329360589044
 21
3624.1798019919802
 31
0.0
  0
LINE
  5
371
  8
2
 62
     7
 10
4674.329360589044
 20
3624.1798019919802
 30
0.0
 11
4665.3295771301537
 21
3624.1798019919802
 31
0.0
  0
LINE
  5
372
  8
2
 62
     7
 10
4665.3295771301537
 20
3624.1798019919802
 30
0.0
 11
4665.3295771301537
 21
3587.0756927264729
 31
0.0
  0
LINE
  5
373
  8
2
 62
     7
 10
4665.3295771301537
 20
3587.0756927264729
 30
0.0
 11
4674.3293605890422
 21
3587.0756927264752
 31
0.0
  0
LINE
  5
374
  8
2
 62
     7
 10
4632.0365110718858
 20
3614.1365012946858
 30
0.0
 11
4632.0365110718858
 21
3597.1189934237691
 31
0.0
  0
LINE
  5
375
  8
2
 62
     7
 10
4632.0365110718858
 20
3597.1189934237691
 30
0.0
 11
4612.2909585443576
 21
3597.1189934237691
 31
0.0
  0
LINE
  5
376
  8
2
 62
     7
 10
4612.2909585443576
 20
3597.1189934237691
 30
0.0
 11
4612.2909585443576
 21
3614.1365012946858
 31
0.0
  0
LINE
  5
377
  8
2
 62
     7
 10
4612.2909585443576
 20
3614.1365012946858
 30
0.0
 11
4632.0365110718858
 21
3614.1365012946858
 31
0.0
  0
LINE
  5
378
  8
2
 62
     7
 10
4603.1390846691656
 20
3624.1798019919802
 30
0.0
 11
4603.1390846691656
 21
3587.0756927264729
 31
0.0
  0
LINE
  5
379
  8
2
 62
     7
 10
4641.2388977597939
 20
3591.0756927264729
 30
0.0
 11
4641.2388977597939
 21
3620.1798019919802
 31
0.0
  0
LINE
  5
37A
  8
2
 62
     7
 10
4637.2388977597939
 20
3624.1798019919802
 30
0.0
 11
4603.1390846691656
 21
3624.1798019919802
 31
0.0
  0
LINE
  5
37B
  8
2
 62
     7
 10
4533.899081567798
 20
3587.0756944026521
 30
0.0
 11
4544.7447963771201
 21
3587.0848172373899
 31
0.0
  0
LINE
  5
37C
  8
2
 62
     7
 10
4544.7447963771201
 20
3587.0848172373899
 30
0.0
 11
4549.4510945756319
 21
3594.6068134104921
 31
0.0
  0
LINE
  5
37D
  8
2
 62
     7
 10
4549.4510945756319
 20
3594.6068134104921
 30
0.0
 11
4569.918010114744
 21
3594.6068134104921
 31
0.0
  0
LINE
  5
37E
  8
2
 62
     7
 10
4565.1996871940873
 20
3603.550652365082
 30
0.0
 11
4554.153444426488
 21
3603.5192858411979
 31
0.0
  0
LINE
  5
37F
  8
2
 62
     7
 10
4554.153444426488
 20
3603.5192858411979
 30
0.0
 11
4559.6845523451884
 21
3614.3807940411461
 31
0.0
  0
LINE
  5
380
  8
2
 62
     7
 10
4488.2608500472816
 20
3599.7311099440658
 30
0.0
 11
4507.7267279842245
 21
3599.7311099440658
 31
0.0
  0
LINE
  5
381
  8
2
 62
     7
 10
4507.7267279842245
 20
3599.7311099440658
 30
0.0
 11
4507.7630527826659
 21
3587.7722244591268
 31
0.0
  0
LINE
  5
382
  8
2
 62
     7
 10
4507.7630527826659
 20
3587.7722244591268
 30
0.0
 11
4516.94019608286
 21
3587.7722244591268
 31
0.0
  0
LINE
  5
383
  8
2
 62
     7
 10
4516.94019608286
 20
3587.7722244591268
 30
0.0
 11
4516.94019608286
 21
3602.3153031694801
 31
0.0
  0
LINE
  5
384
  8
2
 62
     7
 10
4516.94019608286
 20
3602.3153031694801
 30
0.0
 11
4514.8166706455322
 21
3604.384402307458
 31
0.0
  0
LINE
  5
385
  8
2
 62
     7
 10
4512.9434114848818
 20
3624.1798019919802
 30
0.0
 11
4479.8485015828919
 21
3624.1798019919802
 31
0.0
  0
LINE
  5
386
  8
2
 62
     7
 10
4479.8485015828919
 20
3624.1798019919802
 30
0.0
 11
4479.8485015828919
 21
3587.7485343731869
 31
0.0
  0
LINE
  5
387
  8
2
 62
     7
 10
4479.8485015828919
 20
3587.7485343731869
 30
0.0
 11
4488.2608500472816
 21
3587.7722244591268
 31
0.0
  0
LINE
  5
388
  8
2
 62
     7
 10
4488.2608500472816
 20
3587.7722244591268
 30
0.0
 11
4488.2608500472816
 21
3599.7311099440658
 31
0.0
  0
LINE
  5
389
  8
2
 62
     7
 10
4508.5333753051918
 20
3609.4644437473039
 30
0.0
 11
4488.2608500472816
 21
3609.4644437473039
 31
0.0
  0
LINE
  5
38A
  8
2
 62
     7
 10
4488.2608500472816
 20
3609.4644437473039
 30
0.0
 11
4488.2608500472816
 21
3614.469368605151
 31
0.0
  0
LINE
  5
38B
  8
2
 62
     7
 10
4488.2608500472816
 20
3614.469368605151
 30
0.0
 11
4508.5207405926894
 21
3614.469368605151
 31
0.0
  0
LINE
  5
38C
  8
2
 62
     7
 10
4508.5207405926894
 20
3614.469368605151
 30
0.0
 11
4508.5333753051918
 21
3609.4644437473039
 31
0.0
  0
LINE
  5
38D
  8
2
 62
     7
 10
4434.1461717914099
 20
3588.4637844291792
 30
0.0
 11
4443.4494518152533
 21
3588.4637844291792
 31
0.0
  0
LINE
  5
38E
  8
2
 62
     7
 10
4443.4494518152533
 20
3588.4637844291792
 30
0.0
 11
4443.4494518152533
 21
3615.4001256190322
 31
0.0
  0
LINE
  5
38F
  8
2
 62
     7
 10
4458.7812062924877
 20
3624.167148921596
 30
0.0
 11
4418.9505663576283
 21
3624.167148921596
 31
0.0
  0
LINE
  5
390
  8
2
 62
     7
 10
4418.9505663576283
 20
3624.167148921596
 30
0.0
 11
4418.9505663576283
 21
3615.4001256190322
 31
0.0
  0
LINE
  5
391
  8
2
 62
     7
 10
4072.045915437634
 20
8527.3506358380982
 30
0.0
 11
7572.045915437634
 21
8527.3506358380982
 31
0.0
  0
LINE
  5
392
  8
2
 62
     7
 10
7572.045915437634
 20
8527.3506358380982
 30
0.0
 11
7572.045915437634
 21
3184.8506358380978
 31
0.0
  0
LINE
  5
393
  8
2
 62
     7
 10
4072.045915437634
 20
2987.3506358380978
 30
0.0
 11
7572.045915437634
 21
2987.3506358380978
 31
0.0
  0
LINE
  5
394
  8
2
 62
     7
 10
4072.045915437634
 20
3777.3506358380978
 30
0.0
 11
7572.0459154376304
 21
3777.3506358380978
 31
0.0
  0
LINE
  5
395
  8
2
 62
     7
 10
5142.045915437634
 20
3777.3506358380978
 30
0.0
 11
5142.045915437634
 21
3282.3506358380978
 31
0.0
  0
LINE
  5
396
  8
2
 62
     7
 10
4072.8618448734378
 20
3577.3506358380978
 30
0.0
 11
5892.8618448734369
 21
3577.3506358380978
 31
0.0
  0
LINE
  5
397
  8
2
 62
     7
 10
5482.045915437634
 20
3777.3506358380978
 30
0.0
 11
5482.045915437634
 21
3282.3506358380978
 31
0.0
  0
LINE
  5
398
  8
2
 62
     7
 10
5892.045915437634
 20
3777.3506358380978
 30
0.0
 11
5892.045915437634
 21
3184.8506358380978
 31
0.0
  0
LINE
  5
399
  8
2
 62
     7
 10
4072.045915437634
 20
3282.3506358380978
 30
0.0
 11
5892.045915437634
 21
3282.3506358380978
 31
0.0
  0
LINE
  5
39A
  8
2
 62
     7
 10
4442.045915437634
 20
3577.3506358380978
 30
0.0
 11
4442.045915437634
 21
3282.3506358380978
 31
0.0
  0
LINE
  5
39B
  8
2
 62
     7
 10
5892.045915437634
 20
3382.3506358380978
 30
0.0
 11
7572.045915437634
 21
3382.3506358380978
 31
0.0
  0
LINE
  5
39C
  8
2
 62
     7
 10
4072.045915437634
 20
8527.3506358380982
 30
0.0
 11
4072.045915437634
 21
2987.3506358380978
 31
0.0
  0
LINE
  5
39D
  8
2
 62
     7
 10
7572.045915437634
 20
5757.3506358380982
 30
0.0
 11
7726.2017179943541
 21
5757.3506358380982
 31
0.0
  0
LINE
  5
39E
  8
2
 62
     7
 10
5672.045915437634
 20
2987.3506358380978
 30
0.0
 11
5672.045915437634
 21
2847.6606923278941
 31
0.0
  0
LINE
  5
39F
  8
2
 62
     7
 10
3640.5028296634441
 20
5757.3506358380982
 30
0.0
 11
3723.79752423727
 21
5757.3506358380982
 31
0.0
  0
LINE
  5
3A0
  8
2
 62
     7
 10
5672.045915437634
 20
8685.7987599197386
 30
0.0
 11
5672.045915437634
 21
8527.3506358380982
 31
0.0
  0
LINE
  5
3A1
  8
2
  6
DASHDOT
 62
     7
 10
5249.7420832727139
 20
3723.3504358380978
 30
0.0
 11
5249.7420832727139
 21
3631.3506358380978
 31
0.0
  0
LINE
  5
3A2
  8
2
 62
     7
 10
5329.7420832727139
 20
3692.3506358380978
 30
0.0
 11
5409.7420832727139
 21
3707.3506358380978
 31
0.0
  0
LINE
  5
3A3
  8
2
 62
     7
 10
5409.7420832727139
 20
3647.3502358381002
 30
0.0
 11
5329.7420832727139
 21
3662.3502358381002
 31
0.0
  0
LINE
  5
3A4
  8
2
  6
DASHDOT
 62
     7
 10
5203.7420832727103
 20
3677.3506358380978
 30
0.0
 11
5295.7420832727148
 21
3677.3506358380978
 31
0.0
  0
LINE
  5
3A5
  8
2
 62
     7
 10
5329.7420832727139
 20
3692.3506358380978
 30
0.0
 11
5329.7420832727139
 21
3662.3502358381002
 31
0.0
  0
LINE
  5
3A6
  8
2
 62
     7
 10
5409.7420832727139
 20
3707.3506358380978
 30
0.0
 11
5409.7420832727139
 21
3647.3502358381002
 31
0.0
  0
LINE
  5
3A7
  8
2
  6
DASHDOT
 62
     7
 10
5313.7420832727139
 20
3677.3506358380978
 30
0.0
 11
5425.7420832727184
 21
3677.3506358380978
 31
0.0
  0
LINE
  5
3A8
  8
2
 62
     7
 10
5892.045915437634
 20
3184.8506358380978
 30
0.0
 11
7572.045915437634
 21
3184.8506358380978
 31
0.0
  0
LINE
  5
3A9
  8
2
 62
     7
 10
7572.045915437634
 20
3184.8506358380978
 30
0.0
 11
7572.045915437634
 21
2987.3506358380978
 31
0.0
  0
LINE
  5
3AA
  8
2
 62
     7
 10
5892.045915437634
 20
3184.8506358380978
 30
0.0
 11
5892.045915437634
 21
2987.3506358380978
 31
0.0
  0
LINE
  5
3AB
  8
1
  6
CENTER
 62
     7
 10
5191.4326304839096
 20
4842.3506358380982
 30
0.0
 11
5094.5661405965329
 21
4842.3506358380982
 31
0.0
  0
LINE
  5
3AC
  8
1
  6
CENTER
 62
     7
 10
5276.0183248547446
 20
4717.3506358380992
 30
0.0
 11
5207.4732599451636
 21
4717.350653554262
 31
0.0
  0
LINE
  5
3AD
  8
1
  6
CENTER
 62
     7
 10
5451.0910208182386
 20
6752.3516358380966
 30
0.0
 11
4806.5839154376336
 21
6752.3516358380966
 31
0.0
  0
LINE
  5
3AE
  8
1
  6
CENTER
 62
     7
 10
5242.045915437634
 20
4796.7123870671194
 30
0.0
 11
5242.045915437634
 21
4664.4021225267024
 31
0.0
  0
LINE
  5
3AF
  8
1
  6
CENTER
 62
     7
 10
4892.0509154376341
 20
4849.8329953713701
 30
0.0
 11
4892.0509154376341
 21
5001.8755177253552
 31
0.0
  0
LINE
  5
3B0
  8
1
  6
CENTER
 62
     7
 10
5362.0519154376352
 20
4849.8329953713701
 30
0.0
 11
5362.0519154376352
 21
5003.0413043949584
 31
0.0
  0
LINE
  5
3B1
  8
1
  6
CENTER
 62
     7
 10
6833.0429015978134
 20
4944.3485675558613
 30
0.0
 11
6874.3101825728027
 21
4944.3485675558613
 31
0.0
  0
LINE
  5
3B2
  8
1
  6
CENTER
 62
     7
 10
6833.0429015978134
 20
4969.3497475558634
 30
0.0
 11
6874.309419699347
 21
4969.3497475558634
 31
0.0
  0
LINE
  5
3B3
  8
1
  6
CENTER
 62
     7
 10
6833.0429015978134
 20
4884.3484615875268
 30
0.0
 11
6874.309420109681
 21
4884.3484615875268
 31
0.0
  0
LINE
  5
3B4
  8
1
  6
CENTER
 62
     7
 10
5302.0547154376336
 20
6717.0393297915643
 30
0.0
 11
5302.0512797247666
 21
6785.2913297915629
 31
0.0
  0
LINE
  5
3B5
  8
1
  6
CENTER
 62
     7
 10
5142.0459154376322
 20
6600.1268102893764
 30
0.0
 11
5142.0459154376322
 21
6895.9426050264401
 31
0.0
  0
LINE
  5
3B6
  8
1
  6
CENTER
 62
     7
 10
5142.0459154376349
 20
4698.0174108785568
 30
0.0
 11
5142.045915437634
 21
5094.7078208770718
 31
0.0
  0
LINE
  5
3B7
  8
1
 62
     7
 10
6971.6971600649549
 20
4909.2668891343792
 30
0.0
 11
7062.0459154376349
 21
5004.4617499152482
 31
0.0
  0
LINE
  5
3B8
  8
1
 62
     7
 10
7062.0459154376349
 20
5004.4617499152482
 30
0.0
 11
7062.0459154376349
 21
5080.056184372399
 31
0.0
  0
LINE
  5
3B9
  8
1
  6
DIVIDE
 62
     7
 10
6647.0469015978106
 20
4999.346446547388
 30
0.0
 11
6647.0469015978106
 21
5017.3506085772924
 31
0.0
  0
LINE
  5
3BA
  8
1
  6
DIVIDE
 62
     7
 10
6842.0459154376331
 20
4858.3511358380974
 30
0.0
 11
6842.0459154376331
 21
4826.3515358380992
 31
0.0
  0
LINE
  5
3BB
  8
1
  6
DIVIDE
 62
     7
 10
6842.0459154376331
 20
4826.3515358380992
 30
0.0
 11
6842.045915437634
 21
4744.3511358380974
 31
0.0
  0
LINE
  5
3BC
  8
1
  6
DIVIDE
 62
     7
 10
6842.045915437634
 20
4744.3511358380974
 30
0.0
 11
6842.045915437634
 21
4690.350535838098
 31
0.0
  0
LINE
  5
3BD
  8
1
  6
DIVIDE
 62
     7
 10
6842.045915437634
 20
4690.350535838098
 30
0.0
 11
6842.045915437634
 21
4421.4077219771489
 31
0.0
  0
LINE
  5
3BE
  8
1
  6
DIVIDE
 62
     7
 10
6842.0459154376331
 20
4941.8508475558619
 30
0.0
 11
6842.0459154376331
 21
4886.8461615875267
 31
0.0
  0
LINE
  5
3BF
  8
1
  6
DIVIDE
 62
     7
 10
6842.0459154376331
 20
4966.8520475558607
 30
0.0
 11
6842.0459154376331
 21
4946.8462775558619
 31
0.0
  0
LINE
  5
3C0
  8
1
  6
DIVIDE
 62
     7
 10
6842.0459154376331
 20
4881.8506615875267
 30
0.0
 11
6842.0459154376331
 21
4858.3511358380974
 31
0.0
  0
LINE
  5
3C1
  8
1
  6
DASHED
 62
     7
 10
6729.0449015978093
 20
4994.3509850883029
 30
0.0
 11
6729.0449015978093
 21
4994.3509872155664
 31
0.0
  0
LINE
  5
3C2
  8
1
  6
DASHED
 62
     7
 10
6705.0448015978109
 20
4994.3509786053028
 30
0.0
 11
6705.0448015978109
 21
4994.3509787654421
 31
0.0
  0
LINE
  5
3C3
  8
1
  6
DASHED
 62
     7
 10
6723.1324753737536
 20
4999.3464475890241
 30
0.0
 11
6723.1221015978117
 21
4999.3506358380982
 31
0.0
  0
LINE
  5
3C4
  8
1
  6
DASHED
 62
     7
 10
6703.1978102827352
 20
4999.3464510304329
 30
0.0
 11
6703.20652159781
 21
4999.3506358380982
 31
0.0
  0
LINE
  5
3C5
  8
1
  6
DASHED
 62
     7
 10
6698.0779511736309
 20
4999.3464519142963
 30
0.0
 11
6698.0815615978099
 21
4999.3506358380982
 31
0.0
  0
LINE
  5
3C6
  8
1
  6
DASHED
 62
     7
 10
6735.4465514397207
 20
4999.3464454631921
 30
0.0
 11
6735.4528015978103
 21
4999.3506358380982
 31
0.0
  0
LINE
  5
3C7
  8
1
  6
DASHED
 62
     7
 10
6721.0543701805691
 20
4999.3464479477771
 30
0.0
 11
6721.0667015978124
 21
4999.3506358380982
 31
0.0
  0
LINE
  5
3C8
  8
1
  6
DASHED
 62
     7
 10
6711.4851809575594
 20
4999.3464495997478
 30
0.0
 11
6711.4975015978107
 21
4999.3506358380982
 31
0.0
  0
LINE
  5
3C9
  8
1
  6
DASHED
 62
     7
 10
6729.6995499476743
 20
4999.3464464553226
 30
0.0
 11
6729.7105015978113
 21
4999.3506358380982
 31
0.0
  0
LINE
  5
3CA
  8
1
 62
     7
 10
6696.5289015978124
 20
4927.8488887010708
 30
0.0
 11
6696.5289015978124
 21
4933.8475580555332
 31
0.0
  0
LINE
  5
3CB
  8
1
 62
     7
 10
6737.5289015978105
 20
4927.8488887010708
 30
0.0
 11
6737.5289015978105
 21
4933.8475580555332
 31
0.0
  0
LINE
  5
3CC
  8
1
  6
DASHED
 62
     7
 10
6737.4128636350251
 20
4968.824553336136
 30
0.0
 11
6737.4123707764811
 21
4968.8245539078389
 31
0.0
  0
LINE
  5
3CD
  8
1
  6
DASHED
 62
     7
 10
6658.2329008374791
 20
4994.3509659602923
 30
0.0
 11
6658.23293598074
 21
4994.3506624283073
 31
0.0
  0
LINE
  5
3CE
  8
1
  6
DASHED
 62
     7
 10
6758.1499624939961
 20
4978.3549429774703
 30
0.0
 11
6758.3515602964526
 21
4979.2369787725647
 31
0.0
  0
LINE
  5
3CF
  8
1
  6
DASHED
 62
     7
 10
6665.9608861433944
 20
4999.3464574588061
 30
0.0
 11
6664.5449015978111
 21
5001.7991496764407
 31
0.0
  0
LINE
  5
3D0
  8
1
  6
DASHED
 62
     7
 10
6765.2411356939374
 20
4994.3509948657702
 30
0.0
 11
6765.2409604618069
 21
4994.3506913337287
 31
0.0
  0
LINE
  5
3D1
  8
1
  6
DASHED
 62
     7
 10
6776.4368523730564
 20
4999.3464383868577
 30
0.0
 11
6776.9899015978108
 21
5004.1107580555317
 31
0.0
  0
LINE
  5
3D2
  8
1
 62
     7
 10
6731.0451015978106
 20
5077.3505796390345
 30
0.0
 11
6805.0776869010697
 21
5077.3506580555331
 31
0.0
  0
LINE
  5
3D3
  8
1
 62
     7
 10
6842.04390159781
 20
4877.3516358380994
 30
0.0
 11
6842.0459154376331
 21
4877.3516358380994
 31
0.0
  0
LINE
  5
3D4
  8
1
 62
     7
 10
5262.081025452143
 20
6742.6016358380994
 30
0.0
 11
5262.0810255096494
 21
6665.3245359391594
 31
0.0
  0
LINE
  5
3D5
  8
1
 62
     7
 10
5258.4912154376334
 20
6742.6016358380994
 30
0.0
 11
5258.4912154376334
 21
6667.3156358380984
 31
0.0
  0
LINE
  5
3D6
  8
1
 62
     7
 10
5162.523915437635
 20
4927.8488887010708
 30
0.0
 11
5162.523915437635
 21
4933.8491887010723
 31
0.0
  0
LINE
  5
3D7
  8
1
 62
     7
 10
5121.5199154376342
 20
4927.8488887010708
 30
0.0
 11
5121.5199154376342
 21
4933.8491887010723
 31
0.0
  0
LINE
  5
3D8
  8
1
 62
     7
 10
5253.031015437633
 20
4717.9197535542617
 30
0.0
 11
5255.0877862917523
 21
4720.8377929379694
 31
0.0
  0
LINE
  5
3D9
  8
1
 62
     7
 10
5248.0308154376344
 20
4726.5801535542614
 30
0.0
 11
5251.5462154376346
 21
4726.8977535542617
 31
0.0
  0
LINE
  5
3DA
  8
1
 62
     7
 10
5236.0604154376333
 20
4726.5801535542614
 30
0.0
 11
5232.5043154376344
 21
4726.9011535542622
 31
0.0
  0
LINE
  5
3DB
  8
1
 62
     7
 10
5231.0601154376336
 20
4717.9197535542617
 30
0.0
 11
5229.0034255170558
 21
4720.8377972895114
 31
0.0
  0
LINE
  5
3DC
  8
1
 62
     7
 10
5231.5452154376344
 20
4733.3501535542628
 30
0.0
 11
5231.5452154376344
 21
4735.3511535542621
 31
0.0
  0
LINE
  5
3DD
  8
1
 62
     7
 10
5252.5460154376333
 20
4733.3501535542628
 30
0.0
 11
5252.5460154376333
 21
4735.3511535542621
 31
0.0
  0
LINE
  5
3DE
  8
1
 62
     7
 10
5231.5452154376344
 20
4733.3501535542628
 30
0.0
 11
5232.5457154376336
 21
4732.3511535542621
 31
0.0
  0
LINE
  5
3DF
  8
1
 62
     7
 10
5251.5462154376346
 20
4732.3511535542621
 30
0.0
 11
5252.5460154376333
 21
4733.3501535542628
 31
0.0
  0
LINE
  5
3E0
  8
1
 62
     7
 10
5232.5457154376336
 20
4732.3511535542621
 30
0.0
 11
5232.5043154376344
 21
4726.9011535542622
 31
0.0
  0
LINE
  5
3E1
  8
1
 62
     7
 10
5251.5462154376346
 20
4732.3511535542621
 30
0.0
 11
5251.5462154376346
 21
4726.8977535542617
 31
0.0
  0
LINE
  5
3E2
  8
1
 62
     7
 10
5237.0458609413481
 20
4707.5524390709788
 30
0.0
 11
5238.5450154376331
 21
4704.3122535542616
 31
0.0
  0
LINE
  5
3E3
  8
1
 62
     7
 10
5247.0452962037161
 20
4707.5522797227777
 30
0.0
 11
5245.5461909278602
 21
4704.3122551568886
 31
0.0
  0
LINE
  5
3E4
  8
1
 62
     7
 10
5142.045915437634
 20
4927.8488887010708
 30
0.0
 11
5164.0462154376337
 21
4927.8488887010708
 31
0.0
  0
LINE
  5
3E5
  8
1
 62
     7
 10
5142.045915437634
 20
4913.3491087010716
 30
0.0
 11
5155.0457154376336
 21
4913.3491087010716
 31
0.0
  0
LINE
  5
3E6
  8
1
 62
     7
 10
5142.045915437634
 20
4875.3507358380984
 30
0.0
 11
5155.0457154376336
 21
4875.3507358380984
 31
0.0
  0
LINE
  5
3E7
  8
1
 62
     7
 10
5142.045915437634
 20
4760.3501358380972
 30
0.0
 11
5162.0462154376337
 21
4760.3501358380972
 31
0.0
  0
LINE
  5
3E8
  8
1
 62
     7
 10
5142.045915437634
 20
4864.3511358380974
 30
0.0
 11
5162.0462154376337
 21
4864.3511358380974
 31
0.0
  0
LINE
  5
3E9
  8
1
 62
     7
 10
5129.0454354376343
 20
4913.3491087010716
 30
0.0
 11
5142.045915437634
 21
4913.3491087010716
 31
0.0
  0
LINE
  5
3EA
  8
1
 62
     7
 10
5129.0454354376343
 20
4875.3507358380984
 30
0.0
 11
5142.045915437634
 21
4875.3507358380984
 31
0.0
  0
LINE
  5
3EB
  8
1
 62
     7
 10
5155.0457154376336
 20
4913.3491087010716
 30
0.0
 11
5164.0462154376337
 21
4913.3491087010716
 31
0.0
  0
LINE
  5
3EC
  8
1
 62
     7
 10
5155.0457154376336
 20
4875.3507358380984
 30
0.0
 11
5162.0462154376337
 21
4875.3507358380984
 31
0.0
  0
LINE
  5
3ED
  8
1
 62
     7
 10
5122.0463394376338
 20
4842.3506358380982
 30
0.0
 11
5122.0463394376338
 21
4813.623402930707
 31
0.0
  0
LINE
  5
3EE
  8
1
 62
     7
 10
5162.0462154376337
 20
4842.3506358380982
 30
0.0
 11
5162.0462154376337
 21
4813.6238009390026
 31
0.0
  0
LINE
  5
3EF
  8
1
 62
     7
 10
5122.0463394376338
 20
4864.3511358380974
 30
0.0
 11
5122.0463394376338
 21
4842.3506358380982
 31
0.0
  0
LINE
  5
3F0
  8
1
 62
     7
 10
5162.0462154376337
 20
4864.3511358380974
 30
0.0
 11
5162.0462154376337
 21
4842.3506358380982
 31
0.0
  0
LINE
  5
3F1
  8
1
 62
     7
 10
5155.0457154376336
 20
4875.3507358380984
 30
0.0
 11
5155.0457154376336
 21
4913.3491087010716
 31
0.0
  0
LINE
  5
3F2
  8
1
 62
     7
 10
5129.0454354376343
 20
4913.3491087010716
 30
0.0
 11
5129.0454354376343
 21
4875.3507358380984
 31
0.0
  0
LINE
  5
3F3
  8
1
 62
     7
 10
5122.0463394376338
 20
4864.3511358380974
 30
0.0
 11
5142.045915437634
 21
4864.3511358380974
 31
0.0
  0
LINE
  5
3F4
  8
1
 62
     7
 10
5122.0463394376338
 20
4760.3501358380972
 30
0.0
 11
5142.045915437634
 21
4760.3501358380972
 31
0.0
  0
LINE
  5
3F5
  8
1
 62
     7
 10
5162.0462154376337
 20
4875.3507358380984
 30
0.0
 11
5162.0462154376337
 21
4871.0766287682072
 31
0.0
  0
LINE
  5
3F6
  8
1
 62
     7
 10
5122.0463394376338
 20
4875.3507358380984
 30
0.0
 11
5122.0463394376338
 21
4871.0775124281772
 31
0.0
  0
LINE
  5
3F7
  8
1
 62
     7
 10
5122.0463394376338
 20
4875.3507358380984
 30
0.0
 11
5129.0454354376343
 21
4875.3507358380984
 31
0.0
  0
LINE
  5
3F8
  8
1
 62
     7
 10
5120.0463394376338
 20
4913.3491087010716
 30
0.0
 11
5129.0454354376343
 21
4913.3491087010716
 31
0.0
  0
LINE
  5
3F9
  8
1
 62
     7
 10
5120.0463394376338
 20
4927.8488887010708
 30
0.0
 11
5142.045915437634
 21
4927.8488887010708
 31
0.0
  0
LINE
  5
3FA
  8
1
 62
     7
 10
5120.0463394376338
 20
4913.3491087010716
 30
0.0
 11
5120.0463394376338
 21
4927.8488887010708
 31
0.0
  0
LINE
  5
3FB
  8
1
 62
     7
 10
5164.0462154376337
 20
4913.3491087010716
 30
0.0
 11
5164.0462154376337
 21
4927.8488887010708
 31
0.0
  0
LINE
  5
3FC
  8
1
 62
     7
 10
5122.0463394376338
 20
4871.0775124281772
 30
0.0
 11
5122.0463394376338
 21
4864.3511358380974
 31
0.0
  0
LINE
  5
3FD
  8
1
 62
     7
 10
5162.0462154376337
 20
4871.0766287682072
 30
0.0
 11
5162.0462154376337
 21
4864.3511358380974
 31
0.0
  0
LINE
  5
3FE
  8
1
 62
     7
 10
5162.0462154376337
 20
4813.6238009390026
 30
0.0
 11
5162.0462154376337
 21
4760.3501358380972
 31
0.0
  0
LINE
  5
3FF
  8
1
 62
     7
 10
5122.0463394376338
 20
4813.623402930707
 30
0.0
 11
5122.0463394376338
 21
4760.3501358380972
 31
0.0
  0
LINE
  5
400
  8
1
  6
DASHED
 62
     7
 10
5294.6740154376348
 20
4937.3515358380992
 30
0.0
 11
5294.6740154376348
 21
4937.7442903657338
 31
0.0
  0
LINE
  5
401
  8
1
  6
DASHED
 62
     7
 10
5309.4367154376341
 20
4937.3515358380992
 30
0.0
 11
5309.4367154376341
 21
4937.7442903657338
 31
0.0
  0
LINE
  5
402
  8
1
 62
     7
 10
4877.0509078308141
 20
4937.3515358380992
 30
0.0
 11
4877.0508986383793
 21
4862.4339964465562
 31
0.0
  0
LINE
  5
403
  8
1
 62
     7
 10
4907.0509154376341
 20
4937.3515358380992
 30
0.0
 11
4907.0509154376341
 21
4862.4340358380978
 31
0.0
  0
LINE
  5
404
  8
1
 62
     7
 10
5347.0519154376352
 20
4937.3515358380992
 30
0.0
 11
5347.0519154376352
 21
4862.4340358380978
 31
0.0
  0
LINE
  5
405
  8
1
 62
     7
 10
5377.0519154376343
 20
4937.3515358380992
 30
0.0
 11
5377.0519154376343
 21
4862.4340358380978
 31
0.0
  0
LINE
  5
406
  8
1
  6
DASHED
 62
     7
 10
5291.5767154376354
 20
4967.3498467195823
 30
0.0
 11
5291.5767154376354
 21
4990.75084673741
 31
0.0
  0
LINE
  5
407
  8
1
  6
DASHED
 62
     7
 10
5312.5327154376346
 20
4990.75084673741
 30
0.0
 11
5312.5327154376346
 21
4967.3498467552399
 31
0.0
  0
LINE
  5
408
  8
1
 62
     7
 10
4832.0509154376332
 20
4937.3515358380982
 30
0.0
 11
5422.0519154376343
 21
4937.3515358380982
 31
0.0
  0
LINE
  5
409
  8
1
  6
DASHED
 62
     7
 10
5312.5327154376346
 20
4999.3464358380988
 30
0.0
 11
5312.5327154376346
 21
4998.5144055609389
 31
0.0
  0
LINE
  5
40A
  8
1
 62
     7
 10
5242.045915437634
 20
4776.6328870671186
 30
0.0
 11
5237.0465154376352
 21
4776.6328713352914
 31
0.0
  0
LINE
  5
40B
  8
1
 62
     7
 10
5237.0465154376352
 20
4774.8503632301954
 30
0.0
 11
5237.0465154376352
 21
4776.6328713352914
 31
0.0
  0
LINE
  5
40C
  8
1
 62
     7
 10
5235.7587154376351
 20
4788.8616870671167
 30
0.0
 11
5234.6652154376343
 21
4789.9564870671184
 31
0.0
  0
LINE
  5
40D
  8
1
 62
     7
 10
5235.7587154376351
 20
4788.8616870671167
 30
0.0
 11
5235.7587154376351
 21
4780.2412870671169
 31
0.0
  0
LINE
  5
40E
  8
1
 62
     7
 10
5234.6652154376343
 20
4796.7123870671194
 30
0.0
 11
5237.0617154376341
 21
4796.7123870671194
 31
0.0
  0
LINE
  5
40F
  8
1
 62
     7
 10
5234.6652154376343
 20
4796.7123870671194
 30
0.0
 11
5234.6652154376343
 21
4789.9564870671184
 31
0.0
  0
LINE
  5
410
  8
1
 62
     7
 10
5242.045915437634
 20
4776.6328870671186
 30
0.0
 11
5247.045915437634
 21
4776.6328870671186
 31
0.0
  0
LINE
  5
411
  8
1
 62
     7
 10
5247.045915437634
 20
4774.850363725127
 30
0.0
 11
5247.045915437634
 21
4776.6328870671186
 31
0.0
  0
LINE
  5
412
  8
1
 62
     7
 10
5248.3339154376336
 20
4788.8616870671167
 30
0.0
 11
5249.4279154376336
 21
4789.9564870671184
 31
0.0
  0
LINE
  5
413
  8
1
 62
     7
 10
5248.3339154376336
 20
4788.8616870671167
 30
0.0
 11
5248.3339154376336
 21
4780.2412870671169
 31
0.0
  0
LINE
  5
414
  8
1
 62
     7
 10
5249.4279154376336
 20
4796.7123870671194
 30
0.0
 11
5249.4279154376336
 21
4789.9564870671184
 31
0.0
  0
LINE
  5
415
  8
1
 62
     7
 10
5249.4279154376336
 20
4796.7123870671194
 30
0.0
 11
5247.0309154376337
 21
4796.7123870671194
 31
0.0
  0
LINE
  5
416
  8
1
  6
DASHED
 62
     7
 10
5302.0547154376336
 20
4951.0672903657351
 30
0.0
 11
5307.0547154376354
 21
4951.0672903657351
 31
0.0
  0
LINE
  5
417
  8
1
  6
DASHED
 62
     7
 10
5308.342715437635
 20
4938.838290365733
 30
0.0
 11
5309.4367154376341
 21
4937.7442903657338
 31
0.0
  0
LINE
  5
418
  8
1
  6
DASHED
 62
     7
 10
5308.342715437635
 20
4938.838290365733
 30
0.0
 11
5308.34289291814
 21
4947.4598075005924
 31
0.0
  0
LINE
  5
419
  8
1
 62
     7
 10
5309.4367154376341
 20
4930.9882903657353
 30
0.0
 11
5309.4367154376341
 21
4937.3515358380992
 31
0.0
  0
LINE
  5
41A
  8
1
  6
DASHED
 62
     7
 10
5302.0547154376336
 20
4951.0672903657351
 30
0.0
 11
5297.0553154376348
 21
4951.0672903657351
 31
0.0
  0
LINE
  5
41B
  8
1
  6
DASHED
 62
     7
 10
5295.7675154376348
 20
4938.838290365733
 30
0.0
 11
5294.6740154376348
 21
4937.7442903657338
 31
0.0
  0
LINE
  5
41C
  8
1
  6
DASHED
 62
     7
 10
5295.7675154376348
 20
4938.838290365733
 30
0.0
 11
5295.7675258907384
 21
4947.4598070190432
 31
0.0
  0
LINE
  5
41D
  8
1
 62
     7
 10
5294.6740154376348
 20
4930.9882903657353
 30
0.0
 11
5294.6740154376348
 21
4937.3515358380992
 31
0.0
  0
LINE
  5
41E
  8
1
 62
     7
 10
5294.6740154376348
 20
4930.9882903657353
 30
0.0
 11
5297.0705154376346
 21
4930.9882903657353
 31
0.0
  0
LINE
  5
41F
  8
1
 62
     7
 10
5309.4367154376341
 20
4930.9882903657353
 30
0.0
 11
5307.0397154376342
 21
4930.9882903657353
 31
0.0
  0
LINE
  5
420
  8
1
 62
     7
 10
5228.0471756310362
 20
4762.5995260196796
 30
0.0
 11
5228.0471754815626
 21
4772.6000144813461
 31
0.0
  0
LINE
  5
421
  8
1
 62
     7
 10
5256.0469154376342
 20
4762.6126107082782
 30
0.0
 11
5256.0469154376342
 21
4771.7364401756422
 31
0.0
  0
LINE
  5
422
  8
1
  6
DASHED
 62
     7
 10
5288.0566646310353
 20
4955.0990093182963
 30
0.0
 11
5288.0566154376347
 21
4965.0992903657334
 31
0.0
  0
LINE
  5
423
  8
1
  6
DASHED
 62
     7
 10
5312.5548939982782
 20
4952.850037828106
 30
0.0
 11
5312.4674054412581
 21
4952.8500378241079
 31
0.0
  0
LINE
  5
424
  8
1
  6
DASHED
 62
     7
 10
5312.554893998592
 20
4967.3498467552781
 30
0.0
 11
5291.6442320033539
 21
4967.3498467196951
 31
0.0
  0
LINE
  5
425
  8
1
  6
DASHED
 62
     7
 10
5316.0565107354432
 20
4955.0990102194537
 30
0.0
 11
5316.0567154376349
 21
4965.0992903657334
 31
0.0
  0
LINE
  5
426
  8
1
 62
     7
 10
5237.0465154376352
 20
4776.6328713352914
 30
0.0
 11
5235.7587259075081
 21
4776.6328672829486
 31
0.0
  0
LINE
  5
427
  8
1
  6
DASHED
 62
     7
 10
5297.0553154376348
 20
4951.0672903657351
 30
0.0
 11
5295.7675154376348
 21
4951.0672903657351
 31
0.0
  0
LINE
  5
428
  8
1
 62
     7
 10
5247.045915437634
 20
4776.6328870671186
 30
0.0
 11
5248.3339154376336
 21
4776.6328870671186
 31
0.0
  0
LINE
  5
429
  8
1
 62
     7
 10
5302.0547154376336
 20
4930.9882903657353
 30
0.0
 11
5302.0547154376336
 21
4885.9882903657344
 31
0.0
  0
LINE
  5
42A
  8
1
  6
DASHED
 62
     7
 10
5307.0547154376354
 20
4951.0672903657351
 30
0.0
 11
5308.342715437635
 21
4951.0672903657351
 31
0.0
  0
LINE
  5
42B
  8
1
 62
     7
 10
5237.0617154376341
 20
4796.7123870671194
 30
0.0
 11
5242.045915437634
 21
4796.7123870671194
 31
0.0
  0
LINE
  5
42C
  8
1
 62
     7
 10
5297.0705154376346
 20
4930.9882903657353
 30
0.0
 11
5302.0547154376336
 21
4930.9882903657353
 31
0.0
  0
LINE
  5
42D
  8
1
 62
     7
 10
5247.0309154376337
 20
4796.7123870671194
 30
0.0
 11
5242.045915437634
 21
4796.7123870671194
 31
0.0
  0
LINE
  5
42E
  8
1
 62
     7
 10
5307.0397154376342
 20
4930.9882903657353
 30
0.0
 11
5302.0547154376336
 21
4930.9882903657353
 31
0.0
  0
LINE
  5
42F
  8
1
  6
DASHED
 62
     7
 10
5291.6446954313542
 20
4952.8500368728883
 30
0.0
 11
5291.5569048679154
 21
4952.8500368688783
 31
0.0
  0
LINE
  5
430
  8
1
  6
DASHED
 62
     7
 10
5312.6696075226682
 20
4952.8500378333447
 30
0.0
 11
5307.0547154376354
 21
4952.8500375768481
 31
0.0
  0
LINE
  5
431
  8
1
  6
DASHED
 62
     7
 10
5297.0553154376348
 20
4952.8500371200553
 30
0.0
 11
5297.0553154376348
 21
4951.0672903657351
 31
0.0
  0
LINE
  5
432
  8
1
  6
DASHED
 62
     7
 10
5307.0547154376354
 20
4952.8500375768481
 30
0.0
 11
5307.0547154376354
 21
4951.0672903657351
 31
0.0
  0
LINE
  5
433
  8
1
  6
DASHED
 62
     7
 10
5291.6442320033539
 20
4967.3498467196951
 30
0.0
 11
5291.5569048373354
 21
4967.3498467195459
 31
0.0
  0
LINE
  5
434
  8
1
 62
     7
 10
5252.5454055688242
 20
4774.8503639973296
 30
0.0
 11
5247.045915437634
 21
4774.850363725127
 31
0.0
  0
LINE
  5
435
  8
1
 62
     7
 10
5252.5444156448839
 20
4760.3505535542627
 30
0.0
 11
5231.4598654159226
 21
4760.3505535542627
 31
0.0
  0
LINE
  5
436
  8
1
 62
     7
 10
5247.045915437634
 20
4774.850363725127
 30
0.0
 11
5237.0465154376352
 21
4774.8503632301954
 31
0.0
  0
LINE
  5
437
  8
1
  6
DASHED
 62
     7
 10
5307.0547154376354
 20
4952.8500375768481
 30
0.0
 11
5297.0553154376348
 21
4952.8500371200553
 31
0.0
  0
LINE
  5
438
  8
1
 62
     7
 10
5237.0465154376352
 20
4774.8503632301954
 30
0.0
 11
5231.5474153724899
 21
4774.8503629580082
 31
0.0
  0
LINE
  5
439
  8
1
  6
DASHED
 62
     7
 10
5297.0553154376348
 20
4952.8500371200553
 30
0.0
 11
5291.4691093056663
 21
4952.8500368648656
 31
0.0
  0
LINE
  5
43A
  8
1
 62
     7
 10
5302.0547154376336
 20
4885.9882903657344
 30
0.0
 11
5242.045915437634
 21
4836.7123870671203
 31
0.0
  0
LINE
  5
43B
  8
1
 62
     7
 10
5242.045915437634
 20
4836.7123870671203
 30
0.0
 11
5242.045915437634
 21
4796.7123870671194
 31
0.0
  0
LINE
  5
43C
  8
1
 62
     7
 10
5238.2403519313511
 20
5170.7520144829959
 30
0.0
 11
5237.9837154376346
 21
5171.4571467374089
 31
0.0
  0
LINE
  5
43D
  8
1
 62
     7
 10
5239.1808881687066
 20
5171.094209582121
 30
0.0
 11
5238.9247154376344
 21
5171.7981467374102
 31
0.0
  0
LINE
  5
43E
  8
1
  6
DASHED
 62
     7
 10
5291.5767154376354
 20
4998.5144929670287
 30
0.0
 11
5289.3897154376345
 21
4999.3498467374102
 31
0.0
  0
LINE
  5
43F
  8
1
  6
DASHED
 62
     7
 10
5312.5327154376346
 20
4998.5144055609389
 30
0.0
 11
5311.7767154376343
 21
4998.2253467374103
 31
0.0
  0
LINE
  5
440
  8
1
  6
DASHED
 62
     7
 10
5291.5767154376354
 20
4996.7683331676872
 30
0.0
 11
5292.1037154376336
 21
4996.5510467374106
 31
0.0
  0
LINE
  5
441
  8
1
  6
DASHED
 62
     7
 10
5312.5327154376346
 20
4996.7683331676872
 30
0.0
 11
5314.9387154376354
 21
4997.7603467374101
 31
0.0
  0
LINE
  5
442
  8
1
 62
     7
 10
5315.5547154376354
 20
5225.3511467374101
 30
0.0
 11
5288.5547154376336
 21
5225.3511467374101
 31
0.0
  0
LINE
  5
443
  8
1
 62
     7
 10
5288.0547154376354
 20
5224.351146737411
 30
0.0
 11
5315.6627154376347
 21
5224.351146737411
 31
0.0
  0
LINE
  5
444
  8
1
 62
     7
 10
5290.5557154376338
 20
5203.7501467374104
 30
0.0
 11
5313.5537154376352
 21
5203.7501467374104
 31
0.0
  0
LINE
  5
445
  8
1
 62
     7
 10
5313.5537154376352
 20
5202.8511467374101
 30
0.0
 11
5290.5557154376338
 21
5202.8511467374101
 31
0.0
  0
LINE
  5
446
  8
1
  6
DASHED
 62
     7
 10
5302.5407154376344
 20
4998.1509467374108
 30
0.0
 11
5301.5687154376337
 21
4998.1509467374108
 31
0.0
  0
LINE
  5
447
  8
1
  6
DASHED
 62
     7
 10
5312.5327154376346
 20
4990.75084673741
 30
0.0
 11
5291.5767154376354
 21
4990.75084673741
 31
0.0
  0
LINE
  5
448
  8
1
  6
DASHED
 62
     7
 10
5302.8057154376347
 20
4996.5510467374106
 30
0.0
 11
5301.3047154376336
 21
4996.5510467374106
 31
0.0
  0
LINE
  5
449
  8
1
 62
     7
 10
5320.0547154376354
 20
5017.3498467374102
 30
0.0
 11
5302.0547154376336
 21
5017.3498467374102
 31
0.0
  0
LINE
  5
44A
  8
1
 62
     7
 10
5321.5556358261756
 20
5020.3511827584534
 30
0.0
 11
5282.5537154376343
 21
5020.3511867374109
 31
0.0
  0
LINE
  5
44B
  8
1
 62
     7
 10
5288.0547154376354
 20
5090.3504467374096
 30
0.0
 11
5316.0547154376336
 21
5090.3504467374096
 31
0.0
  0
LINE
  5
44C
  8
1
 62
     7
 10
5290.5557154376338
 20
5202.8511467374101
 30
0.0
 11
5290.5557154376338
 21
5203.7501467374104
 31
0.0
  0
LINE
  5
44D
  8
1
 62
     7
 10
5313.5537154376352
 20
5202.8511467374101
 30
0.0
 11
5313.5537154376352
 21
5203.7501467374104
 31
0.0
  0
LINE
  5
44E
  8
1
 62
     7
 10
5313.5537154376352
 20
5203.7501467374104
 30
0.0
 11
5315.7557154376354
 21
5203.7501467374104
 31
0.0
  0
LINE
  5
44F
  8
1
 62
     7
 10
5290.5557154376338
 20
5202.8511467374101
 30
0.0
 11
5288.0547154376354
 21
5202.8511467374101
 31
0.0
  0
LINE
  5
450
  8
1
 62
     7
 10
5244.2117154376347
 20
5154.3451467374098
 30
0.0
 11
5238.2403519313511
 21
5170.7520144829959
 31
0.0
  0
LINE
  5
451
  8
1
 62
     7
 10
5245.3365427871458
 20
5154.1790836712571
 30
0.0
 11
5239.1808881687066
 21
5171.094209582121
 31
0.0
  0
LINE
  5
452
  8
1
 62
     7
 10
5245.3365427871458
 20
5154.1790836712571
 30
0.0
 11
5244.3977154376344
 21
5153.8361467374107
 31
0.0
  0
LINE
  5
453
  8
1
 62
     7
 10
5244.3977154376344
 20
5153.8361467374107
 30
0.0
 11
5244.2117154376347
 21
5154.3451467374098
 31
0.0
  0
LINE
  5
454
  8
1
  6
DASHED
 62
     7
 10
5301.3047154376336
 20
4996.5510467374106
 30
0.0
 11
5293.4307154376347
 21
4996.5510467374106
 31
0.0
  0
LINE
  5
455
  8
1
  6
DASHED
 62
     7
 10
5291.5767154376354
 20
4990.75084673741
 30
0.0
 11
5288.2057154376344
 21
4990.75084673741
 31
0.0
  0
LINE
  5
456
  8
1
  6
DASHED
 62
     7
 10
5292.3337154376341
 20
4998.2253467374103
 30
0.0
 11
5293.1937154376337
 21
4998.2253467374103
 31
0.0
  0
LINE
  5
457
  8
1
  6
DASHED
 62
     7
 10
5310.9167154376346
 20
4998.2253467374103
 30
0.0
 11
5311.7767154376343
 21
4998.2253467374103
 31
0.0
  0
LINE
  5
458
  8
1
  6
DASHED
 62
     7
 10
5291.5767154376354
 20
4996.5510467374106
 30
0.0
 11
5288.2057154376344
 21
4996.5510467374106
 31
0.0
  0
LINE
  5
459
  8
1
  6
DASHED
 62
     7
 10
5310.6787154376343
 20
4996.5510467374106
 30
0.0
 11
5302.8057154376347
 21
4996.5510467374106
 31
0.0
  0
LINE
  5
45A
  8
1
  6
DASHED
 62
     7
 10
5312.5327154376346
 20
4996.5510467374106
 30
0.0
 11
5312.0057154376354
 21
4996.5510467374106
 31
0.0
  0
LINE
  5
45B
  8
1
  6
DASHED
 62
     7
 10
5307.3407154376346
 20
4997.74994673741
 30
0.0
 11
5310.6787154376343
 21
4996.5510467374106
 31
0.0
  0
LINE
  5
45C
  8
1
 62
     7
 10
5239.1808881687066
 20
5171.094209582121
 30
0.0
 11
5238.2403519313511
 21
5170.7520144829959
 31
0.0
  0
LINE
  5
45D
  8
1
  6
DASHED
 62
     7
 10
5306.0777154376337
 20
4999.3498467374102
 30
0.0
 11
5307.6027154376343
 21
4999.3498467374102
 31
0.0
  0
LINE
  5
45E
  8
1
  6
DASHED
 62
     7
 10
5298.0327154376346
 20
4999.3498467374102
 30
0.0
 11
5295.9777154376352
 21
4999.3498467374102
 31
0.0
  0
LINE
  5
45F
  8
1
 62
     7
 10
5316.0547154376336
 20
5224.351146737411
 30
0.0
 11
5316.0547154376336
 21
5224.8511467374101
 31
0.0
  0
LINE
  5
460
  8
1
 62
     7
 10
5316.0547154376336
 20
5224.351146737411
 30
0.0
 11
5315.6627154376347
 21
5224.351146737411
 31
0.0
  0
LINE
  5
461
  8
1
 62
     7
 10
5288.0547154376354
 20
5224.351146737411
 30
0.0
 11
5288.0547154376354
 21
5224.8511467374101
 31
0.0
  0
LINE
  5
462
  8
1
 62
     7
 10
5225.6890468508373
 20
5146.7608032707794
 30
0.0
 11
5219.3617154376343
 21
5164.1451467374109
 31
0.0
  0
LINE
  5
463
  8
1
 62
     7
 10
5237.9837154376346
 20
5171.4571467374089
 30
0.0
 11
5219.6607154376343
 21
5164.7861467374096
 31
0.0
  0
LINE
  5
464
  8
1
 62
     7
 10
5244.654715437634
 20
5153.1311467374107
 30
0.0
 11
5226.3297154376351
 21
5146.4631467374093
 31
0.0
  0
LINE
  5
465
  8
1
 62
     7
 10
5244.654715437634
 20
5153.1311467374107
 30
0.0
 11
5244.3977154376344
 21
5153.8361467374107
 31
0.0
  0
LINE
  5
466
  8
1
  6
DASHED
 62
     7
 10
5282.0557154376347
 20
4998.1509467374108
 30
0.0
 11
5282.0557154376347
 21
4996.5510467374106
 31
0.0
  0
LINE
  5
467
  8
1
  6
DASHED
 62
     7
 10
5322.0537154376343
 20
4998.1509467374108
 30
0.0
 11
5322.0537154376343
 21
4996.5510467374106
 31
0.0
  0
LINE
  5
468
  8
1
  6
DASHED
 62
     7
 10
5297.7367154376343
 20
4997.7603467374101
 30
0.0
 11
5296.7697154376337
 21
4997.74994673741
 31
0.0
  0
LINE
  5
469
  8
1
  6
DASHED
 62
     7
 10
5301.5687154376337
 20
4998.1509467374108
 30
0.0
 11
5298.0327154376346
 21
4999.3498467374102
 31
0.0
  0
LINE
  5
46A
  8
1
  6
DASHED
 62
     7
 10
5301.3047154376336
 20
4996.5510467374106
 30
0.0
 11
5297.7367154376343
 21
4997.7603467374101
 31
0.0
  0
LINE
  5
46B
  8
1
  6
DASHED
 62
     7
 10
5306.0777154376337
 20
4999.3498467374102
 30
0.0
 11
5302.5407154376344
 21
4998.1509467374108
 31
0.0
  0
LINE
  5
46C
  8
1
  6
DASHED
 62
     7
 10
5306.3397154376344
 20
4997.74994673741
 30
0.0
 11
5302.8057154376347
 21
4996.5510467374106
 31
0.0
  0
LINE
  5
46D
  8
1
  6
DASHED
 62
     7
 10
5293.4307154376347
 20
4996.5510467374106
 30
0.0
 11
5292.1037154376336
 21
4996.5510467374106
 31
0.0
  0
LINE
  5
46E
  8
1
  6
DASHED
 62
     7
 10
5286.0327154376337
 20
4996.5510467374106
 30
0.0
 11
5285.181715437634
 21
4996.5510467374106
 31
0.0
  0
LINE
  5
46F
  8
1
  6
DASHED
 62
     7
 10
5282.3057154376347
 20
4996.5510467374106
 30
0.0
 11
5282.0557154376347
 21
4996.5510467374106
 31
0.0
  0
LINE
  5
470
  8
1
  6
DASHED
 62
     7
 10
5318.9287154376352
 20
4996.5510467374106
 30
0.0
 11
5318.0767154376344
 21
4996.5510467374106
 31
0.0
  0
LINE
  5
471
  8
1
  6
DASHED
 62
     7
 10
5322.0537154376343
 20
4996.5510467374106
 30
0.0
 11
5321.8037154376352
 21
4996.5510467374106
 31
0.0
  0
LINE
  5
472
  8
1
  6
DASHED
 62
     7
 10
5285.8757154376353
 20
4998.2253467374103
 30
0.0
 11
5285.3237154376338
 21
4998.2253467374103
 31
0.0
  0
LINE
  5
473
  8
1
  6
DASHED
 62
     7
 10
5318.2337154376346
 20
4998.2253467374103
 30
0.0
 11
5318.7857154376343
 21
4998.2253467374103
 31
0.0
  0
LINE
  5
474
  8
1
  6
DASHED
 62
     7
 10
5296.7697154376337
 20
4997.74994673741
 30
0.0
 11
5293.4307154376347
 21
4996.5510467374106
 31
0.0
  0
LINE
  5
475
  8
1
  6
DASHED
 62
     7
 10
5306.3397154376344
 20
4997.74994673741
 30
0.0
 11
5307.3407154376346
 21
4997.74994673741
 31
0.0
  0
LINE
  5
476
  8
1
  6
DASHED
 62
     7
 10
5289.3897154376345
 20
4999.3498467374102
 30
0.0
 11
5288.2137154376351
 21
4999.3498467374102
 31
0.0
  0
LINE
  5
477
  8
1
  6
DASHED
 62
     7
 10
5283.6477154376344
 20
4999.3498467374102
 30
0.0
 11
5283.0897154376344
 21
4999.3498467374102
 31
0.0
  0
LINE
  5
478
  8
1
  6
DASHED
 62
     7
 10
5314.7177154376341
 20
4999.3498467374102
 30
0.0
 11
5315.8937154376354
 21
4999.3498467374102
 31
0.0
  0
LINE
  5
479
  8
1
  6
DASHED
 62
     7
 10
5320.4597154376343
 20
4999.3498467374102
 30
0.0
 11
5321.0177154376343
 21
4999.3498467374102
 31
0.0
  0
LINE
  5
47A
  8
1
  6
DASHED
 62
     7
 10
5289.1707154376336
 20
4997.7603467374101
 30
0.0
 11
5288.422715437634
 21
4997.7603467374101
 31
0.0
  0
LINE
  5
47B
  8
1
  6
DASHED
 62
     7
 10
5283.5377154376347
 20
4997.7603467374101
 30
0.0
 11
5283.1827154376342
 21
4997.7603467374101
 31
0.0
  0
LINE
  5
47C
  8
1
  6
DASHED
 62
     7
 10
5314.9387154376354
 20
4997.7603467374101
 30
0.0
 11
5315.6877154376343
 21
4997.7603467374101
 31
0.0
  0
LINE
  5
47D
  8
1
  6
DASHED
 62
     7
 10
5320.5717154376343
 20
4997.7603467374101
 30
0.0
 11
5320.9277154376341
 21
4997.7603467374101
 31
0.0
  0
LINE
  5
47E
  8
1
  6
DASHED
 62
     7
 10
5292.3337154376341
 20
4998.2253467374103
 30
0.0
 11
5291.5767154376354
 21
4998.5144929670287
 31
0.0
  0
LINE
  5
47F
  8
1
  6
DASHED
 62
     7
 10
5288.2137154376351
 20
4999.3498467374102
 30
0.0
 11
5285.8757154376353
 21
4998.2253467374103
 31
0.0
  0
LINE
  5
480
  8
1
  6
DASHED
 62
     7
 10
5283.0897154376344
 20
4999.3498467374102
 30
0.0
 11
5282.0557154376347
 21
4998.1509467374108
 31
0.0
  0
LINE
  5
481
  8
1
  6
DASHED
 62
     7
 10
5283.1827154376342
 20
4997.7603467374101
 30
0.0
 11
5282.3057154376347
 21
4996.5510467374106
 31
0.0
  0
LINE
  5
482
  8
1
  6
DASHED
 62
     7
 10
5285.3237154376338
 20
4998.2253467374103
 30
0.0
 11
5283.6477154376344
 21
4999.3498467374102
 31
0.0
  0
LINE
  5
483
  8
1
  6
DASHED
 62
     7
 10
5283.5377154376347
 20
4997.7603467374101
 30
0.0
 11
5285.181715437634
 21
4996.5510467374106
 31
0.0
  0
LINE
  5
484
  8
1
  6
DASHED
 62
     7
 10
5286.0327154376337
 20
4996.5510467374106
 30
0.0
 11
5288.422715437634
 21
4997.7603467374101
 31
0.0
  0
LINE
  5
485
  8
1
  6
DASHED
 62
     7
 10
5289.1707154376336
 20
4997.7603467374101
 30
0.0
 11
5291.5767154376354
 21
4996.7683331676872
 31
0.0
  0
LINE
  5
486
  8
1
  6
DASHED
 62
     7
 10
5322.0537154376343
 20
4998.1509467374108
 30
0.0
 11
5321.0177154376343
 21
4999.3498467374102
 31
0.0
  0
LINE
  5
487
  8
1
  6
DASHED
 62
     7
 10
5320.4597154376343
 20
4999.3498467374102
 30
0.0
 11
5318.7857154376343
 21
4998.2253467374103
 31
0.0
  0
LINE
  5
488
  8
1
  6
DASHED
 62
     7
 10
5318.2337154376346
 20
4998.2253467374103
 30
0.0
 11
5315.8937154376354
 21
4999.3498467374102
 31
0.0
  0
LINE
  5
489
  8
1
  6
DASHED
 62
     7
 10
5314.7177154376341
 20
4999.3498467374102
 30
0.0
 11
5312.5327154376346
 21
4998.5144055609389
 31
0.0
  0
LINE
  5
48A
  8
1
  6
DASHED
 62
     7
 10
5310.9167154376346
 20
4998.2253467374103
 30
0.0
 11
5307.6027154376343
 21
4999.3498467374102
 31
0.0
  0
LINE
  5
48B
  8
1
  6
DASHED
 62
     7
 10
5312.0057154376354
 20
4996.5510467374106
 30
0.0
 11
5312.5327154376346
 21
4996.7683331676872
 31
0.0
  0
LINE
  5
48C
  8
1
  6
DASHED
 62
     7
 10
5315.6877154376343
 20
4997.7603467374101
 30
0.0
 11
5318.0767154376344
 21
4996.5510467374106
 31
0.0
  0
LINE
  5
48D
  8
1
  6
DASHED
 62
     7
 10
5318.9287154376352
 20
4996.5510467374106
 30
0.0
 11
5320.5717154376343
 21
4997.7603467374101
 31
0.0
  0
LINE
  5
48E
  8
1
  6
DASHED
 62
     7
 10
5320.9277154376341
 20
4997.7603467374101
 30
0.0
 11
5321.8037154376352
 21
4996.5510467374106
 31
0.0
  0
LINE
  5
48F
  8
1
  6
DASHED
 62
     7
 10
5293.1937154376337
 20
4998.2253467374103
 30
0.0
 11
5295.9777154376352
 21
4999.3498467374102
 31
0.0
  0
LINE
  5
490
  8
1
  6
DASHED
 62
     7
 10
5288.2057154376344
 20
4990.75084673741
 30
0.0
 11
5288.2057154376344
 21
4996.5510467374106
 31
0.0
  0
LINE
  5
491
  8
1
  6
DASHED
 62
     7
 10
5315.904715437634
 20
4990.75084673741
 30
0.0
 11
5315.904715437634
 21
4996.5510467374106
 31
0.0
  0
LINE
  5
492
  8
1
  6
DASHED
 62
     7
 10
5315.904715437634
 20
4996.5510467374106
 30
0.0
 11
5312.5327154376346
 21
4996.5510467374106
 31
0.0
  0
LINE
  5
493
  8
1
  6
DASHED
 62
     7
 10
5312.0057154376354
 20
4996.5510467374106
 30
0.0
 11
5310.6787154376343
 21
4996.5510467374106
 31
0.0
  0
LINE
  5
494
  8
1
  6
DASHED
 62
     7
 10
5292.1037154376336
 20
4996.5510467374106
 30
0.0
 11
5291.5767154376354
 21
4996.5510467374106
 31
0.0
  0
LINE
  5
495
  8
1
  6
DASHED
 62
     7
 10
5315.904715437634
 20
4990.75084673741
 30
0.0
 11
5312.5327154376346
 21
4990.75084673741
 31
0.0
  0
LINE
  5
496
  8
1
 62
     7
 10
5316.0547154376336
 20
5223.350146737409
 30
0.0
 11
5316.0547154376336
 21
5204.0511467374108
 31
0.0
  0
LINE
  5
497
  8
1
 62
     7
 10
5288.3547154376338
 20
5203.7501467374104
 30
0.0
 11
5290.5557154376338
 21
5203.7501467374104
 31
0.0
  0
LINE
  5
498
  8
1
 62
     7
 10
5267.8547154376347
 20
5221.3511467374101
 30
0.0
 11
5287.0537154376343
 21
5221.3511467374101
 31
0.0
  0
LINE
  5
499
  8
1
 62
     7
 10
5267.8547154376347
 20
5213.3511467374101
 30
0.0
 11
5287.0537154376343
 21
5213.3511467374101
 31
0.0
  0
LINE
  5
49A
  8
1
 62
     7
 10
5288.0547154376354
 20
5224.351146737411
 30
0.0
 11
5288.0546264458799
 21
5222.3508109036075
 31
0.0
  0
LINE
  5
49B
  8
1
 62
     7
 10
5288.054626105537
 20
5212.351013635116
 30
0.0
 11
5288.0546261870559
 21
5204.051037217354
 31
0.0
  0
LINE
  5
49C
  8
1
 62
     7
 10
5267.0552580842514
 20
5220.5510820191939
 30
0.0
 11
5267.0552588029877
 21
5214.1507425707814
 31
0.0
  0
LINE
  5
49D
  8
1
 62
     7
 10
5315.6627154376347
 20
5223.350146737409
 30
0.0
 11
5315.6627154376347
 21
5224.351146737411
 31
0.0
  0
LINE
  5
49E
  8
1
 62
     7
 10
5315.6627154376347
 20
5223.350146737409
 30
0.0
 11
5316.0547154376336
 21
5223.350146737409
 31
0.0
  0
LINE
  5
49F
  8
1
 62
     7
 10
5316.0547154376336
 20
5090.3504467374096
 30
0.0
 11
5316.0547154376336
 21
5202.8511467374101
 31
0.0
  0
LINE
  5
4A0
  8
1
 62
     7
 10
5288.0547154376354
 20
5090.3504467374096
 30
0.0
 11
5288.0546264258292
 21
5161.7890941288751
 31
0.0
  0
LINE
  5
4A1
  8
1
 62
     7
 10
5288.0547154376354
 20
5191.0821467374099
 30
0.0
 11
5288.0547154376354
 21
5202.8511467374101
 31
0.0
  0
LINE
  5
4A2
  8
1
 62
     7
 10
5316.0547154376336
 20
5202.8511467374101
 30
0.0
 11
5313.5537154376352
 21
5202.8511467374101
 31
0.0
  0
LINE
  5
4A3
  8
1
 62
     7
 10
5245.5927154376341
 20
5153.4751467374099
 30
0.0
 11
5245.3365427871458
 21
5154.1790836712571
 31
0.0
  0
LINE
  5
4A4
  8
1
 62
     7
 10
5288.4247154376353
 20
5188.975146737409
 30
0.0
 11
5289.3237154376347
 21
5188.0721467374105
 31
0.0
  0
LINE
  5
4A5
  8
1
 62
     7
 10
5289.3237154376347
 20
5188.0721467374105
 30
0.0
 11
5290.0807154376353
 21
5187.1351467374107
 31
0.0
  0
LINE
  5
4A6
  8
1
 62
     7
 10
5290.0807154376353
 20
5187.1351467374107
 30
0.0
 11
5290.7007154376342
 21
5186.1601467374094
 31
0.0
  0
LINE
  5
4A7
  8
1
 62
     7
 10
5290.7007154376342
 20
5186.1601467374094
 30
0.0
 11
5291.186715437635
 21
5185.1431467374096
 31
0.0
  0
LINE
  5
4A8
  8
1
 62
     7
 10
5291.186715437635
 20
5185.1431467374096
 30
0.0
 11
5291.5357154376352
 21
5184.0841467374112
 31
0.0
  0
LINE
  5
4A9
  8
1
 62
     7
 10
5291.5357154376352
 20
5184.0841467374112
 30
0.0
 11
5291.7507154376344
 21
5182.9831467374097
 31
0.0
  0
LINE
  5
4AA
  8
1
 62
     7
 10
5291.7507154376344
 20
5182.9831467374097
 30
0.0
 11
5291.8287154376349
 21
5181.8401467374097
 31
0.0
  0
LINE
  5
4AB
  8
1
 62
     7
 10
5291.8287154376349
 20
5181.8401467374097
 30
0.0
 11
5291.7717154376342
 21
5180.6571467374097
 31
0.0
  0
LINE
  5
4AC
  8
1
 62
     7
 10
5291.7717154376342
 20
5180.6571467374097
 30
0.0
 11
5291.2357154376341
 21
5178.0181467374114
 31
0.0
  0
LINE
  5
4AD
  8
1
 62
     7
 10
5291.2357154376341
 20
5178.0181467374114
 30
0.0
 11
5290.1257154376353
 21
5174.8931467374096
 31
0.0
  0
LINE
  5
4AE
  8
1
 62
     7
 10
5290.1257154376353
 20
5174.8931467374096
 30
0.0
 11
5288.449715437634
 21
5171.284146737411
 31
0.0
  0
LINE
  5
4AF
  8
1
 62
     7
 10
5288.449715437634
 20
5171.284146737411
 30
0.0
 11
5286.1897154376347
 21
5167.1701467374114
 31
0.0
  0
LINE
  5
4B0
  8
1
 62
     7
 10
5286.739715437634
 20
5189.2021467374107
 30
0.0
 11
5238.9247154376344
 21
5171.7981467374102
 31
0.0
  0
LINE
  5
4B1
  8
1
 62
     7
 10
5281.3447154376354
 20
5166.4881467374098
 30
0.0
 11
5245.5927154376341
 21
5153.4751467374099
 31
0.0
  0
LINE
  5
4B2
  8
1
 62
     7
 10
5322.0537154376343
 20
5017.3498467374102
 30
0.0
 11
5322.0537154376343
 21
5019.8509567374103
 31
0.0
  0
LINE
  5
4B3
  8
1
 62
     7
 10
5322.0537154376343
 20
5017.3498467374102
 30
0.0
 11
5320.0547154376354
 21
5017.3498467374102
 31
0.0
  0
LINE
  5
4B4
  8
1
 62
     7
 10
5284.0547154376336
 20
5017.3498467374102
 30
0.0
 11
5282.0557154376347
 21
5017.3498467374102
 31
0.0
  0
LINE
  5
4B5
  8
1
 62
     7
 10
5282.0557154376347
 20
5017.3498467374102
 30
0.0
 11
5282.0557154376347
 21
5019.8509567374103
 31
0.0
  0
LINE
  5
4B6
  8
1
 62
     7
 10
5288.0547154376354
 20
5020.3511867374109
 30
0.0
 11
5288.0547154376354
 21
5090.3504467374096
 31
0.0
  0
LINE
  5
4B7
  8
1
 62
     7
 10
5316.0547154376336
 20
5020.3511867374109
 30
0.0
 11
5316.0547154376336
 21
5090.3504467374096
 31
0.0
  0
LINE
  5
4B8
  8
1
  6
DASHED
 62
     7
 10
5291.5767154376354
 20
4996.5510467374106
 30
0.0
 11
5291.5767154376354
 21
4996.7683331676872
 31
0.0
  0
LINE
  5
4B9
  8
1
  6
DASHED
 62
     7
 10
5291.5767154376354
 20
4998.5144929670287
 30
0.0
 11
5291.5767154376354
 21
4999.3464358380988
 31
0.0
  0
LINE
  5
4BA
  8
1
  6
DASHED
 62
     7
 10
5312.5327154376346
 20
4996.7683331676872
 30
0.0
 11
5312.5327154376346
 21
4996.5510467374106
 31
0.0
  0
LINE
  5
4BB
  8
1
 62
     7
 10
5302.0547154376336
 20
5017.3498467374102
 30
0.0
 11
5284.0547154376336
 21
5017.3498467374102
 31
0.0
  0
LINE
  5
4BC
  8
1
 62
     7
 10
5230.4659040080323
 20
4751.0164543368091
 30
0.0
 11
5229.295915437634
 21
4750.3415535542626
 31
0.0
  0
LINE
  5
4BD
  8
1
 62
     7
 10
5242.045915437634
 20
4760.3505535542627
 30
0.0
 11
5251.3609154376354
 21
4760.3505535542627
 31
0.0
  0
LINE
  5
4BE
  8
1
 62
     7
 10
5242.045915437634
 20
4751.3398911436161
 30
0.0
 11
5252.545915437634
 21
4751.3504535542615
 31
0.0
  0
LINE
  5
4BF
  8
1
 62
     7
 10
5242.045915437634
 20
4735.3511535542621
 30
0.0
 11
5253.0469154376333
 21
4735.3511535542621
 31
0.0
  0
LINE
  5
4C0
  8
1
 62
     7
 10
5252.5219154376337
 20
4754.3516535542622
 30
0.0
 11
5252.5219154376337
 21
4760.3505535542627
 31
0.0
  0
LINE
  5
4C1
  8
1
 62
     7
 10
5252.545915437634
 20
4751.3504535542615
 30
0.0
 11
5253.0469154376333
 21
4751.3504535542615
 31
0.0
  0
LINE
  5
4C2
  8
1
 62
     7
 10
5231.545915437634
 20
4751.3504535542615
 30
0.0
 11
5242.045915437634
 21
4751.3398911436161
 31
0.0
  0
LINE
  5
4C3
  8
1
 62
     7
 10
5232.7309154376353
 20
4760.3505535542627
 30
0.0
 11
5242.045915437634
 21
4760.3505535542627
 31
0.0
  0
LINE
  5
4C4
  8
1
 62
     7
 10
5231.0449154376347
 20
4735.3511535542621
 30
0.0
 11
5242.045915437634
 21
4735.3511535542621
 31
0.0
  0
LINE
  5
4C5
  8
1
 62
     7
 10
5229.295915437634
 20
4736.3621535542634
 30
0.0
 11
5229.295915437634
 21
4750.3415535542626
 31
0.0
  0
LINE
  5
4C6
  8
1
 62
     7
 10
5231.0449154376347
 20
4735.3511535542621
 30
0.0
 11
5229.295915437634
 21
4736.3621535542634
 31
0.0
  0
LINE
  5
4C7
  8
1
 62
     7
 10
5231.0449154376347
 20
4751.3504535542615
 30
0.0
 11
5230.4659040080323
 21
4751.0164543368091
 31
0.0
  0
LINE
  5
4C8
  8
1
 62
     7
 10
5254.7570641410821
 20
4736.3620439528304
 30
0.0
 11
5254.7570642573082
 21
4750.3416421504126
 31
0.0
  0
LINE
  5
4C9
  8
1
 62
     7
 10
5253.0469154376333
 20
4735.3511535542621
 30
0.0
 11
5253.682038074011
 21
4735.7265825293762
 31
0.0
  0
LINE
  5
4CA
  8
1
 62
     7
 10
5253.0469154376333
 20
4751.3504535542615
 30
0.0
 11
5254.7570642573082
 21
4750.3416421504126
 31
0.0
  0
LINE
  5
4CB
  8
1
 62
     7
 10
5252.5219154376337
 20
4752.3383535542634
 30
0.0
 11
5252.5219154376337
 21
4754.3516535542622
 31
0.0
  0
LINE
  5
4CC
  8
1
 62
     7
 10
5231.545915437634
 20
4752.3383535542634
 30
0.0
 11
5231.5669154376337
 21
4760.3505535542627
 31
0.0
  0
LINE
  5
4CD
  8
1
 62
     7
 10
5251.3609154376354
 20
4760.3505535542627
 30
0.0
 11
5252.5219154376337
 21
4760.3505535542627
 31
0.0
  0
LINE
  5
4CE
  8
1
 62
     7
 10
5232.7309154376353
 20
4760.3505535542627
 30
0.0
 11
5231.5669154376337
 21
4760.3505535542627
 31
0.0
  0
LINE
  5
4CF
  8
1
 62
     7
 10
5231.0449154376347
 20
4751.3504535542615
 30
0.0
 11
5231.545915437634
 21
4751.3504535542615
 31
0.0
  0
LINE
  5
4D0
  8
1
 62
     7
 10
5231.545915437634
 20
4751.3504535542615
 30
0.0
 11
5231.545915437634
 21
4752.3383535542634
 31
0.0
  0
LINE
  5
4D1
  8
1
 62
     7
 10
5252.545915437634
 20
4751.3504535542615
 30
0.0
 11
5252.5219154376337
 21
4752.3383535542634
 31
0.0
  0
LINE
  5
4D2
  8
1
 62
     7
 10
5109.5209154376344
 20
4935.3512887010702
 30
0.0
 11
5111.5201791494137
 21
4935.3512887010702
 31
0.0
  0
LINE
  5
4D3
  8
1
 62
     7
 10
5110.3239154376352
 20
4937.3528887010707
 30
0.0
 11
5109.5209154376344
 21
4935.3512887010702
 31
0.0
  0
LINE
  5
4D4
  8
1
 62
     7
 10
5173.7206154376336
 20
4937.3528887010707
 30
0.0
 11
5174.5199154376351
 21
4935.3512887010702
 31
0.0
  0
LINE
  5
4D5
  8
1
 62
     7
 10
5114.1169154376339
 20
4933.8491887010723
 30
0.0
 11
5121.5199154376342
 21
4933.8491887010723
 31
0.0
  0
LINE
  5
4D6
  8
1
 62
     7
 10
5359.5509154376341
 20
4937.3515358380992
 30
0.0
 11
5359.5509154376341
 21
4908.9293358380992
 31
0.0
  0
LINE
  5
4D7
  8
1
 62
     7
 10
5364.5499154376339
 20
4937.3515358380992
 30
0.0
 11
5364.5499154376339
 21
4908.9293358380992
 31
0.0
  0
LINE
  5
4D8
  8
1
 62
     7
 10
5364.5499154376339
 20
4908.9293358380992
 30
0.0
 11
5362.0519154376352
 21
4908.9293358380992
 31
0.0
  0
LINE
  5
4D9
  8
1
  6
DASHED
 62
     7
 10
5377.0519154376343
 20
4999.3464358380988
 30
0.0
 11
5377.0519154376343
 21
4937.3515358380992
 31
0.0
  0
LINE
  5
4DA
  8
1
 62
     7
 10
4889.5529154376354
 20
4937.3515358380992
 30
0.0
 11
4889.5529154376354
 21
4908.9293358380992
 31
0.0
  0
LINE
  5
4DB
  8
1
 62
     7
 10
4894.5519154376343
 20
4937.3515358380992
 30
0.0
 11
4894.5519154376343
 21
4908.9293358380992
 31
0.0
  0
LINE
  5
4DC
  8
1
 62
     7
 10
4894.5519154376343
 20
4908.9293358380992
 30
0.0
 11
4892.0509154376341
 21
4908.9293358380992
 31
0.0
  0
LINE
  5
4DD
  8
1
  6
DASHED
 62
     7
 10
4877.0509154376341
 20
4999.3464358380988
 30
0.0
 11
4877.0509078308141
 21
4937.3515358380992
 31
0.0
  0
LINE
  5
4DE
  8
1
  6
DASHED
 62
     7
 10
4907.0509154376341
 20
4994.3509358380979
 30
0.0
 11
4907.0509154376341
 21
4937.3515358380992
 31
0.0
  0
LINE
  5
4DF
  8
1
 62
     7
 10
4832.0509154376332
 20
5017.3506358380992
 30
0.0
 11
4832.0509154376332
 21
4999.3464358380988
 31
0.0
  0
LINE
  5
4E0
  8
1
  6
DASHED
 62
     7
 10
5110.7679154376347
 20
4938.4656887010724
 30
0.0
 11
5110.3239154376352
 21
4937.3528887010707
 31
0.0
  0
LINE
  5
4E1
  8
1
  6
DASHED
 62
     7
 10
5173.2762380434588
 20
4938.4656447292764
 30
0.0
 11
5173.7206154376336
 21
4937.3528887010707
 31
0.0
  0
LINE
  5
4E2
  8
1
  6
DASHED
 62
     7
 10
5186.984315437634
 20
4970.0056887010714
 30
0.0
 11
5209.4468002858066
 21
4999.3477887010704
 31
0.0
  0
LINE
  5
4E3
  8
1
  6
DASHED
 62
     7
 10
5102.7719154376346
 20
4968.0660887010708
 30
0.0
 11
5108.0289154376351
 21
4962.3506387010711
 31
0.0
  0
LINE
  5
4E4
  8
1
  6
DASHED
 62
     7
 10
5164.0329154376332
 20
4940.3500887010714
 30
0.0
 11
5142.045915437634
 21
4940.3500887010714
 31
0.0
  0
LINE
  5
4E5
  8
1
  6
DASHED
 62
     7
 10
5174.0445154376339
 20
4940.3500887010714
 30
0.0
 11
5170.4925839835068
 21
4940.3501238476529
 31
0.0
  0
LINE
  5
4E6
  8
1
  6
DASHED
 62
     7
 10
5185.8026848914296
 20
4968.8894765738751
 30
0.0
 11
5176.0427154376339
 21
4962.3506387010711
 31
0.0
  0
LINE
  5
4E7
  8
1
  6
DASHED
 62
     7
 10
5120.0319154376339
 20
4940.3500887010714
 30
0.0
 11
5113.5540921576203
 21
4940.3500887010714
 31
0.0
  0
LINE
  5
4E8
  8
1
  6
DASHED
 62
     7
 10
5101.4659154376341
 20
4971.0874887010723
 30
0.0
 11
5099.4178734922343
 21
4999.3477887010704
 31
0.0
  0
LINE
  5
4E9
  8
1
  6
DASHED
 62
     7
 10
5108.0289154376351
 20
4962.3506387010711
 30
0.0
 11
5110.0269154376347
 21
4940.3500887010714
 31
0.0
  0
LINE
  5
4EA
  8
1
  6
DASHED
 62
     7
 10
5174.0445154376339
 20
4940.3500887010714
 30
0.0
 11
5176.0427154376339
 21
4962.3506387010711
 31
0.0
  0
LINE
  5
4EB
  8
1
  6
DASHED
 62
     7
 10
5359.5509154376341
 20
4994.3509358380979
 30
0.0
 11
5359.5509154376341
 21
4944.348555838098
 31
0.0
  0
LINE
  5
4EC
  8
1
  6
DASHED
 62
     7
 10
5364.5499154376339
 20
4994.3509358380979
 30
0.0
 11
5364.5499154376339
 21
4969.3497358381001
 31
0.0
  0
LINE
  5
4ED
  8
1
  6
DASHED
 62
     7
 10
5347.0519154376352
 20
4994.3509358380979
 30
0.0
 11
5359.5509154376341
 21
4994.3509358380979
 31
0.0
  0
LINE
  5
4EE
  8
1
  6
DASHED
 62
     7
 10
5347.0519154376352
 20
4999.3464358380988
 30
0.0
 11
5347.0519154376352
 21
4994.3509358380979
 31
0.0
  0
LINE
  5
4EF
  8
1
  6
DASHED
 62
     7
 10
4889.5529154376354
 20
4994.3509358380979
 30
0.0
 11
4889.5529154376354
 21
4944.348555838098
 31
0.0
  0
LINE
  5
4F0
  8
1
  6
DASHED
 62
     7
 10
4894.5519154376343
 20
4994.3509358380979
 30
0.0
 11
4894.5519154376343
 21
4969.3497358381001
 31
0.0
  0
LINE
  5
4F1
  8
1
  6
DASHED
 62
     7
 10
4877.0509154376341
 20
4994.3509358380979
 30
0.0
 11
4889.5529154376354
 21
4994.3509358380979
 31
0.0
  0
LINE
  5
4F2
  8
1
  6
DASHED
 62
     7
 10
4907.0509154376341
 20
4999.3464358380988
 30
0.0
 11
4907.0509154376341
 21
4994.3509358380979
 31
0.0
  0
LINE
  5
4F3
  8
1
  6
DIVIDE
 62
     7
 10
5232.0465154376343
 20
5017.3506358380992
 30
0.0
 11
5232.0465154376343
 21
4999.3464358380988
 31
0.0
  0
LINE
  5
4F4
  8
1
  6
DIVIDE
 62
     7
 10
5082.045915437634
 20
5017.3506358380992
 30
0.0
 11
5082.045915437634
 21
4999.3464358380988
 31
0.0
  0
LINE
  5
4F5
  8
1
  6
DASHED
 62
     7
 10
5404.0539154376347
 20
4999.3464358380988
 30
0.0
 11
5404.0539154376347
 21
4994.3509358380979
 31
0.0
  0
LINE
  5
4F6
  8
1
  6
DASHED
 62
     7
 10
4850.0519154376343
 20
4999.3464358380988
 30
0.0
 11
4850.0519154376343
 21
4994.3509358380979
 31
0.0
  0
LINE
  5
4F7
  8
1
 62
     7
 10
4963.9888096227551
 20
5077.3521028479536
 30
0.0
 11
5260.0725232423511
 21
5077.3521025850896
 31
0.0
  0
LINE
  5
4F8
  8
1
 62
     7
 10
4961.9906412849978
 20
5075.3883867090708
 30
0.0
 11
4961.0229154376339
 21
5017.34848870107
 31
0.0
  0
LINE
  5
4F9
  8
1
  6
DASHED
 62
     7
 10
5209.4468002858066
 20
4999.3477887010704
 30
0.0
 11
5223.2290319521826
 21
5017.3519887010716
 31
0.0
  0
LINE
  5
4FA
  8
1
  6
DASHED
 62
     7
 10
5404.0539154376347
 20
4994.3509358380979
 30
0.0
 11
5404.0539154376347
 21
4937.3515358380992
 31
0.0
  0
LINE
  5
4FB
  8
1
  6
DASHED
 62
     7
 10
5347.0519154376352
 20
4994.3509358380979
 30
0.0
 11
5347.0519154376352
 21
4937.3515358380992
 31
0.0
  0
LINE
  5
4FC
  8
1
  6
DASHED
 62
     7
 10
5364.5499154376339
 20
4994.3509358380979
 30
0.0
 11
5377.0519154376343
 21
4994.3509358380979
 31
0.0
  0
LINE
  5
4FD
  8
1
  6
DASHED
 62
     7
 10
5359.5509154376341
 20
4994.3509358380979
 30
0.0
 11
5362.0519154376352
 21
4994.3509358380979
 31
0.0
  0
LINE
  5
4FE
  8
1
  6
DASHED
 62
     7
 10
5364.5499154376339
 20
4969.3497358381001
 30
0.0
 11
5364.5499154376339
 21
4937.3515358380992
 31
0.0
  0
LINE
  5
4FF
  8
1
  6
DASHED
 62
     7
 10
5359.5509154376341
 20
4944.348555838098
 30
0.0
 11
5359.5509154376341
 21
4937.3515358380992
 31
0.0
  0
LINE
  5
500
  8
1
  6
DASHED
 62
     7
 10
5362.0519154376352
 20
4994.3509358380979
 30
0.0
 11
5364.5499154376339
 21
4994.3509358380979
 31
0.0
  0
LINE
  5
501
  8
1
 62
     7
 10
5362.0519154376352
 20
4908.9293358380992
 30
0.0
 11
5359.5509154376341
 21
4908.9293358380992
 31
0.0
  0
LINE
  5
502
  8
1
  6
DASHED
 62
     7
 10
4850.0519154376343
 20
4994.3509358380979
 30
0.0
 11
4850.0519154376343
 21
4944.348555838098
 31
0.0
  0
LINE
  5
503
  8
1
  6
DASHED
 62
     7
 10
4894.5519154376343
 20
4994.3509358380979
 30
0.0
 11
4907.0509154376341
 21
4994.3509358380979
 31
0.0
  0
LINE
  5
504
  8
1
  6
DASHED
 62
     7
 10
4889.5529154376354
 20
4994.3509358380979
 30
0.0
 11
4892.0509154376341
 21
4994.3509358380979
 31
0.0
  0
LINE
  5
505
  8
1
  6
DASHED
 62
     7
 10
4894.5519154376343
 20
4969.3497358381001
 30
0.0
 11
4894.5519154376343
 21
4937.3515358380992
 31
0.0
  0
LINE
  5
506
  8
1
  6
DASHED
 62
     7
 10
4850.0519154376343
 20
4944.348555838098
 30
0.0
 11
4850.0519154376343
 21
4937.3515358380992
 31
0.0
  0
LINE
  5
507
  8
1
  6
DASHED
 62
     7
 10
4889.5529154376354
 20
4944.348555838098
 30
0.0
 11
4889.5529154376354
 21
4937.3515358380992
 31
0.0
  0
LINE
  5
508
  8
1
 62
     7
 10
5121.5199154376342
 20
4933.8491887010723
 30
0.0
 11
5122.5229154376339
 21
4933.8491887010723
 31
0.0
  0
LINE
  5
509
  8
1
 62
     7
 10
5162.523915437635
 20
4933.8491887010723
 30
0.0
 11
5169.9279154376354
 21
4933.8491887010723
 31
0.0
  0
LINE
  5
50A
  8
1
 62
     7
 10
5161.5249154376352
 20
4933.8491887010723
 30
0.0
 11
5162.523915437635
 21
4933.8491887010723
 31
0.0
  0
LINE
  5
50B
  8
1
 62
     7
 10
5142.045915437634
 20
4935.3512887010702
 30
0.0
 11
5172.5242179981369
 21
4935.3512887010702
 31
0.0
  0
LINE
  5
50C
  8
1
  6
DASHED
 62
     7
 10
5142.045915437634
 20
4940.3500887010714
 30
0.0
 11
5120.0319154376339
 21
4940.3500887010714
 31
0.0
  0
LINE
  5
50D
  8
1
  6
DASHED
 62
     7
 10
5170.4925839835068
 20
4940.3501238476529
 30
0.0
 11
5164.0329154376332
 21
4940.3500887010714
 31
0.0
  0
LINE
  5
50E
  8
1
  6
DASHED
 62
     7
 10
5113.5540921576203
 20
4940.3500887010714
 30
0.0
 11
5110.0269154376347
 21
4940.3500887010714
 31
0.0
  0
LINE
  5
50F
  8
1
  6
DASHED
 62
     7
 10
4850.0519154376343
 20
4999.3464358380988
 30
0.0
 11
5404.0539154376347
 21
4999.3464358380988
 31
0.0
  0
LINE
  5
510
  8
1
 62
     7
 10
4832.0509154376332
 20
4999.3464358380988
 30
0.0
 11
4832.0509154376332
 21
4937.3515358380982
 31
0.0
  0
LINE
  5
511
  8
1
  6
DIVIDE
 62
     7
 10
5099.4178734922343
 20
4999.3477887010704
 30
0.0
 11
5098.2549154376329
 21
5015.3950887010724
 31
0.0
  0
LINE
  5
512
  8
1
  6
DASHED
 62
     7
 10
4892.0509154376341
 20
4994.3509358380979
 30
0.0
 11
4894.5519154376343
 21
4994.3509358380979
 31
0.0
  0
LINE
  5
513
  8
1
 62
     7
 10
4892.0509154376341
 20
4908.9293358380992
 30
0.0
 11
4889.5529154376354
 21
4908.9293358380992
 31
0.0
  0
LINE
  5
514
  8
1
 62
     7
 10
5232.0465154376343
 20
5017.3519887010716
 30
0.0
 11
5263.0353254376341
 21
5017.34848870107
 31
0.0
  0
LINE
  5
515
  8
1
 62
     7
 10
5082.045915437634
 20
5017.3519887010716
 30
0.0
 11
5097.9166934832383
 21
5017.3519887010716
 31
0.0
  0
LINE
  5
516
  8
1
 62
     7
 10
5263.0353254376341
 20
5017.34848870107
 30
0.0
 11
5262.0672454376336
 21
5075.3882887010723
 31
0.0
  0
LINE
  5
517
  8
1
 62
     7
 10
4961.0229154376339
 20
5017.34848870107
 30
0.0
 11
5082.045915437634
 21
5017.3519887010716
 31
0.0
  0
LINE
  5
518
  8
1
 62
     7
 10
5422.0519154376343
 20
5017.3506358380992
 30
0.0
 11
5422.0519154376343
 21
4937.3515358380982
 31
0.0
  0
LINE
  5
519
  8
1
  6
DASHED
 62
     7
 10
5347.0519154376352
 20
4999.3464358380988
 30
0.0
 11
5377.0519154376343
 21
4999.3464358380988
 31
0.0
  0
LINE
  5
51A
  8
1
  6
DASHED
 62
     7
 10
4877.0509154376341
 20
4999.3464358380988
 30
0.0
 11
4907.0509154376341
 21
4999.3464358380988
 31
0.0
  0
LINE
  5
51B
  8
1
 62
     7
 10
4832.0509154376332
 20
5017.3506358380992
 30
0.0
 11
5422.0519154376343
 21
5017.3506358380992
 31
0.0
  0
LINE
  5
51C
  8
1
 62
     7
 10
5122.5229154376339
 20
4933.8491887010723
 30
0.0
 11
5142.045915437634
 21
4933.8491887010723
 31
0.0
  0
LINE
  5
51D
  8
1
 62
     7
 10
5142.045915437634
 20
4933.8491887010723
 30
0.0
 11
5161.5249154376352
 21
4933.8491887010723
 31
0.0
  0
LINE
  5
51E
  8
1
 62
     7
 10
5097.9166934832383
 20
5017.3519887010716
 30
0.0
 11
5223.2290319521826
 21
5017.3519887010716
 31
0.0
  0
LINE
  5
51F
  8
1
 62
     7
 10
5111.5201791494137
 20
4935.3512887010702
 30
0.0
 11
5142.045915437634
 21
4935.3512887010702
 31
0.0
  0
LINE
  5
520
  8
1
 62
     7
 10
5172.5242179981369
 20
4935.3512887010702
 30
0.0
 11
5174.5199154376351
 21
4935.3512887010702
 31
0.0
  0
LINE
  5
521
  8
1
 62
     7
 10
5223.2290319521826
 20
5017.3519887010716
 30
0.0
 11
5232.0465154376343
 21
5017.3519887010716
 31
0.0
  0
LINE
  5
522
  8
1
  6
DASHED
 62
     7
 10
5362.0519154376334
 20
6705.8528819393177
 30
0.0
 11
5362.0519154376334
 21
6702.3526358380977
 31
0.0
  0
LINE
  5
523
  8
1
 62
     7
 10
4832.0509154376286
 20
6877.3506358380982
 30
0.0
 11
5422.0519154376334
 21
6877.3506358380973
 31
0.0
  0
LINE
  5
524
  8
1
  6
DASHED
 62
     7
 10
5347.0519154376334
 20
6877.3506358380973
 30
0.0
 11
5362.0519154376334
 21
6877.3506358380973
 31
0.0
  0
LINE
  5
525
  8
1
  6
DASHED
 62
     7
 10
4907.0509154376332
 20
6877.3506358380973
 30
0.0
 11
4907.050954330276
 21
6752.3516358380994
 31
0.0
  0
LINE
  5
526
  8
1
  6
DASHED
 62
     7
 10
5347.0519154376334
 20
6877.3506358380973
 30
0.0
 11
5347.0521180341257
 21
6752.3516358380994
 31
0.0
  0
LINE
  5
527
  8
1
  6
DASHED
 62
     7
 10
5377.0519154376334
 20
6877.3506358380973
 30
0.0
 11
5377.0519154376334
 21
6752.3516358380994
 31
0.0
  0
LINE
  5
528
  8
1
  6
DASHED
 62
     7
 10
4877.0509154376323
 20
6877.3506358380973
 30
0.0
 11
4877.0509154376323
 21
6752.3516358380994
 31
0.0
  0
LINE
  5
529
  8
1
  6
DASHED
 62
     7
 10
4892.0509154376323
 20
6677.3960598381009
 30
0.0
 11
4892.0509154376323
 21
6662.6786358380969
 31
0.0
  0
LINE
  5
52A
  8
1
  6
DASHED
 62
     7
 10
4892.0509154376323
 20
6705.85289524376
 30
0.0
 11
4892.0509154376323
 21
6702.3526358380977
 31
0.0
  0
LINE
  5
52B
  8
1
  6
DASHED
 62
     7
 10
4892.0509154376323
 20
6698.8524174324284
 30
0.0
 11
4892.0509154376323
 21
6677.3960598381009
 31
0.0
  0
LINE
  5
52C
  8
1
  6
DASHED
 62
     7
 10
4892.0509154376323
 20
6702.3526358380977
 30
0.0
 11
4892.0509154376323
 21
6698.8524174324284
 31
0.0
  0
LINE
  5
52D
  8
1
  6
DASHED
 62
     7
 10
4892.0509154376323
 20
6787.3536358380979
 30
0.0
 11
4892.0509154376323
 21
6752.3516358380994
 31
0.0
  0
LINE
  5
52E
  8
1
  6
DASHED
 62
     7
 10
4892.0509154376323
 20
6837.3526358380977
 30
0.0
 11
4892.0509154376323
 21
6787.3536358380979
 31
0.0
  0
LINE
  5
52F
  8
1
  6
DASHED
 62
     7
 10
5362.0519154376334
 20
6877.3506358380973
 30
0.0
 11
5362.0519154376334
 21
6837.3526358380977
 31
0.0
  0
LINE
  5
530
  8
1
  6
DASHED
 62
     7
 10
5362.0519154376334
 20
6877.3506358380973
 30
0.0
 11
5377.0519154376334
 21
6877.3506358380973
 31
0.0
  0
LINE
  5
531
  8
1
  6
DASHED
 62
     7
 10
5362.0519154376334
 20
6837.3526358380977
 30
0.0
 11
5362.0519154376334
 21
6787.3536358380979
 31
0.0
  0
LINE
  5
532
  8
1
  6
DASHED
 62
     7
 10
5362.0519154376334
 20
6787.3536358380979
 30
0.0
 11
5362.0519154376334
 21
6752.3516358380994
 31
0.0
  0
LINE
  5
533
  8
1
  6
DASHED
 62
     7
 10
5362.0519154376334
 20
6702.3526358380977
 30
0.0
 11
5362.0519154376334
 21
6698.8524302773203
 31
0.0
  0
LINE
  5
534
  8
1
  6
DASHED
 62
     7
 10
5362.0519154376334
 20
6698.8524302773203
 30
0.0
 11
5362.0519154376334
 21
6677.3522668397263
 31
0.0
  0
LINE
  5
535
  8
1
  6
DASHED
 62
     7
 10
5362.0519154376334
 20
6677.3522668397263
 30
0.0
 11
5362.0519154376334
 21
6662.6786358380969
 31
0.0
  0
LINE
  5
536
  8
1
  6
DASHED
 62
     7
 10
4892.0509154376323
 20
6752.3516358380994
 30
0.0
 11
4892.0509154376323
 21
6705.85289524376
 31
0.0
  0
LINE
  5
537
  8
1
  6
DASHED
 62
     7
 10
4907.050954330276
 20
6752.3516358380994
 30
0.0
 11
4907.0509767056647
 21
6680.4382675972756
 31
0.0
  0
LINE
  5
538
  8
1
  6
DASHED
 62
     7
 10
4877.0509154376323
 20
6752.3516358380994
 30
0.0
 11
4877.0508985470724
 21
6680.4382623612746
 31
0.0
  0
LINE
  5
539
  8
1
  6
DASHED
 62
     7
 10
5362.0519154376334
 20
6752.3516358380994
 30
0.0
 11
5362.0519154376334
 21
6705.8528819393177
 31
0.0
  0
LINE
  5
53A
  8
1
  6
DASHED
 62
     7
 10
5347.0521180341257
 20
6752.3516358380994
 30
0.0
 11
5347.0522345902364
 21
6680.4382622005023
 31
0.0
  0
LINE
  5
53B
  8
1
  6
DASHED
 62
     7
 10
5377.0519154376334
 20
6752.3516358380994
 30
0.0
 11
5377.0519154376334
 21
6680.4380968531432
 31
0.0
  0
LINE
  5
53C
  8
1
  6
DASHED
 62
     7
 10
4892.0509154376323
 20
6877.3506358380973
 30
0.0
 11
4877.0509154376323
 21
6877.3506358380973
 31
0.0
  0
LINE
  5
53D
  8
1
  6
DASHED
 62
     7
 10
4892.0509154376323
 20
6877.3506358380973
 30
0.0
 11
4892.0509154376323
 21
6837.3526358380977
 31
0.0
  0
LINE
  5
53E
  8
1
 62
     7
 10
5422.0519154376334
 20
6877.3506358380973
 30
0.0
 11
5422.0519154376334
 21
6752.3516358380994
 31
0.0
  0
LINE
  5
53F
  8
1
 62
     7
 10
4832.0509154376323
 20
6877.3506358380982
 30
0.0
 11
4832.0509154376323
 21
6752.3516358380994
 31
0.0
  0
LINE
  5
540
  8
1
 62
     7
 10
5263.0491054376344
 20
6762.1016358380984
 30
0.0
 11
5263.0491040750476
 21
6840.3571634001673
 31
0.0
  0
LINE
  5
541
  8
1
 62
     7
 10
4964.6739154376319
 20
6838.1936358380972
 30
0.0
 11
4964.6739154376319
 21
6752.3516358380994
 31
0.0
  0
LINE
  5
542
  8
1
 62
     7
 10
4961.9734159789978
 20
6665.3245347843776
 30
0.0
 11
4961.9975304343861
 21
6752.3516358380994
 31
0.0
  0
LINE
  5
543
  8
1
 62
     7
 10
5258.4912154376334
 20
6771.2756358380984
 30
0.0
 11
5258.4912154376334
 21
6762.1016358380984
 31
0.0
  0
LINE
  5
544
  8
1
 62
     7
 10
5258.4912154376334
 20
6780.7356358380976
 30
0.0
 11
5258.4912154376334
 21
6771.2756358380984
 31
0.0
  0
LINE
  5
545
  8
1
 62
     7
 10
5258.4945209150446
 20
6790.1913235644488
 30
0.0
 11
5258.4912154376334
 21
6780.7356358380976
 31
0.0
  0
LINE
  5
546
  8
1
 62
     7
 10
5240.9693154376328
 20
6838.6556358380976
 30
0.0
 11
5248.9482154376319
 21
6838.6556358380976
 31
0.0
  0
LINE
  5
547
  8
1
 62
     7
 10
5232.9939154376334
 20
6838.6556358380976
 30
0.0
 11
5240.9693154376328
 21
6838.6556358380976
 31
0.0
  0
LINE
  5
548
  8
1
 62
     7
 10
5225.0150154376306
 20
6838.6556358380976
 30
0.0
 11
5232.9939154376334
 21
6838.6556358380976
 31
0.0
  0
LINE
  5
549
  8
1
 62
     7
 10
5217.039515437632
 20
6838.6556358380976
 30
0.0
 11
5225.0150154376306
 21
6838.6556358380976
 31
0.0
  0
LINE
  5
54A
  8
1
 62
     7
 10
5209.0607154376321
 20
6838.6556358380976
 30
0.0
 11
5217.039515437632
 21
6838.6556358380976
 31
0.0
  0
LINE
  5
54B
  8
1
 62
     7
 10
5201.0852154376344
 20
6838.6556358380976
 30
0.0
 11
5209.0607154376321
 21
6838.6556358380976
 31
0.0
  0
LINE
  5
54C
  8
1
 62
     7
 10
5193.1063154376334
 20
6838.6556358380976
 30
0.0
 11
5201.0852154376344
 21
6838.6556358380976
 31
0.0
  0
LINE
  5
54D
  8
1
 62
     7
 10
5185.1309154376322
 20
6838.6556358380976
 30
0.0
 11
5193.1063154376334
 21
6838.6556358380976
 31
0.0
  0
LINE
  5
54E
  8
1
 62
     7
 10
5177.1520154376321
 20
6838.6586358380982
 30
0.0
 11
5185.1309154376322
 21
6838.6556358380976
 31
0.0
  0
LINE
  5
54F
  8
1
 62
     7
 10
5169.1729154376326
 20
6838.6586358380982
 30
0.0
 11
5177.1520154376321
 21
6838.6586358380982
 31
0.0
  0
LINE
  5
550
  8
1
 62
     7
 10
5161.1979154376322
 20
6838.6586358380982
 30
0.0
 11
5169.1729154376326
 21
6838.6586358380982
 31
0.0
  0
LINE
  5
551
  8
1
 62
     7
 10
5153.2189154376319
 20
6838.6586358380982
 30
0.0
 11
5161.1979154376322
 21
6838.6586358380982
 31
0.0
  0
LINE
  5
552
  8
1
 62
     7
 10
5145.2429154376323
 20
6838.6586358380982
 30
0.0
 11
5153.2189154376319
 21
6838.6586358380982
 31
0.0
  0
LINE
  5
553
  8
1
 62
     7
 10
5137.2649154376331
 20
6838.6586358380982
 30
0.0
 11
5145.2429154376323
 21
6838.6586358380982
 31
0.0
  0
LINE
  5
554
  8
1
 62
     7
 10
5129.2889154376326
 20
6838.6586358380982
 30
0.0
 11
5137.2649154376331
 21
6838.6586358380982
 31
0.0
  0
LINE
  5
555
  8
1
 62
     7
 10
5121.3099154376314
 20
6838.6586358380982
 30
0.0
 11
5129.2889154376326
 21
6838.6586358380982
 31
0.0
  0
LINE
  5
556
  8
1
 62
     7
 10
5113.330915437632
 20
6838.6586358380982
 30
0.0
 11
5121.3099154376314
 21
6838.6586358380982
 31
0.0
  0
LINE
  5
557
  8
1
 62
     7
 10
5105.3559154376344
 20
6838.6586358380982
 30
0.0
 11
5113.330915437632
 21
6838.6586358380982
 31
0.0
  0
LINE
  5
558
  8
1
 62
     7
 10
5097.3769154376323
 20
6838.6586358380982
 30
0.0
 11
5105.3559154376344
 21
6838.6586358380982
 31
0.0
  0
LINE
  5
559
  8
1
 62
     7
 10
5089.4009154376317
 20
6838.6586358380982
 30
0.0
 11
5097.3769154376323
 21
6838.6586358380982
 31
0.0
  0
LINE
  5
55A
  8
1
 62
     7
 10
5081.4229154376344
 20
6838.6586358380982
 30
0.0
 11
5089.4009154376317
 21
6838.6586358380982
 31
0.0
  0
LINE
  5
55B
  8
1
 62
     7
 10
5073.4439154376323
 20
6838.6586358380982
 30
0.0
 11
5081.4229154376344
 21
6838.6586358380982
 31
0.0
  0
LINE
  5
55C
  8
1
 62
     7
 10
5065.4679154376327
 20
6838.6586358380982
 30
0.0
 11
5073.4439154376323
 21
6838.6586358380982
 31
0.0
  0
LINE
  5
55D
  8
1
 62
     7
 10
5057.4929154376314
 20
6838.6586358380982
 30
0.0
 11
5065.4679154376327
 21
6838.6586358380982
 31
0.0
  0
LINE
  5
55E
  8
1
 62
     7
 10
5049.513915437632
 20
6838.6586358380982
 30
0.0
 11
5057.4929154376314
 21
6838.6586358380982
 31
0.0
  0
LINE
  5
55F
  8
1
 62
     7
 10
5041.5349154376327
 20
6838.6586358380982
 30
0.0
 11
5049.513915437632
 21
6838.6586358380982
 31
0.0
  0
LINE
  5
560
  8
1
 62
     7
 10
5033.5599154376314
 20
6838.6586358380982
 30
0.0
 11
5041.5349154376327
 21
6838.6586358380982
 31
0.0
  0
LINE
  5
561
  8
1
 62
     7
 10
5025.580915437632
 20
6838.6586358380982
 30
0.0
 11
5033.5599154376314
 21
6838.6586358380982
 31
0.0
  0
LINE
  5
562
  8
1
 62
     7
 10
5017.6049154376306
 20
6838.6586358380982
 30
0.0
 11
5025.580915437632
 21
6838.6586358380982
 31
0.0
  0
LINE
  5
563
  8
1
 62
     7
 10
5009.6299154376311
 20
6838.6586358380982
 30
0.0
 11
5017.6049154376306
 21
6838.6586358380982
 31
0.0
  0
LINE
  5
564
  8
1
 62
     7
 10
5001.6469154376327
 20
6838.6586358380982
 30
0.0
 11
5009.6299154376311
 21
6838.6586358380982
 31
0.0
  0
LINE
  5
565
  8
1
 62
     7
 10
4993.6719154376306
 20
6838.6586358380982
 30
0.0
 11
5001.6469154376327
 21
6838.6586358380982
 31
0.0
  0
LINE
  5
566
  8
1
 62
     7
 10
4985.6929154376321
 20
6838.6586358380982
 30
0.0
 11
4993.6719154376306
 21
6838.6586358380982
 31
0.0
  0
LINE
  5
567
  8
1
 62
     7
 10
4977.7179154376327
 20
6838.6586358380982
 30
0.0
 11
4985.6929154376321
 21
6838.6586358380982
 31
0.0
  0
LINE
  5
568
  8
1
 62
     7
 10
4965.0006004279339
 20
6838.6556358380976
 30
0.0
 11
4977.7179154376327
 21
6838.6586358380982
 31
0.0
  0
LINE
  5
569
  8
1
 62
     7
 10
5259.0803154376317
 20
6662.3236358380982
 30
0.0
 11
4964.9775587989352
 21
6662.3238386085213
 31
0.0
  0
LINE
  5
56A
  8
1
 62
     7
 10
5025.580915437632
 20
6666.0546358380971
 30
0.0
 11
4965.2002544376328
 21
6666.0546358380971
 31
0.0
  0
LINE
  5
56B
  8
1
 62
     7
 10
5033.5599154376314
 20
6666.0546358380971
 30
0.0
 11
5025.580915437632
 21
6666.0546358380971
 31
0.0
  0
LINE
  5
56C
  8
1
 62
     7
 10
5041.5349154376327
 20
6666.0546358380971
 30
0.0
 11
5033.5599154376314
 21
6666.0546358380971
 31
0.0
  0
LINE
  5
56D
  8
1
 62
     7
 10
5049.513915437632
 20
6666.0546358380971
 30
0.0
 11
5041.5349154376327
 21
6666.0546358380971
 31
0.0
  0
LINE
  5
56E
  8
1
 62
     7
 10
5057.4929154376314
 20
6666.0546358380971
 30
0.0
 11
5049.513915437632
 21
6666.0546358380971
 31
0.0
  0
LINE
  5
56F
  8
1
 62
     7
 10
5065.4679154376327
 20
6666.0546358380971
 30
0.0
 11
5057.4929154376314
 21
6666.0546358380971
 31
0.0
  0
LINE
  5
570
  8
1
 62
     7
 10
5073.4439154376323
 20
6666.0546358380971
 30
0.0
 11
5065.4679154376327
 21
6666.0546358380971
 31
0.0
  0
LINE
  5
571
  8
1
 62
     7
 10
5081.4229154376344
 20
6666.0546358380971
 30
0.0
 11
5073.4439154376323
 21
6666.0546358380971
 31
0.0
  0
LINE
  5
572
  8
1
 62
     7
 10
5089.4009154376317
 20
6666.0546358380971
 30
0.0
 11
5081.4229154376344
 21
6666.0546358380971
 31
0.0
  0
LINE
  5
573
  8
1
 62
     7
 10
5097.3769154376323
 20
6666.0546358380971
 30
0.0
 11
5089.4009154376317
 21
6666.0546358380971
 31
0.0
  0
LINE
  5
574
  8
1
 62
     7
 10
5105.3559154376344
 20
6666.0546358380971
 30
0.0
 11
5097.3769154376323
 21
6666.0546358380971
 31
0.0
  0
LINE
  5
575
  8
1
 62
     7
 10
5113.330915437632
 20
6666.0546358380971
 30
0.0
 11
5105.3559154376344
 21
6666.0546358380971
 31
0.0
  0
LINE
  5
576
  8
1
 62
     7
 10
5121.3099154376314
 20
6666.0546358380971
 30
0.0
 11
5113.330915437632
 21
6666.0546358380971
 31
0.0
  0
LINE
  5
577
  8
1
 62
     7
 10
5129.2889154376326
 20
6666.0546358380971
 30
0.0
 11
5121.3099154376314
 21
6666.0546358380971
 31
0.0
  0
LINE
  5
578
  8
1
 62
     7
 10
5137.2649154376331
 20
6666.0546358380971
 30
0.0
 11
5129.2889154376326
 21
6666.0546358380971
 31
0.0
  0
LINE
  5
579
  8
1
 62
     7
 10
5145.2429154376323
 20
6666.0546358380971
 30
0.0
 11
5137.2649154376331
 21
6666.0546358380971
 31
0.0
  0
LINE
  5
57A
  8
1
 62
     7
 10
5153.2189154376319
 20
6666.0546358380971
 30
0.0
 11
5145.2429154376323
 21
6666.0546358380971
 31
0.0
  0
LINE
  5
57B
  8
1
 62
     7
 10
5161.1979154376322
 20
6666.0546358380971
 30
0.0
 11
5153.2189154376319
 21
6666.0546358380971
 31
0.0
  0
LINE
  5
57C
  8
1
 62
     7
 10
5169.1729154376326
 20
6666.0546358380971
 30
0.0
 11
5161.1979154376322
 21
6666.0546358380971
 31
0.0
  0
LINE
  5
57D
  8
1
 62
     7
 10
5177.1520154376321
 20
6666.0546358380971
 30
0.0
 11
5169.1729154376326
 21
6666.0546358380971
 31
0.0
  0
LINE
  5
57E
  8
1
 62
     7
 10
5185.1309154376322
 20
6666.0546358380971
 30
0.0
 11
5177.1520154376321
 21
6666.0546358380971
 31
0.0
  0
LINE
  5
57F
  8
1
 62
     7
 10
5193.1063154376334
 20
6666.0546358380971
 30
0.0
 11
5185.1309154376322
 21
6666.0546358380971
 31
0.0
  0
LINE
  5
580
  8
1
 62
     7
 10
5201.0852154376344
 20
6666.0546358380971
 30
0.0
 11
5193.1063154376334
 21
6666.0546358380971
 31
0.0
  0
LINE
  5
581
  8
1
 62
     7
 10
5209.0607154376321
 20
6666.0546358380971
 30
0.0
 11
5201.0852154376344
 21
6666.0546358380971
 31
0.0
  0
LINE
  5
582
  8
1
 62
     7
 10
5217.039515437632
 20
6666.0546358380971
 30
0.0
 11
5209.0607154376321
 21
6666.0546358380971
 31
0.0
  0
LINE
  5
583
  8
1
 62
     7
 10
5225.0150154376306
 20
6666.0546358380971
 30
0.0
 11
5217.039515437632
 21
6666.0546358380971
 31
0.0
  0
LINE
  5
584
  8
1
 62
     7
 10
5232.9939154376334
 20
6666.0546358380971
 30
0.0
 11
5225.0150154376306
 21
6666.0546358380971
 31
0.0
  0
LINE
  5
585
  8
1
 62
     7
 10
5240.9693154376328
 20
6666.0546358380971
 30
0.0
 11
5232.9939154376334
 21
6666.0546358380971
 31
0.0
  0
LINE
  5
586
  8
1
 62
     7
 10
5248.9448154376314
 20
6666.0546358380971
 30
0.0
 11
5240.9693154376328
 21
6666.0546358380971
 31
0.0
  0
LINE
  5
587
  8
1
 62
     7
 10
5256.7721154376322
 20
6666.0546358380971
 30
0.0
 11
5248.9448154376314
 21
6666.0546358380971
 31
0.0
  0
LINE
  5
588
  8
1
 62
     7
 10
5262.081025437632
 20
6839.3886358380978
 30
0.0
 11
5262.081025437632
 21
6762.1016358380984
 31
0.0
  0
LINE
  5
589
  8
1
 62
     7
 10
4965.0219154376327
 20
6842.3866358380956
 30
0.0
 11
5259.0803154376317
 21
6842.3866358380956
 31
0.0
  0
LINE
  5
58A
  8
1
 62
     7
 10
5263.0491029193199
 20
6664.3530130037416
 30
0.0
 11
5263.0491049352522
 21
6742.6016358380994
 31
0.0
  0
LINE
  5
58B
  8
1
 62
     7
 10
5260.0484154376327
 20
6843.3576358380969
 30
0.0
 11
4964.0579154376319
 21
6843.3576358380969
 31
0.0
  0
LINE
  5
58C
  8
1
 62
     7
 10
5099.7329154376321
 20
6697.1606358380977
 30
0.0
 11
5099.7329154376321
 21
6752.3516358380994
 31
0.0
  0
LINE
  5
58D
  8
1
 62
     7
 10
5104.7319154376328
 20
6697.0606358380983
 30
0.0
 11
5104.7319154376328
 21
6699.1276358380974
 31
0.0
  0
LINE
  5
58E
  8
1
 62
     7
 10
5105.9619154376323
 20
6696.0856358380961
 30
0.0
 11
5184.2799154376344
 21
6712.9426358380961
 31
0.0
  0
LINE
  5
58F
  8
1
 62
     7
 10
4970.647915437632
 20
6666.9646358380969
 30
0.0
 11
5098.7579154376326
 21
6694.5356358380968
 31
0.0
  0
LINE
  5
590
  8
1
 62
     7
 10
5104.7319154376328
 20
6699.1276358380974
 30
0.0
 11
5100.6669473270294
 21
6695.3935198857116
 31
0.0
  0
LINE
  5
591
  8
1
 62
     7
 10
5099.7329154376321
 20
6807.5526358380976
 30
0.0
 11
5099.7329154376321
 21
6752.3516358380994
 31
0.0
  0
LINE
  5
592
  8
1
 62
     7
 10
5104.7321847623962
 20
6807.6492209308162
 30
0.0
 11
5104.7319154376328
 21
6752.3516358380994
 31
0.0
  0
LINE
  5
593
  8
1
 62
     7
 10
5185.0516154402931
 20
6752.3516358380994
 30
0.0
 11
5185.0516154376319
 21
6787.6636358380974
 31
0.0
  0
LINE
  5
594
  8
1
 62
     7
 10
5185.0516154376319
 20
6787.6636358380974
 30
0.0
 11
5255.4354154376306
 21
6836.3506358380982
 31
0.0
  0
LINE
  5
595
  8
1
 62
     7
 10
5105.9619154376323
 20
6808.6246358380986
 30
0.0
 11
5184.2799154376344
 21
6791.7676358380968
 31
0.0
  0
LINE
  5
596
  8
1
 62
     7
 10
4970.647915437632
 20
6837.7496358380977
 30
0.0
 11
5098.7579154376326
 21
6810.1776358380976
 31
0.0
  0
LINE
  5
597
  8
1
 62
     7
 10
5104.7319154376328
 20
6805.5856358380961
 30
0.0
 11
5100.6669154376323
 21
6809.3196358380974
 31
0.0
  0
LINE
  5
598
  8
1
 62
     7
 10
5222.5243669940746
 20
6762.1013250588567
 30
0.0
 11
5241.3174809940774
 21
6762.1013250588567
 31
0.0
  0
LINE
  5
599
  8
1
 62
     7
 10
5222.524392320076
 20
6742.6016358380994
 30
0.0
 11
5241.317492320075
 21
6742.6016358380994
 31
0.0
  0
LINE
  5
59A
  8
1
 62
     7
 10
5287.909292320076
 20
6748.3516358380984
 30
0.0
 11
5267.8517723200766
 21
6748.3516358380984
 31
0.0
  0
LINE
  5
59B
  8
1
 62
     7
 10
5287.909292320076
 20
6756.3516358380984
 30
0.0
 11
5267.8517741116257
 21
6756.3514244898533
 31
0.0
  0
LINE
  5
59C
  8
1
 62
     7
 10
5267.052506701014
 20
6755.5521574977356
 30
0.0
 11
5267.0525045107088
 21
6752.3516358380994
 31
0.0
  0
LINE
  5
59D
  8
1
 62
     7
 10
5292.0054923200751
 20
6742.6016358380994
 30
0.0
 11
5284.5852969778107
 21
6742.6016358380994
 31
0.0
  0
LINE
  5
59E
  8
1
 62
     7
 10
5292.0054923200751
 20
6762.1016358380984
 30
0.0
 11
5284.5851876154393
 21
6762.1013300262521
 31
0.0
  0
LINE
  5
59F
  8
1
 62
     7
 10
5242.171892320076
 20
6762.1016358380984
 30
0.0
 11
5241.5344923200764
 21
6761.9156358380969
 31
0.0
  0
LINE
  5
5A0
  8
1
 62
     7
 10
5241.5344923200764
 20
6761.9156358380969
 30
0.0
 11
5240.9212923200766
 21
6761.3506358380973
 31
0.0
  0
LINE
  5
5A1
  8
1
 62
     7
 10
5240.9212923200766
 20
6761.3506358380973
 30
0.0
 11
5240.3665923200761
 21
6760.4646358380969
 31
0.0
  0
LINE
  5
5A2
  8
1
 62
     7
 10
5240.3665923200761
 20
6760.4646358380969
 30
0.0
 11
5239.8739923200774
 21
6759.2486358380984
 31
0.0
  0
LINE
  5
5A3
  8
1
 62
     7
 10
5239.8739923200774
 20
6759.2486358380984
 30
0.0
 11
5239.470892320076
 21
6757.7676358380977
 31
0.0
  0
LINE
  5
5A4
  8
1
 62
     7
 10
5239.470892320076
 20
6757.7676358380977
 30
0.0
 11
5239.1711923200764
 21
6756.0826358380973
 31
0.0
  0
LINE
  5
5A5
  8
1
 62
     7
 10
5239.1711923200764
 20
6756.0826358380973
 30
0.0
 11
5238.981692320076
 21
6754.2566358380982
 31
0.0
  0
LINE
  5
5A6
  8
1
 62
     7
 10
5238.981692320076
 20
6754.2566358380982
 30
0.0
 11
5238.9230923200766
 21
6752.3516358380994
 31
0.0
  0
LINE
  5
5A7
  8
1
 62
     7
 10
5238.9230923200766
 20
6752.3516358380994
 30
0.0
 11
5238.981692320076
 21
6750.4466358380969
 31
0.0
  0
LINE
  5
5A8
  8
1
 62
     7
 10
5238.981692320076
 20
6750.4466358380969
 30
0.0
 11
5239.1711923200764
 21
6748.6236358380966
 31
0.0
  0
LINE
  5
5A9
  8
1
 62
     7
 10
5239.1711923200764
 20
6748.6236358380966
 30
0.0
 11
5239.470892320076
 21
6746.9396358380973
 31
0.0
  0
LINE
  5
5AA
  8
1
 62
     7
 10
5239.470892320076
 20
6746.9396358380973
 30
0.0
 11
5239.8739923200774
 21
6745.4576358380973
 31
0.0
  0
LINE
  5
5AB
  8
1
 62
     7
 10
5239.8739923200774
 20
6745.4576358380973
 30
0.0
 11
5240.3665923200761
 21
6744.241635838097
 31
0.0
  0
LINE
  5
5AC
  8
1
 62
     7
 10
5240.3665923200761
 20
6744.241635838097
 30
0.0
 11
5240.9315923200766
 21
6743.3396358380969
 31
0.0
  0
LINE
  5
5AD
  8
1
 62
     7
 10
5240.9315923200766
 20
6743.3396358380969
 30
0.0
 11
5241.5344923200764
 21
6742.7876358380972
 31
0.0
  0
LINE
  5
5AE
  8
1
 62
     7
 10
5241.5344923200764
 20
6742.7876358380972
 30
0.0
 11
5242.171892320076
 21
6742.6016358380994
 31
0.0
  0
LINE
  5
5AF
  8
1
 62
     7
 10
5240.9212923200766
 20
6761.3506358380973
 30
0.0
 11
5240.032492320076
 21
6761.3506358380973
 31
0.0
  0
LINE
  5
5B0
  8
1
 62
     7
 10
5240.9315923200766
 20
6743.3396358380969
 30
0.0
 11
5240.032492320076
 21
6743.3526358380968
 31
0.0
  0
LINE
  5
5B1
  8
1
 62
     7
 10
5284.5852969778107
 20
6742.6016358380994
 30
0.0
 11
5263.0492823200766
 21
6742.6016358380994
 31
0.0
  0
LINE
  5
5B2
  8
1
 62
     7
 10
5263.0492823200766
 20
6742.6016358380994
 30
0.0
 11
5262.081202320076
 21
6742.6016358380994
 31
0.0
  0
LINE
  5
5B3
  8
1
 62
     7
 10
5262.081202320076
 20
6742.6016358380994
 30
0.0
 11
5258.4913923200766
 21
6742.6016358380994
 31
0.0
  0
LINE
  5
5B4
  8
1
 62
     7
 10
5258.4913923200766
 20
6742.6016358380994
 30
0.0
 11
5242.171892320076
 21
6742.6016358380994
 31
0.0
  0
LINE
  5
5B5
  8
1
 62
     7
 10
5104.7319154376328
 20
6699.1276358380974
 30
0.0
 11
5104.7319154376328
 21
6752.3516358380994
 31
0.0
  0
LINE
  5
5B6
  8
1
 62
     7
 10
5284.5851876154393
 20
6762.1013300262521
 30
0.0
 11
5263.0492823200766
 21
6762.1016358380984
 31
0.0
  0
LINE
  5
5B7
  8
1
 62
     7
 10
5263.0492823200766
 20
6762.1016358380984
 30
0.0
 11
5262.081202320076
 21
6762.1016358380984
 31
0.0
  0
LINE
  5
5B8
  8
1
 62
     7
 10
5258.4913923200766
 20
6762.1016358380984
 30
0.0
 11
5242.171892320076
 21
6762.1016358380984
 31
0.0
  0
LINE
  5
5B9
  8
1
 62
     7
 10
5262.081202320076
 20
6762.1016358380984
 30
0.0
 11
5258.4913923200766
 21
6762.1016358380984
 31
0.0
  0
LINE
  5
5BA
  8
1
 62
     7
 10
5185.0516154376319
 20
6717.0496358380969
 30
0.0
 11
5255.4354154376306
 21
6668.3596358380983
 31
0.0
  0
LINE
  5
5BB
  8
1
 62
     7
 10
5185.0516154376319
 20
6717.0496358380969
 30
0.0
 11
5185.0516495406728
 21
6713.9144703089487
 31
0.0
  0
LINE
  5
5BC
  8
1
 62
     7
 10
5185.0516154376319
 20
6787.6636358380974
 30
0.0
 11
5185.0516154376319
 21
6790.795635838097
 31
0.0
  0
LINE
  5
5BD
  8
1
  6
DASHED
 62
     7
 10
4850.0518985470717
 20
6877.3506358380973
 30
0.0
 11
4850.0519154376334
 21
6645.353635838097
 31
0.0
  0
LINE
  5
5BE
  8
1
  6
DASHED
 62
     7
 10
5404.053915437632
 20
6877.3504703299659
 30
0.0
 11
5404.053915437632
 21
6645.353635838097
 31
0.0
  0
LINE
  5
5BF
  8
1
 62
     7
 10
5316.0524091440093
 20
6752.3516358380994
 30
0.0
 11
5315.9400295266914
 21
6752.3516358380994
 31
0.0
  0
LINE
  5
5C0
  8
1
 62
     7
 10
5315.9400295266914
 20
6752.3516358380994
 30
0.0
 11
5315.5528671846159
 21
6752.3516358380994
 31
0.0
  0
LINE
  5
5C1
  8
1
 62
     7
 10
4832.0509154376323
 20
6752.3516358380994
 30
0.0
 11
4832.0509154376323
 21
6627.3526358380959
 31
0.0
  0
LINE
  5
5C2
  8
1
 62
     7
 10
4964.6739154376319
 20
6752.3516358380994
 30
0.0
 11
4964.6739154376319
 21
6666.5196358380963
 31
0.0
  0
LINE
  5
5C3
  8
1
 62
     7
 10
4961.9975304343861
 20
6752.3516358380994
 30
0.0
 11
4962.0216477575814
 21
6839.3890865772573
 31
0.0
  0
LINE
  5
5C4
  8
1
 62
     7
 10
5185.0516154402931
 20
6752.3516358380994
 30
0.0
 11
5185.0516154376319
 21
6717.0496358380969
 31
0.0
  0
LINE
  5
5C5
  8
1
 62
     7
 10
5267.0525045107088
 20
6752.3516358380994
 30
0.0
 11
5267.0525023200762
 21
6749.1506358380984
 31
0.0
  0
LINE
  5
5C6
  8
1
 62
     7
 10
5422.0519154376334
 20
6752.3516358380994
 30
0.0
 11
5422.0519154376334
 21
6627.3526358380959
 31
0.0
  0
LINE
  5
5C7
  8
1
 62
     7
 10
4850.0519154376334
 20
6627.3526358380968
 30
0.0
 11
5404.053915437632
 21
6627.3526358380968
 31
0.0
  0
LINE
  5
5C8
  8
1
 62
     7
 10
5404.053915437632
 20
6627.3526358380968
 30
0.0
 11
5422.0519154376334
 21
6627.3526358380959
 31
0.0
  0
LINE
  5
5C9
  8
1
  6
DASHED
 62
     7
 10
4850.0519154376334
 20
6645.353635838097
 30
0.0
 11
5404.053915437632
 21
6645.353635838097
 31
0.0
  0
LINE
  5
5CA
  8
1
 62
     7
 10
4961.0568119183999
 20
6664.35645690821
 30
0.0
 11
4961.0570147575809
 21
6840.3571645772536
 31
0.0
  0
LINE
  5
5CB
  8
1
 62
     7
 10
4832.0509154376323
 20
6627.3526358380959
 30
0.0
 11
4850.0519154376334
 21
6627.3526358380968
 31
0.0
  0
LINE
  5
5CC
  8
1
 62
     7
 10
4964.0059154376322
 20
6661.3556358380956
 30
0.0
 11
5260.0484154376327
 21
6661.3556358380956
 31
0.0
  0
LINE
  5
5CD
  8
1
  6
DASHED
 62
     7
 10
4907.0509154376332
 20
6877.3506358380973
 30
0.0
 11
4892.0509154376323
 21
6877.3506358380973
 31
0.0
  0
LINE
  5
5CE
  8
1
 62
     7
 10
6770.0453154376364
 20
4728.3509358380979
 30
0.0
 11
6770.0453154376364
 21
4726.5801358380968
 31
0.0
  0
LINE
  5
5CF
  8
1
 62
     7
 10
6772.0449154376356
 20
4726.9011358380976
 30
0.0
 11
6772.0449154376356
 21
4720.8377358380976
 31
0.0
  0
LINE
  5
5D0
  8
1
 62
     7
 10
6791.045915437634
 20
4728.3509358380979
 30
0.0
 11
6791.045915437634
 21
4726.5801358380968
 31
0.0
  0
LINE
  5
5D1
  8
1
 62
     7
 10
6786.0449154376347
 20
4726.9011358380976
 30
0.0
 11
6786.0449154376347
 21
4720.8384358380981
 31
0.0
  0
LINE
  5
5D2
  8
1
 62
     7
 10
6842.045915437634
 20
4744.3511358380974
 30
0.0
 11
6842.045915437634
 21
4727.8506358380973
 31
0.0
  0
LINE
  5
5D3
  8
1
 62
     7
 10
6836.045915437634
 20
4744.3511358380974
 30
0.0
 11
6836.045915437634
 21
4717.3506358380982
 31
0.0
  0
LINE
  5
5D4
  8
1
 62
     7
 10
6830.045915437634
 20
4727.8506358380973
 30
0.0
 11
6830.045915437634
 21
4717.3506358380982
 31
0.0
  0
LINE
  5
5D5
  8
1
 62
     7
 10
6830.045915437634
 20
4727.8506358380973
 30
0.0
 11
6836.045915437634
 21
4744.3511358380974
 31
0.0
  0
LINE
  5
5D6
  8
1
 62
     7
 10
6842.045915437634
 20
4744.3511358380974
 30
0.0
 11
6836.045915437634
 21
4744.3511358380974
 31
0.0
  0
LINE
  5
5D7
  8
1
 62
     7
 10
6836.045915437634
 20
4690.350535838098
 30
0.0
 11
6830.045915437634
 21
4706.8506358380982
 31
0.0
  0
LINE
  5
5D8
  8
1
 62
     7
 10
6836.045915437634
 20
4690.350535838098
 30
0.0
 11
6842.045915437634
 21
4690.350535838098
 31
0.0
  0
LINE
  5
5D9
  8
1
 62
     7
 10
6820.0458814507092
 20
4727.8506563007541
 30
0.0
 11
6820.0458815772536
 21
4717.3506358380982
 31
0.0
  0
LINE
  5
5DA
  8
1
 62
     7
 10
6791.045915437634
 20
4708.8501358380981
 30
0.0
 11
6818.0459154376331
 21
4708.8501358380981
 31
0.0
  0
LINE
  5
5DB
  8
1
 62
     7
 10
6820.0458814507092
 20
4727.8506563007541
 30
0.0
 11
6830.045915437634
 21
4727.8506358380973
 31
0.0
  0
LINE
  5
5DC
  8
1
 62
     7
 10
6830.045915437634
 20
4706.8506358380982
 30
0.0
 11
6820.0458817037979
 21
4706.8505990218373
 31
0.0
  0
LINE
  5
5DD
  8
1
 62
     7
 10
6855.0469154376342
 20
4726.8508358380977
 30
0.0
 11
6855.0469154376342
 21
4717.3506358380982
 31
0.0
  0
LINE
  5
5DE
  8
1
 62
     7
 10
6854.0469154376342
 20
4727.8506358380973
 30
0.0
 11
6842.045915437634
 21
4727.8506358380973
 31
0.0
  0
LINE
  5
5DF
  8
1
 62
     7
 10
6842.045915437634
 20
4706.8506358380982
 30
0.0
 11
6854.0469154376342
 21
4706.8506358380982
 31
0.0
  0
LINE
  5
5E0
  8
1
 62
     7
 10
6855.0469154376342
 20
4726.8508358380977
 30
0.0
 11
6854.0469154376342
 21
4727.8506358380973
 31
0.0
  0
LINE
  5
5E1
  8
1
 62
     7
 10
6854.0469154376342
 20
4706.8506358380982
 30
0.0
 11
6855.0469154376342
 21
4707.8503358380976
 31
0.0
  0
LINE
  5
5E2
  8
1
 62
     7
 10
6796.5459154376349
 20
4733.3501358380981
 30
0.0
 11
6796.5459154376349
 21
4735.3511535542621
 31
0.0
  0
LINE
  5
5E3
  8
1
 62
     7
 10
6796.5459154376349
 20
4733.3501358380981
 30
0.0
 11
6797.5469154376342
 21
4732.3511358380956
 31
0.0
  0
LINE
  5
5E4
  8
1
 62
     7
 10
6791.045915437634
 20
4725.8504358380978
 30
0.0
 11
6795.5455856128128
 21
4725.8504208676432
 31
0.0
  0
LINE
  5
5E5
  8
1
 62
     7
 10
6797.5469154376342
 20
4732.3511358380956
 30
0.0
 11
6797.5465094079082
 21
4727.8506559657762
 31
0.0
  0
LINE
  5
5E6
  8
1
 62
     7
 10
6816.5459154376331
 20
4732.3511358380956
 30
0.0
 11
6816.5456424376353
 21
4726.8508833619389
 31
0.0
  0
LINE
  5
5E7
  8
1
 62
     7
 10
6817.545915437634
 20
4725.8504358380978
 30
0.0
 11
6818.0459154376331
 21
4725.8504358380978
 31
0.0
  0
LINE
  5
5E8
  8
1
 62
     7
 10
6786.0449154376347
 20
4726.9011358380976
 30
0.0
 11
6772.0449154376356
 21
4726.9011358380976
 31
0.0
  0
LINE
  5
5E9
  8
1
 62
     7
 10
6791.045915437634
 20
4728.3509358380979
 30
0.0
 11
6770.0453154376364
 21
4728.3509358380979
 31
0.0
  0
LINE
  5
5EA
  8
1
 62
     7
 10
6786.0449154376347
 20
4720.8384358380981
 30
0.0
 11
6772.0449154376356
 21
4720.8377358380976
 31
0.0
  0
LINE
  5
5EB
  8
1
 62
     7
 10
6772.0449154376356
 20
4726.9011358380976
 30
0.0
 11
6770.0453154376364
 21
4726.5801358380968
 31
0.0
  0
LINE
  5
5EC
  8
1
 62
     7
 10
6791.045915437634
 20
4726.5801358380968
 30
0.0
 11
6786.0449154376347
 21
4726.9011358380976
 31
0.0
  0
LINE
  5
5ED
  8
1
 62
     7
 10
6770.0453154376364
 20
4717.9197358380979
 30
0.0
 11
6791.045915437634
 21
4717.9197358380979
 31
0.0
  0
LINE
  5
5EE
  8
1
 62
     7
 10
6791.045915437634
 20
4717.9197358380979
 30
0.0
 11
6786.0449154376347
 21
4720.8384358380981
 31
0.0
  0
LINE
  5
5EF
  8
1
 62
     7
 10
6770.0453154376364
 20
4717.9197358380979
 30
0.0
 11
6772.0449154376356
 21
4720.8377358380976
 31
0.0
  0
LINE
  5
5F0
  8
1
 62
     7
 10
6770.0453154376364
 20
4707.5527358380978
 30
0.0
 11
6791.045915437634
 21
4707.5527358380978
 31
0.0
  0
LINE
  5
5F1
  8
1
 62
     7
 10
6786.0449154376347
 20
4704.3122358380979
 30
0.0
 11
6772.0449154376356
 21
4704.3122358380979
 31
0.0
  0
LINE
  5
5F2
  8
1
 62
     7
 10
6772.0449154376356
 20
4704.3122358380979
 30
0.0
 11
6772.0449154376356
 21
4703.8506358380982
 31
0.0
  0
LINE
  5
5F3
  8
1
 62
     7
 10
6786.0449154376347
 20
4704.3122358380979
 30
0.0
 11
6786.0449154376347
 21
4703.8506358380982
 31
0.0
  0
LINE
  5
5F4
  8
1
 62
     7
 10
6786.0449154376347
 20
4703.8506358380982
 30
0.0
 11
6772.0449154376356
 21
4703.8506358380982
 31
0.0
  0
LINE
  5
5F5
  8
1
 62
     7
 10
6770.0453154376364
 20
4707.5527358380978
 30
0.0
 11
6772.0449154376356
 21
4704.3122358380979
 31
0.0
  0
LINE
  5
5F6
  8
1
 62
     7
 10
6786.0449154376347
 20
4704.3122358380979
 30
0.0
 11
6791.045915437634
 21
4707.5527358380978
 31
0.0
  0
LINE
  5
5F7
  8
1
 62
     7
 10
6772.0449154376356
 20
4703.8506358380982
 30
0.0
 11
6770.0453154376364
 21
4706.3503358380976
 31
0.0
  0
LINE
  5
5F8
  8
1
 62
     7
 10
6786.0449154376347
 20
4703.8506358380982
 30
0.0
 11
6791.045915437634
 21
4706.3503358380976
 31
0.0
  0
LINE
  5
5F9
  8
1
 62
     7
 10
6770.0453154376364
 20
4707.5527358380978
 30
0.0
 11
6770.0453154376364
 21
4706.3503358380976
 31
0.0
  0
LINE
  5
5FA
  8
1
 62
     7
 10
6791.045915437634
 20
4707.5527358380978
 30
0.0
 11
6791.045915437634
 21
4706.3503358380976
 31
0.0
  0
LINE
  5
5FB
  8
1
 62
     7
 10
6791.045915437634
 20
4717.9197358380979
 30
0.0
 11
6791.045915437634
 21
4717.3506358380982
 31
0.0
  0
LINE
  5
5FC
  8
1
 62
     7
 10
6791.045915437634
 20
4726.5801358380968
 30
0.0
 11
6791.045915437634
 21
4725.8504358380978
 31
0.0
  0
LINE
  5
5FD
  8
1
 62
     7
 10
6791.045915437634
 20
4725.8504358380978
 30
0.0
 11
6791.045915437634
 21
4717.9197358380979
 31
0.0
  0
LINE
  5
5FE
  8
1
 62
     7
 10
6770.0453154376364
 20
4717.9197358380979
 30
0.0
 11
6770.0453154376364
 21
4717.3506358380982
 31
0.0
  0
LINE
  5
5FF
  8
1
 62
     7
 10
6770.0453154376364
 20
4726.5801358380968
 30
0.0
 11
6770.0453154376364
 21
4717.9197358380979
 31
0.0
  0
LINE
  5
600
  8
1
 62
     7
 10
6855.0469154376342
 20
4717.3506358380982
 30
0.0
 11
6855.0469154376342
 21
4707.8503358380976
 31
0.0
  0
LINE
  5
601
  8
1
 62
     7
 10
6820.0458815772536
 20
4717.3506358380982
 30
0.0
 11
6820.0458817037979
 21
4706.8505990218373
 31
0.0
  0
LINE
  5
602
  8
1
 62
     7
 10
6830.045915437634
 20
4717.3506358380982
 30
0.0
 11
6830.045915437634
 21
4706.8506358380982
 31
0.0
  0
LINE
  5
603
  8
1
 62
     7
 10
6791.045915437634
 20
4717.3506358380982
 30
0.0
 11
6791.045915437634
 21
4708.8501358380981
 31
0.0
  0
LINE
  5
604
  8
1
 62
     7
 10
6770.0453154376364
 20
4717.3506358380982
 30
0.0
 11
6770.0453154376364
 21
4707.5527358380978
 31
0.0
  0
LINE
  5
605
  8
1
 62
     7
 10
6791.045915437634
 20
4708.8501358380981
 30
0.0
 11
6791.045915437634
 21
4707.5527358380978
 31
0.0
  0
LINE
  5
606
  8
1
 62
     7
 10
6836.045915437634
 20
4717.3506358380982
 30
0.0
 11
6836.045915437634
 21
4690.350535838098
 31
0.0
  0
LINE
  5
607
  8
1
 62
     7
 10
6842.045915437634
 20
4726.8508358380977
 30
0.0
 11
6842.045915437634
 21
4717.3506358380982
 31
0.0
  0
LINE
  5
608
  8
1
 62
     7
 10
6842.045915437634
 20
4707.8503358380976
 30
0.0
 11
6842.045915437634
 21
4706.8506358380982
 31
0.0
  0
LINE
  5
609
  8
1
 62
     7
 10
6842.045915437634
 20
4706.8506358380982
 30
0.0
 11
6842.045915437634
 21
4690.350535838098
 31
0.0
  0
LINE
  5
60A
  8
1
 62
     7
 10
6842.045915437634
 20
4727.8506358380973
 30
0.0
 11
6842.045915437634
 21
4726.8508358380977
 31
0.0
  0
LINE
  5
60B
  8
1
 62
     7
 10
6842.045915437634
 20
4717.3506358380982
 30
0.0
 11
6842.045915437634
 21
4707.8503358380976
 31
0.0
  0
LINE
  5
60C
  8
1
 62
     7
 10
6816.5459154376331
 20
4732.3511358380956
 30
0.0
 11
6817.545915437634
 21
4733.3501358380981
 31
0.0
  0
LINE
  5
60D
  8
1
 62
     7
 10
6817.545915437634
 20
4733.3501358380981
 30
0.0
 11
6817.545915437634
 21
4735.3511535542621
 31
0.0
  0
LINE
  5
60E
  8
1
 62
     7
 10
6742.0449015978138
 20
4858.3511358380974
 30
0.0
 11
6737.044901597812
 21
4858.3511358380974
 31
0.0
  0
LINE
  5
60F
  8
1
 62
     7
 10
6830.0459154376331
 20
4858.3511358380974
 30
0.0
 11
6830.0459154376331
 21
4842.3506358380982
 31
0.0
  0
LINE
  5
610
  8
1
 62
     7
 10
6737.0448838297534
 20
4826.3515302492397
 30
0.0
 11
6737.044901597812
 21
4760.3501358380972
 31
0.0
  0
LINE
  5
611
  8
1
 62
     7
 10
6830.0459154376331
 20
4826.3515358380992
 30
0.0
 11
6830.0459154376331
 21
4807.3510358380991
 31
0.0
  0
LINE
  5
612
  8
1
 62
     7
 10
6742.0449015978138
 20
4842.3506358380982
 30
0.0
 11
6742.0449015978138
 21
4826.3515303619179
 31
0.0
  0
LINE
  5
613
  8
1
 62
     7
 10
6882.0459154376331
 20
4842.3506358380982
 30
0.0
 11
6882.0459154376331
 21
4826.3515358380992
 31
0.0
  0
LINE
  5
614
  8
1
 62
     7
 10
6842.0459154376331
 20
4842.3506358380982
 30
0.0
 11
6842.0459154376331
 21
4826.3515358380992
 31
0.0
  0
LINE
  5
615
  8
1
 62
     7
 10
6830.0459154376331
 20
4842.3506358380982
 30
0.0
 11
6830.0459154376331
 21
4826.3515358380992
 31
0.0
  0
LINE
  5
616
  8
1
 62
     7
 10
6717.0449015978129
 20
4927.8488887010708
 30
0.0
 11
6739.0449015978129
 21
4927.8488887010708
 31
0.0
  0
LINE
  5
617
  8
1
 62
     7
 10
6717.0449015978129
 20
4913.3491087010716
 30
0.0
 11
6730.0449015978129
 21
4913.3491087010716
 31
0.0
  0
LINE
  5
618
  8
1
 62
     7
 10
6717.0449015978129
 20
4875.3507358380984
 30
0.0
 11
6730.0449015978129
 21
4875.3507358380984
 31
0.0
  0
LINE
  5
619
  8
1
 62
     7
 10
6717.0449015978129
 20
4760.3501358380972
 30
0.0
 11
6737.044901597812
 21
4760.3501358380972
 31
0.0
  0
LINE
  5
61A
  8
1
 62
     7
 10
6717.0449015978129
 20
4864.3511358380974
 30
0.0
 11
6737.044901597812
 21
4864.3511358380974
 31
0.0
  0
LINE
  5
61B
  8
1
 62
     7
 10
6704.044901597812
 20
4913.3491087010716
 30
0.0
 11
6717.0449015978129
 21
4913.3491087010716
 31
0.0
  0
LINE
  5
61C
  8
1
 62
     7
 10
6704.044901597812
 20
4875.3507358380984
 30
0.0
 11
6717.0449015978129
 21
4875.3507358380984
 31
0.0
  0
LINE
  5
61D
  8
1
 62
     7
 10
6730.0449015978129
 20
4913.3491087010716
 30
0.0
 11
6739.0449015978129
 21
4913.3491087010716
 31
0.0
  0
LINE
  5
61E
  8
1
 62
     7
 10
6730.0449015978129
 20
4875.3507358380984
 30
0.0
 11
6737.044901597812
 21
4875.3507358380984
 31
0.0
  0
LINE
  5
61F
  8
1
 62
     7
 10
6697.0449015978129
 20
4864.3511358380974
 30
0.0
 11
6697.0449015978129
 21
4760.3501358380972
 31
0.0
  0
LINE
  5
620
  8
1
 62
     7
 10
6737.044901597812
 20
4864.3511358380974
 30
0.0
 11
6737.044901597812
 21
4858.3511358380974
 31
0.0
  0
LINE
  5
621
  8
1
 62
     7
 10
6842.0459154376331
 20
4858.3511358380974
 30
0.0
 11
6842.0459154376331
 21
4842.3506358380982
 31
0.0
  0
LINE
  5
622
  8
1
 62
     7
 10
6842.0459154376331
 20
4826.3515358380992
 30
0.0
 11
6842.0459154376331
 21
4807.3510358380991
 31
0.0
  0
LINE
  5
623
  8
1
 62
     7
 10
6730.0449015978129
 20
4875.3507358380984
 30
0.0
 11
6730.0449015978129
 21
4913.3491087010716
 31
0.0
  0
LINE
  5
624
  8
1
 62
     7
 10
6704.044901597812
 20
4913.3491087010716
 30
0.0
 11
6704.044901597812
 21
4875.3507358380984
 31
0.0
  0
LINE
  5
625
  8
1
 62
     7
 10
6697.0449015978129
 20
4864.3511358380974
 30
0.0
 11
6717.0449015978129
 21
4864.3511358380974
 31
0.0
  0
LINE
  5
626
  8
1
 62
     7
 10
6697.0449015978129
 20
4760.3501358380972
 30
0.0
 11
6717.0449015978129
 21
4760.3501358380972
 31
0.0
  0
LINE
  5
627
  8
1
 62
     7
 10
6737.044901597812
 20
4875.3507358380984
 30
0.0
 11
6737.044901597812
 21
4864.3511358380974
 31
0.0
  0
LINE
  5
628
  8
1
 62
     7
 10
6742.0449015978138
 20
4858.3511358380974
 30
0.0
 11
6742.0449015978138
 21
4842.3506358380982
 31
0.0
  0
LINE
  5
629
  8
1
 62
     7
 10
6697.0449015978129
 20
4875.3507358380984
 30
0.0
 11
6697.0449015978129
 21
4864.3511358380974
 31
0.0
  0
LINE
  5
62A
  8
1
 62
     7
 10
6882.0459154376331
 20
4858.3511358380974
 30
0.0
 11
6842.0459154376331
 21
4858.3511358380974
 31
0.0
  0
LINE
  5
62B
  8
1
 62
     7
 10
6830.0459154376331
 20
4858.3511358380974
 30
0.0
 11
6742.0449015978138
 21
4858.3511358380974
 31
0.0
  0
LINE
  5
62C
  8
1
 62
     7
 10
6882.0459154376331
 20
4826.3515358380992
 30
0.0
 11
6842.0459154376331
 21
4826.3515358380992
 31
0.0
  0
LINE
  5
62D
  8
1
 62
     7
 10
6830.0459154376331
 20
4826.3515358380992
 30
0.0
 11
6742.0449015978138
 21
4826.3515303619179
 31
0.0
  0
LINE
  5
62E
  8
1
 62
     7
 10
6882.0459154376331
 20
4858.3511358380974
 30
0.0
 11
6882.0459154376331
 21
4842.3506358380982
 31
0.0
  0
LINE
  5
62F
  8
1
 62
     7
 10
6842.0459154376331
 20
4877.3516358380994
 30
0.0
 11
6842.0459154376331
 21
4858.3511358380974
 31
0.0
  0
LINE
  5
630
  8
1
 62
     7
 10
6830.0459154376331
 20
4877.3516358380994
 30
0.0
 11
6830.0459154376331
 21
4858.3511358380974
 31
0.0
  0
LINE
  5
631
  8
1
 62
     7
 10
6830.0459154376331
 20
4877.3516358380994
 30
0.0
 11
6837.041856754623
 21
4877.3516358380994
 31
0.0
  0
LINE
  5
632
  8
1
 62
     7
 10
6830.0459154376331
 20
4807.3510358380991
 30
0.0
 11
6842.0459154376331
 21
4807.3510358380991
 31
0.0
  0
LINE
  5
633
  8
1
 62
     7
 10
6697.0449015978129
 20
4875.3507358380984
 30
0.0
 11
6704.044901597812
 21
4875.3507358380984
 31
0.0
  0
LINE
  5
634
  8
1
 62
     7
 10
6695.0449015978138
 20
4913.3491087010716
 30
0.0
 11
6704.044901597812
 21
4913.3491087010716
 31
0.0
  0
LINE
  5
635
  8
1
 62
     7
 10
6695.0449015978138
 20
4927.8488887010708
 30
0.0
 11
6717.0449015978129
 21
4927.8488887010708
 31
0.0
  0
LINE
  5
636
  8
1
 62
     7
 10
6695.0449015978138
 20
4913.3491087010716
 30
0.0
 11
6695.0449015978138
 21
4927.8488887010708
 31
0.0
  0
LINE
  5
637
  8
1
 62
     7
 10
6739.0449015978129
 20
4913.3491087010716
 30
0.0
 11
6739.0449015978129
 21
4927.8488887010708
 31
0.0
  0
LINE
  5
638
  8
1
 62
     7
 10
6742.0449015978138
 20
4826.3515303619179
 30
0.0
 11
6737.0448838297534
 21
4826.3515302492397
 31
0.0
  0
LINE
  5
639
  8
1
 62
     7
 10
6724.4269015978116
 20
4933.8475580555332
 30
0.0
 11
6736.5339015978116
 21
4933.8475580555332
 31
0.0
  0
LINE
  5
63A
  8
1
 62
     7
 10
6724.4269015978116
 20
4935.3496580555329
 30
0.0
 11
6747.5339064221052
 21
4935.3496580555329
 31
0.0
  0
LINE
  5
63B
  8
1
  6
DASHED
 62
     7
 10
6724.4269015978116
 20
4937.3515384071916
 30
0.0
 11
6842.04390159781
 21
4937.3515465473874
 31
0.0
  0
LINE
  5
63C
  8
1
  6
DASHED
 62
     7
 10
6837.041642316598
 20
4963.4481883556364
 30
0.0
 11
6837.0415836819302
 21
4969.3497615875258
 31
0.0
  0
LINE
  5
63D
  8
1
  6
DASHED
 62
     7
 10
6837.0417734783296
 20
4950.246773889502
 30
0.0
 11
6837.041642316598
 21
4963.4481883556364
 31
0.0
  0
LINE
  5
63E
  8
1
  6
DASHED
 62
     7
 10
6837.0418906823352
 20
4938.4502028030047
 30
0.0
 11
6837.041832079407
 21
4944.3485815875256
 31
0.0
  0
LINE
  5
63F
  8
1
 62
     7
 10
6837.0419015978114
 20
4926.8818041700697
 30
0.0
 11
6837.0419015978114
 21
4910.931020867507
 31
0.0
  0
LINE
  5
640
  8
1
 62
     7
 10
6837.0419015978114
 20
4910.931020867507
 30
0.0
 11
6837.0419015978114
 21
4890.2466791224188
 31
0.0
  0
LINE
  5
641
  8
1
 62
     7
 10
6837.0419015978114
 20
4878.4500797898509
 30
0.0
 11
6837.0419015978114
 21
4859.3471615875269
 31
0.0
  0
LINE
  5
642
  8
1
 62
     7
 10
6837.0419015978114
 20
4890.2466791224188
 30
0.0
 11
6837.0419015978114
 21
4884.3484615875268
 31
0.0
  0
LINE
  5
643
  8
1
 62
     7
 10
6842.04390159781
 20
4941.8508475558619
 30
0.0
 11
6842.04390159781
 21
4886.8461615875267
 31
0.0
  0
LINE
  5
644
  8
1
 62
     7
 10
6842.04390159781
 20
4946.8462775558619
 30
0.0
 11
6842.04390159781
 21
4941.8508475558619
 31
0.0
  0
LINE
  5
645
  8
1
 62
     7
 10
6778.6229528399499
 20
5017.3506358380992
 30
0.0
 11
6808.0409015978121
 21
5017.3506358380992
 31
0.0
  0
LINE
  5
646
  8
1
 62
     7
 10
6655.4628500941071
 20
5017.3506358380992
 30
0.0
 11
6655.5667412288021
 21
5017.3506358380992
 31
0.0
  0
LINE
  5
647
  8
1
 62
     7
 10
6655.5667412288021
 20
5017.3506358380992
 30
0.0
 11
6778.5190619645055
 21
5017.3506358380992
 31
0.0
  0
LINE
  5
648
  8
1
 62
     7
 10
6778.5190619645055
 20
5017.3506358380992
 30
0.0
 11
6778.6229528399499
 21
5017.3506358380992
 31
0.0
  0
LINE
  5
649
  8
1
 62
     7
 10
6626.0419015978123
 20
5017.3506358380992
 30
0.0
 11
6655.4628500941071
 21
5017.3506358380992
 31
0.0
  0
LINE
  5
64A
  8
1
 62
     7
 10
6747.5339064221052
 20
4935.3496580555329
 30
0.0
 11
6749.5319015978112
 21
4935.3496580555329
 31
0.0
  0
LINE
  5
64B
  8
1
 62
     7
 10
6686.5277442735824
 20
4935.3496580555329
 30
0.0
 11
6709.6642015978123
 21
4935.3496580555329
 31
0.0
  0
LINE
  5
64C
  8
1
 62
     7
 10
6595.0426673345664
 20
5017.3506358380992
 30
0.0
 11
6842.0459154376331
 21
5017.3506358380992
 31
0.0
  0
LINE
  5
64D
  8
1
 62
     7
 10
6629.0080782641671
 20
5077.3504715597874
 30
0.0
 11
6703.0452915978103
 21
5077.3505499811881
 31
0.0
  0
LINE
  5
64E
  8
1
  6
DASHED
 62
     7
 10
6642.0449015978102
 20
4999.3464615875273
 30
0.0
 11
6822.041446884944
 21
4999.3464305139369
 31
0.0
  0
LINE
  5
64F
  8
1
 62
     7
 10
6842.04390159781
 20
4971.8474475558623
 30
0.0
 11
6842.04390159781
 21
4969.3497475558634
 31
0.0
  0
LINE
  5
650
  8
1
 62
     7
 10
6842.04390159781
 20
4969.3497475558634
 30
0.0
 11
6842.04390159781
 21
4966.8520475558607
 31
0.0
  0
LINE
  5
651
  8
1
  6
DASHED
 62
     7
 10
6726.3569015978101
 20
4975.6463056690554
 30
0.0
 11
6726.6119079520804
 21
4975.4889615875263
 31
0.0
  0
LINE
  5
652
  8
1
  6
DASHED
 62
     7
 10
6726.6119079520804
 20
4975.4889615875263
 30
0.0
 11
6726.7023289123472
 21
4975.4331700250577
 31
0.0
  0
LINE
  5
653
  8
1
  6
DIVIDE
 62
     7
 10
6667.0419015978114
 20
4999.3464487081046
 30
0.0
 11
6698.0788932307178
 21
4999.3464433500531
 31
0.0
  0
LINE
  5
654
  8
1
  6
DASHED
 62
     7
 10
6726.7023289123472
 20
4975.4331700250577
 30
0.0
 11
6731.0419015978114
 21
4972.7555658517394
 31
0.0
  0
LINE
  5
655
  8
1
 62
     7
 10
6684.5299015978107
 20
4935.3496580555329
 30
0.0
 11
6686.5277442735824
 21
4935.3496580555329
 31
0.0
  0
LINE
  5
656
  8
1
  6
DASHED
 62
     7
 10
6717.0449015978111
 20
4999.3464400758703
 30
0.0
 11
6718.3059111330358
 21
4999.3464398581746
 31
0.0
  0
LINE
  5
657
  8
1
  6
DASHED
 62
     7
 10
6717.0449015978111
 20
4981.3919981298559
 30
0.0
 11
6726.3569015978101
 21
4975.6463056690554
 31
0.0
  0
LINE
  5
658
  8
1
  6
DASHED
 62
     7
 10
6717.0449015978111
 20
4994.3509818468174
 30
0.0
 11
6729.0719015978093
 21
4994.3509850955961
 31
0.0
  0
LINE
  5
659
  8
1
 62
     7
 10
6837.0419015978114
 20
4937.3515612413412
 30
0.0
 11
6837.0419015978114
 21
4926.8818041700697
 31
0.0
  0
LINE
  5
65A
  8
1
 62
     7
 10
6837.0419015978114
 20
4884.3484615875268
 30
0.0
 11
6837.0419015978114
 21
4878.4500797898509
 31
0.0
  0
LINE
  5
65B
  8
1
 62
     7
 10
6842.04390159781
 20
4884.3484615875268
 30
0.0
 11
6842.04390159781
 21
4881.8506615875267
 31
0.0
  0
LINE
  5
65C
  8
1
 62
     7
 10
6842.04390159781
 20
4886.8461615875267
 30
0.0
 11
6842.04390159781
 21
4884.3484615875268
 31
0.0
  0
LINE
  5
65D
  8
1
 62
     7
 10
6842.04390159781
 20
4881.8506615875267
 30
0.0
 11
6842.04390159781
 21
4859.3471615875269
 31
0.0
  0
LINE
  5
65E
  8
1
 62
     7
 10
6685.3288972682394
 20
4937.3512472093889
 30
0.0
 11
6684.5299015978107
 21
4935.3496580555329
 31
0.0
  0
LINE
  5
65F
  8
1
 62
     7
 10
6748.7329041757157
 20
4937.351251597539
 30
0.0
 11
6749.5319015978112
 21
4935.3496580555329
 31
0.0
  0
LINE
  5
660
  8
1
 62
     7
 10
6655.4628500941071
 20
5017.3506358380992
 30
0.0
 11
6655.7529015978116
 21
5015.7862580555329
 31
0.0
  0
LINE
  5
661
  8
1
  6
DASHED
 62
     7
 10
6778.5190619645055
 20
5017.3506358380992
 30
0.0
 11
6768.1250567905372
 21
4999.3464398217566
 31
0.0
  0
LINE
  5
662
  8
1
  6
DIVIDE
 62
     7
 10
6787.0459015978104
 20
5017.3506358380992
 30
0.0
 11
6787.0459015978104
 21
4999.346446547388
 31
0.0
  0
LINE
  5
663
  8
1
  6
DASHED
 62
     7
 10
6610.0429015978116
 20
4999.346446547388
 30
0.0
 11
6642.0449015978102
 21
4999.346446547388
 31
0.0
  0
LINE
  5
664
  8
1
 62
     7
 10
6592.0419015978114
 20
4999.346446547388
 30
0.0
 11
6592.0419015978114
 21
4940.3487465473881
 31
0.0
  0
LINE
  5
665
  8
1
  6
DIVIDE
 62
     7
 10
6768.1248815584513
 20
4999.346431257708
 30
0.0
 11
6776.4368171386177
 21
4999.3464298227827
 31
0.0
  0
LINE
  5
666
  8
1
  6
DIVIDE
 62
     7
 10
6776.4368171386177
 20
4999.3464233467248
 30
0.0
 11
6802.0429015978116
 21
4999.3464189262349
 31
0.0
  0
LINE
  5
667
  8
1
  6
DASHED
 62
     7
 10
6752.0439015978109
 20
4999.3464340338378
 30
0.0
 11
6768.1248815584513
 21
4999.346431257708
 31
0.0
  0
LINE
  5
668
  8
1
  6
DIVIDE
 62
     7
 10
6802.0429015978116
 20
4999.3464189262349
 30
0.0
 11
6842.04390159781
 21
4999.346446547388
 31
0.0
  0
LINE
  5
669
  8
1
  6
DASHED
 62
     7
 10
6727.5209015978116
 20
4999.346438267351
 30
0.0
 11
6729.7088619542556
 21
4999.3464378896333
 31
0.0
  0
LINE
  5
66A
  8
1
  6
DASHED
 62
     7
 10
6706.5649015978106
 20
4999.3464418850772
 30
0.0
 11
6707.7483425258024
 21
4999.3464416807738
 31
0.0
  0
LINE
  5
66B
  8
1
  6
DASHED
 62
     7
 10
6726.3569015978101
 20
4999.3464384682966
 30
0.0
 11
6727.5209015978116
 21
4999.346438267351
 31
0.0
  0
LINE
  5
66C
  8
1
  6
DASHED
 62
     7
 10
6707.7483425258024
 20
4999.3464416807738
 30
0.0
 11
6710.9468833873543
 21
4999.3464411285959
 31
0.0
  0
LINE
  5
66D
  8
1
  6
DASHED
 62
     7
 10
6730.6885135206949
 20
4962.3490080555321
 30
0.0
 11
6747.9072386080024
 21
4962.3490080555321
 31
0.0
  0
LINE
  5
66E
  8
1
  6
DASHED
 62
     7
 10
6709.6619015978113
 20
4940.3484580555341
 30
0.0
 11
6710.7577034292462
 21
4940.3484591710803
 31
0.0
  0
LINE
  5
66F
  8
1
  6
DASHED
 62
     7
 10
6688.5599015978123
 20
4940.3484580555341
 30
0.0
 11
6709.6619015978113
 21
4940.3484580555341
 31
0.0
  0
LINE
  5
670
  8
1
  6
DASHED
 62
     7
 10
6745.4978289378587
 20
4940.3484945371538
 30
0.0
 11
6749.0499015978112
 21
4940.3484580555341
 31
0.0
  0
LINE
  5
671
  8
1
  6
DASHED
 62
     7
 10
6668.8450492871343
 20
4994.3509688268859
 30
0.0
 11
6672.9436307847927
 21
4994.3509699340111
 31
0.0
  0
LINE
  5
672
  8
1
  6
DASHED
 62
     7
 10
6664.5449015978111
 20
5001.7991496764407
 30
0.0
 11
6655.5667412288021
 21
5017.3506358380992
 31
0.0
  0
LINE
  5
673
  8
1
  6
DASHED
 62
     7
 10
6665.9610613780396
 20
4999.3464488946938
 30
0.0
 11
6667.0419015978114
 21
4999.3464487081046
 31
0.0
  0
LINE
  5
674
  8
1
  6
DASHED
 62
     7
 10
6670.1916022082687
 20
4992.0182388001249
 30
0.0
 11
6670.1914633890892
 21
4992.0184792552318
 31
0.0
  0
LINE
  5
675
  8
1
  6
DASHED
 62
     7
 10
6756.5693141812999
 20
4979.3302192546444
 30
0.0
 11
6758.1499016931803
 21
4978.3549804921986
 31
0.0
  0
LINE
  5
676
  8
1
  6
DASHED
 62
     7
 10
6765.2409604618069
 20
4994.350994865722
 30
0.0
 11
6775.8569390504836
 21
4994.3509977333524
 31
0.0
  0
LINE
  5
677
  8
1
  6
DASHED
 62
     7
 10
6765.2409604618069
 20
4994.3506913337287
 30
0.0
 11
6756.5694433888584
 21
4979.3301395322524
 31
0.0
  0
LINE
  5
678
  8
1
  6
DASHED
 62
     7
 10
6758.1499016931803
 20
4978.3549804921986
 30
0.0
 11
6824.6049015978124
 21
4937.3515615875267
 31
0.0
  0
LINE
  5
679
  8
1
  6
DASHED
 62
     7
 10
6729.0719015978093
 20
4994.3509850955961
 30
0.0
 11
6730.8078490602593
 21
4994.3510109088638
 31
0.0
  0
LINE
  5
67A
  8
1
  6
DASHED
 62
     7
 10
6705.0729015978104
 20
4994.3509786128934
 30
0.0
 11
6717.0449015978111
 21
4994.3509818468174
 31
0.0
  0
LINE
  5
67B
  8
1
  6
DASHED
 62
     7
 10
6658.23293598074
 20
4994.3506624283073
 30
0.0
 11
6658.597901597811
 21
4991.1984580555318
 31
0.0
  0
LINE
  5
67C
  8
1
  6
DASHED
 62
     7
 10
6658.23293598074
 20
4994.3509659602996
 30
0.0
 11
6661.144164023859
 21
4994.3509667466942
 31
0.0
  0
LINE
  5
67D
  8
1
  6
DASHED
 62
     7
 10
6667.0419015978114
 20
4994.3509683398133
 30
0.0
 11
6668.8450492871343
 21
4994.3509688268859
 31
0.0
  0
LINE
  5
67E
  8
1
  6
DASHED
 62
     7
 10
6730.8078490602593
 20
4994.3510109088638
 30
0.0
 11
6746.1420804564414
 21
4994.3509897066588
 31
0.0
  0
LINE
  5
67F
  8
1
  6
DASHED
 62
     7
 10
6703.0910139738671
 20
4994.3509780775394
 30
0.0
 11
6705.0729015978104
 21
4994.3509786128934
 31
0.0
  0
LINE
  5
680
  8
1
  6
DASHED
 62
     7
 10
6672.9436307847927
 20
4994.3509699340111
 30
0.0
 11
6703.0910139738671
 21
4994.3509780775394
 31
0.0
  0
LINE
  5
681
  8
1
  6
DASHED
 62
     7
 10
6661.144164023859
 20
4994.3509667466942
 30
0.0
 11
6667.0419015978114
 21
4994.3509683398133
 31
0.0
  0
LINE
  5
682
  8
1
  6
DASHED
 62
     7
 10
6775.8569390504836
 20
4994.3506942013582
 30
0.0
 11
6775.8569742849259
 21
4994.3509977333624
 31
0.0
  0
LINE
  5
683
  8
1
  6
DASHED
 62
     7
 10
6775.8569390504836
 20
4994.3509977333524
 30
0.0
 11
6796.1445018908616
 21
4994.3510032135046
 31
0.0
  0
LINE
  5
684
  8
1
  6
DASHED
 62
     7
 10
6752.0439015978109
 20
4994.3509913008829
 30
0.0
 11
6757.9415793035632
 21
4994.3509928939866
 31
0.0
  0
LINE
  5
685
  8
1
  6
DASHED
 62
     7
 10
6802.0429015978116
 20
4994.3510048068047
 30
0.0
 11
6807.9440211710489
 21
4994.3510064008397
 31
0.0
  0
LINE
  5
686
  8
1
  6
DASHED
 62
     7
 10
6807.9440211710489
 20
4994.3510064008397
 30
0.0
 11
6822.0414463266434
 21
4994.3510102088894
 31
0.0
  0
LINE
  5
687
  8
1
  6
DASHED
 62
     7
 10
6796.1445018908616
 20
4994.3510032135046
 30
0.0
 11
6802.0429015978116
 21
4994.3510048068047
 31
0.0
  0
LINE
  5
688
  8
1
  6
DASHED
 62
     7
 10
6757.9415793035632
 20
4994.3509928939866
 30
0.0
 11
6765.2409604618069
 21
4994.350994865722
 31
0.0
  0
LINE
  5
689
  8
1
  6
DASHED
 62
     7
 10
6746.1420804564414
 20
4994.3509897066588
 30
0.0
 11
6752.0439015978109
 21
4994.3509913008829
 31
0.0
  0
LINE
  5
68A
  8
1
 62
     7
 10
6736.5339015978116
 20
4933.8475580555332
 30
0.0
 11
6737.5289015978105
 21
4933.8475580555332
 31
0.0
  0
LINE
  5
68B
  8
1
 62
     7
 10
6737.5289015978105
 20
4933.8475580555332
 30
0.0
 11
6744.9399015978106
 21
4933.8475580555332
 31
0.0
  0
LINE
  5
68C
  8
1
  6
DASHED
 62
     7
 10
6657.6545524290832
 20
4999.3464503286832
 30
0.0
 11
6665.9610613780396
 21
4999.3464488946938
 31
0.0
  0
LINE
  5
68D
  8
1
  6
DASHED
 62
     7
 10
6731.0419015978114
 20
4968.831943484467
 30
0.0
 11
6727.5222015978106
 21
4968.8360262438564
 31
0.0
  0
LINE
  5
68E
  8
1
  6
DASHED
 62
     7
 10
6703.0436487037123
 20
4968.8644207211337
 30
0.0
 11
6685.8559015978108
 21
4968.8843580555322
 31
0.0
  0
LINE
  5
68F
  8
1
  6
DASHED
 62
     7
 10
6706.5614959013437
 20
4987.8604716128584
 30
0.0
 11
6707.7289015978104
 21
4987.1401586716111
 31
0.0
  0
LINE
  5
690
  8
1
  6
DASHED
 62
     7
 10
6707.7289015978104
 20
4987.1401586716111
 30
0.0
 11
6717.0449015978111
 21
4981.3919981298559
 31
0.0
  0
LINE
  5
691
  8
1
  6
DASHED
 62
     7
 10
6731.0419015978114
 20
4972.7555658517394
 30
0.0
 11
6737.4123707764811
 21
4968.8248574398322
 31
0.0
  0
LINE
  5
692
  8
1
 62
     7
 10
6696.5289015978124
 20
4933.8475580555332
 30
0.0
 11
6697.5319015978121
 21
4933.8475580555332
 31
0.0
  0
LINE
  5
693
  8
1
 62
     7
 10
6697.5319015978121
 20
4933.8475580555332
 30
0.0
 11
6709.6642015978123
 21
4933.8475580555332
 31
0.0
  0
LINE
  5
694
  8
1
  6
DASHED
 62
     7
 10
6837.0415836819302
 20
4969.3497615875258
 30
0.0
 11
6837.0414843498547
 21
4979.3475244063911
 31
0.0
  0
LINE
  5
695
  8
1
  6
DASHED
 62
     7
 10
6837.041832079407
 20
4944.3485815875256
 30
0.0
 11
6837.0417734783296
 21
4950.246773889502
 31
0.0
  0
LINE
  5
696
  8
1
  6
DASHED
 62
     7
 10
6750.8751751787431
 20
4960.5180346568286
 30
0.0
 11
6788.4209015978104
 21
4937.3515615875267
 31
0.0
  0
LINE
  5
697
  8
1
  6
DASHED
 62
     7
 10
6750.8751751787431
 20
4960.5177311248362
 30
0.0
 11
6750.8752011949828
 21
4960.5180186042844
 31
0.0
  0
LINE
  5
698
  8
1
 62
     7
 10
6860.1479015978111
 20
4971.8474475558623
 30
0.0
 11
6862.1499015978115
 21
4971.8474475558623
 31
0.0
  0
LINE
  5
699
  8
1
 62
     7
 10
6854.1469015978109
 20
4971.8474475558623
 30
0.0
 11
6856.1479015978111
 21
4971.8474475558623
 31
0.0
  0
LINE
  5
69A
  8
1
 62
     7
 10
6848.151901597811
 20
4971.8474475558623
 30
0.0
 11
6850.1499015978106
 21
4971.8474475558623
 31
0.0
  0
LINE
  5
69B
  8
1
 62
     7
 10
6852.151901597811
 20
4971.8474475558623
 30
0.0
 11
6854.1469015978109
 21
4971.8474475558623
 31
0.0
  0
LINE
  5
69C
  8
1
 62
     7
 10
6844.1489015978113
 20
4971.8474475558623
 30
0.0
 11
6846.1469015978109
 21
4971.8474475558623
 31
0.0
  0
LINE
  5
69D
  8
1
 62
     7
 10
6862.1499015978115
 20
4971.8474475558623
 30
0.0
 11
6864.1509015978108
 21
4971.8474475558623
 31
0.0
  0
LINE
  5
69E
  8
1
 62
     7
 10
6858.1499015978106
 20
4971.8474475558623
 30
0.0
 11
6860.1479015978111
 21
4971.8474475558623
 31
0.0
  0
LINE
  5
69F
  8
1
 62
     7
 10
6866.1489015978104
 20
4971.8474475558623
 30
0.0
 11
6868.1509015978108
 21
4971.8474475558623
 31
0.0
  0
LINE
  5
6A0
  8
1
 62
     7
 10
6850.1499015978106
 20
4971.8474475558623
 30
0.0
 11
6852.151901597811
 21
4971.8474475558623
 31
0.0
  0
LINE
  5
6A1
  8
1
 62
     7
 10
6856.1479015978111
 20
4971.8474475558623
 30
0.0
 11
6858.1499015978106
 21
4971.8474475558623
 31
0.0
  0
LINE
  5
6A2
  8
1
 62
     7
 10
6842.1509015978108
 20
4971.8474475558623
 30
0.0
 11
6844.1489015978113
 21
4971.8474475558623
 31
0.0
  0
LINE
  5
6A3
  8
1
 62
     7
 10
6864.1509015978108
 20
4971.8474475558623
 30
0.0
 11
6866.1489015978104
 21
4971.8474475558623
 31
0.0
  0
LINE
  5
6A4
  8
1
 62
     7
 10
6846.1469015978109
 20
4971.8474475558623
 30
0.0
 11
6848.151901597811
 21
4971.8474475558623
 31
0.0
  0
LINE
  5
6A5
  8
1
 62
     7
 10
6868.1509015978108
 20
4971.8474475558623
 30
0.0
 11
6869.0429015978107
 21
4971.8474475558623
 31
0.0
  0
LINE
  5
6A6
  8
1
 62
     7
 10
6861.4299015978104
 20
4966.8520475558607
 30
0.0
 11
6863.4279015978109
 21
4966.8520475558607
 31
0.0
  0
LINE
  5
6A7
  8
1
 62
     7
 10
6855.4279015978109
 20
4966.8520475558607
 30
0.0
 11
6857.4299015978104
 21
4966.8520475558607
 31
0.0
  0
LINE
  5
6A8
  8
1
 62
     7
 10
6849.4269015978116
 20
4966.8520475558607
 30
0.0
 11
6851.42790159781
 21
4966.8520475558607
 31
0.0
  0
LINE
  5
6A9
  8
1
 62
     7
 10
6853.4269015978107
 20
4966.8520475558607
 30
0.0
 11
6855.4279015978109
 21
4966.8520475558607
 31
0.0
  0
LINE
  5
6AA
  8
1
 62
     7
 10
6845.4299015978104
 20
4966.8520475558607
 30
0.0
 11
6847.4319015978117
 21
4966.8520475558607
 31
0.0
  0
LINE
  5
6AB
  8
1
 62
     7
 10
6863.4279015978109
 20
4966.8520475558607
 30
0.0
 11
6865.4289015978111
 21
4966.8520475558607
 31
0.0
  0
LINE
  5
6AC
  8
1
 62
     7
 10
6859.4279015978109
 20
4966.8520475558607
 30
0.0
 11
6861.4299015978104
 21
4966.8520475558607
 31
0.0
  0
LINE
  5
6AD
  8
1
 62
     7
 10
6867.4309015978106
 20
4966.8520475558607
 30
0.0
 11
6869.0429015978107
 21
4966.8520475558607
 31
0.0
  0
LINE
  5
6AE
  8
1
 62
     7
 10
6851.42790159781
 20
4966.8520475558607
 30
0.0
 11
6853.4269015978107
 21
4966.8520475558607
 31
0.0
  0
LINE
  5
6AF
  8
1
 62
     7
 10
6857.4299015978104
 20
4966.8520475558607
 30
0.0
 11
6859.4279015978109
 21
4966.8520475558607
 31
0.0
  0
LINE
  5
6B0
  8
1
 62
     7
 10
6843.4289015978102
 20
4966.8520475558607
 30
0.0
 11
6845.4299015978104
 21
4966.8520475558607
 31
0.0
  0
LINE
  5
6B1
  8
1
 62
     7
 10
6865.4289015978111
 20
4966.8520475558607
 30
0.0
 11
6867.4309015978106
 21
4966.8520475558607
 31
0.0
  0
LINE
  5
6B2
  8
1
 62
     7
 10
6847.4319015978117
 20
4966.8520475558607
 30
0.0
 11
6849.4269015978116
 21
4966.8520475558607
 31
0.0
  0
LINE
  5
6B3
  8
1
 62
     7
 10
6869.3599015978116
 20
4967.1139475558612
 30
0.0
 11
6872.0469015978106
 21
4969.3497475558634
 31
0.0
  0
LINE
  5
6B4
  8
1
 62
     7
 10
6860.1479015978111
 20
4946.8462775558619
 30
0.0
 11
6862.1499015978115
 21
4946.8462775558619
 31
0.0
  0
LINE
  5
6B5
  8
1
 62
     7
 10
6854.1469015978109
 20
4946.8462775558619
 30
0.0
 11
6856.1479015978111
 21
4946.8462775558619
 31
0.0
  0
LINE
  5
6B6
  8
1
 62
     7
 10
6848.151901597811
 20
4946.8462775558619
 30
0.0
 11
6850.1499015978106
 21
4946.8462775558619
 31
0.0
  0
LINE
  5
6B7
  8
1
 62
     7
 10
6852.151901597811
 20
4946.8462775558619
 30
0.0
 11
6854.1469015978109
 21
4946.8462775558619
 31
0.0
  0
LINE
  5
6B8
  8
1
 62
     7
 10
6844.1489015978113
 20
4946.8462775558619
 30
0.0
 11
6846.1469015978109
 21
4946.8462775558619
 31
0.0
  0
LINE
  5
6B9
  8
1
 62
     7
 10
6862.1499015978115
 20
4946.8462775558619
 30
0.0
 11
6864.1509015978108
 21
4946.8462775558619
 31
0.0
  0
LINE
  5
6BA
  8
1
 62
     7
 10
6858.1499015978106
 20
4946.8462775558619
 30
0.0
 11
6860.1479015978111
 21
4946.8462775558619
 31
0.0
  0
LINE
  5
6BB
  8
1
 62
     7
 10
6866.1489015978104
 20
4946.8462775558619
 30
0.0
 11
6868.1509015978108
 21
4946.8462775558619
 31
0.0
  0
LINE
  5
6BC
  8
1
 62
     7
 10
6850.1499015978106
 20
4946.8462775558619
 30
0.0
 11
6852.151901597811
 21
4946.8462775558619
 31
0.0
  0
LINE
  5
6BD
  8
1
 62
     7
 10
6856.1479015978111
 20
4946.8462775558619
 30
0.0
 11
6858.1499015978106
 21
4946.8462775558619
 31
0.0
  0
LINE
  5
6BE
  8
1
 62
     7
 10
6842.04390159781
 20
4946.8462775558619
 30
0.0
 11
6844.1489015978113
 21
4946.8462775558619
 31
0.0
  0
LINE
  5
6BF
  8
1
 62
     7
 10
6864.1509015978108
 20
4946.8462775558619
 30
0.0
 11
6866.1489015978104
 21
4946.8462775558619
 31
0.0
  0
LINE
  5
6C0
  8
1
 62
     7
 10
6846.1469015978109
 20
4946.8462775558619
 30
0.0
 11
6848.151901597811
 21
4946.8462775558619
 31
0.0
  0
LINE
  5
6C1
  8
1
 62
     7
 10
6868.1509015978108
 20
4946.8462775558619
 30
0.0
 11
6869.0429015978107
 21
4946.8462775558619
 31
0.0
  0
LINE
  5
6C2
  8
1
 62
     7
 10
6861.4299015978104
 20
4941.8508475558619
 30
0.0
 11
6863.4279015978109
 21
4941.8508475558619
 31
0.0
  0
LINE
  5
6C3
  8
1
 62
     7
 10
6855.4279015978109
 20
4941.8508475558619
 30
0.0
 11
6857.4299015978104
 21
4941.8508475558619
 31
0.0
  0
LINE
  5
6C4
  8
1
 62
     7
 10
6849.4269015978116
 20
4941.8508475558619
 30
0.0
 11
6851.42790159781
 21
4941.8508475558619
 31
0.0
  0
LINE
  5
6C5
  8
1
 62
     7
 10
6853.4269015978107
 20
4941.8508475558619
 30
0.0
 11
6855.4279015978109
 21
4941.8508475558619
 31
0.0
  0
LINE
  5
6C6
  8
1
 62
     7
 10
6845.4299015978104
 20
4941.8508475558619
 30
0.0
 11
6847.4319015978117
 21
4941.8508475558619
 31
0.0
  0
LINE
  5
6C7
  8
1
 62
     7
 10
6863.4279015978109
 20
4941.8508475558619
 30
0.0
 11
6865.4289015978111
 21
4941.8508475558619
 31
0.0
  0
LINE
  5
6C8
  8
1
 62
     7
 10
6859.4279015978109
 20
4941.8508475558619
 30
0.0
 11
6861.4299015978104
 21
4941.8508475558619
 31
0.0
  0
LINE
  5
6C9
  8
1
 62
     7
 10
6867.4309015978106
 20
4941.8508475558619
 30
0.0
 11
6869.0429015978107
 21
4941.8508475558619
 31
0.0
  0
LINE
  5
6CA
  8
1
 62
     7
 10
6851.42790159781
 20
4941.8508475558619
 30
0.0
 11
6853.4269015978107
 21
4941.8508475558619
 31
0.0
  0
LINE
  5
6CB
  8
1
 62
     7
 10
6857.4299015978104
 20
4941.8508475558619
 30
0.0
 11
6859.4279015978109
 21
4941.8508475558619
 31
0.0
  0
LINE
  5
6CC
  8
1
 62
     7
 10
6843.4289015978102
 20
4941.8508475558619
 30
0.0
 11
6845.4299015978104
 21
4941.8508475558619
 31
0.0
  0
LINE
  5
6CD
  8
1
 62
     7
 10
6865.4289015978111
 20
4941.8508475558619
 30
0.0
 11
6867.4309015978106
 21
4941.8508475558619
 31
0.0
  0
LINE
  5
6CE
  8
1
 62
     7
 10
6847.4319015978117
 20
4941.8508475558619
 30
0.0
 11
6849.4269015978116
 21
4941.8508475558619
 31
0.0
  0
LINE
  5
6CF
  8
1
 62
     7
 10
6869.3599015978116
 20
4942.1126475558622
 30
0.0
 11
6872.0469015978106
 21
4944.3485675558613
 31
0.0
  0
LINE
  5
6D0
  8
1
 62
     7
 10
6869.3599015978116
 20
4882.1125615875262
 30
0.0
 11
6872.0469015978106
 21
4884.3484615875268
 31
0.0
  0
LINE
  5
6D1
  8
1
 62
     7
 10
6868.1509015978108
 20
4886.8461615875267
 30
0.0
 11
6869.0429015978107
 21
4886.8461615875267
 31
0.0
  0
LINE
  5
6D2
  8
1
 62
     7
 10
6847.4319015978117
 20
4881.8506615875267
 30
0.0
 11
6849.4269015978116
 21
4881.8506615875267
 31
0.0
  0
LINE
  5
6D3
  8
1
 62
     7
 10
6846.1469015978109
 20
4886.8461615875267
 30
0.0
 11
6848.151901597811
 21
4886.8461615875267
 31
0.0
  0
LINE
  5
6D4
  8
1
 62
     7
 10
6865.4289015978111
 20
4881.8506615875267
 30
0.0
 11
6867.4309015978106
 21
4881.8506615875267
 31
0.0
  0
LINE
  5
6D5
  8
1
 62
     7
 10
6864.1509015978108
 20
4886.8461615875267
 30
0.0
 11
6866.1489015978104
 21
4886.8461615875267
 31
0.0
  0
LINE
  5
6D6
  8
1
 62
     7
 10
6843.4289015978102
 20
4881.8506615875267
 30
0.0
 11
6845.4299015978104
 21
4881.8506615875267
 31
0.0
  0
LINE
  5
6D7
  8
1
 62
     7
 10
6842.1509015978108
 20
4886.8461615875267
 30
0.0
 11
6844.1489015978113
 21
4886.8461615875267
 31
0.0
  0
LINE
  5
6D8
  8
1
 62
     7
 10
6857.4299015978104
 20
4881.8506615875267
 30
0.0
 11
6859.4279015978109
 21
4881.8506615875267
 31
0.0
  0
LINE
  5
6D9
  8
1
 62
     7
 10
6856.1479015978111
 20
4886.8461615875267
 30
0.0
 11
6858.1499015978106
 21
4886.8461615875267
 31
0.0
  0
LINE
  5
6DA
  8
1
 62
     7
 10
6851.42790159781
 20
4881.8506615875267
 30
0.0
 11
6853.4269015978107
 21
4881.8506615875267
 31
0.0
  0
LINE
  5
6DB
  8
1
 62
     7
 10
6850.1499015978106
 20
4886.8461615875267
 30
0.0
 11
6852.151901597811
 21
4886.8461615875267
 31
0.0
  0
LINE
  5
6DC
  8
1
 62
     7
 10
6867.4309015978106
 20
4881.8506615875267
 30
0.0
 11
6869.0429015978107
 21
4881.8506615875267
 31
0.0
  0
LINE
  5
6DD
  8
1
 62
     7
 10
6866.1489015978104
 20
4886.8461615875267
 30
0.0
 11
6868.1509015978108
 21
4886.8461615875267
 31
0.0
  0
LINE
  5
6DE
  8
1
 62
     7
 10
6859.4279015978109
 20
4881.8506615875267
 30
0.0
 11
6861.4299015978104
 21
4881.8506615875267
 31
0.0
  0
LINE
  5
6DF
  8
1
 62
     7
 10
6858.1499015978106
 20
4886.8461615875267
 30
0.0
 11
6860.1479015978111
 21
4886.8461615875267
 31
0.0
  0
LINE
  5
6E0
  8
1
 62
     7
 10
6863.4279015978109
 20
4881.8506615875267
 30
0.0
 11
6865.4289015978111
 21
4881.8506615875267
 31
0.0
  0
LINE
  5
6E1
  8
1
 62
     7
 10
6862.1499015978115
 20
4886.8461615875267
 30
0.0
 11
6864.1509015978108
 21
4886.8461615875267
 31
0.0
  0
LINE
  5
6E2
  8
1
 62
     7
 10
6845.4299015978104
 20
4881.8506615875267
 30
0.0
 11
6847.4319015978117
 21
4881.8506615875267
 31
0.0
  0
LINE
  5
6E3
  8
1
 62
     7
 10
6844.1489015978113
 20
4886.8461615875267
 30
0.0
 11
6846.1469015978109
 21
4886.8461615875267
 31
0.0
  0
LINE
  5
6E4
  8
1
 62
     7
 10
6853.4269015978107
 20
4881.8506615875267
 30
0.0
 11
6855.4279015978109
 21
4881.8506615875267
 31
0.0
  0
LINE
  5
6E5
  8
1
 62
     7
 10
6852.151901597811
 20
4886.8461615875267
 30
0.0
 11
6854.1469015978109
 21
4886.8461615875267
 31
0.0
  0
LINE
  5
6E6
  8
1
 62
     7
 10
6849.4269015978116
 20
4881.8506615875267
 30
0.0
 11
6851.42790159781
 21
4881.8506615875267
 31
0.0
  0
LINE
  5
6E7
  8
1
 62
     7
 10
6848.151901597811
 20
4886.8461615875267
 30
0.0
 11
6850.1499015978106
 21
4886.8461615875267
 31
0.0
  0
LINE
  5
6E8
  8
1
 62
     7
 10
6855.4279015978109
 20
4881.8506615875267
 30
0.0
 11
6857.4299015978104
 21
4881.8506615875267
 31
0.0
  0
LINE
  5
6E9
  8
1
 62
     7
 10
6854.1469015978109
 20
4886.8461615875267
 30
0.0
 11
6856.1479015978111
 21
4886.8461615875267
 31
0.0
  0
LINE
  5
6EA
  8
1
 62
     7
 10
6861.4299015978104
 20
4881.8506615875267
 30
0.0
 11
6863.4279015978109
 21
4881.8506615875267
 31
0.0
  0
LINE
  5
6EB
  8
1
 62
     7
 10
6860.1479015978111
 20
4886.8461615875267
 30
0.0
 11
6862.1499015978115
 21
4886.8461615875267
 31
0.0
  0
LINE
  5
6EC
  8
1
  6
DASHED
 62
     7
 10
6715.7838923609779
 20
4999.3464402935624
 30
0.0
 11
6717.0449015978111
 21
4999.3464400758703
 31
0.0
  0
LINE
  5
6ED
  8
1
  6
DASHED
 62
     7
 10
6698.0788932307178
 20
4999.3464433500531
 30
0.0
 11
6698.6369015978107
 21
4999.346453023446
 31
0.0
  0
LINE
  5
6EE
  8
1
  6
DASHED
 62
     7
 10
6735.4518775054094
 20
4999.3464368981913
 30
0.0
 11
6736.0069156283826
 21
4999.3464368023733
 31
0.0
  0
LINE
  5
6EF
  8
1
  6
DASHED
 62
     7
 10
6710.9468833873543
 20
4999.3464411285959
 30
0.0
 11
6711.4978661755731
 21
4999.3464410334773
 31
0.0
  0
LINE
  5
6F0
  8
1
  6
DASHED
 62
     7
 10
6703.2058795708017
 20
4999.3464424649592
 30
0.0
 11
6704.3799015978102
 21
4999.346453023446
 31
0.0
  0
LINE
  5
6F1
  8
1
  6
DASHED
 62
     7
 10
6729.7088619542556
 20
4999.3464378896333
 30
0.0
 11
6730.8869015978116
 21
4999.346453023446
 31
0.0
  0
LINE
  5
6F2
  8
1
  6
DASHED
 62
     7
 10
6721.0648613410413
 20
4999.346439381884
 30
0.0
 11
6723.1219015978104
 21
4999.346453023446
 31
0.0
  0
LINE
  5
6F3
  8
1
  6
DASHED
 62
     7
 10
6711.4978661755731
 20
4999.3464410334773
 30
0.0
 11
6713.0209015978116
 21
4999.346453023446
 31
0.0
  0
LINE
  5
6F4
  8
1
 62
     7
 10
6788.4209015978104
 20
4937.3515615875267
 30
0.0
 11
6833.9925556556436
 21
4909.2290529745169
 31
0.0
  0
LINE
  5
6F5
  8
1
  6
DASHED
 62
     7
 10
6824.6049015978124
 20
4937.3515615875267
 30
0.0
 11
6834.6677989614464
 21
4931.1399984296841
 31
0.0
  0
LINE
  5
6F6
  8
1
  6
DASHED
 62
     7
 10
6704.3799015978102
 20
4999.346453023446
 30
0.0
 11
6706.5649015978106
 21
4999.3464418850772
 31
0.0
  0
LINE
  5
6F7
  8
1
  6
DASHED
 62
     7
 10
6723.1219015978104
 20
4999.346453023446
 30
0.0
 11
6726.3569015978101
 21
4999.3464384682966
 31
0.0
  0
LINE
  5
6F8
  8
1
  6
DASHED
 62
     7
 10
6718.3059111330358
 20
4999.3464398581746
 30
0.0
 11
6721.0648613410413
 21
4999.346439381884
 31
0.0
  0
LINE
  5
6F9
  8
1
  6
DASHED
 62
     7
 10
6747.9072386080024
 20
4962.3493115875272
 30
0.0
 11
6750.8751751787431
 21
4960.5180346568286
 31
0.0
  0
LINE
  5
6FA
  8
1
  6
DASHED
 62
     7
 10
6747.9072386080024
 20
4962.3490080555321
 30
0.0
 11
6747.9077305399906
 21
4962.3490080555321
 31
0.0
  0
LINE
  5
6FB
  8
1
  6
DASHED
 62
     7
 10
6713.0209015978116
 20
4999.346453023446
 30
0.0
 11
6715.7838923609779
 21
4999.3464402935624
 31
0.0
  0
LINE
  5
6FC
  8
1
  6
DASHED
 62
     7
 10
6730.8869015978116
 20
4999.346453023446
 30
0.0
 11
6735.4518775054094
 21
4999.3464368981913
 31
0.0
  0
LINE
  5
6FD
  8
1
  6
DASHED
 62
     7
 10
6698.6369015978107
 20
4999.346453023446
 30
0.0
 11
6703.2058795708017
 21
4999.3464424649592
 31
0.0
  0
LINE
  5
6FE
  8
1
  6
DASHED
 62
     7
 10
6736.0069156283826
 20
4999.3464368023733
 30
0.0
 11
6752.0439015978109
 21
4999.3464340338378
 31
0.0
  0
LINE
  5
6FF
  8
1
  6
DASHED
 62
     7
 10
6737.4123707764811
 20
4968.8248574398322
 30
0.0
 11
6747.9072386080024
 21
4962.3493115875272
 31
0.0
  0
LINE
  5
700
  8
1
  6
DASHED
 62
     7
 10
6737.4123707764811
 20
4968.8245539078389
 30
0.0
 11
6731.0419015978114
 21
4968.831943484467
 31
0.0
  0
LINE
  5
701
  8
1
 62
     7
 10
6626.0419015978123
 20
5017.3506358380992
 30
0.0
 11
6627.009909976462
 21
5075.3833103243123
 31
0.0
  0
LINE
  5
702
  8
1
 62
     7
 10
6808.0409015978121
 20
5017.3506358380992
 30
0.0
 11
6807.0729015978104
 21
5075.3836580555326
 31
0.0
  0
LINE
  5
703
  8
1
  6
DASHED
 62
     7
 10
6610.0429015978116
 20
4999.346446547388
 30
0.0
 11
6610.0429015978116
 21
4937.3515465473874
 31
0.0
  0
LINE
  5
704
  8
1
  6
DASHED
 62
     7
 10
6748.2849287442459
 20
4938.4640149884644
 30
0.0
 11
6748.7329041757157
 21
4937.351251597539
 31
0.0
  0
LINE
  5
705
  8
1
  6
DASHED
 62
     7
 10
6685.7767206789767
 20
4938.4640154472572
 30
0.0
 11
6685.3288972682394
 21
4937.3512472093889
 31
0.0
  0
LINE
  5
706
  8
1
  6
DASHED
 62
     7
 10
6683.0409015978103
 20
4962.3490080555321
 30
0.0
 11
6703.0468151252162
 21
4962.3490080555321
 31
0.0
  0
LINE
  5
707
  8
1
  6
DASHED
 62
     7
 10
6776.9899015978108
 20
5004.1107580555317
 30
0.0
 11
6778.3369015978096
 21
5015.7999580555334
 31
0.0
  0
LINE
  5
708
  8
1
  6
DASHED
 62
     7
 10
6775.4910189216553
 20
4991.1984242244462
 30
0.0
 11
6775.8569390504836
 21
4994.3506942013582
 31
0.0
  0
LINE
  5
709
  8
1
  6
DASHED
 62
     7
 10
6762.2514338604151
 20
4982.3479187498624
 30
0.0
 11
6765.5587474915346
 21
4982.3479178341258
 31
0.0
  0
LINE
  5
70A
  8
1
  6
DASHED
 62
     7
 10
6685.0329015978123
 20
4940.3484580555341
 30
0.0
 11
6688.5599015978123
 21
4940.3484580555341
 31
0.0
  0
LINE
  5
70B
  8
1
  6
DASHED
 62
     7
 10
6682.3936160231442
 20
4970.8825672162866
 30
0.0
 11
6670.1916022082687
 21
4992.0182388001249
 31
0.0
  0
LINE
  5
70C
  8
1
 62
     7
 10
6778.3369015978096
 20
5015.7999580555334
 30
0.0
 11
6778.6229528399499
 21
5017.3506358380992
 31
0.0
  0
LINE
  5
70D
  8
1
  6
DASHED
 62
     7
 10
6655.7529015978116
 20
5015.7862580555329
 30
0.0
 11
6657.1029015978111
 21
5004.1107580555317
 31
0.0
  0
LINE
  5
70E
  8
1
  6
DASHED
 62
     7
 10
6657.1029015978111
 20
5004.1107580555317
 30
0.0
 11
6657.6545172858232
 21
4999.34645889277
 31
0.0
  0
LINE
  5
70F
  8
1
  6
DASHED
 62
     7
 10
6668.5304655407226
 20
4982.3479175775483
 30
0.0
 11
6671.8308866280358
 21
4982.3479178134048
 31
0.0
  0
LINE
  5
710
  8
1
  6
DASHED
 62
     7
 10
6675.7339015978123
 20
4979.2404580555331
 30
0.0
 11
6676.7919015978114
 21
4974.5963580555317
 31
0.0
  0
LINE
  5
711
  8
1
  6
DASHED
 62
     7
 10
6676.7919015978114
 20
4974.5963580555317
 30
0.0
 11
6677.8495059245051
 21
4969.9730557418343
 31
0.0
  0
LINE
  5
712
  8
1
  6
DASHED
 62
     7
 10
6678.5729015978104
 20
4968.4330580555315
 30
0.0
 11
6680.8989015978104
 21
4965.4013580555329
 31
0.0
  0
LINE
  5
713
  8
1
  6
DASHED
 62
     7
 10
6680.8989015978104
 20
4965.4013580555329
 30
0.0
 11
6683.0409015978103
 21
4962.3490080555321
 31
0.0
  0
LINE
  5
714
  8
1
  6
DASHED
 62
     7
 10
6749.0499015978112
 20
4940.3484580555341
 30
0.0
 11
6750.8751751787431
 21
4960.5177311248362
 31
0.0
  0
LINE
  5
715
  8
1
  6
DASHED
 62
     7
 10
6683.0409015978103
 20
4962.3490080555321
 30
0.0
 11
6685.0329015978123
 21
4940.3484580555341
 31
0.0
  0
LINE
  5
716
  8
1
  6
DASHED
 62
     7
 10
6642.0449015978102
 20
4999.346453023446
 30
0.0
 11
6657.6545524290832
 21
4999.3464503286832
 31
0.0
  0
LINE
  5
717
  8
1
  6
DIVIDE
 62
     7
 10
6642.0449015978102
 20
4994.3509615875264
 30
0.0
 11
6642.0449015978102
 21
4999.3464615875273
 31
0.0
  0
LINE
  5
718
  8
1
  6
DASHED
 62
     7
 10
6702.0445652106391
 20
4990.6475092648716
 30
0.0
 11
6706.5614959013437
 21
4987.8604716128584
 31
0.0
  0
LINE
  5
719
  8
1
  6
DASHED
 62
     7
 10
6733.4364733971588
 20
4993.6034201046714
 30
0.0
 11
6756.5693141812999
 21
4979.3302192546444
 31
0.0
  0
LINE
  5
71A
  8
1
  6
DASHED
 62
     7
 10
6642.0449015978102
 20
4994.3509615875264
 30
0.0
 11
6658.23293598074
 21
4994.3509659602996
 31
0.0
  0
LINE
  5
71B
  8
1
  6
DASHED
 62
     7
 10
6837.0419015978114
 20
4937.3515612413412
 30
0.0
 11
6837.0418906823352
 21
4938.4502028030047
 31
0.0
  0
LINE
  5
71C
  8
1
 62
     7
 10
6592.0419015978114
 20
5014.3499465473888
 30
0.0
 11
6592.0419015978114
 21
4999.346446547388
 31
0.0
  0
LINE
  5
71D
  8
1
 62
     7
 10
6837.0419015978114
 20
4859.3471615875269
 30
0.0
 11
6842.04390159781
 21
4859.3471615875269
 31
0.0
  0
LINE
  5
71E
  8
1
 62
     7
 10
6842.04390159781
 20
4979.3475247727001
 30
0.0
 11
6842.04390159781
 21
4946.8462775558619
 31
0.0
  0
LINE
  5
71F
  8
1
 62
     7
 10
6869.0429015978107
 20
4971.8474475558623
 30
0.0
 11
6872.0469015978106
 21
4969.3497475558634
 31
0.0
  0
LINE
  5
720
  8
1
 62
     7
 10
6869.0429015978107
 20
4966.8520475558607
 30
0.0
 11
6869.3599015978116
 21
4967.1139475558612
 31
0.0
  0
LINE
  5
721
  8
1
 62
     7
 10
6842.04390159781
 20
4966.8520475558607
 30
0.0
 11
6843.4289015978102
 21
4966.8520475558607
 31
0.0
  0
LINE
  5
722
  8
1
 62
     7
 10
6842.04390159781
 20
4971.8474475558623
 30
0.0
 11
6842.1509015978108
 21
4971.8474475558623
 31
0.0
  0
LINE
  5
723
  8
1
 62
     7
 10
6869.0429015978107
 20
4946.8462775558619
 30
0.0
 11
6872.0469015978106
 21
4944.3485675558613
 31
0.0
  0
LINE
  5
724
  8
1
 62
     7
 10
6869.0429015978107
 20
4941.8508475558619
 30
0.0
 11
6869.3599015978116
 21
4942.1126475558622
 31
0.0
  0
LINE
  5
725
  8
1
 62
     7
 10
6842.04390159781
 20
4941.8508475558619
 30
0.0
 11
6843.4289015978102
 21
4941.8508475558619
 31
0.0
  0
LINE
  5
726
  8
1
 62
     7
 10
6869.0429015978107
 20
4886.8461615875267
 30
0.0
 11
6872.0469015978106
 21
4884.3484615875268
 31
0.0
  0
LINE
  5
727
  8
1
 62
     7
 10
6869.0429015978107
 20
4881.8506615875267
 30
0.0
 11
6869.3599015978116
 21
4882.1125615875262
 31
0.0
  0
LINE
  5
728
  8
1
 62
     7
 10
6842.04390159781
 20
4881.8506615875267
 30
0.0
 11
6843.4289015978102
 21
4881.8506615875267
 31
0.0
  0
LINE
  5
729
  8
1
 62
     7
 10
6842.04390159781
 20
4886.8461615875267
 30
0.0
 11
6842.1509015978108
 21
4886.8461615875267
 31
0.0
  0
LINE
  5
72A
  8
1
 62
     7
 10
6689.124901597811
 20
4933.8475580555332
 30
0.0
 11
6696.5289015978124
 21
4933.8475580555332
 31
0.0
  0
LINE
  5
72B
  8
1
 62
     7
 10
6817.5449154376347
 20
4751.3504535542615
 30
0.0
 11
6817.5209154376334
 21
4752.3383535542634
 31
0.0
  0
LINE
  5
72C
  8
1
 62
     7
 10
6796.5449154376347
 20
4751.3504535542615
 30
0.0
 11
6796.5449154376347
 21
4752.3383535542634
 31
0.0
  0
LINE
  5
72D
  8
1
 62
     7
 10
6796.0439154376327
 20
4751.3504535542615
 30
0.0
 11
6796.5449154376347
 21
4751.3504535542615
 31
0.0
  0
LINE
  5
72E
  8
1
 62
     7
 10
6797.7299154376306
 20
4760.3505535542608
 30
0.0
 11
6796.5659154376344
 21
4760.3505535542608
 31
0.0
  0
LINE
  5
72F
  8
1
 62
     7
 10
6816.3599154376334
 20
4760.3505535542608
 30
0.0
 11
6817.5209154376334
 21
4760.3505535542608
 31
0.0
  0
LINE
  5
730
  8
1
 62
     7
 10
6796.5449154376347
 20
4752.3383535542634
 30
0.0
 11
6796.5659154376344
 21
4760.3505535542608
 31
0.0
  0
LINE
  5
731
  8
1
 62
     7
 10
6817.5209154376334
 20
4752.3383535542634
 30
0.0
 11
6817.5209154376334
 21
4754.3516535542622
 31
0.0
  0
LINE
  5
732
  8
1
 62
     7
 10
6818.0459154376331
 20
4751.3504535542615
 30
0.0
 11
6819.756064257308
 21
4750.3416421504126
 31
0.0
  0
LINE
  5
733
  8
1
 62
     7
 10
6818.0459154376331
 20
4735.3511535542621
 30
0.0
 11
6818.6810380740098
 21
4735.7265825293762
 31
0.0
  0
LINE
  5
734
  8
1
 62
     7
 10
6819.756064141081
 20
4736.3620439528304
 30
0.0
 11
6819.756064257308
 21
4750.3416421504126
 31
0.0
  0
LINE
  5
735
  8
1
 62
     7
 10
6796.0439154376327
 20
4751.3504535542615
 30
0.0
 11
6795.4649040080321
 21
4751.0164543368091
 31
0.0
  0
LINE
  5
736
  8
1
 62
     7
 10
6796.0439154376327
 20
4735.3511535542621
 30
0.0
 11
6794.2949154376347
 21
4736.3621535542634
 31
0.0
  0
LINE
  5
737
  8
1
 62
     7
 10
6794.2949154376347
 20
4736.3621535542634
 30
0.0
 11
6794.2949154376347
 21
4750.3415535542608
 31
0.0
  0
LINE
  5
738
  8
1
 62
     7
 10
6796.0439154376327
 20
4735.3511535542621
 30
0.0
 11
6807.0449154376356
 21
4735.3511535542621
 31
0.0
  0
LINE
  5
739
  8
1
 62
     7
 10
6797.7299154376306
 20
4760.3505535542608
 30
0.0
 11
6807.0449154376356
 21
4760.3505535542608
 31
0.0
  0
LINE
  5
73A
  8
1
 62
     7
 10
6703.5455015978123
 20
5225.3519358380981
 30
0.0
 11
6730.5449015978093
 21
5225.3519358380981
 31
0.0
  0
LINE
  5
73B
  8
1
 62
     7
 10
6731.0451015978106
 20
5224.3519358380981
 30
0.0
 11
6703.0452915978103
 21
5224.3519358380981
 31
0.0
  0
LINE
  5
73C
  8
1
 62
     7
 10
6727.5449015978093
 20
5203.7509358380976
 30
0.0
 11
6706.5455015978123
 21
5203.7509358380976
 31
0.0
  0
LINE
  5
73D
  8
1
 62
     7
 10
6705.5451015978124
 20
5202.8519358380981
 30
0.0
 11
6728.5447015978116
 21
5202.8519358380981
 31
0.0
  0
LINE
  5
73E
  8
1
 62
     7
 10
6699.0455115978111
 20
5017.3506358380992
 30
0.0
 11
6717.0449015978111
 21
5017.3506358380992
 31
0.0
  0
LINE
  5
73F
  8
1
 62
     7
 10
6703.0452915978103
 20
5090.3512358380985
 30
0.0
 11
6731.0451015978106
 21
5090.3512358380985
 31
0.0
  0
LINE
  5
740
  8
1
 62
     7
 10
6736.5449015978102
 20
5020.351975838099
 30
0.0
 11
6697.5455031261527
 21
5020.3519729069221
 31
0.0
  0
LINE
  5
741
  8
1
  6
DASHED
 62
     7
 10
6717.0449015978111
 20
4967.349008055533
 30
0.0
 11
6708.2950015978104
 21
4967.3506358380982
 31
0.0
  0
LINE
  5
742
  8
1
 62
     7
 10
6706.5455015978123
 20
5203.7509358380976
 30
0.0
 11
6703.3457015978111
 21
5203.7509358380976
 31
0.0
  0
LINE
  5
743
  8
1
 62
     7
 10
6706.5455015978123
 20
5203.3519358380991
 30
0.0
 11
6705.5451015978124
 21
5203.3519358380991
 31
0.0
  0
LINE
  5
744
  8
1
 62
     7
 10
6728.5447015978116
 20
5202.8519358380981
 30
0.0
 11
6731.0451015978106
 21
5202.8519358380981
 31
0.0
  0
LINE
  5
745
  8
1
  6
DASHED
 62
     7
 10
6725.7955015978114
 20
4967.3506358380982
 30
0.0
 11
6727.5222015978106
 21
4967.349008055533
 31
0.0
  0
LINE
  5
746
  8
1
  6
DASHED
 62
     7
 10
6721.0667015978124
 20
4999.3506358380982
 30
0.0
 11
6723.1221015978117
 21
4999.3506358380982
 31
0.0
  0
LINE
  5
747
  8
1
  6
DASHED
 62
     7
 10
6707.7293015978103
 20
4967.3506173749956
 30
0.0
 11
6708.2950015978104
 21
4967.3506358380982
 31
0.0
  0
LINE
  5
748
  8
1
  6
DASHED
 62
     7
 10
6713.0237015978109
 20
4999.3506358380982
 30
0.0
 11
6711.4975015978107
 21
4999.3506358380982
 31
0.0
  0
LINE
  5
749
  8
1
  6
DASHED
 62
     7
 10
6713.0237015978109
 20
4999.3506358380982
 30
0.0
 11
6713.0360289390974
 21
4999.346449332018
 31
0.0
  0
LINE
  5
74A
  8
1
  6
DASHED
 62
     7
 10
6729.7105015978113
 20
4999.3506358380982
 30
0.0
 11
6730.8873015978124
 21
4999.3506358380982
 31
0.0
  0
LINE
  5
74B
  8
1
  6
DASHED
 62
     7
 10
6735.4528015978103
 20
4999.3506358380982
 30
0.0
 11
6736.01020159781
 21
4999.3506358380982
 31
0.0
  0
LINE
  5
74C
  8
1
  6
DASHED
 62
     7
 10
6704.38340159781
 20
4999.3506358380982
 30
0.0
 11
6703.20652159781
 21
4999.3506358380982
 31
0.0
  0
LINE
  5
74D
  8
1
  6
DASHED
 62
     7
 10
6698.6382915978093
 20
4999.3506358380982
 30
0.0
 11
6698.0815615978099
 21
4999.3506358380982
 31
0.0
  0
LINE
  5
74E
  8
1
  6
DASHED
 62
     7
 10
6730.8873015978124
 20
4999.3506358380982
 30
0.0
 11
6730.8960075525083
 21
4999.3464462487718
 31
0.0
  0
LINE
  5
74F
  8
1
  6
DASHED
 62
     7
 10
6736.01020159781
 20
4999.3506358380982
 30
0.0
 11
6736.0138107293387
 21
4999.3464453652632
 31
0.0
  0
LINE
  5
750
  8
1
  6
DASHED
 62
     7
 10
6698.6382915978093
 20
4999.3506358380982
 30
0.0
 11
6698.644529674857
 21
4999.3464518164856
 31
0.0
  0
LINE
  5
751
  8
1
  6
DASHED
 62
     7
 10
6704.38340159781
 20
4999.3506358380982
 30
0.0
 11
6704.3943213303019
 21
4999.346450823874
 31
0.0
  0
LINE
  5
752
  8
1
 62
     7
 10
6703.0452915978103
 20
5224.3519358380981
 30
0.0
 11
6703.0452915978103
 21
5224.8519358380981
 31
0.0
  0
LINE
  5
753
  8
1
 62
     7
 10
6731.0451015978106
 20
5224.3519358380981
 30
0.0
 11
6731.0451015978106
 21
5224.8519358380981
 31
0.0
  0
LINE
  5
754
  8
1
 62
     7
 10
6703.0452915978103
 20
5224.3519358380981
 30
0.0
 11
6703.0452887327501
 21
5204.0518260480521
 31
0.0
  0
LINE
  5
755
  8
1
 62
     7
 10
6730.7447015978114
 20
5203.7509358380976
 30
0.0
 11
6727.5449015978093
 21
5203.7509358380976
 31
0.0
  0
LINE
  5
756
  8
1
 62
     7
 10
6731.0451015978106
 20
5224.3519358380981
 30
0.0
 11
6731.0451346186292
 21
5204.051826440309
 31
0.0
  0
LINE
  5
757
  8
1
 62
     7
 10
6727.5449015978093
 20
5203.3519358380991
 30
0.0
 11
6727.5449015978093
 21
5203.7509358380976
 31
0.0
  0
LINE
  5
758
  8
1
 62
     7
 10
6706.5455015978123
 20
5203.3519358380991
 30
0.0
 11
6706.5455015978123
 21
5203.7509358380976
 31
0.0
  0
LINE
  5
759
  8
1
 62
     7
 10
6728.5447015978116
 20
5202.8519358380981
 30
0.0
 11
6728.5447015978116
 21
5203.3519358380991
 31
0.0
  0
LINE
  5
75A
  8
1
 62
     7
 10
6705.5451015978124
 20
5202.8519358380981
 30
0.0
 11
6705.5451015978124
 21
5203.3519358380991
 31
0.0
  0
LINE
  5
75B
  8
1
 62
     7
 10
6728.5447015978116
 20
5203.3519358380991
 30
0.0
 11
6727.5449015978093
 21
5203.3519358380991
 31
0.0
  0
LINE
  5
75C
  8
1
 62
     7
 10
6703.0452915978103
 20
5090.3512358380985
 30
0.0
 11
6703.0452915978103
 21
5202.8519358380981
 31
0.0
  0
LINE
  5
75D
  8
1
 62
     7
 10
6731.0451015978106
 20
5090.3512358380985
 30
0.0
 11
6731.0451015978106
 21
5202.8519358380981
 31
0.0
  0
LINE
  5
75E
  8
1
 62
     7
 10
6703.0452915978103
 20
5202.8519358380981
 30
0.0
 11
6705.5451015978124
 21
5202.8519358380981
 31
0.0
  0
LINE
  5
75F
  8
1
 62
     7
 10
6737.0445015978112
 20
5017.3506358380992
 30
0.0
 11
6737.0444625029249
 21
5019.8517407926256
 31
0.0
  0
LINE
  5
760
  8
1
 62
     7
 10
6737.0445015978112
 20
5017.3506358380992
 30
0.0
 11
6735.0449015978093
 21
5017.3506358380992
 31
0.0
  0
LINE
  5
761
  8
1
 62
     7
 10
6699.0455115978111
 20
5017.3506358380992
 30
0.0
 11
6697.0452715978099
 21
5017.3506358380992
 31
0.0
  0
LINE
  5
762
  8
1
 62
     7
 10
6697.0452715978099
 20
5017.3506358380992
 30
0.0
 11
6697.0452715389538
 21
5019.8517415816459
 31
0.0
  0
LINE
  5
763
  8
1
 62
     7
 10
6703.0452915978103
 20
5020.351975838099
 30
0.0
 11
6703.0452915978103
 21
5090.3512358380985
 31
0.0
  0
LINE
  5
764
  8
1
 62
     7
 10
6731.0451015978106
 20
5020.351975838099
 30
0.0
 11
6731.0451015978106
 21
5090.3512358380985
 31
0.0
  0
LINE
  5
765
  8
1
  6
DASHED
 62
     7
 10
6725.7955015978114
 20
4967.3506358380982
 30
0.0
 11
6717.0449015978111
 21
4967.349008055533
 31
0.0
  0
LINE
  5
766
  8
1
  6
DASHED
 62
     7
 10
6706.5676015978106
 20
4967.349008055533
 30
0.0
 11
6706.5676015978106
 21
4987.8567042745681
 31
0.0
  0
LINE
  5
767
  8
1
  6
DASHED
 62
     7
 10
6706.5676015978106
 20
4967.349008055533
 30
0.0
 11
6707.7293015978103
 21
4967.3506173749956
 31
0.0
  0
LINE
  5
768
  8
1
 62
     7
 10
6717.0449015978111
 20
5017.3506358380992
 30
0.0
 11
6735.0449015978093
 21
5017.3506358380992
 31
0.0
  0
LINE
  5
769
  8
1
 62
     7
 10
6796.5449154376347
 20
4751.3504535542615
 30
0.0
 11
6807.0449154376356
 21
4751.3398911436161
 31
0.0
  0
LINE
  5
76A
  8
1
 62
     7
 10
6817.5449154376347
 20
4751.3504535542615
 30
0.0
 11
6818.0459154376331
 21
4751.3504535542615
 31
0.0
  0
LINE
  5
76B
  8
1
 62
     7
 10
6817.5209154376334
 20
4754.3516535542622
 30
0.0
 11
6817.5209154376334
 21
4760.3505535542608
 31
0.0
  0
LINE
  5
76C
  8
1
 62
     7
 10
6807.0449154376356
 20
4735.3511535542621
 30
0.0
 11
6818.0459154376331
 21
4735.3511535542621
 31
0.0
  0
LINE
  5
76D
  8
1
 62
     7
 10
6807.0449154376356
 20
4751.3398911436161
 30
0.0
 11
6817.5449154376347
 21
4751.3504535542615
 31
0.0
  0
LINE
  5
76E
  8
1
 62
     7
 10
6807.0449154376356
 20
4760.3505535542608
 30
0.0
 11
6816.3599154376334
 21
4760.3505535542608
 31
0.0
  0
LINE
  5
76F
  8
1
 62
     7
 10
6795.4649040080321
 20
4751.0164543368091
 30
0.0
 11
6794.2949154376347
 21
4750.3415535542608
 31
0.0
  0
LINE
  5
770
  8
1
 62
     7
 10
6807.0449154376356
 20
4836.7123870671203
 30
0.0
 11
6807.0449154376356
 21
4796.7123870671167
 31
0.0
  0
LINE
  5
771
  8
1
 62
     7
 10
6717.0449015978111
 20
4885.9882903657344
 30
0.0
 11
6807.0449154376356
 21
4836.7123870671203
 31
0.0
  0
LINE
  5
772
  8
1
 62
     7
 10
6807.0449154376356
 20
4776.6328870671177
 30
0.0
 11
6802.0455154376332
 21
4776.6328713352932
 31
0.0
  0
LINE
  5
773
  8
1
 62
     7
 10
6802.0455154376332
 20
4774.8503632301954
 30
0.0
 11
6802.0455154376332
 21
4776.6328713352932
 31
0.0
  0
LINE
  5
774
  8
1
 62
     7
 10
6800.7577154376331
 20
4788.8616870671167
 30
0.0
 11
6799.6642154376332
 21
4789.9564870671184
 31
0.0
  0
LINE
  5
775
  8
1
 62
     7
 10
6800.7577154376331
 20
4788.8616870671167
 30
0.0
 11
6800.7577154376331
 21
4780.2412870671169
 31
0.0
  0
LINE
  5
776
  8
1
 62
     7
 10
6799.6642154376332
 20
4796.7123870671167
 30
0.0
 11
6802.060715437633
 21
4796.7123870671167
 31
0.0
  0
LINE
  5
777
  8
1
 62
     7
 10
6799.6642154376332
 20
4796.7123870671167
 30
0.0
 11
6799.6642154376332
 21
4789.9564870671184
 31
0.0
  0
LINE
  5
778
  8
1
 62
     7
 10
6807.0449154376356
 20
4776.6328870671177
 30
0.0
 11
6812.0449154376356
 21
4776.6328870671177
 31
0.0
  0
LINE
  5
779
  8
1
 62
     7
 10
6812.0449154376356
 20
4774.850363725127
 30
0.0
 11
6812.0449154376356
 21
4776.6328870671177
 31
0.0
  0
LINE
  5
77A
  8
1
 62
     7
 10
6813.3329154376343
 20
4788.8616870671167
 30
0.0
 11
6814.4269154376352
 21
4789.9564870671184
 31
0.0
  0
LINE
  5
77B
  8
1
 62
     7
 10
6813.3329154376343
 20
4788.8616870671167
 30
0.0
 11
6813.3329154376343
 21
4780.2412870671169
 31
0.0
  0
LINE
  5
77C
  8
1
 62
     7
 10
6814.4269154376352
 20
4796.7123870671167
 30
0.0
 11
6814.4269154376352
 21
4789.9564870671184
 31
0.0
  0
LINE
  5
77D
  8
1
 62
     7
 10
6814.4269154376352
 20
4796.7123870671167
 30
0.0
 11
6812.0299154376344
 21
4796.7123870671167
 31
0.0
  0
LINE
  5
77E
  8
1
  6
DASHED
 62
     7
 10
6717.0449015978111
 20
4951.0669267598414
 30
0.0
 11
6722.0449015978111
 21
4951.0669267598414
 31
0.0
  0
LINE
  5
77F
  8
1
  6
DASHED
 62
     7
 10
6723.3329015978106
 20
4938.8379267598402
 30
0.0
 11
6724.4269015978116
 21
4937.7439267598402
 31
0.0
  0
LINE
  5
780
  8
1
  6
DASHED
 62
     7
 10
6723.3329015978106
 20
4938.8379267598402
 30
0.0
 11
6723.3330790783166
 21
4947.4594438946988
 31
0.0
  0
LINE
  5
781
  8
1
 62
     7
 10
6724.4269015978116
 20
4930.9879267598399
 30
0.0
 11
6724.4269015978116
 21
4937.3520134831761
 31
0.0
  0
LINE
  5
782
  8
1
  6
DASHED
 62
     7
 10
6717.0449015978111
 20
4951.0669267598414
 30
0.0
 11
6712.0455015978114
 21
4951.0669267598414
 31
0.0
  0
LINE
  5
783
  8
1
  6
DASHED
 62
     7
 10
6710.7577015978113
 20
4938.8379267598402
 30
0.0
 11
6709.6642015978123
 21
4937.7439267598402
 31
0.0
  0
LINE
  5
784
  8
1
  6
DASHED
 62
     7
 10
6710.7577015978113
 20
4938.8379267598402
 30
0.0
 11
6710.7577120509159
 21
4947.4594434131513
 31
0.0
  0
LINE
  5
785
  8
1
 62
     7
 10
6709.6642015978123
 20
4930.9879267598399
 30
0.0
 11
6709.6642015978123
 21
4937.3520124614588
 31
0.0
  0
LINE
  5
786
  8
1
 62
     7
 10
6709.6642015978123
 20
4930.9879267598399
 30
0.0
 11
6712.0607015978112
 21
4930.9879267598399
 31
0.0
  0
LINE
  5
787
  8
1
 62
     7
 10
6724.4269015978116
 20
4930.9879267598399
 30
0.0
 11
6722.0299015978107
 21
4930.9879267598399
 31
0.0
  0
LINE
  5
788
  8
1
 62
     7
 10
6821.0459154376331
 20
4762.6126107082782
 30
0.0
 11
6821.0459154376331
 21
4771.7364401756422
 31
0.0
  0
LINE
  5
789
  8
1
  6
DASHED
 62
     7
 10
6703.0468507912128
 20
4955.0986457124018
 30
0.0
 11
6703.0468015978113
 21
4965.0989267598397
 31
0.0
  0
LINE
  5
78A
  8
1
  6
DASHED
 62
     7
 10
6727.5450801584548
 20
4952.8496742222114
 30
0.0
 11
6727.4575916014346
 21
4952.8496742182151
 31
0.0
  0
LINE
  5
78B
  8
1
  6
DASHED
 62
     7
 10
6731.0466968956189
 20
4955.098646613561
 30
0.0
 11
6731.0469015978106
 21
4965.0989267598397
 31
0.0
  0
LINE
  5
78C
  8
1
 62
     7
 10
6802.0455154376332
 20
4776.6328713352932
 30
0.0
 11
6800.7577259075088
 21
4776.6328672829486
 31
0.0
  0
LINE
  5
78D
  8
1
  6
DASHED
 62
     7
 10
6712.0455015978114
 20
4951.0669267598414
 30
0.0
 11
6710.7577015978113
 21
4951.0669267598414
 31
0.0
  0
LINE
  5
78E
  8
1
 62
     7
 10
6812.0449154376356
 20
4776.6328870671177
 30
0.0
 11
6813.3329154376343
 21
4776.6328870671177
 31
0.0
  0
LINE
  5
78F
  8
1
 62
     7
 10
6717.0449015978111
 20
4930.9879267598399
 30
0.0
 11
6717.0449015978111
 21
4885.9882903657344
 31
0.0
  0
LINE
  5
790
  8
1
  6
DASHED
 62
     7
 10
6722.0449015978111
 20
4951.0669267598414
 30
0.0
 11
6723.3329015978106
 21
4951.0669267598414
 31
0.0
  0
LINE
  5
791
  8
1
 62
     7
 10
6802.060715437633
 20
4796.7123870671167
 30
0.0
 11
6807.0449154376356
 21
4796.7123870671167
 31
0.0
  0
LINE
  5
792
  8
1
 62
     7
 10
6712.0607015978112
 20
4930.9879267598399
 30
0.0
 11
6717.0449015978111
 21
4930.9879267598399
 31
0.0
  0
LINE
  5
793
  8
1
 62
     7
 10
6812.0299154376344
 20
4796.7123870671167
 30
0.0
 11
6807.0449154376356
 21
4796.7123870671167
 31
0.0
  0
LINE
  5
794
  8
1
 62
     7
 10
6722.0299015978107
 20
4930.9879267598399
 30
0.0
 11
6717.0449015978111
 21
4930.9879267598399
 31
0.0
  0
LINE
  5
795
  8
1
  6
DASHED
 62
     7
 10
6706.6348815915298
 20
4952.8496732669964
 30
0.0
 11
6706.547091028091
 21
4952.8496732629837
 31
0.0
  0
LINE
  5
796
  8
1
  6
DASHED
 62
     7
 10
6727.6597936828448
 20
4952.8496742274519
 30
0.0
 11
6722.0449015978111
 21
4952.8496739709553
 31
0.0
  0
LINE
  5
797
  8
1
  6
DASHED
 62
     7
 10
6712.0455015978114
 20
4952.8496735141616
 30
0.0
 11
6712.0455015978114
 21
4951.0669267598414
 31
0.0
  0
LINE
  5
798
  8
1
  6
DASHED
 62
     7
 10
6722.0449015978111
 20
4952.8496739709553
 30
0.0
 11
6722.0449015978111
 21
4951.0669267598414
 31
0.0
  0
LINE
  5
799
  8
1
  6
DASHED
 62
     7
 10
6706.6344181635313
 20
4967.3490080378169
 30
0.0
 11
6706.547090997512
 21
4967.3490080376678
 31
0.0
  0
LINE
  5
79A
  8
1
 62
     7
 10
6817.544405568824
 20
4774.8503639973296
 30
0.0
 11
6812.0449154376356
 21
4774.850363725127
 31
0.0
  0
LINE
  5
79B
  8
1
 62
     7
 10
6817.5434156448864
 20
4760.3505535542608
 30
0.0
 11
6796.4588654159206
 21
4760.3505535542608
 31
0.0
  0
LINE
  5
79C
  8
1
 62
     7
 10
6812.0449154376356
 20
4774.850363725127
 30
0.0
 11
6802.0455154376332
 21
4774.8503632301954
 31
0.0
  0
LINE
  5
79D
  8
1
  6
DASHED
 62
     7
 10
6722.0449015978111
 20
4952.8496739709553
 30
0.0
 11
6712.0455015978114
 21
4952.8496735141616
 31
0.0
  0
LINE
  5
79E
  8
1
 62
     7
 10
6802.0455154376332
 20
4774.8503632301954
 30
0.0
 11
6796.5464153724906
 21
4774.8503629580091
 31
0.0
  0
LINE
  5
79F
  8
1
  6
DASHED
 62
     7
 10
6712.0455015978114
 20
4952.8496735141616
 30
0.0
 11
6706.4592954658438
 21
4952.8496732589738
 31
0.0
  0
LINE
  5
7A0
  8
1
 62
     7
 10
6842.0459154376331
 20
5017.3506358380992
 30
0.0
 11
6842.04390159781
 21
4937.3515465473874
 31
0.0
  0
LINE
  5
7A1
  8
1
  6
DASHED
 62
     7
 10
6595.0426676568504
 20
4937.3515294525923
 30
0.0
 11
6709.6642015978123
 21
4937.3515373854752
 31
0.0
  0
LINE
  5
7A2
  8
1
 62
     7
 10
6793.0439154376354
 20
4771.7364401756422
 30
0.0
 11
6793.0439154376354
 21
4762.6126107082782
 31
0.0
  0
LINE
  5
7A3
  8
1
  6
DASHED
 62
     7
 10
6727.5222015978106
 20
4974.9272919851428
 30
0.0
 11
6727.5222015978106
 21
4967.349008055533
 31
0.0
  0
LINE
  5
7A4
  8
1
  6
DASHED
 62
     7
 10
6724.4269015978116
 20
4937.3520134831761
 30
0.0
 11
6724.4269015978116
 21
4937.7439267598402
 31
0.0
  0
LINE
  5
7A5
  8
1
  6
DASHED
 62
     7
 10
6709.6642015978123
 20
4937.3520124614588
 30
0.0
 11
6709.6642015978123
 21
4937.7439267598402
 31
0.0
  0
LINE
  5
7A6
  8
1
  6
DASHED
 62
     7
 10
6706.5676015978106
 20
4968.8603330284996
 30
0.0
 11
6703.0436487037123
 21
4968.8644207211337
 31
0.0
  0
LINE
  5
7A7
  8
1
  6
DASHED
 62
     7
 10
6723.3329326935363
 20
4940.3484719728913
 30
0.0
 11
6745.4978289378587
 21
4940.3484945371538
 31
0.0
  0
LINE
  5
7A8
  8
1
  6
DIVIDE
 62
     7
 10
6842.0459154376331
 20
5549.7227030476924
 30
0.0
 11
6842.0459154376331
 21
4971.8474475558623
 31
0.0
  0
LINE
  5
7A9
  8
1
  6
DIVIDE
 62
     7
 10
6215.8607377637054
 20
4277.3506358380982
 30
0.0
 11
6842.045915437634
 21
4277.3506358380982
 31
0.0
  0
LINE
  5
7AA
  8
1
  6
DIVIDE
 62
     7
 10
4811.0419254376329
 20
4277.3506358380982
 30
0.0
 11
5473.0439254376352
 21
4277.3506358380982
 31
0.0
  0
LINE
  5
7AB
  8
1
  6
DIVIDE
 62
     7
 10
6842.045915437634
 20
4421.4077219771489
 30
0.0
 11
6842.045915437634
 21
4277.3506358381019
 31
0.0
  0
ARC
  5
7AC
  8
2
 62
     7
 10
4559.6845523451884
 20
3616.7448792245882
 30
0.0
 40
7.4222696970065227
 50
30.093742513035949
 51
149.90625748696749
  0
ARC
  5
7AD
  8
2
 62
     7
 10
4686.3405537176259
 20
3749.8666489088009
 30
0.0
 40
5.7182925993838571
 50
270.0
 51
0.0
  0
ARC
  5
7AE
  8
2
 62
     7
 10
4686.3405537176259
 20
3761.9072846741601
 30
0.0
 40
5.7182925993802201
 50
0.0
 51
90.0
  0
ARC
  5
7AF
  8
2
 62
     7
 10
4598.0708537842456
 20
3696.6832681698679
 30
0.0
 40
5.718292599382039
 50
270.0
 51
0.0
  0
ARC
  5
7B0
  8
2
 62
     7
 10
4598.0708537842456
 20
3708.7239039352248
 30
0.0
 40
5.718292599382039
 50
0.0
 51
90.0
  0
ARC
  5
7B1
  8
2
 62
     7
 10
4598.0708537842456
 20
3643.4998874309322
 30
0.0
 40
5.718292599382039
 50
270.0
 51
0.0
  0
ARC
  5
7B2
  8
2
 62
     7
 10
4598.0708537842456
 20
3655.5405231962918
 30
0.0
 40
5.718292599382039
 50
0.0
 51
90.0
  0
ARC
  5
7B3
  8
2
 62
     7
 10
4598.0708537842456
 20
3749.8666489088032
 30
0.0
 40
5.7182925993843119
 50
270.0
 51
0.0
  0
ARC
  5
7B4
  8
2
 62
     7
 10
4598.0708537842456
 20
3761.9072846741619
 30
0.0
 40
5.718292599382039
 50
0.0
 51
90.0
  0
ARC
  5
7B5
  8
2
 62
     7
 10
4491.3587593113843
 20
3643.4998874309322
 30
0.0
 40
5.718292599382039
 50
270.0
 51
0.0
  0
ARC
  5
7B6
  8
2
 62
     7
 10
4491.3587593113843
 20
3655.5405231962918
 30
0.0
 40
5.7182925993793106
 50
0.0
 51
90.0
  0
ARC
  5
7B7
  8
2
 62
     7
 10
4491.3587593113843
 20
3749.8666489088032
 30
0.0
 40
5.7182925993843119
 50
270.0
 51
0.0
  0
ARC
  5
7B8
  8
2
 62
     7
 10
4491.3587593113843
 20
3761.9072846741619
 30
0.0
 40
5.7182925993793106
 50
0.0
 51
90.0
  0
ARC
  5
7B9
  8
2
 62
     7
 10
4791.9151311130172
 20
3761.9072846741619
 30
0.0
 40
5.7182925993793106
 50
0.0
 51
90.0
  0
ARC
  5
7BA
  8
2
 62
     7
 10
4506.7396450184324
 20
3613.6063990814059
 30
0.0
 40
12.259019841713821
 50
311.2132848275163
 51
59.598436609322569
  0
ARC
  5
7BB
  8
1
  6
DASHED
 62
     7
 10
6706.5907545900836
 20
4961.7295518958281
 30
0.0
 40
5.6196257739633007
 50
89.554816681727075
 51
89.670724050302127
  0
ARC
  5
7BC
  8
1
 62
     7
 10
5242.0459444376338
 20
4717.3506405542621
 30
0.0
 40
27.000077999999458
 50
0.0000090985395354
 51
61.915004627059702
  0
ARC
  5
7BD
  8
1
 62
     7
 10
5242.0456030170781
 20
4717.3503025487498
 30
0.0
 40
10.999917420544341
 50
297.03411712908462
 51
0.0017830200207706
  0
ARC
  5
7BE
  8
1
 62
     7
 10
5242.0456033046912
 20
4717.3509874268329
 30
0.0
 40
10.99991713293819
 50
359.99821566377051
 51
89.998374178641143
  0
ARC
  5
7BF
  8
1
 62
     7
 10
5241.9623610578119
 20
4717.2318784036752
 30
0.0
 40
13.61173784644639
 50
15.361731913628651
 51
45.244128913629943
  0
ARC
  5
7C0
  8
1
 62
     7
 10
5242.1118686827758
 20
4717.3115395693476
 30
0.0
 40
13.57445305483356
 50
135.05354142031641
 51
164.94348842031519
  0
ARC
  5
7C1
  8
1
 62
     7
 10
5242.045947437633
 20
4717.3506435542622
 30
0.0
 40
11.00025799999972
 50
179.99996999999951
 51
242.96448817842301
  0
ARC
  5
7C2
  8
1
 62
     7
 10
5242.0455850972576
 20
4717.3503770979714
 30
0.0
 40
10.99999154862217
 50
270.0017206476146
 51
297.03402377670159
  0
ARC
  5
7C3
  8
1
 62
     7
 10
5242.0459509376342
 20
4717.3506430542611
 30
0.0
 40
11.0002615000012
 50
90.000184904716676
 51
179.99996739571159
  0
ARC
  5
7C4
  8
1
 62
     7
 10
5242.0457813874036
 20
4717.3504685548096
 30
0.0
 40
27.00024994971222
 50
118.17803588784039
 51
179.99964501712631
  0
ARC
  5
7C5
  8
1
 62
     7
 10
5242.045947437633
 20
4717.3506435542622
 30
0.0
 40
11.00025799999923
 50
242.96448817842301
 51
269.99983332527842
  0
ARC
  5
7C6
  8
1
 62
     7
 10
5242.0456001785697
 20
4717.4361804050641
 30
0.0
 40
13.582766636943861
 50
270.00132984790741
 51
284.9349931154847
  0
ARC
  5
7C7
  8
1
 62
     7
 10
5242.0456001785697
 20
4717.4361804050641
 30
0.0
 40
13.58276663694274
 50
255.06503311548121
 51
270.00132984790741
  0
ARC
  5
7C8
  8
1
 62
     7
 10
5242.0457724360431
 20
4717.3508125520639
 30
0.0
 40
27.00024099840887
 50
180.0003749953346
 51
270.00030345609213
  0
ARC
  5
7C9
  8
1
 62
     7
 10
5242.0459252251158
 20
4717.3506687665604
 30
0.0
 40
27.00009721252896
 50
269.99997923039138
 51
359.9999492303923
  0
ARC
  5
7CA
  8
1
 62
     7
 10
5141.4311406817706
 20
4842.6678349981194
 30
0.0
 40
35.616530173739612
 50
305.36663320819031
 51
359.4897197086662
  0
ARC
  5
7CB
  8
1
 62
     7
 10
5142.6585628494513
 20
4842.0341170285283
 30
0.0
 40
35.61435904686536
 50
125.3634872149092
 51
179.49078317971379
  0
ARC
  5
7CC
  8
1
 62
     7
 10
5142.7092724376344
 20
4842.6932738380983
 30
0.0
 40
35.665307999999712
 50
180.55045124799679
 51
234.59469517714831
  0
ARC
  5
7CD
  8
1
 62
     7
 10
5141.384293548218
 20
4842.0081229200241
 30
0.0
 40
35.66360958189955
 50
0.5502765020288022
 51
54.59474863386103
  0
ARC
  5
7CE
  8
1
 62
     7
 10
5235.8273824376338
 20
4778.5054140671182
 30
0.0
 40
1.873804999999606
 50
182.12171700002489
 51
267.90020299999742
  0
ARC
  5
7CF
  8
1
 62
     7
 10
5235.8277890578283
 20
4778.3684023819442
 30
0.0
 40
1.874158000000173
 50
92.112160999977263
 51
177.9317226581968
  0
ARC
  5
7D0
  8
1
 62
     7
 10
5248.263924688973
 20
4778.3665859738512
 30
0.0
 40
1.8760071678940431
 50
2.1217632903116721
 51
87.86189229030785
  0
ARC
  5
7D1
  8
1
 62
     7
 10
5248.2646325902588
 20
4778.5067757152547
 30
0.0
 40
1.8751689999988439
 50
272.11741899997747
 51
357.83842270162307
  0
ARC
  5
7D2
  8
1
  6
DASHED
 62
     7
 10
5308.2742097534483
 20
4949.1942727283058
 30
0.0
 40
1.8745199999989579
 50
2.1216699999967981
 51
87.905338603238121
  0
ARC
  5
7D3
  8
1
  6
DASHED
 62
     7
 10
5308.2735614376343
 20
4949.3337173657328
 30
0.0
 40
1.8751919999988109
 50
272.11888000000152
 51
357.8592490000438
  0
ARC
  5
7D4
  8
1
  6
DASHED
 62
     7
 10
5295.8362074376337
 20
4949.3330673657329
 30
0.0
 40
1.874518999999953
 50
182.12167299997131
 51
267.90023799999489
  0
ARC
  5
7D5
  8
1
  6
DASHED
 62
     7
 10
5295.8368665660837
 20
4949.1933602132603
 30
0.0
 40
1.875213000000544
 50
92.119456999990717
 51
177.85124669492609
  0
ARC
  5
7D6
  8
1
 62
     7
 10
5231.503566781118
 20
4769.2325281235062
 30
0.0
 40
5.6180059564501459
 50
89.552801340683374
 51
101.4190243406665
  0
ARC
  5
7D7
  8
1
 62
     7
 10
5231.1080304376346
 20
4771.0044540671161
 30
0.0
 40
3.8030240000003879
 50
100.8631459999785
 51
116.5476669999917
  0
ARC
  5
7D8
  8
1
 62
     7
 10
5230.4964542619518
 20
4772.1705887810158
 30
0.0
 40
2.4866388913877451
 50
115.9509168286867
 51
170.05555382870301
  0
ARC
  5
7D9
  8
1
 62
     7
 10
5252.5899959737717
 20
4769.2282484755369
 30
0.0
 40
5.6222923478430022
 50
78.584986635471438
 51
90.454417635468275
  0
ARC
  5
7DA
  8
1
 62
     7
 10
5252.9860652272191
 20
4771.0061993355657
 30
0.0
 40
3.8012966182826471
 50
63.445595064000301
 51
79.132933063991331
  0
ARC
  5
7DB
  8
1
 62
     7
 10
5253.5951646480398
 20
4772.1684149714556
 30
0.0
 40
2.4895148439990802
 50
350.00759325500741
 51
64.027425212747602
  0
ARC
  5
7DC
  8
1
 62
     7
 10
5231.5036403231543
 20
4765.9699332497876
 30
0.0
 40
5.6195501959664993
 50
258.58339847644578
 51
269.55367552353653
  0
ARC
  5
7DD
  8
1
 62
     7
 10
5231.1084612887507
 20
4764.1989321661413
 30
0.0
 40
3.8055449999990758
 50
243.46404399999511
 51
259.13754705978471
  0
ARC
  5
7DE
  8
1
 62
     7
 10
5230.4944774376336
 20
4763.0290000671166
 30
0.0
 40
2.4846999999996249
 50
189.95341700001961
 51
244.07801600000721
  0
ARC
  5
7DF
  8
1
  6
DASHED
 62
     7
 10
5291.513234403903
 20
4961.730385858611
 30
0.0
 40
5.6196305460710514
 50
89.554747115670793
 51
101.4175381156679
  0
ARC
  5
7E0
  8
1
  6
DASHED
 62
     7
 10
5291.1180771490472
 20
4963.5021826265638
 30
0.0
 40
3.8048482370711478
 50
100.8664279996409
 51
116.54333499963001
  0
ARC
  5
7E1
  8
1
  6
DASHED
 62
     7
 10
5290.5063467130949
 20
4964.6697581583576
 30
0.0
 40
2.487102981208936
 50
115.9560572619619
 51
170.0549372619958
  0
ARC
  5
7E2
  8
1
  6
DASHED
 62
     7
 10
5291.6005684299071
 20
4961.7303905777062
 30
0.0
 40
5.619625773962392
 50
89.554816681727004
 51
90.445183513260105
  0
ARC
  5
7E3
  8
1
  6
DASHED
 62
     7
 10
5312.5999944968198
 20
4961.7327347099517
 30
0.0
 40
5.6172819999994612
 50
78.579975000002349
 51
90.460025125860057
  0
ARC
  5
7E4
  8
1
  6
DASHED
 62
     7
 10
5312.9949964376347
 20
4963.5039263657318
 30
0.0
 40
3.8031210000007079
 50
63.449937000010337
 51
79.129660000000882
  0
ARC
  5
7E5
  8
1
  6
DASHED
 62
     7
 10
5313.6047385969778
 20
4964.6675546302431
 30
0.0
 40
2.4896960000004769
 50
9.9860859999991796
 51
64.03269135386968
  0
ARC
  5
7E6
  8
1
  6
DASHED
 62
     7
 10
5291.5130068301451
 20
4958.4681348890081
 30
0.0
 40
5.6182695201917241
 50
258.58203695555852
 51
269.55232327920271
  0
ARC
  5
7E7
  8
1
  6
DASHED
 62
     7
 10
5291.1174784376344
 20
4956.6970173657337
 30
0.0
 40
3.804084000000731
 50
243.46101400000899
 51
259.14056000000511
  0
ARC
  5
7E8
  8
1
  6
DASHED
 62
     7
 10
5290.503967985198
 20
4955.5284836688024
 30
0.0
 40
2.4847015766552292
 50
189.95341771514421
 51
244.0780167151685
  0
ARC
  5
7E9
  8
1
  6
DASHED
 62
     7
 10
5312.5111494633966
 20
4958.4621108766341
 30
0.0
 40
5.612243534127372
 50
269.55340975300652
 51
270.44659548174502
  0
ARC
  5
7EA
  8
1
  6
DASHED
 62
     7
 10
5312.5988497878388
 20
4958.465791804736
 30
0.0
 40
5.6161997226091849
 50
270.72188081517578
 51
281.43417062898681
  0
ARC
  5
7EB
  8
1
  6
DASHED
 62
     7
 10
5312.9955934376339
 20
4956.6952733657354
 30
0.0
 40
3.8023580000021528
 50
280.86338900000061
 51
296.54575199998339
  0
ARC
  5
7EC
  8
1
  6
DASHED
 62
     7
 10
5313.6067377287272
 20
4955.5306316710721
 30
0.0
 40
2.4875057511348531
 50
295.94172590695911
 51
350.00770390693378
  0
ARC
  5
7ED
  8
1
  6
DASHED
 62
     7
 10
5291.600799892979
 20
4958.4683192179982
 30
0.0
 40
5.6184538200164624
 50
269.55236345373982
 51
270.44764178108778
  0
ARC
  5
7EE
  8
1
 62
     7
 10
5252.9833695865163
 20
4764.1989321661413
 30
0.0
 40
3.8055460939396411
 50
280.86245294022882
 51
296.53595600000477
  0
ARC
  5
7EF
  8
1
 62
     7
 10
5252.5881905521173
 20
4765.9699332497876
 30
0.0
 40
5.6195501959659433
 50
269.55367552352737
 51
281.41660152353592
  0
ARC
  5
7F0
  8
1
 62
     7
 10
5253.5973534376344
 20
4763.0290000671166
 30
0.0
 40
2.4846999999998758
 50
295.92198399997392
 51
350.35277720031411
  0
ARC
  5
7F1
  8
1
 62
     7
 10
5288.5741242597851
 20
5224.83150707608
 30
0.0
 40
0.5200020000004204
 50
92.139033999917245
 51
177.8345883909208
  0
ARC
  5
7F2
  8
1
 62
     7
 10
5315.5350130661582
 20
5224.831675487565
 30
0.0
 40
0.5200670000005851
 50
2.1456489999054198
 51
87.827941576556256
  0
ARC
  5
7F3
  8
1
 62
     7
 10
5226.1701360464394
 20
5146.9579798938566
 30
0.0
 40
0.5199282977619557
 50
202.2864971980903
 51
287.87406019797618
  0
ARC
  5
7F4
  8
1
 62
     7
 10
5219.8517829272287
 20
5164.3068111236798
 30
0.0
 40
0.5160129999997105
 50
111.7326710000161
 51
198.25678673837109
  0
ARC
  5
7F5
  8
1
 62
     7
 10
5287.0153865366829
 20
5222.3904352303161
 30
0.0
 40
1.039995036591526
 50
272.11210788056781
 51
357.8164738805695
  0
ARC
  5
7F6
  8
1
 62
     7
 10
5287.0158033378957
 20
5212.3122941922848
 30
0.0
 40
1.039544100951465
 50
2.1345644934189121
 51
87.909963493426574
  0
ARC
  5
7F7
  8
1
 62
     7
 10
5267.8855993284942
 20
5220.5208287079677
 30
0.0
 40
0.8308921980207612
 50
92.130149148625534
 51
177.91336314852691
  0
ARC
  5
7F8
  8
1
 62
     7
 10
5267.885367230132
 20
5214.1812498406107
 30
0.0
 40
0.8306688234952023
 50
182.10472685905279
 51
267.88529785911902
  0
ARC
  5
7F9
  8
1
 62
     7
 10
5315.7440469594267
 20
5204.0615141763192
 30
0.0
 40
0.3115860000004824
 50
272.14615200016408
 51
358.0886695105761
  0
ARC
  5
7FA
  8
1
 62
     7
 10
5288.3668625077971
 20
5204.0623517789791
 30
0.0
 40
0.3124412573505629
 50
182.07532900793939
 51
267.77189700809242
  0
ARC
  5
7FB
  8
1
 62
     7
 10
5274.5538224376342
 20
5217.3509117374106
 30
0.0
 40
14.0809339999999
 50
343.4960800000016
 51
16.503919999998342
  0
ARC
  5
7FC
  8
1
 62
     7
 10
5286.0012712757052
 20
5191.118196380985
 30
0.0
 40
2.0534229999997291
 50
291.07662699999622
 51
358.99423597160211
  0
ARC
  5
7FD
  8
1
 62
     7
 10
5283.0576428270551
 20
5161.7791257853278
 30
0.0
 40
5.0109020000007733
 50
90.037265999999249
 51
109.98908264971089
  0
ARC
  5
7FE
  8
1
 62
     7
 10
5283.0540374376342
 20
5161.7894377374114
 30
0.0
 40
5.000589000000268
 50
359.99606299998919
 51
89.996032999997524
  0
ARC
  5
7FF
  8
1
 62
     7
 10
5321.534187012594
 20
5019.8317417626931
 30
0.0
 40
0.5198836405179903
 50
2.1181427522002121
 51
87.635479752145613
  0
ARC
  5
800
  8
1
 62
     7
 10
5282.5728626228602
 20
5019.8339500134844
 30
0.0
 40
0.5175910000002347
 50
92.120020000005795
 51
178.11646955690699
  0
ARC
  5
801
  8
1
 62
     7
 10
5252.0030580777111
 20
4739.7940102275834
 30
0.0
 40
4.400334295041489
 50
292.43018336926082
 51
308.74555142559637
  0
ARC
  5
802
  8
1
 62
     7
 10
5114.1941066054369
 20
4936.9782193826813
 30
0.0
 40
3.129982664942323
 50
211.31810171785779
 51
268.5868367178528
  0
ARC
  5
803
  8
1
 62
     7
 10
5169.8587453239707
 20
4936.9635833758985
 30
0.0
 40
3.115162707661399
 50
271.27231919691701
 51
328.83103919689722
  0
ARC
  5
804
  8
1
 62
     7
 10
5362.0519480406874
 20
4897.3169951152804
 30
0.0
 40
37.971303241303197
 50
269.99995080449742
 51
293.26811361155347
  0
ARC
  5
805
  8
1
 62
     7
 10
4891.9157684376341
 20
4884.2132268380992
 30
0.0
 40
3.6379139999995549
 50
2.1292569999849822
 51
87.87099419341547
  0
ARC
  5
806
  8
1
 62
     7
 10
4891.9168502785633
 20
4884.4824727266932
 30
0.0
 40
3.636792922014926
 50
272.11260546164152
 51
357.88711546163159
  0
ARC
  5
807
  8
1
 62
     7
 10
4892.0508605196064
 20
4897.8617416836296
 30
0.0
 40
38.472379560163141
 50
270.00008178779791
 51
292.94775023226163
  0
ARC
  5
808
  8
1
  6
DASHED
 62
     7
 10
5113.664963171178
 20
4937.1842118838395
 30
0.0
 40
3.1678176089428249
 50
92.005714830456753
 51
156.13833082634699
  0
ARC
  5
809
  8
1
  6
DIVIDE
 62
     7
 10
5088.1703810662293
 20
5014.6598007077891
 30
0.0
 40
10.11130465969252
 50
4.1701955562419206
 51
15.44155355624881
  0
ARC
  5
80A
  8
1
  6
DASHED
 62
     7
 10
5106.5040899228534
 20
4971.4719467874393
 30
0.0
 40
5.0528220000005213
 50
184.363726999997
 51
222.3825358653022
  0
ARC
  5
80B
  8
1
  6
DASHED
 62
     7
 10
5183.0375287384213
 20
4973.0002392093411
 30
0.0
 40
4.9542363685701627
 50
303.92724511221172
 51
322.81127211221639
  0
ARC
  5
80C
  8
1
  6
DASHED
 62
     7
 10
5369.1864943927967
 20
4969.208862057797
 30
0.0
 40
3.640158466057672
 50
92.105656026397725
 51
177.7821050263789
  0
ARC
  5
80D
  8
1
  6
DASHED
 62
     7
 10
5369.183792437635
 20
4969.484390838099
 30
0.0
 40
3.637223000000263
 50
182.12165343060701
 51
267.93523899999479
  0
ARC
  5
80E
  8
1
  6
DASHED
 62
     7
 10
5355.1862384376354
 20
4944.4830018380981
 30
0.0
 40
3.6371740000010999
 50
182.11845999999949
 51
267.88156999999029
  0
ARC
  5
80F
  8
1
  6
DASHED
 62
     7
 10
5354.9176603619526
 20
4944.4826810873401
 30
0.0
 40
3.6368416775258541
 50
272.11358949331509
 51
357.88642333432063
  0
ARC
  5
810
  8
1
  6
DASHED
 62
     7
 10
4898.9195840666707
 20
4969.2143343121479
 30
0.0
 40
3.634586933001263
 50
2.1349693083859931
 51
87.929233996975228
  0
ARC
  5
811
  8
1
  6
DASHED
 62
     7
 10
4899.1852581477769
 20
4969.2123444874096
 30
0.0
 40
3.6366818962037351
 50
92.117045774236217
 51
177.83488945741669
  0
ARC
  5
812
  8
1
  6
DASHED
 62
     7
 10
4885.1891337712141
 20
4944.4837877183272
 30
0.0
 40
3.6379893288967109
 50
182.1303659196804
 51
267.86965891970931
  0
ARC
  5
813
  8
1
  6
DASHED
 62
     7
 10
4884.9197344376344
 20
4944.4791408380979
 30
0.0
 40
3.6333060000008679
 50
272.11620500000259
 51
357.94022599999329
  0
ARC
  5
814
  8
1
 62
     7
 10
5259.9923260200858
 20
5075.2756777180784
 30
0.0
 40
2.0779730082017509
 50
3.106535246470449
 51
87.788179246487275
  0
ARC
  5
815
  8
1
 62
     7
 10
4964.0630654376346
 20
5075.2780737010698
 30
0.0
 40
2.0753579999997691
 50
92.050467000015203
 51
176.95307999998329
  0
ARC
  5
816
  8
1
  6
DASHED
 62
     7
 10
5355.1860948795793
 20
4944.2178220334199
 30
0.0
 40
3.636895000000036
 50
92.116330000006769
 51
177.94004345540279
  0
ARC
  5
817
  8
1
  6
DASHED
 62
     7
 10
5354.9139204376352
 20
4944.2142628380989
 30
0.0
 40
3.6405850000002671
 50
2.1139400000045292
 51
87.829685000007458
  0
ARC
  5
818
  8
1
  6
DASHED
 62
     7
 10
5368.918592150535
 20
4969.4803470476963
 30
0.0
 40
3.6332952944479509
 50
272.11604985956649
 51
357.93986362264428
  0
ARC
  5
819
  8
1
  6
DASHED
 62
     7
 10
5368.9183714710862
 20
4969.2153627886728
 30
0.0
 40
3.6336529999992431
 50
2.1192900000094461
 51
87.880699399221584
  0
ARC
  5
81A
  8
1
 62
     7
 10
5362.0519480406874
 20
4897.3169951152804
 30
0.0
 40
37.971329000000793
 50
246.7317960000006
 51
269.99995080449742
  0
ARC
  5
81B
  8
1
 62
     7
 10
4892.1850037509848
 20
4884.2143171699727
 30
0.0
 40
3.6367828297951159
 50
92.112976359674676
 51
177.88727727723139
  0
ARC
  5
81C
  8
1
  6
DASHED
 62
     7
 10
4885.1882153321058
 20
4944.2178107216459
 30
0.0
 40
3.636907148725411
 50
92.116495432320491
 51
177.93986743230801
  0
ARC
  5
81D
  8
1
  6
DASHED
 62
     7
 10
4884.9119052354617
 20
4944.2137178849844
 30
0.0
 40
3.6412848976368029
 50
2.1221092139721902
 51
87.765154070087846
  0
ARC
  5
81E
  8
1
  6
DASHED
 62
     7
 10
4898.9170988459009
 20
4969.4841175395013
 30
0.0
 40
3.6370326063835599
 50
272.10854772653983
 51
357.88254379417953
  0
ARC
  5
81F
  8
1
  6
DASHED
 62
     7
 10
4899.1865734391631
 20
4969.4849312632541
 30
0.0
 40
3.6379139801709708
 50
182.12976761598421
 51
267.86294192640952
  0
ARC
  5
820
  8
1
  6
DASHED
 62
     7
 10
5170.3900394376342
 20
4937.2004767010721
 30
0.0
 40
3.151316000000036
 50
23.67029000000387
 51
88.13525300001082
  0
ARC
  5
821
  8
1
 62
     7
 10
4892.0508605196064
 20
4897.8617416836296
 30
0.0
 40
38.47237956016329
 50
247.05240023226409
 51
270.00008178779791
  0
ARC
  5
822
  8
1
 62
     7
 10
4892.1861724451819
 20
4884.4836304683522
 30
0.0
 40
3.6379939937981161
 50
182.1304401763764
 51
267.86930869851869
  0
ARC
  5
823
  8
1
  6
DASHED
 62
     7
 10
4892.0509314376332
 20
6715.8971098380971
 30
0.0
 40
38.50104999999953
 50
269.99997618941632
 51
292.92967100000078
  0
ARC
  5
824
  8
1
  6
DASHED
 62
     7
 10
4885.1893631593202
 20
6837.2175856593121
 30
0.0
 40
3.638197221183038
 50
92.133834365695975
 51
177.8726869861373
  0
ARC
  5
825
  8
1
  6
DASHED
 62
     7
 10
4885.1891494376323
 20
6837.4882718380968
 30
0.0
 40
3.6380049999999371
 50
182.13665783308599
 51
267.86942699999742
  0
ARC
  5
826
  8
1
  6
DASHED
 62
     7
 10
4898.9161445921027
 20
6787.2183852932167
 30
0.0
 40
3.6380049999999171
 50
2.13058299998709
 51
87.877188461578768
  0
ARC
  5
827
  8
1
  6
DASHED
 62
     7
 10
4899.1868832219561
 20
6787.2185919032036
 30
0.0
 40
3.638205120188176
 50
92.141768955486526
 51
177.87279026375259
  0
ARC
  5
828
  8
1
  6
DASHED
 62
     7
 10
4891.9156806765859
 20
6702.2173852932156
 30
0.0
 40
3.6380049999999171
 50
2.13058299998709
 51
87.869677080815094
  0
ARC
  5
829
  8
1
  6
DASHED
 62
     7
 10
4892.1861945444516
 20
6702.2173953156444
 30
0.0
 40
3.6380159653393589
 50
92.131026713677755
 51
177.86958137900001
  0
ARC
  5
82A
  8
1
  6
DASHED
 62
     7
 10
5355.1872450965384
 20
6837.217595702703
 30
0.0
 40
3.638187030361768
 50
92.133702559423483
 51
177.8728395594228
  0
ARC
  5
82B
  8
1
  6
DASHED
 62
     7
 10
5355.1862544376327
 20
6837.4874858380981
 30
0.0
 40
3.6371900000008139
 50
182.12474658747709
 51
267.88133999998291
  0
ARC
  5
82C
  8
1
  6
DASHED
 62
     7
 10
5369.1881185995016
 20
6787.2151133555299
 30
0.0
 40
3.641677980213883
 50
92.130348192050036
 51
177.8200516978504
  0
ARC
  5
82D
  8
1
  6
DASHED
 62
     7
 10
5369.1838784376314
 20
6787.4887428380971
 30
0.0
 40
3.6373120000000569
 50
182.12872640192739
 51
267.93393800002099
  0
ARC
  5
82E
  8
1
  6
DASHED
 62
     7
 10
5361.9144657009128
 20
6702.2184135299804
 30
0.0
 40
3.6370729999990061
 50
2.1149200000018391
 51
87.834198114249801
  0
ARC
  5
82F
  8
1
  6
DASHED
 62
     7
 10
5362.187518726736
 20
6702.2174067277529
 30
0.0
 40
3.6380033350605312
 50
92.136143281360702
 51
177.8697538355876
  0
ARC
  5
830
  8
1
  6
DASHED
 62
     7
 10
4891.9156731649864
 20
6702.4879163859714
 30
0.0
 40
3.638013621953966
 50
272.13044757711771
 51
357.8689492018467
  0
ARC
  5
831
  8
1
  6
DASHED
 62
     7
 10
4884.915297440677
 20
6837.2176285666919
 30
0.0
 40
3.637886999999818
 50
2.1268180000204562
 51
87.816761872065143
  0
ARC
  5
832
  8
1
  6
DASHED
 62
     7
 10
4899.1866604376319
 20
6787.4892848380978
 30
0.0
 40
3.638005000000522
 50
182.13686271556861
 51
267.86162430544772
  0
ARC
  5
833
  8
1
  6
DASHED
 62
     7
 10
4898.9159217628121
 20
6787.489560793666
 30
0.0
 40
3.638252808786846
 50
272.12638979174312
 51
357.85893407628993
  0
ARC
  5
834
  8
1
  6
DASHED
 62
     7
 10
4884.918550535418
 20
6837.4847921072269
 30
0.0
 40
3.6345313653954792
 50
272.13417322705533
 51
357.91619187342172
  0
ARC
  5
835
  8
1
  6
DASHED
 62
     7
 10
4892.0509314376332
 20
6715.8971098380971
 30
0.0
 40
38.501049999999189
 50
247.07034899999991
 51
269.99997618941632
  0
ARC
  5
836
  8
1
  6
DASHED
 62
     7
 10
4892.1861824376319
 20
6702.4879068380969
 30
0.0
 40
3.6380049999999411
 50
182.13090537526401
 51
267.86915766524271
  0
ARC
  5
837
  8
1
  6
DASHED
 62
     7
 10
5361.9167688458556
 20
6702.484605408009
 30
0.0
 40
3.6346885397874709
 50
272.13088813154633
 51
357.91922724565859
  0
ARC
  5
838
  8
1
  6
DASHED
 62
     7
 10
5362.1867324376344
 20
6702.4871208380973
 30
0.0
 40
3.6371899999985429
 50
182.1189928851243
 51
267.8757736111541
  0
ARC
  5
839
  8
1
  6
DASHED
 62
     7
 10
5368.9174161237916
 20
6787.4857872725333
 30
0.0
 40
3.6345122931306091
 50
272.13389708925638
 51
357.91625720001952
  0
ARC
  5
83A
  8
1
  6
DASHED
 62
     7
 10
5368.9149296343576
 20
6787.2194138389541
 30
0.0
 40
3.637072962724571
 50
2.1149151509974038
 51
87.828654114431856
  0
ARC
  5
83B
  8
1
  6
DASHED
 62
     7
 10
5354.9164841630181
 20
6837.488325985375
 30
0.0
 40
3.638060810196396
 50
272.13143044517602
 51
357.86252160141743
  0
ARC
  5
83C
  8
1
  6
DASHED
 62
     7
 10
5354.9173092101883
 20
6837.2181702075786
 30
0.0
 40
3.6371908614329458
 50
2.118687051549025
 51
87.881301484911589
  0
ARC
  5
83D
  8
1
  6
DASHED
 62
     7
 10
5362.0522674376334
 20
6715.3504368380982
 30
0.0
 40
37.998170000000243
 50
246.74919799999901
 51
269.99946923458708
  0
ARC
  5
83E
  8
1
  6
DASHED
 62
     7
 10
5362.0522674376334
 20
6715.3504368380982
 30
0.0
 40
37.998170000000428
 50
269.99946923458708
 51
293.2501704128934
  0
ARC
  5
83F
  8
1
 62
     7
 10
26796.813493418849
 20
6815.2182812939081
 30
0.0
 40
21538.333512830799
 50
179.940468152411
 51
180.0665761524111
  0
ARC
  5
840
  8
1
 62
     7
 10
5251.3593641255902
 20
2259.4800850991442
 30
0.0
 40
4579.1761855298146
 50
89.918283887237564
 51
90.030168887237537
  0
ARC
  5
841
  8
1
 62
     7
 10
5258.853980800217
 20
6839.1622882760266
 30
0.0
 40
3.234972999999191
 50
4.0122019999991858
 51
85.984681422522414
  0
ARC
  5
842
  8
1
 62
     7
 10
5259.8221926157566
 20
6840.1307080704964
 30
0.0
 40
3.2348476907654251
 50
4.0142711535591067
 51
85.989857153566817
  0
ARC
  5
843
  8
1
 62
     7
 10
5259.8290547822653
 20
6664.5759280659522
 30
0.0
 40
3.2277548125446351
 50
273.89686811379221
 51
356.03988911378627
  0
ARC
  5
844
  8
1
 62
     7
 10
5258.8606953763929
 20
6665.5439520701457
 30
0.0
 40
3.2277964009056022
 50
273.90143315686362
 51
356.10219515685571
  0
ARC
  5
845
  8
1
 62
     7
 10
4964.2527957365119
 20
6664.5478104681197
 30
0.0
 40
3.201707161894916
 50
183.42638736144579
 51
265.57759236144619
  0
ARC
  5
846
  8
1
 62
     7
 10
4965.2002544376328
 20
6665.5509348380956
 30
0.0
 40
3.2347710000015182
 50
184.013385
 51
266.05238799998398
  0
ARC
  5
847
  8
1
 62
     7
 10
4964.2841185995676
 20
6840.1304995918072
 30
0.0
 40
3.235054284333811
 50
94.009537286044605
 51
175.98226328604801
  0
ARC
  5
848
  8
1
 62
     7
 10
4965.2467536031972
 20
6839.1613248584763
 30
0.0
 40
3.2331382766539232
 50
93.987668562055717
 51
175.9603945620469
  0
ARC
  5
849
  8
1
 62
     7
 10
5097.1802358749419
 20
6700.5994209240062
 30
0.0
 40
6.265665357375652
 50
284.5839110211989
 51
303.81264802119182
  0
ARC
  5
84A
  8
1
 62
     7
 10
5105.8099565104412
 20
6697.136248698157
 30
0.0
 40
1.080689529545154
 50
184.01210540252239
 51
265.82449340256352
  0
ARC
  5
84B
  8
1
 62
     7
 10
5183.9964813136976
 20
6713.9600453778139
 30
0.0
 40
1.0561520127891779
 50
285.56699171443631
 51
357.52680471445132
  0
ARC
  5
84C
  8
1
 62
     7
 10
5097.1027979318142
 20
6803.9419673238926
 30
0.0
 40
6.451531000000517
 50
56.465072000001207
 51
75.134892062867095
  0
ARC
  5
84D
  8
1
 62
     7
 10
5105.8070824376327
 20
6807.5771068380973
 30
0.0
 40
1.077314000000384
 50
94.035382000042233
 51
176.1618200000149
  0
ARC
  5
84E
  8
1
 62
     7
 10
5183.9916867533902
 20
6790.7495757972601
 30
0.0
 40
1.060929000000528
 50
2.488267999962575
 51
74.192354596134777
  0
ARC
  5
84F
  8
1
 62
     7
 10
5222.613129320076
 20
6760.5630518380995
 30
0.0
 40
1.5408320000000131
 50
93.302451999988264
 51
136.56334900000161
  0
ARC
  5
850
  8
1
 62
     7
 10
5224.7612836157541
 20
6758.418822197048
 30
0.0
 40
4.5756516919293331
 50
135.56114513814501
 51
156.53270913815041
  0
ARC
  5
851
  8
1
 62
     7
 10
5231.5960616019374
 20
6755.246505646167
 30
0.0
 40
12.109867418792231
 50
155.6425027244718
 51
166.44732572447251
  0
ARC
  5
852
  8
1
 62
     7
 10
5239.9894956262669
 20
6753.1826578946757
 30
0.0
 40
20.753263351879081
 50
166.33835918022859
 51
173.96068118022859
  0
ARC
  5
853
  8
1
 62
     7
 10
5247.2940937239009
 20
6752.3531228698312
 30
0.0
 40
28.104600761037648
 50
180.00303636796531
 51
186.1533333679653
  0
ARC
  5
854
  8
1
 62
     7
 10
5241.0079123942096
 20
6751.7009121878418
 30
0.0
 40
21.78474120843476
 50
186.22003296600411
 51
193.4809569660033
  0
ARC
  5
855
  8
1
 62
     7
 10
5231.2003499555121
 20
6749.3243116220174
 30
0.0
 40
11.69338999999985
 50
193.3596420000035
 51
204.55048295186219
  0
ARC
  5
856
  8
1
 62
     7
 10
5224.7287683200757
 20
6746.2580958380977
 30
0.0
 40
4.5339769999996484
 50
203.2853250000008
 51
224.48862600000581
  0
ARC
  5
857
  8
1
 62
     7
 10
5222.614948934699
 20
6744.1441494493592
 30
0.0
 40
1.544847000000128
 50
223.495682999991
 51
266.64018308032342
  0
ARC
  5
858
  8
1
 62
     7
 10
5241.4062433200761
 20
6760.5630518380995
 30
0.0
 40
1.54083199999996
 50
93.302451999954499
 51
136.56334900000161
  0
ARC
  5
859
  8
1
 62
     7
 10
5243.5438908157512
 20
6758.4534979505606
 30
0.0
 40
4.5522881427711299
 50
140.47509566332511
 51
156.88037863996641
  0
ARC
  5
85A
  8
1
 62
     7
 10
5250.2186006475094
 20
6755.3236232113286
 30
0.0
 40
11.92266904078356
 50
155.64203533181001
 51
166.61163133180571
  0
ARC
  5
85B
  8
1
 62
     7
 10
5259.1725398636991
 20
6753.0888957114676
 30
0.0
 40
21.150958030172202
 50
166.3388288516569
 51
173.8192308516573
  0
ARC
  5
85C
  8
1
 62
     7
 10
5266.0872077239019
 20
6752.3531228698312
 30
0.0
 40
28.104600761037648
 50
180.00303636796531
 51
186.1533333679653
  0
ARC
  5
85D
  8
1
 62
     7
 10
5259.3910142318764
 20
6751.6560520309058
 30
0.0
 40
21.372282269132459
 50
186.21957050341231
 51
193.62240350341341
  0
ARC
  5
85E
  8
1
 62
     7
 10
5250.1262229124741
 20
6749.3515291719996
 30
0.0
 40
11.82549321975889
 50
193.34317525818761
 51
204.40318625818759
  0
ARC
  5
85F
  8
1
 62
     7
 10
5243.6375173602664
 20
6746.4780278581839
 30
0.0
 40
4.7711928088914846
 50
220.92379369179491
 51
225.39970480505389
  0
ARC
  5
860
  8
1
 62
     7
 10
5241.4080648009913
 20
6744.1441496341959
 30
0.0
 40
1.544846999999536
 50
223.4956829999187
 51
266.63959616238282
  0
ARC
  5
861
  8
1
 62
     7
 10
5287.8838180125504
 20
6747.3133752219619
 30
0.0
 40
1.038884000000392
 50
21.07518000015649
 51
88.594497849370185
  0
ARC
  5
862
  8
1
 62
     7
 10
5287.8663580872353
 20
6757.4131201231048
 30
0.0
 40
1.0623522182708669
 50
272.31620025350742
 51
338.26857825350112
  0
ARC
  5
863
  8
1
 62
     7
 10
5267.913316839702
 20
6749.2121831771374
 30
0.0
 40
0.8630119999994041
 50
184.0896289999512
 51
265.90929233541777
  0
ARC
  5
864
  8
1
 62
     7
 10
5267.9142153200764
 20
6755.4897158380973
 30
0.0
 40
0.8639680000000513
 50
94.144528000014304
 51
175.85544200000061
  0
ARC
  5
865
  8
1
 62
     7
 10
5243.5438908157512
 20
6758.3132307467222
 30
0.0
 40
4.6428169342055963
 50
134.53991487503291
 51
139.13977089838761
  0
ARC
  5
866
  8
1
 62
     7
 10
5243.6349353824144
 20
6746.2994542975348
 30
0.0
 40
4.6541739385488459
 50
203.2028591884071
 51
219.28335707513949
  0
ARC
  5
867
  8
1
 62
     7
 10
5246.0819274325058
 20
6752.418722062278
 30
0.0
 40
26.892518113028821
 50
173.7077725461242
 51
180.14293554612439
  0
ARC
  5
868
  8
1
 62
     7
 10
5264.8750411768651
 20
6752.4187160065512
 30
0.0
 40
26.89251784228313
 50
173.70775964551291
 51
180.14292264551329
  0
ARC
  5
869
  8
1
 62
     7
 10
5302.0505509512323
 20
6752.351580884867
 30
0.0
 40
20.002412973718432
 50
89.997406673368047
 51
150.82828618013929
  0
ARC
  5
86A
  8
1
 62
     7
 10
5302.0505508736796
 20
6752.3515809303963
 30
0.0
 40
20.0024129281929
 50
209.1723567189913
 51
89.997406451214445
  0
ARC
  5
86B
  8
1
 62
     7
 10
6817.9695992956722
 20
4727.9267083010827
 30
0.0
 40
2.0776745399789891
 50
272.10503455186478
 51
357.90225455185009
  0
ARC
  5
86C
  8
1
 62
     7
 10
6817.9696651636823
 20
4706.7739028752358
 30
0.0
 40
2.0776326480764431
 50
2.115563680988787
 51
87.896740680986341
  0
ARC
  5
86D
  8
1
 62
     7
 10
6795.5459294376342
 20
4727.8510008380981
 30
0.0
 40
2.0005800000002729
 50
269.99015300000372
 51
359.99012299999788
  0
ARC
  5
86E
  8
1
 62
     7
 10
6817.5460022630277
 20
4726.8507956635658
 30
0.0
 40
1.0003598292365981
 50
179.99497706079521
 51
269.99502706083911
  0
ARC
  5
86F
  8
1
 62
     7
 10
6777.3957020172738
 20
4842.299994140395
 30
0.0
 40
45.351092369679883
 50
179.93602014864101
 51
182.23684374011151
  0
ARC
  5
870
  8
1
 62
     7
 10
6766.5729609890841
 20
4841.7299664112816
 30
0.0
 40
34.514663408168907
 50
181.99252175696671
 51
187.92774075696519
  0
ARC
  5
871
  8
1
 62
     7
 10
6758.7561785202006
 20
4840.5648737671136
 30
0.0
 40
26.612001179758259
 50
187.76446756047349
 51
193.65176056047591
  0
ARC
  5
872
  8
1
 62
     7
 10
6753.2061442240247
 20
4839.1254854211693
 30
0.0
 40
20.879229761187741
 50
193.40806960823821
 51
201.09311160823739
  0
ARC
  5
873
  8
1
 62
     7
 10
6749.0773598835603
 20
4837.4392039643399
 30
0.0
 40
16.420453000000009
 50
200.78811399999969
 51
210.64934688383559
  0
ARC
  5
874
  8
1
 62
     7
 10
6746.5220185978123
 20
4835.8218748380978
 30
0.0
 40
13.3978919999998
 50
210.2699130000004
 51
224.97946699999989
  0
ARC
  5
875
  8
1
 62
     7
 10
6777.396530362721
 20
4842.4013495502677
 30
0.0
 40
45.35192079508181
 50
177.76323166288029
 51
180.06406966288009
  0
ARC
  5
876
  8
1
 62
     7
 10
6766.5751742021594
 20
4842.9712114733038
 30
0.0
 40
34.516881875783049
 50
172.0724543165546
 51
178.0073763165534
  0
ARC
  5
877
  8
1
 62
     7
 10
6758.7578627204484
 20
4844.1364569496209
 30
0.0
 40
26.613675163201059
 50
166.34877097603101
 51
172.23594397603091
  0
ARC
  5
878
  8
1
 62
     7
 10
6753.2113511130838
 20
4845.5749819939383
 30
0.0
 40
20.88453163788094
 50
158.9088673436973
 51
166.5925253436987
  0
ARC
  5
879
  8
1
 62
     7
 10
6749.0835420217973
 20
4847.2606783513256
 30
0.0
 40
16.426878055504051
 50
149.35513283562329
 51
159.21360283562251
  0
ARC
  5
87A
  8
1
 62
     7
 10
6746.5280192131286
 20
4848.8776285911963
 30
0.0
 40
13.40435971104238
 50
135.0290470221677
 51
149.73360502216599
  0
ARC
  5
87B
  8
1
 62
     7
 10
6841.4854475955062
 20
4884.2785179236216
 30
0.0
 40
7.4407021932375121
 50
126.6692275331868
 51
179.4614035527446
  0
ARC
  5
87C
  8
1
  6
DASHED
 62
     7
 10
6745.4085265978101
 20
4937.213152055534
 30
0.0
 40
3.1366140000001281
 50
23.502808999988069
 51
88.368515000002049
  0
ARC
  5
87D
  8
1
  6
DASHED
 62
     7
 10
6667.1135565978111
 20
4998.7924995875264
 30
0.0
 40
7.4404879999992373
 50
269.44820923778002
 51
294.43676311469528
  0
ARC
  5
87E
  8
1
  6
DASHED
 62
     7
 10
6730.8026665978123
 20
4989.3377045875259
 30
0.0
 40
5.0133089999995724
 50
58.307319999999123
 51
89.940771000014607
  0
ARC
  5
87F
  8
1
  6
DASHED
 62
     7
 10
6667.0630452741507
 20
4998.3953735331334
 30
0.0
 40
7.1371203170855884
 50
304.51809654491399
 51
325.48154706060768
  0
ARC
  5
880
  8
1
  6
DASHED
 62
     7
 10
6802.0964215978111
 20
4998.3623645875268
 30
0.0
 40
7.0912210000004814
 50
304.4494590000001
 51
325.55051128135511
  0
ARC
  5
881
  8
1
  6
DASHED
 62
     7
 10
6752.088638597811
 20
4998.3601765875264
 30
0.0
 40
7.0943969999986738
 50
304.51803700000011
 51
325.58939424441462
  0
ARC
  5
882
  8
1
  6
DASHED
 62
     7
 10
6667.1135565978111
 20
4998.7924995875264
 30
0.0
 40
7.4404880000006228
 50
216.6511303656913
 51
269.44820923778002
  0
ARC
  5
883
  8
1
  6
DASHED
 62
     7
 10
6841.4840190785044
 20
4944.2803962904436
 30
0.0
 40
7.438494983988285
 50
126.6693978497005
 51
179.4747883181914
  0
ARC
  5
884
  8
1
  6
DASHED
 62
     7
 10
6841.4850175978108
 20
4969.280204587526
 30
0.0
 40
7.440268999999331
 50
126.671576000001
 51
179.46434993280619
  0
ARC
  5
885
  8
1
  6
DASHED
 62
     7
 10
6752.1144210203829
 20
4998.8009164575506
 30
0.0
 40
7.4478654593117666
 50
216.68939901395549
 51
269.457492125312
  0
ARC
  5
886
  8
1
  6
DASHED
 62
     7
 10
6802.1139212895741
 20
4998.7924993295501
 30
0.0
 40
7.4404875987093906
 50
216.6507801716341
 51
269.45310164998858
  0
ARC
  5
887
  8
1
 62
     7
 10
6629.1579615978117
 20
5075.199813055533
 30
0.0
 40
2.1558750000000981
 50
93.986601999989432
 51
175.11736300000089
  0
ARC
  5
888
  8
1
 62
     7
 10
6804.9284486103288
 20
5075.203658712885
 30
0.0
 40
2.1519940471284311
 50
4.797999394585112
 51
86.023412394562826
  0
ARC
  5
889
  8
1
  6
DASHED
 62
     7
 10
6688.6615004144824
 20
4937.200907768085
 30
0.0
 40
3.1491895991769461
 50
91.848791093321935
 51
156.35367809332749
  0
ARC
  5
88A
  8
1
  6
DASHED
 62
     7
 10
6685.9423472920607
 20
4973.032787793687
 30
0.0
 40
4.1493303255405456
 50
211.21219543578891
 51
268.80623343580299
  0
ARC
  5
88B
  8
1
  6
DASHED
 62
     7
 10
6764.9614555978123
 20
4993.0165960555332
 30
0.0
 40
10.68538499999978
 50
273.20439099999311
 51
350.20316799999949
  0
ARC
  5
88C
  8
1
  6
DASHED
 62
     7
 10
6762.4449975978096
 20
4978.1053570555332
 30
0.0
 40
4.246974999999952
 50
92.612266000007551
 51
164.5466570000051
  0
ARC
  5
88D
  8
1
  6
DASHED
 62
     7
 10
6669.1326914250903
 20
4993.0224740021868
 30
0.0
 40
10.69153080146139
 50
189.82292800227859
 51
266.77097000227383
  0
ARC
  5
88E
  8
1
  6
DASHED
 62
     7
 10
6671.6393804101644
 20
4978.1025313358241
 30
0.0
 40
4.2497036338454608
 50
15.531382045291791
 51
87.417181045292097
  0
ARC
  5
88F
  8
1
  6
DASHED
 62
     7
 10
6681.7633036560474
 20
4970.8716137530037
 30
0.0
 40
4.0156218924180527
 50
192.93030117073681
 51
217.39216917072841
  0
ARC
  5
890
  8
1
  6
DASHED
 62
     7
 10
6822.0432161350564
 20
4979.3457450502519
 30
0.0
 40
20.000685541937099
 50
0.0050983544966338
 51
90.005068354495265
  0
ARC
  5
891
  8
1
  6
DASHED
 62
     7
 10
6821.4647375978111
 20
4978.7743955875267
 30
0.0
 40
15.58728699999916
 50
2.107182999998134
 51
87.879649000001493
  0
ARC
  5
892
  8
1
  6
DASHED
 62
     7
 10
6703.128010630734
 20
4992.3735252443103
 30
0.0
 40
2.037887420738965
 50
180.6783779808176
 51
237.88290798082301
  0
ARC
  5
893
  8
1
  6
DASHED
 62
     7
 10
6703.168485597811
 20
4992.2727905875263
 30
0.0
 40
2.0796310000006009
 50
92.134909696044005
 51
177.8889339999935
  0
ARC
  5
894
  8
1
  6
DASHED
 62
     7
 10
6841.174207517427
 20
4944.4081419945624
 30
0.0
 40
7.2507297450579262
 50
214.63914700723859
 51
235.25553600722989
  0
ARC
  5
895
  8
1
  6
DASHED
 62
     7
 10
6841.4837197871339
 20
4944.2806082769548
 30
0.0
 40
7.4381937649499159
 50
179.4764000311111
 51
212.4752165626216
  0
ARC
  5
896
  8
1
  6
DASHED
 62
     7
 10
6841.2388950330742
 20
4969.470618844688
 30
0.0
 40
7.3407492370619831
 50
214.7676888741764
 51
235.1259448741699
  0
ARC
  5
897
  8
1
  6
DASHED
 62
     7
 10
6841.4850175978108
 20
4969.280204587526
 30
0.0
 40
7.4402689999999216
 50
179.46434993280619
 51
212.48171600000109
  0
ARC
  5
898
  8
1
  6
DASHED
 62
     7
 10
6802.1139212895741
 20
4998.7924993295501
 30
0.0
 40
7.4404875987091916
 50
269.45310164998858
 51
302.46425582308348
  0
ARC
  5
899
  8
1
 62
     7
 10
6595.1577539026184
 20
5014.2347806003527
 30
0.0
 40
3.1179799198731941
 50
92.115303171027151
 51
177.88323717100911
  0
ARC
  5
89A
  8
1
 62
     7
 10
6595.1550581502488
 20
4940.464821186235
 30
0.0
 40
3.1153197334732341
 50
182.13529500386241
 51
267.93250800386483
  0
ARC
  5
89B
  8
1
 62
     7
 10
6831.9373101582314
 20
4926.8267260924449
 30
0.0
 40
5.1048885746574211
 50
0.6181922630724874
 51
57.664412263077857
  0
ARC
  5
89C
  8
1
 62
     7
 10
6835.0104931910246
 20
4910.9407412114006
 30
0.0
 40
2.031431662706308
 50
328.64226924558068
 51
359.7258402455646
  0
ARC
  5
89D
  8
1
 62
     7
 10
6835.0164587532008
 20
4911.0383614274897
 30
0.0
 40
2.078935937250399
 50
240.4941081005496
 51
326.25857510056733
  0
ARC
  5
89E
  8
1
 62
     7
 10
6841.2024751426334
 20
4884.4441517590458
 30
0.0
 40
7.29652458323568
 50
214.76892821149809
 51
235.23491621150399
  0
ARC
  5
89F
  8
1
 62
     7
 10
6841.4850170771097
 20
4884.2788264492774
 30
0.0
 40
7.4402687999094113
 50
179.46374816758819
 51
212.48171214803631
  0
ARC
  5
8A0
  8
1
  6
DASHED
 62
     7
 10
6752.1144210203829
 20
4998.8009164575506
 30
0.0
 40
7.4478654593117932
 50
269.457492125312
 51
302.43283185224527
  0
ARC
  5
8A1
  8
1
  6
DASHED
 62
     7
 10
6667.1135565978111
 20
4998.7924995875264
 30
0.0
 40
7.440487999999581
 50
294.43676311469528
 51
302.46425600000111
  0
ARC
  5
8A2
  8
1
 62
     7
 10
6744.8626838312593
 20
4936.9717748042076
 30
0.0
 40
3.125170855515413
 50
271.41582736562879
 51
328.73151936563357
  0
ARC
  5
8A3
  8
1
 62
     7
 10
6689.2163348331969
 20
4937.0019630787392
 30
0.0
 40
3.1557298818132682
 50
211.5732947488614
 51
268.3396957488651
  0
ARC
  5
8A4
  8
1
 62
     7
 10
6817.0020580777109
 20
4739.7940102275834
 30
0.0
 40
4.4003342950411426
 50
292.4301833692499
 51
308.74555142559637
  0
ARC
  5
8A5
  8
1
 62
     7
 10
6730.5257958044849
 20
5224.8328609500704
 30
0.0
 40
0.5196559999998119
 50
2.1036149998808691
 51
87.89204333281576
  0
ARC
  5
8A6
  8
1
 62
     7
 10
6703.5649052633398
 20
5224.8323009876749
 30
0.0
 40
0.5199970000004016
 50
92.138485999925479
 51
177.83597095619081
  0
ARC
  5
8A7
  8
1
 62
     7
 10
6703.3574642111253
 20
5204.0630930344078
 30
0.0
 40
0.31237873531935
 50
182.0670127123758
 51
267.84201871246529
  0
ARC
  5
8A8
  8
1
 62
     7
 10
6730.7330643339683
 20
5204.0629887732448
 30
0.0
 40
0.3122698516416816
 50
272.13571861367501
 51
357.95148061360032
  0
ARC
  5
8A9
  8
1
 62
     7
 10
6736.5252322427687
 20
5019.8327716310414
 30
0.0
 40
0.5195766470427953
 50
2.0922697254942091
 51
87.830463725524012
  0
ARC
  5
8AA
  8
1
 62
     7
 10
6697.5645425978109
 20
5019.8327018380969
 30
0.0
 40
0.519619999999949
 50
92.099853000060307
 51
177.90011699992809
  0
ARC
  5
8AB
  8
1
 62
     7
 10
6800.8263824376336
 20
4778.5054140671182
 30
0.0
 40
1.873805000000448
 50
182.12171699996841
 51
267.90020299999742
  0
ARC
  5
8AC
  8
1
 62
     7
 10
6800.8267890578281
 20
4778.3684023819451
 30
0.0
 40
1.8741579999992639
 50
92.1121609999783
 51
177.93172265817
  0
ARC
  5
8AD
  8
1
 62
     7
 10
6813.2629246889746
 20
4778.3665859738512
 30
0.0
 40
1.876007167894953
 50
2.121763290310644
 51
87.86189229030785
  0
ARC
  5
8AE
  8
1
 62
     7
 10
6813.2636325902577
 20
4778.5067757152547
 30
0.0
 40
1.875168999999788
 50
272.11741900000442
 51
357.83842270162518
  0
ARC
  5
8AF
  8
1
  6
DASHED
 62
     7
 10
6723.264395913623
 20
4949.1939091224112
 30
0.0
 40
1.8745199999998989
 50
2.1216700000235482
 51
87.905338603212385
  0
ARC
  5
8B0
  8
1
  6
DASHED
 62
     7
 10
6723.2637475978108
 20
4949.3333537598401
 30
0.0
 40
1.8751919999997191
 50
272.11888000000062
 51
357.85924900001612
  0
ARC
  5
8B1
  8
1
  6
DASHED
 62
     7
 10
6710.8263935978102
 20
4949.3327037598401
 30
0.0
 40
1.8745189999999849
 50
182.12167299999899
 51
267.90023800002268
  0
ARC
  5
8B2
  8
1
  6
DASHED
 62
     7
 10
6710.8270527262594
 20
4949.1929966073649
 30
0.0
 40
1.8752130000014871
 50
92.119457000017476
 51
177.85124669492711
  0
ARC
  5
8B3
  8
1
 62
     7
 10
6817.5889959737697
 20
4769.2282484755369
 30
0.0
 40
5.6222923478421114
 50
78.584986635469605
 51
90.454417635458995
  0
ARC
  5
8B4
  8
1
 62
     7
 10
6817.9850652272207
 20
4771.0061993355657
 30
0.0
 40
3.801296618283053
 50
63.445595063988037
 51
79.132933064015688
  0
ARC
  5
8B5
  8
1
 62
     7
 10
6818.5941646480396
 20
4772.1684149714556
 30
0.0
 40
2.4895148439972878
 50
350.00759325500007
 51
64.027425212728758
  0
ARC
  5
8B6
  8
1
  6
DASHED
 62
     7
 10
6706.5034205640804
 20
4961.7300222527183
 30
0.0
 40
5.61963054607196
 50
89.554747115670835
 51
101.4175381156679
  0
ARC
  5
8B7
  8
1
  6
DASHED
 62
     7
 10
6706.1082633092219
 20
4963.5018190206711
 30
0.0
 40
3.8048482370702561
 50
100.86642799964341
 51
116.5433349996423
  0
ARC
  5
8B8
  8
1
  6
DASHED
 62
     7
 10
6705.4965328732724
 20
4964.6693945524657
 30
0.0
 40
2.4871029812101511
 50
115.95605726197159
 51
170.0549372619715
  0
ARC
  5
8B9
  8
1
  6
DASHED
 62
     7
 10
6706.5907545900836
 20
4961.7295518958281
 30
0.0
 40
5.6196257739627482
 50
90.236060646513778
 51
90.445183513269328
  0
ARC
  5
8BA
  8
1
  6
DASHED
 62
     7
 10
6727.5901806569964
 20
4961.732371104059
 30
0.0
 40
5.6172820000003529
 50
78.579975000004168
 51
90.460025125841398
  0
ARC
  5
8BB
  8
1
  6
DASHED
 62
     7
 10
6727.9851825978103
 20
4963.503562759839
 30
0.0
 40
3.8031210000011142
 50
63.449936999998073
 51
79.129659999987396
  0
ARC
  5
8BC
  8
1
  6
DASHED
 62
     7
 10
6728.5949247571552
 20
4964.6671910243504
 30
0.0
 40
2.489695999999582
 50
9.9860860000028104
 51
64.03269135386968
  0
ARC
  5
8BD
  8
1
  6
DASHED
 62
     7
 10
6706.5031929903216
 20
4958.4677712831153
 30
0.0
 40
5.6182695201926176
 50
258.58203695556028
 51
269.55232327920271
  0
ARC
  5
8BE
  8
1
  6
DASHED
 62
     7
 10
6706.1076645978101
 20
4956.69665375984
 30
0.0
 40
3.8040840000003251
 50
243.46101399999071
 51
259.14056000000511
  0
ARC
  5
8BF
  8
1
  6
DASHED
 62
     7
 10
6705.4941541453736
 20
4955.5281200629079
 30
0.0
 40
2.4847015766562812
 50
189.95341771516129
 51
244.07801671513079
  0
ARC
  5
8C0
  8
1
  6
DASHED
 62
     7
 10
6727.501335623575
 20
4958.4617472707396
 30
0.0
 40
5.6122435341255468
 50
269.55340975301561
 51
270.44659548175412
  0
ARC
  5
8C1
  8
1
  6
DASHED
 62
     7
 10
6727.5890359480163
 20
4958.4654281988423
 30
0.0
 40
5.616199722608278
 50
270.72188081517601
 51
281.43417062897942
  0
ARC
  5
8C2
  8
1
  6
DASHED
 62
     7
 10
6727.9857795978123
 20
4956.6949097598399
 30
0.0
 40
3.8023579999993018
 50
280.86338899999481
 51
296.54575199999562
  0
ARC
  5
8C3
  8
1
  6
DASHED
 62
     7
 10
6728.5969238889038
 20
4955.5302680651776
 30
0.0
 40
2.4875057511356711
 50
295.94172590695001
 51
350.00770390693009
  0
ARC
  5
8C4
  8
1
  6
DASHED
 62
     7
 10
6706.5909860531556
 20
4958.4679556121046
 30
0.0
 40
5.618453820019198
 50
269.55236345373072
 51
270.44764178107857
  0
ARC
  5
8C5
  8
1
 62
     7
 10
6817.9823695865161
 20
4764.1989321661431
 30
0.0
 40
3.8055460939408761
 50
280.86245294025321
 51
296.53595600001091
  0
ARC
  5
8C6
  8
1
 62
     7
 10
6817.5871905521153
 20
4765.9699332497876
 30
0.0
 40
5.6195501959668306
 50
269.55367552355523
 51
281.4166015235723
  0
ARC
  5
8C7
  8
1
 62
     7
 10
6818.5963534376351
 20
4763.0290000671166
 30
0.0
 40
2.4846999999998758
 50
295.92198399997392
 51
350.35277720030712
  0
ARC
  5
8C8
  8
1
 62
     7
 10
6795.4934774376343
 20
4763.0290000671166
 30
0.0
 40
2.4846999999987638
 50
189.64722279968939
 51
244.07801599998831
  0
ARC
  5
8C9
  8
1
 62
     7
 10
6796.5026403231532
 20
4765.9699332497876
 30
0.0
 40
5.6195501959666796
 50
258.58339847643663
 51
270.4463244764446
  0
ARC
  5
8CA
  8
1
 62
     7
 10
6796.1074612887523
 20
4764.1989321661431
 30
0.0
 40
3.8055450000002971
 50
243.464043999989
 51
259.13754705976032
  0
ARC
  5
8CB
  8
1
 62
     7
 10
6795.495666227227
 20
4772.1684149714556
 30
0.0
 40
2.4895148439994799
 50
115.9725747872712
 51
189.9924067449999
  0
ARC
  5
8CC
  8
1
 62
     7
 10
6796.1047656480469
 20
4771.0061993355657
 30
0.0
 40
3.8012966182823691
 50
100.8670669359843
 51
116.5544049359997
  0
ARC
  5
8CD
  8
1
 62
     7
 10
6796.500834901497
 20
4769.2282484755369
 30
0.0
 40
5.622292347842281
 50
89.545582364540977
 51
101.4150133645304
  0
CIRCLE
  5
8CE
  8
2
 62
     7
 10
5249.7420832727139
 20
3677.3506358380978
 30
0.0
 40
15.0
  0
CIRCLE
  5
8CF
  8
2
 62
     7
 10
5249.7420832727139
 20
3677.3506358380978
 30
0.0
 40
30.0
  0
CIRCLE
  5
8D0
  8
1
 62
     7
 10
5362.0519154376352
 20
4884.3484117704247
 30
0.0
 40
3.5002042319192701
  0
CIRCLE
  5
8D1
  8
1
 62
     7
 10
5302.0514512831078
 20
6752.3516410821994
 30
0.0
 40
13.501415901509169
  0
CIRCLE
  5
8D2
  8
1
 62
     7
 10
5302.0505508736796
 20
6752.3515809303963
 30
0.0
 40
13.99863935499225
  0
ARC
  5
8D3
  8
2
 62
     7
 10
4753.3515273639841
 20
3614.1798019919802
 30
0.0
 40
10.0
 50
90.0
 51
180.0
  0
ARC
  5
8D4
  8
2
 62
     7
 10
4753.3515273639841
 20
3597.0756927264752
 30
0.0
 40
10.0
 50
180.0
 51
270.0
  0
ARC
  5
8D5
  8
2
 62
     7
 10
4637.2388977597939
 20
3591.0756927264729
 30
0.0
 40
4.0
 50
270.0
 51
0.0
  0
ARC
  5
8D6
  8
2
 62
     7
 10
4637.2388977597939
 20
3620.1798019919802
 30
0.0
 40
4.0
 50
0.0
 51
90.0
  0
ARC
  5
8D7
  8
2
 62
     7
 10
4635.0183523515043
 20
3645.7815948315501
 30
0.0
 40
8.0
 50
270.0
 51
0.0
  0
ARC
  5
8D8
  8
2
 62
     7
 10
4629.5165548157502
 20
3645.781594831552
 30
0.0
 40
7.999999999998181
 50
180.00000032965241
 51
270.0
  0
ARC
  5
8D9
  8
2
 62
     7
 10
4661.5165543448802
 20
3727.625577273544
 30
0.0
 40
40.0
 50
90.0
 51
180.00000032963999
  0
ARC
  5
8DA
  8
2
 62
     7
 10
4553.1705013464862
 20
3727.625577273544
 30
0.0
 40
40.0
 50
90.0
 51
180.00000032963999
  0
ARC
  5
8DB
  8
2
 62
     7
 10
4521.1705018173579
 20
3645.781594831552
 30
0.0
 40
8.0
 50
180.00000032965241
 51
270.0
  0
ARC
  5
8DC
  8
2
 62
     7
 10
4446.458406873624
 20
3727.625577273544
 30
0.0
 40
40.0
 50
90.0
 51
180.00000032963999
  0
ARC
  5
8DD
  8
2
 62
     7
 10
4414.4584073444958
 20
3645.781594831552
 30
0.0
 40
7.9999999999990896
 50
180.00000032965241
 51
270.0
  0
ARC
  5
8DE
  8
2
 62
     7
 10
4747.0147786752568
 20
3727.6255772735421
 30
0.0
 40
40.0
 50
90.0
 51
180.0000003296374
  0
ARC
  5
8DF
  8
2
 62
     7
 10
4715.0147791461286
 20
3645.7815948315501
 30
0.0
 40
8.0
 50
180.00000032963931
 51
270.0
  0
ARC
  5
8E0
  8
2
 62
     7
 10
4720.5165766818827
 20
3645.7815948315501
 30
0.0
 40
8.0
 50
270.0
 51
0.0
  0
ARC
  5
8E1
  8
2
 62
     7
 10
4789.6334237123956
 20
3645.7815948315501
 30
0.0
 40
8.0
 50
270.0
 51
0.0
  0
ARC
  5
8E2
  8
2
 62
     7
 10
4785.612590661005
 20
3648.1236714303841
 30
0.0
 40
10.342076598833961
 50
180.0
 51
270.0
  0
POLYLINE
  5
8E3
  8
2
 62
     7
 66
     1
 10
0.0
 20
0.0
 30
0.0
 70
   129
  0
VERTEX
  5
932
  8
2
 62
     7
 10
7062.0459154376331
 20
4526.3505358380971
 30
0.0
  0
VERTEX
  5
933
  8
2
 62
     7
 10
7317.4903598820756
 20
4526.3505358380971
 30
0.0
  0
VERTEX
  5
934
  8
2
 62
     7
 10
7317.4903598820756
 20
4614.3505358380971
 30
0.0
  0
VERTEX
  5
935
  8
2
 62
     7
 10
7062.0459154376331
 20
4614.3505358380971
 30
0.0
  0
SEQEND
  5
936
  8
2
 62
     7
  0
LINE
  5
8E9
  8
1
 62
     7
 10
7062.0459154376331
 20
4570.3505358380971
 30
0.0
 11
6854.8284774363701
 21
4707.6319633682351
 31
0.0
  0
SOLID
  5
8EA
  8
1
 62
     7
 10
6918.2737437053838
 20
4676.6541188556339
 30
0.0
 11
6908.0942425453122
 21
4661.2888200787256
 31
0.0
 12
6854.8284774363701
 22
4707.6319633682351
 32
0.0
 13
6854.8284774363701
 23
4707.6319633682351
 33
0.0
  0
TEXT
  5
8EB
  8
2
 62
     7
 10
7516.6459154376298
 20
8047.350635838091
 30
0.0
 40
60.0
  1
1
 41
0.5400000000000002
 72
     1
 11
7522.0459154376304
 21
8077.3506358380919
 31
0.0
 73
     2
  0
TEXT
  5
8EC
  8
2
 62
     7
 10
6582.0459154376294
 20
8047.350635838091
 30
0.0
 40
60.0
  1
排水金具
 41
0.9
 11
6582.0459154376294
 21
8077.3506358380919
 31
0.0
 73
     2
  0
TEXT
  5
8ED
  8
2
 62
     7
 10
5952.0459154376294
 20
8047.350635838091
 30
0.0
 40
60.0
  1
CET527
 41
0.5400000000000002
 11
5952.0459154376294
 21
8077.3506358380919
 31
0.0
 73
     2
  0
TEXT
  5
8EE
  8
2
 62
     7
 10
7516.6459154376298
 20
8147.3506358380919
 30
0.0
 40
60.0
  1
1
 41
0.5400000000000002
 72
     1
 11
7522.0459154376304
 21
8177.3506358380919
 31
0.0
 73
     2
  0
TEXT
  5
8EF
  8
2
 62
     7
 10
6582.0459154376294
 20
8147.3506358380919
 30
0.0
 40
60.0
  1
止水栓
 41
0.9
 11
6582.0459154376294
 21
8177.3506358380919
 31
0.0
 73
     2
  0
TEXT
  5
8F0
  8
2
 62
     7
 10
5952.0459154376294
 20
8147.3506358380919
 30
0.0
 40
60.0
  1
SC05217
 41
0.5400000000000002
 11
5952.0459154376294
 21
8177.3506358380919
 31
0.0
 73
     2
  0
TEXT
  5
8F1
  8
2
 62
     7
 10
7516.6459154376298
 20
8247.3506358380928
 30
0.0
 40
60.0
  1
1
 41
0.5400000000000002
 72
     1
 11
7522.0459154376304
 21
8277.350635838091
 31
0.0
 73
     2
  0
TEXT
  5
8F2
  8
2
 62
     7
 10
6582.0459154376294
 20
8247.3506358380928
 30
0.0
 40
60.0
  1
カウンター
 41
0.9
 11
6582.0459154376294
 21
8277.350635838091
 31
0.0
 73
     2
  0
TEXT
  5
8F3
  8
2
 62
     7
 10
5952.0459154376294
 20
8247.3506358380928
 30
0.0
 40
60.0
  1
CEK420SET01R
 41
0.5400000000000002
 11
5952.0459154376294
 21
8277.350635838091
 31
0.0
 73
     2
  0
TEXT
  5
8F4
  8
2
 62
     7
 10
7496.8459154376314
 20
8347.3506358380928
 30
0.0
 40
60.0
  1
数
 41
0.9
 72
     1
 11
7522.0459154376304
 21
8377.350635838091
 31
0.0
 73
     2
  0
TEXT
  5
8F5
  8
2
 62
     7
 10
6831.6459154376298
 20
8347.3506358380928
 30
0.0
 40
60.0
  1
品　　　　名
 41
0.9
 72
     1
 11
7017.0459154376313
 21
8377.350635838091
 31
0.0
 73
     2
  0
TEXT
  5
8F6
  8
2
 62
     7
 10
6092.2459154376293
 20
8347.3506358380928
 30
0.0
 40
60.0
  1
品　　　番
 41
0.9
 72
     1
 11
6247.0459154376294
 21
8377.350635838091
 31
0.0
 73
     2
  0
TEXT
  5
8F7
  8
2
 62
     7
 10
6338.0459154376294
 20
8447.350635838091
 30
0.0
 40
60.0
  1
器　　　具　　　明　　　細
 41
0.9
 72
     1
 11
6752.0459154376304
 21
8477.350635838091
 31
0.0
 73
     2
  0
TEXT
  5
8F8
  8
2
 62
     7
 10
5932.0459154376304
 20
7847.3506358380919
 30
0.0
 40
60.0
  1
：壁取付部には厚さ２０ｍｍ以上の補強木を入れてください。
 41
0.72
 11
5932.0459154376304
 21
7877.350635838091
 31
0.0
 73
     2
  0
TEXT
  5
8F9
  8
2
 62
     7
 10
5932.0459154376304
 20
7921.350635838091
 30
0.0
 40
60.0
  1
<カウンター>
 41
0.72
 11
5932.0459154376304
 21
7951.350635838091
 31
0.0
 73
     2
  0
TEXT
  5
8FA
  8
2
 62
     7
 10
7084.0459154376331
 20
4548.3505358380971
 30
0.0
 40
44.0
  1
ＰＪ１／２
 41
0.9
 11
7084.0459154376331
 21
4570.3505358380971
 31
0.0
 73
     2
  0
TEXT
  5
8FB
  8
2
 62
     7
 10
6137.5310951993142
 20
3638.2628158075281
 30
0.0
 40
70.0
  1
 
 41
0.9
 72
     1
 11
6156.4310951993139
 21
3673.2628158075281
 31
0.0
 73
     2
  0
TEXT
  5
8FC
  8
2
 62
     7
 10
4456.5479154376362
 20
3477.0500358380982
 30
0.0
 40
60.0
  1
検図
 41
0.9899997000000004
 11
4456.5479154376362
 21
3507.0500358380982
 31
0.0
 73
     2
  0
TEXT
  5
8FD
  8
2
 62
     7
 10
4086.5479154376339
 20
3192.0504358380958
 30
0.0
 40
60.0
  1
備考
 41
0.9899997000000004
 11
4086.5479154376339
 21
3222.0504358380949
 31
0.0
 73
     2
  0
TEXT
  5
8FE
  8
2
 62
     7
 10
5906.5481154376357
 20
3297.3506358380978
 30
0.0
 40
60.0
  1
品番
 41
0.9899997000000004
 11
5906.5481154376357
 21
3327.3506358380978
 31
0.0
 73
     2
  0
TEXT
  5
8FF
  8
2
 62
     7
 10
5906.5481154376357
 20
3692.3506358380978
 30
0.0
 40
60.0
  1
名称
 41
0.9899997000000004
 11
5906.5481154376357
 21
3722.3506358380978
 31
0.0
 73
     2
  0
TEXT
  5
900
  8
2
 62
     7
 10
5156.5479154376362
 20
3487.0500358380982
 30
0.0
 40
60.0
  1
日付
 41
0.9899997000000004
 11
5156.5479154376362
 21
3517.0500358380982
 31
0.0
 73
     2
  0
TEXT
  5
901
  8
2
 62
     7
 10
5496.5479154376362
 20
3492.3506358380978
 30
0.0
 40
60.0
  1
尺度
 41
0.9899997000000004
 11
5496.5479154376362
 21
3522.3506358380978
 31
0.0
 73
     2
  0
TEXT
  5
902
  8
2
 62
     7
 10
5496.5479154376362
 20
3692.3506358380978
 30
0.0
 40
60.0
  1
単位
 41
0.9899997000000004
 11
5496.5479154376362
 21
3722.3506358380978
 31
0.0
 73
     2
  0
TEXT
  5
903
  8
2
 62
     7
 10
4086.5479154376339
 20
3477.0500358380982
 30
0.0
 40
60.0
  1
製図
 41
0.9899997000000004
 11
4086.5479154376339
 21
3507.0500358380982
 31
0.0
 73
     2
  0
TEXT
  5
904
  8
2
 62
     7
 10
5693.8608539801398
 20
3610.2056919653219
 30
0.0
 40
60.0
  1
mm
 41
0.9
 11
5693.8608539801398
 21
3640.2056919653219
 31
0.0
 73
     2
  0
TEXT
  5
905
  8
2
 62
     7
 10
6029.2957863487209
 20
3447.3506358380978
 30
0.0
 40
70.0
  1
セラオリジナルコレクション　カウンターセット
 41
0.7650000000000001
 11
6029.2957863487209
 21
3482.3506358380978
 31
0.0
 73
     2
  0
TEXT
  5
906
  8
2
 62
     7
 10
6028.4685988177516
 20
3010.7987599197381
 30
0.0
 40
70.0
  1
76CEK420SET0=000011
 41
0.72
 11
6028.4685988177516
 21
3045.7987599197381
 31
0.0
 73
     2
  0
TEXT
  5
907
  8
2
 62
     7
 10
5609.29578634872
 20
3355.7987599197381
 30
0.0
 40
60.0
  1
1:20
 41
0.9
 11
5609.29578634872
 21
3385.7987599197381
 31
0.0
 73
     2
  0
TEXT
  5
908
  8
2
 62
     7
 10
5219.795915437634
 20
3355.7987599197381
 30
0.0
 40
60.0
  1
18-04-18
 41
0.45
 72
     1
 11
5312.045915437634
 21
3385.7987599197381
 31
0.0
 73
     2
  0
TEXT
  5
909
  8
2
 62
     7
 10
4605.2957863487254
 20
3391.7987599197381
 30
0.0
 40
60.0
  1
本
 41
0.9
  0
TEXT
  5
90A
  8
2
 62
     7
 10
4605.2957863487254
 20
3319.7987599197381
 30
0.0
 40
60.0
  1
間
 41
0.9
  0
TEXT
  5
90B
  8
2
 62
     7
 10
4235.2957863487209
 20
3391.7987599197381
 30
0.0
 40
60.0
  1
恋
 41
0.9
  0
TEXT
  5
90C
  8
2
 62
     7
 10
4235.2957863487209
 20
3319.7987599197381
 30
0.0
 40
60.0
  1
塚
 41
0.9
  0
TEXT
  5
90D
  8
2
 62
     7
 10
5906.5481154376357
 20
3099.8506358380978
 30
0.0
 40
60.0
  1
図番
 41
0.9899997000000004
 11
5906.5481154376357
 21
3129.8506358380978
 31
0.0
 73
     2
  0
TEXT
  5
90E
  8
2
 62
     7
 10
4257.045915437634
 20
3104.8506358380978
 30
0.0
 40
60.0
  1
 
 41
0.9
 11
4257.045915437634
 21
3134.8506358380978
 31
0.0
 73
     2
  0
TEXT
  5
90F
  8
2
 62
     7
 10
7350.7285535613946
 20
2897.466655180026
 30
0.0
 40
70.0
  1
(1/1)
 41
0.9
 72
     1
 11
7455.7285535613937
 21
2932.4666551800269
 31
0.0
 73
     2
  0
INSERT
  5
910
  8
2
 62
     7
  2
*D11
 10
0.0
 20
0.0
 30
0.0
  0
INSERT
  5
911
  8
2
 62
     7
  2
*D12
 10
0.0
 20
0.0
 30
0.0
  0
INSERT
  5
912
  8
2
 62
     7
  2
*D13
 10
0.0
 20
0.0
 30
0.0
  0
INSERT
  5
913
  8
2
 62
     7
  2
*D14
 10
0.0
 20
0.0
 30
0.0
  0
INSERT
  5
914
  8
2
 62
     7
  2
*D15
 10
0.0
 20
0.0
 30
0.0
  0
INSERT
  5
915
  8
2
 62
     7
  2
*D16
 10
0.0
 20
0.0
 30
0.0
  0
INSERT
  5
916
  8
2
 62
     7
  2
*D17
 10
0.0
 20
0.0
 30
0.0
  0
INSERT
  5
917
  8
2
 62
     7
  2
*D18
 10
0.0
 20
0.0
 30
0.0
  0
INSERT
  5
918
  8
2
 62
     7
  2
*D19
 10
0.0
 20
0.0
 30
0.0
  0
INSERT
  5
919
  8
2
 62
     7
  2
*D20
 10
0.0
 20
0.0
 30
0.0
  0
INSERT
  5
91A
  8
2
 62
     7
  2
*D21
 10
0.0
 20
0.0
 30
0.0
  0
INSERT
  5
91B
  8
2
 62
     7
  2
*D22
 10
0.0
 20
0.0
 30
0.0
  0
INSERT
  5
91C
  8
2
 62
     7
  2
*D23
 10
0.0
 20
0.0
 30
0.0
  0
INSERT
  5
91D
  8
2
 62
     7
  2
*D24
 10
0.0
 20
0.0
 30
0.0
  0
INSERT
  5
91E
  8
2
 62
     7
  2
*D25
 10
0.0
 20
0.0
 30
0.0
  0
INSERT
  5
91F
  8
2
 62
     7
  2
*D26
 10
0.0
 20
0.0
 30
0.0
  0
INSERT
  5
920
  8
2
 62
     7
  2
*D27
 10
0.0
 20
0.0
 30
0.0
  0
INSERT
  5
921
  8
2
 62
     7
  2
*D28
 10
0.0
 20
0.0
 30
0.0
  0
INSERT
  5
922
  8
2
 62
     7
  2
*D29
 10
0.0
 20
0.0
 30
0.0
  0
INSERT
  5
923
  8
2
 62
     7
  2
*D30
 10
0.0
 20
0.0
 30
0.0
  0
INSERT
  5
924
  8
2
 62
     7
  2
*D31
 10
0.0
 20
0.0
 30
0.0
  0
INSERT
  5
925
  8
2
 62
     7
  2
*D32
 10
0.0
 20
0.0
 30
0.0
  0
INSERT
  5
926
  8
2
 62
     7
  2
*D33
 10
0.0
 20
0.0
 30
0.0
  0
INSERT
  5
927
  8
2
 62
     7
  2
*D34
 10
0.0
 20
0.0
 30
0.0
  0
INSERT
  5
928
  8
2
 62
     7
  2
*D35
 10
0.0
 20
0.0
 30
0.0
  0
INSERT
  5
929
  8
2
 62
     7
  2
*D36
 10
0.0
 20
0.0
 30
0.0
  0
ENDSEC
  0
EOF
