  0
SECTION
  2
HEADER
  9
$ACADVER
  1
AC1009
  9
$INSBASE
 10
0.0
 20
0.0
 30
0.0
  9
$EXTMIN
 10
0.238058
 20
0.4482100000000001
 30
0.0
  9
$EXTMAX
 10
210.24000000000001
 20
297.44999999999999
 30
0.0
  9
$LIMMIN
 10
0.0
 20
0.0
  9
$LIMMAX
 10
12.0
 20
9.0
  9
$ORTHOMODE
 70
     0
  9
$REGENMODE
 70
     1
  9
$FILLMODE
 70
     1
  9
$QTEXTMODE
 70
     0
  9
$MIRRTEXT
 70
     1
  9
$DRAGMODE
 70
     2
  9
$LTSCALE
 40
1.0
  9
$OSMODE
 70
    37
  9
$ATTMODE
 70
     1
  9
$TEXTSIZE
 40
0.0
  9
$TRACEWID
 40
0.05
  9
$TEXTSTYLE
  7
STANDARD
  9
$CLAYER
  8
0
  9
$CELTYPE
  6
CONTINUOUS
  9
$CECOLOR
 62
   256
  9
$DIMSCALE
 40
1.0
  9
$DIMASZ
 40
0.18
  9
$DIMEXO
 40
0.0625
  9
$DIMDLI
 40
0.38
  9
$DIMRND
 40
0.0
  9
$DIMDLE
 40
0.0
  9
$DIMEXE
 40
0.18
  9
$DIMTP
 40
0.0
  9
$DIMTM
 40
0.0
  9
$DIMTXT
 40
0.18
  9
$DIMCEN
 40
0.09
  9
$DIMTSZ
 40
0.0
  9
$DIMTOL
 70
     0
  9
$DIMLIM
 70
     0
  9
$DIMTIH
 70
     1
  9
$DIMTOH
 70
     1
  9
$DIMSE1
 70
     0
  9
$DIMSE2
 70
     0
  9
$DIMTAD
 70
     0
  9
$DIMZIN
 70
     0
  9
$DIMBLK
  1

  9
$DIMASO
 70
     1
  9
$DIMSHO
 70
     1
  9
$DIMPOST
  1

  9
$DIMAPOST
  1

  9
$DIMALT
 70
     0
  9
$DIMALTD
 70
     2
  9
$DIMALTF
 40
25.399999999999999
  9
$DIMLFAC
 40
1.0
  9
$DIMTOFL
 70
     0
  9
$DIMTVP
 40
0.0
  9
$DIMTIX
 70
     0
  9
$DIMSOXD
 70
     0
  9
$DIMSAH
 70
     0
  9
$DIMBLK1
  1

  9
$DIMBLK2
  1

  9
$DIMSTYLE
  2
STANDARD
  9
$DIMCLRD
 70
     0
  9
$DIMCLRE
 70
     0
  9
$DIMCLRT
 70
     0
  9
$DIMTFAC
 40
1.0
  9
$DIMGAP
 40
0.09
  9
$LUNITS
 70
     2
  9
$LUPREC
 70
     4
  9
$SKETCHINC
 40
0.1
  9
$FILLETRAD
 40
0.0
  9
$AUNITS
 70
     0
  9
$AUPREC
 70
     0
  9
$MENU
  1
.
  9
$ELEVATION
 40
0.0
  9
$PELEVATION
 40
0.0
  9
$THICKNESS
 40
0.0
  9
$LIMCHECK
 70
     0
  9
$BLIPMODE
 70
     0
  9
$CHAMFERA
 40
0.0
  9
$CHAMFERB
 40
0.0
  9
$SKPOLY
 70
     0
  9
$TDCREATE
 40
2444972.375
  9
$TDUPDATE
 40
2459448.3307667128
  9
$TDINDWG
 40
0.0000777546
  9
$TDUSRTIMER
 40
0.0000777546
  9
$USRTIMER
 70
     1
  9
$ANGBASE
 50
0.0
  9
$ANGDIR
 70
     0
  9
$PDMODE
 70
     0
  9
$PDSIZE
 40
0.0
  9
$PLINEWID
 40
0.0
  9
$COORDS
 70
     1
  9
$SPLFRAME
 70
     0
  9
$SPLINETYPE
 70
     6
  9
$SPLINESEGS
 70
     8
  9
$ATTDIA
 70
     1
  9
$ATTREQ
 70
     1
  9
$HANDLING
 70
     1
  9
$HANDSEED
  5
7B5
  9
$SURFTAB1
 70
     6
  9
$SURFTAB2
 70
     6
  9
$SURFTYPE
 70
     6
  9
$SURFU
 70
     6
  9
$SURFV
 70
     6
  9
$UCSNAME
  2

  9
$UCSORG
 10
0.0
 20
0.0
 30
0.0
  9
$UCSXDIR
 10
1.0
 20
0.0
 30
0.0
  9
$UCSYDIR
 10
0.0
 20
1.0
 30
0.0
  9
$PUCSNAME
  2

  9
$PUCSORG
 10
0.0
 20
0.0
 30
0.0
  9
$PUCSXDIR
 10
1.0
 20
0.0
 30
0.0
  9
$PUCSYDIR
 10
0.0
 20
1.0
 30
0.0
  9
$USERI1
 70
     0
  9
$USERI2
 70
     0
  9
$USERI3
 70
     0
  9
$USERI4
 70
     0
  9
$USERI5
 70
     0
  9
$USERR1
 40
0.0
  9
$USERR2
 40
0.0
  9
$USERR3
 40
0.0
  9
$USERR4
 40
0.0
  9
$USERR5
 40
0.0
  9
$WORLDVIEW
 70
     1
  9
$SHADEDGE
 70
     3
  9
$SHADEDIF
 70
    70
  9
$TILEMODE
 70
     1
  9
$MAXACTVP
 70
    48
  9
$PLIMCHECK
 70
     0
  9
$PEXTMIN
 10
1.0000000000000000E+020
 20
1.0000000000000000E+020
 30
1.0000000000000000E+020
  9
$PEXTMAX
 10
-1.0000000000000000E+020
 20
-1.0000000000000000E+020
 30
-1.0000000000000000E+020
  9
$PLIMMIN
 10
0.0
 20
0.0
  9
$PLIMMAX
 10
12.0
 20
9.0
  9
$UNITMODE
 70
     0
  9
$VISRETAIN
 70
     1
  9
$PLINEGEN
 70
     0
  9
$PSLTSCALE
 70
     1
  0
ENDSEC
  0
SECTION
  2
TABLES
  0
TABLE
  2
VPORT
 70
     1
  0
VPORT
  2
*ACTIVE
 70
     0
 10
0.0
 20
0.0
 11
1.0
 21
1.0
 12
159.54780818418419
 22
148.72499999999991
 13
0.0
 23
0.0
 14
1.0
 24
1.0
 15
0.0
 25
0.0
 16
0.0
 26
0.0
 36
1.0
 17
0.0
 27
0.0
 37
0.0
 40
257.58312629693847
 41
2.2294736842105261
 42
50.0
 43
0.0
 44
0.0
 50
0.0
 51
0.0
 71
     0
 72
   100
 73
     1
 74
     1
 75
     0
 76
     0
 77
     0
 78
     0
  0
ENDTAB
  0
TABLE
  2
LTYPE
 70
     4
  0
LTYPE
  2
CONTINUOUS
 70
     0
  3
Solid line
 72
    65
 73
     0
 40
0.0
  0
LTYPE
  2
AIGENLINE001
 70
     0
  3
generate AI->DXF Converter
 72
    65
 73
     2
 40
1.5522299999999991
 49
0.776115
 49
-0.776115
  0
LTYPE
  2
AIGENLINE002
 70
     0
  3
generate AI->DXF Converter
 72
    65
 73
     4
 40
5.8561449999999988
 49
3.5278
 49
-0.776115
 49
0.776115
 49
-0.776115
  0
LTYPE
  2
AIGENLINE003
 70
     0
  3
generate AI->DXF Converter
 72
    65
 73
     6
 40
7.4083750000000004
 49
3.5278
 49
-0.776115
 49
0.776115
 49
-0.776115
 49
0.776115
 49
-0.776115
  0
ENDTAB
  0
TABLE
  2
LAYER
 70
     4
  0
LAYER
  2
0
 70
     0
 62
     7
  6
CONTINUOUS
  0
LAYER
  2
____
 70
     0
 62
     7
  6
CONTINUOUS
  0
LAYER
  2
_________1
 70
     0
 62
     7
  6
CONTINUOUS
  0
LAYER
  2
_________2
 70
     0
 62
     7
  6
CONTINUOUS
  0
ENDTAB
  0
TABLE
  2
STYLE
 70
     1
  0
STYLE
  2
STANDARD
 70
     0
 40
0.0
 41
0.0
 50
0.0
 71
     0
 42
0.0
  3
TXT
  4
EXTFONT.SHX
  0
ENDTAB
  0
TABLE
  2
VIEW
 70
     0
  0
ENDTAB
  0
TABLE
  2
UCS
 70
     0
  0
ENDTAB
  0
TABLE
  2
APPID
 70
     3
  0
APPID
  2
ACAD
 70
     0
  0
APPID
  2
ACAD_NAV_VCDISPLAY
 70
     0
  0
APPID
  2
ACAD_MLEADERVER
 70
     0
  0
ENDTAB
  0
TABLE
  2
DIMSTYLE
 70
     1
  0
DIMSTYLE
  2
STANDARD
 70
     0
  3

  4

  5

  6

  7

 40
1.0
 41
0.18
 42
0.0625
 43
0.38
 44
0.18
 45
0.0
 46
0.0
 47
0.0
 48
0.0
140
0.18
141
0.09
142
0.0
143
25.399999999999999
144
1.0
145
0.0
146
1.0
147
0.09
 71
     0
 72
     0
 73
     1
 74
     1
 75
     0
 76
     0
 77
     0
 78
     0
170
     0
171
     2
172
     0
173
     0
174
     0
175
     0
176
     0
177
     0
178
     0
  0
ENDTAB
  0
ENDSEC
  0
SECTION
  2
BLOCKS
  0
BLOCK
  8
0
  2
$MODEL_SPACE
 70
     0
 10
0.0
 20
0.0
 30
0.0
  3
$MODEL_SPACE
  1

  0
ENDBLK
  5
1A
  8
0
  0
BLOCK
 67
     1
  8
0
  2
$PAPER_SPACE
 70
     0
 10
0.0
 20
0.0
 30
0.0
  3
$PAPER_SPACE
  1

  0
ENDBLK
  5
17
 67
     1
  8
0
  0
BLOCK
  8
_________1
  2
AIGNBL02020006
 70
     0
 10
0.0
 20
0.0
 30
0.0
  3
AIGNBL02020006
  1

  0
LINE
  5
28
  8
_________1
 62
     7
 10
157.41499999999999
 20
118.88800000000001
 30
0.0
 11
155.69399999999999
 21
120.399
 31
0.0
  0
LINE
  5
29
  8
_________1
 62
     7
 10
155.69399999999999
 20
120.399
 30
0.0
 11
156.429
 21
118.23
 31
0.0
  0
LINE
  5
2A
  8
_________1
 62
     7
 10
156.429
 20
118.23
 30
0.0
 11
157.41499999999999
 21
118.88800000000001
 31
0.0
  0
LINE
  5
2B
  8
_________1
 62
     7
 10
155.69399999999999
 20
120.399
 30
0.0
 11
159.47900000000001
 21
114.729
 31
0.0
  0
ENDBLK
  5
2C
  8
_________1
  0
BLOCK
  8
_________1
  2
AIGNBL02020008
 70
     0
 10
0.0
 20
0.0
 30
0.0
  3
AIGNBL02020008
  1

  0
LINE
  5
2F
  8
_________1
 62
     7
 10
96.426400000000001
 20
136.19900000000001
 30
0.0
 11
96.002700000000004
 21
133.94900000000001
 31
0.0
  0
LINE
  5
30
  8
_________1
 62
     7
 10
96.002700000000004
 20
133.94900000000001
 30
0.0
 11
97.494600000000005
 21
135.68600000000001
 31
0.0
  0
LINE
  5
31
  8
_________1
 62
     7
 10
97.494600000000005
 20
135.68600000000001
 30
0.0
 11
96.426400000000001
 21
136.19900000000001
 31
0.0
  0
LINE
  5
32
  8
_________1
 62
     7
 10
96.002700000000004
 20
133.94900000000001
 30
0.0
 11
98.768100000000004
 21
139.798
 31
0.0
  0
ENDBLK
  5
33
  8
_________1
  0
BLOCK
  8
_________1
  2
AIGNBL0202000A
 70
     0
 10
0.0
 20
0.0
 30
0.0
  3
AIGNBL0202000A
  1

  0
LINE
  5
36
  8
_________1
 62
     7
 10
90.942800000000005
 20
136.16
 30
0.0
 11
91.535399999999996
 21
133.94900000000001
 31
0.0
  0
LINE
  5
37
  8
_________1
 62
     7
 10
91.535399999999996
 20
133.94900000000001
 30
0.0
 11
92.127899999999997
 21
136.16
 31
0.0
  0
LINE
  5
38
  8
_________1
 62
     7
 10
92.127899999999997
 20
136.16
 30
0.0
 11
90.942800000000005
 21
136.16
 31
0.0
  0
LINE
  5
39
  8
_________1
 62
     7
 10
84.386600000000001
 20
138.37299999999999
 30
0.0
 11
86.649199999999993
 21
138.72
 31
0.0
  0
LINE
  5
3A
  8
_________1
 62
     7
 10
86.649199999999993
 20
138.72
 30
0.0
 11
84.516000000000005
 21
139.55099999999999
 31
0.0
  0
LINE
  5
3B
  8
_________1
 62
     7
 10
84.516000000000005
 20
139.55099999999999
 30
0.0
 11
84.386600000000001
 21
138.37299999999999
 31
0.0
  0
LINE
  5
3C
  8
_________1
 62
     7
 10
79.611699999999999
 20
143.05099999999999
 30
0.0
 11
78.059100000000001
 21
144.733
 31
0.0
  0
LINE
  5
3D
  8
_________1
 62
     7
 10
78.059100000000001
 20
144.733
 30
0.0
 11
78.5625
 21
142.5
 31
0.0
  0
LINE
  5
3E
  8
_________1
 62
     7
 10
78.5625
 20
142.5
 30
0.0
 11
79.611699999999999
 21
143.05099999999999
 31
0.0
  0
LINE
  5
3F
  8
_________1
 62
     7
 10
92.127899999999997
 20
144.63800000000001
 30
0.0
 11
91.535399999999996
 21
146.84899999999999
 31
0.0
  0
LINE
  5
40
  8
_________1
 62
     7
 10
91.535399999999996
 20
146.84899999999999
 30
0.0
 11
90.942800000000005
 21
144.63800000000001
 31
0.0
  0
LINE
  5
41
  8
_________1
 62
     7
 10
90.942800000000005
 20
144.63800000000001
 30
0.0
 11
92.127899999999997
 21
144.63800000000001
 31
0.0
  0
LINE
  5
42
  8
_________1
 62
     7
 10
91.535399999999996
 20
133.94900000000001
 30
0.0
 11
91.535399999999996
 21
146.84899999999999
 31
0.0
  0
ENDBLK
  5
43
  8
_________1
  0
BLOCK
  8
_________1
  2
AIGNBL0202000D
 70
     0
 10
0.0
 20
0.0
 30
0.0
  3
AIGNBL0202000D
  1

  0
LINE
  5
46
  8
_________1
 62
     7
 10
76.250600000000006
 20
145.648
 30
0.0
 11
75.658000000000001
 21
147.85900000000001
 31
0.0
  0
LINE
  5
47
  8
_________1
 62
     7
 10
75.658000000000001
 20
147.85900000000001
 30
0.0
 11
75.0655
 21
145.648
 31
0.0
  0
LINE
  5
48
  8
_________1
 62
     7
 10
75.0655
 20
145.648
 30
0.0
 11
76.250600000000006
 21
145.648
 31
0.0
  0
LINE
  5
49
  8
_________1
 62
     7
 10
75.0655
 20
136.16
 30
0.0
 11
75.658000000000001
 21
133.94900000000001
 31
0.0
  0
LINE
  5
4A
  8
_________1
 62
     7
 10
75.658000000000001
 20
133.94900000000001
 30
0.0
 11
76.250600000000006
 21
136.16
 31
0.0
  0
LINE
  5
4B
  8
_________1
 62
     7
 10
76.250600000000006
 20
136.16
 30
0.0
 11
75.0655
 21
136.16
 31
0.0
  0
LINE
  5
4C
  8
_________1
 62
     7
 10
75.658000000000001
 20
147.85900000000001
 30
0.0
 11
75.658000000000001
 21
133.94900000000001
 31
0.0
  0
ENDBLK
  5
4D
  8
_________1
  0
BLOCK
  8
_________1
  2
AIGNBL02020018
 70
     0
 10
0.0
 20
0.0
 30
0.0
  3
AIGNBL02020018
  1

  0
LINE
  5
50
  8
_________1
 62
     7
 10
75.961899999999986
 20
122.354
 30
0.0
 11
76.762399999999985
 21
124.499
 31
0.0
  0
LINE
  5
51
  8
_________1
 62
     7
 10
76.762399999999985
 20
124.499
 30
0.0
 11
74.996600000000001
 21
123.041
 31
0.0
  0
LINE
  5
52
  8
_________1
 62
     7
 10
74.996600000000001
 20
123.041
 30
0.0
 11
75.961899999999986
 21
122.354
 31
0.0
  0
LINE
  5
53
  8
_________1
 62
     7
 10
72.801999999999992
 20
118.93899999999999
 30
0.0
 11
76.762399999999985
 21
124.499
 31
0.0
  0
ENDBLK
  5
54
  8
_________1
  0
BLOCK
  8
_________1
  2
AIGNBL0202001A
 70
     0
 10
0.0
 20
0.0
 30
0.0
  3
AIGNBL0202001A
  1

  0
LINE
  5
57
  8
_________1
 62
     7
 10
93.366
 20
84.803600000000003
 30
0.0
 11
94.166399999999996
 21
86.948599999999999
 31
0.0
  0
LINE
  5
58
  8
_________1
 62
     7
 10
94.166399999999996
 20
86.948599999999999
 30
0.0
 11
92.400599999999983
 21
85.490899999999996
 31
0.0
  0
LINE
  5
59
  8
_________1
 62
     7
 10
92.400599999999983
 20
85.490899999999996
 30
0.0
 11
93.366
 21
84.803600000000003
 31
0.0
  0
LINE
  5
5A
  8
_________1
 62
     7
 10
90.206100000000006
 20
81.388499999999993
 30
0.0
 11
94.166399999999996
 21
86.948599999999999
 31
0.0
  0
ENDBLK
  5
5B
  8
_________1
  0
BLOCK
  8
_________1
  2
AIGNBL02010002
 70
     0
 10
0.0
 20
0.0
 30
0.0
  3
AIGNBL02010002
  1

  0
LINE
  5
5E
  8
_________1
 62
     7
 10
82.210499999999996
 20
206.12700000000001
 30
0.0
 11
80.227800000000002
 21
207.27199999999999
 31
0.0
  0
LINE
  5
5F
  8
_________1
 62
     7
 10
80.227800000000002
 20
207.27199999999999
 30
0.0
 11
81.372499999999988
 21
205.28899999999999
 31
0.0
  0
LINE
  5
60
  8
_________1
 62
     7
 10
81.372499999999988
 20
205.28899999999999
 30
0.0
 11
82.210499999999996
 21
206.12700000000001
 31
0.0
  0
LINE
  5
61
  8
_________1
 62
     7
 10
74.992500000000007
 20
211.66900000000001
 30
0.0
 11
76.975099999999998
 21
210.524
 31
0.0
  0
LINE
  5
62
  8
_________1
 62
     7
 10
76.975099999999998
 20
210.524
 30
0.0
 11
75.830500000000001
 21
212.50700000000001
 31
0.0
  0
LINE
  5
63
  8
_________1
 62
     7
 10
75.830500000000001
 20
212.50700000000001
 30
0.0
 11
74.992500000000007
 21
211.66900000000001
 31
0.0
  0
LINE
  5
64
  8
_________1
 62
     7
 10
82.292100000000005
 20
205.20699999999999
 30
0.0
 11
64.971500000000006
 21
222.52799999999999
 31
0.0
  0
LINE
  5
65
  8
_________1
 62
     7
 10
64.971500000000006
 20
222.52799999999999
 30
0.0
 11
59.303899999999999
 21
222.52799999999999
 31
0.0
  0
ENDBLK
  5
66
  8
_________1
  0
BLOCK
  8
_________1
  2
AIGNBL02010003
 70
     0
 10
0.0
 20
0.0
 30
0.0
  3
AIGNBL02010003
  1

  0
LINE
  5
69
  8
_________1
 62
     7
 10
140.95699999999999
 20
86.948599999999999
 30
0.0
 11
143.15600000000001
 21
86.948599999999999
 31
0.0
  0
LINE
  5
6A
  8
_________1
 62
     7
 10
140.78100000000001
 20
87.049800000000005
 30
0.0
 11
140.78100000000001
 21
88.447900000000004
 31
0.0
  0
LINE
  5
6B
  8
_________1
 62
     7
 10
140.95699999999999
 20
86.948599999999999
 30
0.0
 11
140.78100000000001
 21
87.049800000000005
 31
0.0
  0
LINE
  5
6C
  8
_________1
 62
     7
 10
140.95699999999999
 20
88.548500000000004
 30
0.0
 11
140.78100000000001
 21
88.447900000000004
 31
0.0
  0
LINE
  5
6D
  8
_________1
 62
     7
 10
143.33099999999999
 20
87.049800000000005
 30
0.0
 11
143.33099999999999
 21
88.447900000000004
 31
0.0
  0
LINE
  5
6E
  8
_________1
 62
     7
 10
143.15600000000001
 20
86.948599999999999
 30
0.0
 11
143.33099999999999
 21
87.049800000000005
 31
0.0
  0
LINE
  5
6F
  8
_________1
 62
     7
 10
143.15600000000001
 20
88.548799999999986
 30
0.0
 11
143.33099999999999
 21
88.447900000000004
 31
0.0
  0
LINE
  5
70
  8
_________1
 62
     7
 10
140.95699999999999
 20
88.548500000000004
 30
0.0
 11
143.15600000000001
 21
88.548500000000004
 31
0.0
  0
LINE
  5
71
  8
_________1
 62
     7
 10
141.33600000000001
 20
88.447900000000004
 30
0.0
 11
141.33600000000001
 21
87.049800000000005
 31
0.0
  0
LINE
  5
72
  8
_________1
 62
     7
 10
141.505
 20
88.447900000000004
 30
0.0
 11
141.505
 21
87.049800000000005
 31
0.0
  0
LINE
  5
73
  8
_________1
 62
     7
 10
142.607
 20
88.447900000000004
 30
0.0
 11
142.607
 21
87.049800000000005
 31
0.0
  0
LINE
  5
74
  8
_________1
 62
     7
 10
142.77699999999999
 20
88.447900000000004
 30
0.0
 11
142.77699999999999
 21
87.049800000000005
 31
0.0
  0
ARC
  5
75
  8
_________1
 62
     7
 10
141.06049899999999
 20
87.411535999999998
 30
0.0
 40
0.4546270000000001
 50
232.709778
 51
307.29024199999998
  0
ARC
  5
76
  8
_________1
 62
     7
 10
142.05648199999999
 20
88.534160999999997
 30
0.0
 40
1.583183
 50
249.64445499999999
 51
290.35556500000001
  0
ARC
  5
77
  8
_________1
 62
     7
 10
143.05229299999999
 20
87.410376999999997
 30
0.0
 40
0.453601
 50
232.63838799999999
 51
307.36163199999999
  0
ARC
  5
78
  8
_________1
 62
     7
 10
141.06049899999999
 20
88.087705999999997
 30
0.0
 40
0.453416
 50
52.593129000000012
 51
127.406851
  0
ARC
  5
79
  8
_________1
 62
     7
 10
142.05648199999999
 20
86.960360999999978
 30
0.0
 40
1.586179999999999
 50
69.684601000000001
 51
110.31537899999999
  0
ARC
  5
7A
  8
_________1
 62
     7
 10
143.05229299999999
 20
88.087933999999976
 30
0.0
 40
0.4531310000000001
 50
52.592950999999999
 51
127.40702899999999
  0
LINE
  5
7B
  8
_________1
 62
     7
 10
141.33600000000001
 20
87.049800000000005
 30
0.0
 11
141.505
 21
87.049800000000005
 31
0.0
  0
LINE
  5
7C
  8
_________1
 62
     7
 10
142.607
 20
87.049800000000005
 30
0.0
 11
142.77699999999999
 21
87.049800000000005
 31
0.0
  0
LINE
  5
7D
  8
_________1
 62
     7
 10
141.33600000000001
 20
88.447900000000004
 30
0.0
 11
141.505
 21
88.447900000000004
 31
0.0
  0
LINE
  5
7E
  8
_________1
 62
     7
 10
142.607
 20
88.447900000000004
 30
0.0
 11
142.77699999999999
 21
88.447900000000004
 31
0.0
  0
ENDBLK
  5
7F
  8
_________1
  0
BLOCK
  8
_________1
  2
AIGNBL02010004
 70
     0
 10
0.0
 20
0.0
 30
0.0
  3
AIGNBL02010004
  1

  0
LINE
  5
82
  8
_________1
 62
     7
 10
93.502499999999998
 20
86.948599999999999
 30
0.0
 11
95.702600000000004
 21
86.948599999999999
 31
0.0
  0
LINE
  5
83
  8
_________1
 62
     7
 10
93.327200000000005
 20
87.049800000000005
 30
0.0
 11
93.327200000000005
 21
88.447900000000004
 31
0.0
  0
LINE
  5
84
  8
_________1
 62
     7
 10
93.502499999999998
 20
86.948599999999999
 30
0.0
 11
93.327200000000005
 21
87.049800000000005
 31
0.0
  0
LINE
  5
85
  8
_________1
 62
     7
 10
93.502499999999998
 20
88.548500000000004
 30
0.0
 11
93.327200000000005
 21
88.447900000000004
 31
0.0
  0
LINE
  5
86
  8
_________1
 62
     7
 10
95.877300000000005
 20
87.049800000000005
 30
0.0
 11
95.877300000000005
 21
88.447900000000004
 31
0.0
  0
LINE
  5
87
  8
_________1
 62
     7
 10
95.702600000000004
 20
86.948599999999999
 30
0.0
 11
95.877300000000005
 21
87.049800000000005
 31
0.0
  0
LINE
  5
88
  8
_________1
 62
     7
 10
95.702600000000004
 20
88.548799999999986
 30
0.0
 11
95.877300000000005
 21
88.447900000000004
 31
0.0
  0
LINE
  5
89
  8
_________1
 62
     7
 10
93.502499999999998
 20
88.548500000000004
 30
0.0
 11
95.702600000000004
 21
88.548500000000004
 31
0.0
  0
LINE
  5
8A
  8
_________1
 62
     7
 10
93.881899999999987
 20
88.447900000000004
 30
0.0
 11
93.881899999999987
 21
87.049800000000005
 31
0.0
  0
LINE
  5
8B
  8
_________1
 62
     7
 10
94.051699999999997
 20
88.447900000000004
 30
0.0
 11
94.051699999999997
 21
87.049800000000005
 31
0.0
  0
LINE
  5
8C
  8
_________1
 62
     7
 10
95.153099999999995
 20
88.447900000000004
 30
0.0
 11
95.153099999999995
 21
87.049800000000005
 31
0.0
  0
LINE
  5
8D
  8
_________1
 62
     7
 10
95.322599999999994
 20
88.447900000000004
 30
0.0
 11
95.322599999999994
 21
87.049800000000005
 31
0.0
  0
ARC
  5
8E
  8
_________1
 62
     7
 10
93.60642
 20
87.410605000000004
 30
0.0
 40
0.4538870000000001
 50
232.638565
 51
307.36145399999998
  0
ARC
  5
8F
  8
_________1
 62
     7
 10
94.602402999999995
 20
88.534160999999997
 30
0.0
 40
1.583183
 50
249.64445499999999
 51
290.35556500000001
  0
ARC
  5
90
  8
_________1
 62
     7
 10
95.598387000000002
 20
87.410149000000004
 30
0.0
 40
0.453315
 50
232.63820999999999
 51
307.36180999999999
  0
ARC
  5
91
  8
_________1
 62
     7
 10
93.60642
 20
88.087705999999997
 30
0.0
 40
0.453416
 50
52.593129000000012
 51
127.406851
  0
ARC
  5
92
  8
_________1
 62
     7
 10
94.602402999999995
 20
86.960360999999978
 30
0.0
 40
1.586179999999999
 50
69.684601000000001
 51
110.31537899999999
  0
ARC
  5
93
  8
_________1
 62
     7
 10
95.598387000000002
 20
88.088160999999985
 30
0.0
 40
0.4528450000000001
 50
52.592773000000001
 51
127.407207
  0
LINE
  5
94
  8
_________1
 62
     7
 10
93.881899999999987
 20
87.049800000000005
 30
0.0
 11
94.051699999999997
 21
87.049800000000005
 31
0.0
  0
LINE
  5
95
  8
_________1
 62
     7
 10
95.153099999999995
 20
87.049800000000005
 30
0.0
 11
95.322599999999994
 21
87.049800000000005
 31
0.0
  0
LINE
  5
96
  8
_________1
 62
     7
 10
93.881899999999987
 20
88.447900000000004
 30
0.0
 11
94.051699999999997
 21
88.447900000000004
 31
0.0
  0
LINE
  5
97
  8
_________1
 62
     7
 10
95.153099999999995
 20
88.447900000000004
 30
0.0
 11
95.322599999999994
 21
88.447900000000004
 31
0.0
  0
ENDBLK
  5
98
  8
_________1
  0
BLOCK
  8
_________1
  2
AIGNBL02010005
 70
     0
 10
0.0
 20
0.0
 30
0.0
  3
AIGNBL02010005
  1

  0
INSERT
  5
9B
  8
_________1
 62
     7
  2
AIGNBL02020006
 10
0.0
 20
0.0
 30
0.0
  0
ENDBLK
  5
9C
  8
_________1
  0
BLOCK
  8
_________1
  2
AIGNBL02010007
 70
     0
 10
0.0
 20
0.0
 30
0.0
  3
AIGNBL02010007
  1

  0
INSERT
  5
9F
  8
_________1
 62
     7
  2
AIGNBL02020008
 10
0.0
 20
0.0
 30
0.0
  0
ENDBLK
  5
A0
  8
_________1
  0
BLOCK
  8
_________1
  2
AIGNBL02010009
 70
     0
 10
0.0
 20
0.0
 30
0.0
  3
AIGNBL02010009
  1

  0
INSERT
  5
A3
  8
_________1
 62
     7
  2
AIGNBL0202000A
 10
0.0
 20
0.0
 30
0.0
  0
LINE
  5
A4
  8
_________1
 62
     7
 10
87.815399999999997
 20
146.84899999999999
 30
0.0
 11
92.235399999999984
 21
146.84899999999999
 31
0.0
  0
ENDBLK
  5
A5
  8
_________1
  0
BLOCK
  8
_________1
  2
AIGNBL0201000B
 70
     0
 10
0.0
 20
0.0
 30
0.0
  3
AIGNBL0201000B
  1

  0
LINE
  5
A8
  8
_________1
 62
     7
 10
86.649199999999993
 20
146.89599999999999
 30
0.0
 11
86.649199999999993
 21
138.02000000000001
 31
0.0
  0
LINE
  5
A9
  8
_________1
 62
     7
 10
84.600699999999989
 20
147.113
 30
0.0
 11
77.200400000000002
 21
144.41999999999999
 31
0.0
  0
ENDBLK
  5
AA
  8
_________1
  0
BLOCK
  8
_________1
  2
AIGNBL0201000C
 70
     0
 10
0.0
 20
0.0
 30
0.0
  3
AIGNBL0201000C
  1

  0
INSERT
  5
AD
  8
_________1
 62
     7
  2
AIGNBL0202000D
 10
0.0
 20
0.0
 30
0.0
  0
LINE
  5
AE
  8
_________1
 62
     7
 10
85.636700000000005
 20
147.85900000000001
 30
0.0
 11
74.957999999999998
 21
147.85900000000001
 31
0.0
  0
ENDBLK
  5
AF
  8
_________1
  0
BLOCK
  8
_________1
  2
AIGNBL0201000E
 70
     0
 10
0.0
 20
0.0
 30
0.0
  3
AIGNBL0201000E
  1

  0
LINE
  5
B2
  8
_________1
 62
     7
 10
102.59099999999999
 20
228.48699999999999
 30
0.0
 11
104.803
 21
229.08000000000001
 31
0.0
  0
LINE
  5
B3
  8
_________1
 62
     7
 10
104.803
 20
229.08000000000001
 30
0.0
 11
102.59099999999999
 21
229.672
 31
0.0
  0
LINE
  5
B4
  8
_________1
 62
     7
 10
102.59099999999999
 20
229.672
 30
0.0
 11
102.59099999999999
 21
228.48699999999999
 31
0.0
  0
LINE
  5
B5
  8
_________1
 62
     7
 10
108.81399999999999
 20
229.60400000000001
 30
0.0
 11
106.602
 21
229.012
 31
0.0
  0
LINE
  5
B6
  8
_________1
 62
     7
 10
106.602
 20
229.012
 30
0.0
 11
108.81399999999999
 21
228.41900000000001
 31
0.0
  0
LINE
  5
B7
  8
_________1
 62
     7
 10
108.81399999999999
 20
228.41900000000001
 30
0.0
 11
108.81399999999999
 21
229.60400000000001
 31
0.0
  0
LINE
  5
B8
  8
_________1
 62
     7
 10
100.014
 20
229.672
 30
0.0
 11
97.802400000000006
 21
229.08000000000001
 31
0.0
  0
LINE
  5
B9
  8
_________1
 62
     7
 10
97.802400000000006
 20
229.08000000000001
 30
0.0
 11
100.014
 21
228.48699999999999
 31
0.0
  0
LINE
  5
BA
  8
_________1
 62
     7
 10
100.014
 20
228.48699999999999
 30
0.0
 11
100.014
 21
229.672
 31
0.0
  0
LINE
  5
BB
  8
_________1
 62
     7
 10
112.583
 20
229.08000000000001
 30
0.0
 11
97.802400000000006
 21
229.08000000000001
 31
0.0
  0
ENDBLK
  5
BC
  8
_________1
  0
BLOCK
  8
_________1
  2
AIGNBL0201000F
 70
     0
 10
0.0
 20
0.0
 30
0.0
  3
AIGNBL0201000F
  1

  0
LINE
  5
BF
  8
_________1
 62
     7
 10
62.805999999999997
 20
183.87599999999989
 30
0.0
 11
60.5944
 21
183.28399999999999
 31
0.0
  0
LINE
  5
C0
  8
_________1
 62
     7
 10
60.5944
 20
183.28399999999999
 30
0.0
 11
62.805999999999997
 21
182.69099999999989
 31
0.0
  0
LINE
  5
C1
  8
_________1
 62
     7
 10
62.805999999999997
 20
182.69099999999989
 30
0.0
 11
62.805999999999997
 21
183.87599999999989
 31
0.0
  0
LINE
  5
C2
  8
_________1
 62
     7
 10
58.382899999999999
 20
182.69099999999989
 30
0.0
 11
60.5944
 21
183.28399999999999
 31
0.0
  0
LINE
  5
C3
  8
_________1
 62
     7
 10
60.5944
 20
183.28399999999999
 30
0.0
 11
58.382899999999999
 21
183.87599999999989
 31
0.0
  0
LINE
  5
C4
  8
_________1
 62
     7
 10
58.382899999999999
 20
183.87599999999989
 30
0.0
 11
58.382899999999999
 21
182.69099999999989
 31
0.0
  0
LINE
  5
C5
  8
_________1
 62
     7
 10
92.816799999999986
 20
183.87599999999989
 30
0.0
 11
90.605199999999996
 21
183.28399999999999
 31
0.0
  0
LINE
  5
C6
  8
_________1
 62
     7
 10
90.605199999999996
 20
183.28399999999999
 30
0.0
 11
92.816799999999986
 21
182.69099999999989
 31
0.0
  0
LINE
  5
C7
  8
_________1
 62
     7
 10
92.816799999999986
 20
182.69099999999989
 30
0.0
 11
92.816799999999986
 21
183.87599999999989
 31
0.0
  0
LINE
  5
C8
  8
_________1
 62
     7
 10
88.393600000000006
 20
182.69099999999989
 30
0.0
 11
90.605199999999996
 21
183.28399999999999
 31
0.0
  0
LINE
  5
C9
  8
_________1
 62
     7
 10
90.605199999999996
 20
183.28399999999999
 30
0.0
 11
88.393600000000006
 21
183.87599999999989
 31
0.0
  0
LINE
  5
CA
  8
_________1
 62
     7
 10
88.393600000000006
 20
183.87599999999989
 30
0.0
 11
88.393600000000006
 21
182.69099999999989
 31
0.0
  0
LINE
  5
CB
  8
_________1
 62
     7
 10
80.813299999999984
 20
189.79900000000001
 30
0.0
 11
78.601699999999994
 21
189.20599999999999
 31
0.0
  0
LINE
  5
CC
  8
_________1
 62
     7
 10
78.601699999999994
 20
189.20599999999999
 30
0.0
 11
80.813299999999984
 21
188.613
 31
0.0
  0
LINE
  5
CD
  8
_________1
 62
     7
 10
80.813299999999984
 20
188.613
 30
0.0
 11
80.813299999999984
 21
189.79900000000001
 31
0.0
  0
LINE
  5
CE
  8
_________1
 62
     7
 10
62.81089999999999
 20
189.79900000000001
 30
0.0
 11
60.599299999999999
 21
189.20599999999999
 31
0.0
  0
LINE
  5
CF
  8
_________1
 62
     7
 10
60.599299999999999
 20
189.20599999999999
 30
0.0
 11
62.81089999999999
 21
188.613
 31
0.0
  0
LINE
  5
D0
  8
_________1
 62
     7
 10
62.81089999999999
 20
188.613
 30
0.0
 11
62.81089999999999
 21
189.79900000000001
 31
0.0
  0
LINE
  5
D1
  8
_________1
 62
     7
 10
76.390100000000004
 20
188.613
 30
0.0
 11
78.601699999999994
 21
189.20599999999999
 31
0.0
  0
LINE
  5
D2
  8
_________1
 62
     7
 10
78.601699999999994
 20
189.20599999999999
 30
0.0
 11
76.390100000000004
 21
189.79900000000001
 31
0.0
  0
LINE
  5
D3
  8
_________1
 62
     7
 10
76.390100000000004
 20
189.79900000000001
 30
0.0
 11
76.390100000000004
 21
188.613
 31
0.0
  0
LINE
  5
D4
  8
_________1
 62
     7
 10
88.393600000000006
 20
188.613
 30
0.0
 11
90.605199999999996
 21
189.20599999999999
 31
0.0
  0
LINE
  5
D5
  8
_________1
 62
     7
 10
90.605199999999996
 20
189.20599999999999
 30
0.0
 11
88.393600000000006
 21
189.79900000000001
 31
0.0
  0
LINE
  5
D6
  8
_________1
 62
     7
 10
88.393600000000006
 20
189.79900000000001
 30
0.0
 11
88.393600000000006
 21
188.613
 31
0.0
  0
LINE
  5
D7
  8
_________1
 62
     7
 10
60.599299999999999
 20
189.20599999999999
 30
0.0
 11
90.605199999999996
 21
189.20599999999999
 31
0.0
  0
ENDBLK
  5
D8
  8
_________1
  0
BLOCK
  8
_________1
  2
AIGNBL02010010
 70
     0
 10
0.0
 20
0.0
 30
0.0
  3
AIGNBL02010010
  1

  0
LINE
  5
DB
  8
_________1
 62
     7
 10
49.813800000000001
 20
183.87599999999989
 30
0.0
 11
47.602200000000003
 21
183.28399999999999
 31
0.0
  0
LINE
  5
DC
  8
_________1
 62
     7
 10
47.602200000000003
 20
183.28399999999999
 30
0.0
 11
49.813800000000001
 21
182.69099999999989
 31
0.0
  0
LINE
  5
DD
  8
_________1
 62
     7
 10
49.813800000000001
 20
182.69099999999989
 30
0.0
 11
49.813800000000001
 21
183.87599999999989
 31
0.0
  0
LINE
  5
DE
  8
_________1
 62
     7
 10
104.39100000000001
 20
182.69099999999989
 30
0.0
 11
106.602
 21
183.28399999999999
 31
0.0
  0
LINE
  5
DF
  8
_________1
 62
     7
 10
106.602
 20
183.28399999999999
 30
0.0
 11
104.39100000000001
 21
183.87599999999989
 31
0.0
  0
LINE
  5
E0
  8
_________1
 62
     7
 10
104.39100000000001
 20
183.87599999999989
 30
0.0
 11
104.39100000000001
 21
182.69099999999989
 31
0.0
  0
LINE
  5
E1
  8
_________1
 62
     7
 10
47.602200000000003
 20
183.28399999999999
 30
0.0
 11
106.602
 21
183.28399999999999
 31
0.0
  0
ENDBLK
  5
E2
  8
_________1
  0
BLOCK
  8
_________1
  2
AIGNBL02010011
 70
     0
 10
0.0
 20
0.0
 30
0.0
  3
AIGNBL02010011
  1

  0
LINE
  5
E5
  8
_________1
 62
     7
 10
144.268
 20
79.460300000000004
 30
0.0
 11
142.05600000000001
 21
78.867699999999999
 31
0.0
  0
LINE
  5
E6
  8
_________1
 62
     7
 10
142.05600000000001
 20
78.867699999999999
 30
0.0
 11
144.268
 21
78.275099999999995
 31
0.0
  0
LINE
  5
E7
  8
_________1
 62
     7
 10
144.268
 20
78.275099999999995
 30
0.0
 11
144.268
 21
79.460300000000004
 31
0.0
  0
LINE
  5
E8
  8
_________1
 62
     7
 10
152.34399999999999
 20
78.275099999999995
 30
0.0
 11
154.55600000000001
 21
78.867699999999999
 31
0.0
  0
LINE
  5
E9
  8
_________1
 62
     7
 10
154.55600000000001
 20
78.867699999999999
 30
0.0
 11
152.34399999999999
 21
79.460300000000004
 31
0.0
  0
LINE
  5
EA
  8
_________1
 62
     7
 10
152.34399999999999
 20
79.460300000000004
 30
0.0
 11
152.34399999999999
 21
78.275099999999995
 31
0.0
  0
LINE
  5
EB
  8
_________1
 62
     7
 10
142.05600000000001
 20
78.867699999999999
 30
0.0
 11
154.55600000000001
 21
78.867699999999999
 31
0.0
  0
ENDBLK
  5
EC
  8
_________1
  0
BLOCK
  8
_________1
  2
AIGNBL02010012
 70
     0
 10
0.0
 20
0.0
 30
0.0
  3
AIGNBL02010012
  1

  0
LINE
  5
EF
  8
_________1
 62
     7
 10
53.113900000000001
 20
109.416
 30
0.0
 11
50.902299999999997
 21
108.82299999999999
 31
0.0
  0
LINE
  5
F0
  8
_________1
 62
     7
 10
50.902299999999997
 20
108.82299999999999
 30
0.0
 11
53.113900000000001
 21
108.23
 31
0.0
  0
LINE
  5
F1
  8
_________1
 62
     7
 10
53.113900000000001
 20
108.23
 30
0.0
 11
53.113900000000001
 21
109.416
 31
0.0
  0
LINE
  5
F2
  8
_________1
 62
     7
 10
101.09099999999999
 20
108.23
 30
0.0
 11
103.303
 21
108.82299999999999
 31
0.0
  0
LINE
  5
F3
  8
_________1
 62
     7
 10
103.303
 20
108.82299999999999
 30
0.0
 11
101.09099999999999
 21
109.416
 31
0.0
  0
LINE
  5
F4
  8
_________1
 62
     7
 10
101.09099999999999
 20
109.416
 30
0.0
 11
101.09099999999999
 21
108.23
 31
0.0
  0
LINE
  5
F5
  8
_________1
 62
     7
 10
50.902299999999997
 20
108.82299999999999
 30
0.0
 11
103.303
 21
108.82299999999999
 31
0.0
  0
ENDBLK
  5
F6
  8
_________1
  0
BLOCK
  8
_________1
  2
AIGNBL02010013
 70
     0
 10
0.0
 20
0.0
 30
0.0
  3
AIGNBL02010013
  1

  0
LINE
  5
F9
  8
_________1
 62
     7
 10
51.613900000000001
 20
229.672
 30
0.0
 11
49.40229999999999
 21
229.08000000000001
 31
0.0
  0
LINE
  5
FA
  8
_________1
 62
     7
 10
49.40229999999999
 20
229.08000000000001
 30
0.0
 11
51.613900000000001
 21
228.48699999999999
 31
0.0
  0
LINE
  5
FB
  8
_________1
 62
     7
 10
51.613900000000001
 20
228.48699999999999
 30
0.0
 11
51.613900000000001
 21
229.672
 31
0.0
  0
LINE
  5
FC
  8
_________1
 62
     7
 10
45.390599999999999
 20
228.48699999999999
 30
0.0
 11
47.602200000000003
 21
229.08000000000001
 31
0.0
  0
LINE
  5
FD
  8
_________1
 62
     7
 10
47.602200000000003
 20
229.08000000000001
 30
0.0
 11
45.390599999999999
 21
229.672
 31
0.0
  0
LINE
  5
FE
  8
_________1
 62
     7
 10
45.390599999999999
 20
229.672
 30
0.0
 11
45.390599999999999
 21
228.48699999999999
 31
0.0
  0
LINE
  5
FF
  8
_________1
 62
     7
 10
54.19080000000001
 20
228.48699999999999
 30
0.0
 11
56.4024
 21
229.08000000000001
 31
0.0
  0
LINE
  5
100
  8
_________1
 62
     7
 10
56.4024
 20
229.08000000000001
 30
0.0
 11
54.19080000000001
 21
229.672
 31
0.0
  0
LINE
  5
101
  8
_________1
 62
     7
 10
54.19080000000001
 20
229.672
 30
0.0
 11
54.19080000000001
 21
228.48699999999999
 31
0.0
  0
LINE
  5
102
  8
_________1
 62
     7
 10
41.163800000000002
 20
229.08000000000001
 30
0.0
 11
56.4024
 21
229.08000000000001
 31
0.0
  0
ENDBLK
  5
103
  8
_________1
  0
BLOCK
  8
_________1
  2
AIGNBL02010014
 70
     0
 10
0.0
 20
0.0
 30
0.0
  3
AIGNBL02010014
  1

  0
LINE
  5
106
  8
_________1
 62
     7
 10
104.39100000000001
 20
244.816
 30
0.0
 11
106.602
 21
245.40799999999999
 31
0.0
  0
LINE
  5
107
  8
_________1
 62
     7
 10
106.602
 20
245.40799999999999
 30
0.0
 11
104.39100000000001
 21
246.001
 31
0.0
  0
LINE
  5
108
  8
_________1
 62
     7
 10
104.39100000000001
 20
246.001
 30
0.0
 11
104.39100000000001
 21
244.816
 31
0.0
  0
LINE
  5
109
  8
_________1
 62
     7
 10
49.813800000000001
 20
246.001
 30
0.0
 11
47.602200000000003
 21
245.40799999999999
 31
0.0
  0
LINE
  5
10A
  8
_________1
 62
     7
 10
47.602200000000003
 20
245.40799999999999
 30
0.0
 11
49.813800000000001
 21
244.816
 31
0.0
  0
LINE
  5
10B
  8
_________1
 62
     7
 10
49.813800000000001
 20
244.816
 30
0.0
 11
49.813800000000001
 21
246.001
 31
0.0
  0
LINE
  5
10C
  8
_________1
 62
     7
 10
106.602
 20
245.40799999999999
 30
0.0
 11
47.602200000000003
 21
245.40799999999999
 31
0.0
  0
ENDBLK
  5
10D
  8
_________1
  0
BLOCK
  8
_________1
  2
AIGNBL02010015
 70
     0
 10
0.0
 20
0.0
 30
0.0
  3
AIGNBL02010015
  1

  0
LINE
  5
110
  8
_________1
 62
     7
 10
76.391300000000001
 20
244.816
 30
0.0
 11
78.602400000000003
 21
245.40799999999999
 31
0.0
  0
LINE
  5
111
  8
_________1
 62
     7
 10
78.602400000000003
 20
245.40799999999999
 30
0.0
 11
76.391300000000001
 21
246.001
 31
0.0
  0
LINE
  5
112
  8
_________1
 62
     7
 10
76.391300000000001
 20
246.001
 30
0.0
 11
76.391300000000001
 21
244.816
 31
0.0
  0
LINE
  5
113
  8
_________1
 62
     7
 10
80.813999999999993
 20
246.001
 30
0.0
 11
78.602400000000003
 21
245.40799999999999
 31
0.0
  0
LINE
  5
114
  8
_________1
 62
     7
 10
78.602400000000003
 20
245.40799999999999
 30
0.0
 11
80.813999999999993
 21
244.816
 31
0.0
  0
LINE
  5
115
  8
_________1
 62
     7
 10
80.813999999999993
 20
244.816
 30
0.0
 11
80.813999999999993
 21
246.001
 31
0.0
  0
LINE
  5
116
  8
_________1
 62
     7
 10
88.391400000000004
 20
238.64099999999999
 30
0.0
 11
90.602400000000003
 21
239.23400000000001
 31
0.0
  0
LINE
  5
117
  8
_________1
 62
     7
 10
90.602400000000003
 20
239.23400000000001
 30
0.0
 11
88.391400000000004
 21
239.82599999999999
 31
0.0
  0
LINE
  5
118
  8
_________1
 62
     7
 10
88.391400000000004
 20
239.82599999999999
 30
0.0
 11
88.391400000000004
 21
238.64099999999999
 31
0.0
  0
LINE
  5
119
  8
_________1
 62
     7
 10
104.39100000000001
 20
238.64099999999999
 30
0.0
 11
106.602
 21
239.23400000000001
 31
0.0
  0
LINE
  5
11A
  8
_________1
 62
     7
 10
106.602
 20
239.23400000000001
 30
0.0
 11
104.39100000000001
 21
239.82599999999999
 31
0.0
  0
LINE
  5
11B
  8
_________1
 62
     7
 10
104.39100000000001
 20
239.82599999999999
 30
0.0
 11
104.39100000000001
 21
238.64099999999999
 31
0.0
  0
LINE
  5
11C
  8
_________1
 62
     7
 10
96.814200000000014
 20
239.82599999999999
 30
0.0
 11
94.602599999999995
 21
239.23400000000001
 31
0.0
  0
LINE
  5
11D
  8
_________1
 62
     7
 10
94.602599999999995
 20
239.23400000000001
 30
0.0
 11
96.814200000000014
 21
238.64099999999999
 31
0.0
  0
LINE
  5
11E
  8
_________1
 62
     7
 10
96.814200000000014
 20
238.64099999999999
 30
0.0
 11
96.814200000000014
 21
239.82599999999999
 31
0.0
  0
LINE
  5
11F
  8
_________1
 62
     7
 10
106.602
 20
239.23400000000001
 30
0.0
 11
84.693700000000007
 21
239.23400000000001
 31
0.0
  0
ENDBLK
  5
120
  8
_________1
  0
BLOCK
  8
_________1
  2
AIGNBL02010016
 70
     0
 10
0.0
 20
0.0
 30
0.0
  3
AIGNBL02010016
  1

  0
LINE
  5
123
  8
_________1
 62
     7
 10
114.221
 20
194.18700000000001
 30
0.0
 11
113.628
 21
196.398
 31
0.0
  0
LINE
  5
124
  8
_________1
 62
     7
 10
113.628
 20
196.398
 30
0.0
 11
113.036
 21
194.18700000000001
 31
0.0
  0
LINE
  5
125
  8
_________1
 62
     7
 10
113.036
 20
194.18700000000001
 30
0.0
 11
114.221
 21
194.18700000000001
 31
0.0
  0
LINE
  5
126
  8
_________1
 62
     7
 10
113.036
 20
200.41
 30
0.0
 11
113.628
 21
198.19800000000001
 31
0.0
  0
LINE
  5
127
  8
_________1
 62
     7
 10
113.628
 20
198.19800000000001
 30
0.0
 11
114.221
 21
200.41
 31
0.0
  0
LINE
  5
128
  8
_________1
 62
     7
 10
114.221
 20
200.41
 30
0.0
 11
113.036
 21
200.41
 31
0.0
  0
LINE
  5
129
  8
_________1
 62
     7
 10
113.628
 20
201.947
 30
0.0
 11
113.628
 21
190.93599999999989
 31
0.0
  0
ENDBLK
  5
12A
  8
_________1
  0
BLOCK
  8
_________1
  2
AIGNBL02010017
 70
     0
 10
0.0
 20
0.0
 30
0.0
  3
AIGNBL02010017
  1

  0
INSERT
  5
12D
  8
_________1
 62
     7
  2
AIGNBL02020018
 10
0.0
 20
0.0
 30
0.0
  0
LINE
  5
12E
  8
_________1
 62
     7
 10
62.741599999999998
 20
118.93899999999999
 30
0.0
 11
72.801999999999992
 21
118.93899999999999
 31
0.0
  0
ENDBLK
  5
12F
  8
_________1
  0
BLOCK
  8
_________1
  2
AIGNBL02010019
 70
     0
 10
0.0
 20
0.0
 30
0.0
  3
AIGNBL02010019
  1

  0
INSERT
  5
132
  8
_________1
 62
     7
  2
AIGNBL0202001A
 10
0.0
 20
0.0
 30
0.0
  0
LINE
  5
133
  8
_________1
 62
     7
 10
83.763400000000004
 20
81.388499999999993
 30
0.0
 11
90.206100000000006
 21
81.388499999999993
 31
0.0
  0
ENDBLK
  5
134
  8
_________1
  0
BLOCK
  8
_________1
  2
AIGNBL0201001B
 70
     0
 10
0.0
 20
0.0
 30
0.0
  3
AIGNBL0201001B
  1

  0
LINE
  5
137
  8
_________1
 62
     7
 10
42.414200000000001
 20
215.69
 30
0.0
 11
41.8217
 21
217.90100000000001
 31
0.0
  0
LINE
  5
138
  8
_________1
 62
     7
 10
41.8217
 20
217.90100000000001
 30
0.0
 11
41.229100000000003
 21
215.69
 31
0.0
  0
LINE
  5
139
  8
_________1
 62
     7
 10
41.229100000000003
 20
215.69
 30
0.0
 11
42.414200000000001
 21
215.69
 31
0.0
  0
LINE
  5
13A
  8
_________1
 62
     7
 10
41.229100000000003
 20
202.107
 30
0.0
 11
41.8217
 21
199.89500000000001
 31
0.0
  0
LINE
  5
13B
  8
_________1
 62
     7
 10
41.8217
 20
199.89500000000001
 30
0.0
 11
42.414200000000001
 21
202.107
 31
0.0
  0
LINE
  5
13C
  8
_________1
 62
     7
 10
42.414200000000001
 20
202.107
 30
0.0
 11
41.229100000000003
 21
202.107
 31
0.0
  0
LINE
  5
13D
  8
_________1
 62
     7
 10
36.352499999999999
 20
219.18600000000001
 30
0.0
 11
35.759999999999998
 21
221.398
 31
0.0
  0
LINE
  5
13E
  8
_________1
 62
     7
 10
35.759999999999998
 20
221.398
 30
0.0
 11
35.167400000000001
 21
219.18600000000001
 31
0.0
  0
LINE
  5
13F
  8
_________1
 62
     7
 10
35.167400000000001
 20
219.18600000000001
 30
0.0
 11
36.352499999999999
 21
219.18600000000001
 31
0.0
  0
LINE
  5
140
  8
_________1
 62
     7
 10
35.167400000000001
 20
198.61000000000001
 30
0.0
 11
35.759999999999998
 21
196.398
 31
0.0
  0
LINE
  5
141
  8
_________1
 62
     7
 10
35.759999999999998
 20
196.398
 30
0.0
 11
36.352499999999999
 21
198.61000000000001
 31
0.0
  0
LINE
  5
142
  8
_________1
 62
     7
 10
36.352499999999999
 20
198.61000000000001
 30
0.0
 11
35.167400000000001
 21
198.61000000000001
 31
0.0
  0
LINE
  5
143
  8
_________1
 62
     7
 10
35.759999999999998
 20
221.398
 30
0.0
 11
35.759999999999998
 21
196.398
 31
0.0
  0
ENDBLK
  5
144
  8
_________1
  0
BLOCK
  8
_________1
  2
AIGNBL0201001C
 70
     0
 10
0.0
 20
0.0
 30
0.0
  3
AIGNBL0201001C
  1

  0
LINE
  5
147
  8
_________1
 62
     7
 10
49.813800000000001
 20
177.84800000000001
 30
0.0
 11
47.602200000000003
 21
177.255
 31
0.0
  0
LINE
  5
148
  8
_________1
 62
     7
 10
47.602200000000003
 20
177.255
 30
0.0
 11
49.813800000000001
 21
176.66300000000001
 31
0.0
  0
LINE
  5
149
  8
_________1
 62
     7
 10
49.813800000000001
 20
176.66300000000001
 30
0.0
 11
49.813800000000001
 21
177.84800000000001
 31
0.0
  0
LINE
  5
14A
  8
_________1
 62
     7
 10
104.39100000000001
 20
176.66300000000001
 30
0.0
 11
106.602
 21
177.255
 31
0.0
  0
LINE
  5
14B
  8
_________1
 62
     7
 10
106.602
 20
177.255
 30
0.0
 11
104.39100000000001
 21
177.84800000000001
 31
0.0
  0
LINE
  5
14C
  8
_________1
 62
     7
 10
104.39100000000001
 20
177.84800000000001
 30
0.0
 11
104.39100000000001
 21
176.66300000000001
 31
0.0
  0
LINE
  5
14D
  8
_________1
 62
     7
 10
47.602200000000003
 20
177.255
 30
0.0
 11
106.602
 21
177.255
 31
0.0
  0
ENDBLK
  5
14E
  8
_________1
  0
BLOCK
  8
_________1
  2
AIGNBL0201001D
 70
     0
 10
0.0
 20
0.0
 30
0.0
  3
AIGNBL0201001D
  1

  0
ARC
  5
151
  8
_________1
  6
AIGENLINE001
 62
     7
 10
137.06290100000001
 20
132.093324
 30
0.0
 40
0.7442130000000001
 50
216.662474
 51
302.45251300000001
  0
ARC
  5
152
  8
_________1
  6
AIGENLINE001
 62
     7
 10
137.06376700000001
 20
132.04743400000001
 30
0.0
 40
0.705429
 50
304.39359400000001
 51
325.60641600000002
  0
LINE
  5
153
  8
_________1
  6
AIGENLINE001
 62
     7
 10
136.80600000000001
 20
132.148
 30
0.0
 11
136.80600000000001
 21
133.34899999999999
 31
0.0
  0
LINE
  5
154
  8
_________1
  6
AIGENLINE001
 62
     7
 10
137.30600000000001
 20
132.148
 30
0.0
 11
137.30600000000001
 21
133.34899999999999
 31
0.0
  0
LINE
  5
155
  8
_________1
  6
AIGENLINE001
 62
     7
 10
137.30600000000001
 20
133.34899999999999
 30
0.0
 11
137.05600000000001
 21
133.649
 31
0.0
  0
LINE
  5
156
  8
_________1
  6
AIGENLINE001
 62
     7
 10
136.80600000000001
 20
133.34899999999999
 30
0.0
 11
137.05600000000001
 21
133.649
 31
0.0
  0
ENDBLK
  5
157
  8
_________1
  0
BLOCK
  8
_________1
  2
AIGNBL0201001E
 70
     0
 10
0.0
 20
0.0
 30
0.0
  3
AIGNBL0201001E
  1

  0
ARC
  5
15A
  8
_________1
  6
AIGENLINE001
 62
     7
 10
145.56301999999999
 20
132.094345
 30
0.0
 40
0.745084
 50
216.71044800000001
 51
302.41159900000002
  0
ARC
  5
15B
  8
_________1
  6
AIGENLINE001
 62
     7
 10
145.5662659999999
 20
132.04398599999999
 30
0.0
 40
0.7012500000000002
 50
304.39356299999997
 51
325.714045
  0
LINE
  5
15C
  8
_________1
  6
AIGENLINE001
 62
     7
 10
145.30600000000001
 20
132.148
 30
0.0
 11
145.30600000000001
 21
133.34899999999999
 31
0.0
  0
LINE
  5
15D
  8
_________1
  6
AIGENLINE001
 62
     7
 10
145.80600000000001
 20
132.148
 30
0.0
 11
145.80600000000001
 21
133.34899999999999
 31
0.0
  0
LINE
  5
15E
  8
_________1
  6
AIGENLINE001
 62
     7
 10
145.80600000000001
 20
133.34899999999999
 30
0.0
 11
145.55600000000001
 21
133.649
 31
0.0
  0
LINE
  5
15F
  8
_________1
  6
AIGENLINE001
 62
     7
 10
145.30600000000001
 20
133.34899999999999
 30
0.0
 11
145.55600000000001
 21
133.649
 31
0.0
  0
ENDBLK
  5
160
  8
_________1
  0
BLOCK
  8
_________1
  2
AIGNBL0201001F
 70
     0
 10
0.0
 20
0.0
 30
0.0
  3
AIGNBL0201001F
  1

  0
ARC
  5
163
  8
_________1
 62
     7
 10
154.49988099999999
 20
120.64176
 30
0.0
 40
0.743933
 50
126.664862
 51
212.488429
  0
ARC
  5
164
  8
_________1
 62
     7
 10
154.465394
 20
120.651912
 30
0.0
 40
0.720805
 50
214.642076
 51
235.35795400000001
  0
ENDBLK
  5
165
  8
_________1
  0
BLOCK
  8
_________1
  2
AIGNBL02010020
 70
     0
 10
0.0
 20
0.0
 30
0.0
  3
AIGNBL02010020
  1

  0
LINE
  5
168
  8
_________1
  6
AIGENLINE001
 62
     7
 10
141.55699999999999
 20
126.126
 30
0.0
 11
141.55699999999999
 21
125.949
 31
0.0
  0
LINE
  5
169
  8
_________1
  6
AIGENLINE001
 62
     7
 10
142.554
 20
126.126
 30
0.0
 11
142.554
 21
125.949
 31
0.0
  0
LINE
  5
16A
  8
_________1
  6
AIGENLINE001
 62
     7
 10
142.05600000000001
 20
128.13499999999999
 30
0.0
 11
142.685
 21
128.13499999999999
 31
0.0
  0
LINE
  5
16B
  8
_________1
  6
AIGENLINE001
 62
     7
 10
142.05600000000001
 20
127.774
 30
0.0
 11
142.25299999999999
 21
127.774
 31
0.0
  0
LINE
  5
16C
  8
_________1
  6
AIGENLINE001
 62
     7
 10
142.40899999999999
 20
127.774
 30
0.0
 11
142.685
 21
127.774
 31
0.0
  0
ARC
  5
16D
  8
_________1
  6
AIGENLINE001
 62
     7
 10
142.67015799999999
 20
127.939898
 30
0.0
 40
0.195579
 50
4.1544970000000001
 51
85.736255
  0
ARC
  5
16E
  8
_________1
  6
AIGENLINE001
 62
     7
 10
142.670537
 20
127.96822899999999
 30
0.0
 40
0.195201
 50
274.16053399999998
 51
355.83947599999999
  0
LINE
  5
16F
  8
_________1
  6
AIGENLINE001
 62
     7
 10
142.05600000000001
 20
126.91200000000001
 30
0.0
 11
142.25299999999999
 21
126.91200000000001
 31
0.0
  0
LINE
  5
170
  8
_________1
  6
AIGENLINE001
 62
     7
 10
142.40899999999999
 20
126.91200000000001
 30
0.0
 11
142.685
 21
126.91200000000001
 31
0.0
  0
LINE
  5
171
  8
_________1
  6
AIGENLINE001
 62
     7
 10
142.40899999999999
 20
126.91200000000001
 30
0.0
 11
142.40899999999999
 21
127.774
 31
0.0
  0
LINE
  5
172
  8
_________1
  6
AIGENLINE001
 62
     7
 10
142.25299999999999
 20
126.91200000000001
 30
0.0
 11
142.25299999999999
 21
127.774
 31
0.0
  0
LINE
  5
173
  8
_________1
  6
AIGENLINE001
 62
     7
 10
142.685
 20
126.91200000000001
 30
0.0
 11
142.7939999999999
 21
126.80200000000001
 31
0.0
  0
LINE
  5
174
  8
_________1
  6
AIGENLINE001
 62
     7
 10
142.685
 20
126.91200000000001
 30
0.0
 11
142.685
 21
127.774
 31
0.0
  0
LINE
  5
175
  8
_________1
  6
AIGENLINE001
 62
     7
 10
142.7939999999999
 20
126.126
 30
0.0
 11
142.7939999999999
 21
126.80200000000001
 31
0.0
  0
LINE
  5
176
  8
_________1
  6
AIGENLINE001
 62
     7
 10
142.05600000000001
 20
128.13499999999999
 30
0.0
 11
141.42699999999999
 21
128.13499999999999
 31
0.0
  0
LINE
  5
177
  8
_________1
  6
AIGENLINE001
 62
     7
 10
142.05600000000001
 20
127.774
 30
0.0
 11
141.85900000000001
 21
127.774
 31
0.0
  0
LINE
  5
178
  8
_________1
  6
AIGENLINE001
 62
     7
 10
141.703
 20
127.774
 30
0.0
 11
141.42699999999999
 21
127.774
 31
0.0
  0
ARC
  5
179
  8
_________1
  6
AIGENLINE001
 62
     7
 10
141.440527
 20
127.967337
 30
0.0
 40
0.194274
 50
183.91674
 51
265.97384299999999
  0
ARC
  5
17A
  8
_________1
  6
AIGENLINE001
 62
     7
 10
141.44106400000001
 20
127.940631
 30
0.0
 40
0.194821
 50
94.173216999999994
 51
176.04544000000001
  0
LINE
  5
17B
  8
_________1
  6
AIGENLINE001
 62
     7
 10
142.05600000000001
 20
126.91200000000001
 30
0.0
 11
141.85900000000001
 21
126.91200000000001
 31
0.0
  0
LINE
  5
17C
  8
_________1
  6
AIGENLINE001
 62
     7
 10
141.703
 20
126.91200000000001
 30
0.0
 11
141.42699999999999
 21
126.91200000000001
 31
0.0
  0
LINE
  5
17D
  8
_________1
  6
AIGENLINE001
 62
     7
 10
141.703
 20
126.91200000000001
 30
0.0
 11
141.703
 21
127.774
 31
0.0
  0
LINE
  5
17E
  8
_________1
  6
AIGENLINE001
 62
     7
 10
141.85900000000001
 20
126.91200000000001
 30
0.0
 11
141.85900000000001
 21
127.774
 31
0.0
  0
LINE
  5
17F
  8
_________1
  6
AIGENLINE001
 62
     7
 10
141.42699999999999
 20
126.91200000000001
 30
0.0
 11
141.31800000000001
 21
126.80200000000001
 31
0.0
  0
LINE
  5
180
  8
_________1
  6
AIGENLINE001
 62
     7
 10
141.42699999999999
 20
126.91200000000001
 30
0.0
 11
141.42699999999999
 21
127.774
 31
0.0
  0
LINE
  5
181
  8
_________1
  6
AIGENLINE001
 62
     7
 10
141.31800000000001
 20
126.126
 30
0.0
 11
141.31800000000001
 21
126.80200000000001
 31
0.0
  0
LINE
  5
182
  8
_________1
  6
AIGENLINE001
 62
     7
 10
141.31800000000001
 20
126.126
 30
0.0
 11
142.05600000000001
 21
126.126
 31
0.0
  0
LINE
  5
183
  8
_________1
  6
AIGENLINE001
 62
     7
 10
142.7939999999999
 20
126.126
 30
0.0
 11
142.05600000000001
 21
126.126
 31
0.0
  0
LINE
  5
184
  8
_________1
  6
AIGENLINE001
 62
     7
 10
142.55600000000001
 20
128.31299999999999
 30
0.0
 11
142.55600000000001
 21
128.13499999999999
 31
0.0
  0
LINE
  5
185
  8
_________1
  6
AIGENLINE001
 62
     7
 10
141.55600000000001
 20
128.31299999999999
 30
0.0
 11
141.55600000000001
 21
128.13499999999999
 31
0.0
  0
LINE
  5
186
  8
_________1
  6
AIGENLINE001
 62
     7
 10
140.65600000000001
 20
128.5379999999999
 30
0.0
 11
140.65600000000001
 21
129.5379999999999
 31
0.0
  0
LINE
  5
187
  8
_________1
  6
AIGENLINE001
 62
     7
 10
141.35599999999999
 20
128.5379999999999
 30
0.0
 11
141.35599999999999
 21
129.5379999999999
 31
0.0
  0
LINE
  5
188
  8
_________1
  6
AIGENLINE001
 62
     7
 10
143.10599999999999
 20
128.31299999999999
 30
0.0
 11
141.006
 21
128.31299999999999
 31
0.0
  0
LINE
  5
189
  8
_________1
  6
AIGENLINE001
 62
     7
 10
143.10599999999999
 20
129.76300000000001
 30
0.0
 11
141.006
 21
129.76300000000001
 31
0.0
  0
LINE
  5
18A
  8
_________1
  6
AIGENLINE001
 62
     7
 10
142.756
 20
128.5379999999999
 30
0.0
 11
142.756
 21
129.5379999999999
 31
0.0
  0
LINE
  5
18B
  8
_________1
  6
AIGENLINE001
 62
     7
 10
143.45599999999999
 20
128.5379999999999
 30
0.0
 11
143.45599999999999
 21
129.5379999999999
 31
0.0
  0
ARC
  5
18C
  8
_________1
  6
AIGENLINE001
 62
     7
 10
140.995138
 20
129.26460499999999
 30
0.0
 40
0.4982720000000001
 50
88.723518999999996
 51
108.452331
  0
ARC
  5
18D
  8
_________1
  6
AIGENLINE001
 62
     7
 10
140.91128599999999
 20
129.487672
 30
0.0
 40
0.260286
 50
106.484621
 51
168.89905300000001
  0
ARC
  5
18E
  8
_________1
  6
AIGENLINE001
 62
     7
 10
141.016808
 20
129.26323099999999
 30
0.0
 40
0.499634
 50
71.577340000000007
 51
91.212172000000024
  0
ARC
  5
18F
  8
_________1
  6
AIGENLINE001
 62
     7
 10
141.101607
 20
129.48880500000001
 30
0.0
 40
0.258984
 50
10.902164000000001
 51
73.605789000000001
  0
ARC
  5
190
  8
_________1
  6
AIGENLINE001
 62
     7
 10
142.082232
 20
127.257104
 30
0.0
 40
2.5057869999999989
 50
84.265468999999996
 51
90.600594999999984
  0
ARC
  5
191
  8
_________1
  6
AIGENLINE001
 62
     7
 10
142.205276
 20
128.564898
 30
0.0
 40
1.1922719999999991
 50
78.066488000000007
 51
83.869211000000007
  0
ARC
  5
192
  8
_________1
  6
AIGENLINE001
 62
     7
 10
142.30106599999999
 20
129.02330699999999
 30
0.0
 40
0.723963
 50
70.294839999999994
 51
77.981965000000002
  0
ARC
  5
193
  8
_________1
  6
AIGENLINE001
 62
     7
 10
142.431951
 20
129.345437
 30
0.0
 40
0.376848
 50
30.691610000000001
 51
72.51588000000001
  0
ARC
  5
194
  8
_________1
  6
AIGENLINE001
 62
     7
 10
142.02061599999999
 20
127.45299199999999
 30
0.0
 40
2.3100320000000001
 50
89.123187999999985
 51
96.004332000000005
  0
ARC
  5
195
  8
_________1
  6
AIGENLINE001
 62
     7
 10
141.88883200000001
 20
128.67485500000001
 30
0.0
 40
1.0810919999999991
 50
95.832094999999995
 51
102.23216600000001
  0
ARC
  5
196
  8
_________1
  6
AIGENLINE001
 62
     7
 10
141.814573
 20
129.01226399999999
 30
0.0
 40
0.73561
 50
102.147667
 51
109.687039
  0
ARC
  5
197
  8
_________1
  6
AIGENLINE001
 62
     7
 10
141.681365
 20
129.34368900000001
 30
0.0
 40
0.378933
 50
107.60448599999999
 51
149.187985
  0
ARC
  5
198
  8
_________1
  6
AIGENLINE001
 62
     7
 10
143.09463799999989
 20
129.26855800000001
 30
0.0
 40
0.494319
 50
88.718596000000005
 51
108.52659
  0
ARC
  5
199
  8
_________1
  6
AIGENLINE001
 62
     7
 10
143.01097300000001
 20
129.48808700000001
 30
0.0
 40
0.259759
 50
106.414198
 51
168.96947499999999
  0
ARC
  5
19A
  8
_________1
  6
AIGENLINE001
 62
     7
 10
143.11764700000001
 20
129.27026699999999
 30
0.0
 40
0.4926310000000001
 50
71.433553000000003
 51
91.390557999999984
  0
ARC
  5
19B
  8
_________1
  6
AIGENLINE001
 62
     7
 10
143.20140599999999
 20
129.48880500000001
 30
0.0
 40
0.258984
 50
10.902164000000001
 51
73.605789000000001
  0
ARC
  5
19C
  8
_________1
  6
AIGENLINE001
 62
     7
 10
140.99626599999999
 20
128.81831699999989
 30
0.0
 40
0.5057120000000001
 50
251.69421299999999
 51
271.12993799999998
  0
ARC
  5
19D
  8
_________1
  6
AIGENLINE001
 62
     7
 10
140.911946
 20
128.58838600000001
 30
0.0
 40
0.26105
 50
191.20250799999999
 51
253.41381899999999
  0
ARC
  5
19E
  8
_________1
  6
AIGENLINE001
 62
     7
 10
141.015154
 20
128.82315700000001
 30
0.0
 40
0.510532
 50
268.999393
 51
288.211095
  0
ARC
  5
19F
  8
_________1
  6
AIGENLINE001
 62
     7
 10
141.09941900000001
 20
128.58864
 30
0.0
 40
0.261514
 50
286.7312609999999
 51
348.760786
  0
ARC
  5
1A0
  8
_________1
  6
AIGENLINE001
 62
     7
 10
142.08144200000001
 20
130.76810599999999
 30
0.0
 40
2.4555340000000001
 50
269.40553499999999
 51
275.870812
  0
ARC
  5
1A1
  8
_________1
  6
AIGENLINE001
 62
     7
 10
142.23912999999999
 20
129.29792800000001
 30
0.0
 40
0.9769600000000001
 50
275.49061899999998
 51
282.57368199999991
  0
ARC
  5
1A2
  8
_________1
  6
AIGENLINE001
 62
     7
 10
142.31089399999999
 20
129.01790500000001
 30
0.0
 40
0.68809
 50
281.81732799999997
 51
289.905868
  0
ARC
  5
1A3
  8
_________1
  6
AIGENLINE001
 62
     7
 10
142.43339
 20
128.72894299999999
 30
0.0
 40
0.375062
 50
287.33974000000001
 51
329.33766800000001
  0
ARC
  5
1A4
  8
_________1
  6
AIGENLINE001
 62
     7
 10
142.01684299999999
 20
130.478388
 30
0.0
 40
2.1660369999999989
 50
263.69531699999999
 51
271.03492899999998
  0
ARC
  5
1A5
  8
_________1
  6
AIGENLINE001
 62
     7
 10
141.88526899999999
 20
129.37853200000001
 30
0.0
 40
1.058432
 50
257.699252
 51
264.23648700000001
  0
ARC
  5
1A6
  8
_________1
  6
AIGENLINE001
 62
     7
 10
141.799139
 20
129.00941800000001
 30
0.0
 40
0.6794640000000002
 50
250.00095400000001
 51
258.16433899999998
  0
ARC
  5
1A7
  8
_________1
  6
AIGENLINE001
 62
     7
 10
141.678888
 20
128.72938199999999
 30
0.0
 40
0.375585
 50
210.69297700000001
 51
252.62965399999999
  0
ARC
  5
1A8
  8
_________1
  6
AIGENLINE001
 62
     7
 10
143.09633199999999
 20
128.8180679999999
 30
0.0
 40
0.505451
 50
251.69366500000001
 51
271.061149
  0
ARC
  5
1A9
  8
_________1
  6
AIGENLINE001
 62
     7
 10
143.01047199999999
 20
128.58691399999989
 30
0.0
 40
0.259181
 50
190.95278300000001
 51
253.663544
  0
ARC
  5
1AA
  8
_________1
  6
AIGENLINE001
 62
     7
 10
143.11474000000001
 20
128.824443
 30
0.0
 40
0.511819
 50
268.98715199999998
 51
288.188737
  0
ARC
  5
1AB
  8
_________1
  6
AIGENLINE001
 62
     7
 10
143.19968600000001
 20
128.58821499999999
 30
0.0
 40
0.260972
 50
286.65976499999999
 51
348.83228200000002
  0
ENDBLK
  5
1AC
  8
_________1
  0
BLOCK
  8
_________1
  2
AIGNBL02010021
 70
     0
 10
0.0
 20
0.0
 30
0.0
  3
AIGNBL02010021
  1

  0
LINE
  5
1AF
  8
_________1
  6
AIGENLINE001
 62
     7
 10
94.103399999999993
 20
126.126
 30
0.0
 11
94.103399999999993
 21
125.949
 31
0.0
  0
LINE
  5
1B0
  8
_________1
  6
AIGENLINE001
 62
     7
 10
95.100099999999983
 20
126.126
 30
0.0
 11
95.100099999999983
 21
125.949
 31
0.0
  0
LINE
  5
1B1
  8
_________1
  6
AIGENLINE001
 62
     7
 10
94.601900000000001
 20
128.13499999999999
 30
0.0
 11
95.230599999999995
 21
128.13499999999999
 31
0.0
  0
LINE
  5
1B2
  8
_________1
  6
AIGENLINE001
 62
     7
 10
94.601900000000001
 20
127.774
 30
0.0
 11
94.798299999999983
 21
127.774
 31
0.0
  0
LINE
  5
1B3
  8
_________1
  6
AIGENLINE001
 62
     7
 10
94.954700000000003
 20
127.774
 30
0.0
 11
95.230599999999995
 21
127.774
 31
0.0
  0
ARC
  5
1B4
  8
_________1
  6
AIGENLINE001
 62
     7
 10
95.216604000000004
 20
127.940792
 30
0.0
 40
0.194649
 50
3.9106339999999991
 51
85.87066999999999
  0
ARC
  5
1B5
  8
_________1
  6
AIGENLINE001
 62
     7
 10
95.216465000000014
 20
127.967851
 30
0.0
 40
0.194823
 50
274.16658799999999
 51
355.94286899999997
  0
LINE
  5
1B6
  8
_________1
  6
AIGENLINE001
 62
     7
 10
94.601900000000001
 20
126.91200000000001
 30
0.0
 11
94.798299999999983
 21
126.91200000000001
 31
0.0
  0
LINE
  5
1B7
  8
_________1
  6
AIGENLINE001
 62
     7
 10
94.954700000000003
 20
126.91200000000001
 30
0.0
 11
95.230599999999995
 21
126.91200000000001
 31
0.0
  0
LINE
  5
1B8
  8
_________1
  6
AIGENLINE001
 62
     7
 10
94.954700000000003
 20
126.91200000000001
 30
0.0
 11
94.954700000000003
 21
127.774
 31
0.0
  0
LINE
  5
1B9
  8
_________1
  6
AIGENLINE001
 62
     7
 10
94.798299999999983
 20
126.91200000000001
 30
0.0
 11
94.798299999999983
 21
127.774
 31
0.0
  0
LINE
  5
1BA
  8
_________1
  6
AIGENLINE001
 62
     7
 10
95.230599999999995
 20
126.91200000000001
 30
0.0
 11
95.339799999999997
 21
126.80200000000001
 31
0.0
  0
LINE
  5
1BB
  8
_________1
  6
AIGENLINE001
 62
     7
 10
95.230599999999995
 20
126.91200000000001
 30
0.0
 11
95.230599999999995
 21
127.774
 31
0.0
  0
LINE
  5
1BC
  8
_________1
  6
AIGENLINE001
 62
     7
 10
95.339799999999997
 20
126.126
 30
0.0
 11
95.339799999999997
 21
126.80200000000001
 31
0.0
  0
LINE
  5
1BD
  8
_________1
  6
AIGENLINE001
 62
     7
 10
94.601900000000001
 20
128.13499999999999
 30
0.0
 11
93.972800000000007
 21
128.13499999999999
 31
0.0
  0
LINE
  5
1BE
  8
_________1
  6
AIGENLINE001
 62
     7
 10
94.601900000000001
 20
127.774
 30
0.0
 11
94.405199999999994
 21
127.774
 31
0.0
  0
LINE
  5
1BF
  8
_________1
  6
AIGENLINE001
 62
     7
 10
94.249499999999998
 20
127.774
 30
0.0
 11
93.972800000000007
 21
127.774
 31
0.0
  0
ARC
  5
1C0
  8
_________1
  6
AIGENLINE001
 62
     7
 10
93.986447999999996
 20
127.967337
 30
0.0
 40
0.194274
 50
183.91674
 51
265.97384299999999
  0
ARC
  5
1C1
  8
_________1
  6
AIGENLINE001
 62
     7
 10
93.986986000000016
 20
127.940631
 30
0.0
 40
0.194821
 50
94.173216999999994
 51
176.04544000000001
  0
LINE
  5
1C2
  8
_________1
  6
AIGENLINE001
 62
     7
 10
94.601900000000001
 20
126.91200000000001
 30
0.0
 11
94.405199999999994
 21
126.91200000000001
 31
0.0
  0
LINE
  5
1C3
  8
_________1
  6
AIGENLINE001
 62
     7
 10
94.249499999999998
 20
126.91200000000001
 30
0.0
 11
93.972800000000007
 21
126.91200000000001
 31
0.0
  0
LINE
  5
1C4
  8
_________1
  6
AIGENLINE001
 62
     7
 10
94.249499999999998
 20
126.91200000000001
 30
0.0
 11
94.249499999999998
 21
127.774
 31
0.0
  0
LINE
  5
1C5
  8
_________1
  6
AIGENLINE001
 62
     7
 10
94.405199999999994
 20
126.91200000000001
 30
0.0
 11
94.405199999999994
 21
127.774
 31
0.0
  0
LINE
  5
1C6
  8
_________1
  6
AIGENLINE001
 62
     7
 10
93.972800000000007
 20
126.91200000000001
 30
0.0
 11
93.863600000000005
 21
126.80200000000001
 31
0.0
  0
LINE
  5
1C7
  8
_________1
  6
AIGENLINE001
 62
     7
 10
93.972800000000007
 20
126.91200000000001
 30
0.0
 11
93.972800000000007
 21
127.774
 31
0.0
  0
LINE
  5
1C8
  8
_________1
  6
AIGENLINE001
 62
     7
 10
93.863600000000005
 20
126.126
 30
0.0
 11
93.863600000000005
 21
126.80200000000001
 31
0.0
  0
LINE
  5
1C9
  8
_________1
  6
AIGENLINE001
 62
     7
 10
93.863600000000005
 20
126.126
 30
0.0
 11
94.601900000000001
 21
126.126
 31
0.0
  0
LINE
  5
1CA
  8
_________1
  6
AIGENLINE001
 62
     7
 10
95.339799999999997
 20
126.126
 30
0.0
 11
94.601900000000001
 21
126.126
 31
0.0
  0
LINE
  5
1CB
  8
_________1
  6
AIGENLINE001
 62
     7
 10
95.101799999999997
 20
128.31299999999999
 30
0.0
 11
95.101799999999997
 21
128.13499999999999
 31
0.0
  0
LINE
  5
1CC
  8
_________1
  6
AIGENLINE001
 62
     7
 10
94.101699999999994
 20
128.31299999999999
 30
0.0
 11
94.101699999999994
 21
128.13499999999999
 31
0.0
  0
LINE
  5
1CD
  8
_________1
  6
AIGENLINE001
 62
     7
 10
93.201800000000006
 20
128.5379999999999
 30
0.0
 11
93.201800000000006
 21
129.5379999999999
 31
0.0
  0
LINE
  5
1CE
  8
_________1
  6
AIGENLINE001
 62
     7
 10
93.902199999999993
 20
128.5379999999999
 30
0.0
 11
93.902199999999993
 21
129.5379999999999
 31
0.0
  0
LINE
  5
1CF
  8
_________1
  6
AIGENLINE001
 62
     7
 10
95.652000000000001
 20
128.31299999999999
 30
0.0
 11
93.5518
 21
128.31299999999999
 31
0.0
  0
LINE
  5
1D0
  8
_________1
  6
AIGENLINE001
 62
     7
 10
95.652000000000001
 20
129.76300000000001
 30
0.0
 11
93.5518
 21
129.76300000000001
 31
0.0
  0
LINE
  5
1D1
  8
_________1
  6
AIGENLINE001
 62
     7
 10
95.301599999999993
 20
128.5379999999999
 30
0.0
 11
95.301599999999993
 21
129.5379999999999
 31
0.0
  0
LINE
  5
1D2
  8
_________1
  6
AIGENLINE001
 62
     7
 10
96.001999999999995
 20
128.5379999999999
 30
0.0
 11
96.001999999999995
 21
129.5379999999999
 31
0.0
  0
ARC
  5
1D3
  8
_________1
  6
AIGENLINE001
 62
     7
 10
93.540723
 20
129.266684
 30
0.0
 40
0.496194
 50
88.719052000000005
 51
108.4913959999999
  0
ARC
  5
1D4
  8
_________1
  6
AIGENLINE001
 62
     7
 10
93.456750999999997
 20
129.48808700000001
 30
0.0
 40
0.259759
 50
106.414198
 51
168.96947499999999
  0
ARC
  5
1D5
  8
_________1
  6
AIGENLINE001
 62
     7
 10
93.563770000000005
 20
129.27026699999999
 30
0.0
 40
0.4926310000000001
 50
71.433553000000003
 51
91.390557999999984
  0
ARC
  5
1D6
  8
_________1
  6
AIGENLINE001
 62
     7
 10
93.646418999999995
 20
129.48735500000001
 30
0.0
 40
0.260689
 50
11.154524
 51
73.461763000000005
  0
ARC
  5
1D7
  8
_________1
  6
AIGENLINE001
 62
     7
 10
94.628152999999998
 20
127.257104
 30
0.0
 40
2.5057869999999989
 50
84.265468999999996
 51
90.600594999999984
  0
ARC
  5
1D8
  8
_________1
  6
AIGENLINE001
 62
     7
 10
94.751196999999976
 20
128.564898
 30
0.0
 40
1.1922719999999991
 50
78.066488000000007
 51
83.869211000000007
  0
ARC
  5
1D9
  8
_________1
  6
AIGENLINE001
 62
     7
 10
94.854415000000003
 20
129.05252100000001
 30
0.0
 40
0.6938439999999999
 50
70.085664000000008
 51
78.079589999999996
  0
ARC
  5
1DA
  8
_________1
  6
AIGENLINE001
 62
     7
 10
94.980218999999991
 20
129.34883300000001
 30
0.0
 40
0.372804
 50
30.453914000000001
 51
72.753575000000012
  0
ARC
  5
1DB
  8
_________1
  6
AIGENLINE001
 62
     7
 10
94.566612000000006
 20
127.45802999999999
 30
0.0
 40
2.3049939999999989
 50
89.123131999999984
 51
96.010765000000035
  0
ARC
  5
1DC
  8
_________1
  6
AIGENLINE001
 62
     7
 10
94.435096999999985
 20
128.67485500000001
 30
0.0
 40
1.0810919999999991
 50
95.832094999999995
 51
102.23216600000001
  0
ARC
  5
1DD
  8
_________1
  6
AIGENLINE001
 62
     7
 10
94.363816999999997
 20
128.99856
 30
0.0
 40
0.749634
 50
102.149823
 51
109.57333300000001
  0
ARC
  5
1DE
  8
_________1
  6
AIGENLINE001
 62
     7
 10
94.227918000000003
 20
129.34356299999999
 30
0.0
 40
0.379244
 50
107.68979
 51
149.193916
  0
ARC
  5
1DF
  8
_________1
  6
AIGENLINE001
 62
     7
 10
95.640827999999985
 20
129.26480699999999
 30
0.0
 40
0.4980710000000001
 50
88.71950600000001
 51
108.456343
  0
ARC
  5
1E0
  8
_________1
  6
AIGENLINE001
 62
     7
 10
95.557005999999987
 20
129.487672
 30
0.0
 40
0.260286
 50
106.484621
 51
168.89905300000001
  0
ARC
  5
1E1
  8
_________1
  6
AIGENLINE001
 62
     7
 10
95.664151000000004
 20
129.273957
 30
0.0
 40
0.488949
 50
71.360592000000011
 51
91.428919999999977
  0
ARC
  5
1E2
  8
_________1
  6
AIGENLINE001
 62
     7
 10
95.746217999999999
 20
129.48735500000001
 30
0.0
 40
0.260689
 50
11.154524
 51
73.461763000000005
  0
ARC
  5
1E3
  8
_________1
  6
AIGENLINE001
 62
     7
 10
93.542147999999983
 20
128.81819100000001
 30
0.0
 40
0.5055800000000001
 50
251.69393700000001
 51
271.09561500000001
  0
ARC
  5
1E4
  8
_________1
  6
AIGENLINE001
 62
     7
 10
93.457867000000007
 20
128.58838600000001
 30
0.0
 40
0.26105
 50
191.20250799999999
 51
253.41381899999999
  0
ARC
  5
1E5
  8
_________1
  6
AIGENLINE001
 62
     7
 10
93.561056999999977
 20
128.82315199999999
 30
0.0
 40
0.5105330000000001
 50
268.9627220000001
 51
288.213167
  0
ARC
  5
1E6
  8
_________1
  6
AIGENLINE001
 62
     7
 10
93.645177999999987
 20
128.58923100000001
 30
0.0
 40
0.262126
 50
286.72796399999999
 51
348.65574900000001
  0
ARC
  5
1E7
  8
_________1
  6
AIGENLINE001
 62
     7
 10
94.627364
 20
130.76810599999999
 30
0.0
 40
2.4555340000000001
 50
269.40553499999999
 51
275.870812
  0
ARC
  5
1E8
  8
_________1
  6
AIGENLINE001
 62
     7
 10
94.787080000000003
 20
129.285167
 30
0.0
 40
0.9640639999999999
 50
275.44318300000009
 51
282.62111800000008
  0
ARC
  5
1E9
  8
_________1
  6
AIGENLINE001
 62
     7
 10
94.864881999999994
 20
128.98657700000001
 30
0.0
 40
0.655776
 50
281.68797599999999
 51
290.14677
  0
ARC
  5
1EA
  8
_________1
  6
AIGENLINE001
 62
     7
 10
94.978966999999997
 20
128.72894299999999
 30
0.0
 40
0.375062
 50
287.33974000000001
 51
329.33766800000001
  0
ARC
  5
1EB
  8
_________1
  6
AIGENLINE001
 62
     7
 10
94.563024999999996
 20
130.47762599999999
 30
0.0
 40
2.1652719999999999
 50
263.69530400000002
 51
271.028389
  0
ARC
  5
1EC
  8
_________1
  6
AIGENLINE001
 62
     7
 10
94.423412999999996
 20
129.32744
 30
0.0
 40
1.0067870000000001
 50
257.531386
 51
264.40435300000001
  0
ARC
  5
1ED
  8
_________1
  6
AIGENLINE001
 62
     7
 10
94.352048999999994
 20
129.03582499999999
 30
0.0
 40
0.7066740000000001
 50
250.20067599999999
 51
258.07616899999999
  0
ARC
  5
1EE
  8
_________1
  6
AIGENLINE001
 62
     7
 10
94.222802999999999
 20
128.72618199999999
 30
0.0
 40
0.371933
 50
210.4539529999999
 51
252.77748600000001
  0
ARC
  5
1EF
  8
_________1
  6
AIGENLINE001
 62
     7
 10
95.642832999999996
 20
128.823927
 30
0.0
 40
0.5113050000000001
 50
251.801534
 51
271.02261600000003
  0
ARC
  5
1F0
  8
_________1
  6
AIGENLINE001
 62
     7
 10
95.557665999999998
 20
128.58838600000001
 30
0.0
 40
0.26105
 50
191.20250799999999
 51
253.41381899999999
  0
ARC
  5
1F1
  8
_________1
  6
AIGENLINE001
 62
     7
 10
95.661139000000006
 20
128.82140699999999
 30
0.0
 40
0.508786
 50
268.9661200000001
 51
288.24436800000001
  0
ARC
  5
1F2
  8
_________1
  6
AIGENLINE001
 62
     7
 10
95.745446999999999
 20
128.58880400000001
 30
0.0
 40
0.261582
 50
286.656453
 51
348.72726
  0
ENDBLK
  5
1F3
  8
_________1
  0
BLOCK
  8
_________1
  2
AIGNBL02010022
 70
     0
 10
0.0
 20
0.0
 30
0.0
  3
AIGNBL02010022
  1

  0
ARC
  5
1F6
  8
_________1
 62
     7
 10
94.656159000000017
 20
208.951886
 30
0.0
 40
1.4546790000000001
 50
182.12457499999991
 51
267.87545399999999
  0
ARC
  5
1F7
  8
_________1
 62
     7
 10
94.655399000000017
 20
208.84514799999999
 30
0.0
 40
1.453878
 50
92.095736000000002
 51
177.91833399999999
  0
ARC
  5
1F8
  8
_________1
 62
     7
 10
94.548307999999992
 20
208.84403499999999
 30
0.0
 40
1.455017999999999
 50
2.123861999999999
 51
87.876128000000008
  0
ARC
  5
1F9
  8
_________1
 62
     7
 10
94.549106000000009
 20
208.95144099999999
 30
0.0
 40
1.4542040000000001
 50
272.0935970000001
 51
357.892312
  0
ARC
  5
1FA
  8
_________1
 62
     7
 10
94.602231000000003
 20
208.89795799999999
 30
0.0
 40
1.349796999999999
 50
179.99996999999999
 51
270.00002000000001
  0
ARC
  5
1FB
  8
_________1
 62
     7
 10
94.653772000000004
 20
208.84677500000001
 30
0.0
 40
1.402272999999999
 50
92.106401999999974
 51
177.90818999999999
  0
ARC
  5
1FC
  8
_________1
 62
     7
 10
94.550707999999986
 20
208.84643500000001
 30
0.0
 40
1.4026110000000001
 50
2.1051449999999998
 51
87.894844999999975
  0
ARC
  5
1FD
  8
_________1
 62
     7
 10
94.550723000000005
 20
208.94982400000001
 30
0.0
 40
1.4026089999999991
 50
272.10456699999997
 51
357.88082100000003
  0
ARC
  5
1FE
  8
_________1
 62
     7
 10
86.658445
 20
209.71899999999999
 30
0.0
 40
0.154185
 50
93.317440000000005
 51
136.548361
  0
ARC
  5
1FF
  8
_________1
 62
     7
 10
86.869066000000004
 20
209.50746899999999
 30
0.0
 40
0.452649
 50
135.445966
 51
156.647919
  0
ARC
  5
200
  8
_________1
 62
     7
 10
87.542593999999994
 20
209.19228699999999
 30
0.0
 40
1.196146999999999
 50
155.57528099999999
 51
166.514566
  0
ARC
  5
201
  8
_________1
 62
     7
 10
88.404090999999994
 20
208.97966
 30
0.0
 40
2.083485
 50
166.35327899999999
 51
173.945717
  0
ARC
  5
202
  8
_________1
 62
     7
 10
88.993052000000006
 20
208.90532300000001
 30
0.0
 40
2.6770279999999991
 50
173.693062
 51
180.157644
  0
ARC
  5
203
  8
_________1
 62
     7
 10
89.102599999999995
 20
208.89682099999999
 30
0.0
 40
2.7865649999999991
 50
179.97659299999989
 51
186.17972299999991
  0
ARC
  5
204
  8
_________1
 62
     7
 10
88.515901999999997
 20
208.836015
 30
0.0
 40
2.196733
 50
186.25025400000001
 51
193.45075
  0
ARC
  5
205
  8
_________1
 62
     7
 10
87.511077
 20
208.59315000000001
 30
0.0
 40
1.162979999999999
 50
193.328947
 51
204.58120600000001
  0
ARC
  5
206
  8
_________1
 62
     7
 10
86.865880000000004
 20
208.28586100000001
 30
0.0
 40
0.448564
 50
203.169748
 51
224.60420300000001
  0
ARC
  5
207
  8
_________1
 62
     7
 10
86.658414000000008
 20
208.076851
 30
0.0
 40
0.154118
 50
223.441755
 51
266.69244400000002
  0
LINE
  5
208
  8
_________1
 62
     7
 10
86.649500000000003
 20
209.87299999999999
 30
0.0
 11
88.528800000000004
 21
209.87299999999999
 31
0.0
  0
LINE
  5
209
  8
_________1
 62
     7
 10
86.649500000000003
 20
207.923
 30
0.0
 11
88.528800000000004
 21
207.923
 31
0.0
  0
ARC
  5
20A
  8
_________1
 62
     7
 10
88.537756000000002
 20
209.71899999999999
 30
0.0
 40
0.154185
 50
93.317440000000005
 51
136.548361
  0
ARC
  5
20B
  8
_________1
 62
     7
 10
88.748377999999988
 20
209.50746899999999
 30
0.0
 40
0.452649
 50
135.445966
 51
156.647919
  0
ARC
  5
20C
  8
_________1
 62
     7
 10
89.405265999999997
 20
209.19983300000001
 30
0.0
 40
1.177875999999999
 50
155.57481200000001
 51
166.678855
  0
ARC
  5
20D
  8
_________1
 62
     7
 10
90.322703999999987
 20
208.97022000000001
 30
0.0
 40
2.1235689999999989
 50
166.35376099999999
 51
173.80427900000001
  0
ARC
  5
20E
  8
_________1
 62
     7
 10
90.872364000000005
 20
208.90532300000001
 30
0.0
 40
2.6770279999999991
 50
173.693062
 51
180.157644
  0
ARC
  5
20F
  8
_________1
 62
     7
 10
90.981910999999997
 20
208.89682099999999
 30
0.0
 40
2.7865649999999991
 50
179.97659299999989
 51
186.17972299999991
  0
ARC
  5
210
  8
_________1
 62
     7
 10
90.353525000000005
 20
208.83143100000001
 30
0.0
 40
2.1547930000000002
 50
186.249775
 51
193.592184
  0
ARC
  5
211
  8
_________1
 62
     7
 10
89.406923000000006
 20
208.59699499999999
 30
0.0
 40
1.1796199999999999
 50
193.329375
 51
204.41695799999999
  0
ARC
  5
212
  8
_________1
 62
     7
 10
88.756889999999984
 20
208.29371900000001
 30
0.0
 40
0.462419
 50
203.494472
 51
224.27947900000001
  0
ARC
  5
213
  8
_________1
 62
     7
 10
88.537726000000006
 20
208.076851
 30
0.0
 40
0.154118
 50
223.441755
 51
266.69244400000002
  0
ARC
  5
214
  8
_________1
 62
     7
 10
94.656159000000017
 20
208.951886
 30
0.0
 40
1.4546790000000001
 50
182.12457499999991
 51
267.87545399999999
  0
ARC
  5
215
  8
_________1
 62
     7
 10
94.655399000000017
 20
208.84514799999999
 30
0.0
 40
1.453878
 50
92.095736000000002
 51
177.91833399999999
  0
ARC
  5
216
  8
_________1
 62
     7
 10
94.548307999999992
 20
208.84403499999999
 30
0.0
 40
1.455017999999999
 50
2.123861999999999
 51
87.876128000000008
  0
ARC
  5
217
  8
_________1
 62
     7
 10
94.549106000000009
 20
208.95144099999999
 30
0.0
 40
1.4542040000000001
 50
272.0935970000001
 51
357.892312
  0
LINE
  5
218
  8
_________1
 62
     7
 10
93.187999999999988
 20
208.49799999999999
 30
0.0
 11
91.182299999999998
 21
208.49799999999999
 31
0.0
  0
LINE
  5
219
  8
_________1
 62
     7
 10
93.187999999999988
 20
209.298
 30
0.0
 11
91.182299999999998
 21
209.298
 31
0.0
  0
ARC
  5
21A
  8
_________1
 62
     7
 10
93.185395999999983
 20
208.39403100000001
 30
0.0
 40
0.103992
 50
21.113059
 51
88.369385999999992
  0
ARC
  5
21B
  8
_________1
 62
     7
 10
93.184159999999991
 20
209.40343300000001
 30
0.0
 40
0.10558
 50
272.277154
 51
338.51979
  0
LINE
  5
21C
  8
_________1
 62
     7
 10
91.102299999999985
 20
209.21799999999999
 30
0.0
 11
91.102299999999985
 21
208.578
 31
0.0
  0
ARC
  5
21D
  8
_________1
 62
     7
 10
91.188334999999995
 20
208.583979
 30
0.0
 40
0.086213
 50
184.03865400000001
 51
265.96137599999997
  0
ARC
  5
21E
  8
_________1
 62
     7
 10
91.188334999999995
 20
209.211938
 30
0.0
 40
0.086213
 50
94.038623999999984
 51
175.96134599999999
  0
ARC
  5
21F
  8
_________1
 62
     7
 10
94.560141000000002
 20
208.93677299999999
 30
0.0
 40
1.450820999999999
 50
290.53437400000001
 51
344.453959
  0
ARC
  5
220
  8
_________1
 62
     7
 10
94.602402999999995
 20
208.89813100000001
 30
0.0
 40
1.4000520000000001
 50
199.46939
 51
289.46935999999999
  0
ARC
  5
221
  8
_________1
 62
     7
 10
94.602318999999994
 20
208.895421
 30
0.0
 40
1.4026329999999989
 50
75.53840799999999
 51
90.003570999999994
  0
ARC
  5
222
  8
_________1
 62
     7
 10
94.536919999999995
 20
208.85953599999999
 30
0.0
 40
1.4547289999999999
 50
347.63144499999999
 51
73.396692000000002
  0
ARC
  5
223
  8
_________1
 62
     7
 10
94.654464000000004
 20
208.82431500000001
 30
0.0
 40
1.4746639999999991
 50
92.029843999999997
 51
158.500382
  0
LINE
  5
224
  8
_________1
 62
     7
 10
93.597599999999986
 20
207.923
 30
0.0
 11
88.6143
 21
207.923
 31
0.0
  0
LINE
  5
225
  8
_________1
 62
     7
 10
93.597599999999986
 20
209.87299999999999
 30
0.0
 11
88.6143
 21
209.87299999999999
 31
0.0
  0
LINE
  5
226
  8
_________1
 62
     7
 10
88.6143
 20
209.87299999999999
 30
0.0
 11
88.5505
 21
209.85400000000001
 31
0.0
  0
LINE
  5
227
  8
_________1
 62
     7
 10
88.5505
 20
209.85400000000001
 30
0.0
 11
88.490200000000016
 21
209.79900000000001
 31
0.0
  0
LINE
  5
228
  8
_________1
 62
     7
 10
88.490200000000016
 20
209.79900000000001
 30
0.0
 11
88.433700000000002
 21
209.709
 31
0.0
  0
LINE
  5
229
  8
_________1
 62
     7
 10
88.433700000000002
 20
209.709
 30
0.0
 11
88.384499999999989
 21
209.58799999999999
 31
0.0
  0
LINE
  5
22A
  8
_________1
 62
     7
 10
88.384499999999989
 20
209.58799999999999
 30
0.0
 11
88.344199999999987
 21
209.44
 31
0.0
  0
LINE
  5
22B
  8
_________1
 62
     7
 10
88.344199999999987
 20
209.44
 30
0.0
 11
88.314199999999985
 21
209.27099999999999
 31
0.0
  0
LINE
  5
22C
  8
_________1
 62
     7
 10
88.314199999999985
 20
209.27099999999999
 30
0.0
 11
88.295299999999997
 21
209.08799999999999
 31
0.0
  0
LINE
  5
22D
  8
_________1
 62
     7
 10
88.295299999999997
 20
209.08799999999999
 30
0.0
 11
88.289400000000015
 21
208.898
 31
0.0
  0
LINE
  5
22E
  8
_________1
 62
     7
 10
88.289400000000015
 20
208.898
 30
0.0
 11
88.295299999999997
 21
208.70699999999999
 31
0.0
  0
LINE
  5
22F
  8
_________1
 62
     7
 10
88.295299999999997
 20
208.70699999999999
 30
0.0
 11
88.314199999999985
 21
208.52500000000001
 31
0.0
  0
LINE
  5
230
  8
_________1
 62
     7
 10
88.314199999999985
 20
208.52500000000001
 30
0.0
 11
88.344199999999987
 21
208.357
 31
0.0
  0
LINE
  5
231
  8
_________1
 62
     7
 10
88.344199999999987
 20
208.357
 30
0.0
 11
88.384499999999989
 21
208.209
 31
0.0
  0
LINE
  5
232
  8
_________1
 62
     7
 10
88.384499999999989
 20
208.209
 30
0.0
 11
88.433700000000002
 21
208.08699999999999
 31
0.0
  0
LINE
  5
233
  8
_________1
 62
     7
 10
88.433700000000002
 20
208.08699999999999
 30
0.0
 11
88.490200000000016
 21
207.99700000000001
 31
0.0
  0
LINE
  5
234
  8
_________1
 62
     7
 10
88.490200000000016
 20
207.99700000000001
 30
0.0
 11
88.5505
 21
207.94200000000001
 31
0.0
  0
LINE
  5
235
  8
_________1
 62
     7
 10
88.5505
 20
207.94200000000001
 30
0.0
 11
88.6143
 21
207.923
 31
0.0
  0
LINE
  5
236
  8
_________1
 62
     7
 10
88.489199999999997
 20
209.798
 30
0.0
 11
88.400300000000001
 21
209.798
 31
0.0
  0
LINE
  5
237
  8
_________1
 62
     7
 10
88.489199999999997
 20
207.99799999999999
 30
0.0
 11
88.400300000000001
 21
207.99799999999999
 31
0.0
  0
ARC
  5
238
  8
_________1
 62
     7
 10
94.651330999999999
 20
208.81527600000001
 30
0.0
 40
2.0834959999999989
 50
91.350352000000001
 51
149.49371600000001
  0
ARC
  5
239
  8
_________1
 62
     7
 10
94.602231000000003
 20
208.89795799999999
 30
0.0
 40
2.0002349999999991
 50
0.00001
 51
89.999980000000008
  0
ARC
  5
23A
  8
_________1
 62
     7
 10
94.602402999999995
 20
208.89813100000001
 30
0.0
 40
2.000062999999999
 50
269.99508500000002
 51
359.99505499999998
  0
ARC
  5
23B
  8
_________1
 62
     7
 10
94.650188000000014
 20
208.97939400000001
 30
0.0
 40
2.0818779999999988
 50
210.49268499999999
 51
268.68006100000002
  0
ENDBLK
  5
23C
  8
_________1
  0
BLOCK
  8
_________2
  2
AIGNBL03010002
 70
     0
 10
0.0
 20
0.0
 30
0.0
  3
AIGNBL03010002
  1

  0
LINE
  5
23F
  8
_________2
 62
     7
 10
81.679900000000004
 20
51.324300000000001
 30
0.0
 11
79.493700000000004
 21
51.324300000000001
 31
0.0
  0
LINE
  5
240
  8
_________2
 62
     7
 10
82.172600000000017
 20
51.324300000000001
 30
0.0
 11
81.920400000000001
 21
51.324300000000001
 31
0.0
  0
LINE
  5
241
  8
_________2
 62
     7
 10
82.665199999999984
 20
51.324300000000001
 30
0.0
 11
85.590100000000007
 21
51.324300000000001
 31
0.0
  0
LINE
  5
242
  8
_________2
 62
     7
 10
82.172600000000017
 20
51.324300000000001
 30
0.0
 11
82.424800000000005
 21
51.324300000000001
 31
0.0
  0
LINE
  5
243
  8
_________2
 62
     7
 10
75.776399999999995
 20
51.324300000000001
 30
0.0
 11
73.589399999999998
 21
51.324300000000001
 31
0.0
  0
LINE
  5
244
  8
_________2
 62
     7
 10
76.2684
 20
51.324300000000001
 30
0.0
 11
76.016900000000007
 21
51.324300000000001
 31
0.0
  0
LINE
  5
245
  8
_________2
 62
     7
 10
76.2684
 20
51.817
 30
0.0
 11
76.2684
 21
54.003900000000002
 31
0.0
  0
LINE
  5
246
  8
_________2
 62
     7
 10
76.2684
 20
51.324300000000001
 30
0.0
 11
76.2684
 21
51.576500000000003
 31
0.0
  0
LINE
  5
247
  8
_________2
 62
     7
 10
76.76100000000001
 20
51.324300000000001
 30
0.0
 11
78.947999999999993
 21
51.324300000000001
 31
0.0
  0
LINE
  5
248
  8
_________2
 62
     7
 10
76.2684
 20
51.324300000000001
 30
0.0
 11
76.520499999999998
 21
51.324300000000001
 31
0.0
  0
LINE
  5
249
  8
_________2
 62
     7
 10
76.2684
 20
50.832399999999993
 30
0.0
 11
76.2684
 21
48.645400000000002
 31
0.0
  0
LINE
  5
24A
  8
_________2
 62
     7
 10
76.2684
 20
51.324300000000001
 30
0.0
 11
76.2684
 21
51.072800000000001
 31
0.0
  0
LINE
  5
24B
  8
_________2
 62
     7
 10
79.979399999999984
 20
50.104799999999997
 30
0.0
 11
85.157399999999996
 21
49.240000000000002
 31
0.0
  0
LINE
  5
24C
  8
_________2
 62
     7
 10
79.979399999999984
 20
52.543900000000001
 30
0.0
 11
85.157399999999996
 21
53.409300000000002
 31
0.0
  0
LINE
  5
24D
  8
_________2
 62
     7
 10
85.157399999999996
 20
49.240000000000002
 30
0.0
 11
85.157399999999996
 21
53.409300000000002
 31
0.0
  0
LINE
  5
24E
  8
_________2
 62
     7
 10
79.979399999999984
 20
50.104799999999997
 30
0.0
 11
79.979399999999984
 21
52.543900000000001
 31
0.0
  0
ARC
  5
24F
  8
_________2
 62
     7
 10
76.222110000000001
 20
51.277366999999991
 30
0.0
 40
1.2673709999999989
 50
2.1232950000000002
 51
87.909056000000007
  0
ARC
  5
250
  8
_________2
 62
     7
 10
76.315273000000005
 20
51.277400999999998
 30
0.0
 40
1.267363
 50
92.121785999999986
 51
177.878185
  0
ARC
  5
251
  8
_________2
 62
     7
 10
76.315273000000005
 20
51.371245999999992
 30
0.0
 40
1.267363
 50
182.121815
 51
267.87821400000001
  0
ARC
  5
252
  8
_________2
 62
     7
 10
76.221461000000005
 20
51.371928999999987
 30
0.0
 40
1.2680439999999991
 50
272.11916400000001
 51
357.84848499999998
  0
ARC
  5
253
  8
_________2
 62
     7
 10
76.268349999999984
 20
51.324323
 30
0.0
 40
2.0849849999999992
 50
0.00001
 51
89.999980000000008
  0
ARC
  5
254
  8
_________2
 62
     7
 10
76.348388
 20
51.245001999999992
 30
0.0
 40
2.1657860000000002
 50
92.117855000000034
 51
177.90105299999999
  0
ARC
  5
255
  8
_________2
 62
     7
 10
76.348354
 20
51.404327000000002
 30
0.0
 40
2.1657779999999991
 50
182.11700400000001
 51
267.88302499999998
  0
ARC
  5
256
  8
_________2
 62
     7
 10
76.188378999999983
 20
51.405009999999997
 30
0.0
 40
2.1664590000000001
 50
272.11546800000002
 51
357.86560400000002
  0
ENDBLK
  5
257
  8
_________2
  0
ENDSEC
  0
SECTION
  2
ENTITIES
  0
TEXT
  5
258
  8
____
 62
     7
 10
82.751925000000014
 20
232.55099999999999
 30
0.0
 40
3.0923400000000001
  1
70（ブラケット取付範囲）
 41
0.5
 72
     2
 11
104.65600000000001
 21
232.55099999999999
 31
0.0
  0
TEXT
  5
259
  8
____
 62
     7
 10
49.412662500000003
 20
233.44499999999999
 30
0.0
 40
3.0923400000000001
  1
70（ブラケット取付範囲）
 41
0.5
 72
     1
 11
60.364699999999999
 21
233.44499999999999
 31
0.0
  0
TEXT
  5
25A
  8
____
 62
     7
 10
163.65799999999999
 20
136.76743999999999
 30
0.0
 40
3.0923400000000001
  1
18
 50
90.0
 41
0.5
 72
     2
 11
163.65799999999999
 21
138.82900000000001
 31
0.0
  0
TEXT
  5
25B
  8
____
 62
     7
 10
163.65799999999999
 20
129.4883725
 30
0.0
 40
3.0923400000000001
  1
30
 50
90.0
 41
0.5
 72
     1
 11
163.65799999999999
 21
130.648
 31
0.0
  0
TEXT
  5
25C
  8
____
 62
     7
 10
163.65799999999999
 20
126.610525
 30
0.0
 40
3.0923400000000001
  1
25
 50
90.0
 41
0.5
 72
     1
 11
163.65799999999999
 21
127.899
 31
0.0
  0
TEXT
  5
25D
  8
____
 62
     7
 10
163.65799999999999
 20
122.4363725
 30
0.0
 40
3.0923400000000001
  1
60
 50
90.0
 41
0.5
 72
     1
 11
163.65799999999999
 21
123.596
 31
0.0
  0
TEXT
  5
25E
  8
____
 62
     7
 10
41.121600000000001
 20
207.2229825
 30
0.0
 40
3.0923400000000001
  1
180
 50
90.0
 41
0.5
 72
     1
 11
41.121600000000001
 21
208.898
 31
0.0
  0
TEXT
  5
25F
  8
____
 62
     7
 10
35.059899999999999
 20
206.96528749999999
 30
0.0
 40
3.0923400000000001
  1
250
 50
90.0
 41
0.5
 72
     1
 11
35.059899999999999
 21
208.898
 31
0.0
  0
TEXT
  5
260
  8
____
 62
     7
 10
112.928
 20
190.93599999999989
 30
0.0
 40
3.0923400000000001
  1
18
 50
90.0
 41
0.5
  0
TEXT
  5
261
  8
____
 62
     7
 10
115.01600000000001
 20
142.46628749999999
 30
0.0
 40
3.0923400000000001
  1
208
 50
90.0
 41
0.5
 72
     1
 11
115.01600000000001
 21
144.399
 31
0.0
  0
TEXT
  5
262
  8
____
 62
     7
 10
39.2089
 20
135.78937250000001
 30
0.0
 40
3.0923400000000001
  1
60
 50
90.0
 41
0.5
 72
     1
 11
39.2089
 21
136.94900000000001
 31
0.0
  0
TEXT
  5
263
  8
____
 62
     7
 10
39.2089
 20
128.7893724999999
 30
0.0
 40
3.0923400000000001
  1
80
 50
90.0
 41
0.5
 72
     1
 11
39.2089
 21
129.94900000000001
 31
0.0
  0
TEXT
  5
264
  8
____
 62
     7
 10
90.835300000000004
 20
140.39713499999999
 30
0.0
 40
3.0923400000000001
  1
129
 50
90.0
 41
0.5
 72
     1
 11
90.835300000000004
 21
142.20099999999999
 31
0.0
  0
TEXT
  5
265
  8
____
 62
     7
 10
82.392416499999996
 20
141.24299999999999
 30
0.0
 40
3.0923400000000001
  1
70ﾟ
 41
0.5
 72
     1
 11
83.758200000000002
 21
141.24299999999999
 31
0.0
  0
TEXT
  5
266
  8
____
 62
     7
 10
74.957999999999998
 20
140.85413500000001
 30
0.0
 40
3.0923400000000001
  1
138
 50
90.0
 41
0.5
 72
     1
 11
74.957999999999998
 21
142.65799999999999
 31
0.0
  0
TEXT
  5
267
  8
____
 62
     7
 10
56.127899999999997
 20
141.1102699999999
 30
0.0
 40
3.0923400000000001
  1
137
 50
90.0
 41
0.5
 72
     2
 11
56.127899999999997
 21
144.71799999999999
 31
0.0
  0
TEXT
  5
268
  8
____
 62
     7
 10
115.01600000000001
 20
108.5162875
 30
0.0
 40
3.0923400000000001
  1
470
 50
90.0
 41
0.5
 72
     1
 11
115.01600000000001
 21
110.449
 31
0.0
  0
TEXT
  5
269
  8
____
 62
     7
 10
170.05199999999999
 20
130.260525
 30
0.0
 40
3.0923400000000001
  1
48
 50
90.0
 41
0.5
 72
     1
 11
170.05199999999999
 21
131.54900000000001
 31
0.0
  0
TEXT
  5
26A
  8
____
 62
     7
 10
94.911100000000005
 20
199.84099999999989
 30
0.0
 40
3.0923400000000001
  1
開
 41
0.5
  0
TEXT
  5
26B
  8
____
 62
     7
 10
84.719385999999986
 20
209.50200000000001
 30
0.0
 40
3.0923400000000001
  1
閉
 41
0.5
 72
     2
 11
86.059399999999997
 21
209.50200000000001
 31
0.0
  0
TEXT
  5
26C
  8
____
 62
     7
 10
156.78800000000001
 20
111.059
 30
0.0
 40
3.0923400000000001
  1
%%c5\U+00D735
 41
0.5
  0
TEXT
  5
26D
  8
____
 62
     7
 10
156.78800000000001
 20
107.193
 30
0.0
 40
3.0923400000000001
  1
トラスタッピングネジ
 41
0.5
  0
TEXT
  5
26E
  8
____
 62
     7
 10
96.986400000000003
 20
144.69999999999999
 30
0.0
 40
3.0923400000000001
  1
水栓
 41
0.5
  0
TEXT
  5
26F
  8
____
 62
     7
 10
96.986400000000003
 20
140.83500000000001
 30
0.0
 40
3.0923400000000001
  1
取付穴：%%c28
 41
0.5
  0
TEXT
  5
270
  8
____
 62
     7
 10
82.928482500000001
 20
189.90600000000001
 30
0.0
 40
3.0923400000000001
  1
120
 41
0.5
 72
     1
 11
84.603499999999997
 21
189.90600000000001
 31
0.0
  0
TEXT
  5
271
  8
____
 62
     7
 10
61.427282499999997
 20
246.108
 30
0.0
 40
3.0923400000000001
  1
310
 41
0.5
 72
     1
 11
63.1023
 21
246.108
 31
0.0
  0
TEXT
  5
272
  8
____
 62
     7
 10
90.669587500000006
 20
246.108
 30
0.0
 40
3.0923400000000001
  1
280
 41
0.5
 72
     1
 11
92.602299999999985
 21
246.108
 31
0.0
  0
TEXT
  5
273
  8
____
 62
     7
 10
84.693700000000007
 20
239.934
 30
0.0
 40
3.0923400000000001
  1
40
 41
0.5
  0
TEXT
  5
274
  8
____
 62
     7
 10
98.926982500000022
 20
240.08600000000001
 30
0.0
 40
3.0923400000000001
  1
120
 41
0.5
 72
     1
 11
100.602
 21
240.08600000000001
 31
0.0
  0
TEXT
  5
275
  8
____
 62
     7
 10
110.52144
 20
229.78
 30
0.0
 40
3.0923400000000001
  1
18
 41
0.5
 72
     2
 11
112.583
 21
229.78
 31
0.0
  0
TEXT
  5
276
  8
____
 62
     7
 10
41.163800000000002
 20
229.78
 30
0.0
 40
3.0923400000000001
  1
18
 41
0.5
  0
TEXT
  5
277
  8
____
 62
     7
 10
87.19231649999999
 20
204.429
 30
0.0
 40
3.0923400000000001
  1
90ﾟ
 41
0.5
 72
     1
 11
88.558099999999996
 21
204.429
 31
0.0
  0
TEXT
  5
278
  8
____
 62
     7
 10
59.303899999999999
 20
223.22800000000001
 30
0.0
 40
3.0923400000000001
  1
%%c46
 41
0.5
  0
TEXT
  5
279
  8
____
 62
     7
 10
67.923082500000007
 20
189.90600000000001
 30
0.0
 40
3.0923400000000001
  1
180
 41
0.5
 72
     1
 11
69.598100000000002
 21
189.90600000000001
 31
0.0
  0
TEXT
  5
27A
  8
____
 62
     7
 10
96.928682500000008
 20
183.98400000000001
 30
0.0
 40
3.0923400000000001
  1
160
 41
0.5
 72
     1
 11
98.603700000000003
 21
183.98400000000001
 31
0.0
  0
TEXT
  5
27B
  8
____
 62
     7
 10
75.169487500000002
 20
177.95500000000001
 30
0.0
 40
3.0923400000000001
  1
590
 41
0.5
 72
     1
 11
77.102199999999996
 21
177.95500000000001
 31
0.0
  0
TEXT
  5
27C
  8
____
 62
     7
 10
73.795935
 20
183.98400000000001
 30
0.0
 40
3.0923400000000001
  1
300
 41
0.5
 72
     1
 11
75.599800000000002
 21
183.98400000000001
 31
0.0
  0
TEXT
  5
27D
  8
____
 62
     7
 10
52.423282499999992
 20
183.98400000000001
 30
0.0
 40
3.0923400000000001
  1
130
 41
0.5
 72
     1
 11
54.098300000000002
 21
183.98400000000001
 31
0.0
  0
TEXT
  5
27E
  8
____
 62
     7
 10
146.50213500000001
 20
79.567700000000002
 30
0.0
 40
3.0923400000000001
  1
125
 41
0.5
 72
     1
 11
148.30600000000001
 21
79.567700000000002
 31
0.0
  0
TEXT
  5
27F
  8
____
 62
     7
 10
71.793883000000008
 20
109.523
 30
0.0
 40
3.0923400000000001
  1
444～524
 41
0.5
 72
     1
 11
77.102400000000003
 21
109.523
 31
0.0
  0
TEXT
  5
280
  8
____
 62
     7
 10
62.741599999999998
 20
119.639
 30
0.0
 40
3.0923400000000001
  1
G 1 1/4
 41
0.5
  0
TEXT
  5
281
  8
____
 62
     7
 10
83.763400000000004
 20
82.088499999999996
 30
0.0
 40
3.0923400000000001
  1
G1/2
 41
0.5
  0
LINE
  5
282
  8
_________1
 62
     7
 10
101.21299999999999
 20
229.08000000000001
 30
0.0
 11
100.196
 21
231.78
 31
0.0
  0
LINE
  5
283
  8
_________1
 62
     7
 10
53.047400000000003
 20
229.08000000000001
 30
0.0
 11
55.2988
 21
232.88200000000001
 31
0.0
  0
LINE
  5
284
  8
_________1
 62
     7
 10
92.334500000000006
 20
199.47
 30
0.0
 11
94.602400000000003
 21
199.78299999999999
 31
0.0
  0
LINE
  5
285
  8
_________1
 62
     7
 10
94.602400000000003
 20
199.78299999999999
 30
0.0
 11
92.4816
 21
200.64599999999999
 31
0.0
  0
LINE
  5
286
  8
_________1
 62
     7
 10
92.4816
 20
200.64599999999999
 30
0.0
 11
92.334500000000006
 21
199.47
 31
0.0
  0
LINE
  5
287
  8
_________1
 62
     7
 10
86.318399999999997
 20
206.71700000000001
 30
0.0
 11
85.468400000000017
 21
208.84200000000001
 31
0.0
  0
LINE
  5
288
  8
_________1
 62
     7
 10
85.468400000000017
 20
208.84200000000001
 30
0.0
 11
85.141400000000004
 21
206.57599999999999
 31
0.0
  0
LINE
  5
289
  8
_________1
 62
     7
 10
85.141400000000004
 20
206.57599999999999
 30
0.0
 11
86.318399999999997
 21
206.71700000000001
 31
0.0
  0
ARC
  5
28A
  8
_________1
 62
     7
 10
94.602574000000004
 20
208.89795699999999
 30
0.0
 40
9.1149170000000002
 50
179.99996999999999
 51
270.00002000000001
  0
INSERT
  5
28B
  8
_________1
 62
     7
  2
AIGNBL02010002
 10
0.0
 20
0.0
 30
0.0
  0
ARC
  5
28C
  8
_________1
 62
     7
 10
86.817527999999996
 20
148.103331
 30
0.0
 40
9.3844380000000012
 50
201.046345
 51
268.97210899999999
  0
LINE
  5
28D
  8
_________1
 62
     7
 10
40.5015
 20
137.738
 30
0.0
 11
39.908900000000003
 21
139.94900000000001
 31
0.0
  0
LINE
  5
28E
  8
_________1
 62
     7
 10
39.908900000000003
 20
139.94900000000001
 30
0.0
 11
39.316400000000002
 21
137.738
 31
0.0
  0
LINE
  5
28F
  8
_________1
 62
     7
 10
39.316400000000002
 20
137.738
 30
0.0
 11
40.5015
 21
137.738
 31
0.0
  0
LINE
  5
290
  8
_________1
 62
     7
 10
40.5015
 20
131.73699999999999
 30
0.0
 11
39.908900000000003
 21
133.94900000000001
 31
0.0
  0
LINE
  5
291
  8
_________1
 62
     7
 10
39.908900000000003
 20
133.94900000000001
 30
0.0
 11
39.316400000000002
 21
131.73699999999999
 31
0.0
  0
LINE
  5
292
  8
_________1
 62
     7
 10
39.316400000000002
 20
131.73699999999999
 30
0.0
 11
40.5015
 21
131.73699999999999
 31
0.0
  0
LINE
  5
293
  8
_________1
 62
     7
 10
39.316400000000002
 20
136.16
 30
0.0
 11
39.908900000000003
 21
133.94900000000001
 31
0.0
  0
LINE
  5
294
  8
_________1
 62
     7
 10
39.908900000000003
 20
133.94900000000001
 30
0.0
 11
40.5015
 21
136.16
 31
0.0
  0
LINE
  5
295
  8
_________1
 62
     7
 10
40.5015
 20
136.16
 30
0.0
 11
39.316400000000002
 21
136.16
 31
0.0
  0
LINE
  5
296
  8
_________1
 62
     7
 10
39.316400000000002
 20
128.16
 30
0.0
 11
39.908900000000003
 21
125.949
 31
0.0
  0
LINE
  5
297
  8
_________1
 62
     7
 10
39.908900000000003
 20
125.949
 30
0.0
 11
40.5015
 21
128.16
 31
0.0
  0
LINE
  5
298
  8
_________1
 62
     7
 10
40.5015
 20
128.16
 30
0.0
 11
39.316400000000002
 21
128.16
 31
0.0
  0
LINE
  5
299
  8
_________1
 62
     7
 10
57.42049999999999
 20
137.738
 30
0.0
 11
56.8279
 21
139.94900000000001
 31
0.0
  0
LINE
  5
29A
  8
_________1
 62
     7
 10
56.8279
 20
139.94900000000001
 30
0.0
 11
56.235300000000002
 21
137.738
 31
0.0
  0
LINE
  5
29B
  8
_________1
 62
     7
 10
56.235300000000002
 20
137.738
 30
0.0
 11
57.42049999999999
 21
137.738
 31
0.0
  0
LINE
  5
29C
  8
_________1
 62
     7
 10
56.235300000000002
 20
128.46000000000001
 30
0.0
 11
56.8279
 21
126.249
 31
0.0
  0
LINE
  5
29D
  8
_________1
 62
     7
 10
56.8279
 20
126.249
 30
0.0
 11
57.42049999999999
 21
128.46000000000001
 31
0.0
  0
LINE
  5
29E
  8
_________1
 62
     7
 10
57.42049999999999
 20
128.46000000000001
 30
0.0
 11
56.235300000000002
 21
128.46000000000001
 31
0.0
  0
LINE
  5
29F
  8
_________1
 62
     7
 10
116.309
 20
131.73699999999999
 30
0.0
 11
115.71599999999999
 21
133.94900000000001
 31
0.0
  0
LINE
  5
2A0
  8
_________1
 62
     7
 10
115.71599999999999
 20
133.94900000000001
 30
0.0
 11
115.123
 21
131.73699999999999
 31
0.0
  0
LINE
  5
2A1
  8
_________1
 62
     7
 10
115.123
 20
131.73699999999999
 30
0.0
 11
116.309
 21
131.73699999999999
 31
0.0
  0
LINE
  5
2A2
  8
_________1
 62
     7
 10
115.123
 20
89.159999999999997
 30
0.0
 11
115.71599999999999
 21
86.948599999999999
 31
0.0
  0
LINE
  5
2A3
  8
_________1
 62
     7
 10
115.71599999999999
 20
86.948599999999999
 30
0.0
 11
116.309
 21
89.159999999999997
 31
0.0
  0
LINE
  5
2A4
  8
_________1
 62
     7
 10
116.309
 20
89.159999999999997
 30
0.0
 11
115.123
 21
89.159999999999997
 31
0.0
  0
LINE
  5
2A5
  8
_________1
 62
     7
 10
116.309
 20
152.637
 30
0.0
 11
115.71599999999999
 21
154.84899999999999
 31
0.0
  0
LINE
  5
2A6
  8
_________1
 62
     7
 10
115.71599999999999
 20
154.84899999999999
 30
0.0
 11
115.123
 21
152.637
 31
0.0
  0
LINE
  5
2A7
  8
_________1
 62
     7
 10
115.123
 20
152.637
 30
0.0
 11
116.309
 21
152.637
 31
0.0
  0
LINE
  5
2A8
  8
_________1
 62
     7
 10
115.123
 20
136.16
 30
0.0
 11
115.71599999999999
 21
133.94900000000001
 31
0.0
  0
LINE
  5
2A9
  8
_________1
 62
     7
 10
115.71599999999999
 20
133.94900000000001
 30
0.0
 11
116.309
 21
136.16
 31
0.0
  0
LINE
  5
2AA
  8
_________1
 62
     7
 10
116.309
 20
136.16
 30
0.0
 11
115.123
 21
136.16
 31
0.0
  0
ARC
  5
2AB
  8
_________1
 62
     7
 10
164.36626799999999
 20
132.15717699999999
 30
0.0
 40
0.228644
 50
182.175712
 51
267.82431800000001
  0
ARC
  5
2AC
  8
_________1
 62
     7
 10
164.348907
 20
132.15717699999999
 30
0.0
 40
0.228644
 50
272.175702
 51
357.82430799999997
  0
ARC
  5
2AD
  8
_________1
 62
     7
 10
164.348907
 20
132.13981699999999
 30
0.0
 40
0.228644
 50
2.1756919999999988
 51
87.824297999999999
  0
ARC
  5
2AE
  8
_________1
 62
     7
 10
164.36626799999999
 20
132.13981699999999
 30
0.0
 40
0.228644
 50
92.175681999999995
 51
177.824288
  0
ARC
  5
2AF
  8
_________1
 62
     7
 10
164.36626799999999
 20
129.15751399999999
 30
0.0
 40
0.228644
 50
182.175712
 51
267.82431800000001
  0
ARC
  5
2B0
  8
_________1
 62
     7
 10
164.348907
 20
129.15751399999999
 30
0.0
 40
0.228644
 50
272.175702
 51
357.82430799999997
  0
ARC
  5
2B1
  8
_________1
 62
     7
 10
164.348907
 20
129.140153
 30
0.0
 40
0.228644
 50
2.1756919999999988
 51
87.824297999999999
  0
ARC
  5
2B2
  8
_________1
 62
     7
 10
164.36626799999999
 20
129.140153
 30
0.0
 40
0.228644
 50
92.175681999999995
 51
177.824288
  0
LINE
  5
2B3
  8
_________1
 62
     7
 10
158.91800000000001
 20
120.649
 30
0.0
 11
165.05799999999999
 21
120.649
 31
0.0
  0
LINE
  5
2B4
  8
_________1
 62
     7
 10
155.21799999999999
 20
132.148
 30
0.0
 11
165.05799999999999
 21
132.148
 31
0.0
  0
LINE
  5
2B5
  8
_________1
 62
     7
 10
171.34399999999999
 20
131.73699999999999
 30
0.0
 11
170.75200000000001
 21
133.94900000000001
 31
0.0
  0
LINE
  5
2B6
  8
_________1
 62
     7
 10
170.75200000000001
 20
133.94900000000001
 30
0.0
 11
170.15899999999999
 21
131.73699999999999
 31
0.0
  0
LINE
  5
2B7
  8
_________1
 62
     7
 10
170.15899999999999
 20
131.73699999999999
 30
0.0
 11
171.34399999999999
 21
131.73699999999999
 31
0.0
  0
LINE
  5
2B8
  8
_________1
 62
     7
 10
170.15899999999999
 20
131.36000000000001
 30
0.0
 11
170.75200000000001
 21
129.149
 31
0.0
  0
LINE
  5
2B9
  8
_________1
 62
     7
 10
170.75200000000001
 20
129.149
 30
0.0
 11
171.34399999999999
 21
131.36000000000001
 31
0.0
  0
LINE
  5
2BA
  8
_________1
 62
     7
 10
171.34399999999999
 20
131.36000000000001
 30
0.0
 11
170.15899999999999
 21
131.36000000000001
 31
0.0
  0
LINE
  5
2BB
  8
_________1
 62
     7
 10
170.75200000000001
 20
133.94900000000001
 30
0.0
 11
170.75200000000001
 21
129.149
 31
0.0
  0
LINE
  5
2BC
  8
_________1
 62
     7
 10
164.94999999999999
 20
124.437
 30
0.0
 11
164.358
 21
126.649
 31
0.0
  0
LINE
  5
2BD
  8
_________1
 62
     7
 10
164.358
 20
126.649
 30
0.0
 11
163.76499999999999
 21
124.437
 31
0.0
  0
LINE
  5
2BE
  8
_________1
 62
     7
 10
163.76499999999999
 20
124.437
 30
0.0
 11
164.94999999999999
 21
124.437
 31
0.0
  0
LINE
  5
2BF
  8
_________1
 62
     7
 10
163.76499999999999
 20
136.16
 30
0.0
 11
164.358
 21
133.94900000000001
 31
0.0
  0
LINE
  5
2C0
  8
_________1
 62
     7
 10
164.358
 20
133.94900000000001
 30
0.0
 11
164.94999999999999
 21
136.16
 31
0.0
  0
LINE
  5
2C1
  8
_________1
 62
     7
 10
164.94999999999999
 20
136.16
 30
0.0
 11
163.76499999999999
 21
136.16
 31
0.0
  0
LINE
  5
2C2
  8
_________1
 62
     7
 10
163.76499999999999
 20
122.86
 30
0.0
 11
164.358
 21
120.649
 31
0.0
  0
LINE
  5
2C3
  8
_________1
 62
     7
 10
164.358
 20
120.649
 30
0.0
 11
164.94999999999999
 21
122.86
 31
0.0
  0
LINE
  5
2C4
  8
_________1
 62
     7
 10
164.94999999999999
 20
122.86
 30
0.0
 11
163.76499999999999
 21
122.86
 31
0.0
  0
LINE
  5
2C5
  8
_________1
 62
     7
 10
164.358
 20
138.82900000000001
 30
0.0
 11
164.358
 21
120.649
 31
0.0
  0
LINE
  5
2C6
  8
_________1
 62
     7
 10
158.91800000000001
 20
126.649
 30
0.0
 11
165.05799999999999
 21
126.649
 31
0.0
  0
LINE
  5
2C7
  8
_________1
 62
     7
 10
158.91800000000001
 20
129.149
 30
0.0
 11
171.452
 21
129.149
 31
0.0
  0
LINE
  5
2C8
  8
_________1
 62
     7
 10
155.21799999999999
 20
133.94900000000001
 30
0.0
 11
171.452
 21
133.94900000000001
 31
0.0
  0
INSERT
  5
2C9
  8
_________1
 62
     7
  2
AIGNBL02010003
 10
0.0
 20
0.0
 30
0.0
  0
INSERT
  5
2CA
  8
_________1
 62
     7
  2
AIGNBL02010004
 10
0.0
 20
0.0
 30
0.0
  0
LINE
  5
2CB
  8
_________1
 62
     7
 10
142.554
 20
125.749
 30
0.0
 11
145.30500000000001
 21
125.749
 31
0.0
  0
LINE
  5
2CC
  8
_________1
 62
     7
 10
142.554
 20
125.599
 30
0.0
 11
144.845
 21
125.599
 31
0.0
  0
LINE
  5
2CD
  8
_________1
 62
     7
 10
142.554
 20
124.599
 30
0.0
 11
144.10400000000001
 21
124.599
 31
0.0
  0
LINE
  5
2CE
  8
_________1
 62
     7
 10
142.554
 20
124.499
 30
0.0
 11
144.005
 21
124.499
 31
0.0
  0
LINE
  5
2CF
  8
_________1
 62
     7
 10
142.05600000000001
 20
90.177000000000007
 30
0.0
 11
141.42699999999999
 21
90.177000000000007
 31
0.0
  0
LINE
  5
2D0
  8
_________1
 62
     7
 10
141.55600000000001
 20
89.998500000000007
 30
0.0
 11
141.55600000000001
 21
90.177000000000007
 31
0.0
  0
LINE
  5
2D1
  8
_________1
 62
     7
 10
142.05600000000001
 20
90.537999999999997
 30
0.0
 11
141.86000000000001
 21
90.537999999999997
 31
0.0
  0
LINE
  5
2D2
  8
_________1
 62
     7
 10
141.703
 20
90.537999999999997
 30
0.0
 11
141.42699999999999
 21
90.537999999999997
 31
0.0
  0
ARC
  5
2D3
  8
_________1
 62
     7
 10
141.44015200000001
 20
90.370423000000017
 30
0.0
 40
0.193899
 50
183.922853
 51
266.07717700000001
  0
ARC
  5
2D4
  8
_________1
 62
     7
 10
141.44106400000001
 20
90.343721999999985
 30
0.0
 40
0.194821
 50
94.173216999999994
 51
176.04544000000001
  0
LINE
  5
2D5
  8
_________1
 62
     7
 10
142.05600000000001
 20
91.399699999999996
 30
0.0
 11
141.86000000000001
 21
91.399699999999996
 31
0.0
  0
LINE
  5
2D6
  8
_________1
 62
     7
 10
141.703
 20
91.399699999999996
 30
0.0
 11
141.42699999999999
 21
91.399699999999996
 31
0.0
  0
LINE
  5
2D7
  8
_________1
 62
     7
 10
141.703
 20
91.399699999999996
 30
0.0
 11
141.703
 21
90.537999999999997
 31
0.0
  0
LINE
  5
2D8
  8
_________1
 62
     7
 10
141.86000000000001
 20
91.399699999999996
 30
0.0
 11
141.86000000000001
 21
90.537999999999997
 31
0.0
  0
LINE
  5
2D9
  8
_________1
 62
     7
 10
141.42699999999999
 20
91.399699999999996
 30
0.0
 11
141.31800000000001
 21
91.509499999999989
 31
0.0
  0
LINE
  5
2DA
  8
_________1
 62
     7
 10
141.42699999999999
 20
91.399699999999996
 30
0.0
 11
141.42699999999999
 21
90.537999999999997
 31
0.0
  0
LINE
  5
2DB
  8
_________1
 62
     7
 10
141.31800000000001
 20
92.184799999999996
 30
0.0
 11
142.05600000000001
 21
92.184799999999996
 31
0.0
  0
LINE
  5
2DC
  8
_________1
 62
     7
 10
141.31800000000001
 20
92.184799999999996
 30
0.0
 11
141.31800000000001
 21
91.509499999999989
 31
0.0
  0
LINE
  5
2DD
  8
_________1
 62
     7
 10
142.05600000000001
 20
90.177000000000007
 30
0.0
 11
142.685
 21
90.177000000000007
 31
0.0
  0
LINE
  5
2DE
  8
_________1
 62
     7
 10
142.55600000000001
 20
89.998500000000007
 30
0.0
 11
142.55600000000001
 21
90.177000000000007
 31
0.0
  0
LINE
  5
2DF
  8
_________1
 62
     7
 10
142.05600000000001
 20
90.537999999999997
 30
0.0
 11
142.25299999999999
 21
90.537999999999997
 31
0.0
  0
LINE
  5
2E0
  8
_________1
 62
     7
 10
142.40899999999999
 20
90.537999999999997
 30
0.0
 11
142.685
 21
90.537999999999997
 31
0.0
  0
ARC
  5
2E1
  8
_________1
 62
     7
 10
142.67015799999999
 20
90.342989000000017
 30
0.0
 40
0.195579
 50
4.1544970000000001
 51
85.736255
  0
ARC
  5
2E2
  8
_________1
 62
     7
 10
142.67142899999999
 20
90.370797999999979
 30
0.0
 40
0.194274
 50
273.91672999999997
 51
355.97383300000001
  0
LINE
  5
2E3
  8
_________1
 62
     7
 10
142.05600000000001
 20
91.399699999999996
 30
0.0
 11
142.25299999999999
 21
91.399699999999996
 31
0.0
  0
LINE
  5
2E4
  8
_________1
 62
     7
 10
142.40899999999999
 20
91.399699999999996
 30
0.0
 11
142.685
 21
91.399699999999996
 31
0.0
  0
LINE
  5
2E5
  8
_________1
 62
     7
 10
142.40899999999999
 20
91.399699999999996
 30
0.0
 11
142.40899999999999
 21
90.537999999999997
 31
0.0
  0
LINE
  5
2E6
  8
_________1
 62
     7
 10
142.25299999999999
 20
91.399699999999996
 30
0.0
 11
142.25299999999999
 21
90.537999999999997
 31
0.0
  0
LINE
  5
2E7
  8
_________1
 62
     7
 10
142.685
 20
91.399699999999996
 30
0.0
 11
142.7939999999999
 21
91.509499999999989
 31
0.0
  0
LINE
  5
2E8
  8
_________1
 62
     7
 10
142.685
 20
91.399699999999996
 30
0.0
 11
142.685
 21
90.537999999999997
 31
0.0
  0
LINE
  5
2E9
  8
_________1
 62
     7
 10
142.7939999999999
 20
92.184799999999996
 30
0.0
 11
142.05600000000001
 21
92.184799999999996
 31
0.0
  0
LINE
  5
2EA
  8
_________1
 62
     7
 10
142.7939999999999
 20
92.184799999999996
 30
0.0
 11
142.7939999999999
 21
91.509499999999989
 31
0.0
  0
LINE
  5
2EB
  8
_________1
 62
     7
 10
142.7939999999999
 20
92.184799999999996
 30
0.0
 11
142.05600000000001
 21
92.184799999999996
 31
0.0
  0
LINE
  5
2EC
  8
_________1
 62
     7
 10
141.31800000000001
 20
92.184799999999996
 30
0.0
 11
142.05600000000001
 21
92.184799999999996
 31
0.0
  0
LINE
  5
2ED
  8
_________1
 62
     7
 10
141.55699999999999
 20
125.949
 30
0.0
 11
141.55699999999999
 21
92.184799999999996
 31
0.0
  0
LINE
  5
2EE
  8
_________1
 62
     7
 10
142.554
 20
125.949
 30
0.0
 11
142.554
 21
92.184799999999996
 31
0.0
  0
LINE
  5
2EF
  8
_________1
 62
     7
 10
140.65600000000001
 20
88.773799999999994
 30
0.0
 11
140.65600000000001
 21
89.773600000000002
 31
0.0
  0
LINE
  5
2F0
  8
_________1
 62
     7
 10
141.35599999999999
 20
88.773799999999994
 30
0.0
 11
141.35599999999999
 21
89.773600000000002
 31
0.0
  0
LINE
  5
2F1
  8
_________1
 62
     7
 10
143.10599999999999
 20
88.548500000000004
 30
0.0
 11
141.006
 21
88.548500000000004
 31
0.0
  0
LINE
  5
2F2
  8
_________1
 62
     7
 10
143.10599999999999
 20
89.998500000000007
 30
0.0
 11
141.006
 21
89.998500000000007
 31
0.0
  0
LINE
  5
2F3
  8
_________1
 62
     7
 10
142.756
 20
88.773799999999994
 30
0.0
 11
142.756
 21
89.773600000000002
 31
0.0
  0
LINE
  5
2F4
  8
_________1
 62
     7
 10
143.45599999999999
 20
88.773799999999994
 30
0.0
 11
143.45599999999999
 21
89.773600000000002
 31
0.0
  0
ARC
  5
2F5
  8
_________1
 62
     7
 10
140.99659399999999
 20
89.490606999999997
 30
0.0
 40
0.507999
 50
88.951019999999986
 51
108.259428
  0
ARC
  5
2F6
  8
_________1
 62
     7
 10
140.91083
 20
89.723854999999986
 30
0.0
 40
0.259759
 50
106.414198
 51
168.96947499999999
  0
ARC
  5
2F7
  8
_________1
 62
     7
 10
141.01676599999999
 20
89.498869999999997
 30
0.0
 40
0.49977
 50
71.577506999999997
 51
91.246604000000005
  0
ARC
  5
2F8
  8
_________1
 62
     7
 10
141.10145700000001
 20
89.724435999999997
 30
0.0
 40
0.259158
 50
10.925511999999999
 51
73.582441000000003
  0
ARC
  5
2F9
  8
_________1
 62
     7
 10
142.09143900000001
 20
87.69923
 30
0.0
 40
2.2995700000000001
 50
83.979976000000008
 51
90.892464000000004
  0
ARC
  5
2FA
  8
_________1
 62
     7
 10
142.20650900000001
 20
88.786959999999993
 30
0.0
 40
1.20577
 50
78.261856999999992
 51
83.997012999999995
  0
ARC
  5
2FB
  8
_________1
 62
     7
 10
142.30983599999999
 20
89.306748999999996
 30
0.0
 40
0.6758460000000001
 50
69.622140000000016
 51
77.873672000000013
  0
ARC
  5
2FC
  8
_________1
 62
     7
 10
142.43223499999999
 20
89.580821
 30
0.0
 40
0.3768
 50
30.763774999999999
 51
72.558817000000005
  0
ARC
  5
2FD
  8
_________1
 62
     7
 10
142.02959000000001
 20
87.487617000000014
 30
0.0
 40
2.5110389999999989
 50
89.406018000000003
 51
95.727878999999987
  0
ARC
  5
2FE
  8
_________1
 62
     7
 10
141.90151
 20
88.809818000000007
 30
0.0
 40
1.182664999999999
 50
95.946895999999995
 51
101.794194
  0
ARC
  5
2FF
  8
_________1
 62
     7
 10
141.83833000000001
 20
89.184707999999986
 30
0.0
 40
0.8029119999999999
 50
102.848935
 51
109.769211
  0
ARC
  5
300
  8
_________1
 62
     7
 10
141.678541
 20
89.582281999999978
 30
0.0
 40
0.375062
 50
107.33972
 51
149.337648
  0
ARC
  5
301
  8
_________1
 62
     7
 10
143.09642400000001
 20
89.492547999999999
 30
0.0
 40
0.506058
 50
88.950564999999997
 51
108.29462100000001
  0
ARC
  5
302
  8
_________1
 62
     7
 10
143.01097300000001
 20
89.723854999999986
 30
0.0
 40
0.259759
 50
106.414198
 51
168.96947499999999
  0
ARC
  5
303
  8
_________1
 62
     7
 10
143.11764700000001
 20
89.506034999999983
 30
0.0
 40
0.4926310000000001
 50
71.433553000000003
 51
91.390557999999984
  0
ARC
  5
304
  8
_________1
 62
     7
 10
143.19963999999999
 20
89.722967999999995
 30
0.0
 40
0.261025
 50
11.174714
 51
73.333239000000006
  0
ARC
  5
305
  8
_________1
 62
     7
 10
140.99622600000001
 20
89.053957999999994
 30
0.0
 40
0.5055800000000001
 50
251.69393700000001
 51
271.09561500000001
  0
ARC
  5
306
  8
_________1
 62
     7
 10
140.91221999999999
 20
88.824314999999999
 30
0.0
 40
0.261284
 50
191.151556
 51
253.366344
  0
ARC
  5
307
  8
_________1
 62
     7
 10
141.014938
 20
89.060229000000007
 30
0.0
 40
0.5118380000000001
 50
268.98750799999999
 51
288.18838100000011
  0
ARC
  5
308
  8
_________1
 62
     7
 10
141.10101499999999
 20
88.822872999999987
 30
0.0
 40
0.259587
 50
286.49147299999998
 51
349.09898299999998
  0
ARC
  5
309
  8
_________1
 62
     7
 10
142.08161100000001
 20
91.067241999999993
 30
0.0
 40
2.5189049999999988
 50
269.40881000000002
 51
275.71875
  0
ARC
  5
30A
  8
_________1
 62
     7
 10
142.19997599999999
 20
89.758243999999976
 30
0.0
 40
1.2046939999999999
 50
276.32087300000001
 51
282.06630899999999
  0
ARC
  5
30B
  8
_________1
 62
     7
 10
142.31089399999999
 20
89.253672999999992
 30
0.0
 40
0.68809
 50
281.81732799999997
 51
289.905868
  0
ARC
  5
30C
  8
_________1
 62
     7
 10
142.43263200000001
 20
88.965272999999996
 30
0.0
 40
0.375825
 50
287.42450100000002
 51
329.36800899999997
  0
ARC
  5
30D
  8
_________1
 62
     7
 10
142.02935400000001
 20
91.054119999999983
 30
0.0
 40
2.5057869999999989
 50
264.265488
 51
270.600615
  0
ARC
  5
30E
  8
_________1
 62
     7
 10
141.90116800000001
 20
89.693729000000005
 30
0.0
 40
1.139426
 50
257.76900699999999
 51
263.84384999999997
  0
ARC
  5
30F
  8
_________1
 62
     7
 10
141.799139
 20
89.245184999999992
 30
0.0
 40
0.6794640000000002
 50
250.00095400000001
 51
258.16433899999998
  0
ARC
  5
310
  8
_________1
 62
     7
 10
141.6791749999999
 20
88.965116000000009
 30
0.0
 40
0.375639
 50
210.62111400000001
 51
252.58641499999999
  0
ARC
  5
311
  8
_________1
 62
     7
 10
143.095628
 20
89.049193000000017
 30
0.0
 40
0.500823
 50
251.603297
 51
271.15151700000001
  0
ARC
  5
312
  8
_________1
 62
     7
 10
143.010751
 20
88.822850000000017
 30
0.0
 40
0.259421
 50
190.90294599999999
 51
253.6149529999999
  0
ARC
  5
313
  8
_________1
 62
     7
 10
143.11468099999999
 20
89.060598999999996
 30
0.0
 40
0.512207
 50
268.99448699999999
 51
288.18140199999999
  0
ARC
  5
314
  8
_________1
 62
     7
 10
143.201267
 20
88.822461000000004
 30
0.0
 40
0.259064
 50
286.42108200000001
 51
349.169374
  0
LINE
  5
315
  8
_________1
 62
     7
 10
138.804
 20
125.749
 30
0.0
 11
141.55699999999999
 21
125.749
 31
0.0
  0
LINE
  5
316
  8
_________1
 62
     7
 10
138.88399999999999
 20
125.949
 30
0.0
 11
138.804
 21
125.749
 31
0.0
  0
LINE
  5
317
  8
_________1
 62
     7
 10
145.22499999999999
 20
125.949
 30
0.0
 11
145.30500000000001
 21
125.749
 31
0.0
  0
ARC
  5
318
  8
_________1
 62
     7
 10
139.27300099999999
 20
125.914571
 30
0.0
 40
0.315713
 50
211.66272200000009
 51
268.37402500000002
  0
LINE
  5
319
  8
_________1
 62
     7
 10
139.26400000000001
 20
125.599
 30
0.0
 11
141.55699999999999
 21
125.599
 31
0.0
  0
ARC
  5
31A
  8
_________1
 62
     7
 10
144.83802600000001
 20
125.911343
 30
0.0
 40
0.312448
 50
271.36642399999999
 51
328.66271699999999
  0
LINE
  5
31B
  8
_________1
 62
     7
 10
140.10499999999999
 20
124.499
 30
0.0
 11
141.55699999999999
 21
124.499
 31
0.0
  0
LINE
  5
31C
  8
_________1
 62
     7
 10
140.00399999999999
 20
124.599
 30
0.0
 11
140.00399999999999
 21
125.599
 31
0.0
  0
LINE
  5
31D
  8
_________1
 62
     7
 10
144.10400000000001
 20
124.599
 30
0.0
 11
144.10400000000001
 21
125.599
 31
0.0
  0
LINE
  5
31E
  8
_________1
 62
     7
 10
144.005
 20
124.499
 30
0.0
 11
144.005
 21
125.599
 31
0.0
  0
LINE
  5
31F
  8
_________1
 62
     7
 10
140.00399999999999
 20
124.599
 30
0.0
 11
141.55699999999999
 21
124.599
 31
0.0
  0
LINE
  5
320
  8
_________1
 62
     7
 10
140.10499999999999
 20
124.499
 30
0.0
 11
140.10499999999999
 21
125.599
 31
0.0
  0
LINE
  5
321
  8
_________1
 62
     7
 10
140.10499999999999
 20
124.499
 30
0.0
 11
140.00399999999999
 21
124.599
 31
0.0
  0
LINE
  5
322
  8
_________1
 62
     7
 10
144.10400000000001
 20
124.599
 30
0.0
 11
144.005
 21
124.499
 31
0.0
  0
LINE
  5
323
  8
_________1
 62
     7
 10
94.601900000000001
 20
90.177000000000007
 30
0.0
 11
93.972800000000007
 21
90.177000000000007
 31
0.0
  0
LINE
  5
324
  8
_________1
 62
     7
 10
94.101699999999994
 20
89.998500000000007
 30
0.0
 11
94.101699999999994
 21
90.177000000000007
 31
0.0
  0
LINE
  5
325
  8
_________1
 62
     7
 10
94.601900000000001
 20
90.537999999999997
 30
0.0
 11
94.405199999999994
 21
90.537999999999997
 31
0.0
  0
LINE
  5
326
  8
_________1
 62
     7
 10
94.248799999999989
 20
90.537999999999997
 30
0.0
 11
93.972800000000007
 21
90.537999999999997
 31
0.0
  0
ARC
  5
327
  8
_________1
 62
     7
 10
93.986941000000002
 20
90.371290000000002
 30
0.0
 40
0.194826
 50
184.159954
 51
265.84007600000001
  0
ARC
  5
328
  8
_________1
 62
     7
 10
93.986986000000016
 20
90.343721999999985
 30
0.0
 40
0.194821
 50
94.173216999999994
 51
176.04544000000001
  0
LINE
  5
329
  8
_________1
 62
     7
 10
94.601900000000001
 20
91.399699999999996
 30
0.0
 11
94.405199999999994
 21
91.399699999999996
 31
0.0
  0
LINE
  5
32A
  8
_________1
 62
     7
 10
94.248799999999989
 20
91.399699999999996
 30
0.0
 11
93.972800000000007
 21
91.399699999999996
 31
0.0
  0
LINE
  5
32B
  8
_________1
 62
     7
 10
94.248799999999989
 20
91.399699999999996
 30
0.0
 11
94.248799999999989
 21
90.537999999999997
 31
0.0
  0
LINE
  5
32C
  8
_________1
 62
     7
 10
94.405199999999994
 20
91.399699999999996
 30
0.0
 11
94.405199999999994
 21
90.537999999999997
 31
0.0
  0
LINE
  5
32D
  8
_________1
 62
     7
 10
93.972800000000007
 20
91.399699999999996
 30
0.0
 11
93.863600000000005
 21
91.509499999999989
 31
0.0
  0
LINE
  5
32E
  8
_________1
 62
     7
 10
93.972800000000007
 20
91.399699999999996
 30
0.0
 11
93.972800000000007
 21
90.537999999999997
 31
0.0
  0
LINE
  5
32F
  8
_________1
 62
     7
 10
93.863600000000005
 20
92.184799999999996
 30
0.0
 11
94.601900000000001
 21
92.184799999999996
 31
0.0
  0
LINE
  5
330
  8
_________1
 62
     7
 10
93.863600000000005
 20
92.184799999999996
 30
0.0
 11
93.863600000000005
 21
91.509499999999989
 31
0.0
  0
LINE
  5
331
  8
_________1
 62
     7
 10
94.601900000000001
 20
90.177000000000007
 30
0.0
 11
95.230599999999995
 21
90.177000000000007
 31
0.0
  0
LINE
  5
332
  8
_________1
 62
     7
 10
95.101799999999997
 20
89.998500000000007
 30
0.0
 11
95.101799999999997
 21
90.177000000000007
 31
0.0
  0
LINE
  5
333
  8
_________1
 62
     7
 10
94.601900000000001
 20
90.537999999999997
 30
0.0
 11
94.798299999999983
 21
90.537999999999997
 31
0.0
  0
LINE
  5
334
  8
_________1
 62
     7
 10
94.954300000000003
 20
90.537999999999997
 30
0.0
 11
95.230599999999995
 21
90.537999999999997
 31
0.0
  0
ARC
  5
335
  8
_________1
 62
     7
 10
95.216604000000004
 20
90.343881999999994
 30
0.0
 40
0.194649
 50
3.9106339999999991
 51
85.87066999999999
  0
ARC
  5
336
  8
_________1
 62
     7
 10
95.217354999999998
 20
90.370423000000017
 30
0.0
 40
0.193899
 50
273.92284300000011
 51
356.07716699999997
  0
LINE
  5
337
  8
_________1
 62
     7
 10
94.601900000000001
 20
91.399699999999996
 30
0.0
 11
94.798299999999983
 21
91.399699999999996
 31
0.0
  0
LINE
  5
338
  8
_________1
 62
     7
 10
94.954300000000003
 20
91.399699999999996
 30
0.0
 11
95.230599999999995
 21
91.399699999999996
 31
0.0
  0
LINE
  5
339
  8
_________1
 62
     7
 10
94.954300000000003
 20
91.399699999999996
 30
0.0
 11
94.954300000000003
 21
90.537999999999997
 31
0.0
  0
LINE
  5
33A
  8
_________1
 62
     7
 10
94.798299999999983
 20
91.399699999999996
 30
0.0
 11
94.798299999999983
 21
90.537999999999997
 31
0.0
  0
LINE
  5
33B
  8
_________1
 62
     7
 10
95.230599999999995
 20
91.399699999999996
 30
0.0
 11
95.339799999999997
 21
91.509499999999989
 31
0.0
  0
LINE
  5
33C
  8
_________1
 62
     7
 10
95.230599999999995
 20
91.399699999999996
 30
0.0
 11
95.230599999999995
 21
90.537999999999997
 31
0.0
  0
LINE
  5
33D
  8
_________1
 62
     7
 10
95.339799999999997
 20
92.184799999999996
 30
0.0
 11
94.601900000000001
 21
92.184799999999996
 31
0.0
  0
LINE
  5
33E
  8
_________1
 62
     7
 10
95.339799999999997
 20
92.184799999999996
 30
0.0
 11
95.339799999999997
 21
91.509499999999989
 31
0.0
  0
LINE
  5
33F
  8
_________1
 62
     7
 10
95.339799999999997
 20
92.184799999999996
 30
0.0
 11
94.601900000000001
 21
92.184799999999996
 31
0.0
  0
LINE
  5
340
  8
_________1
 62
     7
 10
93.863600000000005
 20
92.184799999999996
 30
0.0
 11
94.601900000000001
 21
92.184799999999996
 31
0.0
  0
LINE
  5
341
  8
_________1
 62
     7
 10
94.103399999999993
 20
125.949
 30
0.0
 11
94.103399999999993
 21
92.184799999999996
 31
0.0
  0
LINE
  5
342
  8
_________1
 62
     7
 10
95.100099999999983
 20
125.949
 30
0.0
 11
95.100099999999983
 21
92.184799999999996
 31
0.0
  0
LINE
  5
343
  8
_________1
 62
     7
 10
93.201800000000006
 20
88.773799999999994
 30
0.0
 11
93.201800000000006
 21
89.773600000000002
 31
0.0
  0
LINE
  5
344
  8
_________1
 62
     7
 10
93.901799999999994
 20
88.773799999999994
 30
0.0
 11
93.901799999999994
 21
89.773600000000002
 31
0.0
  0
LINE
  5
345
  8
_________1
 62
     7
 10
95.652000000000001
 20
88.548500000000004
 30
0.0
 11
93.5518
 21
88.548500000000004
 31
0.0
  0
LINE
  5
346
  8
_________1
 62
     7
 10
95.652000000000001
 20
89.998500000000007
 30
0.0
 11
93.5518
 21
89.998500000000007
 31
0.0
  0
LINE
  5
347
  8
_________1
 62
     7
 10
95.301599999999993
 20
88.773799999999994
 30
0.0
 11
95.301599999999993
 21
89.773600000000002
 31
0.0
  0
LINE
  5
348
  8
_________1
 62
     7
 10
96.001599999999996
 20
88.773799999999994
 30
0.0
 11
96.001599999999996
 21
89.773600000000002
 31
0.0
  0
ARC
  5
349
  8
_________1
 62
     7
 10
93.542483000000004
 20
89.488663000000003
 30
0.0
 40
0.509943
 50
88.951472999999993
 51
108.22437600000001
  0
ARC
  5
34A
  8
_________1
 62
     7
 10
93.456706000000011
 20
89.724023000000003
 30
0.0
 40
0.259682
 50
106.487978
 51
169.004029
  0
ARC
  5
34B
  8
_________1
 62
     7
 10
93.564008000000015
 20
89.509724000000006
 30
0.0
 40
0.488949
 50
71.360592000000011
 51
91.428919999999977
  0
ARC
  5
34C
  8
_________1
 62
     7
 10
93.647530000000003
 20
89.724447999999995
 30
0.0
 40
0.259007
 50
10.929313
 51
73.686973999999992
  0
ARC
  5
34D
  8
_________1
 62
     7
 10
94.637438000000003
 20
87.699969999999993
 30
0.0
 40
2.298826
 50
83.979964000000024
 51
90.886098999999987
  0
ARC
  5
34E
  8
_________1
 62
     7
 10
94.758081000000004
 20
88.823169999999976
 30
0.0
 40
1.1691689999999999
 50
78.172006999999994
 51
84.086862999999994
  0
ARC
  5
34F
  8
_________1
 62
     7
 10
94.86256800000001
 20
89.333004999999986
 30
0.0
 40
0.648746
 50
69.407126000000005
 51
77.974688
  0
ARC
  5
350
  8
_________1
 62
     7
 10
94.980505000000008
 20
89.584226999999984
 30
0.0
 40
0.372748
 50
30.525739000000002
 51
72.796852000000015
  0
ARC
  5
351
  8
_________1
 62
     7
 10
94.575896
 20
87.479749999999996
 30
0.0
 40
2.5189049999999988
 50
89.408789999999996
 51
95.718730000000008
  0
ARC
  5
352
  8
_________1
 62
     7
 10
94.445990000000009
 20
88.823501000000007
 30
0.0
 40
1.168906999999999
 50
95.946106999999998
 51
101.845585
  0
ARC
  5
353
  8
_________1
 62
     7
 10
94.388347999999993
 20
89.168395000000004
 30
0.0
 40
0.8196509999999999
 50
102.851106
 51
109.653042
  0
ARC
  5
354
  8
_________1
 62
     7
 10
94.224462000000017
 20
89.582281999999978
 30
0.0
 40
0.375062
 50
107.33972
 51
149.337648
  0
ARC
  5
355
  8
_________1
 62
     7
 10
95.642289000000005
 20
89.490770999999995
 30
0.0
 40
0.507836
 50
88.94789200000001
 51
108.262557
  0
ARC
  5
356
  8
_________1
 62
     7
 10
95.557005999999987
 20
89.723439999999997
 30
0.0
 40
0.260286
 50
106.484621
 51
168.89905300000001
  0
ARC
  5
357
  8
_________1
 62
     7
 10
95.663613999999995
 20
89.506174000000001
 30
0.0
 40
0.4924850000000001
 50
71.433378000000005
 51
91.356134000000026
  0
ARC
  5
358
  8
_________1
 62
     7
 10
95.747176999999994
 20
89.724435999999997
 30
0.0
 40
0.259158
 50
10.925511999999999
 51
73.582441000000003
  0
ARC
  5
359
  8
_________1
 62
     7
 10
93.542689999999993
 20
89.059694999999991
 30
0.0
 40
0.5113050000000001
 50
251.801534
 51
271.02261600000003
  0
ARC
  5
35A
  8
_________1
 62
     7
 10
93.458298999999997
 20
88.824329000000006
 30
0.0
 40
0.261441
 50
191.14782600000001
 51
253.26175699999999
  0
ARC
  5
35B
  8
_________1
 62
     7
 10
93.561117999999993
 20
89.056364999999985
 30
0.0
 40
0.507979
 50
268.95066700000001
 51
288.2598220000001
  0
ARC
  5
35C
  8
_________1
 62
     7
 10
93.646889999999999
 20
88.823041000000003
 30
0.0
 40
0.259664
 50
286.41769799999997
 51
349.06444199999999
  0
ARC
  5
35D
  8
_________1
 62
     7
 10
94.627917000000025
 20
91.059375000000017
 30
0.0
 40
2.5110389999999989
 50
269.40603800000002
 51
275.72789899999998
  0
ARC
  5
35E
  8
_________1
 62
     7
 10
94.750112999999999
 20
89.732193999999993
 30
0.0
 40
1.178339
 50
276.25656700000002
 51
282.13061599999997
  0
ARC
  5
35F
  8
_________1
 62
     7
 10
94.864881999999994
 20
89.222345000000004
 30
0.0
 40
0.655776
 50
281.68797599999999
 51
290.14677
  0
ARC
  5
360
  8
_________1
 62
     7
 10
94.979151000000002
 20
88.964083000000002
 30
0.0
 40
0.374408
 50
287.341363
 51
329.45114700000011
  0
ARC
  5
361
  8
_________1
 62
     7
 10
94.575334999999995
 20
91.054718000000008
 30
0.0
 40
2.5063869999999988
 50
264.2654970000001
 51
270.60698300000001
  0
ARC
  5
362
  8
_________1
 62
     7
 10
94.438389000000015
 20
89.635817000000003
 30
0.0
 40
1.080918
 50
257.587267
 51
263.973208
  0
ARC
  5
363
  8
_________1
 62
     7
 10
94.352048999999994
 20
89.271591999999998
 30
0.0
 40
0.7066740000000001
 50
250.20067599999999
 51
258.07616899999999
  0
ARC
  5
364
  8
_________1
 62
     7
 10
94.225095999999994
 20
88.965116000000009
 30
0.0
 40
0.375639
 50
210.62111400000001
 51
252.58641499999999
  0
ARC
  5
365
  8
_________1
 62
     7
 10
95.642797000000002
 20
89.059578000000016
 30
0.0
 40
0.5111830000000001
 50
251.801275
 51
270.98827699999998
  0
ARC
  5
366
  8
_________1
 62
     7
 10
95.557940000000002
 20
88.824314999999999
 30
0.0
 40
0.261284
 50
191.151556
 51
253.366344
  0
ARC
  5
367
  8
_________1
 62
     7
 10
95.660940999999994
 20
89.058481
 30
0.0
 40
0.51009
 50
268.99098600000002
 51
288.21950199999998
  0
ARC
  5
368
  8
_________1
 62
     7
 10
95.746735000000015
 20
88.822872999999987
 30
0.0
 40
0.259587
 50
286.49147299999998
 51
349.09898299999998
  0
LINE
  5
369
  8
_________1
 62
     7
 10
78.8994
 20
124.298
 30
0.0
 11
78.8994
 21
124.499
 31
0.0
  0
LINE
  5
36A
  8
_________1
 62
     7
 10
78.299199999999999
 20
124.298
 30
0.0
 11
78.299199999999999
 21
124.499
 31
0.0
  0
LINE
  5
36B
  8
_________1
 62
     7
 10
78.799099999999996
 20
124.199
 30
0.0
 11
78.799099999999996
 21
124.499
 31
0.0
  0
LINE
  5
36C
  8
_________1
 62
     7
 10
78.399500000000003
 20
124.199
 30
0.0
 11
78.399500000000003
 21
124.499
 31
0.0
  0
LINE
  5
36D
  8
_________1
 62
     7
 10
75.349199999999996
 20
125.749
 30
0.0
 11
81.849100000000007
 21
125.749
 31
0.0
  0
LINE
  5
36E
  8
_________1
 62
     7
 10
75.429500000000004
 20
125.949
 30
0.0
 11
75.349199999999996
 21
125.749
 31
0.0
  0
LINE
  5
36F
  8
_________1
 62
     7
 10
81.769199999999998
 20
125.949
 30
0.0
 11
81.849100000000007
 21
125.749
 31
0.0
  0
ARC
  5
370
  8
_________1
 62
     7
 10
75.815860999999984
 20
125.911092
 30
0.0
 40
0.312188
 50
211.386325
 51
268.69873999999999
  0
LINE
  5
371
  8
_________1
 62
     7
 10
75.808800000000005
 20
125.599
 30
0.0
 11
81.389899999999983
 21
125.599
 31
0.0
  0
ARC
  5
372
  8
_________1
 62
     7
 10
81.383729000000002
 20
125.909432
 30
0.0
 40
0.310508
 50
271.13177999999999
 51
328.78319500000009
  0
LINE
  5
373
  8
_________1
 62
     7
 10
76.6494
 20
124.499
 30
0.0
 11
80.549599999999984
 21
124.499
 31
0.0
  0
LINE
  5
374
  8
_________1
 62
     7
 10
76.549099999999996
 20
124.599
 30
0.0
 11
76.549099999999996
 21
125.599
 31
0.0
  0
LINE
  5
375
  8
_________1
 62
     7
 10
80.649500000000003
 20
124.599
 30
0.0
 11
80.649500000000003
 21
125.599
 31
0.0
  0
LINE
  5
376
  8
_________1
 62
     7
 10
80.549599999999984
 20
124.499
 30
0.0
 11
80.549599999999984
 21
125.599
 31
0.0
  0
LINE
  5
377
  8
_________1
 62
     7
 10
76.549099999999996
 20
124.599
 30
0.0
 11
80.649500000000003
 21
124.599
 31
0.0
  0
LINE
  5
378
  8
_________1
 62
     7
 10
76.6494
 20
124.499
 30
0.0
 11
76.6494
 21
125.599
 31
0.0
  0
LINE
  5
379
  8
_________1
 62
     7
 10
76.6494
 20
124.499
 30
0.0
 11
76.549099999999996
 21
124.599
 31
0.0
  0
LINE
  5
37A
  8
_________1
 62
     7
 10
80.649500000000003
 20
124.599
 30
0.0
 11
80.549599999999984
 21
124.499
 31
0.0
  0
LINE
  5
37B
  8
_________1
 62
     7
 10
78.8994
 20
124.298
 30
0.0
 11
78.799099999999996
 21
124.199
 31
0.0
  0
LINE
  5
37C
  8
_________1
 62
     7
 10
78.299199999999999
 20
124.298
 30
0.0
 11
78.399500000000003
 21
124.199
 31
0.0
  0
LINE
  5
37D
  8
_________1
 62
     7
 10
78.799099999999996
 20
124.199
 30
0.0
 11
78.399500000000003
 21
124.199
 31
0.0
  0
LINE
  5
37E
  8
_________1
 62
     7
 10
78.8994
 20
124.298
 30
0.0
 11
78.299199999999999
 21
124.298
 31
0.0
  0
LINE
  5
37F
  8
_________1
  6
AIGENLINE002
 62
     7
 10
150.55600000000001
 20
131.149
 30
0.0
 11
150.55600000000001
 21
132.649
 31
0.0
  0
LINE
  5
380
  8
_________1
  6
AIGENLINE002
 62
     7
 10
145.55600000000001
 20
131.149
 30
0.0
 11
145.55600000000001
 21
132.649
 31
0.0
  0
LINE
  5
381
  8
_________1
  6
AIGENLINE002
 62
     7
 10
137.05600000000001
 20
131.149
 30
0.0
 11
137.05600000000001
 21
132.649
 31
0.0
  0
LINE
  5
382
  8
_________1
  6
AIGENLINE002
 62
     7
 10
153.55600000000001
 20
126.649
 30
0.0
 11
158.28899999999999
 21
126.649
 31
0.0
  0
LINE
  5
383
  8
_________1
  6
AIGENLINE002
 62
     7
 10
153.55600000000001
 20
129.149
 30
0.0
 11
158.239
 21
129.149
 31
0.0
  0
LINE
  5
384
  8
_________1
  6
AIGENLINE002
 62
     7
 10
153.55600000000001
 20
120.649
 30
0.0
 11
158.239
 21
120.649
 31
0.0
  0
LINE
  5
385
  8
_________1
  6
AIGENLINE002
 62
     7
 10
142.05600000000001
 20
157.40299999999999
 30
0.0
 11
142.05600000000001
 21
85.203299999999984
 31
0.0
  0
LINE
  5
386
  8
_________1
  6
AIGENLINE002
 62
     7
 10
85.315100000000001
 20
147.374
 30
0.0
 11
94.602599999999995
 21
150.75399999999999
 31
0.0
  0
LINE
  5
387
  8
_________1
  6
AIGENLINE002
 62
     7
 10
78.601699999999994
 20
128.13499999999999
 30
0.0
 11
78.601699999999994
 21
123.137
 31
0.0
  0
LINE
  5
388
  8
_________1
  6
AIGENLINE002
 62
     7
 10
78.601699999999994
 20
212.43000000000001
 30
0.0
 11
78.601699999999994
 21
205.36600000000001
 31
0.0
  0
LINE
  5
389
  8
_________1
  6
AIGENLINE002
 62
     7
 10
103.352
 20
126.649
 30
0.0
 11
101.803
 21
126.649
 31
0.0
  0
LINE
  5
38A
  8
_________1
  6
AIGENLINE002
 62
     7
 10
102.602
 20
127.399
 30
0.0
 11
102.602
 21
125.899
 31
0.0
  0
LINE
  5
38B
  8
_________1
  6
AIGENLINE002
 62
     7
 10
104.003
 20
129.899
 30
0.0
 11
104.003
 21
128.399
 31
0.0
  0
LINE
  5
38C
  8
_________1
  6
AIGENLINE002
 62
     7
 10
104.753
 20
129.149
 30
0.0
 11
103.253
 21
129.149
 31
0.0
  0
LINE
  5
38D
  8
_________1
  6
AIGENLINE002
 62
     7
 10
104.053
 20
120.649
 30
0.0
 11
102.553
 21
120.649
 31
0.0
  0
LINE
  5
38E
  8
_________1
  6
AIGENLINE002
 62
     7
 10
103.303
 20
132.98500000000001
 30
0.0
 11
103.303
 21
116.48099999999999
 31
0.0
  0
LINE
  5
38F
  8
_________1
  6
AIGENLINE002
 62
     7
 10
50.95259999999999
 20
126.649
 30
0.0
 11
49.40229999999999
 21
126.649
 31
0.0
  0
LINE
  5
390
  8
_________1
  6
AIGENLINE002
 62
     7
 10
50.202599999999997
 20
127.399
 30
0.0
 11
50.202599999999997
 21
125.899
 31
0.0
  0
LINE
  5
391
  8
_________1
  6
AIGENLINE002
 62
     7
 10
51.6023
 20
129.899
 30
0.0
 11
51.6023
 21
128.399
 31
0.0
  0
LINE
  5
392
  8
_________1
  6
AIGENLINE002
 62
     7
 10
52.3523
 20
129.149
 30
0.0
 11
50.8523
 21
129.149
 31
0.0
  0
LINE
  5
393
  8
_________1
  6
AIGENLINE002
 62
     7
 10
51.652299999999997
 20
120.649
 30
0.0
 11
50.1526
 21
120.649
 31
0.0
  0
LINE
  5
394
  8
_________1
  6
AIGENLINE002
 62
     7
 10
50.902299999999997
 20
132.98500000000001
 30
0.0
 11
50.902299999999997
 21
116.48099999999999
 31
0.0
  0
LINE
  5
395
  8
_________1
  6
AIGENLINE002
 62
     7
 10
50.902299999999997
 20
222.631
 30
0.0
 11
50.902299999999997
 21
199.93100000000001
 31
0.0
  0
LINE
  5
396
  8
_________1
  6
AIGENLINE002
 62
     7
 10
51.652299999999997
 20
203.898
 30
0.0
 11
50.1526
 21
203.898
 31
0.0
  0
LINE
  5
397
  8
_________1
  6
AIGENLINE002
 62
     7
 10
50.202599999999997
 20
218.148
 30
0.0
 11
50.202599999999997
 21
216.648
 31
0.0
  0
LINE
  5
398
  8
_________1
  6
AIGENLINE002
 62
     7
 10
51.6023
 20
213.148
 30
0.0
 11
51.6023
 21
211.648
 31
0.0
  0
LINE
  5
399
  8
_________1
  6
AIGENLINE002
 62
     7
 10
52.3523
 20
212.398
 30
0.0
 11
50.8523
 21
212.398
 31
0.0
  0
LINE
  5
39A
  8
_________1
  6
AIGENLINE002
 62
     7
 10
50.95259999999999
 20
217.398
 30
0.0
 11
49.452199999999991
 21
217.398
 31
0.0
  0
LINE
  5
39B
  8
_________1
  6
AIGENLINE002
 62
     7
 10
103.303
 20
222.631
 30
0.0
 11
103.303
 21
199.93100000000001
 31
0.0
  0
LINE
  5
39C
  8
_________1
  6
AIGENLINE002
 62
     7
 10
104.053
 20
203.898
 30
0.0
 11
102.553
 21
203.898
 31
0.0
  0
LINE
  5
39D
  8
_________1
  6
AIGENLINE002
 62
     7
 10
102.602
 20
218.148
 30
0.0
 11
102.602
 21
216.648
 31
0.0
  0
LINE
  5
39E
  8
_________1
  6
AIGENLINE002
 62
     7
 10
104.003
 20
213.148
 30
0.0
 11
104.003
 21
211.648
 31
0.0
  0
LINE
  5
39F
  8
_________1
  6
AIGENLINE002
 62
     7
 10
104.753
 20
212.398
 30
0.0
 11
103.253
 21
212.398
 31
0.0
  0
LINE
  5
3A0
  8
_________1
  6
AIGENLINE002
 62
     7
 10
103.352
 20
217.398
 30
0.0
 11
101.85299999999999
 21
217.398
 31
0.0
  0
LINE
  5
3A1
  8
_________1
  6
AIGENLINE002
 62
     7
 10
94.602599999999995
 20
212.648
 30
0.0
 11
94.602599999999995
 21
205.70500000000001
 31
0.0
  0
LINE
  5
3A2
  8
_________1
  6
AIGENLINE002
 62
     7
 10
94.602599999999995
 20
156.745
 30
0.0
 11
94.602599999999995
 21
130.42099999999999
 31
0.0
  0
LINE
  5
3A3
  8
_________1
  6
AIGENLINE002
 62
     7
 10
109.325
 20
208.898
 30
0.0
 11
45.155500000000004
 21
208.898
 31
0.0
  0
INSERT
  5
3A4
  8
_________1
 62
     7
  2
AIGNBL02010005
 10
0.0
 20
0.0
 30
0.0
  0
INSERT
  5
3A5
  8
_________1
 62
     7
  2
AIGNBL02010007
 10
0.0
 20
0.0
 30
0.0
  0
INSERT
  5
3A6
  8
_________1
 62
     7
  2
AIGNBL02010009
 10
0.0
 20
0.0
 30
0.0
  0
INSERT
  5
3A7
  8
_________1
 62
     7
  2
AIGNBL0201000B
 10
0.0
 20
0.0
 30
0.0
  0
INSERT
  5
3A8
  8
_________1
 62
     7
  2
AIGNBL0201000C
 10
0.0
 20
0.0
 30
0.0
  0
INSERT
  5
3A9
  8
_________1
 62
     7
  2
AIGNBL0201000E
 10
0.0
 20
0.0
 30
0.0
  0
LINE
  5
3AA
  8
_________1
 62
     7
 10
97.802400000000006
 20
222.411
 30
0.0
 11
97.802400000000006
 21
229.78
 31
0.0
  0
LINE
  5
3AB
  8
_________1
 62
     7
 10
115.71599999999999
 20
154.84899999999999
 30
0.0
 11
115.71599999999999
 21
86.948599999999999
 31
0.0
  0
LINE
  5
3AC
  8
_________1
 62
     7
 10
96.715100000000007
 20
86.948599999999999
 30
0.0
 11
116.416
 21
86.948599999999999
 31
0.0
  0
LINE
  5
3AD
  8
_________1
 62
     7
 10
107.61499999999999
 20
133.94900000000001
 30
0.0
 11
116.416
 21
133.94900000000001
 31
0.0
  0
LINE
  5
3AE
  8
_________1
 62
     7
 10
56.8279
 20
144.71799999999999
 30
0.0
 11
56.8279
 21
126.249
 31
0.0
  0
LINE
  5
3AF
  8
_________1
 62
     7
 10
74.387
 20
126.249
 30
0.0
 11
56.127899999999997
 21
126.249
 31
0.0
  0
LINE
  5
3B0
  8
_________1
 62
     7
 10
59.783499999999989
 20
139.94900000000001
 30
0.0
 11
39.2089
 21
139.94900000000001
 31
0.0
  0
INSERT
  5
3B1
  8
_________1
 62
     7
  2
AIGNBL0201000F
 10
0.0
 20
0.0
 30
0.0
  0
LINE
  5
3B2
  8
_________1
 62
     7
 10
78.601699999999994
 20
204.35400000000001
 30
0.0
 11
78.601699999999994
 21
188.506
 31
0.0
  0
INSERT
  5
3B3
  8
_________1
 62
     7
  2
AIGNBL02010010
 10
0.0
 20
0.0
 30
0.0
  0
LINE
  5
3B4
  8
_________1
 62
     7
 10
47.602200000000003
 20
195.386
 30
0.0
 11
47.602200000000003
 21
176.55500000000001
 31
0.0
  0
INSERT
  5
3B5
  8
_________1
 62
     7
  2
AIGNBL02010011
 10
0.0
 20
0.0
 30
0.0
  0
LINE
  5
3B6
  8
_________1
 62
     7
 10
154.55600000000001
 20
117.449
 30
0.0
 11
154.55600000000001
 21
78.167599999999993
 31
0.0
  0
LINE
  5
3B7
  8
_________1
 62
     7
 10
142.05600000000001
 20
84.503200000000007
 30
0.0
 11
142.05600000000001
 21
78.167599999999993
 31
0.0
  0
INSERT
  5
3B8
  8
_________1
 62
     7
  2
AIGNBL02010012
 10
0.0
 20
0.0
 30
0.0
  0
LINE
  5
3B9
  8
_________1
 62
     7
 10
103.303
 20
115.46899999999999
 30
0.0
 11
103.303
 21
108.123
 31
0.0
  0
LINE
  5
3BA
  8
_________1
 62
     7
 10
50.902299999999997
 20
115.46899999999999
 30
0.0
 11
50.902299999999997
 21
108.123
 31
0.0
  0
INSERT
  5
3BB
  8
_________1
 62
     7
  2
AIGNBL02010013
 10
0.0
 20
0.0
 30
0.0
  0
LINE
  5
3BC
  8
_________1
 62
     7
 10
56.4024
 20
222.411
 30
0.0
 11
56.4024
 21
229.78
 31
0.0
  0
LINE
  5
3BD
  8
_________1
 62
     7
 10
96.964500000000001
 20
154.84899999999999
 30
0.0
 11
116.416
 21
154.84899999999999
 31
0.0
  0
LINE
  5
3BE
  8
_________1
 62
     7
 10
41.8217
 20
217.90100000000001
 30
0.0
 11
41.8217
 21
199.89500000000001
 31
0.0
  0
LINE
  5
3BF
  8
_________1
 62
     7
 10
59.8872
 20
199.89500000000001
 30
0.0
 11
41.121600000000001
 21
199.89500000000001
 31
0.0
  0
LINE
  5
3C0
  8
_________1
 62
     7
 10
59.8872
 20
217.90100000000001
 30
0.0
 11
41.121600000000001
 21
217.90100000000001
 31
0.0
  0
LINE
  5
3C1
  8
_________1
 62
     7
 10
90.605199999999996
 20
199.18199999999999
 30
0.0
 11
90.605199999999996
 21
182.584
 31
0.0
  0
LINE
  5
3C2
  8
_________1
 62
     7
 10
60.5944
 20
199.18299999999999
 30
0.0
 11
60.5944
 21
182.584
 31
0.0
  0
INSERT
  5
3C3
  8
_________1
 62
     7
  2
AIGNBL02010014
 10
0.0
 20
0.0
 30
0.0
  0
INSERT
  5
3C4
  8
_________1
 62
     7
  2
AIGNBL02010015
 10
0.0
 20
0.0
 30
0.0
  0
LINE
  5
3C5
  8
_________1
 62
     7
 10
106.602
 20
222.411
 30
0.0
 11
106.602
 21
246.108
 31
0.0
  0
LINE
  5
3C6
  8
_________1
 62
     7
 10
90.602400000000003
 20
219.137
 30
0.0
 11
90.602400000000003
 21
231.39699999999999
 31
0.0
  0
LINE
  5
3C7
  8
_________1
 62
     7
 10
90.602400000000003
 20
236.57300000000001
 30
0.0
 11
90.602400000000003
 21
239.934
 31
0.0
  0
LINE
  5
3C8
  8
_________1
 62
     7
 10
94.602599999999995
 20
199.083
 30
0.0
 11
94.602599999999995
 21
205.005
 31
0.0
  0
LINE
  5
3C9
  8
_________1
 62
     7
 10
94.602599999999995
 20
213.661
 30
0.0
 11
94.602599999999995
 21
231.52799999999999
 31
0.0
  0
LINE
  5
3CA
  8
_________1
 62
     7
 10
94.602599999999995
 20
236.50800000000001
 30
0.0
 11
94.602599999999995
 21
239.934
 31
0.0
  0
INSERT
  5
3CB
  8
_________1
 62
     7
  2
AIGNBL02010016
 10
0.0
 20
0.0
 30
0.0
  0
LINE
  5
3CC
  8
_________1
 62
     7
 10
107.33499999999999
 20
196.398
 30
0.0
 11
114.328
 21
196.398
 31
0.0
  0
LINE
  5
3CD
  8
_________1
 62
     7
 10
105.535
 20
198.19800000000001
 30
0.0
 11
114.328
 21
198.19800000000001
 31
0.0
  0
INSERT
  5
3CE
  8
_________1
 62
     7
  2
AIGNBL02010017
 10
0.0
 20
0.0
 30
0.0
  0
INSERT
  5
3CF
  8
_________1
 62
     7
  2
AIGNBL02010019
 10
0.0
 20
0.0
 30
0.0
  0
LINE
  5
3D0
  8
_________1
 62
     7
 10
104.803
 20
222.411
 30
0.0
 11
104.803
 21
229.78
 31
0.0
  0
LINE
  5
3D1
  8
_________1
 62
     7
 10
49.40229999999999
 20
222.411
 30
0.0
 11
49.40229999999999
 21
229.78
 31
0.0
  0
LINE
  5
3D2
  8
_________1
 62
     7
 10
78.602400000000003
 20
213.13
 30
0.0
 11
78.602400000000003
 21
246.108
 31
0.0
  0
LINE
  5
3D3
  8
_________1
 62
     7
 10
47.602200000000003
 20
222.411
 30
0.0
 11
47.602200000000003
 21
246.108
 31
0.0
  0
LINE
  5
3D4
  8
_________1
 62
     7
 10
39.908900000000003
 20
139.94900000000001
 30
0.0
 11
39.908900000000003
 21
125.949
 31
0.0
  0
LINE
  5
3D5
  8
_________1
 62
     7
 10
46.589700000000001
 20
125.949
 30
0.0
 11
39.2089
 21
125.949
 31
0.0
  0
LINE
  5
3D6
  8
_________1
 62
     7
 10
46.589700000000001
 20
133.94900000000001
 30
0.0
 11
39.2089
 21
133.94900000000001
 31
0.0
  0
INSERT
  5
3D7
  8
_________1
 62
     7
  2
AIGNBL0201001B
 10
0.0
 20
0.0
 30
0.0
  0
LINE
  5
3D8
  8
_________1
 62
     7
 10
46.589700000000001
 20
196.398
 30
0.0
 11
35.059899999999999
 21
196.398
 31
0.0
  0
LINE
  5
3D9
  8
_________1
 62
     7
 10
46.589700000000001
 20
221.398
 30
0.0
 11
35.059899999999999
 21
221.398
 31
0.0
  0
INSERT
  5
3DA
  8
_________1
 62
     7
  2
AIGNBL0201001C
 10
0.0
 20
0.0
 30
0.0
  0
LINE
  5
3DB
  8
_________1
 62
     7
 10
106.602
 20
195.386
 30
0.0
 11
106.602
 21
176.55500000000001
 31
0.0
  0
LINE
  5
3DC
  8
_________1
  6
AIGENLINE003
 62
     7
 10
97.802400000000006
 20
221.398
 30
0.0
 11
97.802400000000006
 21
198.19800000000001
 31
0.0
  0
LINE
  5
3DD
  8
_________1
  6
AIGENLINE003
 62
     7
 10
56.4024
 20
221.398
 30
0.0
 11
56.4024
 21
198.19800000000001
 31
0.0
  0
LINE
  5
3DE
  8
_________1
 62
     7
 10
154.55600000000001
 20
120.898
 30
0.0
 11
157.256
 21
120.898
 31
0.0
  0
LINE
  5
3DF
  8
_________1
 62
     7
 10
154.55600000000001
 20
120.399
 30
0.0
 11
157.256
 21
120.399
 31
0.0
  0
LINE
  5
3E0
  8
_________1
 62
     7
 10
156.36600000000001
 20
120.898
 30
0.0
 11
156.494
 21
120.399
 31
0.0
  0
LINE
  5
3E1
  8
_________1
 62
     7
 10
155.76599999999999
 20
120.898
 30
0.0
 11
155.89400000000001
 21
120.399
 31
0.0
  0
LINE
  5
3E2
  8
_________1
 62
     7
 10
155.167
 20
120.898
 30
0.0
 11
155.2939999999999
 21
120.399
 31
0.0
  0
LINE
  5
3E3
  8
_________1
 62
     7
 10
155.56700000000001
 20
120.898
 30
0.0
 11
155.69399999999999
 21
120.399
 31
0.0
  0
LINE
  5
3E4
  8
_________1
 62
     7
 10
154.76599999999999
 20
120.898
 30
0.0
 11
154.89500000000001
 21
120.399
 31
0.0
  0
LINE
  5
3E5
  8
_________1
 62
     7
 10
156.566
 20
120.898
 30
0.0
 11
156.69399999999999
 21
120.399
 31
0.0
  0
LINE
  5
3E6
  8
_________1
 62
     7
 10
156.166
 20
120.898
 30
0.0
 11
156.29400000000001
 21
120.399
 31
0.0
  0
LINE
  5
3E7
  8
_________1
 62
     7
 10
156.96600000000001
 20
120.898
 30
0.0
 11
157.095
 21
120.399
 31
0.0
  0
LINE
  5
3E8
  8
_________1
 62
     7
 10
155.36699999999999
 20
120.898
 30
0.0
 11
155.494
 21
120.399
 31
0.0
  0
LINE
  5
3E9
  8
_________1
 62
     7
 10
155.96600000000001
 20
120.898
 30
0.0
 11
156.09399999999999
 21
120.399
 31
0.0
  0
LINE
  5
3EA
  8
_________1
 62
     7
 10
154.56700000000001
 20
120.898
 30
0.0
 11
154.69399999999999
 21
120.399
 31
0.0
  0
LINE
  5
3EB
  8
_________1
 62
     7
 10
156.767
 20
120.898
 30
0.0
 11
156.89400000000001
 21
120.399
 31
0.0
  0
LINE
  5
3EC
  8
_________1
 62
     7
 10
154.96600000000001
 20
120.898
 30
0.0
 11
155.095
 21
120.399
 31
0.0
  0
LINE
  5
3ED
  8
_________1
 62
     7
 10
157.167
 20
120.898
 30
0.0
 11
157.28800000000001
 21
120.425
 31
0.0
  0
LINE
  5
3EE
  8
_________1
 62
     7
 10
157.256
 20
120.399
 30
0.0
 11
157.55600000000001
 21
120.649
 31
0.0
  0
LINE
  5
3EF
  8
_________1
 62
     7
 10
157.256
 20
120.898
 30
0.0
 11
157.55600000000001
 21
120.649
 31
0.0
  0
INSERT
  5
3F0
  8
_________1
 62
     7
  2
AIGNBL0201001D
 10
0.0
 20
0.0
 30
0.0
  0
INSERT
  5
3F1
  8
_________1
 62
     7
  2
AIGNBL0201001E
 10
0.0
 20
0.0
 30
0.0
  0
LINE
  5
3F2
  8
_________1
 62
     7
 10
154.55600000000001
 20
126.898
 30
0.0
 11
157.256
 21
126.898
 31
0.0
  0
LINE
  5
3F3
  8
_________1
 62
     7
 10
154.55600000000001
 20
126.399
 30
0.0
 11
157.256
 21
126.399
 31
0.0
  0
LINE
  5
3F4
  8
_________1
 62
     7
 10
156.36600000000001
 20
126.898
 30
0.0
 11
156.494
 21
126.399
 31
0.0
  0
LINE
  5
3F5
  8
_________1
 62
     7
 10
155.76599999999999
 20
126.898
 30
0.0
 11
155.89400000000001
 21
126.399
 31
0.0
  0
LINE
  5
3F6
  8
_________1
 62
     7
 10
155.167
 20
126.898
 30
0.0
 11
155.2939999999999
 21
126.399
 31
0.0
  0
LINE
  5
3F7
  8
_________1
 62
     7
 10
155.56700000000001
 20
126.898
 30
0.0
 11
155.69399999999999
 21
126.399
 31
0.0
  0
LINE
  5
3F8
  8
_________1
 62
     7
 10
154.76599999999999
 20
126.898
 30
0.0
 11
154.89500000000001
 21
126.399
 31
0.0
  0
LINE
  5
3F9
  8
_________1
 62
     7
 10
156.566
 20
126.898
 30
0.0
 11
156.69399999999999
 21
126.399
 31
0.0
  0
LINE
  5
3FA
  8
_________1
 62
     7
 10
156.166
 20
126.898
 30
0.0
 11
156.29400000000001
 21
126.399
 31
0.0
  0
LINE
  5
3FB
  8
_________1
 62
     7
 10
156.96600000000001
 20
126.898
 30
0.0
 11
157.095
 21
126.399
 31
0.0
  0
LINE
  5
3FC
  8
_________1
 62
     7
 10
155.36699999999999
 20
126.898
 30
0.0
 11
155.494
 21
126.399
 31
0.0
  0
LINE
  5
3FD
  8
_________1
 62
     7
 10
155.96600000000001
 20
126.898
 30
0.0
 11
156.09399999999999
 21
126.399
 31
0.0
  0
LINE
  5
3FE
  8
_________1
 62
     7
 10
154.56700000000001
 20
126.898
 30
0.0
 11
154.69399999999999
 21
126.399
 31
0.0
  0
LINE
  5
3FF
  8
_________1
 62
     7
 10
156.767
 20
126.898
 30
0.0
 11
156.89400000000001
 21
126.399
 31
0.0
  0
LINE
  5
400
  8
_________1
 62
     7
 10
154.96600000000001
 20
126.898
 30
0.0
 11
155.095
 21
126.399
 31
0.0
  0
LINE
  5
401
  8
_________1
 62
     7
 10
157.167
 20
126.898
 30
0.0
 11
157.28800000000001
 21
126.425
 31
0.0
  0
LINE
  5
402
  8
_________1
 62
     7
 10
157.256
 20
126.399
 30
0.0
 11
157.55600000000001
 21
126.649
 31
0.0
  0
LINE
  5
403
  8
_________1
 62
     7
 10
157.256
 20
126.898
 30
0.0
 11
157.55600000000001
 21
126.649
 31
0.0
  0
LINE
  5
404
  8
_________1
 62
     7
 10
154.55600000000001
 20
129.399
 30
0.0
 11
157.256
 21
129.399
 31
0.0
  0
LINE
  5
405
  8
_________1
 62
     7
 10
154.55600000000001
 20
128.899
 30
0.0
 11
157.256
 21
128.899
 31
0.0
  0
LINE
  5
406
  8
_________1
 62
     7
 10
156.36600000000001
 20
129.399
 30
0.0
 11
156.494
 21
128.899
 31
0.0
  0
LINE
  5
407
  8
_________1
 62
     7
 10
155.76599999999999
 20
129.399
 30
0.0
 11
155.89400000000001
 21
128.899
 31
0.0
  0
LINE
  5
408
  8
_________1
 62
     7
 10
155.167
 20
129.399
 30
0.0
 11
155.2939999999999
 21
128.899
 31
0.0
  0
LINE
  5
409
  8
_________1
 62
     7
 10
155.56700000000001
 20
129.399
 30
0.0
 11
155.69399999999999
 21
128.899
 31
0.0
  0
LINE
  5
40A
  8
_________1
 62
     7
 10
154.76599999999999
 20
129.399
 30
0.0
 11
154.89500000000001
 21
128.899
 31
0.0
  0
LINE
  5
40B
  8
_________1
 62
     7
 10
156.566
 20
129.399
 30
0.0
 11
156.69399999999999
 21
128.899
 31
0.0
  0
LINE
  5
40C
  8
_________1
 62
     7
 10
156.166
 20
129.399
 30
0.0
 11
156.29400000000001
 21
128.899
 31
0.0
  0
LINE
  5
40D
  8
_________1
 62
     7
 10
156.96600000000001
 20
129.399
 30
0.0
 11
157.095
 21
128.899
 31
0.0
  0
LINE
  5
40E
  8
_________1
 62
     7
 10
155.36699999999999
 20
129.399
 30
0.0
 11
155.494
 21
128.899
 31
0.0
  0
LINE
  5
40F
  8
_________1
 62
     7
 10
155.96600000000001
 20
129.399
 30
0.0
 11
156.09399999999999
 21
128.899
 31
0.0
  0
LINE
  5
410
  8
_________1
 62
     7
 10
154.56700000000001
 20
129.399
 30
0.0
 11
154.69399999999999
 21
128.899
 31
0.0
  0
LINE
  5
411
  8
_________1
 62
     7
 10
156.767
 20
129.399
 30
0.0
 11
156.89400000000001
 21
128.899
 31
0.0
  0
LINE
  5
412
  8
_________1
 62
     7
 10
154.96600000000001
 20
129.399
 30
0.0
 11
155.095
 21
128.899
 31
0.0
  0
LINE
  5
413
  8
_________1
 62
     7
 10
157.167
 20
129.399
 30
0.0
 11
157.28800000000001
 21
128.92500000000001
 31
0.0
  0
LINE
  5
414
  8
_________1
 62
     7
 10
157.256
 20
128.899
 30
0.0
 11
157.55600000000001
 21
129.149
 31
0.0
  0
LINE
  5
415
  8
_________1
 62
     7
 10
157.256
 20
129.399
 30
0.0
 11
157.55600000000001
 21
129.149
 31
0.0
  0
INSERT
  5
416
  8
_________1
 62
     7
  2
AIGNBL0201001F
 10
0.0
 20
0.0
 30
0.0
  0
LINE
  5
417
  8
_________1
 62
     7
 10
154.05600000000001
 20
125.949
 30
0.0
 11
154.05600000000001
 21
118.149
 31
0.0
  0
LINE
  5
418
  8
_________1
 62
     7
 10
152.81200000000001
 20
125.949
 30
0.0
 11
153.81800000000001
 21
125.328
 31
0.0
  0
LINE
  5
419
  8
_________1
 62
     7
 10
149.19399999999999
 20
125.949
 30
0.0
 11
153.751
 21
123.137
 31
0.0
  0
ARC
  5
41A
  8
_________1
 62
     7
 10
153.85327599999999
 20
123.31716400000001
 30
0.0
 40
0.207497
 50
240.39242400000001
 51
326.36027100000001
  0
ARC
  5
41B
  8
_________1
 62
     7
 10
153.85245699999999
 20
123.307875
 30
0.0
 40
0.203199
 50
328.66944000000012
 51
359.73870599999998
  0
ARC
  5
41C
  8
_________1
 62
     7
 10
153.544286
 20
124.896047
 30
0.0
 40
0.5114030000000001
 50
0.6711550000000001
 51
57.603220999999991
  0
LINE
  5
41D
  8
_________1
 62
     7
 10
154.55600000000001
 20
125.949
 30
0.0
 11
154.55600000000001
 21
118.149
 31
0.0
  0
LINE
  5
41E
  8
_________1
 62
     7
 10
154.05600000000001
 20
118.149
 30
0.0
 11
154.55600000000001
 21
118.149
 31
0.0
  0
INSERT
  5
41F
  8
_________1
 62
     7
  2
AIGNBL02010020
 10
0.0
 20
0.0
 30
0.0
  0
ARC
  5
420
  8
_________1
 62
     7
 10
129.866705
 20
126.260024
 30
0.0
 40
0.311208
 50
182.079173
 51
267.98667599999999
  0
ARC
  5
421
  8
_________1
 62
     7
 10
129.867053
 20
133.637564
 30
0.0
 40
0.311555
 50
92.075104999999994
 51
177.9248649999999
  0
LINE
  5
422
  8
_________1
 62
     7
 10
129.85599999999999
 20
125.949
 30
0.0
 11
154.55600000000001
 21
125.949
 31
0.0
  0
LINE
  5
423
  8
_________1
 62
     7
 10
154.55600000000001
 20
133.94900000000001
 30
0.0
 11
154.55600000000001
 21
125.949
 31
0.0
  0
LINE
  5
424
  8
_________1
 62
     7
 10
129.85599999999999
 20
133.94900000000001
 30
0.0
 11
154.55600000000001
 21
133.94900000000001
 31
0.0
  0
LINE
  5
425
  8
_________1
 62
     7
 10
129.55600000000001
 20
133.649
 30
0.0
 11
129.55600000000001
 21
126.249
 31
0.0
  0
ARC
  5
426
  8
_________1
 62
     7
 10
103.28852500000001
 20
120.635048
 30
0.0
 40
0.363941
 50
2.1489989999999999
 51
87.794569999999979
  0
ARC
  5
427
  8
_________1
 62
     7
 10
103.31621199999999
 20
120.635013
 30
0.0
 40
0.363963
 50
92.154366000000024
 51
177.84560400000001
  0
ARC
  5
428
  8
_________1
 62
     7
 10
103.31621199999999
 20
120.662378
 30
0.0
 40
0.363963
 50
182.15439599999991
 51
267.84563400000002
  0
ARC
  5
429
  8
_________1
 62
     7
 10
103.288839
 20
120.662029
 30
0.0
 40
0.363615
 50
272.15783399999998
 51
357.898597
  0
LINE
  5
42A
  8
_________1
 62
     7
 10
103.05200000000001
 20
125.949
 30
0.0
 11
103.05200000000001
 21
123.107
 31
0.0
  0
LINE
  5
42B
  8
_________1
 62
     7
 10
103.55200000000001
 20
125.949
 30
0.0
 11
103.55200000000001
 21
123.107
 31
0.0
  0
LINE
  5
42C
  8
_________1
 62
     7
 10
103.55200000000001
 20
123.107
 30
0.0
 11
103.05200000000001
 21
123.107
 31
0.0
  0
ARC
  5
42D
  8
_________1
 62
     7
 10
103.30253
 20
121.94555200000001
 30
0.0
 40
3.7971330000000001
 50
246.731796
 51
293.26822399999998
  0
LINE
  5
42E
  8
_________1
 62
     7
 10
101.803
 20
125.949
 30
0.0
 11
101.803
 21
118.45699999999999
 31
0.0
  0
LINE
  5
42F
  8
_________1
 62
     7
 10
104.803
 20
125.949
 30
0.0
 11
104.803
 21
118.45699999999999
 31
0.0
  0
ARC
  5
430
  8
_________1
 62
     7
 10
50.889017000000003
 20
120.63541600000001
 30
0.0
 40
0.363547
 50
2.0934240000000002
 51
87.906565999999998
  0
ARC
  5
431
  8
_________1
 62
     7
 10
50.915979
 20
120.635013
 30
0.0
 40
0.363963
 50
92.154366000000024
 51
177.84560400000001
  0
ARC
  5
432
  8
_________1
 62
     7
 10
50.91558599999999
 20
120.661985
 30
0.0
 40
0.363557
 50
182.09490199999999
 51
267.90512799999999
  0
ARC
  5
433
  8
_________1
 62
     7
 10
50.888613999999997
 20
120.662378
 30
0.0
 40
0.363963
 50
272.15438599999999
 51
357.84562399999999
  0
LINE
  5
434
  8
_________1
 62
     7
 10
50.652500000000003
 20
125.949
 30
0.0
 11
50.652500000000003
 21
123.107
 31
0.0
  0
LINE
  5
435
  8
_________1
 62
     7
 10
51.1524
 20
125.949
 30
0.0
 11
51.1524
 21
123.107
 31
0.0
  0
LINE
  5
436
  8
_________1
 62
     7
 10
51.1524
 20
123.107
 30
0.0
 11
50.652500000000003
 21
123.107
 31
0.0
  0
ARC
  5
437
  8
_________1
 62
     7
 10
50.902296999999997
 20
122.000484
 30
0.0
 40
3.8476589999999988
 50
247.054937
 51
292.94508300000001
  0
LINE
  5
438
  8
_________1
 62
     7
 10
49.40229999999999
 20
125.949
 30
0.0
 11
49.40229999999999
 21
118.45699999999999
 31
0.0
  0
LINE
  5
439
  8
_________1
 62
     7
 10
52.402299999999997
 20
125.949
 30
0.0
 11
52.402299999999997
 21
118.45699999999999
 31
0.0
  0
INSERT
  5
43A
  8
_________1
 62
     7
  2
AIGNBL02010021
 10
0.0
 20
0.0
 30
0.0
  0
LINE
  5
43B
  8
_________1
 62
     7
 10
49.40229999999999
 20
221.398
 30
0.0
 11
52.402299999999997
 21
221.398
 31
0.0
  0
LINE
  5
43C
  8
_________1
 62
     7
 10
101.803
 20
221.398
 30
0.0
 11
104.803
 21
221.398
 31
0.0
  0
LINE
  5
43D
  8
_________1
 62
     7
 10
106.602
 20
221.398
 30
0.0
 11
47.602200000000003
 21
221.398
 31
0.0
  0
LINE
  5
43E
  8
_________1
 62
     7
 10
47.602200000000003
 20
196.398
 30
0.0
 11
106.602
 21
196.398
 31
0.0
  0
LINE
  5
43F
  8
_________1
 62
     7
 10
47.602200000000003
 20
125.949
 30
0.0
 11
106.602
 21
125.949
 31
0.0
  0
LINE
  5
440
  8
_________1
 62
     7
 10
47.602200000000003
 20
133.94900000000001
 30
0.0
 11
106.602
 21
133.94900000000001
 31
0.0
  0
LINE
  5
441
  8
_________1
 62
     7
 10
106.602
 20
133.94900000000001
 30
0.0
 11
106.602
 21
125.949
 31
0.0
  0
LINE
  5
442
  8
_________1
 62
     7
 10
47.602200000000003
 20
133.94900000000001
 30
0.0
 11
47.602200000000003
 21
125.949
 31
0.0
  0
LINE
  5
443
  8
_________1
 62
     7
 10
106.602
 20
221.398
 30
0.0
 11
106.602
 21
196.398
 31
0.0
  0
LINE
  5
444
  8
_________1
 62
     7
 10
47.602200000000003
 20
221.398
 30
0.0
 11
47.602200000000003
 21
196.398
 31
0.0
  0
LINE
  5
445
  8
_________1
  6
AIGENLINE001
 62
     7
 10
150.80600000000001
 20
132.148
 30
0.0
 11
150.80600000000001
 21
133.34899999999999
 31
0.0
  0
LINE
  5
446
  8
_________1
  6
AIGENLINE001
 62
     7
 10
150.30600000000001
 20
132.148
 30
0.0
 11
150.30600000000001
 21
133.34899999999999
 31
0.0
  0
LINE
  5
447
  8
_________1
  6
AIGENLINE001
 62
     7
 10
150.80600000000001
 20
133.34899999999999
 30
0.0
 11
150.55600000000001
 21
133.649
 31
0.0
  0
LINE
  5
448
  8
_________1
  6
AIGENLINE001
 62
     7
 10
150.30600000000001
 20
133.34899999999999
 30
0.0
 11
150.55600000000001
 21
133.649
 31
0.0
  0
ARC
  5
449
  8
_________1
  6
AIGENLINE001
 62
     7
 10
150.562938
 20
132.093324
 30
0.0
 40
0.7442130000000001
 50
216.662474
 51
302.45251300000001
  0
ARC
  5
44A
  8
_________1
  6
AIGENLINE001
 62
     7
 10
150.571754
 20
132.03948299999999
 30
0.0
 40
0.69438
 50
304.22281900000002
 51
325.77719100000002
  0
ARC
  5
44B
  8
_________1
  6
AIGENLINE001
 62
     7
 10
154.49988099999999
 20
129.141898
 30
0.0
 40
0.743933
 50
126.664862
 51
212.488429
  0
ARC
  5
44C
  8
_________1
  6
AIGENLINE001
 62
     7
 10
154.469019
 20
129.15455600000001
 30
0.0
 40
0.7252130000000001
 50
214.642133
 51
235.25029900000001
  0
ARC
  5
44D
  8
_________1
  6
AIGENLINE001
 62
     7
 10
154.499751
 20
126.641938
 30
0.0
 40
0.7437260000000001
 50
126.66430200000001
 51
212.48193599999999
  0
ARC
  5
44E
  8
_________1
  6
AIGENLINE001
 62
     7
 10
154.46057300000001
 20
126.646348
 30
0.0
 40
0.713475
 50
214.47071
 51
235.42172199999999
  0
ARC
  5
44F
  8
_________1
  6
AIGENLINE001
 62
     7
 10
140.66874300000001
 20
131.440744
 30
0.0
 40
0.208367
 50
92.214104000000006
 51
177.785866
  0
ARC
  5
450
  8
_________1
  6
AIGENLINE001
 62
     7
 10
140.663332
 20
131.45066
 30
0.0
 40
0.202809
 50
180.527379
 51
238.03385900000001
  0
LINE
  5
451
  8
_________1
  6
AIGENLINE001
 62
     7
 10
154.05600000000001
 20
125.949
 30
0.0
 11
154.05600000000001
 21
130.149
 31
0.0
  0
LINE
  5
452
  8
_________1
  6
AIGENLINE001
 62
     7
 10
134.55600000000001
 20
131.649
 30
0.0
 11
152.55600000000001
 21
131.649
 31
0.0
  0
ARC
  5
453
  8
_________1
  6
AIGENLINE001
 62
     7
 10
143.43156099999999
 20
131.14688599999999
 30
0.0
 40
0.50207
 50
58.331214000000003
 51
89.916876000000002
  0
LINE
  5
454
  8
_________1
  6
AIGENLINE001
 62
     7
 10
143.69499999999999
 20
131.57400000000001
 30
0.0
 11
152.81200000000001
 21
125.949
 31
0.0
  0
LINE
  5
455
  8
_________1
  6
AIGENLINE001
 62
     7
 10
140.55600000000001
 20
131.279
 30
0.0
 11
149.19399999999999
 21
125.949
 31
0.0
  0
LINE
  5
456
  8
_________1
  6
AIGENLINE001
 62
     7
 10
134.55600000000001
 20
131.649
 30
0.0
 11
134.55600000000001
 21
132.148
 31
0.0
  0
ARC
  5
457
  8
_________1
  6
AIGENLINE001
 62
     7
 10
152.49813499999999
 20
130.09145000000001
 30
0.0
 40
1.558567
 50
2.1016529999999989
 51
87.885178999999994
  0
ARC
  5
458
  8
_________1
  6
AIGENLINE001
 62
     7
 10
152.55582100000001
 20
130.14843400000001
 30
0.0
 40
2.000062999999999
 50
0.004945
 51
90.004914999999997
  0
LINE
  5
459
  8
_________1
  6
AIGENLINE001
 62
     7
 10
134.55600000000001
 20
132.148
 30
0.0
 11
152.55600000000001
 21
132.148
 31
0.0
  0
LINE
  5
45A
  8
_________1
  6
AIGENLINE001
 62
     7
 10
138.65600000000001
 20
128.44900000000001
 30
0.0
 11
138.85499999999999
 21
126.249
 31
0.0
  0
LINE
  5
45B
  8
_________1
  6
AIGENLINE001
 62
     7
 10
145.256
 20
126.249
 30
0.0
 11
145.45599999999999
 21
128.44900000000001
 31
0.0
  0
LINE
  5
45C
  8
_________1
  6
AIGENLINE001
 62
     7
 10
138.441
 20
128.75399999999999
 30
0.0
 11
138.65600000000001
 21
128.44900000000001
 31
0.0
  0
LINE
  5
45D
  8
_________1
  6
AIGENLINE001
 62
     7
 10
138.209
 20
129.05699999999999
 30
0.0
 11
138.441
 21
128.75399999999999
 31
0.0
  0
ARC
  5
45E
  8
_________1
  6
AIGENLINE001
 62
     7
 10
138.524811
 20
129.299646
 30
0.0
 40
0.398302
 50
192.831425
 51
217.496759
  0
LINE
  5
45F
  8
_________1
  6
AIGENLINE001
 62
     7
 10
138.03100000000001
 20
129.67400000000001
 30
0.0
 11
138.136
 21
129.21100000000001
 31
0.0
  0
LINE
  5
460
  8
_________1
  6
AIGENLINE001
 62
     7
 10
137.92500000000001
 20
130.13800000000001
 30
0.0
 11
138.03100000000001
 21
129.67400000000001
 31
0.0
  0
ARC
  5
461
  8
_________1
  6
AIGENLINE001
 62
     7
 10
137.51509999999999
 20
130.02366900000001
 30
0.0
 40
0.4254540000000001
 50
15.578284
 51
87.373953999999998
  0
LINE
  5
462
  8
_________1
  6
AIGENLINE001
 62
     7
 10
137.20500000000001
 20
130.44900000000001
 30
0.0
 11
137.535
 21
130.44900000000001
 31
0.0
  0
ARC
  5
463
  8
_________1
  6
AIGENLINE001
 62
     7
 10
137.26480100000001
 20
131.51612800000001
 30
0.0
 40
1.0691509999999991
 50
189.82295199999999
 51
266.76952799999998
  0
LINE
  5
464
  8
_________1
  6
AIGENLINE001
 62
     7
 10
136.06200000000001
 20
132.625
 30
0.0
 11
136.21100000000001
 21
131.334
 31
0.0
  0
LINE
  5
465
  8
_________1
  6
AIGENLINE001
 62
     7
 10
135.92699999999999
 20
133.79300000000001
 30
0.0
 11
136.06200000000001
 21
132.625
 31
0.0
  0
LINE
  5
466
  8
_________1
  6
AIGENLINE001
 62
     7
 10
148.185
 20
133.79400000000001
 30
0.0
 11
148.214
 21
133.94900000000001
 31
0.0
  0
LINE
  5
467
  8
_________1
  6
AIGENLINE001
 62
     7
 10
135.898
 20
133.94900000000001
 30
0.0
 11
135.92699999999999
 21
133.79300000000001
 31
0.0
  0
LINE
  5
468
  8
_________1
  6
AIGENLINE001
 62
     7
 10
148.203
 20
133.94900000000001
 30
0.0
 11
145.517
 21
129.29499999999999
 31
0.0
  0
LINE
  5
469
  8
_________1
  6
AIGENLINE001
 62
     7
 10
138.59100000000001
 20
129.30199999999999
 30
0.0
 11
135.90799999999999
 21
133.94900000000001
 31
0.0
  0
LINE
  5
46A
  8
_________1
  6
AIGENLINE001
 62
     7
 10
138.85499999999999
 20
126.249
 30
0.0
 11
145.256
 21
126.249
 31
0.0
  0
LINE
  5
46B
  8
_________1
  6
AIGENLINE001
 62
     7
 10
145.16999999999999
 20
129.095
 30
0.0
 11
138.93700000000001
 21
129.102
 31
0.0
  0
ARC
  5
46C
  8
_________1
  6
AIGENLINE001
 62
     7
 10
145.16181499999999
 20
129.50977399999999
 30
0.0
 40
0.414765
 50
271.13166799999999
 51
328.79874899999999
  0
LINE
  5
46D
  8
_________1
  6
AIGENLINE001
 62
     7
 10
145.45599999999999
 20
128.44900000000001
 30
0.0
 11
145.66999999999999
 21
128.75399999999999
 31
0.0
  0
LINE
  5
46E
  8
_________1
  6
AIGENLINE001
 62
     7
 10
145.66999999999999
 20
128.75399999999999
 30
0.0
 11
145.90299999999999
 21
129.05699999999999
 31
0.0
  0
ARC
  5
46F
  8
_________1
  6
AIGENLINE001
 62
     7
 10
145.57431
 20
129.30623700000001
 30
0.0
 40
0.4119350000000001
 50
322.80218600000001
 51
346.65984500000002
  0
LINE
  5
470
  8
_________1
  6
AIGENLINE001
 62
     7
 10
145.97499999999999
 20
129.21100000000001
 30
0.0
 11
146.08099999999999
 21
129.67400000000001
 31
0.0
  0
LINE
  5
471
  8
_________1
  6
AIGENLINE001
 62
     7
 10
146.08099999999999
 20
129.67400000000001
 30
0.0
 11
146.18700000000001
 21
130.13800000000001
 31
0.0
  0
ARC
  5
472
  8
_________1
  6
AIGENLINE001
 62
     7
 10
146.59619499999999
 20
130.024182
 30
0.0
 40
0.4249439999999999
 50
92.636410999999995
 51
164.52251100000001
  0
LINE
  5
473
  8
_________1
  6
AIGENLINE001
 62
     7
 10
146.577
 20
130.44900000000001
 30
0.0
 11
146.90700000000001
 21
130.44900000000001
 31
0.0
  0
ARC
  5
474
  8
_________1
  6
AIGENLINE001
 62
     7
 10
146.847971
 20
131.515184
 30
0.0
 40
1.0681620000000001
 50
273.1883049999999
 51
350.21925499999998
  0
LINE
  5
475
  8
_________1
  6
AIGENLINE001
 62
     7
 10
147.90100000000001
 20
131.334
 30
0.0
 11
148.05000000000001
 21
132.625
 31
0.0
  0
LINE
  5
476
  8
_________1
  6
AIGENLINE001
 62
     7
 10
148.05000000000001
 20
132.625
 30
0.0
 11
148.185
 21
133.79400000000001
 31
0.0
  0
ARC
  5
477
  8
_________1
  6
AIGENLINE001
 62
     7
 10
138.945593
 20
129.516918
 30
0.0
 40
0.4146810000000001
 50
211.19374099999999
 51
268.82655699999998
  0
LINE
  5
478
  8
_________1
  6
AIGENLINE001
 62
     7
 10
138.65600000000001
 20
128.44900000000001
 30
0.0
 11
145.45599999999999
 21
128.44900000000001
 31
0.0
  0
ARC
  5
479
  8
_________1
  6
AIGENLINE001
 62
     7
 10
139.21803600000001
 20
125.933415
 30
0.0
 40
0.315493
 50
91.906076999999996
 51
156.28834000000001
  0
LINE
  5
47A
  8
_________1
  6
AIGENLINE001
 62
     7
 10
138.929
 20
126.06
 30
0.0
 11
138.88399999999999
 21
125.949
 31
0.0
  0
LINE
  5
47B
  8
_________1
  6
AIGENLINE001
 62
     7
 10
139.208
 20
126.249
 30
0.0
 11
144.90100000000001
 21
126.249
 31
0.0
  0
ARC
  5
47C
  8
_________1
  6
AIGENLINE001
 62
     7
 10
144.89274700000001
 20
125.935776
 30
0.0
 40
0.3130739999999999
 50
23.434531
 51
88.436793000000009
  0
LINE
  5
47D
  8
_________1
  6
AIGENLINE001
 62
     7
 10
145.18000000000001
 20
126.06
 30
0.0
 11
145.22499999999999
 21
125.949
 31
0.0
  0
LINE
  5
47E
  8
_________1
  6
AIGENLINE001
 62
     7
 10
144.05600000000001
 20
132.029
 30
0.0
 11
144.05600000000001
 21
131.86799999999999
 31
0.0
  0
LINE
  5
47F
  8
_________1
  6
AIGENLINE001
 62
     7
 10
140.05600000000001
 20
132.029
 30
0.0
 11
140.05600000000001
 21
131.86799999999999
 31
0.0
  0
LINE
  5
480
  8
_________1
  6
AIGENLINE001
 62
     7
 10
141.98099999999999
 20
131.86799999999999
 30
0.0
 11
142.131
 21
131.86799999999999
 31
0.0
  0
LINE
  5
481
  8
_________1
  6
AIGENLINE001
 62
     7
 10
142.44
 20
132.148
 30
0.0
 11
142.66399999999999
 21
132.148
 31
0.0
  0
LINE
  5
482
  8
_________1
  6
AIGENLINE001
 62
     7
 10
142.00700000000001
 20
132.029
 30
0.0
 11
142.10400000000001
 21
132.029
 31
0.0
  0
LINE
  5
483
  8
_________1
  6
AIGENLINE001
 62
     7
 10
142.48400000000001
 20
131.989
 30
0.0
 11
142.584
 21
131.989
 31
0.0
  0
LINE
  5
484
  8
_________1
  6
AIGENLINE001
 62
     7
 10
142.10400000000001
 20
132.029
 30
0.0
 11
142.458
 21
132.148
 31
0.0
  0
LINE
  5
485
  8
_________1
  6
AIGENLINE001
 62
     7
 10
142.131
 20
131.86799999999999
 30
0.0
 11
142.488
 21
131.99000000000001
 31
0.0
  0
LINE
  5
486
  8
_________1
  6
AIGENLINE001
 62
     7
 10
141.654
 20
132.148
 30
0.0
 11
142.00700000000001
 21
132.029
 31
0.0
  0
LINE
  5
487
  8
_________1
  6
AIGENLINE001
 62
     7
 10
141.62700000000001
 20
131.989
 30
0.0
 11
141.98099999999999
 21
131.86799999999999
 31
0.0
  0
LINE
  5
488
  8
_________1
  6
AIGENLINE001
 62
     7
 10
142.91800000000001
 20
131.86799999999999
 30
0.0
 11
143.05099999999999
 21
131.86799999999999
 31
0.0
  0
LINE
  5
489
  8
_________1
  6
AIGENLINE001
 62
     7
 10
143.65799999999999
 20
131.86799999999999
 30
0.0
 11
143.74299999999999
 21
131.86799999999999
 31
0.0
  0
LINE
  5
48A
  8
_________1
  6
AIGENLINE001
 62
     7
 10
144.03100000000001
 20
131.86799999999999
 30
0.0
 11
144.05600000000001
 21
131.86799999999999
 31
0.0
  0
LINE
  5
48B
  8
_________1
  6
AIGENLINE001
 62
     7
 10
140.369
 20
131.86799999999999
 30
0.0
 11
140.45400000000001
 21
131.86799999999999
 31
0.0
  0
LINE
  5
48C
  8
_________1
  6
AIGENLINE001
 62
     7
 10
141.06100000000001
 20
131.86799999999999
 30
0.0
 11
141.19399999999999
 21
131.86799999999999
 31
0.0
  0
LINE
  5
48D
  8
_________1
  6
AIGENLINE001
 62
     7
 10
140.05600000000001
 20
131.86799999999999
 30
0.0
 11
140.08099999999999
 21
131.86799999999999
 31
0.0
  0
LINE
  5
48E
  8
_________1
  6
AIGENLINE001
 62
     7
 10
143.67400000000001
 20
132.036
 30
0.0
 11
143.72900000000001
 21
132.036
 31
0.0
  0
LINE
  5
48F
  8
_________1
  6
AIGENLINE001
 62
     7
 10
143.02799999999999
 20
132.036
 30
0.0
 11
142.94200000000001
 21
132.036
 31
0.0
  0
LINE
  5
490
  8
_________1
  6
AIGENLINE001
 62
     7
 10
141.16999999999999
 20
132.036
 30
0.0
 11
141.084
 21
132.036
 31
0.0
  0
LINE
  5
491
  8
_________1
  6
AIGENLINE001
 62
     7
 10
140.43799999999999
 20
132.036
 30
0.0
 11
140.38300000000001
 21
132.036
 31
0.0
  0
LINE
  5
492
  8
_________1
  6
AIGENLINE001
 62
     7
 10
142.584
 20
131.989
 30
0.0
 11
142.91800000000001
 21
131.86799999999999
 31
0.0
  0
LINE
  5
493
  8
_________1
  6
AIGENLINE001
 62
     7
 10
141.62700000000001
 20
131.989
 30
0.0
 11
141.52699999999999
 21
131.989
 31
0.0
  0
LINE
  5
494
  8
_________1
  6
AIGENLINE001
 62
     7
 10
141.67099999999999
 20
132.148
 30
0.0
 11
141.44800000000001
 21
132.148
 31
0.0
  0
LINE
  5
495
  8
_________1
  6
AIGENLINE001
 62
     7
 10
143.322
 20
132.148
 30
0.0
 11
143.44
 21
132.148
 31
0.0
  0
LINE
  5
496
  8
_________1
  6
AIGENLINE001
 62
     7
 10
143.89699999999999
 20
132.148
 30
0.0
 11
143.952
 21
132.148
 31
0.0
  0
LINE
  5
497
  8
_________1
  6
AIGENLINE001
 62
     7
 10
140.78999999999999
 20
132.148
 30
0.0
 11
140.672
 21
132.148
 31
0.0
  0
LINE
  5
498
  8
_________1
  6
AIGENLINE001
 62
     7
 10
140.215
 20
132.148
 30
0.0
 11
140.15899999999999
 21
132.148
 31
0.0
  0
LINE
  5
499
  8
_________1
  6
AIGENLINE001
 62
     7
 10
143.34399999999999
 20
131.99000000000001
 30
0.0
 11
143.41900000000001
 21
131.99000000000001
 31
0.0
  0
LINE
  5
49A
  8
_________1
  6
AIGENLINE001
 62
     7
 10
143.90799999999999
 20
131.99000000000001
 30
0.0
 11
143.9429999999999
 21
131.99000000000001
 31
0.0
  0
LINE
  5
49B
  8
_________1
  6
AIGENLINE001
 62
     7
 10
140.767
 20
131.99000000000001
 30
0.0
 11
140.69200000000001
 21
131.99000000000001
 31
0.0
  0
LINE
  5
49C
  8
_________1
  6
AIGENLINE001
 62
     7
 10
140.20400000000001
 20
131.99000000000001
 30
0.0
 11
140.16900000000001
 21
131.99000000000001
 31
0.0
  0
LINE
  5
49D
  8
_________1
  6
AIGENLINE001
 62
     7
 10
143.02799999999999
 20
132.036
 30
0.0
 11
143.322
 21
132.148
 31
0.0
  0
LINE
  5
49E
  8
_________1
  6
AIGENLINE001
 62
     7
 10
143.44
 20
132.148
 30
0.0
 11
143.67400000000001
 21
132.036
 31
0.0
  0
LINE
  5
49F
  8
_________1
  6
AIGENLINE001
 62
     7
 10
143.952
 20
132.148
 30
0.0
 11
144.05600000000001
 21
132.029
 31
0.0
  0
LINE
  5
4A0
  8
_________1
  6
AIGENLINE001
 62
     7
 10
143.9429999999999
 20
131.99000000000001
 30
0.0
 11
144.03100000000001
 21
131.86799999999999
 31
0.0
  0
LINE
  5
4A1
  8
_________1
  6
AIGENLINE001
 62
     7
 10
143.72900000000001
 20
132.036
 30
0.0
 11
143.89699999999999
 21
132.148
 31
0.0
  0
LINE
  5
4A2
  8
_________1
  6
AIGENLINE001
 62
     7
 10
143.90799999999999
 20
131.99000000000001
 30
0.0
 11
143.74299999999999
 21
131.86799999999999
 31
0.0
  0
LINE
  5
4A3
  8
_________1
  6
AIGENLINE001
 62
     7
 10
143.65799999999999
 20
131.86799999999999
 30
0.0
 11
143.41900000000001
 21
131.99000000000001
 31
0.0
  0
LINE
  5
4A4
  8
_________1
  6
AIGENLINE001
 62
     7
 10
143.34399999999999
 20
131.99000000000001
 30
0.0
 11
143.05099999999999
 21
131.86799999999999
 31
0.0
  0
LINE
  5
4A5
  8
_________1
  6
AIGENLINE001
 62
     7
 10
140.05600000000001
 20
132.029
 30
0.0
 11
140.15899999999999
 21
132.148
 31
0.0
  0
LINE
  5
4A6
  8
_________1
  6
AIGENLINE001
 62
     7
 10
140.215
 20
132.148
 30
0.0
 11
140.38300000000001
 21
132.036
 31
0.0
  0
LINE
  5
4A7
  8
_________1
  6
AIGENLINE001
 62
     7
 10
140.43799999999999
 20
132.036
 30
0.0
 11
140.672
 21
132.148
 31
0.0
  0
LINE
  5
4A8
  8
_________1
  6
AIGENLINE001
 62
     7
 10
140.78999999999999
 20
132.148
 30
0.0
 11
141.084
 21
132.036
 31
0.0
  0
LINE
  5
4A9
  8
_________1
  6
AIGENLINE001
 62
     7
 10
141.16999999999999
 20
132.036
 30
0.0
 11
141.501
 21
132.148
 31
0.0
  0
LINE
  5
4AA
  8
_________1
  6
AIGENLINE001
 62
     7
 10
141.52699999999999
 20
131.989
 30
0.0
 11
141.19399999999999
 21
131.86799999999999
 31
0.0
  0
LINE
  5
4AB
  8
_________1
  6
AIGENLINE001
 62
     7
 10
141.06100000000001
 20
131.86799999999999
 30
0.0
 11
140.767
 21
131.99000000000001
 31
0.0
  0
LINE
  5
4AC
  8
_________1
  6
AIGENLINE001
 62
     7
 10
140.69200000000001
 20
131.99000000000001
 30
0.0
 11
140.45400000000001
 21
131.86799999999999
 31
0.0
  0
LINE
  5
4AD
  8
_________1
  6
AIGENLINE001
 62
     7
 10
140.369
 20
131.86799999999999
 30
0.0
 11
140.20400000000001
 21
131.99000000000001
 31
0.0
  0
LINE
  5
4AE
  8
_________1
  6
AIGENLINE001
 62
     7
 10
140.16900000000001
 20
131.99000000000001
 30
0.0
 11
140.08099999999999
 21
131.86799999999999
 31
0.0
  0
LINE
  5
4AF
  8
_________1
  6
AIGENLINE001
 62
     7
 10
142.26400000000001
 20
131.86799999999999
 30
0.0
 11
142.36099999999999
 21
131.86799999999999
 31
0.0
  0
LINE
  5
4B0
  8
_________1
  6
AIGENLINE001
 62
     7
 10
142.73099999999999
 20
131.86799999999999
 30
0.0
 11
142.80500000000001
 21
131.86799999999999
 31
0.0
  0
LINE
  5
4B1
  8
_________1
  6
AIGENLINE001
 62
     7
 10
141.84800000000001
 20
131.86799999999999
 30
0.0
 11
141.75
 21
131.86799999999999
 31
0.0
  0
LINE
  5
4B2
  8
_________1
  6
AIGENLINE001
 62
     7
 10
141.381
 20
131.86799999999999
 30
0.0
 11
141.30699999999999
 21
131.86799999999999
 31
0.0
  0
LINE
  5
4B3
  8
_________1
  6
AIGENLINE001
 62
     7
 10
141.381
 20
131.86799999999999
 30
0.0
 11
141.52699999999999
 21
131.989
 31
0.0
  0
LINE
  5
4B4
  8
_________1
  6
AIGENLINE001
 62
     7
 10
141.62700000000001
 20
131.989
 30
0.0
 11
141.75
 21
131.86799999999999
 31
0.0
  0
LINE
  5
4B5
  8
_________1
  6
AIGENLINE001
 62
     7
 10
142.26400000000001
 20
131.86799999999999
 30
0.0
 11
142.22999999999999
 21
131.90299999999999
 31
0.0
  0
LINE
  5
4B6
  8
_________1
  6
AIGENLINE001
 62
     7
 10
142.36099999999999
 20
131.86799999999999
 30
0.0
 11
142.48400000000001
 21
131.989
 31
0.0
  0
LINE
  5
4B7
  8
_________1
  6
AIGENLINE001
 62
     7
 10
142.584
 20
131.989
 30
0.0
 11
142.73099999999999
 21
131.86799999999999
 31
0.0
  0
LINE
  5
4B8
  8
_________1
  6
AIGENLINE001
 62
     7
 10
141.30699999999999
 20
131.86799999999999
 30
0.0
 11
141.28100000000001
 21
131.90000000000001
 31
0.0
  0
LINE
  5
4B9
  8
_________1
  6
AIGENLINE001
 62
     7
 10
141.881
 20
131.90299999999999
 30
0.0
 11
141.84800000000001
 21
131.86799999999999
 31
0.0
  0
LINE
  5
4BA
  8
_________1
  6
AIGENLINE001
 62
     7
 10
141.93000000000001
 20
132.148
 30
0.0
 11
142.18199999999999
 21
132.148
 31
0.0
  0
LINE
  5
4BB
  8
_________1
  6
AIGENLINE001
 62
     7
 10
141.446
 20
132.148
 30
0.0
 11
141.387
 21
132.11000000000001
 31
0.0
  0
LINE
  5
4BC
  8
_________1
  6
AIGENLINE001
 62
     7
 10
142.80500000000001
 20
131.86799999999999
 30
0.0
 11
142.83199999999999
 21
131.899
 31
0.0
  0
LINE
  5
4BD
  8
_________1
  6
AIGENLINE001
 62
     7
 10
142.94200000000001
 20
132.036
 30
0.0
 11
142.66399999999999
 21
132.148
 31
0.0
  0
LINE
  5
4BE
  8
_________1
  6
AIGENLINE001
 62
     7
 10
141.93000000000001
 20
132.148
 30
0.0
 11
141.875
 21
132.07299999999989
 31
0.0
  0
LINE
  5
4BF
  8
_________1
  6
AIGENLINE001
 62
     7
 10
142.18199999999999
 20
132.148
 30
0.0
 11
142.23599999999999
 21
132.07299999999989
 31
0.0
  0
LINE
  5
4C0
  8
_________1
  6
AIGENLINE001
 62
     7
 10
142.059
 20
131.28899999999999
 30
0.0
 11
142.059
 21
131.86799999999999
 31
0.0
  0
LINE
  5
4C1
  8
_________1
  6
AIGENLINE001
 62
     7
 10
143.25899999999999
 20
131.28899999999999
 30
0.0
 11
140.85900000000001
 21
131.28899999999999
 31
0.0
  0
LINE
  5
4C2
  8
_________1
  6
AIGENLINE001
 62
     7
 10
140.85900000000001
 20
131.28899999999999
 30
0.0
 11
140.85900000000001
 21
131.86799999999999
 31
0.0
  0
LINE
  5
4C3
  8
_________1
  6
AIGENLINE001
 62
     7
 10
143.25899999999999
 20
131.86799999999999
 30
0.0
 11
140.85900000000001
 21
131.86799999999999
 31
0.0
  0
LINE
  5
4C4
  8
_________1
  6
AIGENLINE001
 62
     7
 10
143.25899999999999
 20
131.28899999999999
 30
0.0
 11
143.25899999999999
 21
131.86799999999999
 31
0.0
  0
LINE
  5
4C5
  8
_________1
  6
AIGENLINE001
 62
     7
 10
143.18100000000001
 20
133.54900000000001
 30
0.0
 11
140.93100000000001
 21
133.54900000000001
 31
0.0
  0
LINE
  5
4C6
  8
_________1
  6
AIGENLINE001
 62
     7
 10
143.18100000000001
 20
133.54900000000001
 30
0.0
 11
143.18100000000001
 21
133.852
 31
0.0
  0
LINE
  5
4C7
  8
_________1
  6
AIGENLINE001
 62
     7
 10
140.93100000000001
 20
133.54900000000001
 30
0.0
 11
140.93100000000001
 21
133.852
 31
0.0
  0
ARC
  5
4C8
  8
_________1
  6
AIGENLINE001
 62
     7
 10
143.28704400000001
 20
133.84734499999999
 30
0.0
 40
0.106339
 50
107.22430199999999
 51
177.61884699999999
  0
ARC
  5
4C9
  8
_________1
  6
AIGENLINE001
 62
     7
 10
140.824634
 20
133.84730500000001
 30
0.0
 40
0.106249
 50
2.4047610000000001
 51
73.006838000000002
  0
LINE
  5
4CA
  8
_________1
  6
AIGENLINE001
 62
     7
 10
141.124
 20
129.76300000000001
 30
0.0
 11
141.124
 21
131.28899999999999
 31
0.0
  0
LINE
  5
4CB
  8
_________1
  6
AIGENLINE001
 62
     7
 10
141.126
 20
132.036
 30
0.0
 11
141.124
 21
133.54900000000001
 31
0.0
  0
LINE
  5
4CC
  8
_________1
  6
AIGENLINE001
 62
     7
 10
142.98699999999999
 20
133.54900000000001
 30
0.0
 11
142.98699999999999
 21
132.036
 31
0.0
  0
LINE
  5
4CD
  8
_________1
  6
AIGENLINE001
 62
     7
 10
142.98699999999999
 20
131.28899999999999
 30
0.0
 11
142.98699999999999
 21
129.76300000000001
 31
0.0
  0
LINE
  5
4CE
  8
_________1
  6
AIGENLINE001
 62
     7
 10
141.0079999999999
 20
129.76300000000001
 30
0.0
 11
141.0079999999999
 21
131.28899999999999
 31
0.0
  0
LINE
  5
4CF
  8
_________1
  6
AIGENLINE001
 62
     7
 10
141.0079999999999
 20
132.065
 30
0.0
 11
141.0079999999999
 21
133.54900000000001
 31
0.0
  0
LINE
  5
4D0
  8
_________1
  6
AIGENLINE001
 62
     7
 10
143.10400000000001
 20
133.54900000000001
 30
0.0
 11
143.10400000000001
 21
132.065
 31
0.0
  0
LINE
  5
4D1
  8
_________1
  6
AIGENLINE001
 62
     7
 10
143.10400000000001
 20
131.28899999999999
 30
0.0
 11
143.10400000000001
 21
129.76300000000001
 31
0.0
  0
LINE
  5
4D2
  8
_________1
  6
AIGENLINE001
 62
     7
 10
135.05600000000001
 20
133.94900000000001
 30
0.0
 11
135.05600000000001
 21
132.148
 31
0.0
  0
LINE
  5
4D3
  8
_________1
  6
AIGENLINE001
 62
     7
 10
149.05600000000001
 20
133.94900000000001
 30
0.0
 11
149.05600000000001
 21
132.148
 31
0.0
  0
LINE
  5
4D4
  8
_________1
  6
AIGENLINE001
 62
     7
 10
143.45599999999999
 20
133.94900000000001
 30
0.0
 11
143.45599999999999
 21
132.148
 31
0.0
  0
LINE
  5
4D5
  8
_________1
  6
AIGENLINE001
 62
     7
 10
140.65600000000001
 20
133.94900000000001
 30
0.0
 11
140.65600000000001
 21
132.148
 31
0.0
  0
LINE
  5
4D6
  8
_________1
  6
AIGENLINE001
 62
     7
 10
129.55600000000001
 20
132.148
 30
0.0
 11
154.55600000000001
 21
132.148
 31
0.0
  0
LINE
  5
4D7
  8
_________1
  6
AIGENLINE001
 62
     7
 10
131.35599999999999
 20
132.148
 30
0.0
 11
131.35599999999999
 21
125.949
 31
0.0
  0
LINE
  5
4D8
  8
_________1
  6
AIGENLINE001
 62
     7
 10
75.4739
 20
126.06
 30
0.0
 11
75.429500000000004
 21
125.949
 31
0.0
  0
LINE
  5
4D9
  8
_________1
  6
AIGENLINE001
 62
     7
 10
81.724699999999999
 20
126.06
 30
0.0
 11
81.769199999999998
 21
125.949
 31
0.0
  0
ARC
  5
4DA
  8
_________1
  6
AIGENLINE001
 62
     7
 10
75.763085000000004
 20
125.932925
 30
0.0
 40
0.315983
 50
91.898516000000001
 51
156.23012
  0
ARC
  5
4DB
  8
_________1
  6
AIGENLINE001
 62
     7
 10
81.435963000000001
 20
125.933556
 30
0.0
 40
0.315349
 50
23.695243999999999
 51
88.110298999999983
  0
ARC
  5
4DC
  8
_________1
  6
AIGENLINE001
 62
     7
 10
73.213270999999992
 20
133.679361
 30
0.0
 40
1.0120690000000001
 50
4.185808999999999
 51
15.426375
  0
LINE
  5
4DD
  8
_________1
  6
AIGENLINE001
 62
     7
 10
83.095499999999987
 20
129.214
 30
0.0
 11
86.719800000000006
 21
133.94900000000001
 31
0.0
  0
ARC
  5
4DE
  8
_________1
  6
AIGENLINE001
 62
     7
 10
75.047043000000002
 20
129.36069699999999
 30
0.0
 40
0.504768
 50
184.34362400000001
 51
222.4000740000001
  0
LINE
  5
4DF
  8
_________1
  6
AIGENLINE001
 62
     7
 10
74.674300000000002
 20
129.02000000000001
 30
0.0
 11
75.200000000000003
 21
128.44900000000001
 31
0.0
  0
LINE
  5
4E0
  8
_________1
  6
AIGENLINE001
 62
     7
 10
80.800399999999996
 20
126.249
 30
0.0
 11
76.400300000000001
 21
126.249
 31
0.0
  0
ARC
  5
4E1
  8
_________1
  6
AIGENLINE001
 62
     7
 10
82.701098000000002
 20
129.51350299999999
 30
0.0
 40
0.4950880000000001
 50
303.91964200000001
 51
322.81702300000001
  0
LINE
  5
4E2
  8
_________1
  6
AIGENLINE001
 62
     7
 10
81.801599999999979
 20
126.249
 30
0.0
 11
80.800399999999996
 21
126.249
 31
0.0
  0
LINE
  5
4E3
  8
_________1
  6
AIGENLINE001
 62
     7
 10
82.977400000000003
 20
129.10300000000001
 30
0.0
 11
82.001400000000004
 21
128.44900000000001
 31
0.0
  0
LINE
  5
4E4
  8
_________1
  6
AIGENLINE001
 62
     7
 10
76.400300000000001
 20
126.249
 30
0.0
 11
75.399799999999985
 21
126.249
 31
0.0
  0
LINE
  5
4E5
  8
_________1
  6
AIGENLINE001
 62
     7
 10
74.543700000000001
 20
129.322
 30
0.0
 11
74.2226
 21
133.75299999999999
 31
0.0
  0
LINE
  5
4E6
  8
_________1
  6
AIGENLINE001
 62
     7
 10
75.200000000000003
 20
128.44900000000001
 30
0.0
 11
75.399799999999985
 21
126.249
 31
0.0
  0
LINE
  5
4E7
  8
_________1
  6
AIGENLINE001
 62
     7
 10
81.801599999999979
 20
126.249
 30
0.0
 11
82.001400000000004
 21
128.44900000000001
 31
0.0
  0
LINE
  5
4E8
  8
_________1
  6
AIGENLINE001
 62
     7
 10
103.05200000000001
 20
131.649
 30
0.0
 11
103.05200000000001
 21
125.949
 31
0.0
  0
LINE
  5
4E9
  8
_________1
  6
AIGENLINE001
 62
     7
 10
103.55200000000001
 20
131.649
 30
0.0
 11
103.55200000000001
 21
125.949
 31
0.0
  0
LINE
  5
4EA
  8
_________1
  6
AIGENLINE001
 62
     7
 10
101.803
 20
131.649
 30
0.0
 11
104.803
 21
131.649
 31
0.0
  0
LINE
  5
4EB
  8
_________1
  6
AIGENLINE001
 62
     7
 10
101.803
 20
132.148
 30
0.0
 11
101.803
 21
125.949
 31
0.0
  0
LINE
  5
4EC
  8
_________1
  6
AIGENLINE001
 62
     7
 10
50.652500000000003
 20
131.649
 30
0.0
 11
50.652500000000003
 21
125.949
 31
0.0
  0
LINE
  5
4ED
  8
_________1
  6
AIGENLINE001
 62
     7
 10
51.1524
 20
131.649
 30
0.0
 11
51.1524
 21
125.949
 31
0.0
  0
LINE
  5
4EE
  8
_________1
  6
AIGENLINE001
 62
     7
 10
49.40229999999999
 20
131.649
 30
0.0
 11
52.402299999999997
 21
131.649
 31
0.0
  0
LINE
  5
4EF
  8
_________1
  6
AIGENLINE001
 62
     7
 10
52.402299999999997
 20
132.148
 30
0.0
 11
52.402299999999997
 21
125.949
 31
0.0
  0
ARC
  5
4F0
  8
_________1
  6
AIGENLINE001
 62
     7
 10
103.988901
 20
129.13515599999999
 30
0.0
 40
0.363614
 50
2.1556790000000001
 51
87.844311000000005
  0
ARC
  5
4F1
  8
_________1
  6
AIGENLINE001
 62
     7
 10
104.016227
 20
129.134468
 30
0.0
 40
0.364301
 50
92.147170000000003
 51
177.740014
  0
ARC
  5
4F2
  8
_________1
  6
AIGENLINE001
 62
     7
 10
104.015916
 20
129.16252900000001
 30
0.0
 40
0.363964
 50
182.156542
 51
267.89985300000001
  0
ARC
  5
4F3
  8
_________1
  6
AIGENLINE001
 62
     7
 10
103.98888700000001
 20
129.16216700000001
 30
0.0
 40
0.363615
 50
272.15783399999998
 51
357.898597
  0
ARC
  5
4F4
  8
_________1
  6
AIGENLINE001
 62
     7
 10
102.58846200000001
 20
126.635049
 30
0.0
 40
0.364301
 50
2.149321
 51
87.794303999999997
  0
ARC
  5
4F5
  8
_________1
  6
AIGENLINE001
 62
     7
 10
102.61618900000001
 20
126.635363
 30
0.0
 40
0.363975
 50
92.158111000000005
 51
177.898225
  0
ARC
  5
4F6
  8
_________1
  6
AIGENLINE001
 62
     7
 10
102.616165
 20
126.66239400000001
 30
0.0
 40
0.363963
 50
182.15439599999991
 51
267.84563400000002
  0
ARC
  5
4F7
  8
_________1
  6
AIGENLINE001
 62
     7
 10
102.58880000000001
 20
126.66239400000001
 30
0.0
 40
0.363963
 50
272.15438599999999
 51
357.84562399999999
  0
ARC
  5
4F8
  8
_________1
  6
AIGENLINE001
 62
     7
 10
51.589393000000001
 20
129.135525
 30
0.0
 40
0.363219
 50
2.0998359999999998
 51
87.956575000000001
  0
ARC
  5
4F9
  8
_________1
  6
AIGENLINE001
 62
     7
 10
51.616002000000002
 20
129.134817
 30
0.0
 40
0.363952
 50
92.150605000000013
 51
177.79294400000001
  0
ARC
  5
4FA
  8
_________1
  6
AIGENLINE001
 62
     7
 10
51.615623999999997
 20
129.16211300000001
 30
0.0
 40
0.363546
 50
182.09342699999999
 51
267.9066029999999
  0
ARC
  5
4FB
  8
_________1
  6
AIGENLINE001
 62
     7
 10
51.588661999999999
 20
129.16251600000001
 30
0.0
 40
0.363963
 50
272.15438599999999
 51
357.84562399999999
  0
ARC
  5
4FC
  8
_________1
  6
AIGENLINE001
 62
     7
 10
50.188631000000001
 20
126.635465
 30
0.0
 40
0.363883
 50
2.0862080000000001
 51
87.800995
  0
ARC
  5
4FD
  8
_________1
  6
AIGENLINE001
 62
     7
 10
50.216299999999997
 20
126.635363
 30
0.0
 40
0.363975
 50
92.158111000000005
 51
177.898225
  0
ARC
  5
4FE
  8
_________1
  6
AIGENLINE001
 62
     7
 10
50.215883000000012
 20
126.662001
 30
0.0
 40
0.363557
 50
182.09490199999999
 51
267.90512799999999
  0
ARC
  5
4FF
  8
_________1
  6
AIGENLINE001
 62
     7
 10
50.188901999999999
 20
126.66204500000001
 30
0.0
 40
0.363615
 50
272.15783399999998
 51
357.898597
  0
LINE
  5
500
  8
_________1
  6
AIGENLINE001
 62
     7
 10
52.402299999999997
 20
221.398
 30
0.0
 11
52.402299999999997
 21
201.70699999999999
 31
0.0
  0
ARC
  5
501
  8
_________1
  6
AIGENLINE001
 62
     7
 10
50.902296999999997
 20
205.25373099999999
 30
0.0
 40
3.8512349999999991
 50
247.077459
 51
292.92256099999992
  0
ARC
  5
502
  8
_________1
  6
AIGENLINE001
 62
     7
 10
50.188969999999991
 20
217.38483099999999
 30
0.0
 40
0.363545
 50
2.091127999999999
 51
87.852440999999985
  0
ARC
  5
503
  8
_________1
  6
AIGENLINE001
 62
     7
 10
50.21549199999999
 20
217.385198
 30
0.0
 40
0.363151
 50
92.035419000000005
 51
177.964551
  0
ARC
  5
504
  8
_________1
  6
AIGENLINE001
 62
     7
 10
50.215883000000012
 20
217.41138599999999
 30
0.0
 40
0.363557
 50
182.09490199999999
 51
267.90512799999999
  0
ARC
  5
505
  8
_________1
  6
AIGENLINE001
 62
     7
 10
50.18968499999999
 20
217.41064700000001
 30
0.0
 40
0.362805
 50
272.03892400000001
 51
358.01750700000002
  0
ARC
  5
506
  8
_________1
  6
AIGENLINE001
 62
     7
 10
51.589055000000002
 20
212.384908
 30
0.0
 40
0.363557
 50
2.0948989999999998
 51
87.905091000000013
  0
ARC
  5
507
  8
_________1
  6
AIGENLINE001
 62
     7
 10
51.615242999999992
 20
212.385299
 30
0.0
 40
0.363151
 50
92.035419000000005
 51
177.964551
  0
ARC
  5
508
  8
_________1
  6
AIGENLINE001
 62
     7
 10
51.615634
 20
212.41148699999999
 30
0.0
 40
0.363557
 50
182.09490199999999
 51
267.90512799999999
  0
ARC
  5
509
  8
_________1
  6
AIGENLINE001
 62
     7
 10
51.589446000000002
 20
212.41109599999999
 30
0.0
 40
0.363151
 50
272.03545600000001
 51
357.96455400000002
  0
ARC
  5
50A
  8
_________1
  6
AIGENLINE001
 62
     7
 10
50.889006999999992
 20
203.88477
 30
0.0
 40
0.363557
 50
2.0948989999999998
 51
87.905091000000013
  0
ARC
  5
50B
  8
_________1
  6
AIGENLINE001
 62
     7
 10
50.915194999999997
 20
203.88516100000001
 30
0.0
 40
0.363151
 50
92.035419000000005
 51
177.964551
  0
ARC
  5
50C
  8
_________1
  6
AIGENLINE001
 62
     7
 10
50.91558599999999
 20
203.911349
 30
0.0
 40
0.363557
 50
182.09490199999999
 51
267.90512799999999
  0
ARC
  5
50D
  8
_________1
  6
AIGENLINE001
 62
     7
 10
50.889398
 20
203.91095799999999
 30
0.0
 40
0.363151
 50
272.03545600000001
 51
357.96455400000002
  0
LINE
  5
50E
  8
_________1
  6
AIGENLINE001
 62
     7
 10
101.803
 20
221.398
 30
0.0
 11
101.803
 21
201.70699999999999
 31
0.0
  0
ARC
  5
50F
  8
_________1
  6
AIGENLINE001
 62
     7
 10
103.30253
 20
205.19783799999999
 30
0.0
 40
3.799817
 50
246.74919800000001
 51
293.25082200000003
  0
ARC
  5
510
  8
_________1
  6
AIGENLINE001
 62
     7
 10
102.58880000000001
 20
217.38441399999999
 30
0.0
 40
0.363963
 50
2.1543759999999992
 51
87.845613999999983
  0
ARC
  5
511
  8
_________1
  6
AIGENLINE001
 62
     7
 10
102.615381
 20
217.385198
 30
0.0
 40
0.363151
 50
92.035419000000005
 51
177.964551
  0
ARC
  5
512
  8
_________1
  6
AIGENLINE001
 62
     7
 10
102.616165
 20
217.41177799999991
 30
0.0
 40
0.363963
 50
182.15439599999991
 51
267.84563400000002
  0
ARC
  5
513
  8
_________1
  6
AIGENLINE001
 62
     7
 10
102.589584
 20
217.41099399999999
 30
0.0
 40
0.363151
 50
272.03545600000001
 51
357.96455400000002
  0
ARC
  5
514
  8
_________1
  6
AIGENLINE001
 62
     7
 10
103.988562
 20
212.38453899999999
 30
0.0
 40
0.363952
 50
2.1506150000000002
 51
87.792953999999995
  0
ARC
  5
515
  8
_________1
  6
AIGENLINE001
 62
     7
 10
104.015467
 20
212.384951
 30
0.0
 40
0.363498
 50
92.031959000000015
 51
177.91164599999999
  0
ARC
  5
516
  8
_________1
  6
AIGENLINE001
 62
     7
 10
104.015927
 20
212.41190399999999
 30
0.0
 40
0.363975
 50
182.15815799999999
 51
267.89823799999999
  0
ARC
  5
517
  8
_________1
  6
AIGENLINE001
 62
     7
 10
103.98967
 20
212.41074800000001
 30
0.0
 40
0.362805
 50
272.03892400000001
 51
358.01750700000002
  0
ARC
  5
518
  8
_________1
  6
AIGENLINE001
 62
     7
 10
103.28851400000001
 20
203.88440199999999
 30
0.0
 40
0.363952
 50
2.1506150000000002
 51
87.792953999999995
  0
ARC
  5
519
  8
_________1
  6
AIGENLINE001
 62
     7
 10
103.315428
 20
203.88516100000001
 30
0.0
 40
0.363151
 50
92.035419000000005
 51
177.964551
  0
ARC
  5
51A
  8
_________1
  6
AIGENLINE001
 62
     7
 10
103.31621199999999
 20
203.911742
 30
0.0
 40
0.363963
 50
182.15439599999991
 51
267.84563400000002
  0
ARC
  5
51B
  8
_________1
  6
AIGENLINE001
 62
     7
 10
103.28962199999999
 20
203.91060999999999
 30
0.0
 40
0.362805
 50
272.03892400000001
 51
358.01750700000002
  0
LINE
  5
51C
  8
_________1
  6
AIGENLINE001
 62
     7
 10
92.602000000000004
 20
132.029
 30
0.0
 11
92.602000000000004
 21
131.869
 31
0.0
  0
LINE
  5
51D
  8
_________1
  6
AIGENLINE001
 62
     7
 10
96.601799999999997
 20
132.029
 30
0.0
 11
96.601799999999997
 21
131.869
 31
0.0
  0
LINE
  5
51E
  8
_________1
  6
AIGENLINE001
 62
     7
 10
94.677300000000017
 20
131.869
 30
0.0
 11
94.527100000000004
 21
131.869
 31
0.0
  0
LINE
  5
51F
  8
_________1
  6
AIGENLINE001
 62
     7
 10
94.217399999999984
 20
132.148
 30
0.0
 11
93.994200000000006
 21
132.148
 31
0.0
  0
LINE
  5
520
  8
_________1
  6
AIGENLINE001
 62
     7
 10
94.650800000000004
 20
132.029
 30
0.0
 11
94.553700000000006
 21
132.029
 31
0.0
  0
LINE
  5
521
  8
_________1
  6
AIGENLINE001
 62
     7
 10
94.173299999999983
 20
131.989
 30
0.0
 11
94.073400000000007
 21
131.989
 31
0.0
  0
LINE
  5
522
  8
_________1
  6
AIGENLINE001
 62
     7
 10
94.553700000000006
 20
132.029
 30
0.0
 11
94.1995
 21
132.148
 31
0.0
  0
LINE
  5
523
  8
_________1
  6
AIGENLINE001
 62
     7
 10
94.527100000000004
 20
131.869
 30
0.0
 11
94.169899999999998
 21
131.99000000000001
 31
0.0
  0
LINE
  5
524
  8
_________1
  6
AIGENLINE001
 62
     7
 10
95.004299999999986
 20
132.148
 30
0.0
 11
94.650800000000004
 21
132.029
 31
0.0
  0
LINE
  5
525
  8
_________1
  6
AIGENLINE001
 62
     7
 10
95.030499999999989
 20
131.989
 30
0.0
 11
94.677300000000017
 21
131.869
 31
0.0
  0
LINE
  5
526
  8
_________1
  6
AIGENLINE001
 62
     7
 10
93.739599999999996
 20
131.869
 30
0.0
 11
93.607299999999995
 21
131.869
 31
0.0
  0
LINE
  5
527
  8
_________1
  6
AIGENLINE001
 62
     7
 10
92.999899999999997
 20
131.869
 30
0.0
 11
92.914799999999985
 21
131.869
 31
0.0
  0
LINE
  5
528
  8
_________1
  6
AIGENLINE001
 62
     7
 10
92.627099999999999
 20
131.869
 30
0.0
 11
92.602000000000004
 21
131.869
 31
0.0
  0
LINE
  5
529
  8
_________1
  6
AIGENLINE001
 62
     7
 10
96.289599999999993
 20
131.869
 30
0.0
 11
96.204200000000014
 21
131.869
 31
0.0
  0
LINE
  5
52A
  8
_________1
  6
AIGENLINE001
 62
     7
 10
95.597499999999997
 20
131.869
 30
0.0
 11
95.464200000000005
 21
131.869
 31
0.0
  0
LINE
  5
52B
  8
_________1
  6
AIGENLINE001
 62
     7
 10
92.984099999999998
 20
132.036
 30
0.0
 11
92.928899999999985
 21
132.036
 31
0.0
  0
LINE
  5
52C
  8
_________1
  6
AIGENLINE001
 62
     7
 10
93.6297
 20
132.036
 30
0.0
 11
93.716099999999997
 21
132.036
 31
0.0
  0
LINE
  5
52D
  8
_________1
  6
AIGENLINE001
 62
     7
 10
95.488299999999995
 20
132.036
 30
0.0
 11
95.574100000000001
 21
132.036
 31
0.0
  0
LINE
  5
52E
  8
_________1
  6
AIGENLINE001
 62
     7
 10
96.220100000000016
 20
132.036
 30
0.0
 11
96.275199999999998
 21
132.036
 31
0.0
  0
LINE
  5
52F
  8
_________1
  6
AIGENLINE001
 62
     7
 10
94.073400000000007
 20
131.989
 30
0.0
 11
93.739599999999996
 21
131.869
 31
0.0
  0
LINE
  5
530
  8
_________1
  6
AIGENLINE001
 62
     7
 10
95.030499999999989
 20
131.989
 30
0.0
 11
95.130700000000004
 21
131.989
 31
0.0
  0
LINE
  5
531
  8
_________1
  6
AIGENLINE001
 62
     7
 10
94.986399999999989
 20
132.148
 30
0.0
 11
95.209599999999995
 21
132.148
 31
0.0
  0
LINE
  5
532
  8
_________1
  6
AIGENLINE001
 62
     7
 10
93.335800000000006
 20
132.148
 30
0.0
 11
93.217999999999989
 21
132.148
 31
0.0
  0
LINE
  5
533
  8
_________1
  6
AIGENLINE001
 62
     7
 10
92.761499999999984
 20
132.148
 30
0.0
 11
92.705299999999994
 21
132.148
 31
0.0
  0
LINE
  5
534
  8
_________1
  6
AIGENLINE001
 62
     7
 10
95.868700000000004
 20
132.148
 30
0.0
 11
95.986099999999979
 21
132.148
 31
0.0
  0
LINE
  5
535
  8
_________1
  6
AIGENLINE001
 62
     7
 10
96.442599999999999
 20
132.148
 30
0.0
 11
96.498400000000004
 21
132.148
 31
0.0
  0
LINE
  5
536
  8
_________1
  6
AIGENLINE001
 62
     7
 10
93.313800000000015
 20
131.99000000000001
 30
0.0
 11
93.238699999999994
 21
131.99000000000001
 31
0.0
  0
LINE
  5
537
  8
_________1
  6
AIGENLINE001
 62
     7
 10
92.750099999999989
 20
131.99000000000001
 30
0.0
 11
92.715000000000003
 21
131.99000000000001
 31
0.0
  0
LINE
  5
538
  8
_________1
  6
AIGENLINE001
 62
     7
 10
95.8904
 20
131.99000000000001
 30
0.0
 11
95.965100000000007
 21
131.99000000000001
 31
0.0
  0
LINE
  5
539
  8
_________1
  6
AIGENLINE001
 62
     7
 10
96.453999999999994
 20
131.99000000000001
 30
0.0
 11
96.489099999999993
 21
131.99000000000001
 31
0.0
  0
LINE
  5
53A
  8
_________1
  6
AIGENLINE001
 62
     7
 10
93.6297
 20
132.036
 30
0.0
 11
93.335800000000006
 21
132.148
 31
0.0
  0
LINE
  5
53B
  8
_________1
  6
AIGENLINE001
 62
     7
 10
93.217999999999989
 20
132.148
 30
0.0
 11
92.984099999999998
 21
132.036
 31
0.0
  0
LINE
  5
53C
  8
_________1
  6
AIGENLINE001
 62
     7
 10
92.705299999999994
 20
132.148
 30
0.0
 11
92.602000000000004
 21
132.029
 31
0.0
  0
LINE
  5
53D
  8
_________1
  6
AIGENLINE001
 62
     7
 10
92.715000000000003
 20
131.99000000000001
 30
0.0
 11
92.627099999999999
 21
131.869
 31
0.0
  0
LINE
  5
53E
  8
_________1
  6
AIGENLINE001
 62
     7
 10
92.928899999999985
 20
132.036
 30
0.0
 11
92.761499999999984
 21
132.148
 31
0.0
  0
LINE
  5
53F
  8
_________1
  6
AIGENLINE001
 62
     7
 10
92.750099999999989
 20
131.99000000000001
 30
0.0
 11
92.914799999999985
 21
131.869
 31
0.0
  0
LINE
  5
540
  8
_________1
  6
AIGENLINE001
 62
     7
 10
92.999899999999997
 20
131.869
 30
0.0
 11
93.238699999999994
 21
131.99000000000001
 31
0.0
  0
LINE
  5
541
  8
_________1
  6
AIGENLINE001
 62
     7
 10
93.313800000000015
 20
131.99000000000001
 30
0.0
 11
93.607299999999995
 21
131.869
 31
0.0
  0
LINE
  5
542
  8
_________1
  6
AIGENLINE001
 62
     7
 10
96.601799999999997
 20
132.029
 30
0.0
 11
96.498400000000004
 21
132.148
 31
0.0
  0
LINE
  5
543
  8
_________1
  6
AIGENLINE001
 62
     7
 10
96.442599999999999
 20
132.148
 30
0.0
 11
96.275199999999998
 21
132.036
 31
0.0
  0
LINE
  5
544
  8
_________1
  6
AIGENLINE001
 62
     7
 10
96.220100000000016
 20
132.036
 30
0.0
 11
95.986099999999979
 21
132.148
 31
0.0
  0
LINE
  5
545
  8
_________1
  6
AIGENLINE001
 62
     7
 10
95.868700000000004
 20
132.148
 30
0.0
 11
95.574100000000001
 21
132.036
 31
0.0
  0
LINE
  5
546
  8
_________1
  6
AIGENLINE001
 62
     7
 10
95.488299999999995
 20
132.036
 30
0.0
 11
95.156899999999993
 21
132.148
 31
0.0
  0
LINE
  5
547
  8
_________1
  6
AIGENLINE001
 62
     7
 10
95.130700000000004
 20
131.989
 30
0.0
 11
95.464200000000005
 21
131.869
 31
0.0
  0
LINE
  5
548
  8
_________1
  6
AIGENLINE001
 62
     7
 10
95.597499999999997
 20
131.869
 30
0.0
 11
95.8904
 21
131.99000000000001
 31
0.0
  0
LINE
  5
549
  8
_________1
  6
AIGENLINE001
 62
     7
 10
95.965100000000007
 20
131.99000000000001
 30
0.0
 11
96.204200000000014
 21
131.869
 31
0.0
  0
LINE
  5
54A
  8
_________1
  6
AIGENLINE001
 62
     7
 10
96.289599999999993
 20
131.869
 30
0.0
 11
96.453999999999994
 21
131.99000000000001
 31
0.0
  0
LINE
  5
54B
  8
_________1
  6
AIGENLINE001
 62
     7
 10
96.489099999999993
 20
131.99000000000001
 30
0.0
 11
96.577299999999994
 21
131.869
 31
0.0
  0
LINE
  5
54C
  8
_________1
  6
AIGENLINE001
 62
     7
 10
94.393500000000003
 20
131.869
 30
0.0
 11
94.296599999999998
 21
131.869
 31
0.0
  0
LINE
  5
54D
  8
_________1
  6
AIGENLINE001
 62
     7
 10
93.927300000000002
 20
131.869
 30
0.0
 11
93.852199999999996
 21
131.869
 31
0.0
  0
LINE
  5
54E
  8
_________1
  6
AIGENLINE001
 62
     7
 10
94.810299999999998
 20
131.869
 30
0.0
 11
94.907499999999999
 21
131.869
 31
0.0
  0
LINE
  5
54F
  8
_________1
  6
AIGENLINE001
 62
     7
 10
95.276799999999994
 20
131.869
 30
0.0
 11
95.351499999999987
 21
131.869
 31
0.0
  0
LINE
  5
550
  8
_________1
  6
AIGENLINE001
 62
     7
 10
95.276799999999994
 20
131.869
 30
0.0
 11
95.130700000000004
 21
131.989
 31
0.0
  0
LINE
  5
551
  8
_________1
  6
AIGENLINE001
 62
     7
 10
95.030499999999989
 20
131.989
 30
0.0
 11
94.907499999999999
 21
131.869
 31
0.0
  0
LINE
  5
552
  8
_________1
  6
AIGENLINE001
 62
     7
 10
94.393500000000003
 20
131.869
 30
0.0
 11
94.427199999999985
 21
131.90299999999999
 31
0.0
  0
LINE
  5
553
  8
_________1
  6
AIGENLINE001
 62
     7
 10
94.296599999999998
 20
131.869
 30
0.0
 11
94.173299999999983
 21
131.989
 31
0.0
  0
LINE
  5
554
  8
_________1
  6
AIGENLINE001
 62
     7
 10
94.073400000000007
 20
131.989
 30
0.0
 11
93.927300000000002
 21
131.869
 31
0.0
  0
LINE
  5
555
  8
_________1
  6
AIGENLINE001
 62
     7
 10
95.351499999999987
 20
131.869
 30
0.0
 11
95.376999999999995
 21
131.90000000000001
 31
0.0
  0
LINE
  5
556
  8
_________1
  6
AIGENLINE001
 62
     7
 10
94.776600000000002
 20
131.90299999999999
 30
0.0
 11
94.810299999999998
 21
131.869
 31
0.0
  0
LINE
  5
557
  8
_________1
  6
AIGENLINE001
 62
     7
 10
94.727599999999995
 20
132.148
 30
0.0
 11
94.475800000000007
 21
132.148
 31
0.0
  0
LINE
  5
558
  8
_________1
  6
AIGENLINE001
 62
     7
 10
95.211699999999993
 20
132.148
 30
0.0
 11
95.271299999999997
 21
132.11000000000001
 31
0.0
  0
LINE
  5
559
  8
_________1
  6
AIGENLINE001
 62
     7
 10
93.852199999999996
 20
131.869
 30
0.0
 11
93.825699999999983
 21
131.899
 31
0.0
  0
LINE
  5
55A
  8
_________1
  6
AIGENLINE001
 62
     7
 10
93.716099999999997
 20
132.036
 30
0.0
 11
93.994200000000006
 21
132.148
 31
0.0
  0
LINE
  5
55B
  8
_________1
  6
AIGENLINE001
 62
     7
 10
94.727599999999995
 20
132.148
 30
0.0
 11
94.782399999999996
 21
132.07400000000001
 31
0.0
  0
LINE
  5
55C
  8
_________1
  6
AIGENLINE001
 62
     7
 10
94.475800000000007
 20
132.148
 30
0.0
 11
94.421000000000006
 21
132.07400000000001
 31
0.0
  0
LINE
  5
55D
  8
_________1
  6
AIGENLINE001
 62
     7
 10
93.216899999999995
 20
131.28899999999999
 30
0.0
 11
93.216899999999995
 21
131.869
 31
0.0
  0
LINE
  5
55E
  8
_________1
  6
AIGENLINE001
 62
     7
 10
95.986799999999988
 20
131.28899999999999
 30
0.0
 11
95.986799999999988
 21
131.869
 31
0.0
  0
LINE
  5
55F
  8
_________1
  6
AIGENLINE001
 62
     7
 10
95.986799999999988
 20
131.869
 30
0.0
 11
95.597499999999997
 21
131.869
 31
0.0
  0
LINE
  5
560
  8
_________1
  6
AIGENLINE001
 62
     7
 10
95.597499999999997
 20
131.869
 30
0.0
 11
95.464200000000005
 21
131.869
 31
0.0
  0
LINE
  5
561
  8
_________1
  6
AIGENLINE001
 62
     7
 10
95.464200000000005
 20
131.869
 30
0.0
 11
95.351499999999987
 21
131.869
 31
0.0
  0
LINE
  5
562
  8
_________1
  6
AIGENLINE001
 62
     7
 10
95.351499999999987
 20
131.869
 30
0.0
 11
95.276799999999994
 21
131.869
 31
0.0
  0
LINE
  5
563
  8
_________1
  6
AIGENLINE001
 62
     7
 10
95.276799999999994
 20
131.869
 30
0.0
 11
94.907499999999999
 21
131.869
 31
0.0
  0
LINE
  5
564
  8
_________1
  6
AIGENLINE001
 62
     7
 10
94.907499999999999
 20
131.869
 30
0.0
 11
94.810299999999998
 21
131.869
 31
0.0
  0
LINE
  5
565
  8
_________1
  6
AIGENLINE001
 62
     7
 10
94.810299999999998
 20
131.869
 30
0.0
 11
94.677300000000017
 21
131.869
 31
0.0
  0
LINE
  5
566
  8
_________1
  6
AIGENLINE001
 62
     7
 10
94.677300000000017
 20
131.869
 30
0.0
 11
94.527100000000004
 21
131.869
 31
0.0
  0
LINE
  5
567
  8
_________1
  6
AIGENLINE001
 62
     7
 10
94.527100000000004
 20
131.869
 30
0.0
 11
94.393500000000003
 21
131.869
 31
0.0
  0
LINE
  5
568
  8
_________1
  6
AIGENLINE001
 62
     7
 10
94.393500000000003
 20
131.869
 30
0.0
 11
94.296599999999998
 21
131.869
 31
0.0
  0
LINE
  5
569
  8
_________1
  6
AIGENLINE001
 62
     7
 10
94.296599999999998
 20
131.869
 30
0.0
 11
93.927300000000002
 21
131.869
 31
0.0
  0
LINE
  5
56A
  8
_________1
  6
AIGENLINE001
 62
     7
 10
93.927300000000002
 20
131.869
 30
0.0
 11
93.852199999999996
 21
131.869
 31
0.0
  0
LINE
  5
56B
  8
_________1
  6
AIGENLINE001
 62
     7
 10
93.852199999999996
 20
131.869
 30
0.0
 11
93.739599999999996
 21
131.869
 31
0.0
  0
LINE
  5
56C
  8
_________1
  6
AIGENLINE001
 62
     7
 10
93.739599999999996
 20
131.869
 30
0.0
 11
93.607299999999995
 21
131.869
 31
0.0
  0
LINE
  5
56D
  8
_________1
  6
AIGENLINE001
 62
     7
 10
93.607299999999995
 20
131.869
 30
0.0
 11
93.216899999999995
 21
131.869
 31
0.0
  0
LINE
  5
56E
  8
_________1
  6
AIGENLINE001
 62
     7
 10
95.986799999999988
 20
131.28899999999999
 30
0.0
 11
93.216899999999995
 21
131.28899999999999
 31
0.0
  0
LINE
  5
56F
  8
_________1
  6
AIGENLINE001
 62
     7
 10
95.649899999999988
 20
131.869
 30
0.0
 11
95.597499999999997
 21
131.869
 31
0.0
  0
LINE
  5
570
  8
_________1
  6
AIGENLINE001
 62
     7
 10
95.597499999999997
 20
131.869
 30
0.0
 11
95.464200000000005
 21
131.869
 31
0.0
  0
LINE
  5
571
  8
_________1
  6
AIGENLINE001
 62
     7
 10
95.464200000000005
 20
131.869
 30
0.0
 11
95.351499999999987
 21
131.869
 31
0.0
  0
LINE
  5
572
  8
_________1
  6
AIGENLINE001
 62
     7
 10
95.351499999999987
 20
131.869
 30
0.0
 11
95.276799999999994
 21
131.869
 31
0.0
  0
LINE
  5
573
  8
_________1
  6
AIGENLINE001
 62
     7
 10
95.276799999999994
 20
131.869
 30
0.0
 11
94.907499999999999
 21
131.869
 31
0.0
  0
LINE
  5
574
  8
_________1
  6
AIGENLINE001
 62
     7
 10
94.907499999999999
 20
131.869
 30
0.0
 11
94.810299999999998
 21
131.869
 31
0.0
  0
LINE
  5
575
  8
_________1
  6
AIGENLINE001
 62
     7
 10
94.810299999999998
 20
131.869
 30
0.0
 11
94.677300000000017
 21
131.869
 31
0.0
  0
LINE
  5
576
  8
_________1
  6
AIGENLINE001
 62
     7
 10
94.677300000000017
 20
131.869
 30
0.0
 11
94.527100000000004
 21
131.869
 31
0.0
  0
LINE
  5
577
  8
_________1
  6
AIGENLINE001
 62
     7
 10
94.527100000000004
 20
131.869
 30
0.0
 11
94.393500000000003
 21
131.869
 31
0.0
  0
LINE
  5
578
  8
_________1
  6
AIGENLINE001
 62
     7
 10
94.393500000000003
 20
131.869
 30
0.0
 11
94.296599999999998
 21
131.869
 31
0.0
  0
LINE
  5
579
  8
_________1
  6
AIGENLINE001
 62
     7
 10
94.296599999999998
 20
131.869
 30
0.0
 11
93.927300000000002
 21
131.869
 31
0.0
  0
LINE
  5
57A
  8
_________1
  6
AIGENLINE001
 62
     7
 10
93.927300000000002
 20
131.869
 30
0.0
 11
93.852199999999996
 21
131.869
 31
0.0
  0
LINE
  5
57B
  8
_________1
  6
AIGENLINE001
 62
     7
 10
93.852199999999996
 20
131.869
 30
0.0
 11
93.739599999999996
 21
131.869
 31
0.0
  0
LINE
  5
57C
  8
_________1
  6
AIGENLINE001
 62
     7
 10
93.739599999999996
 20
131.869
 30
0.0
 11
93.607299999999995
 21
131.869
 31
0.0
  0
LINE
  5
57D
  8
_________1
  6
AIGENLINE001
 62
     7
 10
93.607299999999995
 20
131.869
 30
0.0
 11
93.554199999999994
 21
131.869
 31
0.0
  0
LINE
  5
57E
  8
_________1
  6
AIGENLINE001
 62
     7
 10
93.554199999999994
 20
131.28899999999999
 30
0.0
 11
95.649899999999988
 21
131.28899999999999
 31
0.0
  0
LINE
  5
57F
  8
_________1
  6
AIGENLINE001
 62
     7
 10
93.909400000000005
 20
131.28899999999999
 30
0.0
 11
93.909400000000005
 21
131.869
 31
0.0
  0
LINE
  5
580
  8
_________1
  6
AIGENLINE001
 62
     7
 10
95.295400000000001
 20
131.28899999999999
 30
0.0
 11
95.295400000000001
 21
131.869
 31
0.0
  0
LINE
  5
581
  8
_________1
  6
AIGENLINE001
 62
     7
 10
93.402000000000015
 20
133.54900000000001
 30
0.0
 11
93.402000000000015
 21
133.94900000000001
 31
0.0
  0
LINE
  5
582
  8
_________1
  6
AIGENLINE001
 62
     7
 10
95.8018
 20
133.54900000000001
 30
0.0
 11
95.8018
 21
133.94900000000001
 31
0.0
  0
LINE
  5
583
  8
_________1
  6
AIGENLINE001
 62
     7
 10
95.8018
 20
133.54900000000001
 30
0.0
 11
93.402000000000015
 21
133.54900000000001
 31
0.0
  0
LINE
  5
584
  8
_________1
  6
AIGENLINE001
 62
     7
 10
95.019400000000005
 20
133.54900000000001
 30
0.0
 11
95.019400000000005
 21
133.94900000000001
 31
0.0
  0
LINE
  5
585
  8
_________1
  6
AIGENLINE001
 62
     7
 10
94.184700000000007
 20
133.54900000000001
 30
0.0
 11
94.184700000000007
 21
133.94900000000001
 31
0.0
  0
LINE
  5
586
  8
_________1
  6
AIGENLINE001
 62
     7
 10
93.670299999999983
 20
129.76300000000001
 30
0.0
 11
93.670299999999983
 21
131.28899999999999
 31
0.0
  0
LINE
  5
587
  8
_________1
  6
AIGENLINE001
 62
     7
 10
93.670299999999983
 20
132.036
 30
0.0
 11
93.670299999999983
 21
133.54900000000001
 31
0.0
  0
LINE
  5
588
  8
_________1
  6
AIGENLINE001
 62
     7
 10
95.533799999999999
 20
133.54900000000001
 30
0.0
 11
95.533799999999999
 21
132.036
 31
0.0
  0
LINE
  5
589
  8
_________1
  6
AIGENLINE001
 62
     7
 10
95.533799999999999
 20
131.28899999999999
 30
0.0
 11
95.533799999999999
 21
129.76300000000001
 31
0.0
  0
LINE
  5
58A
  8
_________1
  6
AIGENLINE001
 62
     7
 10
93.554199999999994
 20
129.76300000000001
 30
0.0
 11
93.554199999999994
 21
131.28899999999999
 31
0.0
  0
LINE
  5
58B
  8
_________1
  6
AIGENLINE001
 62
     7
 10
93.554199999999994
 20
132.065
 30
0.0
 11
93.554199999999994
 21
133.54900000000001
 31
0.0
  0
LINE
  5
58C
  8
_________1
  6
AIGENLINE001
 62
     7
 10
95.649899999999988
 20
133.54900000000001
 30
0.0
 11
95.649899999999988
 21
132.065
 31
0.0
  0
LINE
  5
58D
  8
_________1
  6
AIGENLINE001
 62
     7
 10
95.649899999999988
 20
131.28899999999999
 30
0.0
 11
95.649899999999988
 21
129.76300000000001
 31
0.0
  0
LINE
  5
58E
  8
_________1
  6
AIGENLINE001
 62
     7
 10
49.40229999999999
 20
198.19800000000001
 30
0.0
 11
104.803
 21
198.19800000000001
 31
0.0
  0
LINE
  5
58F
  8
_________1
  6
AIGENLINE001
 62
     7
 10
47.602200000000003
 20
132.148
 30
0.0
 11
106.602
 21
132.148
 31
0.0
  0
LINE
  5
590
  8
_________1
  6
AIGENLINE001
 62
     7
 10
96.002700000000004
 20
133.94900000000001
 30
0.0
 11
96.002700000000004
 21
132.148
 31
0.0
  0
LINE
  5
591
  8
_________1
  6
AIGENLINE001
 62
     7
 10
93.202499999999986
 20
133.94900000000001
 30
0.0
 11
93.202499999999986
 21
132.148
 31
0.0
  0
LINE
  5
592
  8
_________1
  6
AIGENLINE001
 62
     7
 10
87.601799999999997
 20
133.94900000000001
 30
0.0
 11
87.601799999999997
 21
132.148
 31
0.0
  0
LINE
  5
593
  8
_________1
  6
AIGENLINE001
 62
     7
 10
72.601699999999994
 20
133.94900000000001
 30
0.0
 11
72.601699999999994
 21
132.148
 31
0.0
  0
LINE
  5
594
  8
_________1
  6
AIGENLINE001
 62
     7
 10
104.803
 20
221.398
 30
0.0
 11
104.803
 21
196.398
 31
0.0
  0
LINE
  5
595
  8
_________1
  6
AIGENLINE001
 62
     7
 10
49.40229999999999
 20
221.398
 30
0.0
 11
49.40229999999999
 21
196.398
 31
0.0
  0
LINE
  5
596
  8
_________1
  6
AIGENLINE001
 62
     7
 10
104.803
 20
132.148
 30
0.0
 11
104.803
 21
125.949
 31
0.0
  0
LINE
  5
597
  8
_________1
  6
AIGENLINE001
 62
     7
 10
49.40229999999999
 20
132.148
 30
0.0
 11
49.40229999999999
 21
125.949
 31
0.0
  0
LINE
  5
598
  8
_________1
 62
     7
 10
143.45599999999999
 20
139.94900000000001
 30
0.0
 11
150.85900000000001
 21
139.94900000000001
 31
0.0
  0
LINE
  5
599
  8
_________1
 62
     7
 10
133.25299999999999
 20
139.94900000000001
 30
0.0
 11
140.65600000000001
 21
139.94900000000001
 31
0.0
  0
LINE
  5
59A
  8
_________1
 62
     7
 10
151.15600000000001
 20
133.94900000000001
 30
0.0
 11
151.059
 21
139.75200000000001
 31
0.0
  0
LINE
  5
59B
  8
_________1
 62
     7
 10
132.95599999999999
 20
133.94900000000001
 30
0.0
 11
133.053
 21
139.75200000000001
 31
0.0
  0
ARC
  5
59C
  8
_________1
 62
     7
 10
150.84465499999999
 20
139.73386599999989
 30
0.0
 40
0.215562
 50
4.8832000000000004
 51
86.111482999999993
  0
ARC
  5
59D
  8
_________1
 62
     7
 10
133.26693299999999
 20
139.73424
 30
0.0
 40
0.215189
 50
93.895689000000019
 51
175.20827600000001
  0
LINE
  5
59E
  8
_________1
 62
     7
 10
140.70599999999999
 20
154.84899999999999
 30
0.0
 11
143.40600000000001
 21
154.84899999999999
 31
0.0
  0
LINE
  5
59F
  8
_________1
 62
     7
 10
140.65600000000001
 20
154.74799999999999
 30
0.0
 11
140.65600000000001
 21
154.79900000000001
 31
0.0
  0
LINE
  5
5A0
  8
_________1
 62
     7
 10
140.65600000000001
 20
154.74799999999999
 30
0.0
 11
143.45599999999999
 21
154.74799999999999
 31
0.0
  0
LINE
  5
5A1
  8
_________1
 62
     7
 10
143.45599999999999
 20
154.74799999999999
 30
0.0
 11
143.45599999999999
 21
154.79900000000001
 31
0.0
  0
ARC
  5
5A2
  8
_________1
 62
     7
 10
143.40201999999999
 20
154.79502199999999
 30
0.0
 40
0.053827
 50
3.987109999999999
 51
86.012880000000024
  0
ARC
  5
5A3
  8
_________1
 62
     7
 10
140.709856
 20
154.79470599999999
 30
0.0
 40
0.054139
 50
93.905691999999988
 51
175.70049399999999
  0
LINE
  5
5A4
  8
_________1
 62
     7
 10
143.85599999999999
 20
134.048
 30
0.0
 11
143.85599999999999
 21
133.94900000000001
 31
0.0
  0
LINE
  5
5A5
  8
_________1
 62
     7
 10
140.256
 20
134.048
 30
0.0
 11
143.85599999999999
 21
134.048
 31
0.0
  0
LINE
  5
5A6
  8
_________1
 62
     7
 10
140.256
 20
134.048
 30
0.0
 11
140.256
 21
133.94900000000001
 31
0.0
  0
LINE
  5
5A7
  8
_________1
 62
     7
 10
140.65600000000001
 20
154.74799999999999
 30
0.0
 11
140.65600000000001
 21
152.71899999999999
 31
0.0
  0
LINE
  5
5A8
  8
_________1
 62
     7
 10
143.45599999999999
 20
154.74799999999999
 30
0.0
 11
140.65600000000001
 21
154.74799999999999
 31
0.0
  0
LINE
  5
5A9
  8
_________1
 62
     7
 10
143.42599999999999
 20
152.68899999999999
 30
0.0
 11
140.68600000000001
 21
152.68899999999999
 31
0.0
  0
LINE
  5
5AA
  8
_________1
 62
     7
 10
143.45599999999999
 20
154.74799999999999
 30
0.0
 11
143.45599999999999
 21
152.71899999999999
 31
0.0
  0
ARC
  5
5AB
  8
_________1
 62
     7
 10
140.68760700000001
 20
152.72036800000001
 30
0.0
 40
0.031787
 50
183.18321299999999
 51
266.81681600000002
  0
ARC
  5
5AC
  8
_________1
 62
     7
 10
143.423597
 20
152.72075100000001
 30
0.0
 40
0.032192
 50
273.824724
 51
356.17528600000003
  0
LINE
  5
5AD
  8
_________1
 62
     7
 10
143.25200000000001
 20
152.59899999999999
 30
0.0
 11
140.86000000000001
 21
152.59899999999999
 31
0.0
  0
LINE
  5
5AE
  8
_________1
 62
     7
 10
142.17500000000001
 20
152.649
 30
0.0
 11
142.17500000000001
 21
152.68899999999999
 31
0.0
  0
LINE
  5
5AF
  8
_________1
 62
     7
 10
141.93700000000001
 20
152.649
 30
0.0
 11
141.93700000000001
 21
152.68899999999999
 31
0.0
  0
LINE
  5
5B0
  8
_________1
 62
     7
 10
143.10599999999999
 20
152.649
 30
0.0
 11
143.10599999999999
 21
152.68899999999999
 31
0.0
  0
LINE
  5
5B1
  8
_________1
 62
     7
 10
141.006
 20
152.649
 30
0.0
 11
141.006
 21
152.68899999999999
 31
0.0
  0
ARC
  5
5B2
  8
_________1
 62
     7
 10
142.58082899999999
 20
157.60255100000001
 30
0.0
 40
4.9540129999999989
 50
265.29905099999991
 51
274.70096899999999
  0
ARC
  5
5B3
  8
_________1
 62
     7
 10
141.530585
 20
157.612988
 30
0.0
 40
4.9644289999999991
 50
265.30694199999999
 51
274.69307800000001
  0
LINE
  5
5B4
  8
_________1
 62
     7
 10
143.20599999999999
 20
152.59899999999999
 30
0.0
 11
143.20599999999999
 21
152.649
 31
0.0
  0
LINE
  5
5B5
  8
_________1
 62
     7
 10
140.90600000000001
 20
152.59899999999999
 30
0.0
 11
140.90600000000001
 21
152.649
 31
0.0
  0
LINE
  5
5B6
  8
_________1
 62
     7
 10
143.20599999999999
 20
152.649
 30
0.0
 11
142.17500000000001
 21
152.649
 31
0.0
  0
LINE
  5
5B7
  8
_________1
 62
     7
 10
141.93700000000001
 20
152.649
 30
0.0
 11
140.90600000000001
 21
152.649
 31
0.0
  0
LINE
  5
5B8
  8
_________1
 62
     7
 10
140.65600000000001
 20
141.34899999999999
 30
0.0
 11
140.65600000000001
 21
152.59899999999999
 31
0.0
  0
LINE
  5
5B9
  8
_________1
 62
     7
 10
143.45599999999999
 20
141.34899999999999
 30
0.0
 11
143.45599999999999
 21
152.59899999999999
 31
0.0
  0
LINE
  5
5BA
  8
_________1
 62
     7
 10
140.65600000000001
 20
152.59899999999999
 30
0.0
 11
143.45599999999999
 21
152.59899999999999
 31
0.0
  0
LINE
  5
5BB
  8
_________1
 62
     7
 10
140.65600000000001
 20
141.34899999999999
 30
0.0
 11
143.45599999999999
 21
141.34899999999999
 31
0.0
  0
LINE
  5
5BC
  8
_________1
 62
     7
 10
144.05600000000001
 20
134.048
 30
0.0
 11
144.05600000000001
 21
134.29900000000001
 31
0.0
  0
ARC
  5
5BD
  8
_________1
 62
     7
 10
144.00247300000001
 20
134.295118
 30
0.0
 40
0.05352
 50
4.0943160000000001
 51
86.695948999999985
  0
LINE
  5
5BE
  8
_________1
 62
     7
 10
144.05600000000001
 20
134.048
 30
0.0
 11
143.85599999999999
 21
134.048
 31
0.0
  0
LINE
  5
5BF
  8
_________1
 62
     7
 10
143.85599999999999
 20
134.048
 30
0.0
 11
140.256
 21
134.048
 31
0.0
  0
LINE
  5
5C0
  8
_________1
 62
     7
 10
140.256
 20
134.048
 30
0.0
 11
140.05600000000001
 21
134.048
 31
0.0
  0
LINE
  5
5C1
  8
_________1
 62
     7
 10
140.05600000000001
 20
134.048
 30
0.0
 11
140.05600000000001
 21
134.29900000000001
 31
0.0
  0
ARC
  5
5C2
  8
_________1
 62
     7
 10
140.109476
 20
134.29477499999999
 30
0.0
 40
0.053907
 50
94.033461999999986
 51
175.569999
  0
LINE
  5
5C3
  8
_________1
 62
     7
 10
144.006
 20
134.34899999999999
 30
0.0
 11
140.10599999999999
 21
134.34899999999999
 31
0.0
  0
LINE
  5
5C4
  8
_________1
 62
     7
 10
140.65600000000001
 20
134.34899999999999
 30
0.0
 11
140.65600000000001
 21
141.34899999999999
 31
0.0
  0
LINE
  5
5C5
  8
_________1
 62
     7
 10
143.45599999999999
 20
134.34899999999999
 30
0.0
 11
143.45599999999999
 21
141.34899999999999
 31
0.0
  0
LINE
  5
5C6
  8
_________1
 62
     7
 10
140.65600000000001
 20
134.34899999999999
 30
0.0
 11
143.45599999999999
 21
134.34899999999999
 31
0.0
  0
LINE
  5
5C7
  8
_________1
 62
     7
 10
140.65600000000001
 20
141.34899999999999
 30
0.0
 11
143.45599999999999
 21
141.34899999999999
 31
0.0
  0
LINE
  5
5C8
  8
_________1
 62
     7
 10
60.796000000000006
 20
139.94900000000001
 30
0.0
 11
90.404399999999995
 21
139.94900000000001
 31
0.0
  0
ARC
  5
5C9
  8
_________1
 62
     7
 10
90.396291000000005
 20
139.741243
 30
0.0
 40
0.207845
 50
3.1211880000000001
 51
87.776368000000005
  0
LINE
  5
5CA
  8
_________1
 62
     7
 10
90.700599999999994
 20
133.94900000000001
 30
0.0
 11
90.603800000000007
 21
139.75299999999999
 31
0.0
  0
ARC
  5
5CB
  8
_________1
 62
     7
 10
60.803013
 20
139.74193199999999
 30
0.0
 40
0.207118
 50
91.944744999999983
 51
177.05880199999999
  0
LINE
  5
5CC
  8
_________1
 62
     7
 10
60.596200000000003
 20
139.75299999999999
 30
0.0
 11
60.499400000000001
 21
133.94900000000001
 31
0.0
  0
LINE
  5
5CD
  8
_________1
 62
     7
 10
90.702000000000012
 20
209.87299999999999
 30
0.0
 11
90.702000000000012
 21
217.69900000000001
 31
0.0
  0
ARC
  5
5CE
  8
_________1
 62
     7
 10
60.99859
 20
217.248726
 30
0.0
 40
0.2922820000000001
 50
99.162548000000015
 51
108.065794
  0
ARC
  5
5CF
  8
_________1
 62
     7
 10
61.056793999999989
 20
216.840565
 30
0.0
 40
0.7045430000000001
 50
92.355243999999999
 51
98.549978999999993
  0
ARC
  5
5D0
  8
_________1
 62
     7
 10
61.084181000000008
 20
216.21247399999999
 30
0.0
 40
1.3332310000000001
 50
89.119555000000005
 51
92.421922999999992
  0
ARC
  5
5D1
  8
_________1
 62
     7
 10
60.819405000000003
 20
204.32326699999999
 30
0.0
 40
13.225357000000001
 50
88.571477000000002
 51
88.764064000000005
  0
ARC
  5
5D2
  8
_________1
 62
     7
 10
61.126486999999997
 20
216.441091
 30
0.0
 40
1.1036539999999999
 50
86.301193000000026
 51
88.825492000000011
  0
ARC
  5
5D3
  8
_________1
 62
     7
 10
61.106580000000001
 20
215.71474699999999
 30
0.0
 40
1.829969
 50
85.470877999999985
 51
87.146331000000004
  0
ARC
  5
5D4
  8
_________1
 62
     7
 10
61.087223999999999
 20
215.04520099999999
 30
0.0
 40
2.4991779999999988
 50
84.909756999999985
 51
86.240655000000004
  0
LINE
  5
5D5
  8
_________1
 62
     7
 10
61.371000000000002
 20
217.529
 30
0.0
 11
61.308999999999997
 21
217.535
 31
0.0
  0
ARC
  5
5D6
  8
_________1
 62
     7
 10
60.870328000000001
 20
205.32788600000001
 30
0.0
 40
5.0843109999999996
 50
273.98731900000001
 51
275.65102100000001
  0
LINE
  5
5D7
  8
_________1
 62
     7
 10
61.104700000000001
 20
200.251
 30
0.0
 11
61.2239
 21
200.256
 31
0.0
  0
LINE
  5
5D8
  8
_________1
 62
     7
 10
61.040900000000001
 20
200.25200000000001
 30
0.0
 11
61.104700000000001
 21
200.251
 31
0.0
  0
LINE
  5
5D9
  8
_________1
 62
     7
 10
60.989600000000003
 20
200.255
 30
0.0
 11
61.040900000000001
 21
200.25200000000001
 31
0.0
  0
LINE
  5
5DA
  8
_________1
 62
     7
 10
60.948599999999999
 20
200.25999999999999
 30
0.0
 11
60.989600000000003
 21
200.255
 31
0.0
  0
ARC
  5
5DB
  8
_________1
 62
     7
 10
60.993917000000003
 20
200.54672199999999
 30
0.0
 40
0.289925
 50
254.31374700000001
 51
261.00810100000001
  0
ARC
  5
5DC
  8
_________1
 62
     7
 10
90.151876999999999
 20
217.223433
 30
0.0
 40
0.311478
 50
94.767341000000016
 51
101.49284299999999
  0
ARC
  5
5DD
  8
_________1
 62
     7
 10
90.147800000000004
 20
217.264937
 30
0.0
 40
0.26978
 50
87.826896000000005
 51
94.637038999999973
  0
ARC
  5
5DE
  8
_________1
 62
     7
 10
90.144160999999997
 20
217.368146
 30
0.0
 40
0.166954
 50
75.387543999999991
 51
85.234864999999999
  0
ARC
  5
5DF
  8
_________1
 62
     7
 10
90.164707999999976
 20
217.44866400000001
 30
0.0
 40
0.08642
 50
17.209804999999999
 51
37.647671000000003
  0
ARC
  5
5E0
  8
_________1
 62
     7
 10
90.157762000000005
 20
200.35154600000001
 30
0.0
 40
0.094132
 50
323.19743299999999
 51
341.94508999999999
  0
LINE
  5
5E1
  8
_________1
 62
     7
 10
60.8645
 20
208.898
 30
0.0
 11
60.8645
 21
200.315
 31
0.0
  0
LINE
  5
5E2
  8
_________1
 62
     7
 10
60.8645
 20
217.482
 30
0.0
 11
60.8645
 21
208.898
 31
0.0
  0
LINE
  5
5E3
  8
_________1
 62
     7
 10
60.5944
 20
200.19499999999999
 30
0.0
 11
60.599299999999999
 21
217.602
 31
0.0
  0
LINE
  5
5E4
  8
_________1
 62
     7
 10
90.246200000000002
 20
210.78999999999999
 30
0.0
 11
90.246200000000002
 21
209.87299999999999
 31
0.0
  0
LINE
  5
5E5
  8
_________1
 62
     7
 10
90.246200000000002
 20
211.73599999999999
 30
0.0
 11
90.246200000000002
 21
210.78999999999999
 31
0.0
  0
LINE
  5
5E6
  8
_________1
 62
     7
 10
90.246200000000002
 20
212.68199999999999
 30
0.0
 11
90.246200000000002
 21
211.73599999999999
 31
0.0
  0
ARC
  5
5E7
  8
_________1
 62
     7
 10
736.33993699999985
 20
213.15543400000001
 30
0.0
 40
646.09354199999996
 50
179.95800299999999
 51
180.04199700000001
  0
ARC
  5
5E8
  8
_________1
 62
     7
 10
-124.407258
 20
214.101463
 30
0.0
 40
214.65400399999999
 50
359.87374199999999
 51
0.126258
  0
ARC
  5
5E9
  8
_________1
 62
     7
 10
182.23039600000001
 20
215.047493
 30
0.0
 40
91.985387000000003
 50
179.70534799999999
 51
180.29465200000001
  0
ARC
  5
5EA
  8
_________1
 62
     7
 10
66.396804000000003
 20
215.99352200000001
 30
0.0
 40
23.854111
 50
358.86378000000002
 51
1.13622
  0
ARC
  5
5EB
  8
_________1
 62
     7
 10
113.898245
 20
217.06536199999999
 30
0.0
 40
23.659600000000001
 50
179.99429599999999
 51
181.450334
  0
ARC
  5
5EC
  8
_________1
 62
     7
 10
97.650406000000004
 20
217.06747200000001
 30
0.0
 40
7.411760000000001
 50
177.40862200000001
 51
179.99814499999999
  0
ARC
  5
5ED
  8
_________1
 62
     7
 10
90.071752000000004
 20
1100.1080400000001
 30
0.0
 40
882.58006300000011
 50
269.94938500000001
 51
270.00019900000001
  0
LINE
  5
5EE
  8
_________1
 62
     7
 10
88.494000000000014
 20
217.52799999999999
 30
0.0
 11
89.291899999999998
 21
217.52799999999999
 31
0.0
  0
LINE
  5
5EF
  8
_________1
 62
     7
 10
87.6965
 20
217.52799999999999
 30
0.0
 11
88.494000000000014
 21
217.52799999999999
 31
0.0
  0
LINE
  5
5F0
  8
_________1
 62
     7
 10
86.898600000000016
 20
217.52799999999999
 30
0.0
 11
87.6965
 21
217.52799999999999
 31
0.0
  0
LINE
  5
5F1
  8
_________1
 62
     7
 10
86.101100000000002
 20
217.52799999999999
 30
0.0
 11
86.898600000000016
 21
217.52799999999999
 31
0.0
  0
LINE
  5
5F2
  8
_________1
 62
     7
 10
85.303200000000004
 20
217.52799999999999
 30
0.0
 11
86.101100000000002
 21
217.52799999999999
 31
0.0
  0
LINE
  5
5F3
  8
_________1
 62
     7
 10
84.505600000000015
 20
217.52799999999999
 30
0.0
 11
85.303200000000004
 21
217.52799999999999
 31
0.0
  0
LINE
  5
5F4
  8
_________1
 62
     7
 10
83.707700000000003
 20
217.52799999999999
 30
0.0
 11
84.505600000000015
 21
217.52799999999999
 31
0.0
  0
LINE
  5
5F5
  8
_________1
 62
     7
 10
82.910200000000003
 20
217.52799999999999
 30
0.0
 11
83.707700000000003
 21
217.52799999999999
 31
0.0
  0
LINE
  5
5F6
  8
_________1
 62
     7
 10
82.112300000000005
 20
217.529
 30
0.0
 11
82.910200000000003
 21
217.52799999999999
 31
0.0
  0
LINE
  5
5F7
  8
_________1
 62
     7
 10
81.314400000000006
 20
217.529
 30
0.0
 11
82.112300000000005
 21
217.529
 31
0.0
  0
LINE
  5
5F8
  8
_________1
 62
     7
 10
80.516900000000007
 20
217.529
 30
0.0
 11
81.314400000000006
 21
217.529
 31
0.0
  0
LINE
  5
5F9
  8
_________1
 62
     7
 10
79.718999999999994
 20
217.529
 30
0.0
 11
80.516900000000007
 21
217.529
 31
0.0
  0
LINE
  5
5FA
  8
_________1
 62
     7
 10
78.921400000000006
 20
217.529
 30
0.0
 11
79.718999999999994
 21
217.529
 31
0.0
  0
LINE
  5
5FB
  8
_________1
 62
     7
 10
78.123500000000007
 20
217.529
 30
0.0
 11
78.921400000000006
 21
217.529
 31
0.0
  0
LINE
  5
5FC
  8
_________1
 62
     7
 10
77.326000000000008
 20
217.529
 30
0.0
 11
78.123500000000007
 21
217.529
 31
0.0
  0
LINE
  5
5FD
  8
_________1
 62
     7
 10
76.528099999999995
 20
217.529
 30
0.0
 11
77.326000000000008
 21
217.529
 31
0.0
  0
LINE
  5
5FE
  8
_________1
 62
     7
 10
75.730199999999996
 20
217.529
 30
0.0
 11
76.528099999999995
 21
217.529
 31
0.0
  0
LINE
  5
5FF
  8
_________1
 62
     7
 10
74.932699999999997
 20
217.529
 30
0.0
 11
75.730199999999996
 21
217.529
 31
0.0
  0
LINE
  5
600
  8
_________1
 62
     7
 10
74.134799999999984
 20
217.529
 30
0.0
 11
74.932699999999997
 21
217.529
 31
0.0
  0
LINE
  5
601
  8
_________1
 62
     7
 10
73.337199999999996
 20
217.529
 30
0.0
 11
74.134799999999984
 21
217.529
 31
0.0
  0
LINE
  5
602
  8
_________1
 62
     7
 10
72.539400000000001
 20
217.529
 30
0.0
 11
73.337199999999996
 21
217.529
 31
0.0
  0
LINE
  5
603
  8
_________1
 62
     7
 10
71.741500000000002
 20
217.529
 30
0.0
 11
72.539400000000001
 21
217.529
 31
0.0
  0
LINE
  5
604
  8
_________1
 62
     7
 10
70.943899999999999
 20
217.529
 30
0.0
 11
71.741500000000002
 21
217.529
 31
0.0
  0
LINE
  5
605
  8
_________1
 62
     7
 10
70.146399999999986
 20
217.529
 30
0.0
 11
70.943899999999999
 21
217.529
 31
0.0
  0
LINE
  5
606
  8
_________1
 62
     7
 10
69.348500000000001
 20
217.529
 30
0.0
 11
70.146399999999986
 21
217.529
 31
0.0
  0
LINE
  5
607
  8
_________1
 62
     7
 10
68.550600000000003
 20
217.529
 30
0.0
 11
69.348500000000001
 21
217.529
 31
0.0
  0
LINE
  5
608
  8
_________1
 62
     7
 10
67.753100000000003
 20
217.529
 30
0.0
 11
68.550600000000003
 21
217.529
 31
0.0
  0
LINE
  5
609
  8
_________1
 62
     7
 10
66.955200000000005
 20
217.529
 30
0.0
 11
67.753100000000003
 21
217.529
 31
0.0
  0
LINE
  5
60A
  8
_________1
 62
     7
 10
66.157600000000002
 20
217.529
 30
0.0
 11
66.955200000000005
 21
217.529
 31
0.0
  0
LINE
  5
60B
  8
_________1
 62
     7
 10
65.360100000000003
 20
217.529
 30
0.0
 11
66.157600000000002
 21
217.529
 31
0.0
  0
LINE
  5
60C
  8
_________1
 62
     7
 10
64.561800000000005
 20
217.529
 30
0.0
 11
65.360100000000003
 21
217.529
 31
0.0
  0
LINE
  5
60D
  8
_________1
 62
     7
 10
63.764299999999999
 20
217.529
 30
0.0
 11
64.561800000000005
 21
217.529
 31
0.0
  0
LINE
  5
60E
  8
_________1
 62
     7
 10
62.9664
 20
217.529
 30
0.0
 11
63.764299999999999
 21
217.529
 31
0.0
  0
LINE
  5
60F
  8
_________1
 62
     7
 10
62.168900000000001
 20
217.529
 30
0.0
 11
62.9664
 21
217.529
 31
0.0
  0
LINE
  5
610
  8
_________1
 62
     7
 10
61.371000000000002
 20
217.52799999999999
 30
0.0
 11
62.168900000000001
 21
217.529
 31
0.0
  0
LINE
  5
611
  8
_________1
 62
     7
 10
90.246200000000002
 20
207.923
 30
0.0
 11
90.246200000000002
 21
200.39400000000001
 31
0.0
  0
LINE
  5
612
  8
_________1
 62
     7
 10
90.305099999999996
 20
199.89500000000001
 30
0.0
 11
60.8949
 21
199.89500000000001
 31
0.0
  0
LINE
  5
613
  8
_________1
 62
     7
 10
62.168900000000001
 20
200.268
 30
0.0
 11
61.371000000000002
 21
200.268
 31
0.0
  0
ARC
  5
614
  8
_________1
 62
     7
 10
62.567807999999992
 20
85.670321999999985
 30
0.0
 40
114.59865600000001
 50
89.800530000000009
 51
90.199450000000013
  0
ARC
  5
615
  8
_________1
 62
     7
 10
63.365524999999991
 20
85.720192999999995
 30
0.0
 40
114.548785
 50
89.800529000000026
 51
90.199450999999996
  0
LINE
  5
616
  8
_________1
 62
     7
 10
64.561800000000005
 20
200.268
 30
0.0
 11
63.764299999999999
 21
200.268
 31
0.0
  0
LINE
  5
617
  8
_________1
 62
     7
 10
65.360100000000003
 20
200.268
 30
0.0
 11
64.561800000000005
 21
200.268
 31
0.0
  0
LINE
  5
618
  8
_________1
 62
     7
 10
66.157600000000002
 20
200.268
 30
0.0
 11
65.360100000000003
 21
200.268
 31
0.0
  0
LINE
  5
619
  8
_________1
 62
     7
 10
66.955200000000005
 20
200.268
 30
0.0
 11
66.157600000000002
 21
200.268
 31
0.0
  0
LINE
  5
61A
  8
_________1
 62
     7
 10
67.753100000000003
 20
200.268
 30
0.0
 11
66.955200000000005
 21
200.268
 31
0.0
  0
LINE
  5
61B
  8
_________1
 62
     7
 10
68.550600000000003
 20
200.268
 30
0.0
 11
67.753100000000003
 21
200.268
 31
0.0
  0
LINE
  5
61C
  8
_________1
 62
     7
 10
69.348500000000001
 20
200.268
 30
0.0
 11
68.550600000000003
 21
200.268
 31
0.0
  0
LINE
  5
61D
  8
_________1
 62
     7
 10
70.146399999999986
 20
200.268
 30
0.0
 11
69.348500000000001
 21
200.268
 31
0.0
  0
LINE
  5
61E
  8
_________1
 62
     7
 10
70.943899999999999
 20
200.268
 30
0.0
 11
70.146399999999986
 21
200.268
 31
0.0
  0
LINE
  5
61F
  8
_________1
 62
     7
 10
71.741500000000002
 20
200.268
 30
0.0
 11
70.943899999999999
 21
200.268
 31
0.0
  0
LINE
  5
620
  8
_________1
 62
     7
 10
72.539400000000001
 20
200.268
 30
0.0
 11
71.741500000000002
 21
200.268
 31
0.0
  0
LINE
  5
621
  8
_________1
 62
     7
 10
73.337199999999996
 20
200.268
 30
0.0
 11
72.539400000000001
 21
200.268
 31
0.0
  0
LINE
  5
622
  8
_________1
 62
     7
 10
74.134799999999984
 20
200.268
 30
0.0
 11
73.337199999999996
 21
200.268
 31
0.0
  0
LINE
  5
623
  8
_________1
 62
     7
 10
74.932699999999997
 20
200.268
 30
0.0
 11
74.134799999999984
 21
200.268
 31
0.0
  0
LINE
  5
624
  8
_________1
 62
     7
 10
75.730199999999996
 20
200.268
 30
0.0
 11
74.932699999999997
 21
200.268
 31
0.0
  0
LINE
  5
625
  8
_________1
 62
     7
 10
76.528099999999995
 20
200.268
 30
0.0
 11
75.730199999999996
 21
200.268
 31
0.0
  0
LINE
  5
626
  8
_________1
 62
     7
 10
77.326000000000008
 20
200.268
 30
0.0
 11
76.528099999999995
 21
200.268
 31
0.0
  0
LINE
  5
627
  8
_________1
 62
     7
 10
78.123500000000007
 20
200.268
 30
0.0
 11
77.326000000000008
 21
200.268
 31
0.0
  0
LINE
  5
628
  8
_________1
 62
     7
 10
78.921400000000006
 20
200.268
 30
0.0
 11
78.123500000000007
 21
200.268
 31
0.0
  0
LINE
  5
629
  8
_________1
 62
     7
 10
79.718999999999994
 20
200.268
 30
0.0
 11
78.921400000000006
 21
200.268
 31
0.0
  0
LINE
  5
62A
  8
_________1
 62
     7
 10
80.516900000000007
 20
200.268
 30
0.0
 11
79.718999999999994
 21
200.268
 31
0.0
  0
LINE
  5
62B
  8
_________1
 62
     7
 10
81.314400000000006
 20
200.268
 30
0.0
 11
80.516900000000007
 21
200.268
 31
0.0
  0
LINE
  5
62C
  8
_________1
 62
     7
 10
82.112300000000005
 20
200.268
 30
0.0
 11
81.314400000000006
 21
200.268
 31
0.0
  0
LINE
  5
62D
  8
_________1
 62
     7
 10
82.910200000000003
 20
200.268
 30
0.0
 11
82.112300000000005
 21
200.268
 31
0.0
  0
LINE
  5
62E
  8
_________1
 62
     7
 10
83.707700000000003
 20
200.268
 30
0.0
 11
82.910200000000003
 21
200.268
 31
0.0
  0
LINE
  5
62F
  8
_________1
 62
     7
 10
84.505600000000015
 20
200.268
 30
0.0
 11
83.707700000000003
 21
200.268
 31
0.0
  0
LINE
  5
630
  8
_________1
 62
     7
 10
85.303200000000004
 20
200.268
 30
0.0
 11
84.505600000000015
 21
200.268
 31
0.0
  0
LINE
  5
631
  8
_________1
 62
     7
 10
86.101100000000002
 20
200.268
 30
0.0
 11
85.303200000000004
 21
200.268
 31
0.0
  0
LINE
  5
632
  8
_________1
 62
     7
 10
86.898600000000016
 20
200.268
 30
0.0
 11
86.101100000000002
 21
200.268
 31
0.0
  0
LINE
  5
633
  8
_________1
 62
     7
 10
87.6965
 20
200.268
 30
0.0
 11
86.898600000000016
 21
200.268
 31
0.0
  0
LINE
  5
634
  8
_________1
 62
     7
 10
88.494000000000014
 20
200.268
 30
0.0
 11
87.6965
 21
200.268
 31
0.0
  0
LINE
  5
635
  8
_________1
 62
     7
 10
89.291600000000017
 20
200.268
 30
0.0
 11
88.494000000000014
 21
200.268
 31
0.0
  0
LINE
  5
636
  8
_________1
 62
     7
 10
90.074299999999994
 20
200.268
 30
0.0
 11
89.291600000000017
 21
200.268
 31
0.0
  0
LINE
  5
637
  8
_________1
 62
     7
 10
90.605199999999996
 20
207.923
 30
0.0
 11
90.605199999999996
 21
200.19499999999999
 31
0.0
  0
LINE
  5
638
  8
_________1
 62
     7
 10
90.605199999999996
 20
217.602
 30
0.0
 11
90.605199999999996
 21
209.87299999999999
 31
0.0
  0
LINE
  5
639
  8
_________1
 62
     7
 10
60.89929999999999
 20
217.90100000000001
 30
0.0
 11
90.305099999999996
 21
217.90100000000001
 31
0.0
  0
LINE
  5
63A
  8
_________1
 62
     7
 10
90.702000000000012
 20
200.09800000000001
 30
0.0
 11
90.702000000000012
 21
207.923
 31
0.0
  0
LINE
  5
63B
  8
_________1
 62
     7
 10
90.401899999999998
 20
217.999
 30
0.0
 11
60.802900000000001
 21
217.999
 31
0.0
  0
LINE
  5
63C
  8
_________1
 62
     7
 10
60.797699999999992
 20
199.798
 30
0.0
 11
90.401899999999998
 21
199.798
 31
0.0
  0
LINE
  5
63D
  8
_________1
 62
     7
 10
60.502800000000001
 20
217.69900000000001
 30
0.0
 11
60.498000000000012
 21
200.09800000000001
 31
0.0
  0
LINE
  5
63E
  8
_________1
 62
     7
 10
74.370400000000004
 20
203.37899999999999
 30
0.0
 11
74.370400000000004
 21
208.898
 31
0.0
  0
LINE
  5
63F
  8
_________1
 62
     7
 10
74.8703
 20
203.369
 30
0.0
 11
74.8703
 21
208.898
 31
0.0
  0
ARC
  5
640
  8
_________1
 62
     7
 10
78.601900000000001
 20
208.89813100000001
 30
0.0
 40
2.2997879999999991
 50
270.00431099999997
 51
0.004282
  0
ARC
  5
641
  8
_________1
 62
     7
 10
78.601900000000001
 20
208.89847499999999
 30
0.0
 40
2.3001320000000001
 50
180.00430099999991
 51
270.00431099999997
  0
ARC
  5
642
  8
_________1
 62
     7
 10
78.690600000000003
 20
208.80941799999999
 30
0.0
 40
2.3904849999999991
 50
92.122309999999999
 51
177.869079
  0
ARC
  5
643
  8
_________1
 62
     7
 10
78.513595999999993
 20
208.81018299999999
 30
0.0
 40
2.3897179999999998
 50
2.1132270000000002
 51
87.878179999999986
  0
LINE
  5
644
  8
_________1
 62
     7
 10
82.902299999999997
 20
208.898
 30
0.0
 11
82.902299999999997
 21
205.054
 31
0.0
  0
ARC
  5
645
  8
_________1
 62
     7
 10
90.282135999999994
 20
217.57870199999999
 30
0.0
 40
0.323887
 50
4.0721280000000002
 51
85.927862000000005
  0
ARC
  5
646
  8
_________1
 62
     7
 10
90.378943999999976
 20
217.67551
 30
0.0
 40
0.323887
 50
4.0721280000000002
 51
85.927862000000005
  0
ARC
  5
647
  8
_________1
 62
     7
 10
90.380696999999984
 20
200.119711
 30
0.0
 40
0.3220429999999999
 50
273.78291000000002
 51
356.15128099999998
  0
ARC
  5
648
  8
_________1
 62
     7
 10
90.283866000000003
 20
200.21651700000001
 30
0.0
 40
0.3220429999999999
 50
273.78697099999999
 51
356.21303899999998
  0
ARC
  5
649
  8
_________1
 62
     7
 10
60.82018699999999
 20
200.12054900000001
 30
0.0
 40
0.322963
 50
183.92548199999999
 51
266.00872900000002
  0
ARC
  5
64A
  8
_________1
 62
     7
 10
60.917076999999999
 20
200.21783500000001
 30
0.0
 40
0.323422
 50
184.00484
 51
266.06093399999997
  0
ARC
  5
64B
  8
_________1
 62
     7
 10
60.825875000000003
 20
217.67551
 30
0.0
 40
0.323887
 50
94.072118000000003
 51
175.927852
  0
ARC
  5
64C
  8
_________1
 62
     7
 10
60.922338000000003
 20
217.57870199999999
 30
0.0
 40
0.323887
 50
94.072118000000003
 51
175.927852
  0
LINE
  5
64D
  8
_________1
 62
     7
 10
82.902299999999997
 20
205.36799999999999
 30
0.0
 11
89.940600000000003
 21
200.499
 31
0.0
  0
LINE
  5
64E
  8
_________1
 62
     7
 10
74.993300000000005
 20
203.27099999999999
 30
0.0
 11
82.825100000000006
 21
204.95699999999999
 31
0.0
  0
LINE
  5
64F
  8
_________1
 62
     7
 10
61.4619
 20
200.35900000000001
 30
0.0
 11
74.272900000000007
 21
203.11600000000001
 31
0.0
  0
LINE
  5
650
  8
_________1
 62
     7
 10
74.8703
 20
203.57599999999999
 30
0.0
 11
74.463800000000006
 21
203.202
 31
0.0
  0
ARC
  5
651
  8
_________1
 62
     7
 10
74.115061999999995
 20
203.722836
 30
0.0
 40
0.626686
 50
284.59136999999998
 51
303.812521
  0
ARC
  5
652
  8
_________1
 62
     7
 10
74.978217999999998
 20
203.37650500000001
 30
0.0
 40
0.108164
 50
184.037634
 51
265.76516400000003
  0
ARC
  5
653
  8
_________1
 62
     7
 10
82.796570999999986
 20
205.05897400000001
 30
0.0
 40
0.105804
 50
285.641796
 51
357.43613699999997
  0
LINE
  5
654
  8
_________1
 62
     7
 10
74.370400000000004
 20
214.41800000000001
 30
0.0
 11
74.370400000000004
 21
208.898
 31
0.0
  0
LINE
  5
655
  8
_________1
 62
     7
 10
74.8703
 20
214.428
 30
0.0
 11
74.8703
 21
208.898
 31
0.0
  0
LINE
  5
656
  8
_________1
 62
     7
 10
82.902299999999997
 20
208.898
 30
0.0
 11
82.902299999999997
 21
212.74199999999999
 31
0.0
  0
LINE
  5
657
  8
_________1
 62
     7
 10
82.902299999999997
 20
212.429
 30
0.0
 11
89.940600000000003
 21
217.298
 31
0.0
  0
LINE
  5
658
  8
_________1
 62
     7
 10
74.993300000000005
 20
214.52500000000001
 30
0.0
 11
82.825100000000006
 21
212.84
 31
0.0
  0
LINE
  5
659
  8
_________1
 62
     7
 10
61.4619
 20
217.43799999999999
 30
0.0
 11
74.272900000000007
 21
214.68100000000001
 31
0.0
  0
LINE
  5
65A
  8
_________1
 62
     7
 10
74.8703
 20
214.221
 30
0.0
 11
74.463800000000006
 21
214.595
 31
0.0
  0
ARC
  5
65B
  8
_________1
 62
     7
 10
74.104985999999997
 20
214.05169699999999
 30
0.0
 40
0.650932
 50
56.548654000000013
 51
75.047454999999999
  0
ARC
  5
65C
  8
_________1
 62
     7
 10
74.977888000000007
 20
214.42042799999999
 30
0.0
 40
0.107813
 50
94.073048999999983
 51
176.12415300000001
  0
ARC
  5
65D
  8
_________1
 62
     7
 10
82.796210000000002
 20
212.737707
 30
0.0
 40
0.10616
 50
2.5146220000000001
 51
74.209968000000003
  0
LINE
  5
65E
  8
_________1
 62
     7
 10
95.952000000000012
 20
154.84899999999999
 30
0.0
 11
93.252099999999999
 21
154.84899999999999
 31
0.0
  0
LINE
  5
65F
  8
_________1
 62
     7
 10
96.001999999999995
 20
154.74799999999999
 30
0.0
 11
96.001999999999995
 21
154.79900000000001
 31
0.0
  0
LINE
  5
660
  8
_________1
 62
     7
 10
96.001999999999995
 20
154.74799999999999
 30
0.0
 11
95.962699999999998
 21
154.74799999999999
 31
0.0
  0
LINE
  5
661
  8
_________1
 62
     7
 10
95.962699999999998
 20
154.74799999999999
 30
0.0
 11
93.202100000000016
 21
154.74799999999999
 31
0.0
  0
LINE
  5
662
  8
_________1
 62
     7
 10
93.202100000000016
 20
154.74799999999999
 30
0.0
 11
93.202100000000016
 21
154.79900000000001
 31
0.0
  0
ARC
  5
663
  8
_________1
 62
     7
 10
93.255831999999998
 20
154.79502199999999
 30
0.0
 40
0.053827
 50
93.987099999999984
 51
176.01286999999999
  0
ARC
  5
664
  8
_________1
 62
     7
 10
95.948984999999993
 20
154.79572300000001
 30
0.0
 40
0.053084
 50
3.285712999999999
 51
86.714276999999996
  0
LINE
  5
665
  8
_________1
 62
     7
 10
93.406099999999995
 20
152.59899999999999
 30
0.0
 11
95.797999999999973
 21
152.59899999999999
 31
0.0
  0
LINE
  5
666
  8
_________1
 62
     7
 10
93.452299999999994
 20
152.59899999999999
 30
0.0
 11
93.452299999999994
 21
152.68899999999999
 31
0.0
  0
LINE
  5
667
  8
_________1
 62
     7
 10
95.751900000000006
 20
152.59899999999999
 30
0.0
 11
95.751900000000006
 21
152.68899999999999
 31
0.0
  0
ARC
  5
668
  8
_________1
 62
     7
 10
93.689792000000011
 20
153.94985700000001
 30
0.0
 40
1.3010099999999989
 50
259.47983299999999
 51
280.52018700000002
  0
ARC
  5
669
  8
_________1
 62
     7
 10
95.514154000000005
 20
153.954497
 30
0.0
 40
1.3056030000000001
 50
259.50957200000011
 51
280.49044800000001
  0
ARC
  5
66A
  8
_________1
 62
     7
 10
94.602058999999997
 20
157.697316
 30
0.0
 40
5.048436999999999
 50
264.66894300000001
 51
275.331076
  0
LINE
  5
66B
  8
_________1
 62
     7
 10
93.452299999999994
 20
152.649
 30
0.0
 11
95.751900000000006
 21
152.649
 31
0.0
  0
LINE
  5
66C
  8
_________1
 62
     7
 10
86.965400000000002
 20
146.99000000000001
 30
0.0
 11
86.332899999999995
 21
148.72800000000001
 31
0.0
  0
LINE
  5
66D
  8
_________1
 62
     7
 10
88.194699999999997
 20
149.459
 30
0.0
 11
86.362499999999997
 21
148.792
 31
0.0
  0
LINE
  5
66E
  8
_________1
 62
     7
 10
88.861599999999996
 20
147.62700000000001
 30
0.0
 11
87.029499999999985
 21
146.96000000000001
 31
0.0
  0
ARC
  5
66F
  8
_________1
 62
     7
 10
87.014202999999995
 20
147.01132699999999
 30
0.0
 40
0.053477
 50
204.23741999999999
 51
286.64282300000002
  0
ARC
  5
670
  8
_________1
 62
     7
 10
86.383758999999984
 20
148.743505
 30
0.0
 40
0.053118
 50
113.539587
 51
196.83202499999999
  0
LINE
  5
671
  8
_________1
 62
     7
 10
88.861599999999996
 20
147.62700000000001
 30
0.0
 11
88.194699999999997
 21
149.459
 31
0.0
  0
LINE
  5
672
  8
_________1
 62
     7
 10
92.802199999999985
 20
134.048
 30
0.0
 11
92.802199999999985
 21
133.94900000000001
 31
0.0
  0
LINE
  5
673
  8
_________1
 62
     7
 10
96.402299999999997
 20
134.048
 30
0.0
 11
92.802199999999985
 21
134.048
 31
0.0
  0
LINE
  5
674
  8
_________1
 62
     7
 10
96.402299999999997
 20
134.048
 30
0.0
 11
96.402299999999997
 21
133.94900000000001
 31
0.0
  0
LINE
  5
675
  8
_________1
 62
     7
 10
96.001999999999995
 20
154.649
 30
0.0
 11
96.001999999999995
 21
152.71899999999999
 31
0.0
  0
LINE
  5
676
  8
_________1
 62
     7
 10
93.202100000000016
 20
154.74799999999999
 30
0.0
 11
95.962699999999998
 21
154.74799999999999
 31
0.0
  0
LINE
  5
677
  8
_________1
 62
     7
 10
93.232100000000017
 20
152.68899999999999
 30
0.0
 11
95.972399999999993
 21
152.68899999999999
 31
0.0
  0
LINE
  5
678
  8
_________1
 62
     7
 10
91.182299999999998
 20
154.44900000000001
 30
0.0
 11
93.101900000000001
 21
154.44900000000001
 31
0.0
  0
LINE
  5
679
  8
_________1
 62
     7
 10
91.182299999999998
 20
153.648
 30
0.0
 11
93.101900000000001
 21
153.648
 31
0.0
  0
LINE
  5
67A
  8
_________1
 62
     7
 10
93.202100000000016
 20
154.74799999999999
 30
0.0
 11
93.202100000000016
 21
154.54900000000001
 31
0.0
  0
LINE
  5
67B
  8
_________1
 62
     7
 10
93.202100000000016
 20
153.54900000000001
 30
0.0
 11
93.202100000000016
 21
152.71899999999999
 31
0.0
  0
ARC
  5
67C
  8
_________1
 62
     7
 10
93.094356000000005
 20
154.55654699999999
 30
0.0
 40
0.108068
 50
273.99352599999997
 51
355.80925200000001
  0
ARC
  5
67D
  8
_________1
 62
     7
 10
93.094184999999996
 20
153.540808
 30
0.0
 40
0.108251
 50
4.2746399999999989
 51
85.922581999999991
  0
LINE
  5
67E
  8
_________1
 62
     7
 10
91.102299999999985
 20
154.36799999999999
 30
0.0
 11
91.102299999999985
 21
153.72900000000001
 31
0.0
  0
ARC
  5
67F
  8
_________1
 62
     7
 10
91.188314000000005
 20
154.36278899999999
 30
0.0
 40
0.086165
 50
94.026554999999988
 51
176.21984800000001
  0
ARC
  5
680
  8
_________1
 62
     7
 10
91.187751999999989
 20
153.73419999999999
 30
0.0
 40
0.085592
 50
183.676703
 51
266.32332700000001
  0
ARC
  5
681
  8
_________1
 62
     7
 10
95.969773000000004
 20
152.72084000000001
 30
0.0
 40
0.032287
 50
273.97260499999999
 51
356.02740499999999
  0
ARC
  5
682
  8
_________1
 62
     7
 10
93.233873000000003
 20
152.72036800000001
 30
0.0
 40
0.031787
 50
183.18321299999999
 51
266.81681600000002
  0
ARC
  5
683
  8
_________1
 62
     7
 10
91.840865000000008
 20
154.04876300000001
 30
0.0
 40
1.4188160000000001
 50
343.62578100000002
 51
16.374219
  0
LINE
  5
684
  8
_________1
 62
     7
 10
95.962699999999998
 20
154.649
 30
0.0
 11
95.962699999999998
 21
154.74799999999999
 31
0.0
  0
LINE
  5
685
  8
_________1
 62
     7
 10
95.962699999999998
 20
154.649
 30
0.0
 11
96.001999999999995
 21
154.649
 31
0.0
  0
LINE
  5
686
  8
_________1
 62
     7
 10
96.001999999999995
 20
141.34899999999999
 30
0.0
 11
96.001999999999995
 21
152.59899999999999
 31
0.0
  0
LINE
  5
687
  8
_________1
 62
     7
 10
93.202100000000016
 20
141.34899999999999
 30
0.0
 11
93.202100000000016
 21
148.49199999999999
 31
0.0
  0
LINE
  5
688
  8
_________1
 62
     7
 10
93.202100000000016
 20
151.422
 30
0.0
 11
93.202100000000016
 21
152.59899999999999
 31
0.0
  0
LINE
  5
689
  8
_________1
 62
     7
 10
96.001999999999995
 20
152.59899999999999
 30
0.0
 11
93.202100000000016
 21
152.59899999999999
 31
0.0
  0
LINE
  5
68A
  8
_________1
 62
     7
 10
88.955999999999989
 20
147.661
 30
0.0
 11
88.289100000000005
 21
149.49299999999999
 31
0.0
  0
LINE
  5
68B
  8
_________1
 62
     7
 10
96.001999999999995
 20
141.34899999999999
 30
0.0
 11
93.202100000000016
 21
141.34899999999999
 31
0.0
  0
LINE
  5
68C
  8
_________1
 62
     7
 10
93.238699999999994
 20
151.21100000000001
 30
0.0
 11
93.328900000000004
 21
151.12100000000001
 31
0.0
  0
LINE
  5
68D
  8
_________1
 62
     7
 10
93.328900000000004
 20
151.12100000000001
 30
0.0
 11
93.404700000000005
 21
151.02699999999999
 31
0.0
  0
LINE
  5
68E
  8
_________1
 62
     7
 10
93.404700000000005
 20
151.02699999999999
 30
0.0
 11
93.466399999999979
 21
150.93000000000001
 31
0.0
  0
LINE
  5
68F
  8
_________1
 62
     7
 10
93.466399999999979
 20
150.93000000000001
 30
0.0
 11
93.515299999999996
 21
150.828
 31
0.0
  0
LINE
  5
690
  8
_________1
 62
     7
 10
93.515299999999996
 20
150.828
 30
0.0
 11
93.5501
 21
150.72200000000001
 31
0.0
  0
LINE
  5
691
  8
_________1
 62
     7
 10
93.5501
 20
150.72200000000001
 30
0.0
 11
93.571799999999996
 21
150.61199999999999
 31
0.0
  0
LINE
  5
692
  8
_________1
 62
     7
 10
93.571799999999996
 20
150.61199999999999
 30
0.0
 11
93.579400000000007
 21
150.49799999999999
 31
0.0
  0
LINE
  5
693
  8
_________1
 62
     7
 10
93.579400000000007
 20
150.49799999999999
 30
0.0
 11
93.573899999999995
 21
150.37899999999999
 31
0.0
  0
LINE
  5
694
  8
_________1
 62
     7
 10
93.573899999999995
 20
150.37899999999999
 30
0.0
 11
93.520099999999985
 21
150.11500000000001
 31
0.0
  0
LINE
  5
695
  8
_________1
 62
     7
 10
93.520099999999985
 20
150.11500000000001
 30
0.0
 11
93.408799999999999
 21
149.803
 31
0.0
  0
LINE
  5
696
  8
_________1
 62
     7
 10
93.408799999999999
 20
149.803
 30
0.0
 11
93.241399999999985
 21
149.44200000000001
 31
0.0
  0
LINE
  5
697
  8
_________1
 62
     7
 10
93.241399999999985
 20
149.44200000000001
 30
0.0
 11
93.015400000000014
 21
149.03100000000001
 31
0.0
  0
LINE
  5
698
  8
_________1
 62
     7
 10
93.070899999999995
 20
151.23400000000001
 30
0.0
 11
88.289100000000005
 21
149.49299999999999
 31
0.0
  0
LINE
  5
699
  8
_________1
 62
     7
 10
92.531000000000006
 20
148.96199999999999
 30
0.0
 11
88.955999999999989
 21
147.661
 31
0.0
  0
ARC
  5
69A
  8
_________1
 62
     7
 10
92.990157999999994
 20
151.430226
 30
0.0
 40
0.212143
 50
292.16314899999998
 51
357.74021199999999
  0
ARC
  5
69B
  8
_________1
 62
     7
 10
92.702758000000003
 20
148.485409
 30
0.0
 40
0.5069560000000001
 50
90.096513000000016
 51
109.800786
  0
ARC
  5
69C
  8
_________1
 62
     7
 10
92.682932999999991
 20
148.47314900000001
 30
0.0
 40
0.519562
 50
2.1320320000000001
 51
87.907431000000003
  0
LINE
  5
69D
  8
_________1
 62
     7
 10
88.930199999999985
 20
147.732
 30
0.0
 11
88.836500000000015
 21
147.697
 31
0.0
  0
LINE
  5
69E
  8
_________1
 62
     7
 10
88.817899999999995
 20
147.74799999999999
 30
0.0
 11
88.924300000000002
 21
147.7289999999999
 31
0.0
  0
LINE
  5
69F
  8
_________1
 62
     7
 10
88.314499999999995
 20
149.423
 30
0.0
 11
88.220500000000001
 21
149.38900000000001
 31
0.0
  0
LINE
  5
6A0
  8
_________1
 62
     7
 10
88.239099999999993
 20
149.33799999999999
 30
0.0
 11
88.308700000000002
 21
149.42099999999999
 31
0.0
  0
LINE
  5
6A1
  8
_________1
 62
     7
 10
88.836500000000015
 20
147.697
 30
0.0
 11
88.220500000000001
 21
149.38900000000001
 31
0.0
  0
LINE
  5
6A2
  8
_________1
 62
     7
 10
96.601799999999997
 20
134.048
 30
0.0
 11
96.601799999999997
 21
134.29900000000001
 31
0.0
  0
ARC
  5
6A3
  8
_________1
 62
     7
 10
96.548391000000024
 20
134.295163
 30
0.0
 40
0.05352
 50
4.0462800000000003
 51
85.953710000000001
  0
LINE
  5
6A4
  8
_________1
 62
     7
 10
96.601799999999997
 20
134.048
 30
0.0
 11
96.402299999999997
 21
134.048
 31
0.0
  0
LINE
  5
6A5
  8
_________1
 62
     7
 10
96.402299999999997
 20
134.048
 30
0.0
 11
92.802199999999985
 21
134.048
 31
0.0
  0
LINE
  5
6A6
  8
_________1
 62
     7
 10
92.802199999999985
 20
134.048
 30
0.0
 11
92.602000000000004
 21
134.048
 31
0.0
  0
LINE
  5
6A7
  8
_________1
 62
     7
 10
92.602000000000004
 20
134.048
 30
0.0
 11
92.602000000000004
 21
134.29900000000001
 31
0.0
  0
ARC
  5
6A8
  8
_________1
 62
     7
 10
92.655670999999998
 20
134.294847
 30
0.0
 40
0.053831
 50
93.963336000000012
 51
175.64012500000001
  0
LINE
  5
6A9
  8
_________1
 62
     7
 10
96.552199999999985
 20
134.34899999999999
 30
0.0
 11
92.652000000000001
 21
134.34899999999999
 31
0.0
  0
LINE
  5
6AA
  8
_________1
 62
     7
 10
93.202100000000016
 20
134.34899999999999
 30
0.0
 11
93.202100000000016
 21
141.34899999999999
 31
0.0
  0
LINE
  5
6AB
  8
_________1
 62
     7
 10
96.001999999999995
 20
134.34899999999999
 30
0.0
 11
96.001999999999995
 21
141.34899999999999
 31
0.0
  0
LINE
  5
6AC
  8
_________1
 62
     7
 10
93.202100000000016
 20
134.34899999999999
 30
0.0
 11
96.001999999999995
 21
134.34899999999999
 31
0.0
  0
LINE
  5
6AD
  8
_________1
 62
     7
 10
93.202100000000016
 20
141.34899999999999
 30
0.0
 11
96.001999999999995
 21
141.34899999999999
 31
0.0
  0
INSERT
  5
6AE
  8
_________1
 62
     7
  2
AIGNBL02010022
 10
0.0
 20
0.0
 30
0.0
  0
TEXT
  5
6AF
  8
_________2
 62
     7
 10
141.72900000000001
 20
179.82499999999999
 30
0.0
 40
3.0923400000000001
  1
手洗器：人工大理石
 41
0.5
  0
TEXT
  5
6B0
  8
_________2
 62
     7
 10
141.72900000000001
 20
247.89400000000001
 30
0.0
 40
3.0923400000000001
  1
カウンター
 41
0.5
  0
TEXT
  5
6B1
  8
_________2
 62
     7
 10
141.72900000000001
 20
244.029
 30
0.0
 40
3.0923400000000001
  1
基材：防水MDF
 41
0.5
  0
TEXT
  5
6B2
  8
_________2
 62
     7
 10
141.72900000000001
 20
240.16300000000001
 30
0.0
 40
3.0923400000000001
  1
表面：メラミン化粧板
 41
0.5
  0
LINE
  5
6B3
  8
_________2
 62
     7
 10
141.72900000000001
 20
233.36099999999999
 30
0.0
 11
141.72900000000001
 21
184.36099999999999
 31
0.0
  0
LINE
  5
6B4
  8
_________2
 62
     7
 10
181.62200000000001
 20
233.36099999999999
 30
0.0
 11
181.62200000000001
 21
184.36099999999999
 31
0.0
  0
TEXT
  5
6B5
  8
_________2
 62
     7
 10
184.77487833333331
 20
186.512
 30
0.0
 40
3.3734599999999988
  1
1
 41
0.5
 72
     1
 11
185.0559999999999
 21
186.512
 31
0.0
  0
TEXT
  5
6B6
  8
_________2
 62
     7
 10
143.86600000000001
 20
186.512
 30
0.0
 40
3.3734599999999988
  1
フレキ管（L＝397）
 41
0.5
  0
LINE
  5
6B7
  8
_________2
 62
     7
 10
141.72900000000001
 20
184.36099999999999
 30
0.0
 11
188.49000000000001
 21
184.36099999999999
 31
0.0
  0
TEXT
  5
6B8
  8
_________2
 62
     7
 10
184.77487833333331
 20
193.512
 30
0.0
 40
3.3734599999999988
  1
1
 41
0.5
 72
     1
 11
185.0559999999999
 21
193.512
 31
0.0
  0
TEXT
  5
6B9
  8
_________2
 62
     7
 10
143.86600000000001
 20
193.512
 30
0.0
 40
3.3734599999999988
  1
排水目皿
 41
0.5
  0
LINE
  5
6BA
  8
_________2
 62
     7
 10
141.72900000000001
 20
191.36099999999999
 30
0.0
 11
188.49000000000001
 21
191.36099999999999
 31
0.0
  0
TEXT
  5
6BB
  8
_________2
 62
     7
 10
184.77487833333331
 20
200.512
 30
0.0
 40
3.3734599999999988
  1
1
 41
0.5
 72
     1
 11
185.0559999999999
 21
200.512
 31
0.0
  0
TEXT
  5
6BC
  8
_________2
 62
     7
 10
143.86600000000001
 20
200.512
 30
0.0
 40
3.3734599999999988
  1
立水栓（JIS、定流量弁付）
 41
0.5
  0
LINE
  5
6BD
  8
_________2
 62
     7
 10
141.72900000000001
 20
198.36099999999999
 30
0.0
 11
188.49000000000001
 21
198.36099999999999
 31
0.0
  0
TEXT
  5
6BE
  8
_________2
 62
     7
 10
184.77487833333331
 20
207.512
 30
0.0
 40
3.3734599999999988
  1
1
 41
0.5
 72
     1
 11
185.0559999999999
 21
207.512
 31
0.0
  0
TEXT
  5
6BF
  8
_________2
 62
     7
 10
143.86600000000001
 20
207.512
 30
0.0
 40
3.3734599999999988
  1
手洗器（オーバーフローなし）
 41
0.5
  0
LINE
  5
6C0
  8
_________2
 62
     7
 10
141.72900000000001
 20
205.36099999999999
 30
0.0
 11
188.49000000000001
 21
205.36099999999999
 31
0.0
  0
TEXT
  5
6C1
  8
_________2
 62
     7
 10
184.4937566666666
 20
214.512
 30
0.0
 40
3.3734599999999988
  1
2
 41
0.5
 72
     1
 11
185.0559999999999
 21
214.512
 31
0.0
  0
TEXT
  5
6C2
  8
_________2
 62
     7
 10
184.77487833333331
 20
221.512
 30
0.0
 40
3.3734599999999988
  1
1
 41
0.5
 72
     1
 11
185.0559999999999
 21
221.512
 31
0.0
  0
TEXT
  5
6C3
  8
_________2
 62
     7
 10
184.2688593333333
 20
228.512
 30
0.0
 40
3.3734599999999988
  1
数
 41
0.5
 72
     1
 11
185.0559999999999
 21
228.512
 31
0.0
  0
TEXT
  5
6C4
  8
_________2
 62
     7
 10
143.86600000000001
 20
214.512
 30
0.0
 40
3.3734599999999988
  1
ブラケット
 41
0.5
  0
TEXT
  5
6C5
  8
_________2
 62
     7
 10
143.86600000000001
 20
221.512
 30
0.0
 40
3.3734599999999988
  1
カウンター
 41
0.5
  0
TEXT
  5
6C6
  8
_________2
 62
     7
 10
156.7272586666667
 20
228.512
 30
0.0
 40
3.3734599999999988
  1
セット内容
 41
0.5
 72
     1
 11
161.67500000000001
 21
228.512
 31
0.0
  0
LINE
  5
6C7
  8
_________2
 62
     7
 10
141.72900000000001
 20
212.36099999999999
 30
0.0
 11
188.49000000000001
 21
212.36099999999999
 31
0.0
  0
LINE
  5
6C8
  8
_________2
 62
     7
 10
141.72900000000001
 20
219.36099999999999
 30
0.0
 11
188.49000000000001
 21
219.36099999999999
 31
0.0
  0
LINE
  5
6C9
  8
_________2
 62
     7
 10
141.72900000000001
 20
233.36099999999999
 30
0.0
 11
188.49000000000001
 21
233.36099999999999
 31
0.0
  0
LINE
  5
6CA
  8
_________2
 62
     7
 10
141.72900000000001
 20
226.36099999999999
 30
0.0
 11
188.49000000000001
 21
226.36099999999999
 31
0.0
  0
LINE
  5
6CB
  8
_________2
 62
     7
 10
141.72900000000001
 20
280.43000000000001
 30
0.0
 11
141.72900000000001
 21
252.43000000000001
 31
0.0
  0
LINE
  5
6CC
  8
_________2
 62
     7
 10
169.25299999999999
 20
280.43000000000001
 30
0.0
 11
169.25299999999999
 21
252.43000000000001
 31
0.0
  0
TEXT
  5
6CD
  8
_________2
 62
     7
 10
175.26196966666669
 20
254.58099999999999
 30
0.0
 40
3.3734599999999988
  1
ホワイト
 41
0.5
 72
     1
 11
179.029
 21
254.58099999999999
 31
0.0
  0
TEXT
  5
6CE
  8
_________2
 62
     7
 10
143.40276833333331
 20
254.58099999999999
 30
0.0
 40
3.3734599999999988
  1
CEK420SET01S-WH
 41
0.5
 72
     1
 11
155.49100000000001
 21
254.58099999999999
 31
0.0
  0
LINE
  5
6CF
  8
_________2
 62
     7
 10
141.72900000000001
 20
252.43000000000001
 30
0.0
 11
188.49000000000001
 21
252.43000000000001
 31
0.0
  0
TEXT
  5
6D0
  8
_________2
 62
     7
 10
175.2057453333334
 20
261.58100000000002
 30
0.0
 40
3.3734599999999988
  1
ブラウン
 41
0.5
 72
     1
 11
179.029
 21
261.58100000000002
 31
0.0
  0
TEXT
  5
6D1
  8
_________2
 62
     7
 10
174.19370733333329
 20
268.58100000000002
 30
0.0
 40
3.3734599999999988
  1
ナチュラル
 41
0.5
 72
     1
 11
179.029
 21
268.58100000000002
 31
0.0
  0
TEXT
  5
6D2
  8
_________2
 62
     7
 10
173.06922066666669
 20
275.58100000000002
 30
0.0
 40
3.3734599999999988
  1
カウンター色
 41
0.5
 72
     1
 11
179.029
 21
275.58100000000002
 31
0.0
  0
TEXT
  5
6D3
  8
_________2
 62
     7
 10
143.68388999999999
 20
261.58100000000002
 30
0.0
 40
3.3734599999999988
  1
CEK420SET01S-BR
 41
0.5
 72
     1
 11
155.49100000000001
 21
261.58100000000002
 31
0.0
  0
TEXT
  5
6D4
  8
_________2
 62
     7
 10
143.68388999999999
 20
268.58100000000002
 30
0.0
 40
3.3734599999999988
  1
CEK420SET01S-NA
 41
0.5
 72
     1
 11
155.49100000000001
 21
268.58100000000002
 31
0.0
  0
TEXT
  5
6D5
  8
_________2
 62
     7
 10
153.69182133333331
 20
275.58100000000002
 30
0.0
 40
3.3734599999999988
  1
品番
 41
0.5
 72
     1
 11
155.49100000000001
 21
275.58100000000002
 31
0.0
  0
LINE
  5
6D6
  8
_________2
 62
     7
 10
141.72900000000001
 20
259.43000000000001
 30
0.0
 11
188.49000000000001
 21
259.43000000000001
 31
0.0
  0
LINE
  5
6D7
  8
_________2
 62
     7
 10
141.72900000000001
 20
266.43000000000001
 30
0.0
 11
188.49000000000001
 21
266.43000000000001
 31
0.0
  0
LINE
  5
6D8
  8
_________2
 62
     7
 10
141.72900000000001
 20
273.43000000000001
 30
0.0
 11
188.49000000000001
 21
273.43000000000001
 31
0.0
  0
TEXT
  5
6D9
  8
_________2
 62
     7
 10
28.151399999999999
 20
60.847000000000001
 30
0.0
 40
4.2168199999999993
  1
※壁取付部には厚さ20mm以上の補強木を入れてください。
 41
0.5
  0
TEXT
  5
6DA
  8
_________2
 62
     7
 10
29.525700000000001
 20
22.226900000000001
 30
0.0
 40
3.9357000000000002
  1
セット重量：6.1kg
 41
0.5
  0
LINE
  5
6DB
  8
_________2
 62
     7
 10
210.24000000000001
 20
148.93100000000001
 30
0.0
 11
188.49000000000001
 21
148.93100000000001
 31
0.0
  0
LINE
  5
6DC
  8
_________2
 62
     7
 10
105.239
 20
17.4285
 30
0.0
 11
105.239
 21
0.4482100000000001
 31
0.0
  0
LINE
  5
6DD
  8
_________2
 62
     7
 10
105.239
 20
297.44999999999999
 30
0.0
 11
105.239
 21
280.43000000000001
 31
0.0
  0
LINE
  5
6DE
  8
_________2
 62
     7
 10
21.988499999999998
 20
148.93100000000001
 30
0.0
 11
0.238058
 21
148.93100000000001
 31
0.0
  0
INSERT
  5
6DF
  8
_________2
 62
     7
  2
AIGNBL03010002
 10
0.0
 20
0.0
 30
0.0
  0
TEXT
  5
6E0
  8
_________2
 62
     7
 10
109.544
 20
23.199100000000001
 30
0.0
 40
3.0923400000000001
  1
図番
 41
0.5
  0
LINE
  5
6E1
  8
_________2
 62
     7
 10
108.489
 20
27.4283
 30
0.0
 11
188.49000000000001
 21
27.4283
 31
0.0
  0
TEXT
  5
6E2
  8
_________2
 62
     7
 10
109.544
 20
33.198900000000002
 30
0.0
 40
3.0923400000000001
  1
品番
 41
0.5
  0
TEXT
  5
6E3
  8
_________2
 62
     7
 10
109.544
 20
53.337699999999998
 30
0.0
 40
3.0923400000000001
  1
名称
 41
0.5
  0
TEXT
  5
6E4
  8
_________2
 62
     7
 10
96.784058333333334
 20
48.341500000000011
 30
0.0
 40
3.6545800000000002
  1
mm
 41
0.5
 72
     1
 11
98.306799999999996
 21
48.341500000000011
 31
0.0
  0
TEXT
  5
6E5
  8
_________2
 62
     7
 10
90.582099999999997
 20
53.337699999999998
 30
0.0
 40
3.0923400000000001
  1
単位
 41
0.5
  0
TEXT
  5
6E6
  8
_________2
 62
     7
 10
90.582099999999997
 20
40.930399999999999
 30
0.0
 40
3.0923400000000001
  1
尺度
 41
0.5
  0
TEXT
  5
6E7
  8
_________2
 62
     7
 10
95.030836166666674
 20
34.737499999999997
 30
0.0
 40
3.6545800000000002
  1
1 ： 10
 41
0.5
 72
     1
 11
98.898600000000002
 21
34.737499999999997
 31
0.0
  0
TEXT
  5
6E8
  8
_________2
 62
     7
 10
141.60152500000001
 20
30.627400000000002
 30
0.0
 40
3.9357000000000002
  1
図中の表参照
 41
0.5
 72
     1
 11
148.489
 21
30.627400000000002
 31
0.0
  0
TEXT
  5
6E9
  8
_________2
 62
     7
 10
137.66582500000001
 20
20.626999999999999
 30
0.0
 40
3.9357000000000002
  1
CEK420SET01S
 41
0.5
 72
     1
 11
148.489
 21
20.626999999999999
 31
0.0
  0
TEXT
  5
6EA
  8
_________2
 62
     7
 10
114.11799999999999
 20
46.795400000000001
 30
0.0
 40
3.9357000000000002
  1
セラオリジナルコレクション
 41
0.5
  0
TEXT
  5
6EB
  8
_________2
 62
     7
 10
114.11799999999999
 20
41.875700000000002
 30
0.0
 40
3.9357000000000002
  1
カウンターセット
 41
0.5
  0
TEXT
  5
6EC
  8
_________2
 62
     7
 10
44.364200333333329
 20
35.122599999999998
 30
0.0
 40
3.6545800000000002
  1
土山
 41
0.5
 72
     1
 11
46.252400000000002
 21
35.122599999999998
 31
0.0
  0
TEXT
  5
6ED
  8
_________2
 62
     7
 10
25.729290666666671
 20
35.122599999999998
 30
0.0
 40
3.6545800000000002
  1
木場
 41
0.5
 72
     1
 11
27.6784
 21
35.122599999999998
 31
0.0
  0
TEXT
  5
6EE
  8
_________2
 62
     7
 10
72.724699999999999
 20
34.737499999999997
 30
0.0
 40
3.6545800000000002
  1
21.07.16
 41
0.5
  0
TEXT
  5
6EF
  8
_________2
 62
     7
 10
71.531999999999996
 20
40.930399999999999
 30
0.0
 40
3.0923400000000001
  1
日付
 41
0.5
  0
TEXT
  5
6F0
  8
_________2
 62
     7
 10
34.578299999999999
 20
40.930399999999999
 30
0.0
 40
3.0923400000000001
  1
検図
 41
0.5
  0
TEXT
  5
6F1
  8
_________2
 62
     7
 10
22.960000000000001
 20
26.731000000000002
 30
0.0
 40
3.0923400000000001
  1
備考
 41
0.5
  0
TEXT
  5
6F2
  8
_________2
 62
     7
 10
22.960000000000001
 20
40.930399999999999
 30
0.0
 40
3.0923400000000001
  1
製図
 41
0.5
  0
TEXT
  5
6F3
  8
_________2
 62
     7
 10
28.727365333333339
 20
49.456400000000002
 30
0.0
 40
4.4979399999999989
  1
セラトレーディング株式会社
 41
0.5
 72
     1
 11
46.119399999999992
 21
49.456400000000002
 31
0.0
  0
LINE
  5
6F4
  8
_________2
 62
     7
 10
188.49000000000001
 20
17.4285
 30
0.0
 11
21.988499999999998
 21
17.4285
 31
0.0
  0
LINE
  5
6F5
  8
_________2
 62
     7
 10
21.988499999999998
 20
17.4285
 30
0.0
 11
21.988499999999998
 21
280.43000000000001
 31
0.0
  0
LINE
  5
6F6
  8
_________2
 62
     7
 10
21.988499999999998
 20
280.43000000000001
 30
0.0
 11
188.49000000000001
 21
280.43000000000001
 31
0.0
  0
LINE
  5
6F7
  8
_________2
 62
     7
 10
188.49000000000001
 20
280.43000000000001
 30
0.0
 11
188.49000000000001
 21
17.4285
 31
0.0
  0
LINE
  5
6F8
  8
_________2
 62
     7
 10
70.488799999999998
 20
30.9285
 30
0.0
 11
70.488799999999998
 21
57.428400000000011
 31
0.0
  0
LINE
  5
6F9
  8
_________2
 62
     7
 10
89.488600000000005
 20
30.9285
 30
0.0
 11
89.488600000000005
 21
57.428400000000011
 31
0.0
  0
LINE
  5
6FA
  8
_________2
 62
     7
 10
108.489
 20
17.4285
 30
0.0
 11
108.489
 21
57.428400000000011
 31
0.0
  0
LINE
  5
6FB
  8
_________2
 62
     7
 10
33.488300000000002
 20
30.9285
 30
0.0
 11
33.488300000000002
 21
44.928800000000003
 31
0.0
  0
LINE
  5
6FC
  8
_________2
 62
     7
 10
21.988499999999998
 20
30.9285
 30
0.0
 11
108.489
 21
30.9285
 31
0.0
  0
LINE
  5
6FD
  8
_________2
 62
     7
 10
21.988499999999998
 20
44.928800000000003
 30
0.0
 11
108.489
 21
44.928800000000003
 31
0.0
  0
LINE
  5
6FE
  8
_________2
 62
     7
 10
108.489
 20
37.428100000000001
 30
0.0
 11
188.49000000000001
 21
37.428100000000001
 31
0.0
  0
LINE
  5
6FF
  8
_________2
 62
     7
 10
21.988499999999998
 20
57.428400000000011
 30
0.0
 11
188.49000000000001
 21
57.428400000000011
 31
0.0
  0
ENDSEC
  0
EOF
