  0
SECTION
  2
HEADER
  9
$ACADVER
  1
AC1009
  9
$INSBASE
 10
0.0
 20
0.0
 30
0.0
  9
$EXTMIN
 10
3640.5028296634441
 20
2847.6606923278941
 30
0.0
  9
$EXTMAX
 10
7726.2017179943541
 20
8685.7987599197386
 30
0.0
  9
$LIMMIN
 10
3640.5028296634441
 20
2847.6606923278941
  9
$LIMMAX
 10
7726.2017179943541
 20
8685.7987599197386
  9
$ORTHOMODE
 70
     0
  9
$REGENMODE
 70
     1
  9
$FILLMODE
 70
     1
  9
$QTEXTMODE
 70
     0
  9
$MIRRTEXT
 70
     0
  9
$DRAGMODE
 70
     2
  9
$LTSCALE
 40
1.0
  9
$OSMODE
 70
    37
  9
$ATTMODE
 70
     1
  9
$TEXTSIZE
 40
3.5
  9
$TRACEWID
 40
0.5
  9
$TEXTSTYLE
  7
STANDARD
  9
$CLAYER
  8
0
  9
$CELTYPE
  6
BYLAYER
  9
$CECOLOR
 62
   256
  9
$DIMSCALE
 40
1.0
  9
$DIMASZ
 40
0.18
  9
$DIMEXO
 40
0.0625
  9
$DIMDLI
 40
0.38
  9
$DIMRND
 40
0.0
  9
$DIMDLE
 40
0.0
  9
$DIMEXE
 40
0.18
  9
$DIMTP
 40
0.0
  9
$DIMTM
 40
0.0
  9
$DIMTXT
 40
0.18
  9
$DIMCEN
 40
0.09
  9
$DIMTSZ
 40
0.0
  9
$DIMTOL
 70
     0
  9
$DIMLIM
 70
     0
  9
$DIMTIH
 70
     1
  9
$DIMTOH
 70
     1
  9
$DIMSE1
 70
     0
  9
$DIMSE2
 70
     0
  9
$DIMTAD
 70
     0
  9
$DIMZIN
 70
     0
  9
$DIMBLK
  1

  9
$DIMASO
 70
     1
  9
$DIMSHO
 70
     1
  9
$DIMPOST
  1

  9
$DIMAPOST
  1

  9
$DIMALT
 70
     0
  9
$DIMALTD
 70
     2
  9
$DIMALTF
 40
25.399999999999999
  9
$DIMLFAC
 40
1.0
  9
$DIMTOFL
 70
     0
  9
$DIMTVP
 40
0.0
  9
$DIMTIX
 70
     0
  9
$DIMSOXD
 70
     0
  9
$DIMSAH
 70
     0
  9
$DIMBLK1
  1

  9
$DIMBLK2
  1

  9
$DIMSTYLE
  2
STANDARD
  9
$DIMCLRD
 70
     0
  9
$DIMCLRE
 70
     0
  9
$DIMCLRT
 70
     0
  9
$DIMTFAC
 40
1.0
  9
$DIMGAP
 40
0.09
  9
$LUNITS
 70
     2
  9
$LUPREC
 70
     4
  9
$SKETCHINC
 40
0.1
  9
$FILLETRAD
 40
2.0
  9
$AUNITS
 70
     0
  9
$AUPREC
 70
     0
  9
$MENU
  1
ACAD
  9
$ELEVATION
 40
0.0
  9
$PELEVATION
 40
0.0
  9
$THICKNESS
 40
0.0
  9
$LIMCHECK
 70
     0
  9
$BLIPMODE
 70
     0
  9
$CHAMFERA
 40
0.0
  9
$CHAMFERB
 40
0.0
  9
$SKPOLY
 70
     0
  9
$TDCREATE
 40
2458229.2466666321
  9
$TDUPDATE
 40
2458229.2466978822
  9
$TDINDWG
 40
0.0000321644
  9
$TDUSRTIMER
 40
0.0000321644
  9
$USRTIMER
 70
     1
  9
$ANGBASE
 50
0.0
  9
$ANGDIR
 70
     0
  9
$PDMODE
 70
     0
  9
$PDSIZE
 40
0.0
  9
$PLINEWID
 40
0.0
  9
$COORDS
 70
     1
  9
$SPLFRAME
 70
     0
  9
$SPLINETYPE
 70
     6
  9
$SPLINESEGS
 70
     8
  9
$ATTDIA
 70
     1
  9
$ATTREQ
 70
     1
  9
$HANDLING
 70
     1
  9
$HANDSEED
  5
9C1
  9
$SURFTAB1
 70
     6
  9
$SURFTAB2
 70
     6
  9
$SURFTYPE
 70
     6
  9
$SURFU
 70
     6
  9
$SURFV
 70
     6
  9
$UCSNAME
  2

  9
$UCSORG
 10
0.0
 20
0.0
 30
0.0
  9
$UCSXDIR
 10
1.0
 20
0.0
 30
0.0
  9
$UCSYDIR
 10
0.0
 20
1.0
 30
0.0
  9
$PUCSNAME
  2

  9
$PUCSORG
 10
0.0
 20
0.0
 30
0.0
  9
$PUCSXDIR
 10
1.0
 20
0.0
 30
0.0
  9
$PUCSYDIR
 10
0.0
 20
1.0
 30
0.0
  9
$USERI1
 70
     0
  9
$USERI2
 70
     0
  9
$USERI3
 70
     0
  9
$USERI4
 70
     0
  9
$USERI5
 70
     0
  9
$USERR1
 40
0.0
  9
$USERR2
 40
0.0
  9
$USERR3
 40
0.0
  9
$USERR4
 40
0.0
  9
$USERR5
 40
0.0
  9
$WORLDVIEW
 70
     1
  9
$SHADEDGE
 70
     3
  9
$SHADEDIF
 70
    70
  9
$TILEMODE
 70
     1
  9
$MAXACTVP
 70
    64
  9
$PLIMCHECK
 70
     0
  9
$PEXTMIN
 10
1.0000000000000000E+020
 20
1.0000000000000000E+020
 30
1.0000000000000000E+020
  9
$PEXTMAX
 10
-1.0000000000000000E+020
 20
-1.0000000000000000E+020
 30
-1.0000000000000000E+020
  9
$PLIMMIN
 10
0.0
 20
0.0
  9
$PLIMMAX
 10
12.0
 20
9.0
  9
$UNITMODE
 70
     0
  9
$VISRETAIN
 70
     1
  9
$PLINEGEN
 70
     0
  9
$PSLTSCALE
 70
     1
  0
ENDSEC
  0
SECTION
  2
TABLES
  0
TABLE
  2
VPORT
 70
     1
  0
VPORT
  2
*ACTIVE
 70
     0
 10
0.0
 20
0.0
 11
1.0
 21
1.0
 12
10.907766990291259
 22
4.5
 13
0.0
 23
0.0
 14
1.0
 24
1.0
 15
0.0
 25
0.0
 16
0.0
 26
0.0
 36
1.0
 17
0.0
 27
0.0
 37
0.0
 40
8.5783521809369958
 41
2.5432937181663831
 42
50.0
 43
0.0
 44
0.0
 50
0.0
 51
0.0
 71
     0
 72
   100
 73
     1
 74
     1
 75
     0
 76
     0
 77
     0
 78
     0
  0
ENDTAB
  0
TABLE
  2
LTYPE
 70
     9
  0
LTYPE
  2
CONTINUOUS
 70
     0
  3
Solid line
 72
    65
 73
     0
 40
0.0
  0
LTYPE
  2
CENTER
 70
     0
  3
____ _ ____ _
 72
    65
 73
     4
 40
307.27042461009711
 49
192.04401538131069
 49
-38.408803076262132
 49
38.408803076262132
 49
-38.408803076262132
  0
LTYPE
  2
DASHDOT
 70
     0
  3
__ . __ . __ .
 72
    65
 73
     4
 40
153.6352123050485
 49
76.817606152524263
 49
-38.408803076262132
 49
0.0
 49
-38.408803076262132
  0
LTYPE
  2
DASHED
 70
     0
  3
__ __ __ __ __
 72
    65
 73
     2
 40
115.22640922878639
 49
76.817606152524263
 49
-38.408803076262132
  0
LTYPE
  2
DIVIDE
 70
     0
  3
__ . . __ . . 
 72
    65
 73
     6
 40
192.04401538131069
 49
76.817606152524263
 49
-38.408803076262132
 49
0.0
 49
-38.408803076262132
 49
0.0
 49
-38.408803076262132
  0
ENDTAB
  0
TABLE
  2
LAYER
 70
     3
  0
LAYER
  2
0
 70
     0
 62
     7
  6
CONTINUOUS
  0
LAYER
  2
1
 70
     0
 62
     7
  6
CONTINUOUS
  0
LAYER
  2
2
 70
     0
 62
     7
  6
CONTINUOUS
  0
ENDTAB
  0
TABLE
  2
STYLE
 70
     2
  0
STYLE
  2
STANDARD
 70
     0
 40
0.0
 41
1.0
 50
0.0
 71
     0
 42
3.5
  3
txt
  4
EXTFONT.SHX
  0
ENDTAB
  0
TABLE
  2
VIEW
 70
     0
  0
ENDTAB
  0
TABLE
  2
UCS
 70
     0
  0
ENDTAB
  0
TABLE
  2
APPID
 70
     4
  0
APPID
  2
ACAD
 70
     0
  0
APPID
  2
ACADANNOTATIVE
 70
     0
  0
APPID
  2
ACAD_NAV_VCDISPLAY
 70
     0
  0
APPID
  2
ACAD_MLEADERVER
 70
     0
  0
ENDTAB
  0
TABLE
  2
DIMSTYLE
 70
     2
  0
DIMSTYLE
  2
STANDARD
 70
     0
  3

  4

  5

  6

  7

 40
1.0
 41
0.18
 42
0.0625
 43
0.38
 44
0.18
 45
0.0
 46
0.0
 47
0.0
 48
0.0
140
0.18
141
0.09
142
0.0
143
25.399999999999999
144
1.0
145
0.0
146
1.0
147
0.09
 71
     0
 72
     0
 73
     1
 74
     1
 75
     0
 76
     0
 77
     0
 78
     0
170
     0
171
     2
172
     0
173
     0
174
     0
175
     0
176
     0
177
     0
178
     0
  0
ENDTAB
  0
ENDSEC
  0
SECTION
  2
BLOCKS
  0
BLOCK
  8
0
  2
$MODEL_SPACE
 70
     0
 10
0.0
 20
0.0
 30
0.0
  3
$MODEL_SPACE
  1

  0
ENDBLK
  5
71
  8
0
  0
BLOCK
 67
     1
  8
0
  2
$PAPER_SPACE
 70
     0
 10
0.0
 20
0.0
 30
0.0
  3
$PAPER_SPACE
  1

  0
ENDBLK
  5
6D
 67
     1
  8
0
  0
BLOCK
  8
2
  2
*X0
 70
     1
 10
0.0
 20
0.0
 30
0.0
  3
*X0
  1

  0
LINE
  5
82
  8
2
 62
     7
 10
4418.9505663576283
 20
3619.9199036168279
 30
0.0
 11
4423.1978116623932
 21
3624.167148921596
 31
0.0
  0
LINE
  5
83
  8
2
 62
     7
 10
4421.5018561716961
 20
3615.4001256190322
 30
0.0
 11
4430.2688794742589
 21
3624.167148921596
 31
0.0
  0
LINE
  5
84
  8
2
 62
     7
 10
4428.5729239835609
 20
3615.4001256190322
 30
0.0
 11
4437.3399472861238
 21
3624.167148921596
 31
0.0
  0
LINE
  5
85
  8
2
 62
     7
 10
4434.1461717914099
 20
3613.9023056150149
 30
0.0
 11
4444.4110150979895
 21
3624.167148921596
 31
0.0
  0
LINE
  5
86
  8
2
 62
     7
 10
4434.1461717914099
 20
3606.8312378031492
 30
0.0
 11
4451.4820829098562
 21
3624.167148921596
 31
0.0
  0
LINE
  5
87
  8
2
 62
     7
 10
4449.7861274191573
 20
3615.4001256190322
 30
0.0
 11
4458.553150721722
 21
3624.167148921596
 31
0.0
  0
LINE
  5
88
  8
2
 62
     7
 10
4434.1461717914099
 20
3599.760169991283
 30
0.0
 11
4443.4494518152533
 21
3609.0634500151268
 31
0.0
  0
LINE
  5
89
  8
2
 62
     7
 10
4456.857195231024
 20
3615.4001256190322
 30
0.0
 11
4458.7812062924877
 21
3617.3241366804968
 31
0.0
  0
LINE
  5
8A
  8
2
 62
     7
 10
4434.1461717914099
 20
3592.6891021794181
 30
0.0
 11
4443.4494518152533
 21
3601.992382203262
 31
0.0
  0
LINE
  5
8B
  8
2
 62
     7
 10
4436.9919218530376
 20
3588.4637844291801
 30
0.0
 11
4443.4494518152533
 21
3594.921314391398
 31
0.0
  0
ENDBLK
  5
8C
  8
0
  0
BLOCK
  8
2
  2
*X1
 70
     1
 10
0.0
 20
0.0
 30
0.0
  3
*X1
  1

  0
LINE
  5
8F
  8
2
 62
     7
 10
4479.8485015828919
 20
3620.0066556600509
 30
0.0
 11
4484.0216479148212
 21
3624.1798019919811
 31
0.0
  0
LINE
  5
90
  8
2
 62
     7
 10
4479.8485015828919
 20
3614.349801410558
 30
0.0
 11
4489.6785021643136
 21
3624.1798019919811
 31
0.0
  0
LINE
  5
91
  8
2
 62
     7
 10
4479.8485015828919
 20
3608.6929471610661
 30
0.0
 11
4495.335356413806
 21
3624.1798019919811
 31
0.0
  0
LINE
  5
92
  8
2
 62
     7
 10
4491.2817772764711
 20
3614.4693686051519
 30
0.0
 11
4500.9922106632994
 21
3624.1798019919811
 31
0.0
  0
LINE
  5
93
  8
2
 62
     7
 10
4479.8485015828919
 20
3603.0360929115732
 30
0.0
 11
4488.2608500472816
 21
3611.4484413759642
 31
0.0
  0
LINE
  5
94
  8
2
 62
     7
 10
4496.9386315259626
 20
3614.4693686051519
 30
0.0
 11
4506.6490649127909
 21
3624.1798019919811
 31
0.0
  0
LINE
  5
95
  8
2
 62
     7
 10
4479.8485015828919
 20
3597.3792386620789
 30
0.0
 11
4491.9337066681164
 21
3609.464443747303
 31
0.0
  0
LINE
  5
96
  8
2
 62
     7
 10
4502.5954857754559
 20
3614.4693686051519
 30
0.0
 11
4512.3059191622824
 21
3624.1798019919811
 31
0.0
  0
LINE
  5
97
  8
2
 62
     7
 10
4479.8485015828919
 20
3591.7223844125879
 30
0.0
 11
4497.5905609176079
 21
3609.464443747303
 31
0.0
  0
LINE
  5
98
  8
2
 62
     7
 10
4508.2523400249484
 20
3614.4693686051519
 30
0.0
 11
4515.7266879154804
 21
3621.943716495683
 31
0.0
  0
LINE
  5
99
  8
2
 62
     7
 10
4493.5140813638618
 20
3599.7311099440658
 30
0.0
 11
4503.2474151671004
 21
3609.464443747303
 31
0.0
  0
LINE
  5
9A
  8
2
 62
     7
 10
4481.5362587001337
 20
3587.7532872803372
 30
0.0
 11
4488.2608500472816
 21
3594.4778786274878
 31
0.0
  0
LINE
  5
9B
  8
2
 62
     7
 10
4499.1709356133561
 20
3599.7311099440658
 30
0.0
 11
4517.9671820265557
 21
3618.5273563572669
 31
0.0
  0
LINE
  5
9C
  8
2
 62
     7
 10
4487.2090882530983
 20
3587.7692625838099
 30
0.0
 11
4488.2608500472816
 21
3588.821024377994
 31
0.0
  0
LINE
  5
9D
  8
2
 62
     7
 10
4504.8277898628467
 20
3599.7311099440658
 30
0.0
 11
4518.9947622202471
 21
3613.8980823014649
 31
0.0
  0
LINE
  5
9E
  8
2
 62
     7
 10
4507.7350797133822
 20
3596.9815455451089
 30
0.0
 11
4514.9793888069871
 21
3604.2258546387152
 31
0.0
  0
LINE
  5
9F
  8
2
 62
     7
 10
4507.7522102251087
 20
3591.3418218073421
 30
0.0
 11
4516.94019608286
 21
3600.5298076650938
 31
0.0
  0
LINE
  5
A0
  8
2
 62
     7
 10
4509.8394671263859
 20
3587.7722244591282
 30
0.0
 11
4516.94019608286
 21
3594.8729534156018
 31
0.0
  0
LINE
  5
A1
  8
2
 62
     7
 10
4515.4963213758792
 20
3587.7722244591282
 30
0.0
 11
4516.94019608286
 21
3589.216099166109
 31
0.0
  0
ENDBLK
  5
A2
  8
0
  0
BLOCK
  8
2
  2
*X2
 70
     1
 10
0.0
 20
0.0
 30
0.0
  3
*X2
  1

  0
LINE
  5
A5
  8
2
 62
     7
 10
4552.4555887633287
 20
3619.0746375970862
 30
0.0
 11
4557.0733096605063
 21
3623.6923584942629
 31
0.0
  0
LINE
  5
A6
  8
2
 62
     7
 10
4544.6466279028618
 20
3605.608822487126
 30
0.0
 11
4562.6057510703959
 21
3623.5679456546618
 31
0.0
  0
LINE
  5
A7
  8
2
 62
     7
 10
4536.8376670423932
 20
3592.1430073771662
 30
0.0
 11
4565.7363168653437
 21
3621.0416572001159
 31
0.0
  0
LINE
  5
A8
  8
2
 62
     7
 10
4561.3877387571574
 20
3611.0362248424358
 30
0.0
 11
4567.8357852362624
 21
3617.4842713215439
 31
0.0
  0
LINE
  5
A9
  8
2
 62
     7
 10
4537.430178487085
 20
3587.0786645723661
 30
0.0
 11
4554.4467316268992
 21
3604.0952177121799
 31
0.0
  0
LINE
  5
AA
  8
2
 62
     7
 10
4563.2964439392854
 20
3607.2880757750718
 30
0.0
 11
4569.9121480374051
 21
3613.9037798731938
 31
0.0
  0
LINE
  5
AB
  8
2
 62
     7
 10
4550.6151815747053
 20
3594.6068134104921
 30
0.0
 11
4559.5429578789526
 21
3603.5345897147399
 31
0.0
  0
LINE
  5
AC
  8
2
 62
     7
 10
4543.0917949853174
 20
3587.0834268211029
 30
0.0
 11
4547.5053814359107
 21
3591.4970132716999
 31
0.0
  0
LINE
  5
AD
  8
2
 62
     7
 10
4556.2720358241959
 20
3594.6068134104921
 30
0.0
 11
4571.9885108385497
 21
3610.323288424845
 31
0.0
  0
LINE
  5
AE
  8
2
 62
     7
 10
4561.9288900736892
 20
3594.6068134104921
 30
0.0
 11
4574.0648736396934
 21
3606.7427969764958
 31
0.0
  0
LINE
  5
AF
  8
2
 62
     7
 10
4567.5857443231807
 20
3594.6068134104921
 30
0.0
 11
4576.141236440837
 21
3603.1623055281489
 31
0.0
  0
LINE
  5
B0
  8
2
 62
     7
 10
4571.197542991109
 20
3592.5617578289271
 30
0.0
 11
4578.2175992419807
 21
3599.5818140798001
 31
0.0
  0
LINE
  5
B1
  8
2
 62
     7
 10
4573.3746939620114
 20
3589.0820545503361
 30
0.0
 11
4580.2939620431234
 21
3596.0013226314509
 31
0.0
  0
LINE
  5
B2
  8
2
 62
     7
 10
4577.0322854370961
 20
3587.0827917759302
 30
0.0
 11
4582.370324844268
 21
3592.4208311831021
 31
0.0
  0
LINE
  5
B3
  8
2
 62
     7
 10
4582.6843854426152
 20
3587.0780375319559
 30
0.0
 11
4584.4466876454117
 21
3588.8403397347529
 31
0.0
  0
ENDBLK
  5
B4
  8
0
  0
BLOCK
  8
2
  2
*X3
 70
     1
 10
0.0
 20
0.0
 30
0.0
  3
*X3
  1

  0
LINE
  5
B7
  8
2
 62
     7
 10
4603.1390846691647
 20
3618.8464452574908
 30
0.0
 11
4608.4724414036564
 21
3624.1798019919811
 31
0.0
  0
LINE
  5
B8
  8
2
 62
     7
 10
4603.1390846691647
 20
3613.1895910079979
 30
0.0
 11
4614.1292956531479
 21
3624.1798019919811
 31
0.0
  0
LINE
  5
B9
  8
2
 62
     7
 10
4603.1390846691647
 20
3607.532736758506
 30
0.0
 11
4619.7861499026403
 21
3624.1798019919811
 31
0.0
  0
LINE
  5
BA
  8
2
 62
     7
 10
4615.3997034548383
 20
3614.1365012946858
 30
0.0
 11
4625.4430041521327
 21
3624.1798019919811
 31
0.0
  0
LINE
  5
BB
  8
2
 62
     7
 10
4603.1390846691647
 20
3601.8758825090149
 30
0.0
 11
4612.2909585443585
 21
3611.027756384206
 31
0.0
  0
LINE
  5
BC
  8
2
 62
     7
 10
4621.0565577043299
 20
3614.1365012946858
 30
0.0
 11
4631.0998584016252
 21
3624.1798019919811
 31
0.0
  0
LINE
  5
BD
  8
2
 62
     7
 10
4603.1390846691647
 20
3596.2190282595211
 30
0.0
 11
4612.2909585443585
 21
3605.370902134714
 31
0.0
  0
LINE
  5
BE
  8
2
 62
     7
 10
4626.7134119538232
 20
3614.1365012946858
 30
0.0
 11
4636.7567126511176
 21
3624.1798019919811
 31
0.0
  0
LINE
  5
BF
  8
2
 62
     7
 10
4603.1390846691647
 20
3590.56217401003
 30
0.0
 11
4612.2909585443585
 21
3599.714047885222
 31
0.0
  0
LINE
  5
C0
  8
2
 62
     7
 10
4632.0365110718867
 20
3613.8027461632578
 30
0.0
 11
4640.592999750198
 21
3622.35923484157
 31
0.0
  0
LINE
  5
C1
  8
2
 62
     7
 10
4605.3094576351041
 20
3587.0756927264738
 30
0.0
 11
4615.3527583323994
 21
3597.11899342377
 31
0.0
  0
LINE
  5
C2
  8
2
 62
     7
 10
4632.0365110718867
 20
3608.1458919137649
 30
0.0
 11
4641.2388977597939
 21
3617.348278601673
 31
0.0
  0
LINE
  5
C3
  8
2
 62
     7
 10
4610.9663118845947
 20
3587.0756927264738
 30
0.0
 11
4621.00961258189
 21
3597.11899342377
 31
0.0
  0
LINE
  5
C4
  8
2
 62
     7
 10
4632.0365110718867
 20
3602.4890376642729
 30
0.0
 11
4641.2388977597939
 21
3611.691424352181
 31
0.0
  0
LINE
  5
C5
  8
2
 62
     7
 10
4616.623166134088
 20
3587.0756927264738
 30
0.0
 11
4626.6664668313833
 21
3597.11899342377
 31
0.0
  0
LINE
  5
C6
  8
2
 62
     7
 10
4622.2800203835804
 20
3587.0756927264738
 30
0.0
 11
4641.2388977597939
 21
3606.0345701026881
 31
0.0
  0
LINE
  5
C7
  8
2
 62
     7
 10
4627.9368746330729
 20
3587.0756927264738
 30
0.0
 11
4641.2388977597939
 21
3600.3777158531962
 31
0.0
  0
LINE
  5
C8
  8
2
 62
     7
 10
4633.5937288825653
 20
3587.0756927264738
 30
0.0
 11
4641.2388977597939
 21
3594.7208616037028
 31
0.0
  0
ENDBLK
  5
C9
  8
0
  0
BLOCK
  8
2
  2
*X4
 70
     1
 10
0.0
 20
0.0
 30
0.0
  3
*X4
  1

  0
LINE
  5
CC
  8
2
 62
     7
 10
4665.3295771301537
 20
3618.811540974064
 30
0.0
 11
4670.6978381480712
 21
3624.1798019919811
 31
0.0
  0
LINE
  5
CD
  8
2
 62
     7
 10
4665.3295771301537
 20
3613.1546867245711
 30
0.0
 11
4674.3293605890422
 21
3622.1544701834632
 31
0.0
  0
LINE
  5
CE
  8
2
 62
     7
 10
4665.3295771301537
 20
3607.4978324750791
 30
0.0
 11
4674.3293605890422
 21
3616.4976159339699
 31
0.0
  0
LINE
  5
CF
  8
2
 62
     7
 10
4665.3295771301537
 20
3601.8409782255858
 30
0.0
 11
4674.3293605890422
 21
3610.840761684477
 31
0.0
  0
LINE
  5
D0
  8
2
 62
     7
 10
4665.3295771301537
 20
3596.1841239760938
 30
0.0
 11
4674.3293605890422
 21
3605.1839074349841
 31
0.0
  0
LINE
  5
D1
  8
2
 62
     7
 10
4665.3295771301537
 20
3590.5272697266009
 30
0.0
 11
4674.3293605890422
 21
3599.5270531854908
 31
0.0
  0
LINE
  5
D2
  8
2
 62
     7
 10
4667.5348543795199
 20
3587.0756927264752
 30
0.0
 11
4674.3293605890422
 21
3593.8701989359979
 31
0.0
  0
LINE
  5
D3
  8
2
 62
     7
 10
4673.1917086290141
 20
3587.075692726477
 30
0.0
 11
4674.3293605890422
 21
3588.2133446865059
 31
0.0
  0
ENDBLK
  5
D4
  8
0
  0
BLOCK
  8
2
  2
*X5
 70
     1
 10
0.0
 20
0.0
 30
0.0
  3
*X5
  1

  0
LINE
  5
D7
  8
2
 62
     7
 10
4689.2540105829103
 20
3620.10855742885
 30
0.0
 11
4693.32525514604
 21
3624.1798019919811
 31
0.0
  0
LINE
  5
D8
  8
2
 62
     7
 10
4689.257519993228
 20
3614.4552125896748
 30
0.0
 11
4698.4231867241469
 21
3623.620879320591
 31
0.0
  0
LINE
  5
D9
  8
2
 62
     7
 10
4689.2610294035449
 20
3608.8018677505011
 30
0.0
 11
4701.1473041251784
 21
3620.68814247213
 31
0.0
  0
LINE
  5
DA
  8
2
 62
     7
 10
4698.5241647601169
 20
3612.4081488575789
 30
0.0
 11
4703.8714215262107
 21
3617.75540562367
 31
0.0
  0
LINE
  5
DB
  8
2
 62
     7
 10
4689.2645388138653
 20
3603.1485229113268
 30
0.0
 11
4697.9040228667518
 21
3611.7880069642142
 31
0.0
  0
LINE
  5
DC
  8
2
 62
     7
 10
4701.2383992331943
 20
3609.4655290811638
 30
0.0
 11
4706.5955389272413
 21
3614.8226687752099
 31
0.0
  0
LINE
  5
DD
  8
2
 62
     7
 10
4689.2680482241813
 20
3597.4951780721508
 30
0.0
 11
4697.9040228667518
 21
3606.1311527147232
 31
0.0
  0
LINE
  5
DE
  8
2
 62
     7
 10
4703.9526337062707
 20
3606.5229093047492
 30
0.0
 11
4709.3196563282718
 21
3611.889931926748
 31
0.0
  0
LINE
  5
DF
  8
2
 62
     7
 10
4689.271557634499
 20
3591.8418332329779
 30
0.0
 11
4697.9040228667518
 21
3600.4742984652289
 31
0.0
  0
LINE
  5
E0
  8
2
 62
     7
 10
4722.0589588653474
 20
3618.972380214334
 30
0.0
 11
4727.2663806429973
 21
3624.1798019919811
 31
0.0
  0
LINE
  5
E1
  8
2
 62
     7
 10
4706.666868179349
 20
3603.5802895283341
 30
0.0
 11
4712.043773729305
 21
3608.9571950782879
 31
0.0
  0
LINE
  5
E2
  8
2
 62
     7
 10
4690.1622713774914
 20
3587.075692726477
 30
0.0
 11
4697.9040228667518
 21
3594.8174442157369
 31
0.0
  0
LINE
  5
E3
  8
2
 62
     7
 10
4722.0589588653474
 20
3613.3155259648411
 30
0.0
 11
4730.6898518451708
 21
3621.946418944663
 31
0.0
  0
LINE
  5
E4
  8
2
 62
     7
 10
4709.3811026524263
 20
3600.6376697519199
 30
0.0
 11
4714.7678911303356
 21
3606.0244582298269
 31
0.0
  0
LINE
  5
E5
  8
2
 62
     7
 10
4695.819125626982
 20
3587.075692726477
 30
0.0
 11
4697.9040228667518
 21
3589.160589966245
 31
0.0
  0
LINE
  5
E6
  8
2
 62
     7
 10
4722.0589588653474
 20
3607.6586717153482
 30
0.0
 11
4730.6933612554894
 21
3616.2930741054888
 31
0.0
  0
LINE
  5
E7
  8
2
 62
     7
 10
4712.0953371255036
 20
3597.6950499755039
 30
0.0
 11
4717.492008531367
 21
3603.0917213813682
 31
0.0
  0
LINE
  5
E8
  8
2
 62
     7
 10
4722.0589588653474
 20
3602.0018174658549
 30
0.0
 11
4730.6968706658063
 21
3610.6397292663141
 31
0.0
  0
LINE
  5
E9
  8
2
 62
     7
 10
4714.809571598581
 20
3594.7524301990888
 30
0.0
 11
4720.2161259323984
 21
3600.1589845329058
 31
0.0
  0
LINE
  5
EA
  8
2
 62
     7
 10
4717.5238060716574
 20
3591.8098104226742
 30
0.0
 11
4730.700380076124
 21
3604.9863844271399
 31
0.0
  0
LINE
  5
EB
  8
2
 62
     7
 10
4720.2380405447348
 20
3588.8671906462591
 30
0.0
 11
4730.7038894864418
 21
3599.3330395879648
 31
0.0
  0
LINE
  5
EC
  8
2
 62
     7
 10
4724.103396874445
 20
3587.0756927264761
 30
0.0
 11
4730.7073988967604
 21
3593.6796947487901
 31
0.0
  0
LINE
  5
ED
  8
2
 62
     7
 10
4729.7602511239384
 20
3587.0756927264761
 30
0.0
 11
4730.7109083070764
 21
3588.026349909615
 31
0.0
  0
ENDBLK
  5
EE
  8
0
  0
BLOCK
  8
2
  2
*X6
 70
     1
 10
0.0
 20
0.0
 30
0.0
  3
*X6
  1

  0
LINE
  5
F1
  8
2
 62
     7
 10
4744.4498873493776
 20
3618.7358917003949
 30
0.0
 11
4748.7954376555681
 21
3623.081442006584
 31
0.0
  0
LINE
  5
F2
  8
2
 62
     7
 10
4743.3515273639841
 20
3611.9806774655081
 30
0.0
 11
4755.5506518904558
 21
3624.1798019919811
 31
0.0
  0
LINE
  5
F3
  8
2
 62
     7
 10
4743.3515273639841
 20
3606.3238232160152
 30
0.0
 11
4761.2075061399491
 21
3624.1798019919811
 31
0.0
  0
LINE
  5
F4
  8
2
 62
     7
 10
4756.8210596921454
 20
3614.136501294684
 30
0.0
 11
4766.8643603894416
 21
3624.1798019919811
 31
0.0
  0
LINE
  5
F5
  8
2
 62
     7
 10
4743.3515273639841
 20
3600.6669689665218
 30
0.0
 11
4752.5539140518922
 21
3609.8693556544299
 31
0.0
  0
LINE
  5
F6
  8
2
 62
     7
 10
4762.4779139416387
 20
3614.136501294684
 30
0.0
 11
4772.521214638934
 21
3624.1798019919811
 31
0.0
  0
LINE
  5
F7
  8
2
 62
     7
 10
4743.5311526385076
 20
3595.1897399915561
 30
0.0
 11
4752.5539140518922
 21
3604.2125014049379
 31
0.0
  0
LINE
  5
F8
  8
2
 62
     7
 10
4768.1347681911311
 20
3614.136501294684
 30
0.0
 11
4778.1780688884246
 21
3624.1798019919811
 31
0.0
  0
LINE
  5
F9
  8
2
 62
     7
 10
4745.2341918395323
 20
3591.235924943087
 30
0.0
 11
4752.5539140518922
 21
3598.555647155446
 31
0.0
  0
LINE
  5
FA
  8
2
 62
     7
 10
4773.7916224406226
 20
3614.136501294684
 30
0.0
 11
4781.4513404546115
 21
3621.7962193086742
 31
0.0
  0
LINE
  5
FB
  8
2
 62
     7
 10
4748.1751013960311
 20
3588.5199802500929
 30
0.0
 11
4756.7741145697082
 21
3597.1189934237709
 31
0.0
  0
LINE
  5
FC
  8
2
 62
     7
 10
4779.448476690116
 20
3614.136501294684
 30
0.0
 11
4781.4513404546115
 21
3616.1393650591808
 31
0.0
  0
LINE
  5
FD
  8
2
 62
     7
 10
4752.4304859107306
 20
3587.1185105153008
 30
0.0
 11
4762.4309688192006
 21
3597.1189934237709
 31
0.0
  0
LINE
  5
FE
  8
2
 62
     7
 10
4772.2994665794204
 20
3601.3306369344982
 30
0.0
 11
4777.1053309396084
 21
3606.1365012946872
 31
0.0
  0
LINE
  5
FF
  8
2
 62
     7
 10
4758.0445223714014
 20
3587.0756927264752
 30
0.0
 11
4768.0878230686922
 21
3597.1189934237709
 31
0.0
  0
LINE
  5
100
  8
2
 62
     7
 10
4763.7013766208911
 20
3587.0756927264738
 30
0.0
 11
4781.4513404546115
 21
3604.8256565601978
 31
0.0
  0
LINE
  5
101
  8
2
 62
     7
 10
4769.3582308703826
 20
3587.0756927264738
 30
0.0
 11
4781.4513404546115
 21
3599.1688023107058
 31
0.0
  0
LINE
  5
102
  8
2
 62
     7
 10
4775.0150851198741
 20
3587.0756927264729
 30
0.0
 11
4781.4513404546115
 21
3593.511948061212
 31
0.0
  0
LINE
  5
103
  8
2
 62
     7
 10
4780.6719393693647
 20
3587.0756927264729
 30
0.0
 11
4781.4513404546115
 21
3587.855093811721
 31
0.0
  0
ENDBLK
  5
104
  8
0
  0
BLOCK
  8
2
  2
*X7
 70
     1
 10
0.0
 20
0.0
 30
0.0
  3
*X7
  1

  0
LINE
  5
107
  8
2
 62
     7
 10
4709.9245042788061
 20
3742.602427615609
 30
0.0
 11
4732.0379283331922
 21
3764.715851669996
 31
0.0
  0
LINE
  5
108
  8
2
 62
     7
 10
4707.6388564470253
 20
3734.659925534334
 30
0.0
 11
4739.9804304144664
 21
3767.0014995017759
 31
0.0
  0
LINE
  5
109
  8
2
 62
     7
 10
4707.0225222462559
 20
3728.386737084074
 30
0.0
 11
4746.2536188647264
 21
3767.6178337025458
 31
0.0
  0
LINE
  5
10A
  8
2
 62
     7
 10
4707.0147787034712
 20
3722.72213929179
 30
0.0
 11
4751.9182166852179
 21
3767.6255772735421
 31
0.0
  0
LINE
  5
10B
  8
2
 62
     7
 10
4734.0978499705889
 20
3744.1483563094239
 30
0.0
 11
4757.5750709347112
 21
3767.6255772735421
 31
0.0
  0
LINE
  5
10C
  8
2
 62
     7
 10
4707.0147787360156
 20
3717.0652850748438
 30
0.0
 11
4728.5165766818818
 21
3738.567083020715
 31
0.0
  0
LINE
  5
10D
  8
2
 62
     7
 10
4739.7547042200813
 20
3744.1483563094239
 30
0.0
 11
4763.2319251842046
 21
3767.6255772735431
 31
0.0
  0
LINE
  5
10E
  8
2
 62
     7
 10
4707.0147787685619
 20
3711.4084308578972
 30
0.0
 11
4728.5165766818818
 21
3732.910228771223
 31
0.0
  0
LINE
  5
10F
  8
2
 62
     7
 10
4745.4115584695728
 20
3744.1483563094239
 30
0.0
 11
4768.8887794336961
 21
3767.6255772735431
 31
0.0
  0
LINE
  5
110
  8
2
 62
     7
 10
4707.0147788011072
 20
3705.751576640951
 30
0.0
 11
4728.5165766818818
 21
3727.2533745217302
 31
0.0
  0
LINE
  5
111
  8
2
 62
     7
 10
4751.0684127190661
 20
3744.1483563094239
 30
0.0
 11
4774.5456336831894
 21
3767.625577273544
 31
0.0
  0
LINE
  5
112
  8
2
 62
     7
 10
4707.0147788336517
 20
3700.0947224240049
 30
0.0
 11
4728.5165766818818
 21
3721.5965202722382
 31
0.0
  0
LINE
  5
113
  8
2
 62
     7
 10
4756.7252669685577
 20
3744.1483563094239
 30
0.0
 11
4780.20248793268
 21
3767.625577273544
 31
0.0
  0
LINE
  5
114
  8
2
 62
     7
 10
4707.014778866198
 20
3694.4378682070569
 30
0.0
 11
4728.5165766818818
 21
3715.9396660227449
 31
0.0
  0
LINE
  5
115
  8
2
 62
     7
 10
4762.382121218051
 20
3744.1483563094239
 30
0.0
 11
4785.8593421821724
 21
3767.625577273544
 31
0.0
  0
LINE
  5
116
  8
2
 62
     7
 10
4707.0147788987433
 20
3688.7810139901112
 30
0.0
 11
4728.5165766818818
 21
3710.2828117732538
 31
0.0
  0
LINE
  5
117
  8
2
 62
     7
 10
4768.0389754675416
 20
3744.1483563094239
 30
0.0
 11
4791.5161964316667
 21
3767.6255772735449
 31
0.0
  0
LINE
  5
118
  8
2
 62
     7
 10
4707.0147789312887
 20
3683.1241597731641
 30
0.0
 11
4733.9643446726504
 21
3710.0737255145291
 31
0.0
  0
LINE
  5
119
  8
2
 62
     7
 10
4773.6958297170358
 20
3744.1483563094239
 30
0.0
 11
4795.7217109416451
 21
3766.1742375340309
 31
0.0
  0
LINE
  5
11A
  8
2
 62
     7
 10
4707.0147789638331
 20
3677.4673055562189
 30
0.0
 11
4739.621198922142
 21
3710.0737255145291
 31
0.0
  0
LINE
  5
11B
  8
2
 62
     7
 10
4775.2049714910718
 20
3740.0006438339678
 30
0.0
 11
4797.6115172463451
 21
3762.4071895892389
 31
0.0
  0
LINE
  5
11C
  8
2
 62
     7
 10
4707.0147789963776
 20
3671.8104513392718
 30
0.0
 11
4745.2780531716344
 21
3710.0737255145291
 31
0.0
  0
LINE
  5
11D
  8
2
 62
     7
 10
4775.2049714910718
 20
3734.343789584475
 30
0.0
 11
4797.6334237123956
 21
3756.7722418058001
 31
0.0
  0
LINE
  5
11E
  8
2
 62
     7
 10
4707.0147790289238
 20
3666.1535971223238
 30
0.0
 11
4750.9349074211268
 21
3710.0737255145291
 31
0.0
  0
LINE
  5
11F
  8
2
 62
     7
 10
4775.2049714910718
 20
3728.6869353349821
 30
0.0
 11
4797.6334237123956
 21
3751.1153875563068
 31
0.0
  0
LINE
  5
120
  8
2
 62
     7
 10
4733.5098557943711
 20
3686.9918196382819
 30
0.0
 11
4756.5917616706192
 21
3710.0737255145291
 31
0.0
  0
LINE
  5
121
  8
2
 62
     7
 10
4707.0147790614701
 20
3660.4967429053781
 30
0.0
 11
4728.5165766818818
 21
3681.9985405257898
 31
0.0
  0
LINE
  5
122
  8
2
 62
     7
 10
4775.2049714910718
 20
3723.0300810854892
 30
0.0
 11
4797.6334237123956
 21
3745.4585333068148
 31
0.0
  0
LINE
  5
123
  8
2
 62
     7
 10
4739.1667100438644
 20
3686.9918196382819
 30
0.0
 11
4762.2486159201117
 21
3710.0737255145291
 31
0.0
  0
LINE
  5
124
  8
2
 62
     7
 10
4707.0147790940146
 20
3654.8398886884311
 30
0.0
 11
4728.5165766818818
 21
3676.3416862762988
 31
0.0
  0
LINE
  5
125
  8
2
 62
     7
 10
4775.2049714910718
 20
3717.3732268359968
 30
0.0
 11
4797.6334237123956
 21
3739.801679057322
 31
0.0
  0
LINE
  5
126
  8
2
 62
     7
 10
4744.823564293356
 20
3686.9918196382819
 30
0.0
 11
4767.9054701696041
 21
3710.0737255145291
 31
0.0
  0
LINE
  5
127
  8
2
 62
     7
 10
4707.0147791265608
 20
3649.1830344714849
 30
0.0
 11
4728.5165766818818
 21
3670.6848320268059
 31
0.0
  0
LINE
  5
128
  8
2
 62
     7
 10
4775.2049714910718
 20
3711.7163725865039
 30
0.0
 11
4797.6334237123956
 21
3734.14482480783
 31
0.0
  0
LINE
  5
129
  8
2
 62
     7
 10
4750.4804185428466
 20
3686.9918196382819
 30
0.0
 11
4773.5623244190974
 21
3710.0737255145291
 31
0.0
  0
LINE
  5
12A
  8
2
 62
     7
 10
4707.2693457570022
 20
3643.7807468524338
 30
0.0
 11
4728.5165766818818
 21
3665.027977777313
 31
0.0
  0
LINE
  5
12B
  8
2
 62
     7
 10
4756.1372727923399
 20
3686.9918196382819
 30
0.0
 11
4797.6334237123956
 21
3728.487970558338
 31
0.0
  0
LINE
  5
12C
  8
2
 62
     7
 10
4709.3144421254983
 20
3640.1689889714371
 30
0.0
 11
4728.5165766818818
 21
3659.3711235278211
 31
0.0
  0
LINE
  5
12D
  8
2
 62
     7
 10
4761.7941270418341
 20
3686.9918196382819
 30
0.0
 11
4797.6334237123956
 21
3722.8311163088451
 31
0.0
  0
LINE
  5
12E
  8
2
 62
     7
 10
4712.8755432538392
 20
3638.0732358502869
 30
0.0
 11
4728.5165766818818
 21
3653.7142692783282
 31
0.0
  0
LINE
  5
12F
  8
2
 62
     7
 10
4767.4509812913257
 20
3686.9918196382819
 30
0.0
 11
4797.6334237123956
 21
3717.1742620593541
 31
0.0
  0
LINE
  5
130
  8
2
 62
     7
 10
4718.2407564845962
 20
3637.7815948315501
 30
0.0
 11
4728.5165766818818
 21
3648.0574150288362
 31
0.0
  0
LINE
  5
131
  8
2
 62
     7
 10
4773.1078355408181
 20
3686.9918196382819
 30
0.0
 11
4797.6334237123956
 21
3711.5174078098612
 31
0.0
  0
LINE
  5
132
  8
2
 62
     7
 10
4775.270514062172
 20
3683.4976439101429
 30
0.0
 11
4797.6334237123956
 21
3705.8605535603692
 31
0.0
  0
LINE
  5
133
  8
2
 62
     7
 10
4775.270514062172
 20
3677.84078966065
 30
0.0
 11
4797.6334237123956
 21
3700.2036993108759
 31
0.0
  0
LINE
  5
134
  8
2
 62
     7
 10
4775.270514062172
 20
3672.183935411158
 30
0.0
 11
4797.6334237123956
 21
3694.546845061383
 31
0.0
  0
LINE
  5
135
  8
2
 62
     7
 10
4775.270514062172
 20
3666.5270811616651
 30
0.0
 11
4797.6334237123956
 21
3688.889990811891
 31
0.0
  0
LINE
  5
136
  8
2
 62
     7
 10
4775.270514062172
 20
3660.8702269121732
 30
0.0
 11
4797.6334237123956
 21
3683.2331365623982
 31
0.0
  0
LINE
  5
137
  8
2
 62
     7
 10
4775.270514062172
 20
3655.2133726626789
 30
0.0
 11
4797.6334237123956
 21
3677.5762823129062
 31
0.0
  0
LINE
  5
138
  8
2
 62
     7
 10
4775.270514062172
 20
3649.5565184131879
 30
0.0
 11
4797.6334237123956
 21
3671.9194280634129
 31
0.0
  0
LINE
  5
139
  8
2
 62
     7
 10
4775.9113908521576
 20
3644.5405409536811
 30
0.0
 11
4797.6334237123956
 21
3666.2625738139209
 31
0.0
  0
LINE
  5
13A
  8
2
 62
     7
 10
4778.0728410211559
 20
3641.0451368731879
 30
0.0
 11
4797.6334237123956
 21
3660.6057195644289
 31
0.0
  0
LINE
  5
13B
  8
2
 62
     7
 10
4781.3746159078737
 20
3638.6900575104141
 30
0.0
 11
4797.6334237123956
 21
3654.948865314936
 31
0.0
  0
LINE
  5
13C
  8
2
 62
     7
 10
4786.1230074785026
 20
3637.7815948315501
 30
0.0
 11
4797.6334237123956
 21
3649.2920110654441
 31
0.0
  0
LINE
  5
13D
  8
2
 62
     7
 10
4792.2045218962003
 20
3638.2062549997559
 30
0.0
 11
4797.2087635441931
 21
3643.2104966477482
 31
0.0
  0
ENDBLK
  5
13E
  8
0
  0
BLOCK
  8
2
  2
*X8
 70
     1
 10
0.0
 20
0.0
 30
0.0
  3
*X8
  1

  0
LINE
  5
141
  8
2
 62
     7
 10
4624.0203350142674
 20
3741.5510720934558
 30
0.0
 11
4647.5910595249698
 21
3765.1217966041581
 31
0.0
  0
LINE
  5
142
  8
2
 62
     7
 10
4622.0090115270941
 20
3733.8828943567892
 30
0.0
 11
4655.2592372616346
 21
3767.133120091331
 31
0.0
  0
LINE
  5
143
  8
2
 62
     7
 10
4621.517505193855
 20
3727.7345337740589
 30
0.0
 11
4661.4075978443652
 21
3767.6246264245679
 31
0.0
  0
LINE
  5
144
  8
2
 62
     7
 10
4643.5881819787128
 20
3744.1483563094198
 30
0.0
 11
4667.0654029428351
 21
3767.625577273544
 31
0.0
  0
LINE
  5
145
  8
2
 62
     7
 10
4621.5165543768062
 20
3722.0767287075182
 30
0.0
 11
4643.0183523515043
 21
3743.5785266822149
 31
0.0
  0
LINE
  5
146
  8
2
 62
     7
 10
4649.2450362282043
 20
3744.1483563094198
 30
0.0
 11
4672.7222571923276
 21
3767.625577273544
 31
0.0
  0
LINE
  5
147
  8
2
 62
     7
 10
4621.5165544093506
 20
3716.4198744905711
 30
0.0
 11
4643.0183523515043
 21
3737.921672432723
 31
0.0
  0
LINE
  5
148
  8
2
 62
     7
 10
4654.9018904776949
 20
3744.1483563094189
 30
0.0
 11
4678.3791114418182
 21
3767.625577273544
 31
0.0
  0
LINE
  5
149
  8
2
 62
     7
 10
4621.5165544418969
 20
3710.7630202736232
 30
0.0
 11
4643.0183523515043
 21
3732.2648181832319
 31
0.0
  0
LINE
  5
14A
  8
2
 62
     7
 10
4660.5587447271873
 20
3744.1483563094189
 30
0.0
 11
4684.0359656913097
 21
3767.6255772735431
 31
0.0
  0
LINE
  5
14B
  8
2
 62
     7
 10
4621.5165544744423
 20
3705.1061660566761
 30
0.0
 11
4643.0183523515043
 21
3726.6079639337381
 31
0.0
  0
LINE
  5
14C
  8
2
 62
     7
 10
4666.2155989766788
 20
3744.148356309418
 30
0.0
 11
4689.0240447186807
 21
3766.956802051423
 31
0.0
  0
LINE
  5
14D
  8
2
 62
     7
 10
4621.5165545069876
 20
3699.4493118397299
 30
0.0
 11
4643.0183523515043
 21
3720.9511096842461
 31
0.0
  0
LINE
  5
14E
  8
2
 62
     7
 10
4671.8724532261704
 20
3744.148356309418
 30
0.0
 11
4691.6794737171776
 21
3763.9553768004271
 31
0.0
  0
LINE
  5
14F
  8
2
 62
     7
 10
4621.516554539533
 20
3693.792457622782
 30
0.0
 11
4643.0183523515043
 21
3715.2942554347528
 31
0.0
  0
LINE
  5
150
  8
2
 62
     7
 10
4677.529307475661
 20
3744.148356309418
 30
0.0
 11
4692.0588463170061
 21
3758.6778951507622
 31
0.0
  0
LINE
  5
151
  8
2
 62
     7
 10
4621.5165545720783
 20
3688.135603405834
 30
0.0
 11
4643.0183523515043
 21
3709.6374011852608
 31
0.0
  0
LINE
  5
152
  8
2
 62
     7
 10
4683.1861617251534
 20
3744.148356309418
 30
0.0
 11
4692.0588463170061
 21
3753.0210409012702
 31
0.0
  0
LINE
  5
153
  8
2
 62
     7
 10
4621.5165546046237
 20
3682.4787491888869
 30
0.0
 11
4643.0183523515043
 21
3703.980546935768
 31
0.0
  0
LINE
  5
154
  8
2
 62
     7
 10
4621.5165546371691
 20
3676.8218949719399
 30
0.0
 11
4643.0183523515043
 21
3698.3236926862769
 31
0.0
  0
LINE
  5
155
  8
2
 62
     7
 10
4621.5165546697126
 20
3671.1650407549928
 30
0.0
 11
4643.0183523515043
 21
3692.666838436784
 31
0.0
  0
LINE
  5
156
  8
2
 62
     7
 10
4621.5165547022589
 20
3665.5081865380462
 30
0.0
 11
4643.0183523515043
 21
3687.0099841872911
 31
0.0
  0
LINE
  5
157
  8
2
 62
     7
 10
4621.5165547348051
 20
3659.8513323211
 30
0.0
 11
4643.0183523515043
 21
3681.3531299377992
 31
0.0
  0
LINE
  5
158
  8
2
 62
     7
 10
4621.5165547673514
 20
3654.194478104152
 30
0.0
 11
4643.0183523515043
 21
3675.6962756883058
 31
0.0
  0
LINE
  5
159
  8
2
 62
     7
 10
4621.5165547998949
 20
3648.5376238872059
 30
0.0
 11
4643.0183523515043
 21
3670.0394214388139
 31
0.0
  0
LINE
  5
15A
  8
2
 62
     7
 10
4621.9174143642249
 20
3643.281629202043
 30
0.0
 11
4643.0183523515043
 21
3664.3825671893219
 31
0.0
  0
LINE
  5
15B
  8
2
 62
     7
 10
4624.1455410845856
 20
3639.8529016729108
 30
0.0
 11
4643.0183523515043
 21
3658.725712939829
 31
0.0
  0
LINE
  5
15C
  8
2
 62
     7
 10
4627.8970074332528
 20
3637.9475137720869
 30
0.0
 11
4643.0183523515043
 21
3653.0688586903379
 31
0.0
  0
LINE
  5
15D
  8
2
 62
     7
 10
4633.3879427422116
 20
3637.781594831552
 30
0.0
 11
4643.0183523515043
 21
3647.4120044408451
 31
0.0
  0
ENDBLK
  5
15E
  8
0
  0
BLOCK
  8
2
  2
*X9
 70
     1
 10
0.0
 20
0.0
 30
0.0
  3
*X9
  1

  0
LINE
  5
161
  8
2
 62
     7
 10
4521.9061523779874
 20
3752.5739744470229
 30
0.0
 11
4528.2221041730118
 21
3758.8899262420482
 31
0.0
  0
LINE
  5
162
  8
2
 62
     7
 10
4515.205151552128
 20
3740.216119371672
 30
0.0
 11
4540.5799592483572
 21
3765.5909270678999
 31
0.0
  0
LINE
  5
163
  8
2
 62
     7
 10
4513.5175379158791
 20
3732.8716514859289
 30
0.0
 11
4547.9244271341013
 21
3767.2785407041529
 31
0.0
  0
LINE
  5
164
  8
2
 62
     7
 10
4513.170501350849
 20
3726.8677606714091
 30
0.0
 11
4553.9283179529857
 21
3767.6255772735421
 31
0.0
  0
LINE
  5
165
  8
2
 62
     7
 10
4536.1079512383531
 20
3744.1483563094212
 30
0.0
 11
4559.5851722024781
 21
3767.6255772735431
 31
0.0
  0
LINE
  5
166
  8
2
 62
     7
 10
4513.1705013833944
 20
3721.2109064544611
 30
0.0
 11
4534.6722993531093
 21
3742.7127044241779
 31
0.0
  0
LINE
  5
167
  8
2
 62
     7
 10
4541.7648054878464
 20
3744.1483563094212
 30
0.0
 11
4565.2420264519697
 21
3767.6255772735431
 31
0.0
  0
LINE
  5
168
  8
2
 62
     7
 10
4513.1705014159397
 20
3715.554052237514
 30
0.0
 11
4534.6722993531093
 21
3737.0558501746841
 31
0.0
  0
LINE
  5
169
  8
2
 62
     7
 10
4547.421659737337
 20
3744.1483563094212
 30
0.0
 11
4570.8988807014621
 21
3767.625577273544
 31
0.0
  0
LINE
  5
16A
  8
2
 62
     7
 10
4513.1705014484851
 20
3709.897198020567
 30
0.0
 11
4534.6722993531093
 21
3731.3989959251921
 31
0.0
  0
LINE
  5
16B
  8
2
 62
     7
 10
4553.0785139868294
 20
3744.1483563094212
 30
0.0
 11
4576.5557349509563
 21
3767.625577273544
 31
0.0
  0
LINE
  5
16C
  8
2
 62
     7
 10
4513.1705014810286
 20
3704.2403438036208
 30
0.0
 11
4534.6722993531093
 21
3725.7421416756988
 31
0.0
  0
LINE
  5
16D
  8
2
 62
     7
 10
4558.7353682363228
 20
3744.1483563094212
 30
0.0
 11
4582.2125892004469
 21
3767.625577273544
 31
0.0
  0
LINE
  5
16E
  8
2
 62
     7
 10
4513.1705015135758
 20
3698.5834895866728
 30
0.0
 11
4534.6722993531093
 21
3720.0852874262082
 31
0.0
  0
LINE
  5
16F
  8
2
 62
     7
 10
4564.3922224858152
 20
3744.1483563094212
 30
0.0
 11
4587.8694434499394
 21
3767.6255772735449
 31
0.0
  0
LINE
  5
170
  8
2
 62
     7
 10
4513.1705015461212
 20
3692.9266353697258
 30
0.0
 11
4534.6860627110054
 21
3714.442196534605
 31
0.0
  0
LINE
  5
171
  8
2
 62
     7
 10
4570.0490767353076
 20
3744.1483563094212
 30
0.0
 11
4593.5262976994318
 21
3767.6255772735449
 31
0.0
  0
LINE
  5
172
  8
2
 62
     7
 10
4513.1705015786674
 20
3687.2697811527792
 30
0.0
 11
4540.342916960497
 21
3714.442196534605
 31
0.0
  0
LINE
  5
173
  8
2
 62
     7
 10
4575.7059309848
 20
3744.1483563094212
 30
0.0
 11
4599.0912038432916
 21
3767.5336291679109
 31
0.0
  0
LINE
  5
174
  8
2
 62
     7
 10
4513.1705016112119
 20
3681.6129269358321
 30
0.0
 11
4545.9997712099894
 21
3714.442196534605
 31
0.0
  0
LINE
  5
175
  8
2
 62
     7
 10
4581.3627852342934
 20
3744.1483563094212
 30
0.0
 11
4602.6052884297314
 21
3765.3908595048579
 31
0.0
  0
LINE
  5
176
  8
2
 62
     7
 10
4513.1705016437563
 20
3675.956072718885
 30
0.0
 11
4551.6566254594818
 21
3714.442196534605
 31
0.0
  0
LINE
  5
177
  8
2
 62
     7
 10
4587.019639483784
 20
3744.1483563094212
 30
0.0
 11
4603.7891463836268
 21
3760.917863209263
 31
0.0
  0
LINE
  5
178
  8
2
 62
     7
 10
4513.1705016763026
 20
3670.299218501938
 30
0.0
 11
4557.3134797089751
 21
3714.4421965346069
 31
0.0
  0
LINE
  5
179
  8
2
 62
     7
 10
4592.6764937332782
 20
3744.1483563094212
 30
0.0
 11
4603.7891463836268
 21
3755.2610089597711
 31
0.0
  0
LINE
  5
17A
  8
2
 62
     7
 10
4539.4931129943434
 20
3690.9649755704859
 30
0.0
 11
4562.9703339584667
 21
3714.4421965346069
 31
0.0
  0
LINE
  5
17B
  8
2
 62
     7
 10
4513.170501708848
 20
3664.64236428499
 30
0.0
 11
4534.6722993531102
 21
3686.1441619292532
 31
0.0
  0
LINE
  5
17C
  8
2
 62
     7
 10
4598.3398634065034
 20
3744.154871733153
 30
0.0
 11
4603.782630959894
 21
3749.597639286545
 31
0.0
  0
LINE
  5
17D
  8
2
 62
     7
 10
4545.1499672438358
 20
3690.9649755704859
 30
0.0
 11
4568.62718820796
 21
3714.4421965346091
 31
0.0
  0
LINE
  5
17E
  8
2
 62
     7
 10
4513.1705017413933
 20
3658.9855100680429
 30
0.0
 11
4534.6722993531102
 21
3680.4873076797612
 31
0.0
  0
LINE
  5
17F
  8
2
 62
     7
 10
4550.8068214933282
 20
3690.9649755704859
 30
0.0
 11
4574.2840424574524
 21
3714.4421965346091
 31
0.0
  0
LINE
  5
180
  8
2
 62
     7
 10
4513.1705017739396
 20
3653.3286558510972
 30
0.0
 11
4534.6722993531102
 21
3674.8304534302679
 31
0.0
  0
LINE
  5
181
  8
2
 62
     7
 10
4556.4636757428207
 20
3690.9649755704859
 30
0.0
 11
4579.9408967069439
 21
3714.4421965346091
 31
0.0
  0
LINE
  5
182
  8
2
 62
     7
 10
4513.170501806484
 20
3647.6718016341501
 30
0.0
 11
4534.6722993531102
 21
3669.1735991807759
 31
0.0
  0
LINE
  5
183
  8
2
 62
     7
 10
4562.1205299923131
 20
3690.9649755704859
 30
0.0
 11
4585.5977509564364
 21
3714.4421965346091
 31
0.0
  0
LINE
  5
184
  8
2
 62
     7
 10
4513.8079288886865
 20
3642.6523744668611
 30
0.0
 11
4534.6722993531102
 21
3663.516744931283
 31
0.0
  0
LINE
  5
185
  8
2
 62
     7
 10
4567.7773842418064
 20
3690.9649755704859
 30
0.0
 11
4591.2546052059288
 21
3714.442196534611
 31
0.0
  0
LINE
  5
186
  8
2
 62
     7
 10
4516.2705066687222
 20
3639.4580979974021
 30
0.0
 11
4538.0712244669921
 21
3661.2588157956739
 31
0.0
  0
LINE
  5
187
  8
2
 62
     7
 10
4573.434238491297
 20
3690.9649755704859
 30
0.0
 11
4596.9114594554221
 21
3714.442196534611
 31
0.0
  0
LINE
  5
188
  8
2
 62
     7
 10
4520.2987320910997
 20
3637.8294691702881
 30
0.0
 11
4543.7280787164837
 21
3661.2588157956739
 31
0.0
  0
LINE
  5
189
  8
2
 62
     7
 10
4579.0910927407886
 20
3690.9649755704859
 30
0.0
 11
4601.4574049139364
 21
3713.3312877436329
 31
0.0
  0
LINE
  5
18A
  8
2
 62
     7
 10
4525.9077120018537
 20
3637.7815948315501
 30
0.0
 11
4549.384932965977
 21
3661.2588157956739
 31
0.0
  0
LINE
  5
18B
  8
2
 62
     7
 10
4584.7479469902819
 20
3690.9649755704859
 30
0.0
 11
4603.6695280262074
 21
3709.8865566064119
 31
0.0
  0
LINE
  5
18C
  8
2
 62
     7
 10
4531.5645662513462
 20
3637.7815948315501
 30
0.0
 11
4555.0417872154676
 21
3661.2588157956739
 31
0.0
  0
LINE
  5
18D
  8
2
 62
     7
 10
4590.4048012397752
 20
3690.9649755704859
 30
0.0
 11
4603.7891463836258
 21
3704.349320714337
 31
0.0
  0
LINE
  5
18E
  8
2
 62
     7
 10
4537.2214205008404
 20
3637.7815948315501
 30
0.0
 11
4560.6986414649618
 21
3661.2588157956739
 31
0.0
  0
LINE
  5
18F
  8
2
 62
     7
 10
4596.0616554892677
 20
3690.9649755704859
 30
0.0
 11
4603.7891463836258
 21
3698.692466464845
 31
0.0
  0
LINE
  5
190
  8
2
 62
     7
 10
4542.878274750331
 20
3637.7815948315501
 30
0.0
 11
4566.3554957144534
 21
3661.2588157956739
 31
0.0
  0
LINE
  5
191
  8
2
 62
     7
 10
4548.5351289998234
 20
3637.7815948315501
 30
0.0
 11
4572.0123499639467
 21
3661.2588157956739
 31
0.0
  0
LINE
  5
192
  8
2
 62
     7
 10
4554.1919832493159
 20
3637.7815948315501
 30
0.0
 11
4577.6692042134391
 21
3661.2588157956739
 31
0.0
  0
LINE
  5
193
  8
2
 62
     7
 10
4559.8488374988083
 20
3637.7815948315501
 30
0.0
 11
4583.3260584629325
 21
3661.2588157956739
 31
0.0
  0
LINE
  5
194
  8
2
 62
     7
 10
4565.5056917483007
 20
3637.7815948315501
 30
0.0
 11
4588.9829127124231
 21
3661.2588157956739
 31
0.0
  0
LINE
  5
195
  8
2
 62
     7
 10
4571.1625459977922
 20
3637.7815948315501
 30
0.0
 11
4594.6397669619146
 21
3661.2588157956739
 31
0.0
  0
LINE
  5
196
  8
2
 62
     7
 10
4576.8194002472846
 20
3637.7815948315501
 30
0.0
 11
4599.9713425331129
 21
3660.9335371173761
 31
0.0
  0
LINE
  5
197
  8
2
 62
     7
 10
4582.476254496778
 20
3637.7815948315501
 30
0.0
 11
4603.0487997455639
 21
3658.354140080336
 31
0.0
  0
LINE
  5
198
  8
2
 62
     7
 10
4588.1331087462704
 20
3637.7815948315501
 30
0.0
 11
4603.7891463836258
 21
3653.4376324689069
 31
0.0
  0
LINE
  5
199
  8
2
 62
     7
 10
4593.7899629957628
 20
3637.7815948315501
 30
0.0
 11
4603.7891463836258
 21
3647.7807782194159
 31
0.0
  0
LINE
  5
19A
  8
2
 62
     7
 10
4599.677301321326
 20
3638.0120789076209
 30
0.0
 11
4603.558662307556
 21
3641.8934398938509
 31
0.0
  0
ENDBLK
  5
19B
  8
0
  0
BLOCK
  8
2
  2
*X10
 70
     1
 10
0.0
 20
0.0
 30
0.0
  3
*X10
  1

  0
LINE
  5
19E
  8
2
 62
     7
 10
4408.9038543668894
 20
3741.3950529267859
 30
0.0
 11
4432.6889312203821
 21
3765.1801297802822
 31
0.0
  0
LINE
  5
19F
  8
2
 62
     7
 10
4406.9336995313633
 20
3733.7680438417692
 30
0.0
 11
4440.3159403054024
 21
3767.1502846158069
 31
0.0
  0
LINE
  5
1A0
  8
2
 62
     7
 10
4406.4584977247869
 20
3727.6359877857012
 30
0.0
 11
4446.4479963614676
 21
3767.625486422382
 31
0.0
  0
LINE
  5
1A1
  8
2
 62
     7
 10
4428.6277204979988
 20
3744.1483563094212
 30
0.0
 11
4452.104941462123
 21
3767.6255772735431
 31
0.0
  0
LINE
  5
1A2
  8
2
 62
     7
 10
4406.4584069061129
 20
3721.9790427175299
 30
0.0
 11
4427.9602048802481
 21
3743.4808406916709
 31
0.0
  0
LINE
  5
1A3
  8
2
 62
     7
 10
4434.284574747493
 20
3744.1483563094212
 30
0.0
 11
4457.7617957116163
 21
3767.6255772735431
 31
0.0
  0
LINE
  5
1A4
  8
2
 62
     7
 10
4406.4584069386574
 20
3716.3221885005828
 30
0.0
 11
4427.9602048802481
 21
3737.823986442178
 31
0.0
  0
LINE
  5
1A5
  8
2
 62
     7
 10
4439.9414289969836
 20
3744.1483563094212
 30
0.0
 11
4463.4186499611078
 21
3767.625577273544
 31
0.0
  0
LINE
  5
1A6
  8
2
 62
     7
 10
4406.4584069712037
 20
3710.6653342836362
 30
0.0
 11
4427.9602048802481
 21
3732.1671321926851
 31
0.0
  0
LINE
  5
1A7
  8
2
 62
     7
 10
4445.598283246477
 20
3744.1483563094212
 30
0.0
 11
4469.0755042106011
 21
3767.625577273544
 31
0.0
  0
LINE
  5
1A8
  8
2
 62
     7
 10
4406.458407003749
 20
3705.0084800666891
 30
0.0
 11
4427.9602048802481
 21
3726.5102779431932
 31
0.0
  0
LINE
  5
1A9
  8
2
 62
     7
 10
4451.2551374959694
 20
3744.1483563094212
 30
0.0
 11
4474.7323584600927
 21
3767.625577273544
 31
0.0
  0
LINE
  5
1AA
  8
2
 62
     7
 10
4406.4584070362953
 20
3699.351625849743
 30
0.0
 11
4427.9602048802481
 21
3720.8534236936998
 31
0.0
  0
LINE
  5
1AB
  8
2
 62
     7
 10
4456.9119917454618
 20
3744.1483563094212
 30
0.0
 11
4480.389212709586
 21
3767.6255772735449
 31
0.0
  0
LINE
  5
1AC
  8
2
 62
     7
 10
4406.4584070688388
 20
3693.6947716327959
 30
0.0
 11
4427.9602048802481
 21
3715.1965694442079
 31
0.0
  0
LINE
  5
1AD
  8
2
 62
     7
 10
4462.5688459949542
 20
3744.1483563094212
 30
0.0
 11
4486.0460669590784
 21
3767.6255772735449
 31
0.0
  0
LINE
  5
1AE
  8
2
 62
     7
 10
4406.4584071013851
 20
3688.0379174158488
 30
0.0
 11
4427.9602048802481
 21
3709.539715194715
 31
0.0
  0
LINE
  5
1AF
  8
2
 62
     7
 10
4468.2257002444458
 20
3744.1483563094212
 30
0.0
 11
4491.6929488577107
 21
3767.6156049226861
 31
0.0
  0
LINE
  5
1B0
  8
2
 62
     7
 10
4406.4584071339314
 20
3682.3810631989031
 30
0.0
 11
4427.9602048802481
 21
3703.882860945223
 31
0.0
  0
LINE
  5
1B1
  8
2
 62
     7
 10
4473.8825544939391
 20
3744.1483563094212
 30
0.0
 11
4495.5410905905237
 21
3765.806892406008
 31
0.0
  0
LINE
  5
1B2
  8
2
 62
     7
 10
4406.4584071664758
 20
3676.7242089819561
 30
0.0
 11
4427.9602048802481
 21
3698.226006695731
 31
0.0
  0
LINE
  5
1B3
  8
2
 62
     7
 10
4479.5394087434324
 20
3744.1483563094212
 30
0.0
 11
4497.0770519107627
 21
3761.6859994767519
 31
0.0
  0
LINE
  5
1B4
  8
2
 62
     7
 10
4406.4584071990203
 20
3671.067354765009
 30
0.0
 11
4427.9602048802481
 21
3692.5691524462381
 31
0.0
  0
LINE
  5
1B5
  8
2
 62
     7
 10
4485.1962629929239
 20
3744.1483563094212
 30
0.0
 11
4497.0770519107627
 21
3756.02914522726
 31
0.0
  0
LINE
  5
1B6
  8
2
 62
     7
 10
4406.4584072315674
 20
3665.4105005480628
 30
0.0
 11
4427.9602048802481
 21
3686.9122981967471
 31
0.0
  0
LINE
  5
1B7
  8
2
 62
     7
 10
4490.8531172424146
 20
3744.1483563094212
 30
0.0
 11
4497.0770519107627
 21
3750.372290977768
 31
0.0
  0
LINE
  5
1B8
  8
2
 62
     7
 10
4406.458407264111
 20
3659.7536463311162
 30
0.0
 11
4427.9602048802481
 21
3681.2554439472528
 31
0.0
  0
LINE
  5
1B9
  8
2
 62
     7
 10
4406.4584072966572
 20
3654.096792114171
 30
0.0
 11
4427.9602048802481
 21
3675.5985896977618
 31
0.0
  0
LINE
  5
1BA
  8
2
 62
     7
 10
4406.4584073292026
 20
3648.439937897223
 30
0.0
 11
4427.9602048802481
 21
3669.9417354482689
 31
0.0
  0
LINE
  5
1BB
  8
2
 62
     7
 10
4406.8837576691194
 20
3643.208433987646
 30
0.0
 11
4427.9602048802481
 21
3664.284881198776
 31
0.0
  0
LINE
  5
1BC
  8
2
 62
     7
 10
4409.1389226449437
 20
3639.8067447139811
 30
0.0
 11
4430.5909937266379
 21
3661.2588157956739
 31
0.0
  0
LINE
  5
1BD
  8
2
 62
     7
 10
4412.9200314306063
 20
3637.9309992501499
 30
0.0
 11
4436.2478479761294
 21
3661.2588157956739
 31
0.0
  0
LINE
  5
1BE
  8
2
 62
     7
 10
4418.4274812614976
 20
3637.7815948315501
 30
0.0
 11
4441.9047022256227
 21
3661.2588157956739
 31
0.0
  0
LINE
  5
1BF
  8
2
 62
     7
 10
4424.0843355109901
 20
3637.7815948315501
 30
0.0
 11
4447.5615564751151
 21
3661.2588157956739
 31
0.0
  0
LINE
  5
1C0
  8
2
 62
     7
 10
4429.7411897604816
 20
3637.7815948315501
 30
0.0
 11
4453.2184107246076
 21
3661.2588157956739
 31
0.0
  0
LINE
  5
1C1
  8
2
 62
     7
 10
4435.398044009974
 20
3637.7815948315501
 30
0.0
 11
4458.8752649741
 21
3661.2588157956739
 31
0.0
  0
LINE
  5
1C2
  8
2
 62
     7
 10
4441.0548982594673
 20
3637.7815948315501
 30
0.0
 11
4464.5321192235924
 21
3661.2588157956739
 31
0.0
  0
LINE
  5
1C3
  8
2
 62
     7
 10
4446.7117525089589
 20
3637.7815948315501
 30
0.0
 11
4470.1889734730839
 21
3661.2588157956739
 31
0.0
  0
LINE
  5
1C4
  8
2
 62
     7
 10
4452.3686067584522
 20
3637.7815948315501
 30
0.0
 11
4475.8458277225773
 21
3661.2588157956739
 31
0.0
  0
LINE
  5
1C5
  8
2
 62
     7
 10
4458.0254610079437
 20
3637.7815948315501
 30
0.0
 11
4481.5026819720697
 21
3661.2588157956739
 31
0.0
  0
LINE
  5
1C6
  8
2
 62
     7
 10
4463.682315257437
 20
3637.7815948315501
 30
0.0
 11
4487.1595362215621
 21
3661.2588157956739
 31
0.0
  0
LINE
  5
1C7
  8
2
 62
     7
 10
4469.3391695069286
 20
3637.7815948315501
 30
0.0
 11
4492.665042172378
 21
3661.1074674969982
 31
0.0
  0
LINE
  5
1C8
  8
2
 62
     7
 10
4474.996023756421
 20
3637.7815948315501
 30
0.0
 11
4496.0395462934093
 21
3658.8251173685371
 31
0.0
  0
LINE
  5
1C9
  8
2
 62
     7
 10
4480.6528780059134
 20
3637.7815948315501
 30
0.0
 11
4497.0770519107637
 21
3654.2057687363981
 31
0.0
  0
LINE
  5
1CA
  8
2
 62
     7
 10
4486.3097322554058
 20
3637.7815948315501
 30
0.0
 11
4497.0770519107637
 21
3648.5489144869048
 31
0.0
  0
LINE
  5
1CB
  8
2
 62
     7
 10
4492.0032390106044
 20
3637.818247337254
 30
0.0
 11
4497.0403994050621
 21
3642.8554077317131
 31
0.0
  0
ENDBLK
  5
1CC
  8
0
  0
BLOCK
  8
2
  2
*D11
 70
     1
 10
0.0
 20
0.0
 30
0.0
  3
*D11
  1

  0
LINE
  5
1CF
  8
2
 62
     7
 10
5622.0519154376343
 20
5077.3521025850896
 30
0.0
 11
5622.0519154376343
 21
5189.9057363201573
 31
0.0
  0
LINE
  5
1D0
  8
2
 62
     7
 10
5622.0519154376343
 20
5017.3506358380992
 30
0.0
 11
5622.0519154376343
 21
5077.3521025850896
 31
0.0
  0
LINE
  5
1D1
  8
2
 62
     7
 10
5622.0519154376343
 20
4937.3506358380982
 30
0.0
 11
5622.0519154376343
 21
5017.3506358380992
 31
0.0
  0
LINE
  5
1D2
  8
2
 62
     7
 10
5260.0725232423511
 20
5077.3521025850896
 30
0.0
 11
5642.0519154376334
 21
5077.3521025850896
 31
0.0
  0
LINE
  5
1D3
  8
2
 62
     7
 10
5422.0519154376343
 20
5017.3506358380992
 30
0.0
 11
5642.0519154376334
 21
5017.3506358380992
 31
0.0
  0
SOLID
  5
1D4
  8
2
 62
     7
 10
5622.0519154376343
 20
5017.3506358380992
 30
0.0
 11
5627.2519154376332
 21
4977.3506358380992
 31
0.0
 12
5616.8519154376354
 22
4977.3506358380992
 32
0.0
 13
5616.8519154376354
 23
4977.3506358380992
 33
0.0
  0
SOLID
  5
1D5
  8
2
 62
     7
 10
5622.0519154376343
 20
5077.3521025850896
 30
0.0
 11
5616.8519154376354
 21
5117.3521025850896
 31
0.0
 12
5627.2519154376332
 22
5117.3521025850896
 32
0.0
 13
5627.2519154376332
 23
5117.3521025850896
 33
0.0
  0
TEXT
  5
1D6
  8
2
 62
     7
 10
5607.0519154376334
 20
5129.9057363201573
 30
0.0
 40
40.0
  1
60
 50
90.0
 41
0.9
  0
ENDBLK
  5
1D7
  8
0
  0
BLOCK
  8
2
  2
*D12
 70
     1
 10
0.0
 20
0.0
 30
0.0
  3
*D12
  1

  0
LINE
  5
1DA
  8
2
 62
     7
 10
5522.05201543764
 20
4737.3506358380992
 30
0.0
 11
5522.05201543764
 21
4277.3506358380973
 31
0.0
  0
LINE
  5
1DB
  8
2
 62
     7
 10
5473.0439254376397
 20
4277.3506358380973
 30
0.0
 11
5542.05201543764
 21
4277.3506358380973
 31
0.0
  0
LINE
  5
1DC
  8
2
 62
     7
 10
5276.0183248547446
 20
4737.3506358380992
 30
0.0
 11
5542.05201543764
 21
4737.3506358380992
 31
0.0
  0
SOLID
  5
1DD
  8
2
 62
     7
 10
5522.05201543764
 20
4737.3506358380992
 30
0.0
 11
5527.2520154376407
 21
4697.3506358380992
 31
0.0
 12
5516.8520154376401
 22
4697.3506358380992
 32
0.0
 13
5516.8520154376401
 23
4697.3506358380992
 33
0.0
  0
SOLID
  5
1DE
  8
2
 62
     7
 10
5522.05201543764
 20
4277.3506358380973
 30
0.0
 11
5516.8520154376401
 21
4317.3506358380973
 31
0.0
 12
5527.2520154376407
 22
4317.3506358380973
 32
0.0
 13
5527.2520154376407
 23
4317.3506358380973
 33
0.0
  0
TEXT
  5
1DF
  8
2
 62
     7
 10
5507.05201543764
 20
4513.4208399578874
 30
0.0
 40
40.0
  1
460
 50
90.0
 41
0.9
  0
TEXT
  5
1E0
  8
2
 62
     7
 10
5507.05201543764
 20
4417.8652844023318
 30
0.0
 40
40.0
  1
給水
 50
90.0
 41
0.9
  0
ENDBLK
  5
1E1
  8
0
  0
BLOCK
  8
2
  2
*D13
 70
     1
 10
0.0
 20
0.0
 30
0.0
  3
*D13
  1

  0
LINE
  5
1E4
  8
2
 62
     7
 10
5522.0519154376352
 20
4737.3506358380992
 30
0.0
 11
5522.0519154376352
 21
5017.3506358381001
 31
0.0
  0
LINE
  5
1E5
  8
2
 62
     7
 10
5422.0519154376343
 20
5017.3506358381001
 30
0.0
 11
5542.0519154376343
 21
5017.3506358381001
 31
0.0
  0
LINE
  5
1E6
  8
2
 62
     7
 10
5276.0183248547446
 20
4737.3506358380992
 30
0.0
 11
5542.0519154376343
 21
4737.3506358380992
 31
0.0
  0
SOLID
  5
1E7
  8
2
 62
     7
 10
5522.0519154376352
 20
4737.3506358380992
 30
0.0
 11
5516.8519154376354
 21
4777.3506358380992
 31
0.0
 12
5527.2519154376341
 22
4777.3506358380992
 32
0.0
 13
5527.2519154376341
 23
4777.3506358380992
 33
0.0
  0
SOLID
  5
1E8
  8
2
 62
     7
 10
5522.0519154376352
 20
5017.3506358381001
 30
0.0
 11
5527.2519154376341
 21
4977.3506358380992
 31
0.0
 12
5516.8519154376354
 22
4977.3506358380992
 32
0.0
 13
5516.8519154376354
 23
4977.3506358380992
 33
0.0
  0
TEXT
  5
1E9
  8
2
 62
     7
 10
5507.0519154376343
 20
4829.3506358380982
 30
0.0
 40
40.0
  1
280
 50
90.0
 41
0.9
  0
ENDBLK
  5
1EA
  8
0
  0
BLOCK
  8
2
  2
*D14
 70
     1
 10
0.0
 20
0.0
 30
0.0
  3
*D14
  1

  0
LINE
  5
1ED
  8
2
 62
     7
 10
4632.0511154376281
 20
4842.3506358380992
 30
0.0
 11
4632.0511154376281
 21
4277.3506358380982
 31
0.0
  0
LINE
  5
1EE
  8
2
 62
     7
 10
4811.0419254376329
 20
4277.3506358380982
 30
0.0
 11
4612.0511154376291
 21
4277.3506358380982
 31
0.0
  0
LINE
  5
1EF
  8
2
 62
     7
 10
5094.5661405965366
 20
4842.3506358380992
 30
0.0
 11
4612.0511154376291
 21
4842.3506358380992
 31
0.0
  0
SOLID
  5
1F0
  8
2
 62
     7
 10
4632.0511154376281
 20
4842.3506358380992
 30
0.0
 11
4637.2511154376298
 21
4802.3506358380992
 31
0.0
 12
4626.8511154376292
 22
4802.3506358380992
 32
0.0
 13
4626.8511154376292
 23
4802.3506358380992
 33
0.0
  0
SOLID
  5
1F1
  8
2
 62
     7
 10
4632.0511154376281
 20
4277.3506358380982
 30
0.0
 11
4626.8511154376292
 21
4317.3506358380982
 31
0.0
 12
4637.2511154376298
 22
4317.3506358380982
 32
0.0
 13
4637.2511154376298
 23
4317.3506358380982
 33
0.0
  0
TEXT
  5
1F2
  8
2
 62
     7
 10
4617.0511154376291
 20
4565.1284136158774
 30
0.0
 40
40.0
  1
565
 50
90.0
 41
0.9
  0
TEXT
  5
1F3
  8
2
 62
     7
 10
4617.0511154376291
 20
4469.5728580603227
 30
0.0
 40
40.0
  1
排水
 50
90.0
 41
0.9
  0
ENDBLK
  5
1F4
  8
0
  0
BLOCK
  8
2
  2
*D15
 70
     1
 10
0.0
 20
0.0
 30
0.0
  3
*D15
  1

  0
LINE
  5
1F7
  8
2
 62
     7
 10
4632.0509154376332
 20
5077.3521028479536
 30
0.0
 11
4632.0509154376332
 21
4842.3506358380992
 31
0.0
  0
LINE
  5
1F8
  8
2
 62
     7
 10
5094.5661405965366
 20
4842.3506358380992
 30
0.0
 11
4612.0509154376341
 21
4842.3506358380992
 31
0.0
  0
LINE
  5
1F9
  8
2
 62
     7
 10
4963.9888096227542
 20
5077.3521028479536
 30
0.0
 11
4612.0509154376341
 21
5077.3521028479536
 31
0.0
  0
SOLID
  5
1FA
  8
2
 62
     7
 10
4632.0509154376332
 20
5077.3521028479536
 30
0.0
 11
4637.2509154376339
 21
5037.3521028479536
 31
0.0
 12
4626.8509154376352
 22
5037.3521028479536
 32
0.0
 13
4626.8509154376352
 23
5037.3521028479536
 33
0.0
  0
SOLID
  5
1FB
  8
2
 62
     7
 10
4632.0509154376332
 20
4842.3506358380992
 30
0.0
 11
4626.8509154376352
 21
4882.3506358381001
 31
0.0
 12
4637.2509154376339
 22
4882.3506358381001
 32
0.0
 13
4637.2509154376339
 23
4882.3506358381001
 33
0.0
  0
TEXT
  5
1FC
  8
2
 62
     7
 10
4617.0509154376341
 20
4912.3499560056198
 30
0.0
 40
40.0
  1
235
 50
90.0
 41
0.9
  0
ENDBLK
  5
1FD
  8
0
  0
BLOCK
  8
2
  2
*D16
 70
     1
 10
0.0
 20
0.0
 30
0.0
  3
*D16
  1

  0
LINE
  5
200
  8
2
 62
     7
 10
7056.0459154376349
 20
4826.3515358380992
 30
0.0
 11
7056.0459154376349
 21
4659.3516270575874
 31
0.0
  0
LINE
  5
201
  8
2
 62
     7
 10
7056.0459154376349
 20
4858.3511358380974
 30
0.0
 11
7056.0459154376349
 21
4826.3515358380992
 31
0.0
  0
LINE
  5
202
  8
2
 62
     7
 10
7056.0459154376349
 20
4938.3511358380974
 30
0.0
 11
7056.0459154376349
 21
4858.3511358380974
 31
0.0
  0
LINE
  5
203
  8
2
 62
     7
 10
6882.0459154376331
 20
4826.3515358380992
 30
0.0
 11
7076.0459154376331
 21
4826.3515358380992
 31
0.0
  0
LINE
  5
204
  8
2
 62
     7
 10
6882.0459154376331
 20
4858.3511358380974
 30
0.0
 11
7076.0459154376331
 21
4858.3511358380974
 31
0.0
  0
SOLID
  5
205
  8
2
 62
     7
 10
7056.0459154376349
 20
4858.3511358380974
 30
0.0
 11
7050.8459154376333
 21
4898.3511358380974
 31
0.0
 12
7061.2459154376347
 22
4898.3511358380974
 32
0.0
 13
7061.2459154376347
 23
4898.3511358380974
 33
0.0
  0
SOLID
  5
206
  8
2
 62
     7
 10
7056.0459154376349
 20
4826.3515358380992
 30
0.0
 11
7061.2459154376347
 21
4786.3515358380992
 31
0.0
 12
7050.8459154376333
 22
4786.3515358380992
 32
0.0
 13
7050.8459154376333
 23
4786.3515358380992
 33
0.0
  0
TEXT
  5
207
  8
2
 62
     7
 10
7041.045915437634
 20
4707.3516270575856
 30
0.0
 40
40.0
  1
32
 50
90.0
 41
0.9
  0
TEXT
  5
208
  8
2
 62
     7
 10
7041.045915437634
 20
4659.3516270575874
 30
0.0
 40
40.0
  1
%%c
 50
90.0
 41
0.9
  0
ENDBLK
  5
209
  8
0
  0
BLOCK
  8
2
  2
*D17
 70
     1
 10
0.0
 20
0.0
 30
0.0
  3
*D17
  1

  0
LINE
  5
20C
  8
2
 62
     7
 10
4962.0216477575814
 20
6997.3506358380992
 30
0.0
 11
4882.0216477575814
 21
6997.3506358380992
 31
0.0
  0
LINE
  5
20D
  8
2
 62
     7
 10
5142.0459154376322
 20
6997.3506358380992
 30
0.0
 11
4962.0216477575814
 21
6997.3506358380992
 31
0.0
  0
LINE
  5
20E
  8
2
 62
     7
 10
4962.0216477575814
 20
6839.3890865772573
 30
0.0
 11
4962.0216477575814
 21
7017.3506358380992
 31
0.0
  0
LINE
  5
20F
  8
2
 62
     7
 10
5142.0459154376322
 20
6895.9426050264401
 30
0.0
 11
5142.0459154376322
 21
7017.3506358380992
 31
0.0
  0
CIRCLE
  5
210
  8
2
 62
     7
 10
5142.0459154376322
 20
6997.3506358380992
 30
0.0
 40
10.0
  0
SOLID
  5
211
  8
2
 62
     7
 10
4962.0216477575814
 20
6997.3506358380992
 30
0.0
 11
4922.0216477575814
 21
6992.1506358380984
 31
0.0
 12
4922.0216477575814
 22
7002.5506358380981
 32
0.0
 13
4922.0216477575814
 23
7002.5506358380981
 33
0.0
  0
TEXT
  5
212
  8
2
 62
     7
 10
5010.368558504877
 20
7012.3506358380982
 30
0.0
 40
40.0
  1
180
 41
0.9
  0
ENDBLK
  5
213
  8
0
  0
BLOCK
  8
2
  2
*D18
 70
     1
 10
0.0
 20
0.0
 30
0.0
  3
*D18
  1

  0
LINE
  5
216
  8
2
 62
     7
 10
5142.0459154376358
 20
6457.3526358380968
 30
0.0
 11
5422.0519154376334
 21
6457.3526358380968
 31
0.0
  0
LINE
  5
217
  8
2
 62
     7
 10
5422.0519154376334
 20
6629.3526358380968
 30
0.0
 11
5422.0519154376334
 21
6437.3526358380986
 31
0.0
  0
LINE
  5
218
  8
2
 62
     7
 10
5142.0459154376358
 20
6600.1268102893764
 30
0.0
 11
5142.0459154376358
 21
6437.3526358380986
 31
0.0
  0
SOLID
  5
219
  8
2
 62
     7
 10
5142.0459154376358
 20
6457.3526358380968
 30
0.0
 11
5182.0459154376358
 21
6462.5526358380976
 31
0.0
 12
5182.0459154376358
 22
6452.1526358380979
 32
0.0
 13
5182.0459154376358
 23
6452.1526358380979
 33
0.0
  0
SOLID
  5
21A
  8
2
 62
     7
 10
5422.0519154376334
 20
6457.3526358380968
 30
0.0
 11
5382.0519154376334
 21
6452.1526358380979
 31
0.0
 12
5382.0519154376334
 22
6462.5526358380976
 32
0.0
 13
5382.0519154376334
 23
6462.5526358380976
 33
0.0
  0
TEXT
  5
21B
  8
2
 62
     7
 10
5234.0519154376343
 20
6472.3526358380977
 30
0.0
 40
40.0
  1
280
 41
0.9
  0
ENDBLK
  5
21C
  8
0
  0
BLOCK
  8
2
  2
*D19
 70
     1
 10
0.0
 20
0.0
 30
0.0
  3
*D19
  1

  0
LINE
  5
21F
  8
2
 62
     7
 10
4832.0509154376323
 20
6457.3526358380968
 30
0.0
 11
5142.0459154376358
 21
6457.3526358380968
 31
0.0
  0
LINE
  5
220
  8
2
 62
     7
 10
5142.0459154376358
 20
6600.1268102893764
 30
0.0
 11
5142.0459154376358
 21
6437.3526358380986
 31
0.0
  0
LINE
  5
221
  8
2
 62
     7
 10
4832.0509154376323
 20
6627.3526358380959
 30
0.0
 11
4832.0509154376323
 21
6437.3526358380986
 31
0.0
  0
SOLID
  5
222
  8
2
 62
     7
 10
4832.0509154376323
 20
6457.3526358380968
 30
0.0
 11
4872.0509154376332
 21
6462.5526358380976
 31
0.0
 12
4872.0509154376332
 22
6452.1526358380979
 32
0.0
 13
4872.0509154376332
 23
6452.1526358380979
 33
0.0
  0
SOLID
  5
223
  8
2
 62
     7
 10
5142.0459154376358
 20
6457.3526358380968
 30
0.0
 11
5102.0459154376358
 21
6452.1526358380979
 31
0.0
 12
5102.0459154376358
 22
6462.5526358380976
 32
0.0
 13
5102.0459154376358
 23
6462.5526358380976
 33
0.0
  0
TEXT
  5
224
  8
2
 62
     7
 10
4945.0459154376331
 20
6472.3526358380977
 30
0.0
 40
40.0
  1
310
 41
0.9
  0
ENDBLK
  5
225
  8
0
  0
BLOCK
  8
2
  2
*D20
 70
     1
 10
0.0
 20
0.0
 30
0.0
  3
*D20
  1

  0
LINE
  5
228
  8
2
 62
     7
 10
4892.0509154376341
 20
4157.3506358380982
 30
0.0
 11
5362.0519154376352
 21
4157.3506358380982
 31
0.0
  0
LINE
  5
229
  8
2
 62
     7
 10
5362.0519154376352
 20
4849.8329953713701
 30
0.0
 11
5362.0519154376352
 21
4137.3506358380992
 31
0.0
  0
LINE
  5
22A
  8
2
 62
     7
 10
4892.0509154376341
 20
4849.8329953713701
 30
0.0
 11
4892.0509154376341
 21
4137.3506358380992
 31
0.0
  0
SOLID
  5
22B
  8
2
 62
     7
 10
4892.0509154376341
 20
4157.3506358380982
 30
0.0
 11
4932.0509154376341
 21
4162.5506358380981
 31
0.0
 12
4932.0509154376341
 22
4152.1506358380984
 32
0.0
 13
4932.0509154376341
 23
4152.1506358380984
 33
0.0
  0
SOLID
  5
22C
  8
2
 62
     7
 10
5362.0519154376352
 20
4157.3506358380982
 30
0.0
 11
5322.0519154376352
 21
4152.1506358380984
 31
0.0
 12
5322.0519154376352
 22
4162.5506358380981
 32
0.0
 13
5322.0519154376352
 23
4162.5506358380981
 33
0.0
  0
TEXT
  5
22D
  8
2
 62
     7
 10
5094.0459154376376
 20
4172.3506358380982
 30
0.0
 40
40.0
  1
470
 41
0.9
  0
ENDBLK
  5
22E
  8
0
  0
BLOCK
  8
2
  2
*D21
 70
     1
 10
0.0
 20
0.0
 30
0.0
  3
*D21
  1

  0
LINE
  5
231
  8
2
 62
     7
 10
5422.0519154376343
 20
4157.3506358380982
 30
0.0
 11
5551.9381127503839
 21
4157.3506358380982
 31
0.0
  0
LINE
  5
232
  8
2
 62
     7
 10
5362.0519154376352
 20
4157.3506358380982
 30
0.0
 11
5422.0519154376343
 21
4157.3506358380982
 31
0.0
  0
LINE
  5
233
  8
2
 62
     7
 10
5282.0519154376343
 20
4157.3506358380982
 30
0.0
 11
5362.0519154376352
 21
4157.3506358380982
 31
0.0
  0
LINE
  5
234
  8
2
 62
     7
 10
5422.0519154376343
 20
4937.3515358380982
 30
0.0
 11
5422.0519154376343
 21
4137.3506358380992
 31
0.0
  0
LINE
  5
235
  8
2
 62
     7
 10
5362.0519154376352
 20
4849.8329953713701
 30
0.0
 11
5362.0519154376352
 21
4137.3506358380992
 31
0.0
  0
SOLID
  5
236
  8
2
 62
     7
 10
5362.0519154376352
 20
4157.3506358380982
 30
0.0
 11
5322.0519154376352
 21
4152.1506358380984
 31
0.0
 12
5322.0519154376352
 22
4162.5506358380981
 32
0.0
 13
5322.0519154376352
 23
4162.5506358380981
 33
0.0
  0
SOLID
  5
237
  8
2
 62
     7
 10
5422.0519154376343
 20
4157.3506358380982
 30
0.0
 11
5462.0519154376343
 21
4162.5506358380981
 31
0.0
 12
5462.0519154376343
 22
4152.1506358380984
 32
0.0
 13
5462.0519154376343
 23
4152.1506358380984
 33
0.0
  0
TEXT
  5
238
  8
2
 62
     7
 10
5491.9381127503848
 20
4172.3506358380982
 30
0.0
 40
40.0
  1
60
 41
0.9
  0
ENDBLK
  5
239
  8
0
  0
BLOCK
  8
2
  2
*D22
 70
     1
 10
0.0
 20
0.0
 30
0.0
  3
*D22
  1

  0
LINE
  5
23C
  8
2
 62
     7
 10
4832.0509154376332
 20
4157.3506358380982
 30
0.0
 11
4696.8880833378789
 21
4157.3506358380982
 31
0.0
  0
LINE
  5
23D
  8
2
 62
     7
 10
4892.0509154376341
 20
4157.3506358380982
 30
0.0
 11
4832.0509154376332
 21
4157.3506358380982
 31
0.0
  0
LINE
  5
23E
  8
2
 62
     7
 10
4972.0509154376341
 20
4157.3506358380982
 30
0.0
 11
4892.0509154376341
 21
4157.3506358380982
 31
0.0
  0
LINE
  5
23F
  8
2
 62
     7
 10
4832.0509154376332
 20
4937.3515358380982
 30
0.0
 11
4832.0509154376332
 21
4137.3506358380992
 31
0.0
  0
LINE
  5
240
  8
2
 62
     7
 10
4892.0509154376341
 20
4849.8329953713701
 30
0.0
 11
4892.0509154376341
 21
4137.3506358380992
 31
0.0
  0
SOLID
  5
241
  8
2
 62
     7
 10
4892.0509154376341
 20
4157.3506358380982
 30
0.0
 11
4932.0509154376341
 21
4162.5506358380981
 31
0.0
 12
4932.0509154376341
 22
4152.1506358380984
 32
0.0
 13
4932.0509154376341
 23
4152.1506358380984
 33
0.0
  0
SOLID
  5
242
  8
2
 62
     7
 10
4832.0509154376332
 20
4157.3506358380982
 30
0.0
 11
4792.0509154376332
 21
4152.1506358380984
 31
0.0
 12
4792.0509154376332
 22
4162.5506358380981
 32
0.0
 13
4792.0509154376332
 23
4162.5506358380981
 33
0.0
  0
TEXT
  5
243
  8
2
 62
     7
 10
4696.8880833378789
 20
4172.3506358380982
 30
0.0
 40
40.0
  1
60
 41
0.9
  0
ENDBLK
  5
244
  8
0
  0
BLOCK
  8
2
  2
*D23
 70
     1
 10
0.0
 20
0.0
 30
0.0
  3
*D23
  1

  0
LINE
  5
247
  8
2
 62
     7
 10
5242.0459154376322
 20
4590.3508715540283
 30
0.0
 11
5322.0459154376322
 21
4590.3508715540283
 31
0.0
  0
LINE
  5
248
  8
2
 62
     7
 10
5142.0459154376358
 20
4590.3508715540283
 30
0.0
 11
5242.0459154376322
 21
4590.3508715540283
 31
0.0
  0
LINE
  5
249
  8
2
 62
     7
 10
4909.861795189534
 20
4590.3508715540283
 30
0.0
 11
5142.0459154376358
 21
4590.3508715540283
 31
0.0
  0
LINE
  5
24A
  8
2
 62
     7
 10
5242.0459154376322
 20
4684.4021225267043
 30
0.0
 11
5242.0459154376322
 21
4570.3508715540293
 31
0.0
  0
LINE
  5
24B
  8
2
 62
     7
 10
5142.0459154376358
 20
4702.7363743695132
 30
0.0
 11
5142.0459154376358
 21
4570.3508715540293
 31
0.0
  0
SOLID
  5
24C
  8
2
 62
     7
 10
5142.0459154376358
 20
4590.3508715540283
 30
0.0
 11
5102.0459154376358
 21
4585.1508715540276
 31
0.0
 12
5102.0459154376358
 22
4595.5508715540291
 32
0.0
 13
5102.0459154376358
 23
4595.5508715540291
 33
0.0
  0
SOLID
  5
24D
  8
2
 62
     7
 10
5242.0459154376322
 20
4590.3508715540283
 30
0.0
 11
5282.0459154376322
 21
4595.5508715540291
 31
0.0
 12
5282.0459154376322
 22
4585.1508715540276
 32
0.0
 13
5282.0459154376322
 23
4585.1508715540276
 33
0.0
  0
TEXT
  5
24E
  8
2
 62
     7
 10
5005.4173507450869
 20
4605.3508715540293
 30
0.0
 40
40.0
  1
100
 41
0.9
  0
TEXT
  5
24F
  8
2
 62
     7
 10
4909.861795189534
 20
4605.3508715540293
 30
0.0
 40
40.0
  1
給水
 41
0.9
  0
ENDBLK
  5
250
  8
0
  0
BLOCK
  8
2
  2
*D24
 70
     1
 10
0.0
 20
0.0
 30
0.0
  3
*D24
  1

  0
LINE
  5
253
  8
2
 62
     7
 10
6962.045915437634
 20
4969.3497475558634
 30
0.0
 11
6962.045915437634
 21
5096.7840487156182
 31
0.0
  0
LINE
  5
254
  8
2
 62
     7
 10
6962.045915437634
 20
4944.3485675558613
 30
0.0
 11
6962.045915437634
 21
4969.3497475558634
 31
0.0
  0
LINE
  5
255
  8
2
 62
     7
 10
6874.309419699347
 20
4969.3497475558634
 30
0.0
 11
6982.045915437634
 21
4969.3497475558634
 31
0.0
  0
LINE
  5
256
  8
2
 62
     7
 10
6874.3101825728027
 20
4944.3485675558613
 30
0.0
 11
6982.045915437634
 21
4944.3485675558613
 31
0.0
  0
CIRCLE
  5
257
  8
2
 62
     7
 10
6962.045915437634
 20
4944.3485675558613
 30
0.0
 40
10.0
  0
SOLID
  5
258
  8
2
 62
     7
 10
6962.045915437634
 20
4969.3497475558634
 30
0.0
 11
6956.8459154376342
 21
5009.3497475558634
 31
0.0
 12
6967.2459154376356
 22
5009.3497475558634
 32
0.0
 13
6967.2459154376356
 23
5009.3497475558634
 33
0.0
  0
TEXT
  5
259
  8
2
 62
     7
 10
6947.045915437634
 20
5036.7840487156182
 30
0.0
 40
40.0
  1
25
 50
90.0
 41
0.9
  0
ENDBLK
  5
25A
  8
0
  0
BLOCK
  8
2
  2
*D25
 70
     1
 10
0.0
 20
0.0
 30
0.0
  3
*D25
  1

  0
LINE
  5
25D
  8
2
 62
     7
 10
6962.045915437634
 20
4944.3485675558613
 30
0.0
 11
6962.045915437634
 21
5076.5671691067782
 31
0.0
  0
LINE
  5
25E
  8
2
 62
     7
 10
6962.045915437634
 20
4884.3484615875268
 30
0.0
 11
6962.045915437634
 21
4944.3485675558613
 31
0.0
  0
LINE
  5
25F
  8
2
 62
     7
 10
6962.045915437634
 20
4804.3484615875268
 30
0.0
 11
6962.045915437634
 21
4884.3484615875268
 31
0.0
  0
LINE
  5
260
  8
2
 62
     7
 10
6874.3101825728027
 20
4944.3485675558613
 30
0.0
 11
6982.045915437634
 21
4944.3485675558613
 31
0.0
  0
LINE
  5
261
  8
2
 62
     7
 10
6874.309420109681
 20
4884.3484615875268
 30
0.0
 11
6982.045915437634
 21
4884.3484615875268
 31
0.0
  0
SOLID
  5
262
  8
2
 62
     7
 10
6962.045915437634
 20
4884.3484615875268
 30
0.0
 11
6967.2459154376356
 21
4844.3484615875268
 31
0.0
 12
6956.8459154376342
 22
4844.3484615875268
 32
0.0
 13
6956.8459154376342
 23
4844.3484615875268
 33
0.0
  0
CIRCLE
  5
263
  8
2
 62
     7
 10
6962.045915437634
 20
4944.3485675558613
 30
0.0
 40
10.0
  0
TEXT
  5
264
  8
2
 62
     7
 10
7047.2274955204648
 20
5016.5671691067782
 30
0.0
 40
40.0
  1
60
 50
90.0
 41
0.9
  0
ENDBLK
  5
265
  8
0
  0
BLOCK
  8
2
  2
*D26
 70
     1
 10
0.0
 20
0.0
 30
0.0
  3
*D26
  1

  0
LINE
  5
268
  8
2
 62
     7
 10
6962.045915437634
 20
4277.3506358381019
 30
0.0
 11
6962.045915437634
 21
4884.3484615875268
 31
0.0
  0
LINE
  5
269
  8
2
 62
     7
 10
6874.309420109681
 20
4884.3484615875268
 30
0.0
 11
6982.045915437634
 21
4884.3484615875268
 31
0.0
  0
LINE
  5
26A
  8
2
 62
     7
 10
6842.0459154376404
 20
4277.3506358381019
 30
0.0
 11
6982.045915437634
 21
4277.3506358381019
 31
0.0
  0
SOLID
  5
26B
  8
2
 62
     7
 10
6962.045915437634
 20
4277.3506358381019
 30
0.0
 11
6956.8459154376342
 21
4317.3506358381019
 31
0.0
 12
6967.2459154376356
 22
4317.3506358381019
 32
0.0
 13
6967.2459154376356
 23
4317.3506358381019
 33
0.0
  0
SOLID
  5
26C
  8
2
 62
     7
 10
6962.045915437634
 20
4884.3484615875268
 30
0.0
 11
6967.2459154376356
 21
4844.3484615875268
 31
0.0
 12
6956.8459154376342
 22
4844.3484615875268
 32
0.0
 13
6956.8459154376342
 23
4844.3484615875268
 33
0.0
  0
TEXT
  5
26D
  8
2
 62
     7
 10
6947.045915437634
 20
4454.9838281885341
 30
0.0
 40
40.0
  1
607
 50
90.0
 41
0.9
  0
ENDBLK
  5
26E
  8
0
  0
BLOCK
  8
2
  2
*D27
 70
     1
 10
0.0
 20
0.0
 30
0.0
  3
*D27
  1

  0
LINE
  5
271
  8
2
 62
     7
 10
4732.0509154376332
 20
5077.3521028479536
 30
0.0
 11
4732.0509154376332
 21
4940.3500887010714
 31
0.0
  0
LINE
  5
272
  8
2
 62
     7
 10
5110.0269154376356
 20
4940.3500887010714
 30
0.0
 11
4712.0509154376332
 21
4940.3500887010714
 31
0.0
  0
LINE
  5
273
  8
2
 62
     7
 10
4963.9888096227542
 20
5077.3521028479536
 30
0.0
 11
4712.0509154376332
 21
5077.3521028479536
 31
0.0
  0
SOLID
  5
274
  8
2
 62
     7
 10
4732.0509154376332
 20
5077.3521028479536
 30
0.0
 11
4737.250915437633
 21
5037.3521028479536
 31
0.0
 12
4726.8509154376334
 22
5037.3521028479536
 32
0.0
 13
4726.8509154376334
 23
5037.3521028479536
 33
0.0
  0
SOLID
  5
275
  8
2
 62
     7
 10
4732.0509154376332
 20
4940.3500887010714
 30
0.0
 11
4726.8509154376334
 21
4980.3500887010714
 31
0.0
 12
4737.250915437633
 22
4980.3500887010714
 32
0.0
 13
4737.250915437633
 23
4980.3500887010714
 33
0.0
  0
TEXT
  5
276
  8
2
 62
     7
 10
4717.0509154376332
 20
4969.7865893309681
 30
0.0
 40
40.0
  1
137
 50
90.0
 41
0.9
  0
ENDBLK
  5
277
  8
0
  0
BLOCK
  8
2
  2
*D28
 70
     1
 10
0.0
 20
0.0
 30
0.0
  3
*D28
  1

  0
LINE
  5
27A
  8
2
 62
     7
 10
5622.0519154376343
 20
5017.3506358380992
 30
0.0
 11
5622.0519154376343
 21
4277.3506358380982
 31
0.0
  0
LINE
  5
27B
  8
2
 62
     7
 10
5473.043925437637
 20
4277.3506358380982
 30
0.0
 11
5642.0519154376334
 21
4277.3506358380982
 31
0.0
  0
LINE
  5
27C
  8
2
 62
     7
 10
5422.0519154376343
 20
5017.3506358380992
 30
0.0
 11
5642.0519154376334
 21
5017.3506358380992
 31
0.0
  0
SOLID
  5
27D
  8
2
 62
     7
 10
5622.0519154376343
 20
5017.3506358380992
 30
0.0
 11
5627.2519154376332
 21
4977.3506358380992
 31
0.0
 12
5616.8519154376354
 22
4977.3506358380992
 32
0.0
 13
5616.8519154376354
 23
4977.3506358380992
 33
0.0
  0
SOLID
  5
27E
  8
2
 62
     7
 10
5622.0519154376343
 20
4277.3506358380982
 30
0.0
 11
5616.8519154376354
 21
4317.3506358380982
 31
0.0
 12
5627.2519154376332
 22
4317.3506358380982
 32
0.0
 13
5627.2519154376332
 23
4317.3506358380982
 33
0.0
  0
TEXT
  5
27F
  8
2
 62
     7
 10
5607.0519154376334
 20
4604.3506358380973
 30
0.0
 40
40.0
  1
740
 50
90.0
 41
0.9
  0
ENDBLK
  5
280
  8
0
  0
BLOCK
  8
2
  2
*D29
 70
     1
 10
0.0
 20
0.0
 30
0.0
  3
*D29
  1

  0
LINE
  5
283
  8
2
 62
     7
 10
4532.0509154376332
 20
4277.3506358380982
 30
0.0
 11
4532.0509154376332
 21
5077.3521028479536
 31
0.0
  0
LINE
  5
284
  8
2
 62
     7
 10
4963.9888096227542
 20
5077.3521028479536
 30
0.0
 11
4512.0509154376332
 21
5077.3521028479536
 31
0.0
  0
LINE
  5
285
  8
2
 62
     7
 10
4811.0419254376329
 20
4277.3506358380982
 30
0.0
 11
4512.0509154376332
 21
4277.3506358380982
 31
0.0
  0
SOLID
  5
286
  8
2
 62
     7
 10
4532.0509154376332
 20
4277.3506358380982
 30
0.0
 11
4526.8509154376334
 21
4317.3506358380982
 31
0.0
 12
4537.250915437633
 22
4317.3506358380982
 32
0.0
 13
4537.250915437633
 23
4317.3506358380982
 33
0.0
  0
SOLID
  5
287
  8
2
 62
     7
 10
4532.0509154376332
 20
5077.3521028479536
 30
0.0
 11
4537.250915437633
 21
5037.3521028479536
 31
0.0
 12
4526.8509154376334
 22
5037.3521028479536
 32
0.0
 13
4526.8509154376334
 23
5037.3521028479536
 33
0.0
  0
TEXT
  5
288
  8
2
 62
     7
 10
4517.0509154376332
 20
4639.3506358380982
 30
0.0
 40
40.0
  1
800
 50
90.0
 41
0.9
  0
ENDBLK
  5
289
  8
0
  0
BLOCK
  8
2
  2
*D30
 70
     1
 10
0.0
 20
0.0
 30
0.0
  3
*D30
  1

  0
LINE
  5
28C
  8
2
 62
     7
 10
5302.0512797247666
 20
6997.3506358380973
 30
0.0
 11
5412.3944747289643
 21
6997.3506358380973
 31
0.0
  0
LINE
  5
28D
  8
2
 62
     7
 10
5262.0810254376302
 20
6997.3506358380973
 30
0.0
 11
5302.0512797247666
 21
6997.3506358380973
 31
0.0
  0
LINE
  5
28E
  8
2
 62
     7
 10
5302.0512797247666
 20
6787.6706358380943
 30
0.0
 11
5302.0512797247666
 21
7017.3506358380982
 31
0.0
  0
LINE
  5
28F
  8
2
 62
     7
 10
5262.0810254376302
 20
6839.3886358380942
 30
0.0
 11
5262.0810254376302
 21
7017.3506358380982
 31
0.0
  0
CIRCLE
  5
290
  8
2
 62
     7
 10
5262.0810254376302
 20
6997.3506358380973
 30
0.0
 40
10.0
  0
SOLID
  5
291
  8
2
 62
     7
 10
5302.0512797247666
 20
6997.3506358380973
 30
0.0
 11
5342.0512797247666
 21
7002.5506358380981
 31
0.0
 12
5342.0512797247666
 22
6992.1506358380984
 32
0.0
 13
5342.0512797247666
 23
6992.1506358380984
 33
0.0
  0
TEXT
  5
292
  8
2
 62
     7
 10
5352.3944747289643
 20
7012.3506358380982
 30
0.0
 40
40.0
  1
40
 41
0.9
  0
ENDBLK
  5
293
  8
0
  0
BLOCK
  8
2
  2
*D31
 70
     1
 10
0.0
 20
0.0
 30
0.0
  3
*D31
  1

  0
LINE
  5
296
  8
2
 62
     7
 10
5142.0459154376322
 20
6997.3506358380973
 30
0.0
 11
5262.0810254376302
 21
6997.3506358380973
 31
0.0
  0
LINE
  5
297
  8
2
 62
     7
 10
5262.0810254376302
 20
6839.3886358380942
 30
0.0
 11
5262.0810254376302
 21
7017.3506358380982
 31
0.0
  0
LINE
  5
298
  8
2
 62
     7
 10
5142.0459154376322
 20
6895.9426050264401
 30
0.0
 11
5142.0459154376322
 21
7017.3506358380982
 31
0.0
  0
CIRCLE
  5
299
  8
2
 62
     7
 10
5142.0459154376322
 20
6997.3506358380973
 30
0.0
 40
10.0
  0
CIRCLE
  5
29A
  8
2
 62
     7
 10
5262.0810254376302
 20
6997.3506358380973
 30
0.0
 40
10.0
  0
TEXT
  5
29B
  8
2
 62
     7
 10
5158.0843592329147
 20
7012.3506358380982
 30
0.0
 40
40.0
  1
120
 41
0.9
  0
ENDBLK
  5
29C
  8
0
  0
BLOCK
  8
2
  2
*D32
 70
     1
 10
0.0
 20
0.0
 30
0.0
  3
*D32
  1

  0
LINE
  5
29F
  8
2
 62
     7
 10
4832.0509154376323
 20
6357.3526358380977
 30
0.0
 11
5422.0519154376334
 21
6357.3526358380977
 31
0.0
  0
LINE
  5
2A0
  8
2
 62
     7
 10
5422.0519154376334
 20
6629.3526358380968
 30
0.0
 11
5422.0519154376334
 21
6337.3526358380968
 31
0.0
  0
LINE
  5
2A1
  8
2
 62
     7
 10
4832.0509154376323
 20
6627.3526358380959
 30
0.0
 11
4832.0509154376323
 21
6337.3526358380968
 31
0.0
  0
SOLID
  5
2A2
  8
2
 62
     7
 10
4832.0509154376323
 20
6357.3526358380977
 30
0.0
 11
4872.0509154376332
 21
6362.5526358380994
 31
0.0
 12
4872.0509154376332
 22
6352.1526358380979
 32
0.0
 13
4872.0509154376332
 23
6352.1526358380979
 33
0.0
  0
SOLID
  5
2A3
  8
2
 62
     7
 10
5422.0519154376334
 20
6357.3526358380977
 30
0.0
 11
5382.0519154376334
 21
6352.1526358380979
 31
0.0
 12
5382.0519154376334
 22
6362.5526358380994
 32
0.0
 13
5382.0519154376334
 23
6362.5526358380994
 33
0.0
  0
TEXT
  5
2A4
  8
2
 62
     7
 10
5079.0519154376334
 20
6372.3526358380968
 30
0.0
 40
40.0
  1
590
 41
0.9
  0
ENDBLK
  5
2A5
  8
0
  0
BLOCK
  8
2
  2
*D33
 70
     1
 10
0.0
 20
0.0
 30
0.0
  3
*D33
  1

  0
LINE
  5
2A8
  8
2
 62
     7
 10
5522.0519154376334
 20
6752.3516358380966
 30
0.0
 11
5522.0519154376334
 21
6877.3506358381019
 31
0.0
  0
LINE
  5
2A9
  8
2
 62
     7
 10
5422.0519154376334
 20
6877.3506358381019
 30
0.0
 11
5542.0519154376334
 21
6877.3506358381019
 31
0.0
  0
LINE
  5
2AA
  8
2
 62
     7
 10
5451.0910208182386
 20
6752.3516358380966
 30
0.0
 11
5542.0519154376334
 21
6752.3516358380966
 31
0.0
  0
SOLID
  5
2AB
  8
2
 62
     7
 10
5522.0519154376334
 20
6752.3516358380966
 30
0.0
 11
5516.8519154376336
 21
6792.3516358380957
 31
0.0
 12
5527.2519154376332
 22
6792.3516358380957
 32
0.0
 13
5527.2519154376332
 23
6792.3516358380957
 33
0.0
  0
SOLID
  5
2AC
  8
2
 62
     7
 10
5522.0519154376334
 20
6877.3506358381019
 30
0.0
 11
5527.2519154376332
 21
6837.350635838101
 31
0.0
 12
5516.8519154376336
 22
6837.350635838101
 32
0.0
 13
5516.8519154376336
 23
6837.350635838101
 33
0.0
  0
TEXT
  5
2AD
  8
2
 62
     7
 10
5507.0519154376334
 20
6774.5359071671
 30
0.0
 40
40.0
  1
125
 50
90.0
 41
0.9
  0
ENDBLK
  5
2AE
  8
0
  0
BLOCK
  8
2
  2
*D34
 70
     1
 10
0.0
 20
0.0
 30
0.0
  3
*D34
  1

  0
LINE
  5
2B1
  8
2
 62
     7
 10
4732.0509154376341
 20
6842.3866358380992
 30
0.0
 11
4732.0509154376341
 21
6662.3238386085213
 31
0.0
  0
LINE
  5
2B2
  8
2
 62
     7
 10
4964.9775587989379
 20
6662.3238386085213
 30
0.0
 11
4712.0509154376341
 21
6662.3238386085213
 31
0.0
  0
LINE
  5
2B3
  8
2
 62
     7
 10
4965.0219154376346
 20
6842.3866358380992
 30
0.0
 11
4712.0509154376341
 21
6842.3866358380992
 31
0.0
  0
SOLID
  5
2B4
  8
2
 62
     7
 10
4732.0509154376341
 20
6842.3866358380992
 30
0.0
 11
4737.250915437633
 21
6802.3866358380983
 31
0.0
 12
4726.8509154376343
 22
6802.3866358380983
 32
0.0
 13
4726.8509154376343
 23
6802.3866358380983
 33
0.0
  0
SOLID
  5
2B5
  8
2
 62
     7
 10
4732.0509154376341
 20
6662.3238386085213
 30
0.0
 11
4726.8509154376343
 21
6702.3238386085213
 31
0.0
 12
4737.250915437633
 22
6702.3238386085213
 32
0.0
 13
4737.250915437633
 23
6702.3238386085213
 33
0.0
  0
TEXT
  5
2B6
  8
2
 62
     7
 10
4717.0509154376341
 20
6711.3020754190056
 30
0.0
 40
40.0
  1
180
 50
90.0
 41
0.9
  0
ENDBLK
  5
2B7
  8
0
  0
BLOCK
  8
2
  2
*D35
 70
     1
 10
0.0
 20
0.0
 30
0.0
  3
*D35
  1

  0
LINE
  5
2BA
  8
2
 62
     7
 10
4632.0509154376323
 20
6627.3526358380959
 30
0.0
 11
4632.0509154376323
 21
6877.3506358380982
 31
0.0
  0
LINE
  5
2BB
  8
2
 62
     7
 10
4832.0509154376323
 20
6877.3506358380982
 30
0.0
 11
4612.0509154376323
 21
6877.3506358380982
 31
0.0
  0
LINE
  5
2BC
  8
2
 62
     7
 10
4832.0509154376323
 20
6627.3526358380959
 30
0.0
 11
4612.0509154376323
 21
6627.3526358380959
 31
0.0
  0
SOLID
  5
2BD
  8
2
 62
     7
 10
4632.0509154376323
 20
6627.3526358380959
 30
0.0
 11
4626.8509154376334
 21
6667.3526358380968
 31
0.0
 12
4637.2509154376321
 22
6667.3526358380968
 32
0.0
 13
4637.2509154376321
 23
6667.3526358380968
 33
0.0
  0
SOLID
  5
2BE
  8
2
 62
     7
 10
4632.0509154376323
 20
6877.3506358380982
 30
0.0
 11
4637.2509154376321
 21
6837.3506358380982
 31
0.0
 12
4626.8509154376334
 22
6837.3506358380982
 32
0.0
 13
4626.8509154376334
 23
6837.3506358380982
 33
0.0
  0
TEXT
  5
2BF
  8
2
 62
     7
 10
4617.0509154376332
 20
6704.3506358380982
 30
0.0
 40
40.0
  1
250
 50
90.0
 41
0.9
  0
ENDBLK
  5
2C0
  8
0
  0
BLOCK
  8
2
  2
*D36
 70
     1
 10
0.0
 20
0.0
 30
0.0
  3
*D36
  1

  0
LINE
  5
2C3
  8
2
 62
     7
 10
6472.0419015978123
 20
4937.3515294525923
 30
0.0
 11
6472.0419015978123
 21
4857.3515294525932
 31
0.0
  0
LINE
  5
2C4
  8
2
 62
     7
 10
6472.0419015978123
 20
5017.3506358380992
 30
0.0
 11
6472.0419015978123
 21
4937.3515294525923
 31
0.0
  0
LINE
  5
2C5
  8
2
 62
     7
 10
6472.0419015978123
 20
5097.3506358380982
 30
0.0
 11
6472.0419015978123
 21
5017.3506358380992
 31
0.0
  0
LINE
  5
2C6
  8
2
 62
     7
 10
6595.0426676568504
 20
4937.3515294525923
 30
0.0
 11
6452.0419015978123
 21
4937.3515294525923
 31
0.0
  0
LINE
  5
2C7
  8
2
 62
     7
 10
6595.0426673345692
 20
5017.3506358380992
 30
0.0
 11
6452.0419015978123
 21
5017.3506358380992
 31
0.0
  0
SOLID
  5
2C8
  8
2
 62
     7
 10
6472.0419015978123
 20
5017.3506358380992
 30
0.0
 11
6466.8419015978134
 21
5057.3506358380982
 31
0.0
 12
6477.2419015978112
 22
5057.3506358380982
 32
0.0
 13
6477.2419015978112
 23
5057.3506358380982
 33
0.0
  0
SOLID
  5
2C9
  8
2
 62
     7
 10
6472.0419015978123
 20
4937.3515294525923
 30
0.0
 11
6477.2419015978112
 21
4897.3515294525923
 31
0.0
 12
6466.8419015978134
 22
4897.3515294525923
 32
0.0
 13
6466.8419015978134
 23
4897.3515294525923
 33
0.0
  0
TEXT
  5
2CA
  8
2
 62
     7
 10
6457.0419015978114
 20
4948.6204276584167
 30
0.0
 40
40.0
  1
80
 50
90.0
 41
0.9
  0
ENDBLK
  5
2CB
  8
0
  0
ENDSEC
  0
SECTION
  2
ENTITIES
  0
INSERT
  5
2CC
  8
2
 62
     7
  2
*X0
 10
0.0
 20
0.0
 30
0.0
  0
INSERT
  5
2CD
  8
2
 62
     7
  2
*X1
 10
0.0
 20
0.0
 30
0.0
  0
INSERT
  5
2CE
  8
2
 62
     7
  2
*X2
 10
0.0
 20
0.0
 30
0.0
  0
INSERT
  5
2CF
  8
2
 62
     7
  2
*X3
 10
0.0
 20
0.0
 30
0.0
  0
INSERT
  5
2D0
  8
2
 62
     7
  2
*X4
 10
0.0
 20
0.0
 30
0.0
  0
INSERT
  5
2D1
  8
2
 62
     7
  2
*X5
 10
0.0
 20
0.0
 30
0.0
  0
INSERT
  5
2D2
  8
2
 62
     7
  2
*X6
 10
0.0
 20
0.0
 30
0.0
  0
INSERT
  5
2D3
  8
2
 62
     7
  2
*X7
 10
0.0
 20
0.0
 30
0.0
  0
INSERT
  5
2D4
  8
2
 62
     7
  2
*X8
 10
0.0
 20
0.0
 30
0.0
  0
INSERT
  5
2D5
  8
2
 62
     7
  2
*X9
 10
0.0
 20
0.0
 30
0.0
  0
INSERT
  5
2D6
  8
2
 62
     7
  2
*X10
 10
0.0
 20
0.0
 30
0.0
  0
POINT
  5
2D7
  8
1
  6
DASHED
 62
     7
 10
7572.045915437634
 20
8527.3506358380982
 30
0.0
  0
POINT
  5
2D8
  8
1
  6
DASHED
 62
     7
 10
4072.045915437634
 20
3777.3506358380992
 30
0.0
  0
POINT
  5
2D9
  8
2
  6
DASHED
 62
     7
 10
5260.0725232423511
 20
5077.3521025850896
 30
0.0
  0
POINT
  5
2DA
  8
2
  6
DASHED
 62
     7
 10
5276.0183248547446
 20
4737.3506358380992
 30
0.0
  0
POINT
  5
2DB
  8
2
  6
DASHED
 62
     7
 10
5473.0439254376397
 20
4277.3506358380973
 30
0.0
  0
POINT
  5
2DC
  8
2
  6
DASHED
 62
     7
 10
5276.0183248547446
 20
4737.3506358380992
 30
0.0
  0
POINT
  5
2DD
  8
2
  6
DASHED
 62
     7
 10
5422.0519154376343
 20
5017.3506358381001
 30
0.0
  0
POINT
  5
2DE
  8
2
  6
DASHED
 62
     7
 10
5094.5661405965366
 20
4842.3506358380992
 30
0.0
  0
POINT
  5
2DF
  8
2
  6
DASHED
 62
     7
 10
4811.0419254376329
 20
4277.3506358380982
 30
0.0
  0
POINT
  5
2E0
  8
2
  6
DASHED
 62
     7
 10
4963.9888096227542
 20
5077.3521028479536
 30
0.0
  0
POINT
  5
2E1
  8
2
  6
DASHED
 62
     7
 10
5094.5661405965366
 20
4842.3506358380992
 30
0.0
  0
POINT
  5
2E2
  8
2
  6
DASHED
 62
     7
 10
6882.0459154376331
 20
4858.3511358380974
 30
0.0
  0
POINT
  5
2E3
  8
2
  6
DASHED
 62
     7
 10
6882.0459154376331
 20
4826.3515358380992
 30
0.0
  0
POINT
  5
2E4
  8
2
  6
DASHED
 62
     7
 10
5142.0459154376322
 20
6895.9426050264401
 30
0.0
  0
POINT
  5
2E5
  8
2
  6
DASHED
 62
     7
 10
4962.0216477575814
 20
6839.3890865772573
 30
0.0
  0
POINT
  5
2E6
  8
2
  6
DASHED
 62
     7
 10
5142.0459154376358
 20
6600.1268102893764
 30
0.0
  0
POINT
  5
2E7
  8
2
  6
DASHED
 62
     7
 10
5422.0519154376334
 20
6629.3526358380968
 30
0.0
  0
POINT
  5
2E8
  8
2
  6
DASHED
 62
     7
 10
4832.0509154376323
 20
6627.3526358380959
 30
0.0
  0
POINT
  5
2E9
  8
2
  6
DASHED
 62
     7
 10
5142.0459154376358
 20
6600.1268102893764
 30
0.0
  0
POINT
  5
2EA
  8
2
  6
DASHED
 62
     7
 10
4892.0509154376341
 20
4849.8329953713701
 30
0.0
  0
POINT
  5
2EB
  8
2
  6
DASHED
 62
     7
 10
5362.0519154376352
 20
4849.8329953713701
 30
0.0
  0
POINT
  5
2EC
  8
2
  6
DASHED
 62
     7
 10
5362.0519154376352
 20
4849.8329953713701
 30
0.0
  0
POINT
  5
2ED
  8
2
  6
DASHED
 62
     7
 10
5422.0519154376343
 20
4937.3515358380982
 30
0.0
  0
POINT
  5
2EE
  8
2
  6
DASHED
 62
     7
 10
4892.0509154376341
 20
4849.8329953713701
 30
0.0
  0
POINT
  5
2EF
  8
2
  6
DASHED
 62
     7
 10
4832.0509154376332
 20
4937.3515358380982
 30
0.0
  0
POINT
  5
2F0
  8
2
  6
DASHED
 62
     7
 10
5142.0459154376358
 20
4702.7363743695132
 30
0.0
  0
POINT
  5
2F1
  8
2
  6
DASHED
 62
     7
 10
5242.0459154376322
 20
4684.4021225267043
 30
0.0
  0
POINT
  5
2F2
  8
2
  6
DASHED
 62
     7
 10
5142.0459154376358
 20
4702.7363743695132
 30
0.0
  0
POINT
  5
2F3
  8
2
  6
DASHED
 62
     7
 10
5066.046017284405
 20
4212.786196682011
 30
0.0
  0
POINT
  5
2F4
  8
2
  6
DASHED
 62
     7
 10
5050.1709172844139
 20
4237.3506358380982
 30
0.0
  0
POINT
  5
2F5
  8
2
  6
DASHED
 62
     7
 10
5081.9209172844157
 20
4237.3506358380964
 30
0.0
  0
POINT
  5
2F6
  8
2
  6
DASHED
 62
     7
 10
6874.3101825728027
 20
4944.3485675558613
 30
0.0
  0
POINT
  5
2F7
  8
2
  6
DASHED
 62
     7
 10
6874.309419699347
 20
4969.3497475558634
 30
0.0
  0
POINT
  5
2F8
  8
2
  6
DASHED
 62
     7
 10
6874.309420109681
 20
4884.3484615875268
 30
0.0
  0
POINT
  5
2F9
  8
2
  6
DASHED
 62
     7
 10
6874.3101825728027
 20
4944.3485675558613
 30
0.0
  0
POINT
  5
2FA
  8
2
  6
DASHED
 62
     7
 10
6842.0459154376404
 20
4277.3506358381019
 30
0.0
  0
POINT
  5
2FB
  8
2
  6
DASHED
 62
     7
 10
6874.309420109681
 20
4884.3484615875268
 30
0.0
  0
POINT
  5
2FC
  8
2
  6
DASHED
 62
     7
 10
6772.0459154376358
 20
4261.6282709800962
 30
0.0
  0
POINT
  5
2FD
  8
2
  6
DASHED
 62
     7
 10
6842.0459154376404
 20
4277.3506358381019
 30
0.0
  0
POINT
  5
2FE
  8
2
  6
DASHED
 62
     7
 10
6717.0449015978147
 20
4217.3507358380984
 30
0.0
  0
POINT
  5
2FF
  8
2
  6
DASHED
 62
     7
 10
6842.0459154376404
 20
4277.3506358381019
 30
0.0
  0
POINT
  5
300
  8
2
  6
DASHED
 62
     7
 10
5270.0003489518103
 20
4733.3516358380984
 30
0.0
  0
POINT
  5
301
  8
2
  6
DASHED
 62
     7
 10
5422.0519154376361
 20
5017.3506358380992
 30
0.0
  0
POINT
  5
302
  8
2
  6
DASHED
 62
     7
 10
5270.0003489518103
 20
4733.3516358380984
 30
0.0
  0
POINT
  5
303
  8
2
  6
DASHED
 62
     7
 10
5473.0439254376388
 20
4277.3506358380973
 30
0.0
  0
POINT
  5
304
  8
2
  6
DASHED
 62
     7
 10
5110.0269154376356
 20
4940.3500887010714
 30
0.0
  0
POINT
  5
305
  8
2
  6
DASHED
 62
     7
 10
4811.0419254376329
 20
4277.3506358380982
 30
0.0
  0
POINT
  5
306
  8
2
  6
DASHED
 62
     7
 10
4963.9888096227542
 20
5077.3521028479536
 30
0.0
  0
POINT
  5
307
  8
2
  6
DASHED
 62
     7
 10
5110.0269154376356
 20
4940.3500887010714
 30
0.0
  0
POINT
  5
308
  8
2
  6
DASHED
 62
     7
 10
5422.0519154376343
 20
4937.3515358380982
 30
0.0
  0
POINT
  5
309
  8
2
  6
DASHED
 62
     7
 10
5422.0519154376343
 20
5017.3506358380992
 30
0.0
  0
POINT
  5
30A
  8
2
  6
DASHED
 62
     7
 10
5422.0519154376343
 20
5017.3506358380992
 30
0.0
  0
POINT
  5
30B
  8
2
  6
DASHED
 62
     7
 10
5422.0519154376343
 20
5017.3506358380992
 30
0.0
  0
POINT
  5
30C
  8
2
  6
DASHED
 62
     7
 10
5473.043925437637
 20
4277.3506358380982
 30
0.0
  0
POINT
  5
30D
  8
2
  6
DASHED
 62
     7
 10
4811.0419254376329
 20
4277.3506358380982
 30
0.0
  0
POINT
  5
30E
  8
2
  6
DASHED
 62
     7
 10
4963.9888096227542
 20
5077.3521028479536
 30
0.0
  0
POINT
  5
30F
  8
2
  6
DASHED
 62
     7
 10
5142.0459154376322
 20
6895.9426050264401
 30
0.0
  0
POINT
  5
310
  8
2
  6
DASHED
 62
     7
 10
5422.0519154376298
 20
6877.3506358381019
 30
0.0
  0
POINT
  5
311
  8
2
  6
DASHED
 62
     7
 10
5142.0459154376322
 20
6895.9426050264401
 30
0.0
  0
POINT
  5
312
  8
2
  6
DASHED
 62
     7
 10
4832.0509154376286
 20
6877.3506358380982
 30
0.0
  0
POINT
  5
313
  8
2
  6
DASHED
 62
     7
 10
5142.0459154376322
 20
6600.1268102893764
 30
0.0
  0
POINT
  5
314
  8
2
  6
DASHED
 62
     7
 10
5262.0810255096494
 20
6665.3245359391594
 30
0.0
  0
POINT
  5
315
  8
2
  6
DASHED
 62
     7
 10
5142.0459154376322
 20
6600.1268102893764
 30
0.0
  0
POINT
  5
316
  8
2
  6
DASHED
 62
     7
 10
4961.9734159789978
 20
6665.3245347843776
 30
0.0
  0
POINT
  5
317
  8
2
  6
DASHED
 62
     7
 10
5262.0810254376302
 20
6839.3886358380942
 30
0.0
  0
POINT
  5
318
  8
2
  6
DASHED
 62
     7
 10
5302.0512797247666
 20
6787.6706358380943
 30
0.0
  0
POINT
  5
319
  8
2
  6
DASHED
 62
     7
 10
5142.0459154376322
 20
6895.9426050264401
 30
0.0
  0
POINT
  5
31A
  8
2
  6
DASHED
 62
     7
 10
5262.0810254376302
 20
6839.3886358380942
 30
0.0
  0
POINT
  5
31B
  8
2
  6
DASHED
 62
     7
 10
4832.0509154376323
 20
6627.3526358380959
 30
0.0
  0
POINT
  5
31C
  8
2
  6
DASHED
 62
     7
 10
5422.0519154376334
 20
6629.3526358380968
 30
0.0
  0
POINT
  5
31D
  8
2
  6
DASHED
 62
     7
 10
5451.0910208182386
 20
6752.3516358380966
 30
0.0
  0
POINT
  5
31E
  8
2
  6
DASHED
 62
     7
 10
5422.0519154376334
 20
6877.3506358381019
 30
0.0
  0
POINT
  5
31F
  8
2
  6
DASHED
 62
     7
 10
4965.0219154376346
 20
6842.3866358380992
 30
0.0
  0
POINT
  5
320
  8
2
  6
DASHED
 62
     7
 10
4964.9775587989379
 20
6662.3238386085213
 30
0.0
  0
POINT
  5
321
  8
2
  6
DASHED
 62
     7
 10
4832.0509154376323
 20
6627.3526358380959
 30
0.0
  0
POINT
  5
322
  8
2
  6
DASHED
 62
     7
 10
4832.0509154376323
 20
6877.3506358380982
 30
0.0
  0
POINT
  5
323
  8
2
  6
DASHED
 62
     7
 10
5473.0439254376352
 20
4277.3506358380982
 30
0.0
  0
POINT
  5
324
  8
2
  6
DASHED
 62
     7
 10
5473.043925437637
 20
4277.3506358380982
 30
0.0
  0
POINT
  5
325
  8
2
  6
DASHED
 62
     7
 10
5262.0459154376358
 20
4684.4021225267024
 30
0.0
  0
POINT
  5
326
  8
2
  6
DASHED
 62
     7
 10
5362.0459154376358
 20
4255.9603616922459
 30
0.0
  0
POINT
  5
327
  8
2
  6
DASHED
 62
     7
 10
5262.0459154376358
 20
4684.4021225267024
 30
0.0
  0
POINT
  5
328
  8
2
  6
DASHED
 62
     7
 10
6762.0459154376376
 20
4261.6282709800962
 30
0.0
  0
POINT
  5
329
  8
2
  6
DASHED
 62
     7
 10
6842.0459154376404
 20
4277.3506358381046
 30
0.0
  0
POINT
  5
32A
  8
2
  6
DASHED
 62
     7
 10
5292.0459154376322
 20
4248.6439088381012
 30
0.0
  0
POINT
  5
32B
  8
2
  6
DASHED
 62
     7
 10
5066.0460172844059
 20
4297.1395149175532
 30
0.0
  0
POINT
  5
32C
  8
2
  6
DASHED
 62
     7
 10
5292.0459154376322
 20
4248.6439088381012
 30
0.0
  0
POINT
  5
32D
  8
2
  6
DASHED
 62
     7
 10
5473.043925437637
 20
4277.3506358380992
 30
0.0
  0
POINT
  5
32E
  8
2
  6
DASHED
 62
     7
 10
4811.0419254376329
 20
4277.3506358380982
 30
0.0
  0
POINT
  5
32F
  8
2
  6
DASHED
 62
     7
 10
6842.0459154376367
 20
4277.3506358381019
 30
0.0
  0
POINT
  5
330
  8
2
  6
DASHED
 62
     7
 10
5473.0439254376352
 20
4277.3506358380982
 30
0.0
  0
POINT
  5
331
  8
2
  6
DASHED
 62
     7
 10
4811.0419254376329
 20
4277.3506358380982
 30
0.0
  0
POINT
  5
332
  8
2
  6
DASHED
 62
     7
 10
4811.0419254376329
 20
4277.3506358380982
 30
0.0
  0
POINT
  5
333
  8
2
  6
DASHED
 62
     7
 10
4811.0419254376329
 20
4277.3506358380982
 30
0.0
  0
POINT
  5
334
  8
2
  6
DASHED
 62
     7
 10
6842.0459154376367
 20
4277.3506358380992
 30
0.0
  0
POINT
  5
335
  8
2
  6
DASHED
 62
     7
 10
6842.045915437634
 20
4277.3506358381019
 30
0.0
  0
POINT
  5
336
  8
2
  6
DASHED
 62
     7
 10
4811.0419254376329
 20
4277.3506358381019
 30
0.0
  0
POINT
  5
337
  8
2
  6
DASHED
 62
     7
 10
4811.0419254376329
 20
4277.3506358380982
 30
0.0
  0
POINT
  5
338
  8
2
  6
DASHED
 62
     7
 10
6842.045915437634
 20
4277.3506358381019
 30
0.0
  0
POINT
  5
339
  8
2
  6
DASHED
 62
     7
 10
5473.0439254376352
 20
4277.3506358380982
 30
0.0
  0
POINT
  5
33A
  8
2
  6
DASHED
 62
     7
 10
5473.0439254376352
 20
4277.3506358380982
 30
0.0
  0
POINT
  5
33B
  8
2
  6
DASHED
 62
     7
 10
6842.0459154376367
 20
4277.3506358380982
 30
0.0
  0
POINT
  5
33C
  8
2
  6
DASHED
 62
     7
 10
6842.045915437634
 20
4277.3506358380982
 30
0.0
  0
POINT
  5
33D
  8
2
  6
DASHED
 62
     7
 10
6842.045915437634
 20
4277.3506358380982
 30
0.0
  0
POINT
  5
33E
  8
2
  6
DASHED
 62
     7
 10
5473.0439254376352
 20
4277.3506358380982
 30
0.0
  0
POINT
  5
33F
  8
2
  6
DASHED
 62
     7
 10
4811.0419254376329
 20
4277.3506358380982
 30
0.0
  0
POINT
  5
340
  8
2
  6
DASHED
 62
     7
 10
5473.0439254376333
 20
4277.3506358380992
 30
0.0
  0
POINT
  5
341
  8
2
  6
DASHED
 62
     7
 10
4811.0419254376329
 20
4277.3506358380982
 30
0.0
  0
POINT
  5
342
  8
2
  6
DASHED
 62
     7
 10
4811.0419254376329
 20
4277.3506358380982
 30
0.0
  0
POINT
  5
343
  8
2
  6
DASHED
 62
     7
 10
5473.0439254376333
 20
4277.3506358381019
 30
0.0
  0
POINT
  5
344
  8
2
  6
DASHED
 62
     7
 10
4811.0419254376347
 20
4277.3506358380992
 30
0.0
  0
POINT
  5
345
  8
2
  6
DASHED
 62
     7
 10
4811.0419254376347
 20
4277.3506358380992
 30
0.0
  0
POINT
  5
346
  8
2
  6
DASHED
 62
     7
 10
5473.043925437637
 20
4277.3506358381019
 30
0.0
  0
POINT
  5
347
  8
2
  6
DASHED
 62
     7
 10
4811.0419254376347
 20
4277.3506358380992
 30
0.0
  0
POINT
  5
348
  8
2
  6
DASHED
 62
     7
 10
6772.0459154376367
 20
4264.3506358381001
 30
0.0
  0
POINT
  5
349
  8
2
  6
DASHED
 62
     7
 10
6842.045915437634
 20
4277.3506358381019
 30
0.0
  0
POINT
  5
34A
  8
2
  6
DASHED
 62
     7
 10
6702.0459154376349
 20
4311.7626075543976
 30
0.0
  0
POINT
  5
34B
  8
2
  6
DASHED
 62
     7
 10
6842.045915437634
 20
4277.3506358381019
 30
0.0
  0
POINT
  5
34C
  8
2
  6
DASHED
 62
     7
 10
5242.0459154376331
 20
4692.7923966725548
 30
0.0
  0
POINT
  5
34D
  8
2
  6
DASHED
 62
     7
 10
5066.0460172844041
 20
4306.1378386521101
 30
0.0
  0
POINT
  5
34E
  8
2
  6
DASHED
 62
     7
 10
5473.0439254376352
 20
4277.3506358380982
 30
0.0
  0
POINT
  5
34F
  8
2
  6
DASHED
 62
     7
 10
4811.0419254376347
 20
4277.3506358380992
 30
0.0
  0
POINT
  5
350
  8
2
  6
DASHED
 62
     7
 10
4811.0419254376329
 20
4277.3506358380982
 30
0.0
  0
POINT
  5
351
  8
2
  6
DASHED
 62
     7
 10
5081.920917284413
 20
4237.3506358380928
 30
0.0
  0
POINT
  5
352
  8
2
  6
DASHED
 62
     7
 10
5050.1709172844139
 20
4237.3506358380982
 30
0.0
  0
POINT
  5
353
  8
2
  6
DASHED
 62
     7
 10
4811.0419254376329
 20
4277.3506358380982
 30
0.0
  0
POINT
  5
354
  8
2
  6
DASHED
 62
     7
 10
5081.920917284413
 20
4237.3506358380964
 30
0.0
  0
POINT
  5
355
  8
2
  6
DASHED
 62
     7
 10
5050.1709172844139
 20
4237.3506358380982
 30
0.0
  0
POINT
  5
356
  8
2
  6
DASHED
 62
     7
 10
5066.0460172844059
 20
4297.1395149175532
 30
0.0
  0
POINT
  5
357
  8
2
  6
DASHED
 62
     7
 10
4811.0419254376347
 20
4277.3506358380982
 30
0.0
  0
POINT
  5
358
  8
2
  6
DASHED
 62
     7
 10
6842.045915437634
 20
4277.3506358381019
 30
0.0
  0
POINT
  5
359
  8
2
  6
DASHED
 62
     7
 10
6702.0459154376349
 20
4311.7626075543976
 30
0.0
  0
POINT
  5
35A
  8
2
  6
DASHED
 62
     7
 10
5473.0439254376352
 20
4277.3506358380982
 30
0.0
  0
POINT
  5
35B
  8
2
  6
DASHED
 62
     7
 10
4811.0419254376311
 20
4277.3506358380982
 30
0.0
  0
POINT
  5
35C
  8
2
  6
DASHED
 62
     7
 10
5473.0439254376352
 20
4277.3506358380982
 30
0.0
  0
POINT
  5
35D
  8
2
  6
DASHED
 62
     7
 10
6595.0426676568504
 20
4937.3515294525923
 30
0.0
  0
POINT
  5
35E
  8
2
  6
DASHED
 62
     7
 10
6595.0426673345692
 20
5017.3506358380992
 30
0.0
  0
POINT
  5
35F
  8
1
  6
DASHED
 62
     7
 10
5302.0547154376336
 20
5017.3476996003819
 30
0.0
  0
POINT
  5
360
  8
1
  6
DASHED
 62
     7
 10
5242.045915437634
 20
4755.3511535542611
 30
0.0
  0
LINE
  5
361
  8
2
 62
     7
 10
7472.0459154376304
 20
8127.350635838091
 30
0.0
 11
7472.0459154376304
 21
8027.350635838091
 31
0.0
  0
LINE
  5
362
  8
2
 62
     7
 10
6562.0459154376294
 20
8127.350635838091
 30
0.0
 11
6562.0459154376294
 21
8027.350635838091
 31
0.0
  0
LINE
  5
363
  8
2
 62
     7
 10
7572.0459154376304
 20
8127.350635838091
 30
0.0
 11
7572.0459154376304
 21
8027.350635838091
 31
0.0
  0
LINE
  5
364
  8
2
 62
     7
 10
5932.0459154376304
 20
8127.350635838091
 30
0.0
 11
5932.0459154376304
 21
8027.350635838091
 31
0.0
  0
LINE
  5
365
  8
2
 62
     7
 10
5932.0459154376304
 20
8027.350635838091
 30
0.0
 11
7572.0459154376304
 21
8027.350635838091
 31
0.0
  0
LINE
  5
366
  8
2
 62
     7
 10
5932.0459154376304
 20
8127.350635838091
 30
0.0
 11
7572.0459154376304
 21
8127.350635838091
 31
0.0
  0
LINE
  5
367
  8
2
 62
     7
 10
7472.0459154376304
 20
8227.350635838091
 30
0.0
 11
7472.0459154376304
 21
8127.350635838091
 31
0.0
  0
LINE
  5
368
  8
2
 62
     7
 10
6562.0459154376294
 20
8227.350635838091
 30
0.0
 11
6562.0459154376294
 21
8127.350635838091
 31
0.0
  0
LINE
  5
369
  8
2
 62
     7
 10
7572.0459154376304
 20
8227.350635838091
 30
0.0
 11
7572.0459154376304
 21
8127.350635838091
 31
0.0
  0
LINE
  5
36A
  8
2
 62
     7
 10
5932.0459154376304
 20
8227.350635838091
 30
0.0
 11
5932.0459154376304
 21
8127.350635838091
 31
0.0
  0
LINE
  5
36B
  8
2
 62
     7
 10
5932.0459154376304
 20
8127.350635838091
 30
0.0
 11
7572.0459154376304
 21
8127.350635838091
 31
0.0
  0
LINE
  5
36C
  8
2
 62
     7
 10
5932.0459154376304
 20
8227.350635838091
 30
0.0
 11
7572.0459154376304
 21
8227.350635838091
 31
0.0
  0
LINE
  5
36D
  8
2
 62
     7
 10
7472.0459154376304
 20
8327.3506358380928
 30
0.0
 11
7472.0459154376304
 21
8227.350635838091
 31
0.0
  0
LINE
  5
36E
  8
2
 62
     7
 10
6562.0459154376294
 20
8327.3506358380928
 30
0.0
 11
6562.0459154376294
 21
8227.350635838091
 31
0.0
  0
LINE
  5
36F
  8
2
 62
     7
 10
7572.0459154376304
 20
8327.3506358380928
 30
0.0
 11
7572.0459154376304
 21
8227.350635838091
 31
0.0
  0
LINE
  5
370
  8
2
 62
     7
 10
5932.0459154376304
 20
8327.3506358380928
 30
0.0
 11
5932.0459154376304
 21
8227.350635838091
 31
0.0
  0
LINE
  5
371
  8
2
 62
     7
 10
5932.0459154376304
 20
8227.350635838091
 30
0.0
 11
7572.0459154376304
 21
8227.350635838091
 31
0.0
  0
LINE
  5
372
  8
2
 62
     7
 10
5932.0459154376304
 20
8327.3506358380928
 30
0.0
 11
7572.0459154376304
 21
8327.3506358380928
 31
0.0
  0
LINE
  5
373
  8
2
 62
     7
 10
7472.0459154376304
 20
8427.3506358380928
 30
0.0
 11
7472.0459154376304
 21
8327.3506358380928
 31
0.0
  0
LINE
  5
374
  8
2
 62
     7
 10
6562.0459154376294
 20
8427.3506358380928
 30
0.0
 11
6562.0459154376294
 21
8327.3506358380928
 31
0.0
  0
LINE
  5
375
  8
2
 62
     7
 10
7572.0459154376304
 20
8427.3506358380928
 30
0.0
 11
7572.0459154376304
 21
8327.3506358380928
 31
0.0
  0
LINE
  5
376
  8
2
 62
     7
 10
5932.0459154376304
 20
8427.3506358380928
 30
0.0
 11
5932.0459154376304
 21
8327.3506358380928
 31
0.0
  0
LINE
  5
377
  8
2
 62
     7
 10
5932.0459154376304
 20
8327.3506358380928
 30
0.0
 11
7572.0459154376304
 21
8327.3506358380928
 31
0.0
  0
LINE
  5
378
  8
2
 62
     7
 10
5932.0459154376304
 20
8427.3506358380928
 30
0.0
 11
7572.0459154376304
 21
8427.3506358380928
 31
0.0
  0
LINE
  5
379
  8
2
 62
     7
 10
7572.0459154376304
 20
8527.350635838091
 30
0.0
 11
7572.0459154376304
 21
8427.3506358380928
 31
0.0
  0
LINE
  5
37A
  8
2
 62
     7
 10
5932.0459154376304
 20
8527.350635838091
 30
0.0
 11
5932.0459154376304
 21
8427.3506358380928
 31
0.0
  0
LINE
  5
37B
  8
2
 62
     7
 10
5932.0459154376304
 20
8427.3506358380928
 30
0.0
 11
7572.0459154376304
 21
8427.3506358380928
 31
0.0
  0
LINE
  5
37C
  8
2
 62
     7
 10
5932.0459154376304
 20
8527.350635838091
 30
0.0
 11
7572.0459154376304
 21
8527.350635838091
 31
0.0
  0
LINE
  5
37D
  8
2
 62
     7
 10
4434.1461717914099
 20
3615.4001256190322
 30
0.0
 11
4418.9505663576283
 21
3615.4001256190322
 31
0.0
  0
LINE
  5
37E
  8
2
 62
     7
 10
4781.4513404546115
 20
3614.1365012946858
 30
0.0
 11
4781.4513404546115
 21
3624.1798019919811
 31
0.0
  0
LINE
  5
37F
  8
2
 62
     7
 10
4781.4513404546115
 20
3606.1365012946872
 30
0.0
 11
4772.2994665794204
 21
3606.1365012946872
 31
0.0
  0
LINE
  5
380
  8
2
 62
     7
 10
4781.4513404546115
 20
3587.0756927264738
 30
0.0
 11
4753.3515273639841
 21
3587.0756927264761
 31
0.0
  0
LINE
  5
381
  8
2
 62
     7
 10
4752.5539140518922
 20
3597.11899342377
 30
0.0
 11
4752.5539140518922
 21
3614.1365012946858
 31
0.0
  0
LINE
  5
382
  8
2
 62
     7
 10
4772.2994665794204
 20
3597.11899342377
 30
0.0
 11
4752.5539140518922
 21
3597.11899342377
 31
0.0
  0
LINE
  5
383
  8
2
 62
     7
 10
4772.2994665794204
 20
3606.1365012946872
 30
0.0
 11
4772.2994665794204
 21
3597.11899342377
 31
0.0
  0
LINE
  5
384
  8
2
 62
     7
 10
4752.5539140518922
 20
3614.1365012946858
 30
0.0
 11
4781.4513404546115
 21
3614.1365012946858
 31
0.0
  0
LINE
  5
385
  8
2
 62
     7
 10
4781.4513404546115
 20
3587.0756927264738
 30
0.0
 11
4781.4513404546115
 21
3606.1365012946872
 31
0.0
  0
LINE
  5
386
  8
2
 62
     7
 10
4743.3515273639841
 20
3614.1798019919802
 30
0.0
 11
4743.3515273639841
 21
3597.0756927264761
 31
0.0
  0
LINE
  5
387
  8
2
 62
     7
 10
4781.4513404546115
 20
3624.1798019919811
 30
0.0
 11
4753.3515273639841
 21
3624.1798019919811
 31
0.0
  0
LINE
  5
388
  8
2
 62
     7
 10
4697.9040228667518
 20
3624.1798019919811
 30
0.0
 11
4722.0589588653474
 21
3598.1750230318462
 31
0.0
  0
LINE
  5
389
  8
2
 62
     7
 10
4697.9040228667518
 20
3613.0804716866101
 30
0.0
 11
4721.8904950858523
 21
3587.0756927264761
 31
0.0
  0
LINE
  5
38A
  8
2
 62
     7
 10
4721.8904950858523
 20
3587.0756927264761
 30
0.0
 11
4730.7114984437521
 21
3587.0756927264761
 31
0.0
  0
LINE
  5
38B
  8
2
 62
     7
 10
4730.7114984437521
 20
3587.0756927264761
 30
0.0
 11
4730.6884654345167
 21
3624.1798019919811
 31
0.0
  0
LINE
  5
38C
  8
2
 62
     7
 10
4730.6884654345167
 20
3624.1798019919811
 30
0.0
 11
4722.0589588653474
 21
3624.1798019919811
 31
0.0
  0
LINE
  5
38D
  8
2
 62
     7
 10
4722.0589588653474
 20
3624.1798019919811
 30
0.0
 11
4722.0589588653474
 21
3598.1750230318462
 31
0.0
  0
LINE
  5
38E
  8
2
 62
     7
 10
4637.2388977597939
 20
3587.0756927264738
 30
0.0
 11
4603.1390846691656
 21
3587.0756927264738
 31
0.0
  0
LINE
  5
38F
  8
2
 62
     7
 10
4553.262758679688
 20
3620.4665258457562
 30
0.0
 11
4533.899081567798
 21
3587.075694402653
 31
0.0
  0
LINE
  5
390
  8
2
 62
     7
 10
4585.470023122577
 20
3587.075694402653
 30
0.0
 11
4566.106346010688
 21
3620.4665258457562
 31
0.0
  0
LINE
  5
391
  8
2
 62
     7
 10
4574.6243083132558
 20
3587.0848172373908
 30
0.0
 11
4585.470023122577
 21
3587.075694402653
 31
0.0
  0
LINE
  5
392
  8
2
 62
     7
 10
4569.918010114744
 20
3594.6068134104921
 30
0.0
 11
4574.6243083132558
 21
3587.0848172373908
 31
0.0
  0
LINE
  5
393
  8
2
 62
     7
 10
4559.6845523451884
 20
3614.3807940411461
 30
0.0
 11
4565.1996871940873
 21
3603.5506523650829
 31
0.0
  0
LINE
  5
394
  8
2
 62
     7
 10
4458.7812062924877
 20
3615.4001256190322
 30
0.0
 11
4443.4494518152533
 21
3615.4001256190322
 31
0.0
  0
LINE
  5
395
  8
2
 62
     7
 10
4692.0588463170061
 20
3749.8666489088
 30
0.0
 11
4692.0588463170061
 21
3761.9072846741619
 31
0.0
  0
LINE
  5
396
  8
2
 62
     7
 10
4686.3405537176259
 20
3767.6255772735421
 30
0.0
 11
4661.5165543448766
 21
3767.625577273544
 31
0.0
  0
LINE
  5
397
  8
2
 62
     7
 10
4643.0183523515043
 20
3744.1483563094221
 30
0.0
 11
4686.3405537176259
 21
3744.148356309418
 31
0.0
  0
LINE
  5
398
  8
2
 62
     7
 10
4643.0183523515043
 20
3645.7815948315501
 30
0.0
 11
4643.0183523515043
 21
3744.1483563094221
 31
0.0
  0
LINE
  5
399
  8
2
 62
     7
 10
4629.5165548157502
 20
3637.781594831552
 30
0.0
 11
4635.0183523515043
 21
3637.7815948315501
 31
0.0
  0
LINE
  5
39A
  8
2
 62
     7
 10
4621.5165543448802
 20
3727.6255770434118
 30
0.0
 11
4621.516554815752
 21
3645.7815947855252
 31
0.0
  0
LINE
  5
39B
  8
2
 62
     7
 10
4534.6722993531102
 20
3714.442196534605
 30
0.0
 11
4534.6722993531102
 21
3744.1483563094221
 31
0.0
  0
LINE
  5
39C
  8
2
 62
     7
 10
4603.7891463836268
 20
3696.6832681698661
 30
0.0
 11
4603.7891463836268
 21
3708.723903935228
 31
0.0
  0
LINE
  5
39D
  8
2
 62
     7
 10
4534.6722993531102
 20
3690.9649755704859
 30
0.0
 11
4598.0708537842456
 21
3690.9649755704859
 31
0.0
  0
LINE
  5
39E
  8
2
 62
     7
 10
4598.0708537842456
 20
3714.442196534611
 30
0.0
 11
4534.6722993531102
 21
3714.442196534605
 31
0.0
  0
LINE
  5
39F
  8
2
 62
     7
 10
4598.0708537842456
 20
3661.2588157956739
 30
0.0
 11
4534.6722993531102
 21
3661.258815795672
 31
0.0
  0
LINE
  5
3A0
  8
2
 62
     7
 10
4603.7891463836268
 20
3643.4998874309331
 30
0.0
 11
4603.7891463836268
 21
3655.5405231962941
 31
0.0
  0
LINE
  5
3A1
  8
2
 62
     7
 10
4521.1705018173579
 20
3637.781594831552
 30
0.0
 11
4598.0708537842456
 21
3637.7815948315501
 31
0.0
  0
LINE
  5
3A2
  8
2
 62
     7
 10
4534.6722993531102
 20
3744.1483563094221
 30
0.0
 11
4598.0708537842456
 21
3744.1483563094198
 31
0.0
  0
LINE
  5
3A3
  8
2
 62
     7
 10
4534.6722993531102
 20
3661.258815795672
 30
0.0
 11
4534.6722993531102
 21
3690.9649755704859
 31
0.0
  0
LINE
  5
3A4
  8
2
 62
     7
 10
4598.0708537842456
 20
3767.6255772735472
 30
0.0
 11
4553.1705013464843
 21
3767.625577273544
 31
0.0
  0
LINE
  5
3A5
  8
2
 62
     7
 10
4603.7891463836268
 20
3749.8666489088018
 30
0.0
 11
4603.7891463836268
 21
3761.9072846741642
 31
0.0
  0
LINE
  5
3A6
  8
2
 62
     7
 10
4513.1705013464853
 20
3727.6255770434118
 30
0.0
 11
4513.1705018173579
 21
3645.7815947855252
 31
0.0
  0
LINE
  5
3A7
  8
2
 62
     7
 10
4491.3587593113843
 20
3661.2588157956739
 30
0.0
 11
4427.9602048802481
 21
3661.258815795672
 31
0.0
  0
LINE
  5
3A8
  8
2
 62
     7
 10
4497.0770519107637
 20
3643.4998874309331
 30
0.0
 11
4497.0770519107637
 21
3655.5405231962941
 31
0.0
  0
LINE
  5
3A9
  8
2
 62
     7
 10
4414.4584073444958
 20
3637.781594831552
 30
0.0
 11
4491.3587593113843
 21
3637.7815948315501
 31
0.0
  0
LINE
  5
3AA
  8
2
 62
     7
 10
4427.9602048802481
 20
3744.1483563094221
 30
0.0
 11
4491.3587593113843
 21
3744.1483563094198
 31
0.0
  0
LINE
  5
3AB
  8
2
 62
     7
 10
4427.9602048802481
 20
3661.258815795672
 30
0.0
 11
4427.9602048802481
 21
3744.1483563094221
 31
0.0
  0
LINE
  5
3AC
  8
2
 62
     7
 10
4491.3587593113843
 20
3767.6255772735472
 30
0.0
 11
4446.4584068736222
 21
3767.625577273544
 31
0.0
  0
LINE
  5
3AD
  8
2
 62
     7
 10
4497.0770519107637
 20
3749.8666489088018
 30
0.0
 11
4497.0770519107637
 21
3761.9072846741642
 31
0.0
  0
LINE
  5
3AE
  8
2
 62
     7
 10
4406.458406873624
 20
3727.6255770434118
 30
0.0
 11
4406.4584073444967
 21
3645.7815947855252
 31
0.0
  0
LINE
  5
3AF
  8
2
 62
     7
 10
4728.5165766818818
 20
3710.0737255145282
 30
0.0
 11
4728.5165766818818
 21
3744.1483563094221
 31
0.0
  0
LINE
  5
3B0
  8
2
 62
     7
 10
4728.5165766818818
 20
3710.0737255145282
 30
0.0
 11
4775.2049714910718
 21
3710.0737255145282
 31
0.0
  0
LINE
  5
3B1
  8
2
 62
     7
 10
4715.0147791461286
 20
3637.7815948315501
 30
0.0
 11
4720.5165766818827
 21
3637.7815948315501
 31
0.0
  0
LINE
  5
3B2
  8
2
 62
     7
 10
4728.5165766818818
 20
3645.7815948315501
 30
0.0
 11
4728.5165766818818
 21
3686.99181963828
 31
0.0
  0
LINE
  5
3B3
  8
2
 62
     7
 10
4791.9151311130172
 20
3767.625577273544
 30
0.0
 11
4747.0147786752559
 21
3767.6255772735421
 31
0.0
  0
LINE
  5
3B4
  8
2
 62
     7
 10
4797.6334237123956
 20
3645.7815948315501
 30
0.0
 11
4797.6334237123956
 21
3761.9072846741642
 31
0.0
  0
LINE
  5
3B5
  8
2
 62
     7
 10
4458.7812062924877
 20
3615.4001256190322
 30
0.0
 11
4458.7812062924877
 21
3624.167148921596
 31
0.0
  0
LINE
  5
3B6
  8
2
 62
     7
 10
4434.1461717914099
 20
3615.4001256190322
 30
0.0
 11
4434.1461717914099
 21
3588.4637844291801
 31
0.0
  0
LINE
  5
3B7
  8
2
 62
     7
 10
4707.0147786752568
 20
3727.6255770434118
 30
0.0
 11
4707.0147791461286
 21
3645.7815947855252
 31
0.0
  0
LINE
  5
3B8
  8
2
 62
     7
 10
4728.5165766818818
 20
3686.99181963828
 30
0.0
 11
4775.270514062172
 21
3686.99181963828
 31
0.0
  0
LINE
  5
3B9
  8
2
 62
     7
 10
4775.270514062172
 20
3686.99181963828
 30
0.0
 11
4775.270514062172
 21
3648.1236714303841
 31
0.0
  0
LINE
  5
3BA
  8
2
 62
     7
 10
4785.612590661005
 20
3637.7815948315501
 30
0.0
 11
4789.6334237123956
 21
3637.7815948315501
 31
0.0
  0
LINE
  5
3BB
  8
2
 62
     7
 10
4728.5165766818818
 20
3744.1483563094221
 30
0.0
 11
4775.2049714910718
 21
3744.1483563094221
 31
0.0
  0
LINE
  5
3BC
  8
2
 62
     7
 10
4775.2049714910718
 20
3744.1483563094221
 30
0.0
 11
4775.2049714910718
 21
3710.0737255145282
 31
0.0
  0
LINE
  5
3BD
  8
2
 62
     7
 10
4697.9040228667518
 20
3624.1798019919811
 30
0.0
 11
4689.2514832883462
 21
3624.1798019919811
 31
0.0
  0
LINE
  5
3BE
  8
2
 62
     7
 10
4689.2514832883462
 20
3624.1798019919811
 30
0.0
 11
4689.2745162975807
 21
3587.0756927264761
 31
0.0
  0
LINE
  5
3BF
  8
2
 62
     7
 10
4689.2745162975807
 20
3587.0756927264761
 30
0.0
 11
4697.9040228667518
 21
3587.0756927264761
 31
0.0
  0
LINE
  5
3C0
  8
2
 62
     7
 10
4697.9040228667518
 20
3587.0756927264761
 30
0.0
 11
4697.9040228667518
 21
3613.0804716866101
 31
0.0
  0
LINE
  5
3C1
  8
2
 62
     7
 10
4674.3293605890422
 20
3587.0756927264761
 30
0.0
 11
4674.329360589044
 21
3624.1798019919811
 31
0.0
  0
LINE
  5
3C2
  8
2
 62
     7
 10
4674.329360589044
 20
3624.1798019919811
 30
0.0
 11
4665.3295771301537
 21
3624.1798019919811
 31
0.0
  0
LINE
  5
3C3
  8
2
 62
     7
 10
4665.3295771301537
 20
3624.1798019919811
 30
0.0
 11
4665.3295771301537
 21
3587.0756927264738
 31
0.0
  0
LINE
  5
3C4
  8
2
 62
     7
 10
4665.3295771301537
 20
3587.0756927264738
 30
0.0
 11
4674.3293605890422
 21
3587.0756927264761
 31
0.0
  0
LINE
  5
3C5
  8
2
 62
     7
 10
4632.0365110718858
 20
3614.1365012946858
 30
0.0
 11
4632.0365110718858
 21
3597.11899342377
 31
0.0
  0
LINE
  5
3C6
  8
2
 62
     7
 10
4632.0365110718858
 20
3597.11899342377
 30
0.0
 11
4612.2909585443576
 21
3597.11899342377
 31
0.0
  0
LINE
  5
3C7
  8
2
 62
     7
 10
4612.2909585443576
 20
3597.11899342377
 30
0.0
 11
4612.2909585443576
 21
3614.1365012946858
 31
0.0
  0
LINE
  5
3C8
  8
2
 62
     7
 10
4612.2909585443576
 20
3614.1365012946858
 30
0.0
 11
4632.0365110718858
 21
3614.1365012946858
 31
0.0
  0
LINE
  5
3C9
  8
2
 62
     7
 10
4603.1390846691656
 20
3624.1798019919811
 30
0.0
 11
4603.1390846691656
 21
3587.0756927264738
 31
0.0
  0
LINE
  5
3CA
  8
2
 62
     7
 10
4641.2388977597939
 20
3591.0756927264729
 30
0.0
 11
4641.2388977597939
 21
3620.1798019919802
 31
0.0
  0
LINE
  5
3CB
  8
2
 62
     7
 10
4637.2388977597939
 20
3624.1798019919811
 30
0.0
 11
4603.1390846691656
 21
3624.1798019919811
 31
0.0
  0
LINE
  5
3CC
  8
2
 62
     7
 10
4533.899081567798
 20
3587.075694402653
 30
0.0
 11
4544.7447963771201
 21
3587.0848172373908
 31
0.0
  0
LINE
  5
3CD
  8
2
 62
     7
 10
4544.7447963771201
 20
3587.0848172373908
 30
0.0
 11
4549.4510945756319
 21
3594.6068134104921
 31
0.0
  0
LINE
  5
3CE
  8
2
 62
     7
 10
4549.4510945756319
 20
3594.6068134104921
 30
0.0
 11
4569.918010114744
 21
3594.6068134104921
 31
0.0
  0
LINE
  5
3CF
  8
2
 62
     7
 10
4565.1996871940873
 20
3603.5506523650829
 30
0.0
 11
4554.153444426488
 21
3603.5192858411979
 31
0.0
  0
LINE
  5
3D0
  8
2
 62
     7
 10
4554.153444426488
 20
3603.5192858411979
 30
0.0
 11
4559.6845523451884
 21
3614.3807940411461
 31
0.0
  0
LINE
  5
3D1
  8
2
 62
     7
 10
4488.2608500472816
 20
3599.7311099440658
 30
0.0
 11
4507.7267279842245
 21
3599.7311099440658
 31
0.0
  0
LINE
  5
3D2
  8
2
 62
     7
 10
4507.7267279842245
 20
3599.7311099440658
 30
0.0
 11
4507.7630527826659
 21
3587.7722244591282
 31
0.0
  0
LINE
  5
3D3
  8
2
 62
     7
 10
4507.7630527826659
 20
3587.7722244591282
 30
0.0
 11
4516.94019608286
 21
3587.7722244591282
 31
0.0
  0
LINE
  5
3D4
  8
2
 62
     7
 10
4516.94019608286
 20
3587.7722244591282
 30
0.0
 11
4516.94019608286
 21
3602.315303169481
 31
0.0
  0
LINE
  5
3D5
  8
2
 62
     7
 10
4516.94019608286
 20
3602.315303169481
 30
0.0
 11
4514.8166706455322
 21
3604.384402307458
 31
0.0
  0
LINE
  5
3D6
  8
2
 62
     7
 10
4512.9434114848818
 20
3624.1798019919811
 30
0.0
 11
4479.8485015828919
 21
3624.1798019919811
 31
0.0
  0
LINE
  5
3D7
  8
2
 62
     7
 10
4479.8485015828919
 20
3624.1798019919811
 30
0.0
 11
4479.8485015828919
 21
3587.7485343731878
 31
0.0
  0
LINE
  5
3D8
  8
2
 62
     7
 10
4479.8485015828919
 20
3587.7485343731878
 30
0.0
 11
4488.2608500472816
 21
3587.7722244591282
 31
0.0
  0
LINE
  5
3D9
  8
2
 62
     7
 10
4488.2608500472816
 20
3587.7722244591282
 30
0.0
 11
4488.2608500472816
 21
3599.7311099440658
 31
0.0
  0
LINE
  5
3DA
  8
2
 62
     7
 10
4508.5333753051918
 20
3609.4644437473048
 30
0.0
 11
4488.2608500472816
 21
3609.4644437473048
 31
0.0
  0
LINE
  5
3DB
  8
2
 62
     7
 10
4488.2608500472816
 20
3609.4644437473048
 30
0.0
 11
4488.2608500472816
 21
3614.4693686051519
 31
0.0
  0
LINE
  5
3DC
  8
2
 62
     7
 10
4488.2608500472816
 20
3614.4693686051519
 30
0.0
 11
4508.5207405926894
 21
3614.4693686051519
 31
0.0
  0
LINE
  5
3DD
  8
2
 62
     7
 10
4508.5207405926894
 20
3614.4693686051519
 30
0.0
 11
4508.5333753051918
 21
3609.4644437473048
 31
0.0
  0
LINE
  5
3DE
  8
2
 62
     7
 10
4434.1461717914099
 20
3588.4637844291801
 30
0.0
 11
4443.4494518152533
 21
3588.4637844291801
 31
0.0
  0
LINE
  5
3DF
  8
2
 62
     7
 10
4443.4494518152533
 20
3588.4637844291801
 30
0.0
 11
4443.4494518152533
 21
3615.4001256190322
 31
0.0
  0
LINE
  5
3E0
  8
2
 62
     7
 10
4458.7812062924877
 20
3624.167148921596
 30
0.0
 11
4418.9505663576283
 21
3624.167148921596
 31
0.0
  0
LINE
  5
3E1
  8
2
 62
     7
 10
4418.9505663576283
 20
3624.167148921596
 30
0.0
 11
4418.9505663576283
 21
3615.4001256190322
 31
0.0
  0
LINE
  5
3E2
  8
2
 62
     7
 10
4072.045915437634
 20
8527.3506358380982
 30
0.0
 11
7572.045915437634
 21
8527.3506358380982
 31
0.0
  0
LINE
  5
3E3
  8
2
 62
     7
 10
7572.045915437634
 20
8527.3506358380982
 30
0.0
 11
7572.045915437634
 21
3184.8506358380992
 31
0.0
  0
LINE
  5
3E4
  8
2
 62
     7
 10
4072.045915437634
 20
2987.3506358380978
 30
0.0
 11
7572.045915437634
 21
2987.3506358380978
 31
0.0
  0
LINE
  5
3E5
  8
2
 62
     7
 10
4072.045915437634
 20
3777.3506358380992
 30
0.0
 11
7572.0459154376304
 21
3777.3506358380992
 31
0.0
  0
LINE
  5
3E6
  8
2
 62
     7
 10
5142.045915437634
 20
3777.3506358380992
 30
0.0
 11
5142.045915437634
 21
3282.3506358380978
 31
0.0
  0
LINE
  5
3E7
  8
2
 62
     7
 10
4072.8618448734378
 20
3577.3506358380992
 30
0.0
 11
5892.8618448734369
 21
3577.3506358380992
 31
0.0
  0
LINE
  5
3E8
  8
2
 62
     7
 10
5482.045915437634
 20
3777.3506358380992
 30
0.0
 11
5482.045915437634
 21
3282.3506358380978
 31
0.0
  0
LINE
  5
3E9
  8
2
 62
     7
 10
5892.045915437634
 20
3777.3506358380992
 30
0.0
 11
5892.045915437634
 21
3184.8506358380992
 31
0.0
  0
LINE
  5
3EA
  8
2
 62
     7
 10
4072.045915437634
 20
3282.3506358380978
 30
0.0
 11
5892.045915437634
 21
3282.3506358380978
 31
0.0
  0
LINE
  5
3EB
  8
2
 62
     7
 10
4442.045915437634
 20
3577.3506358380992
 30
0.0
 11
4442.045915437634
 21
3282.3506358380978
 31
0.0
  0
LINE
  5
3EC
  8
2
 62
     7
 10
5892.045915437634
 20
3382.3506358380978
 30
0.0
 11
7572.045915437634
 21
3382.3506358380978
 31
0.0
  0
LINE
  5
3ED
  8
2
 62
     7
 10
4072.045915437634
 20
8527.3506358380982
 30
0.0
 11
4072.045915437634
 21
2987.3506358380978
 31
0.0
  0
LINE
  5
3EE
  8
2
 62
     7
 10
7572.045915437634
 20
5757.3506358380982
 30
0.0
 11
7726.2017179943541
 21
5757.3506358380982
 31
0.0
  0
LINE
  5
3EF
  8
2
 62
     7
 10
5672.045915437634
 20
2987.3506358380978
 30
0.0
 11
5672.045915437634
 21
2847.6606923278941
 31
0.0
  0
LINE
  5
3F0
  8
2
 62
     7
 10
3640.5028296634441
 20
5757.3506358380982
 30
0.0
 11
3723.7975242372709
 21
5757.3506358380982
 31
0.0
  0
LINE
  5
3F1
  8
2
 62
     7
 10
5672.045915437634
 20
8685.7987599197386
 30
0.0
 11
5672.045915437634
 21
8527.3506358380982
 31
0.0
  0
LINE
  5
3F2
  8
2
  6
DASHDOT
 62
     7
 10
5249.7420832727139
 20
3723.3504358380978
 30
0.0
 11
5249.7420832727139
 21
3631.3506358380978
 31
0.0
  0
LINE
  5
3F3
  8
2
 62
     7
 10
5329.7420832727139
 20
3692.3506358380978
 30
0.0
 11
5409.7420832727139
 21
3707.3506358380978
 31
0.0
  0
LINE
  5
3F4
  8
2
 62
     7
 10
5409.7420832727139
 20
3647.3502358381002
 30
0.0
 11
5329.7420832727139
 21
3662.3502358381011
 31
0.0
  0
LINE
  5
3F5
  8
2
  6
DASHDOT
 62
     7
 10
5203.7420832727103
 20
3677.3506358380992
 30
0.0
 11
5295.7420832727148
 21
3677.3506358380992
 31
0.0
  0
LINE
  5
3F6
  8
2
 62
     7
 10
5329.7420832727139
 20
3692.3506358380978
 30
0.0
 11
5329.7420832727139
 21
3662.3502358381011
 31
0.0
  0
LINE
  5
3F7
  8
2
 62
     7
 10
5409.7420832727139
 20
3707.3506358380978
 30
0.0
 11
5409.7420832727139
 21
3647.3502358381002
 31
0.0
  0
LINE
  5
3F8
  8
2
  6
DASHDOT
 62
     7
 10
5313.7420832727139
 20
3677.3506358380992
 30
0.0
 11
5425.7420832727184
 21
3677.3506358380992
 31
0.0
  0
LINE
  5
3F9
  8
2
 62
     7
 10
5892.045915437634
 20
3184.8506358380992
 30
0.0
 11
7572.045915437634
 21
3184.8506358380992
 31
0.0
  0
LINE
  5
3FA
  8
2
 62
     7
 10
7572.045915437634
 20
3184.8506358380992
 30
0.0
 11
7572.045915437634
 21
2987.3506358380978
 31
0.0
  0
LINE
  5
3FB
  8
2
 62
     7
 10
5892.045915437634
 20
3184.8506358380992
 30
0.0
 11
5892.045915437634
 21
2987.3506358380978
 31
0.0
  0
LINE
  5
3FC
  8
1
 62
     7
 10
7062.0459154376349
 20
5004.4617499152482
 30
0.0
 11
7062.0459154376349
 21
5080.056184372399
 31
0.0
  0
LINE
  5
3FD
  8
1
 62
     7
 10
6971.6971600649549
 20
4909.2668891343792
 30
0.0
 11
7062.0459154376349
 21
5004.4617499152482
 31
0.0
  0
LINE
  5
3FE
  8
1
  6
CENTER
 62
     7
 10
5142.0459154376349
 20
4698.0174108785568
 30
0.0
 11
5142.045915437634
 21
5094.7078208770718
 31
0.0
  0
LINE
  5
3FF
  8
1
  6
CENTER
 62
     7
 10
5142.0459154376322
 20
6600.1268102893764
 30
0.0
 11
5142.0459154376322
 21
6895.9426050264401
 31
0.0
  0
LINE
  5
400
  8
1
  6
CENTER
 62
     7
 10
5302.0547154376336
 20
6717.0393297915643
 30
0.0
 11
5302.0512797247666
 21
6787.6706358380943
 31
0.0
  0
LINE
  5
401
  8
1
  6
CENTER
 62
     7
 10
6833.0429015978134
 20
4884.3484615875268
 30
0.0
 11
6874.309420109681
 21
4884.3484615875268
 31
0.0
  0
LINE
  5
402
  8
1
  6
CENTER
 62
     7
 10
6833.0429015978134
 20
4969.3497475558634
 30
0.0
 11
6874.309419699347
 21
4969.3497475558634
 31
0.0
  0
LINE
  5
403
  8
1
  6
CENTER
 62
     7
 10
6833.0429015978134
 20
4944.3485675558613
 30
0.0
 11
6874.3101825728027
 21
4944.3485675558613
 31
0.0
  0
LINE
  5
404
  8
1
  6
CENTER
 62
     7
 10
5362.0519154376352
 20
4849.8329953713701
 30
0.0
 11
5362.0519154376352
 21
5003.0413043949584
 31
0.0
  0
LINE
  5
405
  8
1
  6
CENTER
 62
     7
 10
4892.0509154376341
 20
4849.8329953713701
 30
0.0
 11
4892.0509154376341
 21
5001.8755177253552
 31
0.0
  0
LINE
  5
406
  8
1
  6
CENTER
 62
     7
 10
5242.045915437634
 20
4791.7129870671179
 30
0.0
 11
5242.045915437634
 21
4684.4021225267024
 31
0.0
  0
LINE
  5
407
  8
1
  6
CENTER
 62
     7
 10
5451.0910208182386
 20
6752.3516358380966
 30
0.0
 11
4806.5839154376336
 21
6752.3516358380966
 31
0.0
  0
LINE
  5
408
  8
1
  6
CENTER
 62
     7
 10
5276.0183248547446
 20
4737.3506358380992
 30
0.0
 11
5207.4732599451636
 21
4737.3506535542629
 31
0.0
  0
LINE
  5
409
  8
1
  6
CENTER
 62
     7
 10
5191.4326304839096
 20
4842.3506358380982
 30
0.0
 11
5094.5661405965329
 21
4842.3506358380982
 31
0.0
  0
LINE
  5
40A
  8
1
  6
DIVIDE
 62
     7
 10
6842.0459154376331
 20
4881.8485144504994
 30
0.0
 11
6842.0459154376331
 21
4858.3511358380974
 31
0.0
  0
LINE
  5
40B
  8
1
  6
DIVIDE
 62
     7
 10
6842.0459154376331
 20
4826.3515358380992
 30
0.0
 11
6842.045915437634
 21
4764.3511358380956
 31
0.0
  0
LINE
  5
40C
  8
1
  6
DIVIDE
 62
     7
 10
6842.0459154376331
 20
4858.3511358380974
 30
0.0
 11
6842.0459154376331
 21
4826.3515358380992
 31
0.0
  0
LINE
  5
40D
  8
1
  6
DIVIDE
 62
     7
 10
6842.045915437634
 20
4710.350535838098
 30
0.0
 11
6842.045915437634
 21
4421.4077219771489
 31
0.0
  0
LINE
  5
40E
  8
1
  6
DIVIDE
 62
     7
 10
6842.045915437634
 20
4764.3511358380956
 30
0.0
 11
6842.045915437634
 21
4710.350535838098
 31
0.0
  0
LINE
  5
40F
  8
1
  6
DIVIDE
 62
     7
 10
6842.0459154376331
 20
4941.8487004188346
 30
0.0
 11
6842.0459154376331
 21
4886.8440144504993
 31
0.0
  0
LINE
  5
410
  8
1
  6
DIVIDE
 62
     7
 10
6842.0459154376331
 20
4966.8499004188343
 30
0.0
 11
6842.0459154376331
 21
4946.8441304188354
 31
0.0
  0
LINE
  5
411
  8
1
 62
     7
 10
6842.0439015978127
 20
4877.3516358380994
 30
0.0
 11
6842.0459154376331
 21
4877.3516358380994
 31
0.0
  0
LINE
  5
412
  8
1
  6
DASHED
 62
     7
 10
6729.0449015978129
 20
4994.3488379512764
 30
0.0
 11
6729.0449015978129
 21
4994.3488400785382
 31
0.0
  0
LINE
  5
414
  8
1
  6
DASHED
 62
     7
 10
6723.1324753737536
 20
4999.3443004519986
 30
0.0
 11
6723.1221015978117
 21
4999.3484887010709
 31
0.0
  0
LINE
  5
415
  8
1
  6
DASHED
 62
     7
 10
6703.1978102827379
 20
4999.3443038934056
 30
0.0
 11
6703.2065215978118
 21
4999.3484887010709
 31
0.0
  0
LINE
  5
416
  8
1
  6
DASHED
 62
     7
 10
6698.0779511736337
 20
4999.3443047772689
 30
0.0
 11
6698.0815615978127
 21
4999.3484887010709
 31
0.0
  0
LINE
  5
417
  8
1
  6
DASHED
 62
     7
 10
6735.4465514397207
 20
4999.3442983261648
 30
0.0
 11
6735.4528015978121
 21
4999.3484887010709
 31
0.0
  0
LINE
  5
418
  8
1
  6
DASHED
 62
     7
 10
6721.0543701805727
 20
4999.3443008107497
 30
0.0
 11
6721.0667015978133
 21
4999.3484887010709
 31
0.0
  0
LINE
  5
419
  8
1
  6
DASHED
 62
     7
 10
6711.4851809575639
 20
4999.3443024627204
 30
0.0
 11
6711.4975015978134
 21
4999.3484887010709
 31
0.0
  0
LINE
  5
41A
  8
1
  6
DASHED
 62
     7
 10
6729.6995499476761
 20
4999.3442993182953
 30
0.0
 11
6729.7105015978123
 21
4999.3484887010709
 31
0.0
  0
LINE
  5
41B
  8
1
 62
     7
 10
6696.5289015978133
 20
4927.8488887010708
 30
0.0
 11
6696.5289015978133
 21
4933.8454109185059
 31
0.0
  0
LINE
  5
41C
  8
1
 62
     7
 10
6737.5289015978124
 20
4927.8488887010708
 30
0.0
 11
6737.5289015978124
 21
4933.8454109185059
 31
0.0
  0
LINE
  5
41D
  8
1
  6
DASHED
 62
     7
 10
6737.4128636350251
 20
4968.8224061991114
 30
0.0
 11
6737.412370776482
 21
4968.8224067708106
 31
0.0
  0
LINE
  5
41E
  8
1
  6
DASHED
 62
     7
 10
6658.2329008374809
 20
4994.348818823265
 30
0.0
 11
6658.2329359807409
 21
4994.3485152912799
 31
0.0
  0
LINE
  5
41F
  8
1
  6
DASHED
 62
     7
 10
6758.1499624939979
 20
4978.3527958404438
 30
0.0
 11
6758.3515602964526
 21
4979.2348316355374
 31
0.0
  0
LINE
  5
420
  8
1
  6
DASHED
 62
     7
 10
6665.9608861433962
 20
4999.3443103217778
 30
0.0
 11
6664.5449015978129
 21
5001.7970025394116
 31
0.0
  0
LINE
  5
421
  8
1
  6
DASHED
 62
     7
 10
6765.2411356939383
 20
4994.3488477287428
 30
0.0
 11
6765.2409604618088
 21
4994.3485441967014
 31
0.0
  0
LINE
  5
422
  8
1
  6
DASHED
 62
     7
 10
6776.4368523730591
 20
4999.3442912498303
 30
0.0
 11
6776.9899015978117
 21
5004.1086109185053
 31
0.0
  0
LINE
  5
423
  8
1
 62
     7
 10
6737.5429015978116
 20
5077.3484393845811
 30
0.0
 11
6805.0776869010697
 21
5077.3485109185058
 31
0.0
  0
LINE
  5
424
  8
1
 62
     7
 10
6717.0429015978134
 20
5017.34848870107
 30
0.0
 11
6842.0459154376358
 21
5017.34848870107
 31
0.0
  0
LINE
  5
425
  8
1
  6
DASHED
 62
     7
 10
5362.0519154376334
 20
6733.8546358380991
 30
0.0
 11
5362.0519154376334
 21
6705.8528819393177
 31
0.0
  0
LINE
  5
426
  8
1
  6
DASHED
 62
     7
 10
5347.0521480137841
 20
6733.8546358380991
 30
0.0
 11
5347.0522345902364
 21
6680.4382622005023
 31
0.0
  0
LINE
  5
427
  8
1
  6
DASHED
 62
     7
 10
5377.0519154376334
 20
6733.8546358380991
 30
0.0
 11
5377.0519154376334
 21
6680.4380968531432
 31
0.0
  0
LINE
  5
428
  8
1
 62
     7
 10
5258.4912154376334
 20
6742.8535246201563
 30
0.0
 11
5258.4912154376334
 21
6667.3156358380984
 31
0.0
  0
LINE
  5
429
  8
1
 62
     7
 10
5262.0810254519574
 20
6742.8535244303721
 30
0.0
 11
5262.0810255096494
 21
6665.3245359391594
 31
0.0
  0
LINE
  5
42A
  8
1
 62
     7
 10
5263.049105431237
 20
6761.8533485598446
 30
0.0
 11
5263.0491054376344
 21
6762.1016358380984
 31
0.0
  0
LINE
  5
42B
  8
1
 62
     7
 10
5185.0516154399666
 20
6756.7066762611194
 30
0.0
 11
5185.0516154376319
 21
6787.6636358380974
 31
0.0
  0
LINE
  5
42C
  8
1
 62
     7
 10
5185.0516154399593
 20
6747.9092610862108
 30
0.0
 11
5185.0516154376319
 21
6717.0496358380969
 31
0.0
  0
LINE
  5
42D
  8
1
 62
     7
 10
5121.5199154376351
 20
4927.8488887010708
 30
0.0
 11
5121.5199154376351
 21
4933.8470415640422
 31
0.0
  0
LINE
  5
42E
  8
1
 62
     7
 10
5162.523915437635
 20
4927.8488887010708
 30
0.0
 11
5162.523915437635
 21
4933.8470415640422
 31
0.0
  0
LINE
  5
42F
  8
1
 62
     7
 10
4832.050915437635
 20
5017.34848870107
 30
0.0
 11
5422.0519154376352
 21
5017.34848870107
 31
0.0
  0
LINE
  5
430
  8
1
 62
     7
 10
5302.0547154376336
 20
5017.3476996003819
 30
0.0
 11
5311.5529154376336
 21
5017.3476996003819
 31
0.0
  0
LINE
  5
431
  8
1
 62
     7
 10
5302.0547154376336
 20
5018.3467996003819
 30
0.0
 11
5322.0570154376364
 21
5018.3467996003819
 31
0.0
  0
LINE
  5
432
  8
1
 62
     7
 10
5302.0547154376336
 20
5102.345499600382
 30
0.0
 11
5322.5592691892216
 21
5102.345499600382
 31
0.0
  0
LINE
  5
433
  8
1
 62
     7
 10
5302.0547154376336
 20
5118.3444996003818
 30
0.0
 11
5311.556315437635
 21
5118.3444996003818
 31
0.0
  0
LINE
  5
434
  8
1
 62
     7
 10
5311.556315437635
 20
5118.3444996003818
 30
0.0
 11
5322.5566154376374
 21
5118.3444996003818
 31
0.0
  0
LINE
  5
435
  8
1
 62
     7
 10
5292.5565154376354
 20
5118.3444996003818
 30
0.0
 11
5302.0547154376336
 21
5118.3444996003818
 31
0.0
  0
LINE
  5
436
  8
1
 62
     7
 10
5364.0564154376361
 20
5111.3474996003824
 30
0.0
 11
5359.0610154376354
 21
5111.3474996003824
 31
0.0
  0
LINE
  5
437
  8
1
 62
     7
 10
5371.060415437636
 20
5060.8454996003811
 30
0.0
 11
5379.0604154376351
 21
5060.8454996003811
 31
0.0
  0
LINE
  5
438
  8
1
 62
     7
 10
5282.0558154376349
 20
5017.3476996003819
 30
0.0
 11
5288.0537154376352
 21
5017.3476996003819
 31
0.0
  0
LINE
  5
439
  8
1
 62
     7
 10
5288.0537154376352
 20
5017.3476996003819
 30
0.0
 11
5291.5540154376349
 21
5017.3476996003819
 31
0.0
  0
LINE
  5
43A
  8
1
 62
     7
 10
5316.0556154376336
 20
5017.3476996003819
 30
0.0
 11
5322.0570154376364
 21
5017.3476996003819
 31
0.0
  0
LINE
  5
43B
  8
1
 62
     7
 10
5292.5565154376354
 20
5017.3476996003819
 30
0.0
 11
5302.0547154376336
 21
5017.3476996003819
 31
0.0
  0
LINE
  5
43C
  8
1
 62
     7
 10
5311.5529154376336
 20
5017.3476996003819
 30
0.0
 11
5312.555415437635
 21
5017.3476996003819
 31
0.0
  0
LINE
  5
43D
  8
1
 62
     7
 10
5312.555415437635
 20
5017.3476996003819
 30
0.0
 11
5316.0556154376336
 21
5017.3476996003819
 31
0.0
  0
LINE
  5
43E
  8
1
 62
     7
 10
5291.5540154376349
 20
5017.3476996003819
 30
0.0
 11
5292.5565154376354
 21
5017.3476996003819
 31
0.0
  0
LINE
  5
43F
  8
1
 62
     7
 10
5338.0596154376362
 20
5079.3524996003816
 30
0.0
 11
5338.0596154376362
 21
5065.8444996003818
 31
0.0
  0
LINE
  5
440
  8
1
 62
     7
 10
5337.0605154376353
 20
5079.3524996003816
 30
0.0
 11
5337.0605154376353
 21
5065.8444996003818
 31
0.0
  0
LINE
  5
441
  8
1
 62
     7
 10
5371.060415437636
 20
5079.3524996003816
 30
0.0
 11
5371.060415437636
 21
5060.8454996003811
 31
0.0
  0
LINE
  5
442
  8
1
 62
     7
 10
5379.0604154376351
 20
5079.3524996003816
 30
0.0
 11
5379.0604154376351
 21
5060.8454996003811
 31
0.0
  0
LINE
  5
443
  8
1
 62
     7
 10
5193.0507352092009
 20
5171.3523963301986
 30
0.0
 11
5202.0912154376356
 21
5168.416499600381
 31
0.0
  0
LINE
  5
444
  8
1
 62
     7
 10
5281.5597154376364
 20
5102.345499600382
 30
0.0
 11
5281.5597154376364
 21
5018.3467996003819
 31
0.0
  0
LINE
  5
445
  8
1
 62
     7
 10
5322.5592691892216
 20
5102.345499600382
 30
0.0
 11
5322.5600154376352
 21
5097.8464996003813
 31
0.0
  0
LINE
  5
446
  8
1
 62
     7
 10
5338.0596154376362
 20
5065.8444996003818
 30
0.0
 11
5338.0596154376362
 21
5060.8454996003811
 31
0.0
  0
LINE
  5
447
  8
1
 62
     7
 10
5337.0605154376353
 20
5065.8444996003818
 30
0.0
 11
5337.0605154376353
 21
5060.8454996003811
 31
0.0
  0
LINE
  5
448
  8
1
 62
     7
 10
5338.0596154376362
 20
5092.8474996003833
 30
0.0
 11
5338.0596154376362
 21
5079.3524996003816
 31
0.0
  0
LINE
  5
449
  8
1
 62
     7
 10
5337.0605154376353
 20
5092.8474996003833
 30
0.0
 11
5337.0605154376353
 21
5079.3524996003816
 31
0.0
  0
LINE
  5
44A
  8
1
 62
     7
 10
5322.0570154376364
 20
5018.3467996003819
 30
0.0
 11
5322.5600154376352
 21
5018.3467996003819
 31
0.0
  0
LINE
  5
44B
  8
1
 62
     7
 10
5282.0558154376349
 20
5018.3467996003819
 30
0.0
 11
5302.0547154376336
 21
5018.3467996003819
 31
0.0
  0
LINE
  5
44C
  8
1
 62
     7
 10
5371.060415437636
 20
5097.8463317307524
 30
0.0
 11
5379.0604154376351
 21
5097.8464996003813
 31
0.0
  0
LINE
  5
44D
  8
1
 62
     7
 10
5371.060415437636
 20
5097.8463317307524
 30
0.0
 11
5371.060415437636
 21
5079.3524996003816
 31
0.0
  0
LINE
  5
44E
  8
1
 62
     7
 10
5322.0570154376364
 20
5018.3467996003819
 30
0.0
 11
5322.0570154376364
 21
5017.3476996003819
 31
0.0
  0
LINE
  5
44F
  8
1
 62
     7
 10
5282.0558154376349
 20
5017.3476996003819
 30
0.0
 11
5282.0558154376349
 21
5018.3467996003819
 31
0.0
  0
LINE
  5
450
  8
1
 62
     7
 10
5311.5563243021907
 20
5189.6104339535823
 30
0.0
 11
5311.556315437635
 21
5118.3444996003818
 31
0.0
  0
LINE
  5
451
  8
1
 62
     7
 10
5195.0011154376352
 20
5208.0724996003819
 30
0.0
 11
5184.0250154376354
 21
5174.2834996003812
 31
0.0
  0
LINE
  5
452
  8
1
 62
     7
 10
5281.5597154376364
 20
5018.3467996003819
 30
0.0
 11
5282.0558154376349
 21
5018.3467996003819
 31
0.0
  0
LINE
  5
453
  8
1
 62
     7
 10
5281.5597154376364
 20
5102.345499600382
 30
0.0
 11
5302.0547154376336
 21
5102.345499600382
 31
0.0
  0
LINE
  5
454
  8
1
 62
     7
 10
5281.5597154376364
 20
5118.3444996003818
 30
0.0
 11
5292.5565154376354
 21
5118.3444996003818
 31
0.0
  0
LINE
  5
455
  8
1
 62
     7
 10
5292.5599477824162
 20
5189.6104333228714
 30
0.0
 11
5292.5565154376354
 21
5118.3444996003818
 31
0.0
  0
LINE
  5
456
  8
1
 62
     7
 10
5213.0742154376348
 20
5202.2054996003808
 30
0.0
 11
5202.0912154376356
 21
5168.416499600381
 31
0.0
  0
LINE
  5
457
  8
1
 62
     7
 10
5184.0250154376354
 20
5174.2834996003812
 30
0.0
 11
5193.0507352092009
 21
5171.3523963301986
 31
0.0
  0
LINE
  5
458
  8
1
 62
     7
 10
5281.5597154376364
 20
5118.3444996003818
 30
0.0
 11
5281.5597154376364
 21
5102.345499600382
 31
0.0
  0
LINE
  5
459
  8
1
 62
     7
 10
5369.0624154376364
 20
5111.3474996003824
 30
0.0
 11
5364.0564154376361
 21
5111.3474996003824
 31
0.0
  0
LINE
  5
45A
  8
1
 62
     7
 10
5369.0624154376364
 20
5111.3474996003824
 30
0.0
 11
5369.0622218175213
 21
5097.8462898012494
 31
0.0
  0
LINE
  5
45B
  8
1
 62
     7
 10
5359.0610154376354
 20
5111.3474996003824
 30
0.0
 11
5359.0610469376243
 21
5097.8462901634311
 31
0.0
  0
LINE
  5
45C
  8
1
 62
     7
 10
5338.0596154376362
 20
5065.8444996003818
 30
0.0
 11
5337.0605154376353
 21
5065.8444996003818
 31
0.0
  0
LINE
  5
45D
  8
1
 62
     7
 10
5338.0596154376362
 20
5092.8474996003833
 30
0.0
 11
5337.0605154376353
 21
5092.8474996003833
 31
0.0
  0
LINE
  5
45E
  8
1
 62
     7
 10
5338.0596154376362
 20
5097.8464996003813
 30
0.0
 11
5338.0596154376362
 21
5092.8474996003833
 31
0.0
  0
LINE
  5
45F
  8
1
 62
     7
 10
5337.0605154376353
 20
5097.8464996003813
 30
0.0
 11
5337.0605154376353
 21
5092.8474996003833
 31
0.0
  0
LINE
  5
460
  8
1
 62
     7
 10
5338.0596154376362
 20
5060.8454996003811
 30
0.0
 11
5371.060415437636
 21
5060.8454996003811
 31
0.0
  0
LINE
  5
461
  8
1
 62
     7
 10
5322.5600154376352
 20
5060.8454996003811
 30
0.0
 11
5337.0605154376353
 21
5060.8454996003811
 31
0.0
  0
LINE
  5
462
  8
1
 62
     7
 10
5369.0622218175213
 20
5097.8462898012494
 30
0.0
 11
5371.060415437636
 21
5097.8463317307524
 31
0.0
  0
LINE
  5
463
  8
1
 62
     7
 10
5338.0596154376362
 20
5097.8464996003813
 30
0.0
 11
5359.0610469376243
 21
5097.8462901634311
 31
0.0
  0
LINE
  5
464
  8
1
 62
     7
 10
5322.5600154376352
 20
5097.8464996003813
 30
0.0
 11
5337.0605154376353
 21
5097.8464996003813
 31
0.0
  0
LINE
  5
465
  8
1
 62
     7
 10
5379.0604154376351
 20
5097.8464996003813
 30
0.0
 11
5379.0604154376351
 21
5079.3524996003816
 31
0.0
  0
LINE
  5
466
  8
1
 62
     7
 10
5322.5600154376352
 20
5060.8454996003811
 30
0.0
 11
5322.5600154376352
 21
5018.3467996003819
 31
0.0
  0
LINE
  5
467
  8
1
 62
     7
 10
5322.5566154376374
 20
5118.3444996003818
 30
0.0
 11
5322.5592691892216
 21
5102.345499600382
 31
0.0
  0
LINE
  5
468
  8
1
 62
     7
 10
5302.0547154376336
 20
5079.3524996003816
 30
0.0
 11
5387.4265675397228
 21
5079.3494511431654
 31
0.0
  0
LINE
  5
469
  8
1
 62
     7
 10
5223.2290319521826
 20
5017.3498415640406
 30
0.0
 11
5232.0465154376352
 21
5017.3498415640406
 31
0.0
  0
LINE
  5
46A
  8
1
 62
     7
 10
5172.5242179981378
 20
4935.3491415640419
 30
0.0
 11
5174.5199154376351
 21
4935.3491415640419
 31
0.0
  0
LINE
  5
46B
  8
1
 62
     7
 10
5111.5201791494146
 20
4935.3491415640419
 30
0.0
 11
5142.0459154376349
 21
4935.3491415640419
 31
0.0
  0
LINE
  5
46C
  8
1
 62
     7
 10
5097.9166934832392
 20
5017.3498415640406
 30
0.0
 11
5223.2290319521826
 21
5017.3498415640406
 31
0.0
  0
LINE
  5
46D
  8
1
 62
     7
 10
5142.0459154376349
 20
4933.8470415640422
 30
0.0
 11
5161.5249154376352
 21
4933.8470415640422
 31
0.0
  0
LINE
  5
46E
  8
1
 62
     7
 10
5122.5229154376348
 20
4933.8470415640422
 30
0.0
 11
5142.0459154376349
 21
4933.8470415640422
 31
0.0
  0
LINE
  5
46F
  8
1
  6
DASHED
 62
     7
 10
4877.050915437635
 20
4999.3442887010697
 30
0.0
 11
4907.050915437635
 21
4999.3442887010697
 31
0.0
  0
LINE
  5
470
  8
1
  6
DASHED
 62
     7
 10
5347.0519154376352
 20
4999.3442887010697
 30
0.0
 11
5377.0519154376352
 21
4999.3442887010697
 31
0.0
  0
LINE
  5
471
  8
1
 62
     7
 10
5422.0519154376352
 20
5017.34848870107
 30
0.0
 11
5422.0519154376352
 21
4937.3493887010709
 31
0.0
  0
LINE
  5
472
  8
1
 62
     7
 10
4961.0229154376339
 20
5017.3463415640417
 30
0.0
 11
5082.0459154376349
 21
5017.3498415640406
 31
0.0
  0
LINE
  5
473
  8
1
 62
     7
 10
5263.035325437635
 20
5017.3463415640417
 30
0.0
 11
5262.0672454376336
 21
5075.3861415640422
 31
0.0
  0
LINE
  5
474
  8
1
 62
     7
 10
5082.0459154376349
 20
5017.3498415640406
 30
0.0
 11
5097.9166934832392
 21
5017.3498415640406
 31
0.0
  0
LINE
  5
475
  8
1
 62
     7
 10
5232.0465154376352
 20
5017.3498415640406
 30
0.0
 11
5263.035325437635
 21
5017.3463415640417
 31
0.0
  0
LINE
  5
476
  8
1
  6
DASHED
 62
     7
 10
4885.0539154376347
 20
4940.8495887010704
 30
0.0
 11
4885.0539154376347
 21
4940.3465887010707
 31
0.0
  0
LINE
  5
477
  8
1
 62
     7
 10
4892.0509154376359
 20
4908.9271887010709
 30
0.0
 11
4889.5529154376354
 21
4908.9271887010709
 31
0.0
  0
LINE
  5
478
  8
1
  6
DASHED
 62
     7
 10
4892.0509154376359
 20
4994.3487887010706
 30
0.0
 11
4894.5519154376352
 21
4994.3487887010706
 31
0.0
  0
LINE
  5
479
  8
1
  6
DASHED
 62
     7
 10
5099.4178734922352
 20
4999.3456415640421
 30
0.0
 11
5098.2549154376347
 21
5015.3929415640414
 31
0.0
  0
LINE
  5
47A
  8
1
 62
     7
 10
4832.050915437635
 20
4999.3442887010697
 30
0.0
 11
4832.050915437635
 21
4937.3493887010709
 31
0.0
  0
LINE
  5
47B
  8
1
  6
DASHED
 62
     7
 10
4850.0519154376352
 20
4999.3442887010697
 30
0.0
 11
5404.0539154376347
 21
4999.3442887010697
 31
0.0
  0
LINE
  5
47C
  8
1
  6
DASHED
 62
     7
 10
5113.5540921576212
 20
4940.3479415640413
 30
0.0
 11
5110.0269154376347
 21
4940.3479415640413
 31
0.0
  0
LINE
  5
47D
  8
1
  6
DASHED
 62
     7
 10
5170.4925839835078
 20
4940.3479767106237
 30
0.0
 11
5164.032915437635
 21
4940.3479415640413
 31
0.0
  0
LINE
  5
47E
  8
1
  6
DASHED
 62
     7
 10
5142.0459154376349
 20
4940.3479415640413
 30
0.0
 11
5120.0319154376348
 21
4940.3479415640413
 31
0.0
  0
LINE
  5
47F
  8
1
 62
     7
 10
5142.0459154376349
 20
4935.3491415640419
 30
0.0
 11
5172.5242179981378
 21
4935.3491415640419
 31
0.0
  0
LINE
  5
480
  8
1
 62
     7
 10
5161.5249154376352
 20
4933.8470415640422
 30
0.0
 11
5162.523915437635
 21
4933.8470415640422
 31
0.0
  0
LINE
  5
481
  8
1
 62
     7
 10
5162.523915437635
 20
4933.8470415640422
 30
0.0
 11
5169.9279154376354
 21
4933.8470415640422
 31
0.0
  0
LINE
  5
482
  8
1
 62
     7
 10
5121.5199154376351
 20
4933.8470415640422
 30
0.0
 11
5122.5229154376348
 21
4933.8470415640422
 31
0.0
  0
LINE
  5
483
  8
1
  6
DASHED
 62
     7
 10
4889.5529154376354
 20
4944.3464087010707
 30
0.0
 11
4889.5529154376354
 21
4937.3493887010709
 31
0.0
  0
LINE
  5
484
  8
1
  6
DASHED
 62
     7
 10
4850.0519154376352
 20
4944.3464087010707
 30
0.0
 11
4850.0519154376352
 21
4937.3493887010709
 31
0.0
  0
LINE
  5
485
  8
1
  6
DASHED
 62
     7
 10
4894.5519154376352
 20
4969.3475887010709
 30
0.0
 11
4894.5519154376352
 21
4937.3493887010709
 31
0.0
  0
LINE
  5
486
  8
1
  6
DASHED
 62
     7
 10
4889.5529154376354
 20
4994.3487887010706
 30
0.0
 11
4892.0509154376359
 21
4994.3487887010706
 31
0.0
  0
LINE
  5
487
  8
1
  6
DASHED
 62
     7
 10
4894.5519154376352
 20
4994.3487887010706
 30
0.0
 11
4907.050915437635
 21
4994.3487887010706
 31
0.0
  0
LINE
  5
488
  8
1
  6
DASHED
 62
     7
 10
4850.0519154376352
 20
4994.3487887010706
 30
0.0
 11
4850.0519154376352
 21
4944.3464087010707
 31
0.0
  0
LINE
  5
489
  8
1
 62
     7
 10
5362.0519154376361
 20
4908.9271887010709
 30
0.0
 11
5359.550915437635
 21
4908.9271887010709
 31
0.0
  0
LINE
  5
48A
  8
1
  6
DASHED
 62
     7
 10
5362.0519154376361
 20
4994.3487887010706
 30
0.0
 11
5364.5499154376348
 21
4994.3487887010706
 31
0.0
  0
LINE
  5
48B
  8
1
  6
DASHED
 62
     7
 10
5359.550915437635
 20
4944.3464087010707
 30
0.0
 11
5359.550915437635
 21
4937.3493887010709
 31
0.0
  0
LINE
  5
48C
  8
1
  6
DASHED
 62
     7
 10
5364.5499154376348
 20
4969.3475887010709
 30
0.0
 11
5364.5499154376348
 21
4937.3493887010709
 31
0.0
  0
LINE
  5
48D
  8
1
  6
DASHED
 62
     7
 10
5359.550915437635
 20
4994.3487887010706
 30
0.0
 11
5362.0519154376361
 21
4994.3487887010706
 31
0.0
  0
LINE
  5
48E
  8
1
  6
DASHED
 62
     7
 10
5364.5499154376348
 20
4994.3487887010706
 30
0.0
 11
5377.0519154376352
 21
4994.3487887010706
 31
0.0
  0
LINE
  5
48F
  8
1
  6
DASHED
 62
     7
 10
5347.0519154376352
 20
4994.3487887010706
 30
0.0
 11
5347.0519154376352
 21
4937.3493887010709
 31
0.0
  0
LINE
  5
490
  8
1
  6
DASHED
 62
     7
 10
5404.0539154376347
 20
4994.3487887010706
 30
0.0
 11
5404.0539154376347
 21
4937.3493887010709
 31
0.0
  0
LINE
  5
491
  8
1
  6
DASHED
 62
     7
 10
5209.4468002858066
 20
4999.3456415640421
 30
0.0
 11
5223.2290319521826
 21
5017.3498415640406
 31
0.0
  0
LINE
  5
492
  8
1
 62
     7
 10
4961.9906412849978
 20
5075.3862395720407
 30
0.0
 11
4961.0229154376339
 21
5017.3463415640417
 31
0.0
  0
LINE
  5
493
  8
1
 62
     7
 10
4963.9888096227551
 20
5077.3499557109253
 30
0.0
 11
5260.0725232423529
 21
5077.3499554480622
 31
0.0
  0
LINE
  5
494
  8
1
  6
DASHED
 62
     7
 10
4850.0519154376352
 20
4999.3442887010697
 30
0.0
 11
4850.0519154376352
 21
4994.3487887010706
 31
0.0
  0
LINE
  5
495
  8
1
  6
DASHED
 62
     7
 10
5404.0539154376347
 20
4999.3442887010697
 30
0.0
 11
5404.0539154376347
 21
4994.3487887010706
 31
0.0
  0
LINE
  5
496
  8
1
  6
DIVIDE
 62
     7
 10
5082.0459154376349
 20
5017.34848870107
 30
0.0
 11
5082.0459154376349
 21
4999.3442887010697
 31
0.0
  0
LINE
  5
497
  8
1
  6
DIVIDE
 62
     7
 10
5232.0465154376352
 20
5017.34848870107
 30
0.0
 11
5232.0465154376352
 21
4999.3442887010697
 31
0.0
  0
LINE
  5
498
  8
1
  6
DASHED
 62
     7
 10
4907.050915437635
 20
4999.3442887010697
 30
0.0
 11
4907.050915437635
 21
4994.3487887010706
 31
0.0
  0
LINE
  5
499
  8
1
  6
DASHED
 62
     7
 10
4877.050915437635
 20
4994.3487887010706
 30
0.0
 11
4889.5529154376354
 21
4994.3487887010706
 31
0.0
  0
LINE
  5
49A
  8
1
  6
DASHED
 62
     7
 10
4894.5519154376352
 20
4994.3487887010706
 30
0.0
 11
4894.5519154376352
 21
4969.3475887010709
 31
0.0
  0
LINE
  5
49B
  8
1
  6
DASHED
 62
     7
 10
4889.5529154376354
 20
4994.3487887010706
 30
0.0
 11
4889.5529154376354
 21
4944.3464087010707
 31
0.0
  0
LINE
  5
49C
  8
1
  6
DASHED
 62
     7
 10
5347.0519154376352
 20
4999.3442887010697
 30
0.0
 11
5347.0519154376352
 21
4994.3487887010706
 31
0.0
  0
LINE
  5
49D
  8
1
  6
DASHED
 62
     7
 10
5347.0519154376352
 20
4994.3487887010706
 30
0.0
 11
5359.550915437635
 21
4994.3487887010706
 31
0.0
  0
LINE
  5
49E
  8
1
  6
DASHED
 62
     7
 10
5364.5499154376348
 20
4994.3487887010706
 30
0.0
 11
5364.5499154376348
 21
4969.3475887010709
 31
0.0
  0
LINE
  5
49F
  8
1
  6
DASHED
 62
     7
 10
5359.550915437635
 20
4994.3487887010706
 30
0.0
 11
5359.550915437635
 21
4944.3464087010707
 31
0.0
  0
LINE
  5
4A0
  8
1
  6
DASHED
 62
     7
 10
5174.0445154376348
 20
4940.3479415640413
 30
0.0
 11
5176.0427154376348
 21
4962.348491564042
 31
0.0
  0
LINE
  5
4A1
  8
1
  6
DASHED
 62
     7
 10
5108.0289154376351
 20
4962.348491564042
 30
0.0
 11
5110.0269154376347
 21
4940.3479415640413
 31
0.0
  0
LINE
  5
4A2
  8
1
  6
DASHED
 62
     7
 10
5101.4659154376359
 20
4971.0853415640413
 30
0.0
 11
5099.4178734922352
 21
4999.3456415640421
 31
0.0
  0
LINE
  5
4A3
  8
1
  6
DASHED
 62
     7
 10
5120.0319154376348
 20
4940.3479415640413
 30
0.0
 11
5113.5540921576212
 21
4940.3479415640413
 31
0.0
  0
LINE
  5
4A4
  8
1
  6
DASHED
 62
     7
 10
5185.8026848914315
 20
4968.8873294368459
 30
0.0
 11
5176.0427154376348
 21
4962.348491564042
 31
0.0
  0
LINE
  5
4A5
  8
1
  6
DASHED
 62
     7
 10
5174.0445154376348
 20
4940.3479415640413
 30
0.0
 11
5170.4925839835078
 21
4940.3479767106237
 31
0.0
  0
LINE
  5
4A6
  8
1
  6
DASHED
 62
     7
 10
5164.032915437635
 20
4940.3479415640413
 30
0.0
 11
5142.0459154376349
 21
4940.3479415640413
 31
0.0
  0
LINE
  5
4A7
  8
1
  6
DASHED
 62
     7
 10
5102.7719154376364
 20
4968.0639415640417
 30
0.0
 11
5108.0289154376351
 21
4962.348491564042
 31
0.0
  0
LINE
  5
4A8
  8
1
  6
DASHED
 62
     7
 10
5186.984315437634
 20
4970.0035415640414
 30
0.0
 11
5209.4468002858066
 21
4999.3456415640421
 31
0.0
  0
LINE
  5
4A9
  8
1
  6
DASHED
 62
     7
 10
5173.2762380434597
 20
4938.4634975922472
 30
0.0
 11
5173.7206154376336
 21
4937.3507415640424
 31
0.0
  0
LINE
  5
4AA
  8
1
  6
DASHED
 62
     7
 10
5110.7679154376347
 20
4938.4635415640423
 30
0.0
 11
5110.3239154376361
 21
4937.3507415640424
 31
0.0
  0
LINE
  5
4AB
  8
1
 62
     7
 10
4832.050915437635
 20
5017.34848870107
 30
0.0
 11
4832.050915437635
 21
4999.3442887010697
 31
0.0
  0
LINE
  5
4AC
  8
1
  6
DASHED
 62
     7
 10
4907.050915437635
 20
4994.3487887010706
 30
0.0
 11
4907.050915437635
 21
4937.3493887010709
 31
0.0
  0
LINE
  5
4AD
  8
1
  6
DASHED
 62
     7
 10
4877.050915437635
 20
4999.3442887010697
 30
0.0
 11
4877.050907830815
 21
4937.3493887010709
 31
0.0
  0
LINE
  5
4AE
  8
1
 62
     7
 10
4894.5519154376352
 20
4908.9271887010709
 30
0.0
 11
4892.0509154376359
 21
4908.9271887010709
 31
0.0
  0
LINE
  5
4AF
  8
1
 62
     7
 10
4894.5519154376352
 20
4937.3493887010709
 30
0.0
 11
4894.5519154376352
 21
4908.9271887010709
 31
0.0
  0
LINE
  5
4B0
  8
1
 62
     7
 10
4889.5529154376354
 20
4937.3493887010709
 30
0.0
 11
4889.5529154376354
 21
4908.9271887010709
 31
0.0
  0
LINE
  5
4B1
  8
1
  6
DASHED
 62
     7
 10
5377.0519154376352
 20
4999.3442887010697
 30
0.0
 11
5377.0519154376352
 21
4937.3493887010709
 31
0.0
  0
LINE
  5
4B2
  8
1
 62
     7
 10
5364.5499154376348
 20
4908.9271887010709
 30
0.0
 11
5362.0519154376361
 21
4908.9271887010709
 31
0.0
  0
LINE
  5
4B3
  8
1
 62
     7
 10
5364.5499154376348
 20
4937.3493887010709
 30
0.0
 11
5364.5499154376348
 21
4908.9271887010709
 31
0.0
  0
LINE
  5
4B4
  8
1
 62
     7
 10
5359.550915437635
 20
4937.3493887010709
 30
0.0
 11
5359.550915437635
 21
4908.9271887010709
 31
0.0
  0
LINE
  5
4B5
  8
1
 62
     7
 10
5122.5229154376348
 20
4922.8467415640416
 30
0.0
 11
5121.5199154376351
 21
4923.8458415640416
 31
0.0
  0
LINE
  5
4B6
  8
1
 62
     7
 10
5114.1169154376348
 20
4933.8470415640422
 30
0.0
 11
5121.5199154376351
 21
4933.8470415640422
 31
0.0
  0
LINE
  5
4B7
  8
1
 62
     7
 10
5173.7206154376336
 20
4937.3507415640424
 30
0.0
 11
5174.5199154376351
 21
4935.3491415640419
 31
0.0
  0
LINE
  5
4B8
  8
1
 62
     7
 10
5110.3239154376361
 20
4937.3507415640424
 30
0.0
 11
5109.5209154376353
 21
4935.3491415640419
 31
0.0
  0
LINE
  5
4B9
  8
1
 62
     7
 10
5109.5209154376353
 20
4935.3491415640419
 30
0.0
 11
5111.5201791494146
 21
4935.3491415640419
 31
0.0
  0
LINE
  5
4BA
  8
1
 62
     7
 10
5232.7309154376353
 20
4755.3511535542611
 30
0.0
 11
5231.5669154376337
 21
4755.3511535542611
 31
0.0
  0
LINE
  5
4BB
  8
1
 62
     7
 10
5251.3609154376354
 20
4755.3511535542611
 30
0.0
 11
5252.5219154376337
 21
4755.3511535542611
 31
0.0
  0
LINE
  5
4BC
  8
1
 62
     7
 10
5232.7309154376353
 20
4755.3511535542611
 30
0.0
 11
5242.045915437634
 21
4755.3511535542611
 31
0.0
  0
LINE
  5
4BD
  8
1
 62
     7
 10
5242.045915437634
 20
4755.3511535542611
 30
0.0
 11
5251.3609154376354
 21
4755.3511535542611
 31
0.0
  0
LINE
  5
4BE
  8
1
  6
DASHED
 62
     7
 10
5312.5327154376373
 20
4996.766186030658
 30
0.0
 11
5312.5327154376373
 21
4996.5488996003796
 31
0.0
  0
LINE
  5
4BF
  8
1
  6
DASHED
 62
     7
 10
5291.5767154376354
 20
4998.5123458300013
 30
0.0
 11
5291.5767154376354
 21
4999.3442887010697
 31
0.0
  0
LINE
  5
4C0
  8
1
  6
DASHED
 62
     7
 10
5291.5767154376354
 20
4996.5488996003796
 30
0.0
 11
5291.5767154376354
 21
4996.766186030658
 31
0.0
  0
LINE
  5
4C1
  8
1
 62
     7
 10
5315.6627154376356
 20
5402.3401832188929
 30
0.0
 11
5315.6627154376356
 21
5403.3411832188931
 31
0.0
  0
LINE
  5
4C2
  8
1
  6
DASHED
 62
     7
 10
5315.9047154376349
 20
4990.7486996003818
 30
0.0
 11
5312.5327154376373
 21
4990.7486996003818
 31
0.0
  0
LINE
  5
4C3
  8
1
  6
DASHED
 62
     7
 10
5292.1037154376336
 20
4996.5488996003796
 30
0.0
 11
5291.5767154376354
 21
4996.5488996003796
 31
0.0
  0
LINE
  5
4C4
  8
1
  6
DASHED
 62
     7
 10
5312.0057154376354
 20
4996.5488996003796
 30
0.0
 11
5310.6787154376352
 21
4996.5488996003796
 31
0.0
  0
LINE
  5
4C5
  8
1
  6
DASHED
 62
     7
 10
5315.9047154376349
 20
4996.5488996003796
 30
0.0
 11
5312.5327154376373
 21
4996.5488996003796
 31
0.0
  0
LINE
  5
4C6
  8
1
  6
DASHED
 62
     7
 10
5315.9047154376349
 20
4990.7486996003818
 30
0.0
 11
5315.9047154376349
 21
4996.5488996003796
 31
0.0
  0
LINE
  5
4C7
  8
1
  6
DASHED
 62
     7
 10
5288.2057154376353
 20
4990.7486996003818
 30
0.0
 11
5288.2057154376353
 21
4996.5488996003796
 31
0.0
  0
LINE
  5
4C8
  8
1
  6
DASHED
 62
     7
 10
5293.1937154376355
 20
4998.2231996003811
 30
0.0
 11
5295.9777154376352
 21
4999.347699600381
 31
0.0
  0
LINE
  5
4C9
  8
1
  6
DASHED
 62
     7
 10
5320.927715437635
 20
4997.7581996003819
 30
0.0
 11
5321.8037154376352
 21
4996.5488996003796
 31
0.0
  0
LINE
  5
4CA
  8
1
  6
DASHED
 62
     7
 10
5318.9287154376352
 20
4996.5488996003796
 30
0.0
 11
5320.5717154376352
 21
4997.7581996003819
 31
0.0
  0
LINE
  5
4CB
  8
1
  6
DASHED
 62
     7
 10
5315.6877154376352
 20
4997.7581996003819
 30
0.0
 11
5318.0767154376344
 21
4996.5488996003796
 31
0.0
  0
LINE
  5
4CC
  8
1
  6
DASHED
 62
     7
 10
5312.0057154376354
 20
4996.5488996003796
 30
0.0
 11
5312.5327154376373
 21
4996.766186030658
 31
0.0
  0
LINE
  5
4CD
  8
1
  6
DASHED
 62
     7
 10
5310.9167154376364
 20
4998.2231996003811
 30
0.0
 11
5307.6027154376352
 21
4999.347699600381
 31
0.0
  0
LINE
  5
4CE
  8
1
  6
DASHED
 62
     7
 10
5314.717715437635
 20
4999.347699600381
 30
0.0
 11
5312.5327154376373
 21
4998.5122584239107
 31
0.0
  0
LINE
  5
4CF
  8
1
  6
DASHED
 62
     7
 10
5318.2337154376364
 20
4998.2231996003811
 30
0.0
 11
5315.8937154376354
 21
4999.347699600381
 31
0.0
  0
LINE
  5
4D0
  8
1
  6
DASHED
 62
     7
 10
5320.4597154376352
 20
4999.347699600381
 30
0.0
 11
5318.7857154376352
 21
4998.2231996003811
 31
0.0
  0
LINE
  5
4D1
  8
1
  6
DASHED
 62
     7
 10
5322.0537154376352
 20
4998.1487996003816
 30
0.0
 11
5321.0177154376352
 21
4999.347699600381
 31
0.0
  0
LINE
  5
4D2
  8
1
  6
DASHED
 62
     7
 10
5289.1707154376336
 20
4997.7581996003819
 30
0.0
 11
5291.5767154376354
 21
4996.766186030658
 31
0.0
  0
LINE
  5
4D3
  8
1
  6
DASHED
 62
     7
 10
5286.0327154376364
 20
4996.5488996003796
 30
0.0
 11
5288.4227154376349
 21
4997.7581996003819
 31
0.0
  0
LINE
  5
4D4
  8
1
  6
DASHED
 62
     7
 10
5283.5377154376374
 20
4997.7581996003819
 30
0.0
 11
5285.1817154376349
 21
4996.5488996003796
 31
0.0
  0
LINE
  5
4D5
  8
1
  6
DASHED
 62
     7
 10
5285.3237154376347
 20
4998.2231996003811
 30
0.0
 11
5283.6477154376353
 21
4999.347699600381
 31
0.0
  0
LINE
  5
4D6
  8
1
  6
DASHED
 62
     7
 10
5283.182715437636
 20
4997.7581996003819
 30
0.0
 11
5282.3057154376347
 21
4996.5488996003796
 31
0.0
  0
LINE
  5
4D7
  8
1
  6
DASHED
 62
     7
 10
5283.0897154376353
 20
4999.347699600381
 30
0.0
 11
5282.0557154376347
 21
4998.1487996003816
 31
0.0
  0
LINE
  5
4D8
  8
1
  6
DASHED
 62
     7
 10
5288.2137154376351
 20
4999.347699600381
 30
0.0
 11
5285.8757154376362
 21
4998.2231996003811
 31
0.0
  0
LINE
  5
4D9
  8
1
  6
DASHED
 62
     7
 10
5292.333715437635
 20
4998.2231996003811
 30
0.0
 11
5291.5767154376354
 21
4998.5123458300013
 31
0.0
  0
LINE
  5
4DA
  8
1
  6
DASHED
 62
     7
 10
5320.5717154376352
 20
4997.7581996003819
 30
0.0
 11
5320.927715437635
 21
4997.7581996003819
 31
0.0
  0
LINE
  5
4DB
  8
1
  6
DASHED
 62
     7
 10
5314.9387154376354
 20
4997.7581996003819
 30
0.0
 11
5315.6877154376352
 21
4997.7581996003819
 31
0.0
  0
LINE
  5
4DC
  8
1
  6
DASHED
 62
     7
 10
5283.5377154376374
 20
4997.7581996003819
 30
0.0
 11
5283.182715437636
 21
4997.7581996003819
 31
0.0
  0
LINE
  5
4DD
  8
1
  6
DASHED
 62
     7
 10
5289.1707154376336
 20
4997.7581996003819
 30
0.0
 11
5288.4227154376349
 21
4997.7581996003819
 31
0.0
  0
LINE
  5
4DE
  8
1
  6
DASHED
 62
     7
 10
5320.4597154376352
 20
4999.347699600381
 30
0.0
 11
5321.0177154376352
 21
4999.347699600381
 31
0.0
  0
LINE
  5
4DF
  8
1
  6
DASHED
 62
     7
 10
5314.717715437635
 20
4999.347699600381
 30
0.0
 11
5315.8937154376354
 21
4999.347699600381
 31
0.0
  0
LINE
  5
4E0
  8
1
  6
DASHED
 62
     7
 10
5283.6477154376353
 20
4999.347699600381
 30
0.0
 11
5283.0897154376353
 21
4999.347699600381
 31
0.0
  0
LINE
  5
4E1
  8
1
  6
DASHED
 62
     7
 10
5289.3897154376364
 20
4999.347699600381
 30
0.0
 11
5288.2137154376351
 21
4999.347699600381
 31
0.0
  0
LINE
  5
4E2
  8
1
  6
DASHED
 62
     7
 10
5306.3397154376353
 20
4997.7477996003818
 30
0.0
 11
5307.3407154376364
 21
4997.7477996003818
 31
0.0
  0
LINE
  5
4E3
  8
1
  6
DASHED
 62
     7
 10
5296.7697154376374
 20
4997.7477996003818
 30
0.0
 11
5293.4307154376347
 21
4996.5488996003796
 31
0.0
  0
LINE
  5
4E4
  8
1
  6
DASHED
 62
     7
 10
5318.2337154376364
 20
4998.2231996003811
 30
0.0
 11
5318.7857154376352
 21
4998.2231996003811
 31
0.0
  0
LINE
  5
4E5
  8
1
  6
DASHED
 62
     7
 10
5285.8757154376362
 20
4998.2231996003811
 30
0.0
 11
5285.3237154376347
 21
4998.2231996003811
 31
0.0
  0
LINE
  5
4E6
  8
1
  6
DASHED
 62
     7
 10
5322.0537154376352
 20
4996.5488996003796
 30
0.0
 11
5321.8037154376352
 21
4996.5488996003796
 31
0.0
  0
LINE
  5
4E7
  8
1
  6
DASHED
 62
     7
 10
5318.9287154376352
 20
4996.5488996003796
 30
0.0
 11
5318.0767154376344
 21
4996.5488996003796
 31
0.0
  0
LINE
  5
4E8
  8
1
  6
DASHED
 62
     7
 10
5282.3057154376347
 20
4996.5488996003796
 30
0.0
 11
5282.0557154376347
 21
4996.5488996003796
 31
0.0
  0
LINE
  5
4E9
  8
1
  6
DASHED
 62
     7
 10
5286.0327154376364
 20
4996.5488996003796
 30
0.0
 11
5285.1817154376349
 21
4996.5488996003796
 31
0.0
  0
LINE
  5
4EA
  8
1
  6
DASHED
 62
     7
 10
5293.4307154376347
 20
4996.5488996003796
 30
0.0
 11
5292.1037154376336
 21
4996.5488996003796
 31
0.0
  0
LINE
  5
4EB
  8
1
  6
DASHED
 62
     7
 10
5306.3397154376353
 20
4997.7477996003818
 30
0.0
 11
5302.8057154376347
 21
4996.5488996003796
 31
0.0
  0
LINE
  5
4EC
  8
1
  6
DASHED
 62
     7
 10
5306.0777154376374
 20
4999.347699600381
 30
0.0
 11
5302.5407154376353
 21
4998.1487996003816
 31
0.0
  0
LINE
  5
4ED
  8
1
  6
DASHED
 62
     7
 10
5301.3047154376336
 20
4996.5488996003796
 30
0.0
 11
5297.7367154376352
 21
4997.7581996003819
 31
0.0
  0
LINE
  5
4EE
  8
1
  6
DASHED
 62
     7
 10
5301.5687154376355
 20
4998.1487996003816
 30
0.0
 11
5298.0327154376373
 21
4999.347699600381
 31
0.0
  0
LINE
  5
4EF
  8
1
  6
DASHED
 62
     7
 10
5297.7367154376352
 20
4997.7581996003819
 30
0.0
 11
5296.7697154376374
 21
4997.7477996003818
 31
0.0
  0
LINE
  5
4F0
  8
1
  6
DASHED
 62
     7
 10
5322.0537154376352
 20
4998.1487996003816
 30
0.0
 11
5322.0537154376352
 21
4996.5488996003796
 31
0.0
  0
LINE
  5
4F1
  8
1
  6
DASHED
 62
     7
 10
5282.0557154376347
 20
4998.1487996003816
 30
0.0
 11
5282.0557154376347
 21
4996.5488996003796
 31
0.0
  0
LINE
  5
4F2
  8
1
  6
DASHED
 62
     7
 10
5298.0327154376373
 20
4999.347699600381
 30
0.0
 11
5295.9777154376352
 21
4999.347699600381
 31
0.0
  0
LINE
  5
4F3
  8
1
  6
DASHED
 62
     7
 10
5306.0777154376374
 20
4999.347699600381
 30
0.0
 11
5307.6027154376352
 21
4999.347699600381
 31
0.0
  0
LINE
  5
4F4
  8
1
  6
DASHED
 62
     7
 10
5307.3407154376364
 20
4997.7477996003818
 30
0.0
 11
5310.6787154376352
 21
4996.5488996003796
 31
0.0
  0
LINE
  5
4F5
  8
1
  6
DASHED
 62
     7
 10
5312.5327154376373
 20
4996.5488996003796
 30
0.0
 11
5312.0057154376354
 21
4996.5488996003796
 31
0.0
  0
LINE
  5
4F6
  8
1
  6
DASHED
 62
     7
 10
5310.6787154376352
 20
4996.5488996003796
 30
0.0
 11
5302.8057154376347
 21
4996.5488996003796
 31
0.0
  0
LINE
  5
4F7
  8
1
  6
DASHED
 62
     7
 10
5291.5767154376354
 20
4996.5488996003796
 30
0.0
 11
5288.2057154376353
 21
4996.5488996003796
 31
0.0
  0
LINE
  5
4F8
  8
1
  6
DASHED
 62
     7
 10
5310.9167154376364
 20
4998.2231996003811
 30
0.0
 11
5311.7767154376352
 21
4998.2231996003811
 31
0.0
  0
LINE
  5
4F9
  8
1
  6
DASHED
 62
     7
 10
5292.333715437635
 20
4998.2231996003811
 30
0.0
 11
5293.1937154376355
 21
4998.2231996003811
 31
0.0
  0
LINE
  5
4FA
  8
1
  6
DASHED
 62
     7
 10
5291.5767154376354
 20
4990.7486996003818
 30
0.0
 11
5288.2057154376353
 21
4990.7486996003818
 31
0.0
  0
LINE
  5
4FB
  8
1
  6
DASHED
 62
     7
 10
5301.3047154376336
 20
4996.5488996003796
 30
0.0
 11
5293.4307154376347
 21
4996.5488996003796
 31
0.0
  0
LINE
  5
4FC
  8
1
  6
DASHED
 62
     7
 10
5302.8057154376347
 20
4996.5488996003796
 30
0.0
 11
5301.3047154376336
 21
4996.5488996003796
 31
0.0
  0
LINE
  5
4FD
  8
1
  6
DASHED
 62
     7
 10
5312.5327154376373
 20
4990.7486996003818
 30
0.0
 11
5291.5767154376354
 21
4990.7486996003818
 31
0.0
  0
LINE
  5
4FE
  8
1
  6
DASHED
 62
     7
 10
5302.5407154376353
 20
4998.1487996003816
 30
0.0
 11
5301.5687154376355
 21
4998.1487996003816
 31
0.0
  0
LINE
  5
4FF
  8
1
  6
DASHED
 62
     7
 10
5312.5327154376373
 20
4996.766186030658
 30
0.0
 11
5314.9387154376354
 21
4997.7581996003819
 31
0.0
  0
LINE
  5
500
  8
1
  6
DASHED
 62
     7
 10
5291.5767154376354
 20
4996.766186030658
 30
0.0
 11
5292.1037154376336
 21
4996.5488996003796
 31
0.0
  0
LINE
  5
501
  8
1
  6
DASHED
 62
     7
 10
5312.5327154376373
 20
4998.5122584239107
 30
0.0
 11
5311.7767154376352
 21
4998.2231996003811
 31
0.0
  0
LINE
  5
502
  8
1
  6
DASHED
 62
     7
 10
5291.5767154376354
 20
4998.5123458300013
 30
0.0
 11
5289.3897154376364
 21
4999.347699600381
 31
0.0
  0
LINE
  5
503
  8
1
 62
     7
 10
5242.0459154376331
 20
4831.7129870671179
 30
0.0
 11
5242.045915437634
 21
4791.7129870671179
 31
0.0
  0
LINE
  5
504
  8
1
 62
     7
 10
5302.0547154376336
 20
4885.9861432287062
 30
0.0
 11
5242.0459154376331
 21
4831.7129870671179
 31
0.0
  0
LINE
  5
505
  8
1
  6
DASHED
 62
     7
 10
5297.0553154376357
 20
4952.8478899830261
 30
0.0
 11
5291.4691093056672
 21
4952.8478897278383
 31
0.0
  0
LINE
  5
506
  8
1
 62
     7
 10
5237.0465154376352
 20
4769.8509632301939
 30
0.0
 11
5231.5474153724899
 21
4769.8509629580094
 31
0.0
  0
LINE
  5
507
  8
1
  6
DASHED
 62
     7
 10
5307.0547154376354
 20
4952.847890439818
 30
0.0
 11
5297.0553154376357
 21
4952.8478899830261
 31
0.0
  0
LINE
  5
508
  8
1
 62
     7
 10
5247.045915437634
 20
4769.8509637251254
 30
0.0
 11
5237.0465154376352
 21
4769.8509632301939
 31
0.0
  0
LINE
  5
509
  8
1
 62
     7
 10
5252.5444156448839
 20
4755.3511535542611
 30
0.0
 11
5231.4598654159226
 21
4755.3511535542611
 31
0.0
  0
LINE
  5
50A
  8
1
 62
     7
 10
5252.5454055688242
 20
4769.8509639973299
 30
0.0
 11
5247.045915437634
 21
4769.8509637251254
 31
0.0
  0
LINE
  5
50B
  8
1
  6
DASHED
 62
     7
 10
5291.6442320033557
 20
4967.3476995826659
 30
0.0
 11
5291.5569048373354
 21
4967.3476995825176
 31
0.0
  0
LINE
  5
50C
  8
1
  6
DASHED
 62
     7
 10
5307.0547154376354
 20
4952.847890439818
 30
0.0
 11
5307.0547154376354
 21
4951.065143228705
 31
0.0
  0
LINE
  5
50D
  8
1
  6
DASHED
 62
     7
 10
5297.0553154376357
 20
4952.8478899830261
 30
0.0
 11
5297.0553154376357
 21
4951.065143228705
 31
0.0
  0
LINE
  5
50E
  8
1
  6
DASHED
 62
     7
 10
5312.6696075226691
 20
4952.8478906963164
 30
0.0
 11
5307.0547154376354
 21
4952.847890439818
 31
0.0
  0
LINE
  5
50F
  8
1
  6
DASHED
 62
     7
 10
5291.644695431356
 20
4952.8478897358591
 30
0.0
 11
5291.5569048679154
 21
4952.8478897318491
 31
0.0
  0
LINE
  5
510
  8
1
 62
     7
 10
5307.0397154376351
 20
4930.9861432287053
 30
0.0
 11
5302.0547154376336
 21
4930.9861432287053
 31
0.0
  0
LINE
  5
511
  8
1
 62
     7
 10
5247.0309154376337
 20
4791.7129870671179
 30
0.0
 11
5242.045915437634
 21
4791.7129870671179
 31
0.0
  0
LINE
  5
512
  8
1
 62
     7
 10
5297.0705154376374
 20
4930.9861432287053
 30
0.0
 11
5302.0547154376336
 21
4930.9861432287053
 31
0.0
  0
LINE
  5
513
  8
1
 62
     7
 10
5237.0617154376341
 20
4791.7129870671179
 30
0.0
 11
5242.045915437634
 21
4791.7129870671179
 31
0.0
  0
LINE
  5
514
  8
1
  6
DASHED
 62
     7
 10
5307.0547154376354
 20
4951.065143228705
 30
0.0
 11
5308.342715437635
 21
4951.065143228705
 31
0.0
  0
LINE
  5
515
  8
1
 62
     7
 10
5302.0547154376336
 20
4925.9861432287053
 30
0.0
 11
5302.0547154376336
 21
4885.9861432287062
 31
0.0
  0
LINE
  5
516
  8
1
 62
     7
 10
5247.045915437634
 20
4771.633487067118
 30
0.0
 11
5248.3339154376336
 21
4771.633487067118
 31
0.0
  0
LINE
  5
517
  8
1
  6
DASHED
 62
     7
 10
5297.0553154376357
 20
4951.065143228705
 30
0.0
 11
5295.7675154376357
 21
4951.065143228705
 31
0.0
  0
LINE
  5
518
  8
1
 62
     7
 10
5237.0465154376352
 20
4771.6334713352926
 30
0.0
 11
5235.7587259075081
 21
4771.6334672829489
 31
0.0
  0
LINE
  5
519
  8
1
  6
DASHED
 62
     7
 10
5316.0565107354441
 20
4955.0968630824236
 30
0.0
 11
5316.0567154376349
 21
4965.0971432287051
 31
0.0
  0
LINE
  5
51A
  8
1
  6
DASHED
 62
     7
 10
5312.5548939985929
 20
4967.347699618249
 30
0.0
 11
5291.6442320033557
 21
4967.3476995826659
 31
0.0
  0
LINE
  5
51B
  8
1
  6
DASHED
 62
     7
 10
5312.5548939982791
 20
4952.8478906910768
 30
0.0
 11
5312.467405441259
 21
4952.8478906870787
 31
0.0
  0
LINE
  5
51C
  8
1
  6
DASHED
 62
     7
 10
5288.0566646310372
 20
4955.0968621812672
 30
0.0
 11
5288.0566154376356
 21
4965.0971432287051
 31
0.0
  0
LINE
  5
51D
  8
1
 62
     7
 10
5256.0469154376342
 20
4757.6132107082776
 30
0.0
 11
5256.0469154376342
 21
4766.7370401756434
 31
0.0
  0
LINE
  5
51E
  8
1
 62
     7
 10
5228.0471756310362
 20
4757.6001260196799
 30
0.0
 11
5228.0471754815626
 21
4767.6006144813446
 31
0.0
  0
LINE
  5
51F
  8
1
 62
     7
 10
5309.436715437635
 20
4930.9861432287053
 30
0.0
 11
5307.0397154376351
 21
4930.9861432287053
 31
0.0
  0
LINE
  5
520
  8
1
 62
     7
 10
5294.6740154376348
 20
4930.9861432287053
 30
0.0
 11
5297.0705154376374
 21
4930.9861432287053
 31
0.0
  0
LINE
  5
521
  8
1
 62
     7
 10
5294.6740154376348
 20
4930.9861432287053
 30
0.0
 11
5294.6740154376348
 21
4937.3493887010709
 31
0.0
  0
LINE
  5
522
  8
1
  6
DASHED
 62
     7
 10
5295.7675154376357
 20
4938.8361432287047
 30
0.0
 11
5295.7675258907393
 21
4947.4576598820149
 31
0.0
  0
LINE
  5
523
  8
1
  6
DASHED
 62
     7
 10
5295.7675154376357
 20
4938.8361432287047
 30
0.0
 11
5294.6740154376348
 21
4937.7421432287047
 31
0.0
  0
LINE
  5
524
  8
1
  6
DASHED
 62
     7
 10
5302.0547154376336
 20
4951.065143228705
 30
0.0
 11
5297.0553154376357
 21
4951.065143228705
 31
0.0
  0
LINE
  5
525
  8
1
 62
     7
 10
5309.436715437635
 20
4930.9861432287053
 30
0.0
 11
5309.436715437635
 21
4937.3493887010709
 31
0.0
  0
LINE
  5
526
  8
1
  6
DASHED
 62
     7
 10
5308.342715437635
 20
4938.8361432287047
 30
0.0
 11
5308.34289291814
 21
4947.4576603635633
 31
0.0
  0
LINE
  5
527
  8
1
  6
DASHED
 62
     7
 10
5308.342715437635
 20
4938.8361432287047
 30
0.0
 11
5309.436715437635
 21
4937.7421432287047
 31
0.0
  0
LINE
  5
528
  8
1
  6
DASHED
 62
     7
 10
5302.0547154376336
 20
4951.065143228705
 30
0.0
 11
5307.0547154376354
 21
4951.065143228705
 31
0.0
  0
LINE
  5
529
  8
1
 62
     7
 10
5249.4279154376336
 20
4791.7129870671179
 30
0.0
 11
5247.0309154376337
 21
4791.7129870671179
 31
0.0
  0
LINE
  5
52A
  8
1
 62
     7
 10
5249.4279154376336
 20
4791.7129870671179
 30
0.0
 11
5249.4279154376336
 21
4784.9570870671178
 31
0.0
  0
LINE
  5
52B
  8
1
 62
     7
 10
5248.3339154376336
 20
4783.8622870671179
 30
0.0
 11
5248.3339154376336
 21
4775.2418870671163
 31
0.0
  0
LINE
  5
52C
  8
1
 62
     7
 10
5248.3339154376336
 20
4783.8622870671179
 30
0.0
 11
5249.4279154376336
 21
4784.9570870671178
 31
0.0
  0
LINE
  5
52D
  8
1
 62
     7
 10
5247.045915437634
 20
4769.8509637251254
 30
0.0
 11
5247.045915437634
 21
4771.633487067118
 31
0.0
  0
LINE
  5
52E
  8
1
 62
     7
 10
5242.045915437634
 20
4771.633487067118
 30
0.0
 11
5247.045915437634
 21
4771.633487067118
 31
0.0
  0
LINE
  5
52F
  8
1
 62
     7
 10
5234.6652154376343
 20
4791.7129870671179
 30
0.0
 11
5234.6652154376343
 21
4784.9570870671178
 31
0.0
  0
LINE
  5
530
  8
1
 62
     7
 10
5234.6652154376343
 20
4791.7129870671179
 30
0.0
 11
5237.0617154376341
 21
4791.7129870671179
 31
0.0
  0
LINE
  5
531
  8
1
 62
     7
 10
5235.7587154376351
 20
4783.8622870671179
 30
0.0
 11
5235.7587154376351
 21
4775.2418870671163
 31
0.0
  0
LINE
  5
532
  8
1
 62
     7
 10
5235.7587154376351
 20
4783.8622870671179
 30
0.0
 11
5234.6652154376343
 21
4784.9570870671178
 31
0.0
  0
LINE
  5
533
  8
1
 62
     7
 10
5237.0465154376352
 20
4769.8509632301939
 30
0.0
 11
5237.0465154376352
 21
4771.6334713352926
 31
0.0
  0
LINE
  5
534
  8
1
 62
     7
 10
5242.045915437634
 20
4771.633487067118
 30
0.0
 11
5237.0465154376352
 21
4771.6334713352926
 31
0.0
  0
LINE
  5
535
  8
1
  6
DASHED
 62
     7
 10
5312.5327154376373
 20
4999.3442887010697
 30
0.0
 11
5312.5327154376373
 21
4998.5122584239107
 31
0.0
  0
LINE
  5
536
  8
1
 62
     7
 10
4832.050915437635
 20
4937.3493887010709
 30
0.0
 11
5422.0519154376352
 21
4937.3493887010709
 31
0.0
  0
LINE
  5
537
  8
1
  6
DASHED
 62
     7
 10
5312.5327154376373
 20
4990.7486996003818
 30
0.0
 11
5312.5327154376373
 21
4967.3476996182117
 31
0.0
  0
LINE
  5
538
  8
1
  6
DASHED
 62
     7
 10
5291.5767154376354
 20
4967.3476995825522
 30
0.0
 11
5291.5767154376354
 21
4990.7486996003818
 31
0.0
  0
LINE
  5
539
  8
1
 62
     7
 10
5377.0519154376352
 20
4937.3493887010709
 30
0.0
 11
5377.0519154376352
 21
4862.4318887010704
 31
0.0
  0
LINE
  5
53A
  8
1
 62
     7
 10
5347.0519154376352
 20
4937.3493887010709
 30
0.0
 11
5347.0519154376352
 21
4862.4318887010704
 31
0.0
  0
LINE
  5
53B
  8
1
 62
     7
 10
4907.050915437635
 20
4937.3493887010709
 30
0.0
 11
4907.050915437635
 21
4862.4318887010704
 31
0.0
  0
LINE
  5
53C
  8
1
 62
     7
 10
4877.050907830815
 20
4937.3493887010709
 30
0.0
 11
4877.0508986383793
 21
4862.431849309527
 31
0.0
  0
LINE
  5
53D
  8
1
  6
DASHED
 62
     7
 10
5309.436715437635
 20
4937.3493887010709
 30
0.0
 11
5309.436715437635
 21
4937.7421432287047
 31
0.0
  0
LINE
  5
53E
  8
1
  6
DASHED
 62
     7
 10
5294.6740154376348
 20
4937.3493887010709
 30
0.0
 11
5294.6740154376348
 21
4937.7421432287047
 31
0.0
  0
LINE
  5
53F
  8
1
 62
     7
 10
5122.0463394376338
 20
4813.623402930707
 30
0.0
 11
5122.0463394376338
 21
4760.3501358380972
 31
0.0
  0
LINE
  5
540
  8
1
 62
     7
 10
5162.0462154376337
 20
4813.6238009390026
 30
0.0
 11
5162.0462154376337
 21
4760.3501358380972
 31
0.0
  0
LINE
  5
541
  8
1
 62
     7
 10
5162.0462154376337
 20
4871.0766287682072
 30
0.0
 11
5162.0462154376337
 21
4864.3511358380974
 31
0.0
  0
LINE
  5
542
  8
1
 62
     7
 10
5122.0463394376338
 20
4871.0775124281772
 30
0.0
 11
5122.0463394376338
 21
4864.3511358380974
 31
0.0
  0
LINE
  5
543
  8
1
 62
     7
 10
5164.0462154376337
 20
4913.3491087010716
 30
0.0
 11
5164.0462154376337
 21
4927.8488887010708
 31
0.0
  0
LINE
  5
544
  8
1
 62
     7
 10
5120.0463394376338
 20
4913.3491087010716
 30
0.0
 11
5120.0463394376338
 21
4927.8488887010708
 31
0.0
  0
LINE
  5
545
  8
1
 62
     7
 10
5120.0463394376338
 20
4927.8488887010708
 30
0.0
 11
5142.045915437634
 21
4927.8488887010708
 31
0.0
  0
LINE
  5
546
  8
1
 62
     7
 10
5120.0463394376338
 20
4913.3491087010716
 30
0.0
 11
5129.0454354376343
 21
4913.3491087010716
 31
0.0
  0
LINE
  5
547
  8
1
 62
     7
 10
5122.0463394376338
 20
4875.3507358380984
 30
0.0
 11
5129.0454354376343
 21
4875.3507358380984
 31
0.0
  0
LINE
  5
548
  8
1
 62
     7
 10
5122.0463394376338
 20
4875.3507358380984
 30
0.0
 11
5122.0463394376338
 21
4871.0775124281772
 31
0.0
  0
LINE
  5
549
  8
1
 62
     7
 10
5162.0462154376337
 20
4875.3507358380984
 30
0.0
 11
5162.0462154376337
 21
4871.0766287682072
 31
0.0
  0
LINE
  5
54A
  8
1
 62
     7
 10
5122.0463394376338
 20
4760.3501358380972
 30
0.0
 11
5142.045915437634
 21
4760.3501358380972
 31
0.0
  0
LINE
  5
54B
  8
1
 62
     7
 10
5122.0463394376338
 20
4864.3511358380974
 30
0.0
 11
5142.045915437634
 21
4864.3511358380974
 31
0.0
  0
LINE
  5
54C
  8
1
 62
     7
 10
5129.0454354376343
 20
4913.3491087010716
 30
0.0
 11
5129.0454354376343
 21
4875.3507358380984
 31
0.0
  0
LINE
  5
54D
  8
1
 62
     7
 10
5155.0457154376336
 20
4875.3507358380984
 30
0.0
 11
5155.0457154376336
 21
4913.3491087010716
 31
0.0
  0
LINE
  5
54E
  8
1
 62
     7
 10
5162.0462154376337
 20
4864.3511358380974
 30
0.0
 11
5162.0462154376337
 21
4842.3506358380982
 31
0.0
  0
LINE
  5
54F
  8
1
 62
     7
 10
5122.0463394376338
 20
4864.3511358380974
 30
0.0
 11
5122.0463394376338
 21
4842.3506358380982
 31
0.0
  0
LINE
  5
550
  8
1
 62
     7
 10
5162.0462154376337
 20
4842.3506358380982
 30
0.0
 11
5162.0462154376337
 21
4813.6238009390026
 31
0.0
  0
LINE
  5
551
  8
1
 62
     7
 10
5122.0463394376338
 20
4842.3506358380982
 30
0.0
 11
5122.0463394376338
 21
4813.623402930707
 31
0.0
  0
LINE
  5
552
  8
1
 62
     7
 10
5155.0457154376336
 20
4875.3507358380984
 30
0.0
 11
5162.0462154376337
 21
4875.3507358380984
 31
0.0
  0
LINE
  5
553
  8
1
 62
     7
 10
5155.0457154376336
 20
4913.3491087010716
 30
0.0
 11
5164.0462154376337
 21
4913.3491087010716
 31
0.0
  0
LINE
  5
554
  8
1
 62
     7
 10
5129.0454354376343
 20
4875.3507358380984
 30
0.0
 11
5142.045915437634
 21
4875.3507358380984
 31
0.0
  0
LINE
  5
555
  8
1
 62
     7
 10
5129.0454354376343
 20
4913.3491087010716
 30
0.0
 11
5142.045915437634
 21
4913.3491087010716
 31
0.0
  0
LINE
  5
556
  8
1
 62
     7
 10
5142.045915437634
 20
4864.3511358380974
 30
0.0
 11
5162.0462154376337
 21
4864.3511358380974
 31
0.0
  0
LINE
  5
557
  8
1
 62
     7
 10
5142.045915437634
 20
4760.3501358380972
 30
0.0
 11
5162.0462154376337
 21
4760.3501358380972
 31
0.0
  0
LINE
  5
558
  8
1
 62
     7
 10
5142.045915437634
 20
4875.3507358380984
 30
0.0
 11
5155.0457154376336
 21
4875.3507358380984
 31
0.0
  0
LINE
  5
559
  8
1
 62
     7
 10
5142.045915437634
 20
4913.3491087010716
 30
0.0
 11
5155.0457154376336
 21
4913.3491087010716
 31
0.0
  0
LINE
  5
55A
  8
1
 62
     7
 10
5142.045915437634
 20
4927.8488887010708
 30
0.0
 11
5164.0462154376337
 21
4927.8488887010708
 31
0.0
  0
LINE
  5
55B
  8
1
 62
     7
 10
5247.0452962037161
 20
4727.5522797227777
 30
0.0
 11
5245.5461909278602
 21
4724.3122551568886
 31
0.0
  0
LINE
  5
55C
  8
1
 62
     7
 10
5237.0458609413481
 20
4727.5524390709788
 30
0.0
 11
5238.5450154376331
 21
4724.3122535542616
 31
0.0
  0
LINE
  5
55D
  8
1
 62
     7
 10
5251.5462154376346
 20
4752.3511535542621
 30
0.0
 11
5251.5462154376346
 21
4746.8977535542626
 31
0.0
  0
LINE
  5
55E
  8
1
 62
     7
 10
5232.5457154376336
 20
4752.3511535542621
 30
0.0
 11
5232.5043154376344
 21
4746.9011535542622
 31
0.0
  0
LINE
  5
55F
  8
1
 62
     7
 10
5251.5462154376346
 20
4752.3511535542621
 30
0.0
 11
5252.5460154376333
 21
4753.3501535542619
 31
0.0
  0
LINE
  5
560
  8
1
 62
     7
 10
5231.5452154376344
 20
4753.3501535542619
 30
0.0
 11
5232.5457154376336
 21
4752.3511535542621
 31
0.0
  0
LINE
  5
561
  8
1
 62
     7
 10
5252.5460154376333
 20
4753.3501535542619
 30
0.0
 11
5252.5460154376333
 21
4755.3511413196311
 31
0.0
  0
LINE
  5
562
  8
1
 62
     7
 10
5231.5452154376344
 20
4753.3501535542619
 30
0.0
 11
5231.5452154376344
 21
4755.3511535542611
 31
0.0
  0
LINE
  5
563
  8
1
 62
     7
 10
5231.0601154376336
 20
4737.9197535542617
 30
0.0
 11
5229.0034255170558
 21
4740.8377972895114
 31
0.0
  0
LINE
  5
564
  8
1
 62
     7
 10
5236.0604154376333
 20
4746.5801535542623
 30
0.0
 11
5232.5043154376344
 21
4746.9011535542622
 31
0.0
  0
LINE
  5
565
  8
1
 62
     7
 10
5248.0308154376344
 20
4746.5801535542623
 30
0.0
 11
5251.5462154376346
 21
4746.8977535542626
 31
0.0
  0
LINE
  5
566
  8
1
 62
     7
 10
5253.031015437633
 20
4737.9197535542617
 30
0.0
 11
5255.0877862917523
 21
4740.8377929379694
 31
0.0
  0
LINE
  5
567
  8
1
 62
     7
 10
5310.9009239415946
 20
6733.8546358380991
 30
0.0
 11
5334.0624891790249
 21
6733.8546358380991
 31
0.0
  0
LINE
  5
568
  8
1
 62
     7
 10
5338.0622891790244
 20
6752.3516358381003
 30
0.0
 11
5338.0622891790244
 21
6738.8536358381007
 31
0.0
  0
LINE
  5
569
  8
1
 62
     7
 10
5338.0622891790244
 20
6765.8526358380996
 30
0.0
 11
5338.0622891790244
 21
6752.3516358381003
 31
0.0
  0
LINE
  5
56A
  8
1
 62
     7
 10
5371.062989179025
 20
6752.3516358381003
 30
0.0
 11
5371.062989179025
 21
6733.8546358380991
 31
0.0
  0
LINE
  5
56B
  8
1
 62
     7
 10
5379.0629891790259
 20
6752.3516358381003
 30
0.0
 11
5379.0629891790259
 21
6733.8546358380991
 31
0.0
  0
LINE
  5
56C
  8
1
 62
     7
 10
5337.0666891790252
 20
6752.3516358381003
 30
0.0
 11
5337.0666891790252
 21
6738.8536358381007
 31
0.0
  0
LINE
  5
56D
  8
1
 62
     7
 10
5374.0638745847564
 20
6770.8556358380993
 30
0.0
 11
5379.0629891790259
 21
6770.8556358380993
 31
0.0
  0
LINE
  5
56E
  8
1
 62
     7
 10
5374.0638347697204
 20
6733.8546358380991
 30
0.0
 11
5379.0629891790259
 21
6733.8546358380991
 31
0.0
  0
LINE
  5
56F
  8
1
 62
     7
 10
5243.1665394111069
 20
6761.8533491565922
 30
0.0
 11
5261.1431616103546
 21
6761.8533484276077
 31
0.0
  0
LINE
  5
570
  8
1
 62
     7
 10
5261.1431616103546
 20
6761.8533484276077
 30
0.0
 11
5264.5021509773214
 21
6761.8533486606584
 31
0.0
  0
LINE
  5
571
  8
1
 62
     7
 10
5264.5021509773214
 20
6761.8533486606584
 30
0.0
 11
5283.8981634447027
 21
6761.8533557110313
 31
0.0
  0
LINE
  5
572
  8
1
 62
     7
 10
5243.1975450354594
 20
6742.8535254286971
 30
0.0
 11
5261.1431609509018
 21
6742.8535244799523
 31
0.0
  0
LINE
  5
573
  8
1
 62
     7
 10
5261.1431609509018
 20
6742.8535244799523
 30
0.0
 11
5264.502149718006
 21
6742.8535243023734
 31
0.0
  0
LINE
  5
574
  8
1
 62
     7
 10
5264.502149718006
 20
6742.8535243023734
 30
0.0
 11
5283.8981635766277
 21
6742.8535232769491
 31
0.0
  0
LINE
  5
575
  8
1
 62
     7
 10
5334.0624891790249
 20
6770.8556133518214
 30
0.0
 11
5337.0666891790252
 21
6770.8556358380993
 31
0.0
  0
LINE
  5
576
  8
1
 62
     7
 10
5334.0624891790249
 20
6733.8546358380991
 30
0.0
 11
5337.0666891790252
 21
6733.8546358380991
 31
0.0
  0
LINE
  5
577
  8
1
 62
     7
 10
5338.0622891790244
 20
6738.8536358381007
 30
0.0
 11
5337.0666891790252
 21
6738.8536358381007
 31
0.0
  0
LINE
  5
578
  8
1
 62
     7
 10
5338.0622891790244
 20
6765.8526358380996
 30
0.0
 11
5337.0666891790252
 21
6765.8526358380996
 31
0.0
  0
LINE
  5
579
  8
1
 62
     7
 10
5338.0622891790244
 20
6770.8556358380993
 30
0.0
 11
5338.0622891790244
 21
6765.8526358380996
 31
0.0
  0
LINE
  5
57A
  8
1
 62
     7
 10
5337.0666891790252
 20
6770.8556358380993
 30
0.0
 11
5337.0666891790252
 21
6765.8526358380996
 31
0.0
  0
LINE
  5
57B
  8
1
 62
     7
 10
5338.0622891790244
 20
6733.8546358380991
 30
0.0
 11
5371.062989179025
 21
6733.8546358380991
 31
0.0
  0
LINE
  5
57C
  8
1
 62
     7
 10
5338.0622891790244
 20
6770.8556358380993
 30
0.0
 11
5371.062989179025
 21
6770.8556358380993
 31
0.0
  0
LINE
  5
57D
  8
1
 62
     7
 10
5310.8941015231667
 20
6770.855439937659
 30
0.0
 11
5334.0624891790249
 21
6770.8556133518214
 31
0.0
  0
LINE
  5
57E
  8
1
 62
     7
 10
5371.062989179025
 20
6770.8556358380993
 30
0.0
 11
5371.062989179025
 21
6752.3516358381003
 31
0.0
  0
LINE
  5
57F
  8
1
 62
     7
 10
5379.0629891790259
 20
6770.8556358380993
 30
0.0
 11
5379.0629891790259
 21
6752.3516358381003
 31
0.0
  0
LINE
  5
580
  8
1
 62
     7
 10
5193.5017309913883
 20
6761.853350184414
 30
0.0
 11
5243.1665394111069
 21
6761.8533491565922
 31
0.0
  0
LINE
  5
581
  8
1
 62
     7
 10
5193.0814258580021
 20
6742.853528078218
 30
0.0
 11
5243.1975450354594
 21
6742.8535254286971
 31
0.0
  0
LINE
  5
582
  8
1
 62
     7
 10
5371.062989179025
 20
6770.8556358380993
 30
0.0
 11
5374.0638745847564
 21
6770.8556358380993
 31
0.0
  0
LINE
  5
583
  8
1
 62
     7
 10
5371.062989179025
 20
6733.8546358380991
 30
0.0
 11
5374.0638347697204
 21
6733.8546358380991
 31
0.0
  0
LINE
  5
584
  8
1
 62
     7
 10
5337.0666891790252
 20
6738.8536358381007
 30
0.0
 11
5337.0666891790252
 21
6733.8546358380991
 31
0.0
  0
LINE
  5
585
  8
1
 62
     7
 10
5337.0666891790252
 20
6765.8526358380996
 30
0.0
 11
5337.0666891790252
 21
6752.3516358381003
 31
0.0
  0
LINE
  5
586
  8
1
 62
     7
 10
5338.0622891790244
 20
6738.8536358381007
 30
0.0
 11
5338.0622891790244
 21
6733.8546358380991
 31
0.0
  0
LINE
  5
587
  8
1
 62
     7
 10
5283.8981634447027
 20
6761.8533557110313
 30
0.0
 11
5302.0573891790264
 21
6761.8536358380989
 31
0.0
  0
LINE
  5
588
  8
1
 62
     7
 10
5283.8981635766277
 20
6742.8535232769491
 30
0.0
 11
5302.0642660158574
 21
6742.8535279347207
 31
0.0
  0
LINE
  5
589
  8
1
  6
DASHED
 62
     7
 10
4907.0509154376332
 20
6877.3506358380973
 30
0.0
 11
4892.0509154376323
 21
6877.3506358380973
 31
0.0
  0
LINE
  5
58A
  8
1
 62
     7
 10
4964.0059154376322
 20
6661.3556358380956
 30
0.0
 11
5260.0484154376327
 21
6661.3556358380956
 31
0.0
  0
LINE
  5
58B
  8
1
 62
     7
 10
4832.0509154376323
 20
6627.3526358380959
 30
0.0
 11
4850.0519154376334
 21
6627.3526358380968
 31
0.0
  0
LINE
  5
58C
  8
1
 62
     7
 10
4961.0568119183999
 20
6664.35645690821
 30
0.0
 11
4961.0570147575809
 21
6840.3571645772536
 31
0.0
  0
LINE
  5
58D
  8
1
 62
     7
 10
4850.0519154376334
 20
6877.3506358380973
 30
0.0
 11
4832.0509154376323
 21
6877.3506358380982
 31
0.0
  0
LINE
  5
58E
  8
1
 62
     7
 10
4880.0519154376334
 20
6877.3506358380973
 30
0.0
 11
4865.0519154376334
 21
6877.3506358380973
 31
0.0
  0
LINE
  5
58F
  8
1
 62
     7
 10
4920.0529154376327
 20
6877.3506358380973
 30
0.0
 11
4880.0519154376334
 21
6877.3506358380973
 31
0.0
  0
LINE
  5
590
  8
1
 62
     7
 10
5334.053015437632
 20
6877.3506358380973
 30
0.0
 11
4920.0529154376327
 21
6877.3506358380973
 31
0.0
  0
LINE
  5
591
  8
1
 62
     7
 10
4865.0519154376334
 20
6877.3506358380973
 30
0.0
 11
4850.0519154376334
 21
6877.3506358380973
 31
0.0
  0
LINE
  5
592
  8
1
  6
DASHED
 62
     7
 10
4850.0519154376334
 20
6645.353635838097
 30
0.0
 11
5404.053915437632
 21
6645.353635838097
 31
0.0
  0
LINE
  5
593
  8
1
 62
     7
 10
5404.053915437632
 20
6627.3526358380968
 30
0.0
 11
5422.0519154376334
 21
6627.3526358380968
 31
0.0
  0
LINE
  5
594
  8
1
 62
     7
 10
4850.0519154376334
 20
6627.3526358380968
 30
0.0
 11
5404.053915437632
 21
6627.3526358380968
 31
0.0
  0
LINE
  5
595
  8
1
 62
     7
 10
5422.0519154376334
 20
6753.3516358380984
 30
0.0
 11
5422.0519154376334
 21
6629.3526358380968
 31
0.0
  0
LINE
  5
596
  8
1
 62
     7
 10
4961.9975304343861
 20
6752.3516358380994
 30
0.0
 11
4962.0216477575814
 21
6839.3890865772573
 31
0.0
  0
LINE
  5
597
  8
1
 62
     7
 10
4964.6739154376319
 20
6752.3516358380994
 30
0.0
 11
4964.6739154376319
 21
6666.5196358380963
 31
0.0
  0
LINE
  5
598
  8
1
 62
     7
 10
4832.0509154376323
 20
6752.3516358380994
 30
0.0
 11
4832.0509154376323
 21
6627.3526358380959
 31
0.0
  0
LINE
  5
599
  8
1
  6
DASHED
 62
     7
 10
5404.053915437632
 20
6877.3504703299659
 30
0.0
 11
5404.053915437632
 21
6645.353635838097
 31
0.0
  0
LINE
  5
59A
  8
1
 62
     7
 10
5389.053915437632
 20
6877.3506358380973
 30
0.0
 11
5404.053915437632
 21
6877.3506358380973
 31
0.0
  0
LINE
  5
59B
  8
1
  6
DASHED
 62
     7
 10
4850.0518985470717
 20
6877.3506358380973
 30
0.0
 11
4850.0519154376334
 21
6645.353635838097
 31
0.0
  0
LINE
  5
59C
  8
1
 62
     7
 10
5185.0516154376319
 20
6787.6636358380974
 30
0.0
 11
5185.0516154376319
 21
6790.795635838097
 31
0.0
  0
LINE
  5
59D
  8
1
 62
     7
 10
5185.0516154376319
 20
6717.0496358380969
 30
0.0
 11
5185.0516495406728
 21
6713.9144703089487
 31
0.0
  0
LINE
  5
59E
  8
1
 62
     7
 10
5185.0516154376319
 20
6717.0496358380969
 30
0.0
 11
5255.4354154376306
 21
6668.3596358380983
 31
0.0
  0
LINE
  5
59F
  8
1
 62
     7
 10
5104.7319154376328
 20
6699.1276358380974
 30
0.0
 11
5104.7319154376328
 21
6752.3516358380994
 31
0.0
  0
LINE
  5
5A0
  8
1
 62
     7
 10
5374.053915437632
 20
6877.3506358380973
 30
0.0
 11
5334.053015437632
 21
6877.3506358380973
 31
0.0
  0
LINE
  5
5A1
  8
1
 62
     7
 10
5104.7319154376328
 20
6805.5856358380961
 30
0.0
 11
5100.6669154376323
 21
6809.3196358380974
 31
0.0
  0
LINE
  5
5A2
  8
1
 62
     7
 10
4970.647915437632
 20
6837.7496358380977
 30
0.0
 11
5098.7579154376326
 21
6810.1776358380976
 31
0.0
  0
LINE
  5
5A3
  8
1
 62
     7
 10
5105.9619154376323
 20
6808.6246358380986
 30
0.0
 11
5184.2799154376344
 21
6791.7676358380968
 31
0.0
  0
LINE
  5
5A4
  8
1
 62
     7
 10
5185.0516154376319
 20
6787.6636358380974
 30
0.0
 11
5255.4354154376306
 21
6836.3506358380982
 31
0.0
  0
LINE
  5
5A5
  8
1
 62
     7
 10
5104.7321847623962
 20
6807.6492209308162
 30
0.0
 11
5104.7319154376328
 21
6752.3516358380994
 31
0.0
  0
LINE
  5
5A6
  8
1
 62
     7
 10
5099.7329154376321
 20
6807.5526358380976
 30
0.0
 11
5099.7329154376321
 21
6752.3516358380994
 31
0.0
  0
LINE
  5
5A7
  8
1
 62
     7
 10
5104.7319154376328
 20
6699.1276358380974
 30
0.0
 11
5100.6669473270294
 21
6695.3935198857116
 31
0.0
  0
LINE
  5
5A8
  8
1
 62
     7
 10
4970.647915437632
 20
6666.9646358380969
 30
0.0
 11
5098.7579154376326
 21
6694.5356358380968
 31
0.0
  0
LINE
  5
5A9
  8
1
 62
     7
 10
5105.9619154376323
 20
6696.0856358380961
 30
0.0
 11
5184.2799154376344
 21
6712.9426358380961
 31
0.0
  0
LINE
  5
5AA
  8
1
 62
     7
 10
5104.7319154376328
 20
6697.0606358380983
 30
0.0
 11
5104.7319154376328
 21
6699.1276358380974
 31
0.0
  0
LINE
  5
5AB
  8
1
 62
     7
 10
5099.7329154376321
 20
6697.1606358380977
 30
0.0
 11
5099.7329154376321
 21
6752.3516358380994
 31
0.0
  0
LINE
  5
5AC
  8
1
 62
     7
 10
5260.0484154376327
 20
6843.3576358380969
 30
0.0
 11
4964.0579154376319
 21
6843.3576358380969
 31
0.0
  0
LINE
  5
5AD
  8
1
 62
     7
 10
5263.0491029193199
 20
6664.3530130037416
 30
0.0
 11
5263.0491049417424
 21
6742.8535243791903
 31
0.0
  0
LINE
  5
5AE
  8
1
 62
     7
 10
4965.0219154376327
 20
6842.3866358380956
 30
0.0
 11
5259.0803154376317
 21
6842.3866358380956
 31
0.0
  0
LINE
  5
5AF
  8
1
 62
     7
 10
5262.081025437632
 20
6839.3886358380978
 30
0.0
 11
5262.081025437632
 21
6762.1016358380984
 31
0.0
  0
LINE
  5
5B0
  8
1
 62
     7
 10
5262.081025437632
 20
6762.1016358380984
 30
0.0
 11
5262.0810254378166
 21
6761.8533484926784
 31
0.0
  0
LINE
  5
5B1
  8
1
 62
     7
 10
5256.7721154376322
 20
6666.0546358380971
 30
0.0
 11
5248.9448154376314
 21
6666.0546358380971
 31
0.0
  0
LINE
  5
5B2
  8
1
 62
     7
 10
5248.9448154376314
 20
6666.0546358380971
 30
0.0
 11
5240.9693154376328
 21
6666.0546358380971
 31
0.0
  0
LINE
  5
5B3
  8
1
 62
     7
 10
5240.9693154376328
 20
6666.0546358380971
 30
0.0
 11
5232.9939154376334
 21
6666.0546358380971
 31
0.0
  0
LINE
  5
5B4
  8
1
 62
     7
 10
5232.9939154376334
 20
6666.0546358380971
 30
0.0
 11
5225.0150154376306
 21
6666.0546358380971
 31
0.0
  0
LINE
  5
5B5
  8
1
 62
     7
 10
5225.0150154376306
 20
6666.0546358380971
 30
0.0
 11
5217.039515437632
 21
6666.0546358380971
 31
0.0
  0
LINE
  5
5B6
  8
1
 62
     7
 10
5217.039515437632
 20
6666.0546358380971
 30
0.0
 11
5209.0607154376321
 21
6666.0546358380971
 31
0.0
  0
LINE
  5
5B7
  8
1
 62
     7
 10
5209.0607154376321
 20
6666.0546358380971
 30
0.0
 11
5201.0852154376344
 21
6666.0546358380971
 31
0.0
  0
LINE
  5
5B8
  8
1
 62
     7
 10
5201.0852154376344
 20
6666.0546358380971
 30
0.0
 11
5193.1063154376334
 21
6666.0546358380971
 31
0.0
  0
LINE
  5
5B9
  8
1
 62
     7
 10
5193.1063154376334
 20
6666.0546358380971
 30
0.0
 11
5185.1309154376322
 21
6666.0546358380971
 31
0.0
  0
LINE
  5
5BA
  8
1
 62
     7
 10
5185.1309154376322
 20
6666.0546358380971
 30
0.0
 11
5177.1520154376321
 21
6666.0546358380971
 31
0.0
  0
LINE
  5
5BB
  8
1
 62
     7
 10
5177.1520154376321
 20
6666.0546358380971
 30
0.0
 11
5169.1729154376326
 21
6666.0546358380971
 31
0.0
  0
LINE
  5
5BC
  8
1
 62
     7
 10
5169.1729154376326
 20
6666.0546358380971
 30
0.0
 11
5161.1979154376322
 21
6666.0546358380971
 31
0.0
  0
LINE
  5
5BD
  8
1
 62
     7
 10
5161.1979154376322
 20
6666.0546358380971
 30
0.0
 11
5153.2189154376319
 21
6666.0546358380971
 31
0.0
  0
LINE
  5
5BE
  8
1
 62
     7
 10
5153.2189154376319
 20
6666.0546358380971
 30
0.0
 11
5145.2429154376323
 21
6666.0546358380971
 31
0.0
  0
LINE
  5
5BF
  8
1
 62
     7
 10
5145.2429154376323
 20
6666.0546358380971
 30
0.0
 11
5137.2649154376331
 21
6666.0546358380971
 31
0.0
  0
LINE
  5
5C0
  8
1
 62
     7
 10
5137.2649154376331
 20
6666.0546358380971
 30
0.0
 11
5129.2889154376326
 21
6666.0546358380971
 31
0.0
  0
LINE
  5
5C1
  8
1
 62
     7
 10
5129.2889154376326
 20
6666.0546358380971
 30
0.0
 11
5121.3099154376314
 21
6666.0546358380971
 31
0.0
  0
LINE
  5
5C2
  8
1
 62
     7
 10
5121.3099154376314
 20
6666.0546358380971
 30
0.0
 11
5113.330915437632
 21
6666.0546358380971
 31
0.0
  0
LINE
  5
5C3
  8
1
 62
     7
 10
5113.330915437632
 20
6666.0546358380971
 30
0.0
 11
5105.3559154376344
 21
6666.0546358380971
 31
0.0
  0
LINE
  5
5C4
  8
1
 62
     7
 10
5105.3559154376344
 20
6666.0546358380971
 30
0.0
 11
5097.3769154376323
 21
6666.0546358380971
 31
0.0
  0
LINE
  5
5C5
  8
1
 62
     7
 10
5097.3769154376323
 20
6666.0546358380971
 30
0.0
 11
5089.4009154376317
 21
6666.0546358380971
 31
0.0
  0
LINE
  5
5C6
  8
1
 62
     7
 10
5089.4009154376317
 20
6666.0546358380971
 30
0.0
 11
5081.4229154376344
 21
6666.0546358380971
 31
0.0
  0
LINE
  5
5C7
  8
1
 62
     7
 10
5081.4229154376344
 20
6666.0546358380971
 30
0.0
 11
5073.4439154376323
 21
6666.0546358380971
 31
0.0
  0
LINE
  5
5C8
  8
1
 62
     7
 10
5073.4439154376323
 20
6666.0546358380971
 30
0.0
 11
5065.4679154376327
 21
6666.0546358380971
 31
0.0
  0
LINE
  5
5C9
  8
1
 62
     7
 10
5065.4679154376327
 20
6666.0546358380971
 30
0.0
 11
5057.4929154376314
 21
6666.0546358380971
 31
0.0
  0
LINE
  5
5CA
  8
1
 62
     7
 10
5057.4929154376314
 20
6666.0546358380971
 30
0.0
 11
5049.513915437632
 21
6666.0546358380971
 31
0.0
  0
LINE
  5
5CB
  8
1
 62
     7
 10
5049.513915437632
 20
6666.0546358380971
 30
0.0
 11
5041.5349154376327
 21
6666.0546358380971
 31
0.0
  0
LINE
  5
5CC
  8
1
 62
     7
 10
5041.5349154376327
 20
6666.0546358380971
 30
0.0
 11
5033.5599154376314
 21
6666.0546358380971
 31
0.0
  0
LINE
  5
5CD
  8
1
 62
     7
 10
5033.5599154376314
 20
6666.0546358380971
 30
0.0
 11
5025.580915437632
 21
6666.0546358380971
 31
0.0
  0
LINE
  5
5CE
  8
1
 62
     7
 10
5025.580915437632
 20
6666.0546358380971
 30
0.0
 11
4965.2002544376328
 21
6666.0546358380971
 31
0.0
  0
LINE
  5
5CF
  8
1
 62
     7
 10
5259.0803154376317
 20
6662.3236358380982
 30
0.0
 11
4964.9775587989352
 21
6662.3238386085213
 31
0.0
  0
LINE
  5
5D0
  8
1
 62
     7
 10
5258.4912154376334
 20
6762.1016358380984
 30
0.0
 11
5258.4912154376334
 21
6761.8533485351509
 31
0.0
  0
LINE
  5
5D1
  8
1
 62
     7
 10
4965.0006004279339
 20
6838.6556358380976
 30
0.0
 11
4977.7179154376327
 21
6838.6586358380982
 31
0.0
  0
LINE
  5
5D2
  8
1
 62
     7
 10
4977.7179154376327
 20
6838.6586358380982
 30
0.0
 11
4985.6929154376321
 21
6838.6586358380982
 31
0.0
  0
LINE
  5
5D3
  8
1
 62
     7
 10
4985.6929154376321
 20
6838.6586358380982
 30
0.0
 11
4993.6719154376306
 21
6838.6586358380982
 31
0.0
  0
LINE
  5
5D4
  8
1
 62
     7
 10
4993.6719154376306
 20
6838.6586358380982
 30
0.0
 11
5001.6469154376327
 21
6838.6586358380982
 31
0.0
  0
LINE
  5
5D5
  8
1
 62
     7
 10
5001.6469154376327
 20
6838.6586358380982
 30
0.0
 11
5009.6299154376311
 21
6838.6586358380982
 31
0.0
  0
LINE
  5
5D6
  8
1
 62
     7
 10
5009.6299154376311
 20
6838.6586358380982
 30
0.0
 11
5017.6049154376306
 21
6838.6586358380982
 31
0.0
  0
LINE
  5
5D7
  8
1
 62
     7
 10
5017.6049154376306
 20
6838.6586358380982
 30
0.0
 11
5025.580915437632
 21
6838.6586358380982
 31
0.0
  0
LINE
  5
5D8
  8
1
 62
     7
 10
5025.580915437632
 20
6838.6586358380982
 30
0.0
 11
5033.5599154376314
 21
6838.6586358380982
 31
0.0
  0
LINE
  5
5D9
  8
1
 62
     7
 10
5033.5599154376314
 20
6838.6586358380982
 30
0.0
 11
5041.5349154376327
 21
6838.6586358380982
 31
0.0
  0
LINE
  5
5DA
  8
1
 62
     7
 10
5041.5349154376327
 20
6838.6586358380982
 30
0.0
 11
5049.513915437632
 21
6838.6586358380982
 31
0.0
  0
LINE
  5
5DB
  8
1
 62
     7
 10
5049.513915437632
 20
6838.6586358380982
 30
0.0
 11
5057.4929154376314
 21
6838.6586358380982
 31
0.0
  0
LINE
  5
5DC
  8
1
 62
     7
 10
5057.4929154376314
 20
6838.6586358380982
 30
0.0
 11
5065.4679154376327
 21
6838.6586358380982
 31
0.0
  0
LINE
  5
5DD
  8
1
 62
     7
 10
5065.4679154376327
 20
6838.6586358380982
 30
0.0
 11
5073.4439154376323
 21
6838.6586358380982
 31
0.0
  0
LINE
  5
5DE
  8
1
 62
     7
 10
5073.4439154376323
 20
6838.6586358380982
 30
0.0
 11
5081.4229154376344
 21
6838.6586358380982
 31
0.0
  0
LINE
  5
5DF
  8
1
 62
     7
 10
5081.4229154376344
 20
6838.6586358380982
 30
0.0
 11
5089.4009154376317
 21
6838.6586358380982
 31
0.0
  0
LINE
  5
5E0
  8
1
 62
     7
 10
5089.4009154376317
 20
6838.6586358380982
 30
0.0
 11
5097.3769154376323
 21
6838.6586358380982
 31
0.0
  0
LINE
  5
5E1
  8
1
 62
     7
 10
5097.3769154376323
 20
6838.6586358380982
 30
0.0
 11
5105.3559154376344
 21
6838.6586358380982
 31
0.0
  0
LINE
  5
5E2
  8
1
 62
     7
 10
5105.3559154376344
 20
6838.6586358380982
 30
0.0
 11
5113.330915437632
 21
6838.6586358380982
 31
0.0
  0
LINE
  5
5E3
  8
1
 62
     7
 10
5113.330915437632
 20
6838.6586358380982
 30
0.0
 11
5121.3099154376314
 21
6838.6586358380982
 31
0.0
  0
LINE
  5
5E4
  8
1
 62
     7
 10
5121.3099154376314
 20
6838.6586358380982
 30
0.0
 11
5129.2889154376326
 21
6838.6586358380982
 31
0.0
  0
LINE
  5
5E5
  8
1
 62
     7
 10
5129.2889154376326
 20
6838.6586358380982
 30
0.0
 11
5137.2649154376331
 21
6838.6586358380982
 31
0.0
  0
LINE
  5
5E6
  8
1
 62
     7
 10
5137.2649154376331
 20
6838.6586358380982
 30
0.0
 11
5145.2429154376323
 21
6838.6586358380982
 31
0.0
  0
LINE
  5
5E7
  8
1
 62
     7
 10
5145.2429154376323
 20
6838.6586358380982
 30
0.0
 11
5153.2189154376319
 21
6838.6586358380982
 31
0.0
  0
LINE
  5
5E8
  8
1
 62
     7
 10
5153.2189154376319
 20
6838.6586358380982
 30
0.0
 11
5161.1979154376322
 21
6838.6586358380982
 31
0.0
  0
LINE
  5
5E9
  8
1
 62
     7
 10
5161.1979154376322
 20
6838.6586358380982
 30
0.0
 11
5169.1729154376326
 21
6838.6586358380982
 31
0.0
  0
LINE
  5
5EA
  8
1
 62
     7
 10
5169.1729154376326
 20
6838.6586358380982
 30
0.0
 11
5177.1520154376321
 21
6838.6586358380982
 31
0.0
  0
LINE
  5
5EB
  8
1
 62
     7
 10
5177.1520154376321
 20
6838.6586358380982
 30
0.0
 11
5185.1309154376322
 21
6838.6556358380976
 31
0.0
  0
LINE
  5
5EC
  8
1
 62
     7
 10
5185.1309154376322
 20
6838.6556358380976
 30
0.0
 11
5193.1063154376334
 21
6838.6556358380976
 31
0.0
  0
LINE
  5
5ED
  8
1
 62
     7
 10
5193.1063154376334
 20
6838.6556358380976
 30
0.0
 11
5201.0852154376344
 21
6838.6556358380976
 31
0.0
  0
LINE
  5
5EE
  8
1
 62
     7
 10
5201.0852154376344
 20
6838.6556358380976
 30
0.0
 11
5209.0607154376321
 21
6838.6556358380976
 31
0.0
  0
LINE
  5
5EF
  8
1
 62
     7
 10
5209.0607154376321
 20
6838.6556358380976
 30
0.0
 11
5217.039515437632
 21
6838.6556358380976
 31
0.0
  0
LINE
  5
5F0
  8
1
 62
     7
 10
5217.039515437632
 20
6838.6556358380976
 30
0.0
 11
5225.0150154376306
 21
6838.6556358380976
 31
0.0
  0
LINE
  5
5F1
  8
1
 62
     7
 10
5225.0150154376306
 20
6838.6556358380976
 30
0.0
 11
5232.9939154376334
 21
6838.6556358380976
 31
0.0
  0
LINE
  5
5F2
  8
1
 62
     7
 10
5232.9939154376334
 20
6838.6556358380976
 30
0.0
 11
5240.9693154376328
 21
6838.6556358380976
 31
0.0
  0
LINE
  5
5F3
  8
1
 62
     7
 10
5240.9693154376328
 20
6838.6556358380976
 30
0.0
 11
5248.9482154376319
 21
6838.6556358380976
 31
0.0
  0
LINE
  5
5F4
  8
1
 62
     7
 10
5258.4945209150446
 20
6790.1913235644488
 30
0.0
 11
5258.4912154376334
 21
6780.7356358380976
 31
0.0
  0
LINE
  5
5F5
  8
1
 62
     7
 10
5258.4912154376334
 20
6780.7356358380976
 30
0.0
 11
5258.4912154376334
 21
6771.2756358380984
 31
0.0
  0
LINE
  5
5F6
  8
1
 62
     7
 10
5258.4912154376334
 20
6771.2756358380984
 30
0.0
 11
5258.4912154376334
 21
6762.1016358380984
 31
0.0
  0
LINE
  5
5F7
  8
1
 62
     7
 10
4961.9734159789978
 20
6665.3245347843776
 30
0.0
 11
4961.9975304343861
 21
6752.3516358380994
 31
0.0
  0
LINE
  5
5F8
  8
1
 62
     7
 10
4964.6739154376319
 20
6838.1936358380972
 30
0.0
 11
4964.6739154376319
 21
6752.3516358380994
 31
0.0
  0
LINE
  5
5F9
  8
1
 62
     7
 10
5263.0491054376344
 20
6762.1016358380984
 30
0.0
 11
5263.0491040750476
 21
6840.3571634001673
 31
0.0
  0
LINE
  5
5FA
  8
1
 62
     7
 10
4832.0509154376323
 20
6877.3506358380982
 30
0.0
 11
4832.0509154376323
 21
6752.3516358380994
 31
0.0
  0
LINE
  5
5FB
  8
1
 62
     7
 10
5422.0519154376334
 20
6877.3506358380973
 30
0.0
 11
5422.0519154376334
 21
6752.3516358380994
 31
0.0
  0
LINE
  5
5FC
  8
1
 62
     7
 10
5422.0519154376334
 20
6877.3506358380973
 30
0.0
 11
5404.053915437632
 21
6877.3506358380973
 31
0.0
  0
LINE
  5
5FD
  8
1
 62
     7
 10
5374.053915437632
 20
6877.3506358380973
 30
0.0
 11
5389.053915437632
 21
6877.3506358380973
 31
0.0
  0
LINE
  5
5FE
  8
1
  6
DASHED
 62
     7
 10
4892.0509154376323
 20
6877.3506358380973
 30
0.0
 11
4892.0509154376323
 21
6837.3526358380977
 31
0.0
  0
LINE
  5
5FF
  8
1
  6
DASHED
 62
     7
 10
4892.0509154376323
 20
6877.3506358380973
 30
0.0
 11
4877.0509154376323
 21
6877.3506358380973
 31
0.0
  0
LINE
  5
600
  8
1
  6
DASHED
 62
     7
 10
4877.0509154376323
 20
6752.3516358380994
 30
0.0
 11
4877.0508985470724
 21
6680.4382623612746
 31
0.0
  0
LINE
  5
601
  8
1
  6
DASHED
 62
     7
 10
4907.050954330276
 20
6752.3516358380994
 30
0.0
 11
4907.0509767056647
 21
6680.4382675972756
 31
0.0
  0
LINE
  5
602
  8
1
  6
DASHED
 62
     7
 10
4892.0509154376323
 20
6752.3516358380994
 30
0.0
 11
4892.0509154376323
 21
6705.85289524376
 31
0.0
  0
LINE
  5
603
  8
1
  6
DASHED
 62
     7
 10
5362.0519154376334
 20
6677.3522668397263
 30
0.0
 11
5362.0519154376334
 21
6669.3777741975373
 31
0.0
  0
LINE
  5
604
  8
1
  6
DASHED
 62
     7
 10
5359.2477208440396
 20
6837.3526358380977
 30
0.0
 11
5350.5549154376331
 21
6837.3526358380977
 31
0.0
  0
LINE
  5
605
  8
1
  6
DASHED
 62
     7
 10
5355.0517905550441
 20
6841.358456748706
 30
0.0
 11
5355.0519154376334
 21
6832.8526358380977
 31
0.0
  0
LINE
  5
606
  8
1
  6
DASHED
 62
     7
 10
5373.2452323037978
 20
6787.3536358380979
 30
0.0
 11
5365.0519154376334
 21
6787.3536358380979
 31
0.0
  0
LINE
  5
607
  8
1
  6
DASHED
 62
     7
 10
5369.0527469009576
 20
6791.3594699206278
 30
0.0
 11
5369.0529154376327
 21
6782.853635838097
 31
0.0
  0
LINE
  5
608
  8
1
  6
DASHED
 62
     7
 10
5362.0519154376334
 20
6705.8528819393177
 30
0.0
 11
5362.0519154376334
 21
6702.3526358380977
 31
0.0
  0
LINE
  5
609
  8
1
  6
DASHED
 62
     7
 10
5362.0519154376334
 20
6698.8524302773203
 30
0.0
 11
5362.0519154376334
 21
6677.3522668397263
 31
0.0
  0
LINE
  5
60A
  8
1
  6
DASHED
 62
     7
 10
5366.2481853205882
 20
6702.3526358380977
 30
0.0
 11
5357.5519154376343
 21
6702.3526358380977
 31
0.0
  0
LINE
  5
60B
  8
1
  6
DASHED
 62
     7
 10
5362.0519154376334
 20
6702.3526358380977
 30
0.0
 11
5362.0519154376334
 21
6698.8524302773203
 31
0.0
  0
LINE
  5
60C
  8
1
  6
DASHED
 62
     7
 10
5362.0519154376334
 20
6787.3536358380979
 30
0.0
 11
5362.0519154376334
 21
6770.8556358380993
 31
0.0
  0
LINE
  5
60D
  8
1
  6
DASHED
 62
     7
 10
5362.0519154376334
 20
6837.3526358380977
 30
0.0
 11
5362.0519154376334
 21
6787.3536358380979
 31
0.0
  0
LINE
  5
60E
  8
1
  6
DASHED
 62
     7
 10
5362.0519154376334
 20
6877.3506358380973
 30
0.0
 11
5377.0519154376334
 21
6877.3506358380973
 31
0.0
  0
LINE
  5
60F
  8
1
  6
DASHED
 62
     7
 10
5362.0519154376334
 20
6877.3506358380973
 30
0.0
 11
5362.0519154376334
 21
6837.3526358380977
 31
0.0
  0
LINE
  5
610
  8
1
  6
DASHED
 62
     7
 10
4892.0509154376323
 20
6837.3526358380977
 30
0.0
 11
4892.0509154376323
 21
6787.3536358380979
 31
0.0
  0
LINE
  5
611
  8
1
  6
DASHED
 62
     7
 10
4892.0509154376323
 20
6787.3536358380979
 30
0.0
 11
4892.0509154376323
 21
6752.3516358380994
 31
0.0
  0
LINE
  5
612
  8
1
  6
DASHED
 62
     7
 10
4892.0509154376323
 20
6702.3526358380977
 30
0.0
 11
4892.0509154376323
 21
6698.8524174324284
 31
0.0
  0
LINE
  5
613
  8
1
  6
DASHED
 62
     7
 10
4892.0509154376323
 20
6698.8524174324284
 30
0.0
 11
4892.0509154376323
 21
6677.3960598381009
 31
0.0
  0
LINE
  5
614
  8
1
  6
DASHED
 62
     7
 10
4892.0509154376323
 20
6705.85289524376
 30
0.0
 11
4892.0509154376323
 21
6702.3526358380977
 31
0.0
  0
LINE
  5
615
  8
1
  6
DASHED
 62
     7
 10
4892.0509154376323
 20
6677.3960598381009
 30
0.0
 11
4892.0509154376323
 21
6669.3777741975373
 31
0.0
  0
LINE
  5
616
  8
1
  6
DASHED
 62
     7
 10
4877.0509154376323
 20
6877.3506358380973
 30
0.0
 11
4877.0509154376323
 21
6752.3516358380994
 31
0.0
  0
LINE
  5
617
  8
1
  6
DASHED
 62
     7
 10
5377.0519154376334
 20
6877.3506358380973
 30
0.0
 11
5377.0519154376334
 21
6770.8556358380993
 31
0.0
  0
LINE
  5
618
  8
1
  6
DASHED
 62
     7
 10
5347.0519154376334
 20
6877.3506358380973
 30
0.0
 11
5347.0520880431222
 21
6770.8556358380993
 31
0.0
  0
LINE
  5
619
  8
1
  6
DASHED
 62
     7
 10
4907.0509154376332
 20
6877.3506358380973
 30
0.0
 11
4907.050954330276
 21
6752.3516358380994
 31
0.0
  0
LINE
  5
61A
  8
1
  6
DASHED
 62
     7
 10
5347.0519154376334
 20
6877.3506358380973
 30
0.0
 11
5362.0519154376334
 21
6877.3506358380973
 31
0.0
  0
LINE
  5
61B
  8
1
 62
     7
 10
6595.0426676568513
 20
4937.3493912701642
 30
0.0
 11
6842.0439015978127
 21
4937.349399410361
 31
0.0
  0
LINE
  5
61C
  8
1
 62
     7
 10
6717.0449015978129
 20
5118.3522981302303
 30
0.0
 11
6726.5429015978134
 21
5118.3522981302303
 31
0.0
  0
LINE
  5
61D
  8
1
 62
     7
 10
6717.0449015978129
 20
5018.3475981302308
 30
0.0
 11
6737.0439015978118
 21
5018.3475981302308
 31
0.0
  0
LINE
  5
61E
  8
1
 62
     7
 10
6717.0449015978129
 20
5111.3522981302303
 30
0.0
 11
6722.0439015978127
 21
5111.3522981302303
 31
0.0
  0
LINE
  5
61F
  8
1
 62
     7
 10
6717.0449015978129
 20
5017.34848870107
 30
0.0
 11
6726.5429015978134
 21
5017.3484894175417
 31
0.0
  0
LINE
  5
620
  8
1
 62
     7
 10
6707.5469015978133
 20
5118.3522981302303
 30
0.0
 11
6717.0449015978129
 21
5118.3522981302303
 31
0.0
  0
LINE
  5
621
  8
1
 62
     7
 10
6726.5429015978134
 20
5118.3522981302303
 30
0.0
 11
6737.5429015978116
 21
5118.3522981302303
 31
0.0
  0
LINE
  5
622
  8
1
 62
     7
 10
6697.0419015978123
 20
5018.3475981302308
 30
0.0
 11
6717.0449015978129
 21
5018.3475981302308
 31
0.0
  0
LINE
  5
623
  8
1
 62
     7
 10
6737.0439015978118
 20
5018.3475981302308
 30
0.0
 11
6737.5429015978116
 21
5018.3475981302308
 31
0.0
  0
LINE
  5
624
  8
1
 62
     7
 10
6696.5429015978134
 20
5102.3502981302308
 30
0.0
 11
6696.5429015978134
 21
5018.3475981302308
 31
0.0
  0
LINE
  5
625
  8
1
 62
     7
 10
6737.5429015978116
 20
5102.3502981302308
 30
0.0
 11
6737.5429015978116
 21
5018.3475981302308
 31
0.0
  0
LINE
  5
626
  8
1
 62
     7
 10
6722.0439015978127
 20
5102.3502981302308
 30
0.0
 11
6722.0439015978127
 21
5111.3522981302303
 31
0.0
  0
LINE
  5
627
  8
1
 62
     7
 10
6697.0419015978123
 20
5017.3484876449211
 30
0.0
 11
6700.5389015978126
 21
5017.3484879087137
 31
0.0
  0
LINE
  5
628
  8
1
 62
     7
 10
6726.5429015978134
 20
5017.3484894175417
 30
0.0
 11
6727.5419015978132
 21
5017.3484894928997
 31
0.0
  0
LINE
  5
629
  8
1
 62
     7
 10
6707.5469015978133
 20
5017.3484879846001
 30
0.0
 11
6717.0449015978129
 21
5017.34848870107
 31
0.0
  0
LINE
  5
62A
  8
1
 62
     7
 10
6700.5389015978126
 20
5017.3484879087137
 30
0.0
 11
6707.5469015978133
 21
5017.3484879846001
 31
0.0
  0
LINE
  5
62B
  8
1
 62
     7
 10
6727.5419015978132
 20
5017.3484894928997
 30
0.0
 11
6737.0439015978118
 21
5017.3484897572207
 31
0.0
  0
LINE
  5
62C
  8
1
 62
     7
 10
6712.0419015978132
 20
5102.3502981302308
 30
0.0
 11
6712.0419015978132
 21
5111.3522981302303
 31
0.0
  0
LINE
  5
62D
  8
1
 62
     7
 10
6737.0439015978118
 20
5018.3475981302308
 30
0.0
 11
6737.0439015978118
 21
5017.3484897572207
 31
0.0
  0
LINE
  5
62E
  8
1
 62
     7
 10
6697.0419015978123
 20
5017.3484876449211
 30
0.0
 11
6697.0419015978123
 21
5018.3475981302308
 31
0.0
  0
LINE
  5
62F
  8
1
 62
     7
 10
6707.5469015978133
 20
5118.3522981302303
 30
0.0
 11
6707.5464407193986
 21
5239.8513807408754
 31
0.0
  0
LINE
  5
630
  8
1
 62
     7
 10
6726.5429015978134
 20
5118.3522981302303
 30
0.0
 11
6726.5428174504495
 21
5239.8513767186796
 31
0.0
  0
LINE
  5
631
  8
1
 62
     7
 10
6696.5429015978134
 20
5118.3522981302303
 30
0.0
 11
6707.5469015978133
 21
5118.3522981302303
 31
0.0
  0
LINE
  5
632
  8
1
 62
     7
 10
6696.5429015978134
 20
5018.3475981302308
 30
0.0
 11
6697.0419015978123
 21
5018.3475981302308
 31
0.0
  0
LINE
  5
633
  8
1
 62
     7
 10
6696.5429015978134
 20
5118.3522981302303
 30
0.0
 11
6696.5429015978134
 21
5102.3502981302308
 31
0.0
  0
LINE
  5
634
  8
1
 62
     7
 10
6712.0419015978132
 20
5097.1612981302314
 30
0.0
 11
6712.0419015978132
 21
5102.3502981302308
 31
0.0
  0
LINE
  5
635
  8
1
 62
     7
 10
6722.0439015978127
 20
5097.1612981302314
 30
0.0
 11
6722.0439015978127
 21
5102.3502981302308
 31
0.0
  0
LINE
  5
636
  8
1
 62
     7
 10
6712.0419015978132
 20
5111.3522981302303
 30
0.0
 11
6717.0449015978129
 21
5111.3522981302303
 31
0.0
  0
LINE
  5
637
  8
1
 62
     7
 10
6737.5429015978116
 20
5118.3522981302303
 30
0.0
 11
6737.5429015978116
 21
5102.3502981302308
 31
0.0
  0
LINE
  5
638
  8
1
 62
     7
 10
6722.0439015978127
 20
5102.3502981302308
 30
0.0
 11
6737.5429015978116
 21
5102.3502981302308
 31
0.0
  0
LINE
  5
639
  8
1
 62
     7
 10
6696.5429015978134
 20
5102.3502981302308
 30
0.0
 11
6712.0419015978132
 21
5102.3502981302308
 31
0.0
  0
LINE
  5
63A
  8
1
 62
     7
 10
6724.4269015978116
 20
4933.8454109185059
 30
0.0
 11
6736.5339015978116
 21
4933.8454109185059
 31
0.0
  0
LINE
  5
63B
  8
1
 62
     7
 10
6724.4269015978116
 20
4935.3475109185047
 30
0.0
 11
6747.5339064221062
 21
4935.3475109185047
 31
0.0
  0
LINE
  5
63C
  8
1
  6
DASHED
 62
     7
 10
6837.0416423165998
 20
4963.4460412186081
 30
0.0
 11
6837.041583681932
 21
4969.3476144504993
 31
0.0
  0
LINE
  5
63D
  8
1
  6
DASHED
 62
     7
 10
6837.0417734783323
 20
4950.2446267524747
 30
0.0
 11
6837.0416423165998
 21
4963.4460412186081
 31
0.0
  0
LINE
  5
63E
  8
1
  6
DASHED
 62
     7
 10
6837.0418906823361
 20
4938.4480556659773
 30
0.0
 11
6837.0418320794088
 21
4944.3464344504991
 31
0.0
  0
LINE
  5
63F
  8
1
 62
     7
 10
6837.0419015978132
 20
4926.8796570330423
 30
0.0
 11
6837.0419015978132
 21
4910.9288737304796
 31
0.0
  0
LINE
  5
640
  8
1
 62
     7
 10
6837.0419015978132
 20
4910.9288737304796
 30
0.0
 11
6837.0419015978132
 21
4890.2445319853914
 31
0.0
  0
LINE
  5
641
  8
1
 62
     7
 10
6837.0419015978132
 20
4878.4479326528244
 30
0.0
 11
6837.0419015978132
 21
4859.3450144504995
 31
0.0
  0
LINE
  5
642
  8
1
 62
     7
 10
6837.0419015978132
 20
4890.2445319853914
 30
0.0
 11
6837.0419015978132
 21
4884.3463144505004
 31
0.0
  0
LINE
  5
643
  8
1
 62
     7
 10
6842.0439015978127
 20
4941.8487004188346
 30
0.0
 11
6842.0439015978127
 21
4886.8440144504993
 31
0.0
  0
LINE
  5
644
  8
1
 62
     7
 10
6842.0439015978127
 20
4946.8441304188354
 30
0.0
 11
6842.0439015978127
 21
4941.8487004188346
 31
0.0
  0
LINE
  5
645
  8
1
 62
     7
 10
6778.6229528399526
 20
5017.34848870107
 30
0.0
 11
6808.0409015978121
 21
5017.34848870107
 31
0.0
  0
LINE
  5
646
  8
1
 62
     7
 10
6655.4628500941071
 20
5017.34848870107
 30
0.0
 11
6655.5667412288039
 21
5017.34848870107
 31
0.0
  0
LINE
  5
647
  8
1
 62
     7
 10
6778.5190619645082
 20
5017.34848870107
 30
0.0
 11
6778.6229528399526
 21
5017.34848870107
 31
0.0
  0
LINE
  5
648
  8
1
 62
     7
 10
6626.0419015978132
 20
5017.34848870107
 30
0.0
 11
6655.4628500941071
 21
5017.34848870107
 31
0.0
  0
LINE
  5
649
  8
1
 62
     7
 10
6747.5339064221062
 20
4935.3475109185047
 30
0.0
 11
6749.5319015978121
 21
4935.3475109185047
 31
0.0
  0
LINE
  5
64A
  8
1
 62
     7
 10
6686.5277442735842
 20
4935.3475109185047
 30
0.0
 11
6709.6642015978123
 21
4935.3475109185047
 31
0.0
  0
LINE
  5
64B
  8
1
 62
     7
 10
6595.0426673345692
 20
5017.34848870107
 30
0.0
 11
6697.0419015978123
 21
5017.34848870107
 31
0.0
  0
LINE
  5
64C
  8
1
 62
     7
 10
6629.0080782641699
 20
5077.34832442276
 30
0.0
 11
6696.5429015978134
 21
5077.3483959567247
 31
0.0
  0
LINE
  5
64D
  8
1
  6
DASHED
 62
     7
 10
6642.0449015978129
 20
4999.3443144505
 30
0.0
 11
6822.0414468849467
 21
4999.3442833769113
 31
0.0
  0
LINE
  5
64E
  8
1
 62
     7
 10
6842.0439015978127
 20
4971.8453004188341
 30
0.0
 11
6842.0439015978127
 21
4969.3476004188342
 31
0.0
  0
LINE
  5
64F
  8
1
 62
     7
 10
6842.0439015978127
 20
4969.3476004188342
 30
0.0
 11
6842.0439015978127
 21
4966.8499004188343
 31
0.0
  0
LINE
  5
650
  8
1
  6
DASHED
 62
     7
 10
6726.3569015978137
 20
4975.6441585320272
 30
0.0
 11
6726.6119079520822
 21
4975.486814450499
 31
0.0
  0
LINE
  5
651
  8
1
  6
DASHED
 62
     7
 10
6726.6119079520822
 20
4975.486814450499
 30
0.0
 11
6726.7023289123508
 21
4975.4310228880286
 31
0.0
  0
LINE
  5
652
  8
1
  6
DIVIDE
 62
     7
 10
6667.0419015978123
 20
4999.3443015710782
 30
0.0
 11
6698.0788932307214
 21
4999.3442962130257
 31
0.0
  0
LINE
  5
653
  8
1
  6
DASHED
 62
     7
 10
6726.7023289123508
 20
4975.4310228880286
 30
0.0
 11
6731.0419015978123
 21
4972.7534187147103
 31
0.0
  0
LINE
  5
654
  8
1
 62
     7
 10
6684.5299015978117
 20
4935.3475109185047
 30
0.0
 11
6686.5277442735842
 21
4935.3475109185047
 31
0.0
  0
LINE
  5
655
  8
1
  6
DASHED
 62
     7
 10
6717.0449015978129
 20
4999.3442929388411
 30
0.0
 11
6718.3059111330376
 21
4999.3442927211472
 31
0.0
  0
LINE
  5
656
  8
1
  6
DASHED
 62
     7
 10
6717.0449015978129
 20
4981.3898509928304
 30
0.0
 11
6726.3569015978137
 21
4975.6441585320272
 31
0.0
  0
LINE
  5
657
  8
1
  6
DASHED
 62
     7
 10
6717.0449015978129
 20
4994.3488347097891
 30
0.0
 11
6729.071901597812
 21
4994.3488379585679
 31
0.0
  0
LINE
  5
658
  8
1
 62
     7
 10
6837.0419015978132
 20
4937.3494141043138
 30
0.0
 11
6837.0419015978132
 21
4926.8796570330423
 31
0.0
  0
LINE
  5
659
  8
1
 62
     7
 10
6837.0419015978132
 20
4884.3463144505004
 30
0.0
 11
6837.0419015978132
 21
4878.4479326528244
 31
0.0
  0
LINE
  5
65A
  8
1
 62
     7
 10
6842.0439015978127
 20
4884.3463144505004
 30
0.0
 11
6842.0439015978127
 21
4881.8485144504994
 31
0.0
  0
LINE
  5
65B
  8
1
 62
     7
 10
6842.0439015978127
 20
4886.8440144504993
 30
0.0
 11
6842.0439015978127
 21
4884.3463144505004
 31
0.0
  0
LINE
  5
65C
  8
1
 62
     7
 10
6842.0439015978127
 20
4881.8485144504994
 30
0.0
 11
6842.0439015978127
 21
4859.3450144504995
 31
0.0
  0
LINE
  5
65D
  8
1
 62
     7
 10
6685.3288972682412
 20
4937.3491000723634
 30
0.0
 11
6684.5299015978117
 21
4935.3475109185047
 31
0.0
  0
LINE
  5
65E
  8
1
 62
     7
 10
6748.7329041757166
 20
4937.3491044605116
 30
0.0
 11
6749.5319015978121
 21
4935.3475109185047
 31
0.0
  0
LINE
  5
65F
  8
1
 62
     7
 10
6655.4628500941071
 20
5017.34848870107
 30
0.0
 11
6655.7529015978134
 21
5015.7841109185056
 31
0.0
  0
LINE
  5
660
  8
1
  6
DASHED
 62
     7
 10
6778.5190619645082
 20
5017.34848870107
 30
0.0
 11
6768.1250567905372
 21
4999.344292684732
 31
0.0
  0
LINE
  5
661
  8
1
  6
DIVIDE
 62
     7
 10
6787.0459015978131
 20
5017.34848870107
 30
0.0
 11
6787.0459015978131
 21
4999.3442994103607
 31
0.0
  0
LINE
  5
662
  8
1
  6
DASHED
 62
     7
 10
6610.0429015978116
 20
4999.3442994103607
 30
0.0
 11
6642.0449015978129
 21
4999.3442994103607
 31
0.0
  0
LINE
  5
663
  8
1
 62
     7
 10
6592.0419015978132
 20
4999.3442994103607
 30
0.0
 11
6592.0419015978132
 21
4940.3465994103608
 31
0.0
  0
LINE
  5
664
  8
1
  6
DIVIDE
 62
     7
 10
6768.124881558454
 20
4999.3442841206806
 30
0.0
 11
6776.4368171386213
 21
4999.3442826857554
 31
0.0
  0
LINE
  5
665
  8
1
  6
DIVIDE
 62
     7
 10
6776.4368171386213
 20
4999.3442762096965
 30
0.0
 11
6802.0429015978116
 21
4999.3442717892076
 31
0.0
  0
LINE
  5
666
  8
1
  6
DASHED
 62
     7
 10
6752.0439015978118
 20
4999.3442868968104
 30
0.0
 11
6768.124881558454
 21
4999.3442841206806
 31
0.0
  0
LINE
  5
667
  8
1
  6
DIVIDE
 62
     7
 10
6802.0429015978116
 20
4999.3442717892076
 30
0.0
 11
6842.0439015978127
 21
4999.3442994103607
 31
0.0
  0
LINE
  5
668
  8
1
  6
DASHED
 62
     7
 10
6727.5209015978116
 20
4999.3442911303237
 30
0.0
 11
6729.7088619542574
 21
4999.344290752606
 31
0.0
  0
LINE
  5
669
  8
1
  6
DASHED
 62
     7
 10
6706.5649015978124
 20
4999.344294748048
 30
0.0
 11
6707.7483425258033
 21
4999.3442945437464
 31
0.0
  0
LINE
  5
66A
  8
1
  6
DASHED
 62
     7
 10
6726.3569015978137
 20
4999.3442913312692
 30
0.0
 11
6727.5209015978116
 21
4999.3442911303237
 31
0.0
  0
LINE
  5
66B
  8
1
  6
DASHED
 62
     7
 10
6707.7483425258033
 20
4999.3442945437464
 30
0.0
 11
6710.9468833873561
 21
4999.3442939915694
 31
0.0
  0
LINE
  5
66C
  8
1
  6
DASHED
 62
     7
 10
6730.6885135206958
 20
4962.3468609185056
 30
0.0
 11
6747.9072386080043
 21
4962.3468609185056
 31
0.0
  0
LINE
  5
66D
  8
1
  6
DASHED
 62
     7
 10
6709.6619015978122
 20
4940.3463109185059
 30
0.0
 11
6710.7577034292481
 21
4940.3463120340512
 31
0.0
  0
LINE
  5
66E
  8
1
  6
DASHED
 62
     7
 10
6688.5599015978123
 20
4940.3463109185059
 30
0.0
 11
6709.6619015978122
 21
4940.3463109185059
 31
0.0
  0
LINE
  5
66F
  8
1
  6
DASHED
 62
     7
 10
6745.4978289378614
 20
4940.3463474001264
 30
0.0
 11
6749.0499015978112
 21
4940.3463109185059
 31
0.0
  0
LINE
  5
670
  8
1
  6
DASHED
 62
     7
 10
6668.845049287137
 20
4994.3488216898577
 30
0.0
 11
6672.9436307847927
 21
4994.3488227969847
 31
0.0
  0
LINE
  5
671
  8
1
  6
DASHED
 62
     7
 10
6664.5449015978129
 20
5001.7970025394116
 30
0.0
 11
6655.5667412288039
 21
5017.34848870107
 31
0.0
  0
LINE
  5
672
  8
1
  6
DASHED
 62
     7
 10
6665.9610613780433
 20
4999.3443017576674
 30
0.0
 11
6667.0419015978123
 21
4999.3443015710782
 31
0.0
  0
LINE
  5
673
  8
1
  6
DASHED
 62
     7
 10
6670.1916022082714
 20
4992.0160916630985
 30
0.0
 11
6670.1914633890938
 21
4992.0163321182054
 31
0.0
  0
LINE
  5
674
  8
1
  6
DASHED
 62
     7
 10
6756.5693141813026
 20
4979.3280721176152
 30
0.0
 11
6758.1499016931812
 21
4978.3528333551731
 31
0.0
  0
LINE
  5
675
  8
1
  6
DASHED
 62
     7
 10
6765.2409604618088
 20
4994.3488477286955
 30
0.0
 11
6775.8569390504863
 21
4994.3488505963242
 31
0.0
  0
LINE
  5
676
  8
1
  6
DASHED
 62
     7
 10
6765.2409604618088
 20
4994.3485441967014
 30
0.0
 11
6756.5694433888584
 21
4979.3279923952232
 31
0.0
  0
LINE
  5
677
  8
1
  6
DASHED
 62
     7
 10
6758.1499016931812
 20
4978.3528333551731
 30
0.0
 11
6824.6049015978133
 21
4937.3494144504994
 31
0.0
  0
LINE
  5
678
  8
1
  6
DASHED
 62
     7
 10
6729.071901597812
 20
4994.3488379585679
 30
0.0
 11
6730.807849060262
 21
4994.3488637718374
 31
0.0
  0
LINE
  5
679
  8
1
  6
DASHED
 62
     7
 10
6705.0729015978122
 20
4994.3488314758661
 30
0.0
 11
6717.0449015978129
 21
4994.3488347097891
 31
0.0
  0
LINE
  5
67A
  8
1
  6
DASHED
 62
     7
 10
6658.2329359807409
 20
4994.3485152912799
 30
0.0
 11
6658.5979015978119
 21
4991.1963109185053
 31
0.0
  0
LINE
  5
67B
  8
1
  6
DASHED
 62
     7
 10
6658.2329359807409
 20
4994.3488188232741
 30
0.0
 11
6661.1441640238627
 21
4994.348819609665
 31
0.0
  0
LINE
  5
67C
  8
1
  6
DASHED
 62
     7
 10
6667.0419015978123
 20
4994.348821202786
 30
0.0
 11
6668.845049287137
 21
4994.3488216898577
 31
0.0
  0
LINE
  5
67D
  8
1
  6
DASHED
 62
     7
 10
6730.807849060262
 20
4994.3488637718374
 30
0.0
 11
6746.1420804564441
 21
4994.3488425696314
 31
0.0
  0
LINE
  5
67E
  8
1
  6
DASHED
 62
     7
 10
6703.0910139738671
 20
4994.3488309405111
 30
0.0
 11
6705.0729015978122
 21
4994.3488314758661
 31
0.0
  0
LINE
  5
67F
  8
1
  6
DASHED
 62
     7
 10
6672.9436307847927
 20
4994.3488227969847
 30
0.0
 11
6703.0910139738671
 21
4994.3488309405111
 31
0.0
  0
LINE
  5
680
  8
1
  6
DASHED
 62
     7
 10
6661.1441640238627
 20
4994.348819609665
 30
0.0
 11
6667.0419015978123
 21
4994.348821202786
 31
0.0
  0
LINE
  5
681
  8
1
  6
DASHED
 62
     7
 10
6775.8569390504863
 20
4994.3485470643309
 30
0.0
 11
6775.8569742849268
 21
4994.3488505963332
 31
0.0
  0
LINE
  5
682
  8
1
  6
DASHED
 62
     7
 10
6775.8569390504863
 20
4994.3488505963242
 30
0.0
 11
6796.1445018908644
 21
4994.348856076479
 31
0.0
  0
LINE
  5
683
  8
1
  6
DASHED
 62
     7
 10
6752.0439015978118
 20
4994.3488441638547
 30
0.0
 11
6757.9415793035632
 21
4994.3488457569592
 31
0.0
  0
LINE
  5
684
  8
1
  6
DASHED
 62
     7
 10
6802.0429015978116
 20
4994.3488576697782
 30
0.0
 11
6807.9440211710498
 21
4994.3488592638123
 31
0.0
  0
LINE
  5
685
  8
1
  6
DASHED
 62
     7
 10
6807.9440211710498
 20
4994.3488592638123
 30
0.0
 11
6822.0414463266452
 21
4994.3488630718621
 31
0.0
  0
LINE
  5
686
  8
1
  6
DASHED
 62
     7
 10
6796.1445018908644
 20
4994.348856076479
 30
0.0
 11
6802.0429015978116
 21
4994.3488576697782
 31
0.0
  0
LINE
  5
687
  8
1
  6
DASHED
 62
     7
 10
6757.9415793035632
 20
4994.3488457569592
 30
0.0
 11
6765.2409604618088
 21
4994.3488477286955
 31
0.0
  0
LINE
  5
688
  8
1
  6
DASHED
 62
     7
 10
6746.1420804564441
 20
4994.3488425696314
 30
0.0
 11
6752.0439015978118
 21
4994.3488441638547
 31
0.0
  0
LINE
  5
689
  8
1
 62
     7
 10
6736.5339015978116
 20
4933.8454109185059
 30
0.0
 11
6737.5289015978124
 21
4933.8454109185059
 31
0.0
  0
LINE
  5
68A
  8
1
 62
     7
 10
6737.5289015978124
 20
4933.8454109185059
 30
0.0
 11
6744.9399015978133
 21
4933.8454109185059
 31
0.0
  0
LINE
  5
68B
  8
1
  6
DASHED
 62
     7
 10
6657.6545524290877
 20
4999.3443031916559
 30
0.0
 11
6665.9610613780433
 21
4999.3443017576674
 31
0.0
  0
LINE
  5
68C
  8
1
  6
DASHED
 62
     7
 10
6731.0419015978123
 20
4968.8297963474388
 30
0.0
 11
6727.5222015978134
 21
4968.833879106829
 31
0.0
  0
LINE
  5
68D
  8
1
  6
DASHED
 62
     7
 10
6703.043648703715
 20
4968.8622735841063
 30
0.0
 11
6685.8559015978126
 21
4968.8822109185057
 31
0.0
  0
LINE
  5
68E
  8
1
  6
DASHED
 62
     7
 10
6706.5614959013456
 20
4987.8583244758302
 30
0.0
 11
6707.7289015978122
 21
4987.1380115345828
 31
0.0
  0
LINE
  5
68F
  8
1
  6
DASHED
 62
     7
 10
6707.7289015978122
 20
4987.1380115345828
 30
0.0
 11
6717.0449015978129
 21
4981.3898509928304
 31
0.0
  0
LINE
  5
690
  8
1
  6
DASHED
 62
     7
 10
6731.0419015978123
 20
4972.7534187147103
 30
0.0
 11
6737.412370776482
 21
4968.8227103028048
 31
0.0
  0
LINE
  5
691
  8
1
 62
     7
 10
6696.5289015978133
 20
4933.8454109185059
 30
0.0
 11
6697.5319015978121
 21
4933.8454109185059
 31
0.0
  0
LINE
  5
692
  8
1
 62
     7
 10
6697.5319015978121
 20
4933.8454109185059
 30
0.0
 11
6709.6642015978123
 21
4933.8454109185059
 31
0.0
  0
LINE
  5
693
  8
1
  6
DASHED
 62
     7
 10
6837.041583681932
 20
4969.3476144504993
 30
0.0
 11
6837.0414843498584
 21
4979.3453772693638
 31
0.0
  0
LINE
  5
694
  8
1
  6
DASHED
 62
     7
 10
6837.0418320794088
 20
4944.3464344504991
 30
0.0
 11
6837.0417734783323
 21
4950.2446267524747
 31
0.0
  0
LINE
  5
695
  8
1
  6
DASHED
 62
     7
 10
6750.8751751787449
 20
4960.5158875198022
 30
0.0
 11
6788.4209015978131
 21
4937.3494144504994
 31
0.0
  0
LINE
  5
696
  8
1
  6
DASHED
 62
     7
 10
6750.8751751787449
 20
4960.5155839878089
 30
0.0
 11
6750.8752011949846
 21
4960.5158714672561
 31
0.0
  0
LINE
  5
697
  8
1
 62
     7
 10
6860.1479015978121
 20
4971.8453004188341
 30
0.0
 11
6862.1499015978134
 21
4971.8453004188341
 31
0.0
  0
LINE
  5
698
  8
1
 62
     7
 10
6854.1469015978118
 20
4971.8453004188341
 30
0.0
 11
6856.1479015978121
 21
4971.8453004188341
 31
0.0
  0
LINE
  5
699
  8
1
 62
     7
 10
6848.1519015978129
 20
4971.8453004188341
 30
0.0
 11
6850.1499015978134
 21
4971.8453004188341
 31
0.0
  0
LINE
  5
69A
  8
1
 62
     7
 10
6852.1519015978129
 20
4971.8453004188341
 30
0.0
 11
6854.1469015978118
 21
4971.8453004188341
 31
0.0
  0
LINE
  5
69B
  8
1
 62
     7
 10
6844.1489015978123
 20
4971.8453004188341
 30
0.0
 11
6846.1469015978118
 21
4971.8453004188341
 31
0.0
  0
LINE
  5
69C
  8
1
 62
     7
 10
6862.1499015978134
 20
4971.8453004188341
 30
0.0
 11
6864.1509015978127
 21
4971.8453004188341
 31
0.0
  0
LINE
  5
69D
  8
1
 62
     7
 10
6858.1499015978115
 20
4971.8453004188341
 30
0.0
 11
6860.1479015978121
 21
4971.8453004188341
 31
0.0
  0
LINE
  5
69E
  8
1
 62
     7
 10
6866.1489015978123
 20
4971.8453004188341
 30
0.0
 11
6868.1509015978118
 21
4971.8453004188341
 31
0.0
  0
LINE
  5
69F
  8
1
 62
     7
 10
6850.1499015978134
 20
4971.8453004188341
 30
0.0
 11
6852.1519015978129
 21
4971.8453004188341
 31
0.0
  0
LINE
  5
6A0
  8
1
 62
     7
 10
6856.1479015978121
 20
4971.8453004188341
 30
0.0
 11
6858.1499015978115
 21
4971.8453004188341
 31
0.0
  0
LINE
  5
6A1
  8
1
 62
     7
 10
6842.1509015978127
 20
4971.8453004188341
 30
0.0
 11
6844.1489015978123
 21
4971.8453004188341
 31
0.0
  0
LINE
  5
6A2
  8
1
 62
     7
 10
6864.1509015978127
 20
4971.8453004188341
 30
0.0
 11
6866.1489015978123
 21
4971.8453004188341
 31
0.0
  0
LINE
  5
6A3
  8
1
 62
     7
 10
6846.1469015978118
 20
4971.8453004188341
 30
0.0
 11
6848.1519015978129
 21
4971.8453004188341
 31
0.0
  0
LINE
  5
6A4
  8
1
 62
     7
 10
6868.1509015978118
 20
4971.8453004188341
 30
0.0
 11
6869.0429015978116
 21
4971.8453004188341
 31
0.0
  0
LINE
  5
6A5
  8
1
 62
     7
 10
6861.4299015978122
 20
4966.8499004188343
 30
0.0
 11
6863.4279015978127
 21
4966.8499004188343
 31
0.0
  0
LINE
  5
6A6
  8
1
 62
     7
 10
6855.4279015978127
 20
4966.8499004188343
 30
0.0
 11
6857.4299015978131
 21
4966.8499004188343
 31
0.0
  0
LINE
  5
6A7
  8
1
 62
     7
 10
6849.4269015978134
 20
4966.8499004188343
 30
0.0
 11
6851.4279015978127
 21
4966.8499004188343
 31
0.0
  0
LINE
  5
6A8
  8
1
 62
     7
 10
6853.4269015978134
 20
4966.8499004188343
 30
0.0
 11
6855.4279015978127
 21
4966.8499004188343
 31
0.0
  0
LINE
  5
6A9
  8
1
 62
     7
 10
6845.4299015978122
 20
4966.8499004188343
 30
0.0
 11
6847.4319015978117
 21
4966.8499004188343
 31
0.0
  0
LINE
  5
6AA
  8
1
 62
     7
 10
6863.4279015978127
 20
4966.8499004188343
 30
0.0
 11
6865.4289015978129
 21
4966.8499004188343
 31
0.0
  0
LINE
  5
6AB
  8
1
 62
     7
 10
6859.4279015978127
 20
4966.8499004188343
 30
0.0
 11
6861.4299015978122
 21
4966.8499004188343
 31
0.0
  0
LINE
  5
6AC
  8
1
 62
     7
 10
6867.4309015978124
 20
4966.8499004188343
 30
0.0
 11
6869.0429015978116
 21
4966.8499004188343
 31
0.0
  0
LINE
  5
6AD
  8
1
 62
     7
 10
6851.4279015978127
 20
4966.8499004188343
 30
0.0
 11
6853.4269015978134
 21
4966.8499004188343
 31
0.0
  0
LINE
  5
6AE
  8
1
 62
     7
 10
6857.4299015978131
 20
4966.8499004188343
 30
0.0
 11
6859.4279015978127
 21
4966.8499004188343
 31
0.0
  0
LINE
  5
6AF
  8
1
 62
     7
 10
6843.4289015978138
 20
4966.8499004188343
 30
0.0
 11
6845.4299015978122
 21
4966.8499004188343
 31
0.0
  0
LINE
  5
6B0
  8
1
 62
     7
 10
6865.4289015978129
 20
4966.8499004188343
 30
0.0
 11
6867.4309015978124
 21
4966.8499004188343
 31
0.0
  0
LINE
  5
6B1
  8
1
 62
     7
 10
6847.4319015978117
 20
4966.8499004188343
 30
0.0
 11
6849.4269015978134
 21
4966.8499004188343
 31
0.0
  0
LINE
  5
6B2
  8
1
 62
     7
 10
6869.3599015978116
 20
4967.1118004188338
 30
0.0
 11
6872.0469015978124
 21
4969.3476004188342
 31
0.0
  0
LINE
  5
6B3
  8
1
 62
     7
 10
6860.1479015978121
 20
4946.8441304188354
 30
0.0
 11
6862.1499015978134
 21
4946.8441304188354
 31
0.0
  0
LINE
  5
6B4
  8
1
 62
     7
 10
6854.1469015978118
 20
4946.8441304188354
 30
0.0
 11
6856.1479015978121
 21
4946.8441304188354
 31
0.0
  0
LINE
  5
6B5
  8
1
 62
     7
 10
6848.1519015978129
 20
4946.8441304188354
 30
0.0
 11
6850.1499015978134
 21
4946.8441304188354
 31
0.0
  0
LINE
  5
6B6
  8
1
 62
     7
 10
6852.1519015978129
 20
4946.8441304188354
 30
0.0
 11
6854.1469015978118
 21
4946.8441304188354
 31
0.0
  0
LINE
  5
6B7
  8
1
 62
     7
 10
6844.1489015978123
 20
4946.8441304188354
 30
0.0
 11
6846.1469015978118
 21
4946.8441304188354
 31
0.0
  0
LINE
  5
6B8
  8
1
 62
     7
 10
6862.1499015978134
 20
4946.8441304188354
 30
0.0
 11
6864.1509015978127
 21
4946.8441304188354
 31
0.0
  0
LINE
  5
6B9
  8
1
 62
     7
 10
6858.1499015978115
 20
4946.8441304188354
 30
0.0
 11
6860.1479015978121
 21
4946.8441304188354
 31
0.0
  0
LINE
  5
6BA
  8
1
 62
     7
 10
6866.1489015978123
 20
4946.8441304188354
 30
0.0
 11
6868.1509015978118
 21
4946.8441304188354
 31
0.0
  0
LINE
  5
6BB
  8
1
 62
     7
 10
6850.1499015978134
 20
4946.8441304188354
 30
0.0
 11
6852.1519015978129
 21
4946.8441304188354
 31
0.0
  0
LINE
  5
6BC
  8
1
 62
     7
 10
6856.1479015978121
 20
4946.8441304188354
 30
0.0
 11
6858.1499015978115
 21
4946.8441304188354
 31
0.0
  0
LINE
  5
6BD
  8
1
 62
     7
 10
6842.0439015978127
 20
4946.8441304188354
 30
0.0
 11
6844.1489015978123
 21
4946.8441304188354
 31
0.0
  0
LINE
  5
6BE
  8
1
 62
     7
 10
6864.1509015978127
 20
4946.8441304188354
 30
0.0
 11
6866.1489015978123
 21
4946.8441304188354
 31
0.0
  0
LINE
  5
6BF
  8
1
 62
     7
 10
6846.1469015978118
 20
4946.8441304188354
 30
0.0
 11
6848.1519015978129
 21
4946.8441304188354
 31
0.0
  0
LINE
  5
6C0
  8
1
 62
     7
 10
6868.1509015978118
 20
4946.8441304188354
 30
0.0
 11
6869.0429015978116
 21
4946.8441304188354
 31
0.0
  0
LINE
  5
6C1
  8
1
 62
     7
 10
6861.4299015978122
 20
4941.8487004188346
 30
0.0
 11
6863.4279015978127
 21
4941.8487004188346
 31
0.0
  0
LINE
  5
6C2
  8
1
 62
     7
 10
6855.4279015978127
 20
4941.8487004188346
 30
0.0
 11
6857.4299015978131
 21
4941.8487004188346
 31
0.0
  0
LINE
  5
6C3
  8
1
 62
     7
 10
6849.4269015978134
 20
4941.8487004188346
 30
0.0
 11
6851.4279015978127
 21
4941.8487004188346
 31
0.0
  0
LINE
  5
6C4
  8
1
 62
     7
 10
6853.4269015978134
 20
4941.8487004188346
 30
0.0
 11
6855.4279015978127
 21
4941.8487004188346
 31
0.0
  0
LINE
  5
6C5
  8
1
 62
     7
 10
6845.4299015978122
 20
4941.8487004188346
 30
0.0
 11
6847.4319015978117
 21
4941.8487004188346
 31
0.0
  0
LINE
  5
6C6
  8
1
 62
     7
 10
6863.4279015978127
 20
4941.8487004188346
 30
0.0
 11
6865.4289015978129
 21
4941.8487004188346
 31
0.0
  0
LINE
  5
6C7
  8
1
 62
     7
 10
6859.4279015978127
 20
4941.8487004188346
 30
0.0
 11
6861.4299015978122
 21
4941.8487004188346
 31
0.0
  0
LINE
  5
6C8
  8
1
 62
     7
 10
6867.4309015978124
 20
4941.8487004188346
 30
0.0
 11
6869.0429015978116
 21
4941.8487004188346
 31
0.0
  0
LINE
  5
6C9
  8
1
 62
     7
 10
6851.4279015978127
 20
4941.8487004188346
 30
0.0
 11
6853.4269015978134
 21
4941.8487004188346
 31
0.0
  0
LINE
  5
6CA
  8
1
 62
     7
 10
6857.4299015978131
 20
4941.8487004188346
 30
0.0
 11
6859.4279015978127
 21
4941.8487004188346
 31
0.0
  0
LINE
  5
6CB
  8
1
 62
     7
 10
6843.4289015978138
 20
4941.8487004188346
 30
0.0
 11
6845.4299015978122
 21
4941.8487004188346
 31
0.0
  0
LINE
  5
6CC
  8
1
 62
     7
 10
6865.4289015978129
 20
4941.8487004188346
 30
0.0
 11
6867.4309015978124
 21
4941.8487004188346
 31
0.0
  0
LINE
  5
6CD
  8
1
 62
     7
 10
6847.4319015978117
 20
4941.8487004188346
 30
0.0
 11
6849.4269015978134
 21
4941.8487004188346
 31
0.0
  0
LINE
  5
6CE
  8
1
 62
     7
 10
6869.3599015978116
 20
4942.1105004188339
 30
0.0
 11
6872.0469015978124
 21
4944.346420418834
 31
0.0
  0
LINE
  5
6CF
  8
1
 62
     7
 10
6869.3599015978116
 20
4882.1104144504989
 30
0.0
 11
6872.0469015978124
 21
4884.3463144505004
 31
0.0
  0
LINE
  5
6D0
  8
1
 62
     7
 10
6868.1509015978118
 20
4886.8440144504993
 30
0.0
 11
6869.0429015978116
 21
4886.8440144504993
 31
0.0
  0
LINE
  5
6D1
  8
1
 62
     7
 10
6847.4319015978117
 20
4881.8485144504994
 30
0.0
 11
6849.4269015978134
 21
4881.8485144504994
 31
0.0
  0
LINE
  5
6D2
  8
1
 62
     7
 10
6846.1469015978118
 20
4886.8440144504993
 30
0.0
 11
6848.1519015978129
 21
4886.8440144504993
 31
0.0
  0
LINE
  5
6D3
  8
1
 62
     7
 10
6865.4289015978129
 20
4881.8485144504994
 30
0.0
 11
6867.4309015978124
 21
4881.8485144504994
 31
0.0
  0
LINE
  5
6D4
  8
1
 62
     7
 10
6864.1509015978127
 20
4886.8440144504993
 30
0.0
 11
6866.1489015978123
 21
4886.8440144504993
 31
0.0
  0
LINE
  5
6D5
  8
1
 62
     7
 10
6843.4289015978138
 20
4881.8485144504994
 30
0.0
 11
6845.4299015978122
 21
4881.8485144504994
 31
0.0
  0
LINE
  5
6D6
  8
1
 62
     7
 10
6842.1509015978127
 20
4886.8440144504993
 30
0.0
 11
6844.1489015978123
 21
4886.8440144504993
 31
0.0
  0
LINE
  5
6D7
  8
1
 62
     7
 10
6857.4299015978131
 20
4881.8485144504994
 30
0.0
 11
6859.4279015978127
 21
4881.8485144504994
 31
0.0
  0
LINE
  5
6D8
  8
1
 62
     7
 10
6856.1479015978121
 20
4886.8440144504993
 30
0.0
 11
6858.1499015978115
 21
4886.8440144504993
 31
0.0
  0
LINE
  5
6D9
  8
1
 62
     7
 10
6851.4279015978127
 20
4881.8485144504994
 30
0.0
 11
6853.4269015978134
 21
4881.8485144504994
 31
0.0
  0
LINE
  5
6DA
  8
1
 62
     7
 10
6850.1499015978134
 20
4886.8440144504993
 30
0.0
 11
6852.1519015978129
 21
4886.8440144504993
 31
0.0
  0
LINE
  5
6DB
  8
1
 62
     7
 10
6867.4309015978124
 20
4881.8485144504994
 30
0.0
 11
6869.0429015978116
 21
4881.8485144504994
 31
0.0
  0
LINE
  5
6DC
  8
1
 62
     7
 10
6866.1489015978123
 20
4886.8440144504993
 30
0.0
 11
6868.1509015978118
 21
4886.8440144504993
 31
0.0
  0
LINE
  5
6DD
  8
1
 62
     7
 10
6859.4279015978127
 20
4881.8485144504994
 30
0.0
 11
6861.4299015978122
 21
4881.8485144504994
 31
0.0
  0
LINE
  5
6DE
  8
1
 62
     7
 10
6858.1499015978115
 20
4886.8440144504993
 30
0.0
 11
6860.1479015978121
 21
4886.8440144504993
 31
0.0
  0
LINE
  5
6DF
  8
1
 62
     7
 10
6863.4279015978127
 20
4881.8485144504994
 30
0.0
 11
6865.4289015978129
 21
4881.8485144504994
 31
0.0
  0
LINE
  5
6E0
  8
1
 62
     7
 10
6862.1499015978134
 20
4886.8440144504993
 30
0.0
 11
6864.1509015978127
 21
4886.8440144504993
 31
0.0
  0
LINE
  5
6E1
  8
1
 62
     7
 10
6845.4299015978122
 20
4881.8485144504994
 30
0.0
 11
6847.4319015978117
 21
4881.8485144504994
 31
0.0
  0
LINE
  5
6E2
  8
1
 62
     7
 10
6844.1489015978123
 20
4886.8440144504993
 30
0.0
 11
6846.1469015978118
 21
4886.8440144504993
 31
0.0
  0
LINE
  5
6E3
  8
1
 62
     7
 10
6853.4269015978134
 20
4881.8485144504994
 30
0.0
 11
6855.4279015978127
 21
4881.8485144504994
 31
0.0
  0
LINE
  5
6E4
  8
1
 62
     7
 10
6852.1519015978129
 20
4886.8440144504993
 30
0.0
 11
6854.1469015978118
 21
4886.8440144504993
 31
0.0
  0
LINE
  5
6E5
  8
1
 62
     7
 10
6849.4269015978134
 20
4881.8485144504994
 30
0.0
 11
6851.4279015978127
 21
4881.8485144504994
 31
0.0
  0
LINE
  5
6E6
  8
1
 62
     7
 10
6848.1519015978129
 20
4886.8440144504993
 30
0.0
 11
6850.1499015978134
 21
4886.8440144504993
 31
0.0
  0
LINE
  5
6E7
  8
1
 62
     7
 10
6855.4279015978127
 20
4881.8485144504994
 30
0.0
 11
6857.4299015978131
 21
4881.8485144504994
 31
0.0
  0
LINE
  5
6E8
  8
1
 62
     7
 10
6854.1469015978118
 20
4886.8440144504993
 30
0.0
 11
6856.1479015978121
 21
4886.8440144504993
 31
0.0
  0
LINE
  5
6E9
  8
1
 62
     7
 10
6861.4299015978122
 20
4881.8485144504994
 30
0.0
 11
6863.4279015978127
 21
4881.8485144504994
 31
0.0
  0
LINE
  5
6EA
  8
1
 62
     7
 10
6860.1479015978121
 20
4886.8440144504993
 30
0.0
 11
6862.1499015978134
 21
4886.8440144504993
 31
0.0
  0
LINE
  5
6EB
  8
1
  6
DASHED
 62
     7
 10
6715.7838923609779
 20
4999.3442931565341
 30
0.0
 11
6717.0449015978129
 21
4999.3442929388411
 31
0.0
  0
LINE
  5
6EC
  8
1
  6
DASHED
 62
     7
 10
6698.0788932307214
 20
4999.3442962130257
 30
0.0
 11
6698.6369015978116
 21
4999.3443058864186
 31
0.0
  0
LINE
  5
6ED
  8
1
  6
DASHED
 62
     7
 10
6735.4518775054112
 20
4999.3442897611649
 30
0.0
 11
6736.0069156283844
 21
4999.344289665346
 31
0.0
  0
LINE
  5
6EE
  8
1
  6
DASHED
 62
     7
 10
6710.9468833873561
 20
4999.3442939915694
 30
0.0
 11
6711.4978661755758
 21
4999.3442938964499
 31
0.0
  0
LINE
  5
6EF
  8
1
  6
DASHED
 62
     7
 10
6703.2058795708044
 20
4999.3442953279318
 30
0.0
 11
6704.379901597812
 21
4999.3443058864186
 31
0.0
  0
LINE
  5
6F0
  8
1
  6
DASHED
 62
     7
 10
6729.7088619542574
 20
4999.344290752606
 30
0.0
 11
6730.8869015978134
 21
4999.3443058864186
 31
0.0
  0
LINE
  5
6F1
  8
1
  6
DASHED
 62
     7
 10
6721.0648613410431
 20
4999.3442922448576
 30
0.0
 11
6723.1219015978131
 21
4999.3443058864186
 31
0.0
  0
LINE
  5
6F2
  8
1
  6
DASHED
 62
     7
 10
6711.4978661755758
 20
4999.3442938964499
 30
0.0
 11
6713.0209015978116
 21
4999.3443058864186
 31
0.0
  0
LINE
  5
6F3
  8
1
 62
     7
 10
6788.4209015978131
 20
4937.3494144504994
 30
0.0
 11
6833.9925556556454
 21
4909.2269058374877
 31
0.0
  0
LINE
  5
6F4
  8
1
  6
DASHED
 62
     7
 10
6824.6049015978133
 20
4937.3494144504994
 30
0.0
 11
6834.6677989614464
 21
4931.1378512926567
 31
0.0
  0
LINE
  5
6F5
  8
1
  6
DASHED
 62
     7
 10
6704.379901597812
 20
4999.3443058864186
 30
0.0
 11
6706.5649015978124
 21
4999.344294748048
 31
0.0
  0
LINE
  5
6F6
  8
1
  6
DASHED
 62
     7
 10
6723.1219015978131
 20
4999.3443058864186
 30
0.0
 11
6726.3569015978137
 21
4999.3442913312692
 31
0.0
  0
LINE
  5
6F7
  8
1
  6
DASHED
 62
     7
 10
6718.3059111330376
 20
4999.3442927211472
 30
0.0
 11
6721.0648613410431
 21
4999.3442922448576
 31
0.0
  0
LINE
  5
6F8
  8
1
  6
DASHED
 62
     7
 10
6747.9072386080043
 20
4962.347164450498
 30
0.0
 11
6750.8751751787449
 21
4960.5158875198022
 31
0.0
  0
LINE
  5
6F9
  8
1
  6
DASHED
 62
     7
 10
6747.9072386080043
 20
4962.3468609185056
 30
0.0
 11
6747.9077305399906
 21
4962.3468609185056
 31
0.0
  0
LINE
  5
6FA
  8
1
  6
DASHED
 62
     7
 10
6713.0209015978116
 20
4999.3443058864186
 30
0.0
 11
6715.7838923609779
 21
4999.3442931565341
 31
0.0
  0
LINE
  5
6FB
  8
1
  6
DASHED
 62
     7
 10
6730.8869015978134
 20
4999.3443058864186
 30
0.0
 11
6735.4518775054112
 21
4999.3442897611649
 31
0.0
  0
LINE
  5
6FC
  8
1
  6
DASHED
 62
     7
 10
6698.6369015978116
 20
4999.3443058864186
 30
0.0
 11
6703.2058795708044
 21
4999.3442953279318
 31
0.0
  0
LINE
  5
6FD
  8
1
  6
DASHED
 62
     7
 10
6736.0069156283844
 20
4999.344289665346
 30
0.0
 11
6752.0439015978118
 21
4999.3442868968104
 31
0.0
  0
LINE
  5
6FE
  8
1
  6
DASHED
 62
     7
 10
6737.412370776482
 20
4968.8227103028048
 30
0.0
 11
6747.9072386080043
 21
4962.347164450498
 31
0.0
  0
LINE
  5
6FF
  8
1
  6
DASHED
 62
     7
 10
6737.412370776482
 20
4968.8224067708106
 30
0.0
 11
6731.0419015978123
 21
4968.8297963474388
 31
0.0
  0
LINE
  5
700
  8
1
 62
     7
 10
6626.0419015978132
 20
5017.34848870107
 30
0.0
 11
6627.0099099764639
 21
5075.3811631872859
 31
0.0
  0
LINE
  5
701
  8
1
 62
     7
 10
6808.0409015978121
 20
5017.34848870107
 30
0.0
 11
6807.0729015978122
 21
5075.3815109185052
 31
0.0
  0
LINE
  5
702
  8
1
  6
DASHED
 62
     7
 10
6610.0429015978116
 20
4999.3442994103607
 30
0.0
 11
6610.0429015978116
 21
4937.349399410361
 31
0.0
  0
LINE
  5
703
  8
1
  6
DASHED
 62
     7
 10
6748.2849287442468
 20
4938.4618678514371
 30
0.0
 11
6748.7329041757166
 21
4937.3491044605116
 31
0.0
  0
LINE
  5
704
  8
1
  6
DASHED
 62
     7
 10
6685.7767206789804
 20
4938.4618683102308
 30
0.0
 11
6685.3288972682412
 21
4937.3491000723634
 31
0.0
  0
LINE
  5
705
  8
1
  6
DASHED
 62
     7
 10
6683.0409015978121
 20
4962.3468609185056
 30
0.0
 11
6703.0468151252189
 21
4962.3468609185056
 31
0.0
  0
LINE
  5
706
  8
1
  6
DASHED
 62
     7
 10
6776.9899015978117
 20
5004.1086109185053
 30
0.0
 11
6778.3369015978124
 21
5015.7978109185051
 31
0.0
  0
LINE
  5
707
  8
1
  6
DASHED
 62
     7
 10
6775.4910189216589
 20
4991.1962770874188
 30
0.0
 11
6775.8569390504863
 21
4994.3485470643309
 31
0.0
  0
LINE
  5
708
  8
1
  6
DASHED
 62
     7
 10
6762.2514338604151
 20
4982.3457716128351
 30
0.0
 11
6765.5587474915365
 21
4982.3457706971003
 31
0.0
  0
LINE
  5
709
  8
1
  6
DASHED
 62
     7
 10
6685.0329015978123
 20
4940.3463109185059
 30
0.0
 11
6688.5599015978123
 21
4940.3463109185059
 31
0.0
  0
LINE
  5
70A
  8
1
  6
DASHED
 62
     7
 10
6682.3936160231442
 20
4970.8804200792601
 30
0.0
 11
6670.1916022082714
 21
4992.0160916630985
 31
0.0
  0
LINE
  5
70B
  8
1
 62
     7
 10
6778.3369015978124
 20
5015.7978109185051
 30
0.0
 11
6778.6229528399526
 21
5017.34848870107
 31
0.0
  0
LINE
  5
70C
  8
1
  6
DASHED
 62
     7
 10
6655.7529015978134
 20
5015.7841109185056
 30
0.0
 11
6657.1029015978129
 21
5004.1086109185053
 31
0.0
  0
LINE
  5
70D
  8
1
  6
DASHED
 62
     7
 10
6657.1029015978129
 20
5004.1086109185053
 30
0.0
 11
6657.6545172858268
 21
4999.3443117557417
 31
0.0
  0
LINE
  5
70E
  8
1
  6
DASHED
 62
     7
 10
6668.5304655407263
 20
4982.34577044052
 30
0.0
 11
6671.8308866280404
 21
4982.3457706763784
 31
0.0
  0
LINE
  5
70F
  8
1
  6
DASHED
 62
     7
 10
6675.7339015978123
 20
4979.2383109185057
 30
0.0
 11
6676.7919015978123
 21
4974.5942109185053
 31
0.0
  0
LINE
  5
710
  8
1
  6
DASHED
 62
     7
 10
6676.7919015978123
 20
4974.5942109185053
 30
0.0
 11
6677.8495059245051
 21
4969.9709086048078
 31
0.0
  0
LINE
  5
711
  8
1
  6
DASHED
 62
     7
 10
6678.5729015978122
 20
4968.430910918506
 30
0.0
 11
6680.8989015978132
 21
4965.3992109185047
 31
0.0
  0
LINE
  5
712
  8
1
  6
DASHED
 62
     7
 10
6680.8989015978132
 20
4965.3992109185047
 30
0.0
 11
6683.0409015978121
 21
4962.3468609185056
 31
0.0
  0
LINE
  5
713
  8
1
  6
DASHED
 62
     7
 10
6749.0499015978112
 20
4940.3463109185059
 30
0.0
 11
6750.8751751787449
 21
4960.5155839878089
 31
0.0
  0
LINE
  5
714
  8
1
  6
DASHED
 62
     7
 10
6683.0409015978121
 20
4962.3468609185056
 30
0.0
 11
6685.0329015978123
 21
4940.3463109185059
 31
0.0
  0
LINE
  5
715
  8
1
  6
DASHED
 62
     7
 10
6642.0449015978129
 20
4999.3443058864186
 30
0.0
 11
6657.6545524290877
 21
4999.3443031916559
 31
0.0
  0
LINE
  5
716
  8
1
  6
DIVIDE
 62
     7
 10
6642.0449015978129
 20
4994.348814450499
 30
0.0
 11
6642.0449015978129
 21
4999.3443144505
 31
0.0
  0
LINE
  5
717
  8
1
  6
DASHED
 62
     7
 10
6702.04456521064
 20
4990.6453621278433
 30
0.0
 11
6706.5614959013456
 21
4987.8583244758302
 31
0.0
  0
LINE
  5
718
  8
1
  6
DASHED
 62
     7
 10
6733.4364733971606
 20
4993.6012729676422
 30
0.0
 11
6756.5693141813026
 21
4979.3280721176152
 31
0.0
  0
LINE
  5
719
  8
1
  6
DASHED
 62
     7
 10
6642.0449015978129
 20
4994.348814450499
 30
0.0
 11
6658.2329359807409
 21
4994.3488188232741
 31
0.0
  0
LINE
  5
71A
  8
1
  6
DASHED
 62
     7
 10
6837.0419015978132
 20
4937.3494141043138
 30
0.0
 11
6837.0418906823361
 21
4938.4480556659773
 31
0.0
  0
LINE
  5
71B
  8
1
 62
     7
 10
6592.0419015978132
 20
5014.3477994103596
 30
0.0
 11
6592.0419015978132
 21
4999.3442994103607
 31
0.0
  0
LINE
  5
71C
  8
1
 62
     7
 10
6837.0419015978132
 20
4859.3450144504995
 30
0.0
 11
6842.0439015978127
 21
4859.3450144504995
 31
0.0
  0
LINE
  5
71D
  8
1
 62
     7
 10
6842.0439015978127
 20
4979.3453776356728
 30
0.0
 11
6842.0439015978127
 21
4946.8441304188354
 31
0.0
  0
LINE
  5
71E
  8
1
 62
     7
 10
6869.0429015978116
 20
4971.8453004188341
 30
0.0
 11
6872.0469015978124
 21
4969.3476004188342
 31
0.0
  0
LINE
  5
71F
  8
1
 62
     7
 10
6869.0429015978116
 20
4966.8499004188343
 30
0.0
 11
6869.3599015978116
 21
4967.1118004188338
 31
0.0
  0
LINE
  5
720
  8
1
 62
     7
 10
6842.0439015978127
 20
4966.8499004188343
 30
0.0
 11
6843.4289015978138
 21
4966.8499004188343
 31
0.0
  0
LINE
  5
721
  8
1
 62
     7
 10
6842.0439015978127
 20
4971.8453004188341
 30
0.0
 11
6842.1509015978127
 21
4971.8453004188341
 31
0.0
  0
LINE
  5
722
  8
1
 62
     7
 10
6869.0429015978116
 20
4946.8441304188354
 30
0.0
 11
6872.0469015978124
 21
4944.346420418834
 31
0.0
  0
LINE
  5
723
  8
1
 62
     7
 10
6869.0429015978116
 20
4941.8487004188346
 30
0.0
 11
6869.3599015978116
 21
4942.1105004188339
 31
0.0
  0
LINE
  5
724
  8
1
 62
     7
 10
6842.0439015978127
 20
4941.8487004188346
 30
0.0
 11
6843.4289015978138
 21
4941.8487004188346
 31
0.0
  0
LINE
  5
725
  8
1
 62
     7
 10
6869.0429015978116
 20
4886.8440144504993
 30
0.0
 11
6872.0469015978124
 21
4884.3463144505004
 31
0.0
  0
LINE
  5
726
  8
1
 62
     7
 10
6869.0429015978116
 20
4881.8485144504994
 30
0.0
 11
6869.3599015978116
 21
4882.1104144504989
 31
0.0
  0
LINE
  5
727
  8
1
 62
     7
 10
6842.0439015978127
 20
4881.8485144504994
 30
0.0
 11
6843.4289015978138
 21
4881.8485144504994
 31
0.0
  0
LINE
  5
728
  8
1
 62
     7
 10
6842.0439015978127
 20
4886.8440144504993
 30
0.0
 11
6842.1509015978127
 21
4886.8440144504993
 31
0.0
  0
LINE
  5
729
  8
1
 62
     7
 10
6689.1249015978128
 20
4933.8454109185059
 30
0.0
 11
6696.5289015978133
 21
4933.8454109185059
 31
0.0
  0
LINE
  5
72A
  8
1
 62
     7
 10
6797.7289015978131
 20
4755.3511358380993
 30
0.0
 11
6796.5649015978133
 21
4755.3511358380993
 31
0.0
  0
LINE
  5
72B
  8
1
 62
     7
 10
6816.3589015978123
 20
4755.3511358380993
 30
0.0
 11
6817.5199015978114
 21
4755.3511358380993
 31
0.0
  0
LINE
  5
72C
  8
1
 62
     7
 10
6797.7289015978131
 20
4755.3511358380993
 30
0.0
 11
6807.0439015978118
 21
4755.3511358380993
 31
0.0
  0
LINE
  5
72D
  8
1
  6
DASHED
 62
     7
 10
6717.0449015978129
 20
4967.3468609185056
 30
0.0
 11
6708.2950015978131
 21
4967.3484887010709
 31
0.0
  0
LINE
  5
72E
  8
1
  6
DASHED
 62
     7
 10
6725.7955015978123
 20
4967.3484887010709
 30
0.0
 11
6727.5222015978134
 21
4967.3468609185056
 31
0.0
  0
LINE
  5
72F
  8
1
  6
DASHED
 62
     7
 10
6721.0667015978133
 20
4999.3484887010709
 30
0.0
 11
6723.1221015978117
 21
4999.3484887010709
 31
0.0
  0
LINE
  5
730
  8
1
  6
DASHED
 62
     7
 10
6707.7293015978121
 20
4967.3484702379683
 30
0.0
 11
6708.2950015978131
 21
4967.3484887010709
 31
0.0
  0
LINE
  5
731
  8
1
  6
DASHED
 62
     7
 10
6713.0237015978119
 20
4999.3484887010709
 30
0.0
 11
6711.4975015978134
 21
4999.3484887010709
 31
0.0
  0
LINE
  5
732
  8
1
  6
DASHED
 62
     7
 10
6713.0237015978119
 20
4999.3484887010709
 30
0.0
 11
6713.0360289390974
 21
4999.3443021949943
 31
0.0
  0
LINE
  5
733
  8
1
  6
DASHED
 62
     7
 10
6729.7105015978123
 20
4999.3484887010709
 30
0.0
 11
6730.8873015978124
 21
4999.3484887010709
 31
0.0
  0
LINE
  5
734
  8
1
  6
DASHED
 62
     7
 10
6735.4528015978121
 20
4999.3484887010709
 30
0.0
 11
6736.0102015978127
 21
4999.3484887010709
 31
0.0
  0
LINE
  5
735
  8
1
  6
DASHED
 62
     7
 10
6704.3834015978127
 20
4999.3484887010709
 30
0.0
 11
6703.2065215978118
 21
4999.3484887010709
 31
0.0
  0
LINE
  5
736
  8
1
  6
DASHED
 62
     7
 10
6698.6382915978129
 20
4999.3484887010709
 30
0.0
 11
6698.0815615978127
 21
4999.3484887010709
 31
0.0
  0
LINE
  5
737
  8
1
  6
DASHED
 62
     7
 10
6730.8873015978124
 20
4999.3484887010709
 30
0.0
 11
6730.8960075525083
 21
4999.3442991117454
 31
0.0
  0
LINE
  5
738
  8
1
  6
DASHED
 62
     7
 10
6736.0102015978127
 20
4999.3484887010709
 30
0.0
 11
6736.0138107293433
 21
4999.3442982282368
 31
0.0
  0
LINE
  5
739
  8
1
  6
DASHED
 62
     7
 10
6698.6382915978129
 20
4999.3484887010709
 30
0.0
 11
6698.6445296748579
 21
4999.3443046794582
 31
0.0
  0
LINE
  5
73A
  8
1
  6
DASHED
 62
     7
 10
6704.3834015978127
 20
4999.3484887010709
 30
0.0
 11
6704.3943213303037
 21
4999.3443036868466
 31
0.0
  0
LINE
  5
73B
  8
1
  6
DASHED
 62
     7
 10
6725.7955015978123
 20
4967.3484887010709
 30
0.0
 11
6717.0449015978129
 21
4967.3468609185056
 31
0.0
  0
LINE
  5
73C
  8
1
  6
DASHED
 62
     7
 10
6706.5676015978133
 20
4967.3468609185056
 30
0.0
 11
6706.5676015978133
 21
4987.8545571375398
 31
0.0
  0
LINE
  5
73D
  8
1
  6
DASHED
 62
     7
 10
6706.5676015978133
 20
4967.3468609185056
 30
0.0
 11
6707.7293015978121
 21
4967.3484702379683
 31
0.0
  0
LINE
  5
73E
  8
1
 62
     7
 10
6807.0439015978118
 20
4755.3511358380993
 30
0.0
 11
6816.3589015978123
 21
4755.3511358380993
 31
0.0
  0
LINE
  5
73F
  8
1
 62
     7
 10
6807.0439015978118
 20
4831.7129693509542
 30
0.0
 11
6807.0439015978118
 21
4791.7129693509542
 31
0.0
  0
LINE
  5
740
  8
1
 62
     7
 10
6717.0449015978129
 20
4890.9857796228143
 30
0.0
 11
6807.0439015978118
 21
4831.7129693509542
 31
0.0
  0
LINE
  5
741
  8
1
 62
     7
 10
6807.0439015978118
 20
4771.6334693509552
 30
0.0
 11
6802.0445015978121
 21
4771.6334536191298
 31
0.0
  0
LINE
  5
742
  8
1
 62
     7
 10
6802.0445015978121
 20
4769.8509455140293
 30
0.0
 11
6802.0445015978121
 21
4771.6334536191298
 31
0.0
  0
LINE
  5
743
  8
1
 62
     7
 10
6800.756701597812
 20
4783.8622693509542
 30
0.0
 11
6799.6632015978121
 21
4784.957069350954
 31
0.0
  0
LINE
  5
744
  8
1
 62
     7
 10
6800.756701597812
 20
4783.8622693509542
 30
0.0
 11
6800.756701597812
 21
4775.2418693509553
 31
0.0
  0
LINE
  5
745
  8
1
 62
     7
 10
6799.6632015978121
 20
4791.7129693509542
 30
0.0
 11
6802.0597015978119
 21
4791.7129693509542
 31
0.0
  0
LINE
  5
746
  8
1
 62
     7
 10
6799.6632015978121
 20
4791.7129693509542
 30
0.0
 11
6799.6632015978121
 21
4784.957069350954
 31
0.0
  0
LINE
  5
747
  8
1
 62
     7
 10
6807.0439015978118
 20
4771.6334693509552
 30
0.0
 11
6812.0439015978118
 21
4771.6334693509552
 31
0.0
  0
LINE
  5
748
  8
1
 62
     7
 10
6812.0439015978118
 20
4769.8509460089635
 30
0.0
 11
6812.0439015978118
 21
4771.6334693509552
 31
0.0
  0
LINE
  5
749
  8
1
 62
     7
 10
6813.3319015978122
 20
4783.8622693509542
 30
0.0
 11
6814.4259015978123
 21
4784.957069350954
 31
0.0
  0
LINE
  5
74A
  8
1
 62
     7
 10
6813.3319015978122
 20
4783.8622693509542
 30
0.0
 11
6813.3319015978122
 21
4775.2418693509553
 31
0.0
  0
LINE
  5
74B
  8
1
 62
     7
 10
6814.4259015978123
 20
4791.7129693509542
 30
0.0
 11
6814.4259015978123
 21
4784.957069350954
 31
0.0
  0
LINE
  5
74C
  8
1
 62
     7
 10
6814.4259015978123
 20
4791.7129693509542
 30
0.0
 11
6812.0289015978133
 21
4791.7129693509542
 31
0.0
  0
LINE
  5
74D
  8
1
  6
DASHED
 62
     7
 10
6717.0449015978129
 20
4951.0647796228131
 30
0.0
 11
6722.0449015978129
 21
4951.0647796228131
 31
0.0
  0
LINE
  5
74E
  8
1
  6
DASHED
 62
     7
 10
6723.3329015978134
 20
4938.8357796228129
 30
0.0
 11
6724.4269015978116
 21
4937.7417796228128
 31
0.0
  0
LINE
  5
74F
  8
1
  6
DASHED
 62
     7
 10
6723.3329015978134
 20
4938.8357796228129
 30
0.0
 11
6723.3330790783166
 21
4947.4572967576696
 31
0.0
  0
LINE
  5
750
  8
1
 62
     7
 10
6724.4269015978116
 20
4930.9857796228143
 30
0.0
 11
6724.4269015978116
 21
4937.3498663461487
 31
0.0
  0
LINE
  5
751
  8
1
  6
DASHED
 62
     7
 10
6717.0449015978129
 20
4951.0647796228131
 30
0.0
 11
6712.0455015978123
 21
4951.0647796228131
 31
0.0
  0
LINE
  5
752
  8
1
  6
DASHED
 62
     7
 10
6710.7577015978122
 20
4938.8357796228129
 30
0.0
 11
6709.6642015978123
 21
4937.7417796228128
 31
0.0
  0
LINE
  5
753
  8
1
  6
DASHED
 62
     7
 10
6710.7577015978122
 20
4938.8357796228129
 30
0.0
 11
6710.7577120509159
 21
4947.457296276124
 31
0.0
  0
LINE
  5
754
  8
1
 62
     7
 10
6709.6642015978123
 20
4930.9857796228143
 30
0.0
 11
6709.6642015978123
 21
4937.3498653244314
 31
0.0
  0
LINE
  5
755
  8
1
 62
     7
 10
6709.6642015978123
 20
4930.9857796228143
 30
0.0
 11
6712.0607015978121
 21
4930.9857796228143
 31
0.0
  0
LINE
  5
756
  8
1
 62
     7
 10
6724.4269015978116
 20
4930.9857796228143
 30
0.0
 11
6722.0299015978126
 21
4930.9857796228143
 31
0.0
  0
LINE
  5
757
  8
1
 62
     7
 10
6821.044901597812
 20
4757.6131929921139
 30
0.0
 11
6821.044901597812
 21
4766.7370224594788
 31
0.0
  0
LINE
  5
758
  8
1
  6
DASHED
 62
     7
 10
6703.0468507912137
 20
4955.0964985753744
 30
0.0
 11
6703.0468015978131
 21
4965.0967796228142
 31
0.0
  0
LINE
  5
759
  8
1
  6
DASHED
 62
     7
 10
6727.5450801584557
 20
4952.8475270851841
 30
0.0
 11
6727.4575916014346
 21
4952.8475270811878
 31
0.0
  0
LINE
  5
75A
  8
1
  6
DASHED
 62
     7
 10
6731.0466968956216
 20
4955.0964994765336
 30
0.0
 11
6731.0469015978133
 21
4965.0967796228142
 31
0.0
  0
LINE
  5
75B
  8
1
 62
     7
 10
6802.0445015978121
 20
4771.6334536191298
 30
0.0
 11
6800.7567120676867
 21
4771.6334495667861
 31
0.0
  0
LINE
  5
75C
  8
1
  6
DASHED
 62
     7
 10
6712.0455015978123
 20
4951.0647796228131
 30
0.0
 11
6710.7577015978122
 21
4951.0647796228131
 31
0.0
  0
LINE
  5
75D
  8
1
 62
     7
 10
6812.0439015978118
 20
4771.6334693509552
 30
0.0
 11
6813.3319015978122
 21
4771.6334693509552
 31
0.0
  0
LINE
  5
75E
  8
1
 62
     7
 10
6717.0449015978129
 20
4930.9857796228143
 30
0.0
 11
6717.0449015978129
 21
4890.9857796228143
 31
0.0
  0
LINE
  5
75F
  8
1
  6
DASHED
 62
     7
 10
6722.0449015978129
 20
4951.0647796228131
 30
0.0
 11
6723.3329015978134
 21
4951.0647796228131
 31
0.0
  0
LINE
  5
760
  8
1
 62
     7
 10
6802.0597015978119
 20
4791.7129693509542
 30
0.0
 11
6807.0439015978118
 21
4791.7129693509542
 31
0.0
  0
LINE
  5
761
  8
1
 62
     7
 10
6712.0607015978121
 20
4930.9857796228143
 30
0.0
 11
6717.0449015978129
 21
4930.9857796228143
 31
0.0
  0
LINE
  5
762
  8
1
 62
     7
 10
6812.0289015978133
 20
4791.7129693509542
 30
0.0
 11
6807.0439015978118
 21
4791.7129693509542
 31
0.0
  0
LINE
  5
763
  8
1
 62
     7
 10
6722.0299015978126
 20
4930.9857796228143
 30
0.0
 11
6717.0449015978129
 21
4930.9857796228143
 31
0.0
  0
LINE
  5
764
  8
1
  6
DASHED
 62
     7
 10
6706.6348815915326
 20
4952.8475261299682
 30
0.0
 11
6706.5470910280928
 21
4952.8475261259564
 31
0.0
  0
LINE
  5
765
  8
1
  6
DASHED
 62
     7
 10
6727.6597936828457
 20
4952.8475270904237
 30
0.0
 11
6722.0449015978129
 21
4952.8475268339262
 31
0.0
  0
LINE
  5
766
  8
1
  6
DASHED
 62
     7
 10
6712.0455015978123
 20
4952.8475263771343
 30
0.0
 11
6712.0455015978123
 21
4951.0647796228131
 31
0.0
  0
LINE
  5
767
  8
1
  6
DASHED
 62
     7
 10
6722.0449015978129
 20
4952.8475268339262
 30
0.0
 11
6722.0449015978129
 21
4951.0647796228131
 31
0.0
  0
LINE
  5
768
  8
1
  6
DASHED
 62
     7
 10
6706.6344181635332
 20
4967.3468609007914
 30
0.0
 11
6706.5470909975138
 21
4967.3468609006404
 31
0.0
  0
LINE
  5
769
  8
1
 62
     7
 10
6817.5433917290029
 20
4769.8509462811671
 30
0.0
 11
6812.0439015978118
 21
4769.8509460089635
 31
0.0
  0
LINE
  5
76A
  8
1
 62
     7
 10
6817.5424018050626
 20
4755.3511358380993
 30
0.0
 11
6796.4578515760986
 21
4755.3511358380993
 31
0.0
  0
LINE
  5
76B
  8
1
 62
     7
 10
6812.0439015978118
 20
4769.8509460089635
 30
0.0
 11
6802.0445015978121
 21
4769.8509455140293
 31
0.0
  0
LINE
  5
76C
  8
1
  6
DASHED
 62
     7
 10
6722.0449015978129
 20
4952.8475268339262
 30
0.0
 11
6712.0455015978123
 21
4952.8475263771343
 31
0.0
  0
LINE
  5
76D
  8
1
 62
     7
 10
6802.0445015978121
 20
4769.8509455140293
 30
0.0
 11
6796.5454015326677
 21
4769.8509452418448
 31
0.0
  0
LINE
  5
76E
  8
1
  6
DASHED
 62
     7
 10
6712.0455015978123
 20
4952.8475263771343
 30
0.0
 11
6706.4592954658447
 21
4952.8475261219464
 31
0.0
  0
LINE
  5
76F
  8
1
 62
     7
 10
6842.0459154376358
 20
5017.34848870107
 30
0.0
 11
6842.0439015978127
 21
4937.349399410361
 31
0.0
  0
LINE
  5
770
  8
1
 62
     7
 10
6793.0429015978116
 20
4766.7370224594788
 30
0.0
 11
6793.0429015978116
 21
4757.6131929921139
 31
0.0
  0
LINE
  5
771
  8
1
  6
DASHED
 62
     7
 10
6727.5222015978134
 20
4974.9251448481155
 30
0.0
 11
6727.5222015978134
 21
4967.3468609185056
 31
0.0
  0
LINE
  5
772
  8
1
  6
DASHED
 62
     7
 10
6724.4269015978116
 20
4937.3498663461487
 30
0.0
 11
6724.4269015978116
 21
4937.7417796228128
 31
0.0
  0
LINE
  5
773
  8
1
  6
DASHED
 62
     7
 10
6709.6642015978123
 20
4937.3498653244314
 30
0.0
 11
6709.6642015978123
 21
4937.7417796228128
 31
0.0
  0
LINE
  5
774
  8
1
  6
DASHED
 62
     7
 10
6706.5676015978133
 20
4968.8581858914713
 30
0.0
 11
6703.043648703715
 21
4968.8622735841063
 31
0.0
  0
LINE
  5
775
  8
1
  6
DASHED
 62
     7
 10
6723.3329326935373
 20
4940.3463248358621
 30
0.0
 11
6745.4978289378614
 21
4940.3463474001264
 31
0.0
  0
LINE
  5
776
  8
1
 62
     7
 10
6742.0449015978138
 20
4826.3515303619179
 30
0.0
 11
6737.0448838297534
 21
4826.3515302492397
 31
0.0
  0
LINE
  5
777
  8
1
 62
     7
 10
6739.0449015978129
 20
4913.3491087010716
 30
0.0
 11
6739.0449015978129
 21
4927.8488887010708
 31
0.0
  0
LINE
  5
778
  8
1
 62
     7
 10
6695.0449015978138
 20
4913.3491087010716
 30
0.0
 11
6695.0449015978138
 21
4927.8488887010708
 31
0.0
  0
LINE
  5
779
  8
1
 62
     7
 10
6695.0449015978138
 20
4927.8488887010708
 30
0.0
 11
6717.0449015978129
 21
4927.8488887010708
 31
0.0
  0
LINE
  5
77A
  8
1
 62
     7
 10
6695.0449015978138
 20
4913.3491087010716
 30
0.0
 11
6704.044901597812
 21
4913.3491087010716
 31
0.0
  0
LINE
  5
77B
  8
1
 62
     7
 10
6697.0449015978129
 20
4875.3507358380984
 30
0.0
 11
6704.044901597812
 21
4875.3507358380984
 31
0.0
  0
LINE
  5
77C
  8
1
 62
     7
 10
6830.0459154376331
 20
4807.3510358380991
 30
0.0
 11
6842.0459154376331
 21
4807.3510358380991
 31
0.0
  0
LINE
  5
77D
  8
1
 62
     7
 10
6830.0459154376331
 20
4877.3516358380994
 30
0.0
 11
6837.041856749277
 21
4877.3516358380994
 31
0.0
  0
LINE
  5
77E
  8
1
 62
     7
 10
6830.0459154376331
 20
4877.3516358380994
 30
0.0
 11
6830.0459154376331
 21
4858.3511358380974
 31
0.0
  0
LINE
  5
77F
  8
1
 62
     7
 10
6842.0459154376331
 20
4877.3516358380994
 30
0.0
 11
6842.0459154376331
 21
4858.3511358380974
 31
0.0
  0
LINE
  5
780
  8
1
 62
     7
 10
6882.0459154376331
 20
4858.3511358380974
 30
0.0
 11
6882.0459154376331
 21
4842.3506358380982
 31
0.0
  0
LINE
  5
781
  8
1
 62
     7
 10
6830.0459154376331
 20
4826.3515358380992
 30
0.0
 11
6742.0449015978138
 21
4826.3515303619179
 31
0.0
  0
LINE
  5
782
  8
1
 62
     7
 10
6882.0459154376331
 20
4826.3515358380992
 30
0.0
 11
6842.0459154376331
 21
4826.3515358380992
 31
0.0
  0
LINE
  5
783
  8
1
 62
     7
 10
6830.0459154376331
 20
4858.3511358380974
 30
0.0
 11
6742.0449015978138
 21
4858.3511358380974
 31
0.0
  0
LINE
  5
784
  8
1
 62
     7
 10
6882.0459154376331
 20
4858.3511358380974
 30
0.0
 11
6842.0459154376331
 21
4858.3511358380974
 31
0.0
  0
LINE
  5
785
  8
1
 62
     7
 10
6697.0449015978129
 20
4875.3507358380984
 30
0.0
 11
6697.0449015978129
 21
4864.3511358380974
 31
0.0
  0
LINE
  5
786
  8
1
 62
     7
 10
6742.0449015978138
 20
4858.3511358380974
 30
0.0
 11
6742.0449015978138
 21
4842.3506358380982
 31
0.0
  0
LINE
  5
787
  8
1
 62
     7
 10
6737.044901597812
 20
4875.3507358380984
 30
0.0
 11
6737.044901597812
 21
4864.3511358380974
 31
0.0
  0
LINE
  5
788
  8
1
 62
     7
 10
6697.0449015978129
 20
4760.3501358380972
 30
0.0
 11
6717.0449015978129
 21
4760.3501358380972
 31
0.0
  0
LINE
  5
789
  8
1
 62
     7
 10
6697.0449015978129
 20
4864.3511358380974
 30
0.0
 11
6717.0449015978129
 21
4864.3511358380974
 31
0.0
  0
LINE
  5
78A
  8
1
 62
     7
 10
6704.044901597812
 20
4913.3491087010716
 30
0.0
 11
6704.044901597812
 21
4875.3507358380984
 31
0.0
  0
LINE
  5
78B
  8
1
 62
     7
 10
6730.0449015978129
 20
4875.3507358380984
 30
0.0
 11
6730.0449015978129
 21
4913.3491087010716
 31
0.0
  0
LINE
  5
78C
  8
1
 62
     7
 10
6842.0459154376331
 20
4826.3515358380992
 30
0.0
 11
6842.0459154376331
 21
4807.3510358380991
 31
0.0
  0
LINE
  5
78D
  8
1
 62
     7
 10
6842.0459154376331
 20
4858.3511358380974
 30
0.0
 11
6842.0459154376331
 21
4842.3506358380982
 31
0.0
  0
LINE
  5
78E
  8
1
 62
     7
 10
6737.044901597812
 20
4864.3511358380974
 30
0.0
 11
6737.044901597812
 21
4858.3511358380974
 31
0.0
  0
LINE
  5
78F
  8
1
 62
     7
 10
6697.0449015978129
 20
4864.3511358380974
 30
0.0
 11
6697.0449015978129
 21
4760.3501358380972
 31
0.0
  0
LINE
  5
790
  8
1
 62
     7
 10
6730.0449015978129
 20
4875.3507358380984
 30
0.0
 11
6737.044901597812
 21
4875.3507358380984
 31
0.0
  0
LINE
  5
791
  8
1
 62
     7
 10
6730.0449015978129
 20
4913.3491087010716
 30
0.0
 11
6739.0449015978129
 21
4913.3491087010716
 31
0.0
  0
LINE
  5
792
  8
1
 62
     7
 10
6704.044901597812
 20
4875.3507358380984
 30
0.0
 11
6717.0449015978129
 21
4875.3507358380984
 31
0.0
  0
LINE
  5
793
  8
1
 62
     7
 10
6704.044901597812
 20
4913.3491087010716
 30
0.0
 11
6717.0449015978129
 21
4913.3491087010716
 31
0.0
  0
LINE
  5
794
  8
1
 62
     7
 10
6717.0449015978129
 20
4864.3511358380974
 30
0.0
 11
6737.044901597812
 21
4864.3511358380974
 31
0.0
  0
LINE
  5
795
  8
1
 62
     7
 10
6717.0449015978129
 20
4760.3501358380972
 30
0.0
 11
6737.044901597812
 21
4760.3501358380972
 31
0.0
  0
LINE
  5
796
  8
1
 62
     7
 10
6717.0449015978129
 20
4875.3507358380984
 30
0.0
 11
6730.0449015978129
 21
4875.3507358380984
 31
0.0
  0
LINE
  5
797
  8
1
 62
     7
 10
6717.0449015978129
 20
4913.3491087010716
 30
0.0
 11
6730.0449015978129
 21
4913.3491087010716
 31
0.0
  0
LINE
  5
798
  8
1
 62
     7
 10
6717.0449015978129
 20
4927.8488887010708
 30
0.0
 11
6739.0449015978129
 21
4927.8488887010708
 31
0.0
  0
LINE
  5
799
  8
1
 62
     7
 10
6830.0459154376331
 20
4842.3506358380982
 30
0.0
 11
6830.0459154376331
 21
4826.3515358380992
 31
0.0
  0
LINE
  5
79A
  8
1
 62
     7
 10
6842.0459154376331
 20
4842.3506358380982
 30
0.0
 11
6842.0459154376331
 21
4826.3515358380992
 31
0.0
  0
LINE
  5
79B
  8
1
 62
     7
 10
6882.0459154376331
 20
4842.3506358380982
 30
0.0
 11
6882.0459154376331
 21
4826.3515358380992
 31
0.0
  0
LINE
  5
79C
  8
1
 62
     7
 10
6742.0449015978138
 20
4842.3506358380982
 30
0.0
 11
6742.0449015978138
 21
4826.3515303619179
 31
0.0
  0
LINE
  5
79D
  8
1
 62
     7
 10
6830.0459154376331
 20
4826.3515358380992
 30
0.0
 11
6830.0459154376331
 21
4807.3510358380991
 31
0.0
  0
LINE
  5
79E
  8
1
 62
     7
 10
6737.0448838297534
 20
4826.3515302492397
 30
0.0
 11
6737.044901597812
 21
4760.3501358380972
 31
0.0
  0
LINE
  5
79F
  8
1
 62
     7
 10
6830.0459154376331
 20
4858.3511358380974
 30
0.0
 11
6830.0459154376331
 21
4842.3506358380982
 31
0.0
  0
LINE
  5
7A0
  8
1
 62
     7
 10
6742.0449015978138
 20
4858.3511358380974
 30
0.0
 11
6737.044901597812
 21
4858.3511358380974
 31
0.0
  0
LINE
  5
7A1
  8
1
 62
     7
 10
6817.545915437634
 20
4753.3501358380981
 30
0.0
 11
6817.545915437634
 21
4755.3524291237982
 31
0.0
  0
LINE
  5
7A2
  8
1
 62
     7
 10
6816.5459154376331
 20
4752.3511358380956
 30
0.0
 11
6817.545915437634
 21
4753.3501358380981
 31
0.0
  0
LINE
  5
7A3
  8
1
 62
     7
 10
6842.045915437634
 20
4737.3506358380982
 30
0.0
 11
6842.045915437634
 21
4727.8503358380976
 31
0.0
  0
LINE
  5
7A4
  8
1
 62
     7
 10
6842.045915437634
 20
4747.8506358380982
 30
0.0
 11
6842.045915437634
 21
4746.8508358380977
 31
0.0
  0
LINE
  5
7A5
  8
1
 62
     7
 10
6842.045915437634
 20
4726.8506358380982
 30
0.0
 11
6842.045915437634
 21
4710.350535838098
 31
0.0
  0
LINE
  5
7A6
  8
1
 62
     7
 10
6842.045915437634
 20
4727.8503358380976
 30
0.0
 11
6842.045915437634
 21
4726.8506358380982
 31
0.0
  0
LINE
  5
7A7
  8
1
 62
     7
 10
6842.045915437634
 20
4746.8508358380977
 30
0.0
 11
6842.045915437634
 21
4737.3506358380982
 31
0.0
  0
LINE
  5
7A8
  8
1
 62
     7
 10
6836.045915437634
 20
4737.3506358380982
 30
0.0
 11
6836.045915437634
 21
4710.350535838098
 31
0.0
  0
LINE
  5
7A9
  8
1
 62
     7
 10
6791.045915437634
 20
4728.8501358380981
 30
0.0
 11
6791.045915437634
 21
4727.5527358380978
 31
0.0
  0
LINE
  5
7AA
  8
1
 62
     7
 10
6770.0453154376364
 20
4737.3506358380982
 30
0.0
 11
6770.0453154376364
 21
4727.5527358380978
 31
0.0
  0
LINE
  5
7AB
  8
1
 62
     7
 10
6791.045915437634
 20
4737.3506358380982
 30
0.0
 11
6791.045915437634
 21
4728.8501358380981
 31
0.0
  0
LINE
  5
7AC
  8
1
 62
     7
 10
6830.045915437634
 20
4737.3506358380982
 30
0.0
 11
6830.045915437634
 21
4726.8506358380982
 31
0.0
  0
LINE
  5
7AD
  8
1
 62
     7
 10
6820.0458815772536
 20
4737.3506358380982
 30
0.0
 11
6820.0458817037979
 21
4726.8505990218373
 31
0.0
  0
LINE
  5
7AE
  8
1
 62
     7
 10
6855.0469154376342
 20
4737.3506358380982
 30
0.0
 11
6855.0469154376342
 21
4727.8503358380976
 31
0.0
  0
LINE
  5
7AF
  8
1
 62
     7
 10
6770.0453154376364
 20
4746.5801358380968
 30
0.0
 11
6770.0453154376364
 21
4737.919735838097
 31
0.0
  0
LINE
  5
7B0
  8
1
 62
     7
 10
6770.0453154376364
 20
4737.919735838097
 30
0.0
 11
6770.0453154376364
 21
4737.3506358380982
 31
0.0
  0
LINE
  5
7B1
  8
1
 62
     7
 10
6791.045915437634
 20
4745.8504358380969
 30
0.0
 11
6791.045915437634
 21
4737.919735838097
 31
0.0
  0
LINE
  5
7B2
  8
1
 62
     7
 10
6791.045915437634
 20
4746.5801358380968
 30
0.0
 11
6791.045915437634
 21
4745.8504358380969
 31
0.0
  0
LINE
  5
7B3
  8
1
 62
     7
 10
6791.045915437634
 20
4737.919735838097
 30
0.0
 11
6791.045915437634
 21
4737.3506358380982
 31
0.0
  0
LINE
  5
7B4
  8
1
 62
     7
 10
6791.045915437634
 20
4727.5527358380978
 30
0.0
 11
6791.045915437634
 21
4726.3503358380976
 31
0.0
  0
LINE
  5
7B5
  8
1
 62
     7
 10
6770.0453154376364
 20
4727.5527358380978
 30
0.0
 11
6770.0453154376364
 21
4726.3503358380976
 31
0.0
  0
LINE
  5
7B6
  8
1
 62
     7
 10
6786.0449154376347
 20
4723.8506358380982
 30
0.0
 11
6791.045915437634
 21
4726.3503358380976
 31
0.0
  0
LINE
  5
7B7
  8
1
 62
     7
 10
6772.0449154376356
 20
4723.8506358380982
 30
0.0
 11
6770.0453154376364
 21
4726.3503358380976
 31
0.0
  0
LINE
  5
7B8
  8
1
 62
     7
 10
6786.0449154376347
 20
4724.312235838097
 30
0.0
 11
6791.045915437634
 21
4727.5527358380978
 31
0.0
  0
LINE
  5
7B9
  8
1
 62
     7
 10
6770.0453154376364
 20
4727.5527358380978
 30
0.0
 11
6772.0449154376356
 21
4724.312235838097
 31
0.0
  0
LINE
  5
7BA
  8
1
 62
     7
 10
6786.0449154376347
 20
4723.8506358380982
 30
0.0
 11
6772.0449154376356
 21
4723.8506358380982
 31
0.0
  0
LINE
  5
7BB
  8
1
 62
     7
 10
6786.0449154376347
 20
4724.312235838097
 30
0.0
 11
6786.0449154376347
 21
4723.8506358380982
 31
0.0
  0
LINE
  5
7BC
  8
1
 62
     7
 10
6772.0449154376356
 20
4724.312235838097
 30
0.0
 11
6772.0449154376356
 21
4723.8506358380982
 31
0.0
  0
LINE
  5
7BD
  8
1
 62
     7
 10
6786.0449154376347
 20
4724.312235838097
 30
0.0
 11
6772.0449154376356
 21
4724.312235838097
 31
0.0
  0
LINE
  5
7BE
  8
1
 62
     7
 10
6770.0453154376364
 20
4727.5527358380978
 30
0.0
 11
6791.045915437634
 21
4727.5527358380978
 31
0.0
  0
LINE
  5
7BF
  8
1
 62
     7
 10
6770.0453154376364
 20
4737.919735838097
 30
0.0
 11
6772.0449154376356
 21
4740.8377358380976
 31
0.0
  0
LINE
  5
7C0
  8
1
 62
     7
 10
6791.045915437634
 20
4737.919735838097
 30
0.0
 11
6786.0449154376347
 21
4740.838435838099
 31
0.0
  0
LINE
  5
7C1
  8
1
 62
     7
 10
6770.0453154376364
 20
4737.919735838097
 30
0.0
 11
6791.045915437634
 21
4737.919735838097
 31
0.0
  0
LINE
  5
7C2
  8
1
 62
     7
 10
6791.045915437634
 20
4746.5801358380968
 30
0.0
 11
6786.0449154376347
 21
4746.9011358380994
 31
0.0
  0
LINE
  5
7C3
  8
1
 62
     7
 10
6772.0449154376356
 20
4746.9011358380994
 30
0.0
 11
6770.0453154376364
 21
4746.5801358380968
 31
0.0
  0
LINE
  5
7C4
  8
1
 62
     7
 10
6786.0449154376347
 20
4740.838435838099
 30
0.0
 11
6772.0449154376356
 21
4740.8377358380976
 31
0.0
  0
LINE
  5
7C5
  8
1
 62
     7
 10
6791.045915437634
 20
4748.350935838097
 30
0.0
 11
6770.0453154376364
 21
4748.350935838097
 31
0.0
  0
LINE
  5
7C6
  8
1
 62
     7
 10
6786.0449154376347
 20
4746.9011358380994
 30
0.0
 11
6772.0449154376356
 21
4746.9011358380994
 31
0.0
  0
LINE
  5
7C7
  8
1
 62
     7
 10
6817.545915437634
 20
4745.8504358380969
 30
0.0
 11
6818.0459154376331
 21
4745.8504358380969
 31
0.0
  0
LINE
  5
7C8
  8
1
 62
     7
 10
6816.5459154376331
 20
4752.3511358380956
 30
0.0
 11
6816.5456424376353
 21
4746.8508833619389
 31
0.0
  0
LINE
  5
7C9
  8
1
 62
     7
 10
6797.5469154376342
 20
4752.3511358380956
 30
0.0
 11
6797.5465094079082
 21
4747.8506559657753
 31
0.0
  0
LINE
  5
7CA
  8
1
 62
     7
 10
6791.045915437634
 20
4745.8504358380969
 30
0.0
 11
6795.5455856128128
 21
4745.8504208676422
 31
0.0
  0
LINE
  5
7CB
  8
1
 62
     7
 10
6796.5459154376349
 20
4753.3501358380981
 30
0.0
 11
6797.5469154376342
 21
4752.3511358380956
 31
0.0
  0
LINE
  5
7CC
  8
1
 62
     7
 10
6796.5459154376349
 20
4753.3501358380981
 30
0.0
 11
6796.5459154376349
 21
4755.4563522729632
 31
0.0
  0
LINE
  5
7CD
  8
1
 62
     7
 10
6854.0469154376342
 20
4726.8506358380982
 30
0.0
 11
6855.0469154376342
 21
4727.8503358380976
 31
0.0
  0
LINE
  5
7CE
  8
1
 62
     7
 10
6855.0469154376342
 20
4746.8508358380977
 30
0.0
 11
6854.0469154376342
 21
4747.8506358380982
 31
0.0
  0
LINE
  5
7CF
  8
1
 62
     7
 10
6842.045915437634
 20
4726.8506358380982
 30
0.0
 11
6854.0469154376342
 21
4726.8506358380982
 31
0.0
  0
LINE
  5
7D0
  8
1
 62
     7
 10
6854.0469154376342
 20
4747.8506358380982
 30
0.0
 11
6842.045915437634
 21
4747.8506358380982
 31
0.0
  0
LINE
  5
7D1
  8
1
 62
     7
 10
6855.0469154376342
 20
4746.8508358380977
 30
0.0
 11
6855.0469154376342
 21
4737.3506358380982
 31
0.0
  0
LINE
  5
7D2
  8
1
 62
     7
 10
6830.045915437634
 20
4726.8506358380982
 30
0.0
 11
6820.0458817037979
 21
4726.8505990218373
 31
0.0
  0
LINE
  5
7D3
  8
1
 62
     7
 10
6820.0458814507092
 20
4747.8506563007541
 30
0.0
 11
6830.045915437634
 21
4747.8506358380982
 31
0.0
  0
LINE
  5
7D4
  8
1
 62
     7
 10
6791.045915437634
 20
4728.8501358380981
 30
0.0
 11
6818.0459154376331
 21
4728.8501358380981
 31
0.0
  0
LINE
  5
7D5
  8
1
 62
     7
 10
6820.0458814507092
 20
4747.8506563007541
 30
0.0
 11
6820.0458815772536
 21
4737.3506358380982
 31
0.0
  0
LINE
  5
7D6
  8
1
 62
     7
 10
6836.045915437634
 20
4710.350535838098
 30
0.0
 11
6842.045915437634
 21
4710.350535838098
 31
0.0
  0
LINE
  5
7D7
  8
1
 62
     7
 10
6836.045915437634
 20
4710.350535838098
 30
0.0
 11
6830.045915437634
 21
4726.8506358380982
 31
0.0
  0
LINE
  5
7D8
  8
1
 62
     7
 10
6842.045915437634
 20
4764.3511358380956
 30
0.0
 11
6836.045915437634
 21
4764.3511358380956
 31
0.0
  0
LINE
  5
7D9
  8
1
 62
     7
 10
6830.045915437634
 20
4747.8506358380982
 30
0.0
 11
6836.045915437634
 21
4764.3511358380956
 31
0.0
  0
LINE
  5
7DA
  8
1
 62
     7
 10
6830.045915437634
 20
4747.8506358380982
 30
0.0
 11
6830.045915437634
 21
4737.3506358380982
 31
0.0
  0
LINE
  5
7DB
  8
1
 62
     7
 10
6836.045915437634
 20
4764.3511358380956
 30
0.0
 11
6836.045915437634
 21
4737.3506358380982
 31
0.0
  0
LINE
  5
7DC
  8
1
 62
     7
 10
6842.045915437634
 20
4764.3511358380956
 30
0.0
 11
6842.045915437634
 21
4747.8506358380982
 31
0.0
  0
LINE
  5
7DD
  8
1
 62
     7
 10
6786.0449154376347
 20
4746.9011358380994
 30
0.0
 11
6786.0449154376347
 21
4740.838435838099
 31
0.0
  0
LINE
  5
7DE
  8
1
 62
     7
 10
6791.045915437634
 20
4748.350935838097
 30
0.0
 11
6791.045915437634
 21
4746.5801358380968
 31
0.0
  0
LINE
  5
7DF
  8
1
 62
     7
 10
6772.0449154376356
 20
4746.9011358380994
 30
0.0
 11
6772.0449154376356
 21
4740.8377358380976
 31
0.0
  0
LINE
  5
7E0
  8
1
 62
     7
 10
6770.0453154376364
 20
4748.350935838097
 30
0.0
 11
6770.0453154376364
 21
4746.5801358380968
 31
0.0
  0
LINE
  5
7E1
  8
1
  6
DIVIDE
 62
     7
 10
6842.045915437634
 20
4421.4077219771489
 30
0.0
 11
6842.045915437634
 21
4277.3506358381019
 31
0.0
  0
LINE
  5
7E2
  8
1
  6
DIVIDE
 62
     7
 10
4811.0419254376329
 20
4277.3506358380982
 30
0.0
 11
5473.0439254376352
 21
4277.3506358380982
 31
0.0
  0
LINE
  5
7E3
  8
1
  6
DIVIDE
 62
     7
 10
6215.8607377637054
 20
4277.3506358380982
 30
0.0
 11
6842.045915437634
 21
4277.3506358380982
 31
0.0
  0
LINE
  5
7E4
  8
1
  6
DIVIDE
 62
     7
 10
6842.0459154376331
 20
5549.7227030476924
 30
0.0
 11
6842.0459154376331
 21
4971.8453004188341
 31
0.0
  0
ARC
  5
7E5
  8
2
 62
     7
 10
4559.6845523451884
 20
3616.7448792245891
 30
0.0
 40
7.4222696970065227
 50
30.093742513035949
 51
149.9062574869676
  0
ARC
  5
7E6
  8
2
 62
     7
 10
4686.3405537176259
 20
3749.8666489088018
 30
0.0
 40
5.7182925993838571
 50
270.0
 51
0.0
  0
ARC
  5
7E7
  8
2
 62
     7
 10
4686.3405537176259
 20
3761.907284674161
 30
0.0
 40
5.7182925993802201
 50
0.0
 51
90.0
  0
ARC
  5
7E8
  8
2
 62
     7
 10
4598.0708537842456
 20
3696.6832681698688
 30
0.0
 40
5.718292599382039
 50
270.0
 51
0.0
  0
ARC
  5
7E9
  8
2
 62
     7
 10
4598.0708537842456
 20
3708.7239039352262
 30
0.0
 40
5.718292599382039
 50
0.0
 51
90.0
  0
ARC
  5
7EA
  8
2
 62
     7
 10
4598.0708537842456
 20
3643.4998874309331
 30
0.0
 40
5.718292599382039
 50
270.0
 51
0.0
  0
ARC
  5
7EB
  8
2
 62
     7
 10
4598.0708537842456
 20
3655.5405231962918
 30
0.0
 40
5.718292599382039
 50
0.0
 51
90.0
  0
ARC
  5
7EC
  8
2
 62
     7
 10
4598.0708537842456
 20
3749.8666489088041
 30
0.0
 40
5.7182925993843119
 50
270.0
 51
0.0
  0
ARC
  5
7ED
  8
2
 62
     7
 10
4598.0708537842456
 20
3761.9072846741619
 30
0.0
 40
5.718292599382039
 50
0.0
 51
90.0
  0
ARC
  5
7EE
  8
2
 62
     7
 10
4491.3587593113843
 20
3643.4998874309331
 30
0.0
 40
5.718292599382039
 50
270.0
 51
0.0
  0
ARC
  5
7EF
  8
2
 62
     7
 10
4491.3587593113843
 20
3655.5405231962918
 30
0.0
 40
5.7182925993793106
 50
0.0
 51
90.0
  0
ARC
  5
7F0
  8
2
 62
     7
 10
4491.3587593113843
 20
3749.8666489088041
 30
0.0
 40
5.7182925993843119
 50
270.0
 51
0.0
  0
ARC
  5
7F1
  8
2
 62
     7
 10
4491.3587593113843
 20
3761.9072846741619
 30
0.0
 40
5.7182925993793106
 50
0.0
 51
90.0
  0
ARC
  5
7F2
  8
2
 62
     7
 10
4791.9151311130172
 20
3761.9072846741619
 30
0.0
 40
5.7182925993793106
 50
0.0
 51
90.0
  0
ARC
  5
7F3
  8
2
 62
     7
 10
4506.7396450184324
 20
3613.6063990814068
 30
0.0
 40
12.25901984171383
 50
311.21328482751642
 51
59.598436609322569
  0
ARC
  5
7F4
  8
1
  6
DASHED
 62
     7
 10
6706.5907545900855
 20
4961.7274047588016
 30
0.0
 40
5.619625773964203
 50
89.554816681736412
 51
89.670724050292876
  0
ARC
  5
7F5
  8
1
 62
     7
 10
5242.0459444376338
 20
4737.3506405542621
 30
0.0
 40
27.000077999999469
 50
0.0000090985395354
 51
58.76476148695982
  0
ARC
  5
7F6
  8
1
 62
     7
 10
5324.7508514376341
 20
5079.4586586003816
 30
0.0
 40
13.863310000000419
 50
166.44276000000059
 51
180.4513489999992
  0
ARC
  5
7F7
  8
1
 62
     7
 10
5364.0582847843079
 20
5124.7451221369001
 30
0.0
 40
27.5844099999997
 50
267.28313300000389
 51
269.99611716640442
  0
ARC
  5
7F8
  8
1
 62
     7
 10
5250.247509437635
 20
5188.0435296003816
 30
0.0
 40
42.341440999999747
 50
2.1207939999996102
 51
87.874352000000044
  0
ARC
  5
7F9
  8
1
 62
     7
 10
5253.4249864506992
 20
5187.406912297085
 30
0.0
 40
42.97897600000001
 50
92.142795000000504
 51
159.8595604361544
  0
ARC
  5
7FA
  8
1
 62
     7
 10
5249.5230054376352
 20
5187.3154486003796
 30
0.0
 40
62.07575699999974
 50
2.118749000000244
 51
87.881241000000315
  0
ARC
  5
7FB
  8
1
 62
     7
 10
5254.161386116727
 20
5186.3768783790674
 30
0.0
 40
63.015475999998522
 50
92.131174999999715
 51
159.86068989438641
  0
ARC
  5
7FC
  8
1
 62
     7
 10
5368.2301334376352
 20
5099.7105816003796
 30
0.0
 40
2.041557000000894
 50
288.44841100003401
 51
294.0526149999975
  0
ARC
  5
7FD
  8
1
 62
     7
 10
5367.5884084168792
 20
5101.2464730986594
 30
0.0
 40
3.703625230747563
 50
287.8686748795584
 51
290.3471398795669
  0
ARC
  5
7FE
  8
1
 62
     7
 10
5363.5468395698736
 20
5114.386768949953
 30
0.0
 40
17.451148000000881
 50
286.20831199999873
 51
287.26026159600582
  0
ARC
  5
7FF
  8
1
 62
     7
 10
5365.3227934376373
 20
5109.3850796003817
 30
0.0
 40
12.156471000000691
 50
278.44856899999371
 51
284.75063899999651
  0
ARC
  5
800
  8
1
 62
     7
 10
5364.3691166655926
 20
5116.5190158114001
 30
0.0
 40
19.353390216421669
 50
273.1659272536761
 51
278.13830225367559
  0
ARC
  5
801
  8
1
 62
     7
 10
5364.211523410514
 20
5118.658952615443
 30
0.0
 40
21.49880021445793
 50
269.58662301028988
 51
273.27031501028858
  0
ARC
  5
802
  8
1
 62
     7
 10
5360.0723793679936
 20
5100.1083246185453
 30
0.0
 40
2.4778202438515211
 50
245.91107066844731
 51
251.134915668388
  0
ARC
  5
803
  8
1
 62
     7
 10
5360.9080014376359
 20
5102.2594336003813
 30
0.0
 40
4.7845149999998764
 50
249.994877
 51
255.739155000003
  0
ARC
  5
804
  8
1
 62
     7
 10
5362.6050295671757
 20
5108.4282665305991
 30
0.0
 40
11.18199147646124
 50
255.09802076744759
 51
262.053903767446
  0
ARC
  5
805
  8
1
 62
     7
 10
5363.5138150127159
 20
5114.0797846697096
 30
0.0
 40
16.90529603071381
 50
261.65130835585808
 51
267.41299235586467
  0
ARC
  5
806
  8
1
 62
     7
 10
5438.3485298746882
 20
5178.8035625361126
 30
0.0
 40
165.2825415287661
 50
223.94240411577891
 51
224.76751711577921
  0
ARC
  5
807
  8
1
 62
     7
 10
5393.6179024376352
 20
5136.1596296003809
 30
0.0
 40
103.4832300000005
 50
221.98190600000009
 51
224.1278310000005
  0
ARC
  5
808
  8
1
 62
     7
 10
5350.9427028986884
 20
5097.3661751565323
 30
0.0
 40
45.812509086483267
 50
216.8104444633538
 51
221.61660446335389
  0
ARC
  5
809
  8
1
 62
     7
 10
5333.631448068023
 20
5084.0795336782212
 30
0.0
 40
23.993249493873972
 50
209.51452743408581
 51
216.177128434087
  0
ARC
  5
80A
  8
1
 62
     7
 10
5326.1097943491786
 20
5079.7159486350747
 30
0.0
 40
15.29825500000174
 50
194.12121199999669
 51
209.1706107431645
  0
ARC
  5
80B
  8
1
 62
     7
 10
5325.0394518871753
 20
5079.2666768966337
 30
0.0
 40
14.151722382776111
 50
179.66487174545199
 51
193.4144577454511
  0
ARC
  5
80C
  8
1
 62
     7
 10
5426.0133056281029
 20
4991.9490983235437
 30
0.0
 40
148.0314671374995
 50
135.18442732844881
 51
136.1056963284488
  0
ARC
  5
80D
  8
1
 62
     7
 10
5393.523504850772
 20
5022.6205806186208
 30
0.0
 40
103.3540692063587
 50
135.87082565301461
 51
138.01944065301521
  0
ARC
  5
80E
  8
1
 62
     7
 10
5350.9236427161177
 20
5061.3414030259073
 30
0.0
 40
45.787927108865951
 50
138.38212832034461
 51
143.19085732034341
  0
ARC
  5
80F
  8
1
 62
     7
 10
5334.3148866473084
 20
5074.153206553463
 30
0.0
 40
24.81604524826011
 50
143.8983655963211
 51
150.33312859632159
  0
ARC
  5
810
  8
1
 62
     7
 10
5326.4417172738276
 20
5078.851361052738
 30
0.0
 40
15.65062512211559
 50
151.01200895566171
 51
165.7324899556622
  0
ARC
  5
811
  8
1
 62
     7
 10
4892.1861724451828
 20
4884.4814833313239
 30
0.0
 40
3.6379939937962988
 50
182.13044017637739
 51
267.86930869851932
  0
ARC
  5
812
  8
1
 62
     7
 10
4892.0508605196073
 20
4897.8595945465986
 30
0.0
 40
38.472379560163652
 50
247.05240023226301
 51
270.00008178779791
  0
ARC
  5
813
  8
1
  6
DASHED
 62
     7
 10
5170.3900394376351
 20
4937.1983295640421
 30
0.0
 40
3.151316000000036
 50
23.67029000000387
 51
88.13525300001082
  0
ARC
  5
814
  8
1
  6
DASHED
 62
     7
 10
4899.1865734391649
 20
4969.4827841262259
 30
0.0
 40
3.6379139801710041
 50
182.12976761599859
 51
267.86294192640952
  0
ARC
  5
815
  8
1
  6
DASHED
 62
     7
 10
4898.9170988459018
 20
4969.4819704024731
 30
0.0
 40
3.6370326063826499
 50
272.10854772654039
 51
357.88254379417953
  0
ARC
  5
816
  8
1
  6
DASHED
 62
     7
 10
4884.9119052354636
 20
4944.2115707479534
 30
0.0
 40
3.6412848976369379
 50
2.1221092140293951
 51
87.765154070088997
  0
ARC
  5
817
  8
1
  6
DASHED
 62
     7
 10
4885.1882153321067
 20
4944.2156635846168
 30
0.0
 40
3.636907148725411
 50
92.116495432320491
 51
177.93986743230801
  0
ARC
  5
818
  8
1
 62
     7
 10
4892.1850037509867
 20
4884.2121700329453
 30
0.0
 40
3.6367828297942069
 50
92.112976359675159
 51
177.8872772772304
  0
ARC
  5
819
  8
1
 62
     7
 10
5362.0519480406874
 20
4897.3148479782521
 30
0.0
 40
37.97132899999913
 50
246.73179599999949
 51
269.99995080449747
  0
ARC
  5
81A
  8
1
  6
DASHED
 62
     7
 10
5368.9183714710871
 20
4969.2132156516436
 30
0.0
 40
3.6336529999992431
 50
2.1192900000094461
 51
87.880699399221058
  0
ARC
  5
81B
  8
1
  6
DASHED
 62
     7
 10
5368.9185921505359
 20
4969.4781999106681
 30
0.0
 40
3.6332952944470409
 50
272.11604985956711
 51
357.93986362264428
  0
ARC
  5
81C
  8
1
  6
DASHED
 62
     7
 10
5354.9139204376352
 20
4944.2121157010706
 30
0.0
 40
3.6405850000002991
 50
2.113940000018832
 51
87.829685000008581
  0
ARC
  5
81D
  8
1
  6
DASHED
 62
     7
 10
5355.1860948795793
 20
4944.2156748963916
 30
0.0
 40
3.6368950000009459
 50
92.116330000006215
 51
177.94004345540279
  0
ARC
  5
81E
  8
1
 62
     7
 10
4964.0630654376364
 20
5075.2759265640434
 30
0.0
 40
2.075357999998892
 50
92.050467000041181
 51
176.95308000003479
  0
ARC
  5
81F
  8
1
 62
     7
 10
5259.9923260200867
 20
5075.2735305810502
 30
0.0
 40
2.0779730082008441
 50
3.1065352464718079
 51
87.788179246462207
  0
ARC
  5
820
  8
1
  6
DASHED
 62
     7
 10
4884.9197344376362
 20
4944.4769937010697
 30
0.0
 40
3.6333059999990511
 50
272.11620500000367
 51
357.94022600002188
  0
ARC
  5
821
  8
1
  6
DASHED
 62
     7
 10
4885.189133771215
 20
4944.481640581299
 30
0.0
 40
3.6379893288967442
 50
182.13036591969481
 51
267.8696589197088
  0
ARC
  5
822
  8
1
  6
DASHED
 62
     7
 10
4899.1852581477779
 20
4969.2101973503823
 30
0.0
 40
3.6366818962037351
 50
92.117045774236217
 51
177.83488945741669
  0
ARC
  5
823
  8
1
  6
DASHED
 62
     7
 10
4898.9195840666753
 20
4969.2121871751197
 30
0.0
 40
3.6345869329994112
 50
2.1349693083727339
 51
87.929233997003379
  0
ARC
  5
824
  8
1
  6
DASHED
 62
     7
 10
5354.9176603619526
 20
4944.4805339503109
 30
0.0
 40
3.6368416775249779
 50
272.11358949332993
 51
357.88642333433557
  0
ARC
  5
825
  8
1
  6
DASHED
 62
     7
 10
5355.1862384376354
 20
4944.4808547010707
 30
0.0
 40
3.6371740000001909
 50
182.1184600000002
 51
267.88157000000461
  0
ARC
  5
826
  8
1
  6
DASHED
 62
     7
 10
5369.183792437635
 20
4969.4822437010707
 30
0.0
 40
3.6372229999993548
 50
182.12165343060761
 51
267.9352389999944
  0
ARC
  5
827
  8
1
  6
DASHED
 62
     7
 10
5369.1864943927994
 20
4969.2067149207714
 30
0.0
 40
3.6401584660558881
 50
92.105656026413087
 51
177.7821050263932
  0
ARC
  5
828
  8
1
  6
DASHED
 62
     7
 10
5183.0375287384222
 20
4972.9980920723119
 30
0.0
 40
4.9542363685711788
 50
303.92724511222917
 51
322.81127211221639
  0
ARC
  5
829
  8
1
  6
DASHED
 62
     7
 10
5106.5040899228543
 20
4971.469799650411
 30
0.0
 40
5.0528220000005213
 50
184.363726999997
 51
222.38253586530919
  0
ARC
  5
82A
  8
1
  6
DASHED
 62
     7
 10
5088.1703810662293
 20
5014.6576535707609
 30
0.0
 40
10.111304659693509
 50
4.1701955562466866
 51
15.441553556247429
  0
ARC
  5
82B
  8
1
  6
DASHED
 62
     7
 10
5113.6649631711789
 20
4937.1820647468103
 30
0.0
 40
3.1678176089437331
 50
92.005714830456142
 51
156.13833082634699
  0
ARC
  5
82C
  8
1
 62
     7
 10
4892.0508605196073
 20
4897.8595945465986
 30
0.0
 40
38.472379560162253
 50
270.00008178779791
 51
292.94775023226271
  0
ARC
  5
82D
  8
1
 62
     7
 10
4891.9168502785651
 20
4884.480325589665
 30
0.0
 40
3.6367929220158359
 50
272.11260546164112
 51
357.88711546163159
  0
ARC
  5
82E
  8
1
 62
     7
 10
4891.9157684376351
 20
4884.211079701071
 30
0.0
 40
3.6379139999995891
 50
2.1292569999992952
 51
87.87099419341547
  0
ARC
  5
82F
  8
1
 62
     7
 10
5362.0519480406874
 20
4897.3148479782521
 30
0.0
 40
37.971303241303197
 50
269.99995080449747
 51
293.26811361155472
  0
ARC
  5
830
  8
1
 62
     7
 10
5169.8587453239707
 20
4936.9614362388666
 30
0.0
 40
3.1151627076622881
 50
271.27231919690013
 51
328.83103919688301
  0
ARC
  5
831
  8
1
 62
     7
 10
5114.1941066054378
 20
4936.9760722456522
 30
0.0
 40
3.129982664942323
 50
211.31810171785779
 51
268.5868367178528
  0
ARC
  5
832
  8
1
 62
     7
 10
5253.5973534376344
 20
4758.0296000671169
 30
0.0
 40
2.4846999999990582
 50
295.92198399998318
 51
350.35277720031422
  0
ARC
  5
833
  8
1
 62
     7
 10
5252.5881905521173
 20
4760.9705332497879
 30
0.0
 40
5.6195501959668528
 50
269.55367552352737
 51
281.41660152353597
  0
ARC
  5
834
  8
1
 62
     7
 10
5252.9833695865163
 20
4759.1995321661434
 30
0.0
 40
3.8055460939405328
 50
280.86245294022632
 51
296.53595599999881
  0
ARC
  5
835
  8
1
  6
DASHED
 62
     7
 10
5291.600799892979
 20
4958.4661720809709
 30
0.0
 40
5.6184538200173781
 50
269.55236345373061
 51
270.4476417810879
  0
ARC
  5
836
  8
1
  6
DASHED
 62
     7
 10
5313.6067377287281
 20
4955.5284845340429
 30
0.0
 40
2.4875057511348531
 50
295.94172590695911
 51
350.00770390695442
  0
ARC
  5
837
  8
1
  6
DASHED
 62
     7
 10
5312.9955934376358
 20
4956.6931262287044
 30
0.0
 40
3.8023580000001962
 50
280.86338899999242
 51
296.5457519999897
  0
ARC
  5
838
  8
1
  6
DASHED
 62
     7
 10
5312.5988497878388
 20
4958.4636446677059
 30
0.0
 40
5.616199722608278
 50
270.72188081517601
 51
281.43417062897947
  0
ARC
  5
839
  8
1
  6
DASHED
 62
     7
 10
5312.5111494633993
 20
4958.4599637396041
 30
0.0
 40
5.6122435341264634
 50
269.55340975300652
 51
270.44659548174502
  0
ARC
  5
83A
  8
1
  6
DASHED
 62
     7
 10
5290.503967985198
 20
4955.5263365317724
 30
0.0
 40
2.4847015766552292
 50
189.9534177151443
 51
244.0780167151685
  0
ARC
  5
83B
  8
1
  6
DASHED
 62
     7
 10
5291.1174784376362
 20
4956.6948702287054
 30
0.0
 40
3.804084000000731
 50
243.46101400000899
 51
259.14056000000522
  0
ARC
  5
83C
  8
1
  6
DASHED
 62
     7
 10
5291.513006830146
 20
4958.4659877519798
 30
0.0
 40
5.6182695201917241
 50
258.58203695555852
 51
269.55232327920271
  0
ARC
  5
83D
  8
1
  6
DASHED
 62
     7
 10
5313.6047385969778
 20
4964.6654074932148
 30
0.0
 40
2.4896960000004769
 50
9.9860859999991796
 51
64.0326913538605
  0
ARC
  5
83E
  8
1
  6
DASHED
 62
     7
 10
5312.9949964376374
 20
4963.5017792287044
 30
0.0
 40
3.8031209999998952
 50
63.449937000004212
 51
79.129660000000882
  0
ARC
  5
83F
  8
1
  6
DASHED
 62
     7
 10
5312.5999944968207
 20
4961.7305875729244
 30
0.0
 40
5.6172819999994612
 50
78.579975000002349
 51
90.460025125860099
  0
ARC
  5
840
  8
1
  6
DASHED
 62
     7
 10
5291.600568429908
 20
4961.7282434406779
 30
0.0
 40
5.619625773962392
 50
89.554816681727004
 51
90.445183513269328
  0
ARC
  5
841
  8
1
  6
DASHED
 62
     7
 10
5290.5063467130958
 20
4964.6676110213302
 30
0.0
 40
2.4871029812093339
 50
115.9560572619809
 51
170.05493726197511
  0
ARC
  5
842
  8
1
  6
DASHED
 62
     7
 10
5291.1180771490481
 20
4963.5000354895374
 30
0.0
 40
3.8048482370704271
 50
100.86642799965691
 51
116.54333499964849
  0
ARC
  5
843
  8
1
  6
DASHED
 62
     7
 10
5291.5132344039039
 20
4961.7282387215828
 30
0.0
 40
5.6196305460710452
 50
89.554747115680058
 51
101.41753811567879
  0
ARC
  5
844
  8
1
 62
     7
 10
5230.4944774376336
 20
4758.0296000671169
 30
0.0
 40
2.484699999999469
 50
189.95341699999889
 51
244.078015999998
  0
ARC
  5
845
  8
1
 62
     7
 10
5231.1084612887507
 20
4759.1995321661434
 30
0.0
 40
3.8055449999998898
 50
243.46404400000119
 51
259.1375470597871
  0
ARC
  5
846
  8
1
 62
     7
 10
5231.5036403231543
 20
4760.9705332497879
 30
0.0
 40
5.6195501959664993
 50
258.58339847644578
 51
269.5536755235367
  0
ARC
  5
847
  8
1
 62
     7
 10
5253.5951646480398
 20
4767.1690149714559
 30
0.0
 40
2.4895148439990802
 50
350.00759325500741
 51
64.027425212747602
  0
ARC
  5
848
  8
1
 62
     7
 10
5252.9860652272191
 20
4766.006799335566
 30
0.0
 40
3.8012966182826471
 50
63.44559506400028
 51
79.132933063991331
  0
ARC
  5
849
  8
1
 62
     7
 10
5252.5899959737717
 20
4764.2288484755372
 30
0.0
 40
5.6222923478430022
 50
78.584986635471438
 51
90.454417635468275
  0
ARC
  5
84A
  8
1
 62
     7
 10
5230.4964542619518
 20
4767.1711887810152
 30
0.0
 40
2.4866388913885631
 50
115.95091682867751
 51
170.05555382868241
  0
ARC
  5
84B
  8
1
 62
     7
 10
5231.1080304376346
 20
4766.0050540671164
 30
0.0
 40
3.8030240000003879
 50
100.8631459999785
 51
116.5476669999917
  0
ARC
  5
84C
  8
1
 62
     7
 10
5231.503566781118
 20
4764.2331281235074
 30
0.0
 40
5.6180059564501459
 50
89.552801340683374
 51
101.4190243406684
  0
ARC
  5
84D
  8
1
  6
DASHED
 62
     7
 10
5295.8368665660846
 20
4949.1912130762303
 30
0.0
 40
1.875213000000544
 50
92.119456999990717
 51
177.8512466949262
  0
ARC
  5
84E
  8
1
  6
DASHED
 62
     7
 10
5295.8362074376373
 20
4949.3309202287037
 30
0.0
 40
1.874519000000894
 50
182.121672999998
 51
267.90023799996732
  0
ARC
  5
84F
  8
1
  6
DASHED
 62
     7
 10
5308.2735614376352
 20
4949.3315702287045
 30
0.0
 40
1.8751919999997191
 50
272.11888000000062
 51
357.85924900001612
  0
ARC
  5
850
  8
1
  6
DASHED
 62
     7
 10
5308.2742097534483
 20
4949.1921255912757
 30
0.0
 40
1.874519999999867
 50
2.1216699999957682
 51
87.905338603210325
  0
ARC
  5
851
  8
1
 62
     7
 10
5248.2646325902588
 20
4773.5073757152559
 30
0.0
 40
1.8751689999997541
 50
272.11741899997662
 51
357.83842270162307
  0
ARC
  5
852
  8
1
 62
     7
 10
5248.263924688973
 20
4773.3671859738506
 30
0.0
 40
1.8760071678940431
 50
2.1217632903116721
 51
87.861892290306798
  0
ARC
  5
853
  8
1
 62
     7
 10
5235.8277890578283
 20
4773.3690023819454
 30
0.0
 40
1.874157999998354
 50
92.112160999979295
 51
177.9317226582246
  0
ARC
  5
854
  8
1
 62
     7
 10
5235.8273824376338
 20
4773.5060140671167
 30
0.0
 40
1.873804999999573
 50
182.1217169999972
 51
267.90020299999748
  0
ARC
  5
855
  8
1
 62
     7
 10
5141.384293548218
 20
4842.0081229200241
 30
0.0
 40
35.66360958189955
 50
0.5502765020288022
 51
54.59474863386103
  0
ARC
  5
856
  8
1
 62
     7
 10
5142.7092724376344
 20
4842.6932738380983
 30
0.0
 40
35.665307999999712
 50
180.55045124799679
 51
234.59469517714831
  0
ARC
  5
857
  8
1
 62
     7
 10
5142.6585628494513
 20
4842.0341170285283
 30
0.0
 40
35.614359046865367
 50
125.3634872149092
 51
179.49078317971379
  0
ARC
  5
858
  8
1
 62
     7
 10
5141.4311406817706
 20
4842.6678349981194
 30
0.0
 40
35.616530173739619
 50
305.36663320819031
 51
359.48971970866631
  0
ARC
  5
859
  8
1
 62
     7
 10
5242.0459252251158
 20
4737.3506687665604
 30
0.0
 40
27.000097212528971
 50
269.99997923039149
 51
359.9999492303923
  0
ARC
  5
85A
  8
1
 62
     7
 10
5242.0457724360431
 20
4737.3508125520639
 30
0.0
 40
27.00024099840887
 50
180.0003749953346
 51
270.00030345609218
  0
ARC
  5
85B
  8
1
 62
     7
 10
5242.0456001785697
 20
4737.4361804050641
 30
0.0
 40
13.58276663694274
 50
255.0650331154813
 51
270.00132984790741
  0
ARC
  5
85C
  8
1
 62
     7
 10
5242.0456001785697
 20
4737.4361804050641
 30
0.0
 40
13.582766636943861
 50
270.00132984790741
 51
284.93499311548482
  0
ARC
  5
85D
  8
1
 62
     7
 10
5242.045947437633
 20
4737.3506435542622
 30
0.0
 40
11.00025799999923
 50
242.96448817842301
 51
269.99983332527842
  0
ARC
  5
85E
  8
1
 62
     7
 10
5242.0457813874036
 20
4737.3504685548114
 30
0.0
 40
27.000249949712281
 50
121.229147415041
 51
179.99964501712631
  0
ARC
  5
85F
  8
1
 62
     7
 10
5242.0459509376342
 20
4737.3506430542611
 30
0.0
 40
11.0002615000012
 50
90.000184904716647
 51
179.99996739571171
  0
ARC
  5
860
  8
1
 62
     7
 10
5242.0455850972576
 20
4737.3503770979714
 30
0.0
 40
10.99999154862218
 50
270.0017206476146
 51
297.03402377670159
  0
ARC
  5
861
  8
1
 62
     7
 10
5242.045947437633
 20
4737.3506435542622
 30
0.0
 40
11.00025799999972
 50
179.99996999999951
 51
242.96448817842301
  0
ARC
  5
862
  8
1
 62
     7
 10
5242.1118686827758
 20
4737.3115395693494
 30
0.0
 40
13.57445305483356
 50
135.05354142031649
 51
164.9434884203153
  0
ARC
  5
863
  8
1
 62
     7
 10
5241.9623610578119
 20
4737.2318784036752
 30
0.0
 40
13.61173784644639
 50
15.36173191362866
 51
45.244128913629943
  0
ARC
  5
864
  8
1
 62
     7
 10
5242.0456033046912
 20
4737.350987426832
 30
0.0
 40
10.999917132938201
 50
359.99821566377051
 51
89.998374178641143
  0
ARC
  5
865
  8
1
 62
     7
 10
5242.0456030170781
 20
4737.3503025487498
 30
0.0
 40
10.999917420544341
 50
297.03411712908468
 51
0.0017830200207706
  0
ARC
  5
866
  8
1
 62
     7
 10
5304.6932611790253
 20
6747.0885558381005
 30
0.0
 40
14.617514000001041
 50
295.10043099999871
 51
295.12996384430221
  0
ARC
  5
867
  8
1
 62
     7
 10
5363.8696851825644
 20
6752.5517866176069
 30
0.0
 40
5.2025129999998683
 50
272.12502100000478
 51
357.7951757956784
  0
ARC
  5
868
  8
1
 62
     7
 10
5194.4059941790247
 20
6752.3796418380998
 30
0.0
 40
10.377705999999829
 50
166.290817
 51
180.1546225677111
  0
ARC
  5
869
  8
1
 62
     7
 10
5301.7004591790246
 20
6752.7155218381004
 30
0.0
 40
9.8687019999992263
 50
272.11267099999839
 51
357.88686908124208
  0
ARC
  5
86A
  8
1
 62
     7
 10
5301.6138400806258
 20
6752.6234595806563
 30
0.0
 40
20.950634000000569
 50
298.3502229999994
 51
359.25659574716428
  0
ARC
  5
86B
  8
1
 62
     7
 10
5302.3383029820106
 20
6751.899641529053
 30
0.0
 40
20.955075093444261
 50
90.58914870178009
 51
90.749235295914843
  0
ARC
  5
86C
  8
1
 62
     7
 10
5301.6969540343807
 20
6751.987906191207
 30
0.0
 40
9.8721989999992878
 50
2.1114740000099479
 51
87.907683202851445
  0
ARC
  5
86D
  8
1
 62
     7
 10
5302.3337772315153
 20
6752.7997363489112
 30
0.0
 40
20.94752981392114
 50
208.34734175424649
 51
269.26287471018651
  0
ARC
  5
86E
  8
1
 62
     7
 10
5363.8776720844644
 20
6752.159651028207
 30
0.0
 40
5.1942233905469166
 50
2.118204129309611
 51
87.959742129302654
  0
ARC
  5
86F
  8
1
 62
     7
 10
5364.2527503214833
 20
6752.1651413167556
 30
0.0
 40
5.1889256837645892
 50
92.100150407840445
 51
177.9402962317173
  0
ARC
  5
870
  8
1
 62
     7
 10
5364.2575071790252
 20
6752.5430518381008
 30
0.0
 40
5.1938590000001224
 50
182.1120737314431
 51
267.84933100000808
  0
ARC
  5
871
  8
1
 62
     7
 10
5193.5052578134228
 20
6752.3372713660874
 30
0.0
 40
9.5160794718760435
 50
90.021234797685793
 51
164.757506797693
  0
ARC
  5
872
  8
1
 62
     7
 10
5194.4059941790247
 20
6752.3796418380998
 30
0.0
 40
10.37770600000041
 50
180.1546225677111
 51
183.56118499999801
  0
ARC
  5
873
  8
1
 62
     7
 10
5194.3926172334504
 20
6752.4033276601676
 30
0.0
 40
10.36585499999984
 50
183.6964449999968
 51
215.40021228993689
  0
ARC
  5
874
  8
1
 62
     7
 10
5193.1421841790243
 20
6751.9352298381009
 30
0.0
 40
9.0819050000003578
 50
217.5633620000053
 51
269.6166859999999
  0
ARC
  5
875
  8
1
 62
     7
 10
5302.0403565232418
 20
6752.2410676883246
 30
0.0
 40
20.61270614840474
 50
64.56235794733675
 51
89.770740947337586
  0
ARC
  5
876
  8
1
 62
     7
 10
5301.5865766500056
 20
6752.0550103638388
 30
0.0
 40
20.97823089358835
 50
0.8101709922386298
 51
63.661377992240659
  0
ARC
  5
877
  8
1
 62
     7
 10
5302.3337772315153
 20
6752.7997363489112
 30
0.0
 40
20.947529813921079
 50
269.26287471018651
 51
269.42301875424801
  0
ARC
  5
878
  8
1
 62
     7
 10
5302.0529378641668
 20
6752.4105800164416
 30
0.0
 40
20.55743017941705
 50
270.19480988532501
 51
295.47209488532161
  0
ARC
  5
879
  8
1
 62
     7
 10
5302.3383029820106
 20
6751.899641529053
 30
0.0
 40
20.95507509344506
 50
90.749235295914843
 51
151.64048370177551
  0
ARC
  5
87A
  8
1
 62
     7
 10
5304.6932611790253
 20
6747.0885558381005
 30
0.0
 40
14.617514000000289
 50
295.12996384430221
 51
298.02968500000179
  0
ARC
  5
87B
  8
1
 62
     7
 10
5183.9916867533902
 20
6790.7495757972601
 30
0.0
 40
1.060929000000528
 50
2.488267999962575
 51
74.192354596134777
  0
ARC
  5
87C
  8
1
 62
     7
 10
5105.8070824376327
 20
6807.5771068380973
 30
0.0
 40
1.077314000000384
 50
94.035382000042233
 51
176.16182000001501
  0
ARC
  5
87D
  8
1
 62
     7
 10
5097.1027979318142
 20
6803.9419673238926
 30
0.0
 40
6.451531000000517
 50
56.465072000001207
 51
75.134892062867095
  0
ARC
  5
87E
  8
1
 62
     7
 10
5183.9964813136976
 20
6713.9600453778139
 30
0.0
 40
1.0561520127891779
 50
285.56699171443643
 51
357.52680471445137
  0
ARC
  5
87F
  8
1
 62
     7
 10
5105.8099565104412
 20
6697.136248698157
 30
0.0
 40
1.080689529545154
 50
184.01210540252239
 51
265.82449340256352
  0
ARC
  5
880
  8
1
 62
     7
 10
5097.1802358749419
 20
6700.5994209240062
 30
0.0
 40
6.265665357375652
 50
284.5839110211989
 51
303.81264802119182
  0
ARC
  5
881
  8
1
 62
     7
 10
4965.2467536031972
 20
6839.1613248584763
 30
0.0
 40
3.2331382766539232
 50
93.987668562055717
 51
175.9603945620469
  0
ARC
  5
882
  8
1
 62
     7
 10
4964.2841185995676
 20
6840.1304995918072
 30
0.0
 40
3.235054284333811
 50
94.009537286044605
 51
175.9822632860481
  0
ARC
  5
883
  8
1
 62
     7
 10
4965.2002544376328
 20
6665.5509348380956
 30
0.0
 40
3.2347710000015182
 50
184.01338500000011
 51
266.05238799998409
  0
ARC
  5
884
  8
1
 62
     7
 10
4964.2527957365119
 20
6664.5478104681197
 30
0.0
 40
3.201707161894916
 50
183.42638736144579
 51
265.57759236144631
  0
ARC
  5
885
  8
1
 62
     7
 10
5258.8606953763929
 20
6665.5439520701457
 30
0.0
 40
3.2277964009056022
 50
273.90143315686367
 51
356.10219515685571
  0
ARC
  5
886
  8
1
 62
     7
 10
5259.8290547822653
 20
6664.5759280659522
 30
0.0
 40
3.2277548125446351
 50
273.89686811379221
 51
356.03988911378627
  0
ARC
  5
887
  8
1
 62
     7
 10
5259.8221926157566
 20
6840.1307080704964
 30
0.0
 40
3.2348476907654251
 50
4.0142711535591067
 51
85.989857153566817
  0
ARC
  5
888
  8
1
 62
     7
 10
5258.853980800217
 20
6839.1622882760266
 30
0.0
 40
3.234972999999191
 50
4.0122019999991858
 51
85.984681422522414
  0
ARC
  5
889
  8
1
 62
     7
 10
5251.3593641255902
 20
2259.4800850991451
 30
0.0
 40
4579.1761855298146
 50
89.918283887237564
 51
90.030168887237537
  0
ARC
  5
88A
  8
1
 62
     7
 10
26796.81349341886
 20
6815.2182812939081
 30
0.0
 40
21538.33351283081
 50
179.94046815241111
 51
180.0665761524111
  0
ARC
  5
88B
  8
1
  6
DASHED
 62
     7
 10
5362.0522674376334
 20
6715.3504368380982
 30
0.0
 40
37.998170000000428
 50
269.99946923458708
 51
293.2501704128934
  0
ARC
  5
88C
  8
1
  6
DASHED
 62
     7
 10
5362.0522674376334
 20
6715.3504368380982
 30
0.0
 40
37.998170000000243
 50
246.7491979999991
 51
269.99946923458708
  0
ARC
  5
88D
  8
1
  6
DASHED
 62
     7
 10
5354.9173092101883
 20
6837.2181702075786
 30
0.0
 40
3.6371908614329458
 50
2.118687051549025
 51
87.881301484911589
  0
ARC
  5
88E
  8
1
  6
DASHED
 62
     7
 10
5354.9164841630181
 20
6837.488325985375
 30
0.0
 40
3.638060810196396
 50
272.13143044517602
 51
357.86252160141748
  0
ARC
  5
88F
  8
1
  6
DASHED
 62
     7
 10
5368.9149296343576
 20
6787.2194138389541
 30
0.0
 40
3.637072962724571
 50
2.1149151509974038
 51
87.828654114431856
  0
ARC
  5
890
  8
1
  6
DASHED
 62
     7
 10
5368.9174161237916
 20
6787.4857872725333
 30
0.0
 40
3.6345122931306091
 50
272.13389708925649
 51
357.91625720001952
  0
ARC
  5
891
  8
1
  6
DASHED
 62
     7
 10
5362.1867324376344
 20
6702.4871208380973
 30
0.0
 40
3.6371899999985429
 50
182.1189928851243
 51
267.8757736111541
  0
ARC
  5
892
  8
1
  6
DASHED
 62
     7
 10
5361.9167688458556
 20
6702.484605408009
 30
0.0
 40
3.6346885397874709
 50
272.13088813154633
 51
357.9192272456587
  0
ARC
  5
893
  8
1
  6
DASHED
 62
     7
 10
4892.1861824376319
 20
6702.4879068380969
 30
0.0
 40
3.6380049999999411
 50
182.13090537526401
 51
267.86915766524271
  0
ARC
  5
894
  8
1
  6
DASHED
 62
     7
 10
4892.0509314376332
 20
6715.8971098380971
 30
0.0
 40
38.501049999999189
 50
247.07034899999999
 51
269.99997618941637
  0
ARC
  5
895
  8
1
  6
DASHED
 62
     7
 10
4884.918550535418
 20
6837.4847921072269
 30
0.0
 40
3.6345313653954792
 50
272.13417322705538
 51
357.91619187342172
  0
ARC
  5
896
  8
1
  6
DASHED
 62
     7
 10
4898.9159217628121
 20
6787.489560793666
 30
0.0
 40
3.638252808786846
 50
272.12638979174318
 51
357.85893407628993
  0
ARC
  5
897
  8
1
  6
DASHED
 62
     7
 10
4899.1866604376319
 20
6787.4892848380978
 30
0.0
 40
3.638005000000522
 50
182.13686271556861
 51
267.86162430544772
  0
ARC
  5
898
  8
1
  6
DASHED
 62
     7
 10
4884.915297440677
 20
6837.2176285666919
 30
0.0
 40
3.637886999999818
 50
2.1268180000204562
 51
87.816761872065143
  0
ARC
  5
899
  8
1
  6
DASHED
 62
     7
 10
4891.9156731649864
 20
6702.4879163859714
 30
0.0
 40
3.638013621953966
 50
272.13044757711771
 51
357.8689492018467
  0
ARC
  5
89A
  8
1
  6
DASHED
 62
     7
 10
5362.187518726736
 20
6702.2174067277529
 30
0.0
 40
3.6380033350605312
 50
92.136143281360702
 51
177.86975383558769
  0
ARC
  5
89B
  8
1
  6
DASHED
 62
     7
 10
5361.9144657009128
 20
6702.2184135299804
 30
0.0
 40
3.6370729999990061
 50
2.1149200000018391
 51
87.834198114249801
  0
ARC
  5
89C
  8
1
  6
DASHED
 62
     7
 10
5369.1838784376314
 20
6787.4887428380971
 30
0.0
 40
3.6373120000000569
 50
182.12872640192739
 51
267.9339380000211
  0
ARC
  5
89D
  8
1
  6
DASHED
 62
     7
 10
5369.1881185995016
 20
6787.2151133555299
 30
0.0
 40
3.641677980213883
 50
92.130348192050036
 51
177.8200516978504
  0
ARC
  5
89E
  8
1
  6
DASHED
 62
     7
 10
5355.1862544376327
 20
6837.4874858380981
 30
0.0
 40
3.6371900000008139
 50
182.12474658747709
 51
267.88133999998303
  0
ARC
  5
89F
  8
1
  6
DASHED
 62
     7
 10
5355.1872450965384
 20
6837.217595702703
 30
0.0
 40
3.638187030361768
 50
92.133702559423483
 51
177.8728395594228
  0
ARC
  5
8A0
  8
1
  6
DASHED
 62
     7
 10
4892.1861945444516
 20
6702.2173953156444
 30
0.0
 40
3.6380159653393589
 50
92.131026713677755
 51
177.86958137900001
  0
ARC
  5
8A1
  8
1
  6
DASHED
 62
     7
 10
4891.9156806765859
 20
6702.2173852932156
 30
0.0
 40
3.6380049999999171
 50
2.13058299998709
 51
87.869677080815094
  0
ARC
  5
8A2
  8
1
  6
DASHED
 62
     7
 10
4899.1868832219561
 20
6787.2185919032036
 30
0.0
 40
3.638205120188176
 50
92.141768955486526
 51
177.87279026375271
  0
ARC
  5
8A3
  8
1
  6
DASHED
 62
     7
 10
4898.9161445921027
 20
6787.2183852932167
 30
0.0
 40
3.6380049999999171
 50
2.13058299998709
 51
87.877188461578768
  0
ARC
  5
8A4
  8
1
  6
DASHED
 62
     7
 10
4885.1891494376323
 20
6837.4882718380968
 30
0.0
 40
3.6380049999999371
 50
182.13665783308599
 51
267.86942699999742
  0
ARC
  5
8A5
  8
1
  6
DASHED
 62
     7
 10
4885.1893631593202
 20
6837.2175856593121
 30
0.0
 40
3.638197221183038
 50
92.133834365695975
 51
177.8726869861373
  0
ARC
  5
8A6
  8
1
  6
DASHED
 62
     7
 10
4892.0509314376332
 20
6715.8971098380971
 30
0.0
 40
38.501049999999537
 50
269.99997618941637
 51
292.92967100000089
  0
ARC
  5
8A7
  8
1
 62
     7
 10
6716.6773415978123
 20
5239.4876671302309
 30
0.0
 40
9.872178000000682
 50
2.1113620000001641
 51
87.867849999991932
  0
ARC
  5
8A8
  8
1
 62
     7
 10
6716.3328403754113
 20
5078.6420435614109
 30
0.0
 40
19.221674
 50
2.1115039999995591
 51
87.877814436724478
  0
ARC
  5
8A9
  8
1
 62
     7
 10
6717.4086892863379
 20
5239.4908929807498
 30
0.0
 40
9.8688346941933993
 50
92.114106066671937
 51
177.90664006667259
  0
ARC
  5
8AA
  8
1
 62
     7
 10
6716.3353004518776
 20
5080.0560049484602
 30
0.0
 40
19.219125139162092
 50
272.11512955750942
 51
357.8955515575035
  0
ARC
  5
8AB
  8
1
 62
     7
 10
6717.0446315978124
 20
5079.3502511302313
 30
0.0
 40
18.500282999999399
 50
90.0
 51
179.9999700000123
  0
ARC
  5
8AC
  8
1
 62
     7
 10
6717.0446255978122
 20
5079.3502511302313
 30
0.0
 40
18.500276999999901
 50
179.99997000000249
 51
270.00002000000387
  0
ARC
  5
8AD
  8
1
 62
     7
 10
6841.4854475955062
 20
4884.2763707865943
 30
0.0
 40
7.4407021932380539
 50
126.6692275331924
 51
179.4614035527446
  0
ARC
  5
8AE
  8
1
  6
DASHED
 62
     7
 10
6745.4085265978129
 20
4937.2110049185058
 30
0.0
 40
3.1366140000001281
 50
23.502808999988069
 51
88.36851499998545
  0
ARC
  5
8AF
  8
1
  6
DASHED
 62
     7
 10
6667.1135565978129
 20
4998.7903524504991
 30
0.0
 40
7.4404880000001468
 50
269.44820923778002
 51
294.43676311470171
  0
ARC
  5
8B0
  8
1
  6
DASHED
 62
     7
 10
6730.8026665978123
 20
4989.3355574504994
 30
0.0
 40
5.0133090000000502
 50
58.307319999990249
 51
89.940770999993816
  0
ARC
  5
8B1
  8
1
  6
DASHED
 62
     7
 10
6667.0630452741516
 20
4998.393226396106
 30
0.0
 40
7.1371203170843236
 50
304.51809654491211
 51
325.48154706060348
  0
ARC
  5
8B2
  8
1
  6
DASHED
 62
     7
 10
6802.0964215978129
 20
4998.3602174505004
 30
0.0
 40
7.091221000001231
 50
304.44945899999601
 51
325.5505112813492
  0
ARC
  5
8B3
  8
1
  6
DASHED
 62
     7
 10
6752.0886385978129
 20
4998.3580294504991
 30
0.0
 40
7.0943969999994243
 50
304.51803699999618
 51
325.58939424441462
  0
ARC
  5
8B4
  8
1
  6
DASHED
 62
     7
 10
6667.1135565978129
 20
4998.7903524504991
 30
0.0
 40
7.4404879999991644
 50
216.65113036569969
 51
269.44820923778002
  0
ARC
  5
8B5
  8
1
  6
DASHED
 62
     7
 10
6841.4840190785062
 20
4944.2782491534163
 30
0.0
 40
7.438494983988285
 50
126.6693978497006
 51
179.47478831819859
  0
ARC
  5
8B6
  8
1
  6
DASHED
 62
     7
 10
6841.4850175978127
 20
4969.2780574504986
 30
0.0
 40
7.440268999999331
 50
126.671576000001
 51
179.46434993280619
  0
ARC
  5
8B7
  8
1
  6
DASHED
 62
     7
 10
6752.1144210203838
 20
4998.7987693205241
 30
0.0
 40
7.447865459311223
 50
216.6893990139499
 51
269.45749212531211
  0
ARC
  5
8B8
  8
1
  6
DASHED
 62
     7
 10
6802.1139212895778
 20
4998.7903521925209
 30
0.0
 40
7.4404875987086596
 50
216.6507801716383
 51
269.45310164999557
  0
ARC
  5
8B9
  8
1
 62
     7
 10
6629.1579615978117
 20
5075.1976659185057
 30
0.0
 40
2.1558750000000981
 50
93.986601999989432
 51
175.11736300000089
  0
ARC
  5
8BA
  8
1
 62
     7
 10
6804.9284486103297
 20
5075.2015115758577
 30
0.0
 40
2.1519940471275238
 50
4.7979993945871362
 51
86.023412394586927
  0
ARC
  5
8BB
  8
1
  6
DASHED
 62
     7
 10
6688.6615004144824
 20
4937.1987606310577
 30
0.0
 40
3.1491895991769461
 50
91.848791093321935
 51
156.35367809332081
  0
ARC
  5
8BC
  8
1
  6
DASHED
 62
     7
 10
6685.9423472920607
 20
4973.0306406566588
 30
0.0
 40
4.1493303255410181
 50
211.2121954357996
 51
268.80623343580311
  0
ARC
  5
8BD
  8
1
  6
DASHED
 62
     7
 10
6764.9614555978123
 20
4993.0144489185059
 30
0.0
 40
10.68538499999989
 50
273.20439100000289
 51
350.20316800000109
  0
ARC
  5
8BE
  8
1
  6
DASHED
 62
     7
 10
6762.4449975978123
 20
4978.1032099185059
 30
0.0
 40
4.246974999999952
 50
92.612266000007551
 51
164.54665700000189
  0
ARC
  5
8BF
  8
1
  6
DASHED
 62
     7
 10
6669.1326914250903
 20
4993.0203268651603
 30
0.0
 40
10.69153080146139
 50
189.82292800227859
 51
266.77097000227388
  0
ARC
  5
8C0
  8
1
  6
DASHED
 62
     7
 10
6671.6393804101644
 20
4978.1003841987958
 30
0.0
 40
4.2497036338454608
 50
15.531382045291791
 51
87.417181045280415
  0
ARC
  5
8C1
  8
1
  6
DASHED
 62
     7
 10
6681.763303656051
 20
4970.8694666159763
 30
0.0
 40
4.0156218924189391
 50
192.93030117073391
 51
217.39216917072849
  0
ARC
  5
8C2
  8
1
  6
DASHED
 62
     7
 10
6822.0432161350591
 20
4979.3435979132246
 30
0.0
 40
20.000685541937099
 50
0.0050983544940283
 51
90.005068354495265
  0
ARC
  5
8C3
  8
1
  6
DASHED
 62
     7
 10
6821.4647375978129
 20
4978.7722484505002
 30
0.0
 40
15.58728700000097
 50
2.1071829999978888
 51
87.879648999998153
  0
ARC
  5
8C4
  8
1
  6
DASHED
 62
     7
 10
6703.1280106307377
 20
4992.371378107282
 30
0.0
 40
2.037887420738965
 50
180.67837798081769
 51
237.88290798080149
  0
ARC
  5
8C5
  8
1
  6
DASHED
 62
     7
 10
6703.1684855978128
 20
4992.2706434504989
 30
0.0
 40
2.079630999999726
 50
92.134909696069997
 51
177.88893399999361
  0
ARC
  5
8C6
  8
1
  6
DASHED
 62
     7
 10
6841.1742075174288
 20
4944.4059948575323
 30
0.0
 40
7.2507297450574084
 50
214.63914700723291
 51
235.2555360072316
  0
ARC
  5
8C7
  8
1
  6
DASHED
 62
     7
 10
6841.4837197871339
 20
4944.2784611399284
 30
0.0
 40
7.438193764949899
 50
179.47640003112511
 51
212.47521656262751
  0
ARC
  5
8C8
  8
1
  6
DASHED
 62
     7
 10
6841.238895033076
 20
4969.4684717076598
 30
0.0
 40
7.340749237062731
 50
214.76768887417251
 51
235.125944874174
  0
ARC
  5
8C9
  8
1
  6
DASHED
 62
     7
 10
6841.4850175978127
 20
4969.2780574504986
 30
0.0
 40
7.4402689999999216
 50
179.46434993280619
 51
212.48171599999739
  0
ARC
  5
8CA
  8
1
  6
DASHED
 62
     7
 10
6802.1139212895778
 20
4998.7903521925209
 30
0.0
 40
7.4404875987091854
 50
269.45310164999557
 51
302.46425582308359
  0
ARC
  5
8CB
  8
1
 62
     7
 10
6595.1577539026221
 20
5014.2326334633262
 30
0.0
 40
3.117979919873159
 50
92.115303171010424
 51
177.88323717100971
  0
ARC
  5
8CC
  8
1
 62
     7
 10
6595.1550581502506
 20
4940.4626740492113
 30
0.0
 40
3.1153197334760292
 50
182.13529500389399
 51
267.93250800383208
  0
ARC
  5
8CD
  8
1
 62
     7
 10
6831.9373101582332
 20
4926.8245789554176
 30
0.0
 40
5.1048885746574211
 50
0.6181922630724874
 51
57.664412263069231
  0
ARC
  5
8CE
  8
1
 62
     7
 10
6835.0104931910246
 20
4910.9385940743732
 30
0.0
 40
2.0314316627058329
 50
328.64226924560268
 51
359.72584024556448
  0
ARC
  5
8CF
  8
1
 62
     7
 10
6835.0164587532026
 20
4911.0362142904623
 30
0.0
 40
2.078935937249951
 50
240.4941081005714
 51
326.25857510058808
  0
ARC
  5
8D0
  8
1
 62
     7
 10
6841.2024751426361
 20
4884.4420046220184
 30
0.0
 40
7.29652458323568
 50
214.76892821149809
 51
235.2349162114941
  0
ARC
  5
8D1
  8
1
 62
     7
 10
6841.4850170771106
 20
4884.2766793122501
 30
0.0
 40
7.4402687999094113
 50
179.46374816758831
 51
212.48171214803631
  0
ARC
  5
8D2
  8
1
  6
DASHED
 62
     7
 10
6752.1144210203838
 20
4998.7987693205241
 30
0.0
 40
7.447865459310882
 50
269.45749212531211
 51
302.43283185224539
  0
ARC
  5
8D3
  8
1
  6
DASHED
 62
     7
 10
6667.1135565978129
 20
4998.7903524504991
 30
0.0
 40
7.4404879999999594
 50
294.43676311470171
 51
302.46425600001078
  0
ARC
  5
8D4
  8
1
 62
     7
 10
6744.8626838312612
 20
4936.9696276671793
 30
0.0
 40
3.125170855515413
 50
271.4158273656289
 51
328.73151936563357
  0
ARC
  5
8D5
  8
1
 62
     7
 10
6689.2163348331987
 20
4936.9998159417137
 30
0.0
 40
3.1557298818124928
 50
211.57329474887001
 51
268.33969574888158
  0
ARC
  5
8D6
  8
1
 62
     7
 10
6800.8253685978134
 20
4773.5059963509539
 30
0.0
 40
1.873805000000448
 50
182.12171699996841
 51
267.9002029999707
  0
ARC
  5
8D7
  8
1
 62
     7
 10
6800.825775218007
 20
4773.3689846657817
 30
0.0
 40
1.8741579999992981
 50
92.112161000006097
 51
177.93172265816901
  0
ARC
  5
8D8
  8
1
 62
     7
 10
6813.2619108491526
 20
4773.3671682576887
 30
0.0
 40
1.8760071678940431
 50
2.1217632903116721
 51
87.86189229030785
  0
ARC
  5
8D9
  8
1
 62
     7
 10
6813.2626187504393
 20
4773.5073579990922
 30
0.0
 40
1.8751689999997541
 50
272.11741899997662
 51
357.83842270162307
  0
ARC
  5
8DA
  8
1
  6
DASHED
 62
     7
 10
6723.2643959136249
 20
4949.1917619853839
 30
0.0
 40
1.8745199999998989
 50
2.1216700000235482
 51
87.905338603183552
  0
ARC
  5
8DB
  8
1
  6
DASHED
 62
     7
 10
6723.2637475978117
 20
4949.3312066228127
 30
0.0
 40
1.8751919999997191
 50
272.11888000000062
 51
357.85924900001612
  0
ARC
  5
8DC
  8
1
  6
DASHED
 62
     7
 10
6710.8263935978121
 20
4949.3305566228128
 30
0.0
 40
1.8745189999999849
 50
182.12167299999911
 51
267.900237999995
  0
ARC
  5
8DD
  8
1
  6
DASHED
 62
     7
 10
6710.8270527262621
 20
4949.1908494703393
 30
0.0
 40
1.8752130000005789
 50
92.119457000018485
 51
177.8512466949262
  0
ARC
  5
8DE
  8
1
 62
     7
 10
6817.5879821339504
 20
4764.2288307593744
 30
0.0
 40
5.6222923478422908
 50
78.584986635460524
 51
90.454417635468374
  0
ARC
  5
8DF
  8
1
 62
     7
 10
6817.9840513873978
 20
4766.0067816194032
 30
0.0
 40
3.801296618283053
 50
63.445595063988023
 51
79.132933063975273
  0
ARC
  5
8E0
  8
1
 62
     7
 10
6818.5931508082194
 20
4767.1689972552931
 30
0.0
 40
2.4895148439989212
 50
350.00759325502798
 51
64.027425212737924
  0
ARC
  5
8E1
  8
1
  6
DASHED
 62
     7
 10
6706.5034205640804
 20
4961.72787511569
 30
0.0
 40
5.6196305460719538
 50
89.554747115680144
 51
101.417538115677
  0
ARC
  5
8E2
  8
1
  6
DASHED
 62
     7
 10
6706.1082633092237
 20
4963.4996718836437
 30
0.0
 40
3.8048482370702561
 50
100.86642799964351
 51
116.54333499964849
  0
ARC
  5
8E3
  8
1
  6
DASHED
 62
     7
 10
6705.4965328732724
 20
4964.6672474154384
 30
0.0
 40
2.4871029812093339
 50
115.9560572619809
 51
170.0549372619715
  0
ARC
  5
8E4
  8
1
  6
DASHED
 62
     7
 10
6706.5907545900855
 20
4961.7274047588016
 30
0.0
 40
5.6196257739627509
 50
90.236060646523001
 51
90.445183513278565
  0
ARC
  5
8E5
  8
1
  6
DASHED
 62
     7
 10
6727.5901806569973
 20
4961.7302239670307
 30
0.0
 40
5.6172820000012438
 50
78.579975000006016
 51
90.460025125850777
  0
ARC
  5
8E6
  8
1
  6
DASHED
 62
     7
 10
6727.9851825978121
 20
4963.5014156228144
 30
0.0
 40
3.8031210000003011
 50
63.449936999991962
 51
79.129660000003454
  0
ARC
  5
8E7
  8
1
  6
DASHED
 62
     7
 10
6728.5949247571571
 20
4964.665043887323
 30
0.0
 40
2.489695999999582
 50
9.9860860000028104
 51
64.0326913538605
  0
ARC
  5
8E8
  8
1
  6
DASHED
 62
     7
 10
6706.5031929903244
 20
4958.465624146088
 30
0.0
 40
5.6182695201926176
 50
258.58203695556028
 51
269.55232327920271
  0
ARC
  5
8E9
  8
1
  6
DASHED
 62
     7
 10
6706.1076645978128
 20
4956.6945066228127
 30
0.0
 40
3.8040840000003251
 50
243.46101399999071
 51
259.14056000000522
  0
ARC
  5
8EA
  8
1
  6
DASHED
 62
     7
 10
6705.4941541453763
 20
4955.5259729258796
 30
0.0
 40
2.484701576655544
 50
189.95341771518559
 51
244.07801671515881
  0
ARC
  5
8EB
  8
1
  6
DASHED
 62
     7
 10
6727.5013356235759
 20
4958.4596001337113
 30
0.0
 40
5.6122435341255468
 50
269.55340975301573
 51
270.44659548175417
  0
ARC
  5
8EC
  8
1
  6
DASHED
 62
     7
 10
6727.5890359480163
 20
4958.463281061815
 30
0.0
 40
5.6161997226082878
 50
270.72188081518539
 51
281.43417062898862
  0
ARC
  5
8ED
  8
1
  6
DASHED
 62
     7
 10
6727.9857795978132
 20
4956.6927626228144
 30
0.0
 40
3.8023579999994732
 50
280.8633890000084
 51
296.54575200000801
  0
ARC
  5
8EE
  8
1
  6
DASHED
 62
     7
 10
6728.5969238889074
 20
4955.5281209281511
 30
0.0
 40
2.4875057511348531
 50
295.94172590695911
 51
350.00770390695442
  0
ARC
  5
8EF
  8
1
  6
DASHED
 62
     7
 10
6706.5909860531556
 20
4958.465808475079
 30
0.0
 40
5.6184538200182956
 50
269.5523634537214
 51
270.44764178106942
  0
ARC
  5
8F0
  8
1
 62
     7
 10
6817.981355746695
 20
4759.1995144499797
 30
0.0
 40
3.8055460939407051
 50
280.86245294023968
 51
296.53595599999881
  0
ARC
  5
8F1
  8
1
 62
     7
 10
6817.5861767122942
 20
4760.9705155336242
 30
0.0
 40
5.6195501959668457
 50
269.5536755235367
 51
281.41660152355399
  0
ARC
  5
8F2
  8
1
 62
     7
 10
6818.5953395978122
 20
4758.0295823509541
 30
0.0
 40
2.4846999999994561
 50
295.921984000002
 51
350.35277720033838
  0
ARC
  5
8F3
  8
1
 62
     7
 10
6795.4924635978132
 20
4758.0295823509541
 30
0.0
 40
2.484699999998611
 50
189.64722279966861
 51
244.078015999998
  0
ARC
  5
8F4
  8
1
 62
     7
 10
6796.5016264833312
 20
4760.9705155336242
 30
0.0
 40
5.6195501959663181
 50
258.58339847645499
 51
270.44632447645398
  0
ARC
  5
8F5
  8
1
 62
     7
 10
6796.1064474489294
 20
4759.1995144499797
 30
0.0
 40
3.8055449999998898
 50
243.46404400000119
 51
259.1375470597871
  0
ARC
  5
8F6
  8
1
 62
     7
 10
6795.4946523874059
 20
4767.1689972552931
 30
0.0
 40
2.4895148440002979
 50
115.9725747872621
 51
189.99240674497571
  0
ARC
  5
8F7
  8
1
 62
     7
 10
6796.1037518082276
 20
4766.0067816194032
 30
0.0
 40
3.8012966182825401
 50
100.8670669359978
 51
116.5544049359997
  0
ARC
  5
8F8
  8
1
 62
     7
 10
6796.4998210616759
 20
4764.2288307593744
 30
0.0
 40
5.6222923478413831
 50
89.545582364522375
 51
101.4150133645304
  0
ARC
  5
8F9
  8
1
 62
     7
 10
6746.5280192131286
 20
4848.8776285911963
 30
0.0
 40
13.40435971104238
 50
135.0290470221677
 51
149.73360502216599
  0
ARC
  5
8FA
  8
1
 62
     7
 10
6749.0835420217973
 20
4847.2606783513256
 30
0.0
 40
16.426878055504051
 50
149.35513283562329
 51
159.21360283562251
  0
ARC
  5
8FB
  8
1
 62
     7
 10
6753.2113511130838
 20
4845.5749819939383
 30
0.0
 40
20.88453163788094
 50
158.9088673436973
 51
166.5925253436987
  0
ARC
  5
8FC
  8
1
 62
     7
 10
6758.7578627204484
 20
4844.1364569496209
 30
0.0
 40
26.613675163201069
 50
166.34877097603109
 51
172.235943976031
  0
ARC
  5
8FD
  8
1
 62
     7
 10
6766.5751742021594
 20
4842.9712114733038
 30
0.0
 40
34.516881875783064
 50
172.0724543165546
 51
178.0073763165534
  0
ARC
  5
8FE
  8
1
 62
     7
 10
6777.396530362721
 20
4842.4013495502677
 30
0.0
 40
45.35192079508181
 50
177.76323166288029
 51
180.0640696628802
  0
ARC
  5
8FF
  8
1
 62
     7
 10
6746.5220185978123
 20
4835.8218748380978
 30
0.0
 40
13.3978919999998
 50
210.2699130000004
 51
224.97946699999989
  0
ARC
  5
900
  8
1
 62
     7
 10
6749.0773598835603
 20
4837.4392039643399
 30
0.0
 40
16.420453000000009
 50
200.78811399999969
 51
210.64934688383559
  0
ARC
  5
901
  8
1
 62
     7
 10
6753.2061442240247
 20
4839.1254854211693
 30
0.0
 40
20.879229761187752
 50
193.40806960823821
 51
201.09311160823739
  0
ARC
  5
902
  8
1
 62
     7
 10
6758.7561785202006
 20
4840.5648737671136
 30
0.0
 40
26.612001179758259
 50
187.76446756047349
 51
193.65176056047591
  0
ARC
  5
903
  8
1
 62
     7
 10
6766.5729609890841
 20
4841.7299664112816
 30
0.0
 40
34.514663408168907
 50
181.99252175696671
 51
187.92774075696519
  0
ARC
  5
904
  8
1
 62
     7
 10
6777.3957020172738
 20
4842.299994140395
 30
0.0
 40
45.351092369679883
 50
179.93602014864109
 51
182.2368437401116
  0
ARC
  5
905
  8
1
 62
     7
 10
6817.5460022630277
 20
4746.8507956635667
 30
0.0
 40
1.0003598292365981
 50
179.99497706079521
 51
269.99502706083911
  0
ARC
  5
906
  8
1
 62
     7
 10
6795.5459294376342
 20
4747.8510008380981
 30
0.0
 40
2.0005800000002729
 50
269.99015300000372
 51
359.99012299999788
  0
ARC
  5
907
  8
1
 62
     7
 10
6817.9696651636823
 20
4726.7739028752358
 30
0.0
 40
2.0776326480764431
 50
2.1155636809887861
 51
87.896740680986341
  0
ARC
  5
908
  8
1
 62
     7
 10
6817.9695992956722
 20
4747.9267083010836
 30
0.0
 40
2.0776745399789891
 50
272.10503455186489
 51
357.90225455185021
  0
CIRCLE
  5
909
  8
2
 62
     7
 10
5249.7420832727139
 20
3677.3506358380992
 30
0.0
 40
15.0
  0
CIRCLE
  5
90A
  8
2
 62
     7
 10
5249.7420832727139
 20
3677.3506358380992
 30
0.0
 40
30.0
  0
CIRCLE
  5
90B
  8
1
 62
     7
 10
5362.0519154376352
 20
4884.3484117704247
 30
0.0
 40
3.5002042319192701
  0
ARC
  5
90C
  8
2
 62
     7
 10
4753.3515273639841
 20
3614.1798019919802
 30
0.0
 40
10.0
 50
90.0
 51
180.0
  0
ARC
  5
90D
  8
2
 62
     7
 10
4753.3515273639841
 20
3597.0756927264761
 30
0.0
 40
10.0
 50
180.0
 51
270.0
  0
ARC
  5
90E
  8
2
 62
     7
 10
4637.2388977597939
 20
3591.0756927264729
 30
0.0
 40
4.0
 50
270.0
 51
0.0
  0
ARC
  5
90F
  8
2
 62
     7
 10
4637.2388977597939
 20
3620.1798019919802
 30
0.0
 40
4.0
 50
0.0
 51
90.0
  0
ARC
  5
910
  8
2
 62
     7
 10
4635.0183523515043
 20
3645.7815948315501
 30
0.0
 40
8.0
 50
270.0
 51
0.0
  0
ARC
  5
911
  8
2
 62
     7
 10
4629.5165548157502
 20
3645.781594831552
 30
0.0
 40
7.999999999998181
 50
180.00000032965241
 51
270.0
  0
ARC
  5
912
  8
2
 62
     7
 10
4661.5165543448802
 20
3727.625577273544
 30
0.0
 40
40.0
 50
90.0
 51
180.0000003296401
  0
ARC
  5
913
  8
2
 62
     7
 10
4553.1705013464862
 20
3727.625577273544
 30
0.0
 40
40.0
 50
90.0
 51
180.0000003296401
  0
ARC
  5
914
  8
2
 62
     7
 10
4521.1705018173579
 20
3645.781594831552
 30
0.0
 40
8.0
 50
180.00000032965241
 51
270.0
  0
ARC
  5
915
  8
2
 62
     7
 10
4446.458406873624
 20
3727.625577273544
 30
0.0
 40
40.0
 50
90.0
 51
180.0000003296401
  0
ARC
  5
916
  8
2
 62
     7
 10
4414.4584073444958
 20
3645.781594831552
 30
0.0
 40
7.9999999999990896
 50
180.00000032965241
 51
270.0
  0
ARC
  5
917
  8
2
 62
     7
 10
4747.0147786752568
 20
3727.6255772735421
 30
0.0
 40
40.0
 50
90.0
 51
180.0000003296374
  0
ARC
  5
918
  8
2
 62
     7
 10
4715.0147791461286
 20
3645.7815948315501
 30
0.0
 40
8.0
 50
180.00000032963939
 51
270.0
  0
ARC
  5
919
  8
2
 62
     7
 10
4720.5165766818827
 20
3645.7815948315501
 30
0.0
 40
8.0
 50
270.0
 51
0.0
  0
ARC
  5
91A
  8
2
 62
     7
 10
4789.6334237123956
 20
3645.7815948315501
 30
0.0
 40
8.0
 50
270.0
 51
0.0
  0
ARC
  5
91B
  8
2
 62
     7
 10
4785.612590661005
 20
3648.1236714303841
 30
0.0
 40
10.342076598833961
 50
180.0
 51
270.0
  0
POLYLINE
  5
91C
  8
2
 62
     7
 66
     1
 10
0.0
 20
0.0
 30
0.0
 70
   129
  0
VERTEX
  5
9BC
  8
2
 62
     7
 10
7062.0459154376331
 20
4475.4920243022634
 30
0.0
  0
VERTEX
  5
9BD
  8
2
 62
     7
 10
7317.4903598820756
 20
4475.4920243022634
 30
0.0
  0
VERTEX
  5
9BE
  8
2
 62
     7
 10
7317.4903598820756
 20
4563.4920243022634
 30
0.0
  0
VERTEX
  5
9BF
  8
2
 62
     7
 10
7062.0459154376331
 20
4563.4920243022634
 30
0.0
  0
SEQEND
  5
9C0
  8
2
 62
     7
  0
LINE
  5
922
  8
1
 62
     7
 10
7062.0459154376331
 20
4519.4920243022634
 30
0.0
 11
6854.6412476259356
 21
4727.444789726741
 31
0.0
  0
SOLID
  5
923
  8
1
 62
     7
 10
6910.5984228511961
 20
4684.3899037856263
 30
0.0
 11
6897.5483038759194
 21
4671.3741807898523
 31
0.0
 12
6854.6412476259356
 22
4727.444789726741
 32
0.0
 13
6854.6412476259356
 23
4727.444789726741
 33
0.0
  0
TEXT
  5
924
  8
2
 62
     7
 10
7516.6459154376298
 20
8047.350635838091
 30
0.0
 40
60.0
  1
1
 41
0.5400000000000002
 72
     1
 11
7522.0459154376304
 21
8077.3506358380919
 31
0.0
 73
     2
  0
TEXT
  5
925
  8
2
 62
     7
 10
6582.0459154376294
 20
8047.350635838091
 30
0.0
 40
60.0
  1
排水金具
 41
0.9
 11
6582.0459154376294
 21
8077.3506358380919
 31
0.0
 73
     2
  0
TEXT
  5
926
  8
2
 62
     7
 10
5952.0459154376294
 20
8047.350635838091
 30
0.0
 40
60.0
  1
CET527
 41
0.5400000000000002
 11
5952.0459154376294
 21
8077.3506358380919
 31
0.0
 73
     2
  0
TEXT
  5
927
  8
2
 62
     7
 10
7516.6459154376298
 20
8147.3506358380919
 30
0.0
 40
60.0
  1
1
 41
0.5400000000000002
 72
     1
 11
7522.0459154376304
 21
8177.3506358380919
 31
0.0
 73
     2
  0
TEXT
  5
928
  8
2
 62
     7
 10
6582.0459154376294
 20
8147.3506358380919
 30
0.0
 40
60.0
  1
止水栓
 41
0.9
 11
6582.0459154376294
 21
8177.3506358380919
 31
0.0
 73
     2
  0
TEXT
  5
929
  8
2
 62
     7
 10
5952.0459154376294
 20
8147.3506358380919
 30
0.0
 40
60.0
  1
SC05217
 41
0.5400000000000002
 11
5952.0459154376294
 21
8177.3506358380919
 31
0.0
 73
     2
  0
TEXT
  5
92A
  8
2
 62
     7
 10
7516.6459154376298
 20
8247.3506358380928
 30
0.0
 40
60.0
  1
1
 41
0.5400000000000002
 72
     1
 11
7522.0459154376304
 21
8277.350635838091
 31
0.0
 73
     2
  0
TEXT
  5
92B
  8
2
 62
     7
 10
6582.0459154376294
 20
8247.3506358380928
 30
0.0
 40
60.0
  1
カウンター
 41
0.9
 11
6582.0459154376294
 21
8277.350635838091
 31
0.0
 73
     2
  0
TEXT
  5
92C
  8
2
 62
     7
 10
5952.0459154376294
 20
8247.3506358380928
 30
0.0
 40
60.0
  1
CEK420SET02R
 41
0.5400000000000002
 11
5952.0459154376294
 21
8277.350635838091
 31
0.0
 73
     2
  0
TEXT
  5
92D
  8
2
 62
     7
 10
7496.8459154376314
 20
8347.3506358380928
 30
0.0
 40
60.0
  1
数
 41
0.9
 72
     1
 11
7522.0459154376304
 21
8377.350635838091
 31
0.0
 73
     2
  0
TEXT
  5
92E
  8
2
 62
     7
 10
6831.6459154376298
 20
8347.3506358380928
 30
0.0
 40
60.0
  1
品　　　　名
 41
0.9
 72
     1
 11
7017.0459154376313
 21
8377.350635838091
 31
0.0
 73
     2
  0
TEXT
  5
92F
  8
2
 62
     7
 10
6092.2459154376293
 20
8347.3506358380928
 30
0.0
 40
60.0
  1
品　　　番
 41
0.9
 72
     1
 11
6247.0459154376294
 21
8377.350635838091
 31
0.0
 73
     2
  0
TEXT
  5
930
  8
2
 62
     7
 10
6338.0459154376294
 20
8447.350635838091
 30
0.0
 40
60.0
  1
器　　　具　　　明　　　細
 41
0.9
 72
     1
 11
6752.0459154376304
 21
8477.350635838091
 31
0.0
 73
     2
  0
TEXT
  5
931
  8
2
 62
     7
 10
5932.0459154376304
 20
7847.3506358380919
 30
0.0
 40
60.0
  1
：壁取付部には厚さ２０ｍｍ以上の補強木を入れてください。
 41
0.72
 11
5932.0459154376304
 21
7877.350635838091
 31
0.0
 73
     2
  0
TEXT
  5
932
  8
2
 62
     7
 10
5932.0459154376304
 20
7921.350635838091
 30
0.0
 40
60.0
  1
<カウンター>
 41
0.72
 11
5932.0459154376304
 21
7951.350635838091
 31
0.0
 73
     2
  0
TEXT
  5
933
  8
2
 62
     7
 10
7084.0459154376331
 20
4497.4920243022634
 30
0.0
 40
44.0
  1
ＰＪ１／２
 41
0.9
 11
7084.0459154376331
 21
4519.4920243022634
 31
0.0
 73
     2
  0
TEXT
  5
935
  8
2
 62
     7
 10
4456.5479154376362
 20
3477.0500358380991
 30
0.0
 40
60.0
  1
検図
 41
0.9899997000000004
 11
4456.5479154376362
 21
3507.0500358380982
 31
0.0
 73
     2
  0
TEXT
  5
936
  8
2
 62
     7
 10
4086.5479154376339
 20
3192.0504358380958
 30
0.0
 40
60.0
  1
備考
 41
0.9899997000000004
 11
4086.5479154376339
 21
3222.0504358380958
 31
0.0
 73
     2
  0
TEXT
  5
937
  8
2
 62
     7
 10
5906.5481154376357
 20
3297.3506358380978
 30
0.0
 40
60.0
  1
品番
 41
0.9899997000000004
 11
5906.5481154376357
 21
3327.3506358380992
 31
0.0
 73
     2
  0
TEXT
  5
938
  8
2
 62
     7
 10
5906.5481154376357
 20
3692.3506358380978
 30
0.0
 40
60.0
  1
名称
 41
0.9899997000000004
 11
5906.5481154376357
 21
3722.3506358380978
 31
0.0
 73
     2
  0
TEXT
  5
939
  8
2
 62
     7
 10
5156.5479154376362
 20
3487.0500358380982
 30
0.0
 40
60.0
  1
日付
 41
0.9899997000000004
 11
5156.5479154376362
 21
3517.0500358380982
 31
0.0
 73
     2
  0
TEXT
  5
93A
  8
2
 62
     7
 10
5496.5479154376362
 20
3492.3506358380992
 30
0.0
 40
60.0
  1
尺度
 41
0.9899997000000004
 11
5496.5479154376362
 21
3522.3506358380978
 31
0.0
 73
     2
  0
TEXT
  5
93B
  8
2
 62
     7
 10
5496.5479154376362
 20
3692.3506358380978
 30
0.0
 40
60.0
  1
単位
 41
0.9899997000000004
 11
5496.5479154376362
 21
3722.3506358380978
 31
0.0
 73
     2
  0
TEXT
  5
93C
  8
2
 62
     7
 10
4086.5479154376339
 20
3477.0500358380991
 30
0.0
 40
60.0
  1
製図
 41
0.9899997000000004
 11
4086.5479154376339
 21
3507.0500358380982
 31
0.0
 73
     2
  0
TEXT
  5
93D
  8
2
 62
     7
 10
5693.8608539801398
 20
3610.2056919653219
 30
0.0
 40
60.0
  1
mm
 41
0.9
 11
5693.8608539801398
 21
3640.2056919653228
 31
0.0
 73
     2
  0
TEXT
  5
93E
  8
2
 62
     7
 10
6029.2957863487209
 20
3447.3506358380978
 30
0.0
 40
70.0
  1
セラオリジナルコレクション　カウンターセット
 41
0.7650000000000001
 11
6029.2957863487209
 21
3482.3506358380978
 31
0.0
 73
     2
  0
TEXT
  5
93F
  8
2
 62
     7
 10
6028.4685988177516
 20
3010.7987599197381
 30
0.0
 40
70.0
  1
76CEK420SET0=000012
 41
0.72
 11
6028.4685988177516
 21
3045.7987599197381
 31
0.0
 73
     2
  0
TEXT
  5
940
  8
2
 62
     7
 10
5609.29578634872
 20
3355.7987599197381
 30
0.0
 40
60.0
  1
1:20
 41
0.9
 11
5609.29578634872
 21
3385.7987599197381
 31
0.0
 73
     2
  0
TEXT
  5
941
  8
2
 62
     7
 10
5219.795915437634
 20
3355.7987599197381
 30
0.0
 40
60.0
  1
18-04-18
 41
0.45
 72
     1
 11
5312.045915437634
 21
3385.7987599197381
 31
0.0
 73
     2
  0
TEXT
  5
942
  8
2
 62
     7
 10
4605.2957863487254
 20
3391.7987599197381
 30
0.0
 40
60.0
  1
本
 41
0.9
  0
TEXT
  5
943
  8
2
 62
     7
 10
4605.2957863487254
 20
3319.7987599197381
 30
0.0
 40
60.0
  1
間
 41
0.9
  0
TEXT
  5
944
  8
2
 62
     7
 10
4235.2957863487209
 20
3391.7987599197381
 30
0.0
 40
60.0
  1
恋
 41
0.9
  0
TEXT
  5
945
  8
2
 62
     7
 10
4235.2957863487209
 20
3319.7987599197381
 30
0.0
 40
60.0
  1
塚
 41
0.9
  0
TEXT
  5
946
  8
2
 62
     7
 10
5906.5481154376357
 20
3099.8506358380992
 30
0.0
 40
60.0
  1
図番
 41
0.9899997000000004
 11
5906.5481154376357
 21
3129.8506358380978
 31
0.0
 73
     2
  0
TEXT
  5
948
  8
2
 62
     7
 10
7350.7285535613946
 20
2897.4666551800269
 30
0.0
 40
70.0
  1
(1/1)
 41
0.9
 72
     1
 11
7455.7285535613937
 21
2932.4666551800269
 31
0.0
 73
     2
  0
INSERT
  5
949
  8
2
 62
     7
  2
*D11
 10
0.0
 20
0.0
 30
0.0
  0
INSERT
  5
94A
  8
2
 62
     7
  2
*D12
 10
0.0
 20
0.0
 30
0.0
  0
INSERT
  5
94B
  8
2
 62
     7
  2
*D13
 10
0.0
 20
0.0
 30
0.0
  0
INSERT
  5
94C
  8
2
 62
     7
  2
*D14
 10
0.0
 20
0.0
 30
0.0
  0
INSERT
  5
94D
  8
2
 62
     7
  2
*D15
 10
0.0
 20
0.0
 30
0.0
  0
INSERT
  5
94E
  8
2
 62
     7
  2
*D16
 10
0.0
 20
0.0
 30
0.0
  0
INSERT
  5
94F
  8
2
 62
     7
  2
*D17
 10
0.0
 20
0.0
 30
0.0
  0
INSERT
  5
950
  8
2
 62
     7
  2
*D18
 10
0.0
 20
0.0
 30
0.0
  0
INSERT
  5
951
  8
2
 62
     7
  2
*D19
 10
0.0
 20
0.0
 30
0.0
  0
INSERT
  5
952
  8
2
 62
     7
  2
*D20
 10
0.0
 20
0.0
 30
0.0
  0
INSERT
  5
953
  8
2
 62
     7
  2
*D21
 10
0.0
 20
0.0
 30
0.0
  0
INSERT
  5
954
  8
2
 62
     7
  2
*D22
 10
0.0
 20
0.0
 30
0.0
  0
INSERT
  5
955
  8
2
 62
     7
  2
*D23
 10
0.0
 20
0.0
 30
0.0
  0
INSERT
  5
956
  8
2
 62
     7
  2
*D24
 10
0.0
 20
0.0
 30
0.0
  0
INSERT
  5
957
  8
2
 62
     7
  2
*D25
 10
0.0
 20
0.0
 30
0.0
  0
INSERT
  5
958
  8
2
 62
     7
  2
*D26
 10
0.0
 20
0.0
 30
0.0
  0
INSERT
  5
959
  8
2
 62
     7
  2
*D27
 10
0.0
 20
0.0
 30
0.0
  0
INSERT
  5
95A
  8
2
 62
     7
  2
*D28
 10
0.0
 20
0.0
 30
0.0
  0
INSERT
  5
95B
  8
2
 62
     7
  2
*D29
 10
0.0
 20
0.0
 30
0.0
  0
INSERT
  5
95C
  8
2
 62
     7
  2
*D30
 10
0.0
 20
0.0
 30
0.0
  0
INSERT
  5
95D
  8
2
 62
     7
  2
*D31
 10
0.0
 20
0.0
 30
0.0
  0
INSERT
  5
95E
  8
2
 62
     7
  2
*D32
 10
0.0
 20
0.0
 30
0.0
  0
INSERT
  5
95F
  8
2
 62
     7
  2
*D33
 10
0.0
 20
0.0
 30
0.0
  0
INSERT
  5
960
  8
2
 62
     7
  2
*D34
 10
0.0
 20
0.0
 30
0.0
  0
INSERT
  5
961
  8
2
 62
     7
  2
*D35
 10
0.0
 20
0.0
 30
0.0
  0
INSERT
  5
962
  8
2
 62
     7
  2
*D36
 10
0.0
 20
0.0
 30
0.0
  0
ENDSEC
  0
EOF
