  0
SECTION
  2
HEADER
  9
$ACADVER
  1
AC1009
  9
$INSBASE
 10
0.0
 20
0.0
 30
0.0
  9
$EXTMIN
 10
0.238058
 20
0.4482100000000001
 30
0.0
  9
$EXTMAX
 10
210.24000000000001
 20
297.44999999999999
 30
0.0
  9
$LIMMIN
 10
0.0
 20
0.0
  9
$LIMMAX
 10
12.0
 20
9.0
  9
$ORTHOMODE
 70
     0
  9
$REGENMODE
 70
     1
  9
$FILLMODE
 70
     1
  9
$QTEXTMODE
 70
     0
  9
$MIRRTEXT
 70
     1
  9
$DRAGMODE
 70
     2
  9
$LTSCALE
 40
1.0
  9
$OSMODE
 70
    37
  9
$ATTMODE
 70
     1
  9
$TEXTSIZE
 40
0.0
  9
$TRACEWID
 40
0.05
  9
$TEXTSTYLE
  7
STANDARD
  9
$CLAYER
  8
0
  9
$CELTYPE
  6
CONTINUOUS
  9
$CECOLOR
 62
   256
  9
$DIMSCALE
 40
1.0
  9
$DIMASZ
 40
0.18
  9
$DIMEXO
 40
0.0625
  9
$DIMDLI
 40
0.38
  9
$DIMRND
 40
0.0
  9
$DIMDLE
 40
0.0
  9
$DIMEXE
 40
0.18
  9
$DIMTP
 40
0.0
  9
$DIMTM
 40
0.0
  9
$DIMTXT
 40
0.18
  9
$DIMCEN
 40
0.09
  9
$DIMTSZ
 40
0.0
  9
$DIMTOL
 70
     0
  9
$DIMLIM
 70
     0
  9
$DIMTIH
 70
     1
  9
$DIMTOH
 70
     1
  9
$DIMSE1
 70
     0
  9
$DIMSE2
 70
     0
  9
$DIMTAD
 70
     0
  9
$DIMZIN
 70
     0
  9
$DIMBLK
  1

  9
$DIMASO
 70
     1
  9
$DIMSHO
 70
     1
  9
$DIMPOST
  1

  9
$DIMAPOST
  1

  9
$DIMALT
 70
     0
  9
$DIMALTD
 70
     2
  9
$DIMALTF
 40
25.399999999999999
  9
$DIMLFAC
 40
1.0
  9
$DIMTOFL
 70
     0
  9
$DIMTVP
 40
0.0
  9
$DIMTIX
 70
     0
  9
$DIMSOXD
 70
     0
  9
$DIMSAH
 70
     0
  9
$DIMBLK1
  1

  9
$DIMBLK2
  1

  9
$DIMSTYLE
  2
STANDARD
  9
$DIMCLRD
 70
     0
  9
$DIMCLRE
 70
     0
  9
$DIMCLRT
 70
     0
  9
$DIMTFAC
 40
1.0
  9
$DIMGAP
 40
0.09
  9
$LUNITS
 70
     2
  9
$LUPREC
 70
     4
  9
$SKETCHINC
 40
0.1
  9
$FILLETRAD
 40
0.0
  9
$AUNITS
 70
     0
  9
$AUPREC
 70
     0
  9
$MENU
  1
.
  9
$ELEVATION
 40
0.0
  9
$PELEVATION
 40
0.0
  9
$THICKNESS
 40
0.0
  9
$LIMCHECK
 70
     0
  9
$BLIPMODE
 70
     0
  9
$CHAMFERA
 40
0.0
  9
$CHAMFERB
 40
0.0
  9
$SKPOLY
 70
     0
  9
$TDCREATE
 40
2444972.375
  9
$TDUPDATE
 40
2458247.2495290278
  9
$TDINDWG
 40
0.0000473611
  9
$TDUSRTIMER
 40
0.0000473611
  9
$USRTIMER
 70
     1
  9
$ANGBASE
 50
0.0
  9
$ANGDIR
 70
     0
  9
$PDMODE
 70
     0
  9
$PDSIZE
 40
0.0
  9
$PLINEWID
 40
0.0
  9
$COORDS
 70
     1
  9
$SPLFRAME
 70
     0
  9
$SPLINETYPE
 70
     6
  9
$SPLINESEGS
 70
     8
  9
$ATTDIA
 70
     1
  9
$ATTREQ
 70
     1
  9
$HANDLING
 70
     1
  9
$HANDSEED
  5
61D
  9
$SURFTAB1
 70
     6
  9
$SURFTAB2
 70
     6
  9
$SURFTYPE
 70
     6
  9
$SURFU
 70
     6
  9
$SURFV
 70
     6
  9
$UCSNAME
  2

  9
$UCSORG
 10
0.0
 20
0.0
 30
0.0
  9
$UCSXDIR
 10
1.0
 20
0.0
 30
0.0
  9
$UCSYDIR
 10
0.0
 20
1.0
 30
0.0
  9
$PUCSNAME
  2

  9
$PUCSORG
 10
0.0
 20
0.0
 30
0.0
  9
$PUCSXDIR
 10
1.0
 20
0.0
 30
0.0
  9
$PUCSYDIR
 10
0.0
 20
1.0
 30
0.0
  9
$USERI1
 70
     0
  9
$USERI2
 70
     0
  9
$USERI3
 70
     0
  9
$USERI4
 70
     0
  9
$USERI5
 70
     0
  9
$USERR1
 40
0.0
  9
$USERR2
 40
0.0
  9
$USERR3
 40
0.0
  9
$USERR4
 40
0.0
  9
$USERR5
 40
0.0
  9
$WORLDVIEW
 70
     1
  9
$SHADEDGE
 70
     3
  9
$SHADEDIF
 70
    70
  9
$TILEMODE
 70
     1
  9
$MAXACTVP
 70
    48
  9
$PLIMCHECK
 70
     0
  9
$PEXTMIN
 10
1.0000000000000000E+020
 20
1.0000000000000000E+020
 30
1.0000000000000000E+020
  9
$PEXTMAX
 10
-1.0000000000000000E+020
 20
-1.0000000000000000E+020
 30
-1.0000000000000000E+020
  9
$PLIMMIN
 10
0.0
 20
0.0
  9
$PLIMMAX
 10
12.0
 20
9.0
  9
$UNITMODE
 70
     0
  9
$VISRETAIN
 70
     1
  9
$PLINEGEN
 70
     0
  9
$PSLTSCALE
 70
     1
  0
ENDSEC
  0
SECTION
  2
TABLES
  0
TABLE
  2
VPORT
 70
     1
  0
VPORT
  2
*ACTIVE
 70
     0
 10
0.0
 20
0.0
 11
1.0
 21
1.0
 12
195.83816741455661
 22
148.72499999999991
 13
0.0
 23
0.0
 14
1.0
 24
1.0
 15
0.0
 25
0.0
 16
0.0
 26
0.0
 36
1.0
 17
0.0
 27
0.0
 37
0.0
 40
281.37269451488049
 41
2.298642533936651
 42
50.0
 43
0.0
 44
0.0
 50
0.0
 51
0.0
 71
     0
 72
   100
 73
     1
 74
     1
 75
     0
 76
     0
 77
     0
 78
     0
  0
ENDTAB
  0
TABLE
  2
LTYPE
 70
     4
  0
LTYPE
  2
CONTINUOUS
 70
     0
  3
Solid line
 72
    65
 73
     0
 40
0.0
  0
LTYPE
  2
AIGENLINE001
 70
     0
  3
generate AI->DXF Converter
 72
    65
 73
     2
 40
1.5522299999999991
 49
0.776115
 49
-0.776115
  0
LTYPE
  2
AIGENLINE002
 70
     0
  3
generate AI->DXF Converter
 72
    65
 73
     2
 40
1.5522299999999991
 49
0.776115
 49
-0.776115
  0
LTYPE
  2
AIGENLINE003
 70
     0
  3
generate AI->DXF Converter
 72
    65
 73
     6
 40
7.4083750000000004
 49
3.5278
 49
-0.776115
 49
0.776115
 49
-0.776115
 49
0.776115
 49
-0.776115
  0
ENDTAB
  0
TABLE
  2
LAYER
 70
     2
  0
LAYER
  2
0
 70
     0
 62
     7
  6
CONTINUOUS
  0
LAYER
  2
_________2
 70
     0
 62
     7
  6
CONTINUOUS
  0
ENDTAB
  0
TABLE
  2
STYLE
 70
     1
  0
STYLE
  2
STANDARD
 70
     0
 40
0.0
 41
0.0
 50
0.0
 71
     0
 42
0.0
  3
TXT
  4
EXTFONT.SHX
  0
ENDTAB
  0
TABLE
  2
VIEW
 70
     0
  0
ENDTAB
  0
TABLE
  2
UCS
 70
     0
  0
ENDTAB
  0
TABLE
  2
APPID
 70
     3
  0
APPID
  2
ACAD
 70
     0
  0
APPID
  2
ACAD_NAV_VCDISPLAY
 70
     0
  0
APPID
  2
ACAD_MLEADERVER
 70
     0
  0
ENDTAB
  0
TABLE
  2
DIMSTYLE
 70
     1
  0
DIMSTYLE
  2
STANDARD
 70
     0
  3

  4

  5

  6

  7

 40
1.0
 41
0.18
 42
0.0625
 43
0.38
 44
0.18
 45
0.0
 46
0.0
 47
0.0
 48
0.0
140
0.18
141
0.09
142
0.0
143
25.399999999999999
144
1.0
145
0.0
146
1.0
147
0.09
 71
     0
 72
     0
 73
     1
 74
     1
 75
     0
 76
     0
 77
     0
 78
     0
170
     0
171
     2
172
     0
173
     0
174
     0
175
     0
176
     0
177
     0
178
     0
  0
ENDTAB
  0
ENDSEC
  0
SECTION
  2
BLOCKS
  0
BLOCK
  8
0
  2
$MODEL_SPACE
 70
     0
 10
0.0
 20
0.0
 30
0.0
  3
$MODEL_SPACE
  1

  0
ENDBLK
  5
1A
  8
0
  0
BLOCK
 67
     1
  8
0
  2
$PAPER_SPACE
 70
     0
 10
0.0
 20
0.0
 30
0.0
  3
$PAPER_SPACE
  1

  0
ENDBLK
  5
17
 67
     1
  8
0
  0
ENDSEC
  0
SECTION
  2
ENTITIES
  0
TEXT
  5
24
  8
0
 62
     7
 10
80.193200000000004
 20
135.61099999999999
 30
0.0
 40
3.0923400000000001
  1
18ﾟ
 41
0.5
  0
TEXT
  5
25
  8
0
 62
     7
 10
82.39992500000001
 20
232.238
 30
0.0
 40
3.0923400000000001
  1
70（ブラケット取付範囲）
 41
0.5
 72
     2
 11
104.304
 21
232.238
 31
0.0
  0
TEXT
  5
26
  8
0
 62
     7
 10
49.059962500000012
 20
233.13300000000001
 30
0.0
 40
3.0923400000000001
  1
70（ブラケット取付範囲）
 41
0.5
 72
     1
 11
60.012
 21
233.13300000000001
 31
0.0
  0
TEXT
  5
27
  8
0
 62
     7
 10
59.303899999999999
 20
223.22800000000001
 30
0.0
 40
3.0923400000000001
  1
%%c46
 41
0.5
  0
TEXT
  5
28
  8
0
 62
     7
 10
41.434100000000001
 20
207.2229825
 30
0.0
 40
3.0923400000000001
  1
180
 50
90.0
 41
0.5
 72
     1
 11
41.434100000000001
 21
208.898
 31
0.0
  0
TEXT
  5
29
  8
0
 62
     7
 10
35.372399999999999
 20
206.96528749999999
 30
0.0
 40
3.0923400000000001
  1
250
 50
90.0
 41
0.5
 72
     1
 11
35.372399999999999
 21
208.898
 31
0.0
  0
TEXT
  5
2A
  8
0
 62
     7
 10
82.928482500000001
 20
190.21899999999999
 30
0.0
 40
3.0923400000000001
  1
120
 41
0.5
 72
     1
 11
84.603499999999997
 21
190.21899999999999
 31
0.0
  0
TEXT
  5
2B
  8
0
 62
     7
 10
67.923282499999999
 20
190.21899999999999
 30
0.0
 40
3.0923400000000001
  1
180
 41
0.5
 72
     1
 11
69.598299999999995
 21
190.21899999999999
 31
0.0
  0
TEXT
  5
2C
  8
0
 62
     7
 10
96.928682500000008
 20
184.29599999999999
 30
0.0
 40
3.0923400000000001
  1
160
 41
0.5
 72
     1
 11
98.603700000000003
 21
184.29599999999999
 31
0.0
  0
TEXT
  5
2D
  8
0
 62
     7
 10
75.169687500000009
 20
178.268
 30
0.0
 40
3.0923400000000001
  1
590
 41
0.5
 72
     1
 11
77.102400000000003
 21
178.268
 31
0.0
  0
TEXT
  5
2E
  8
0
 62
     7
 10
73.795834999999997
 20
184.29599999999999
 30
0.0
 40
3.0923400000000001
  1
300
 41
0.5
 72
     1
 11
75.599699999999984
 21
184.29599999999999
 31
0.0
  0
TEXT
  5
2F
  8
0
 62
     7
 10
52.423282499999992
 20
184.29599999999999
 30
0.0
 40
3.0923400000000001
  1
130
 41
0.5
 72
     1
 11
54.098300000000002
 21
184.29599999999999
 31
0.0
  0
TEXT
  5
30
  8
0
 62
     7
 10
112.895
 20
190.93599999999989
 30
0.0
 40
3.0923400000000001
  1
18
 50
90.0
 41
0.5
  0
TEXT
  5
31
  8
0
 62
     7
 10
61.427082499999997
 20
245.988
 30
0.0
 40
3.0923400000000001
  1
310
 41
0.5
 72
     1
 11
63.1021
 21
245.988
 31
0.0
  0
TEXT
  5
32
  8
0
 62
     7
 10
90.669587500000006
 20
245.988
 30
0.0
 40
3.0923400000000001
  1
280
 41
0.5
 72
     1
 11
92.602299999999985
 21
245.988
 31
0.0
  0
TEXT
  5
33
  8
0
 62
     7
 10
84.693700000000007
 20
239.81399999999999
 30
0.0
 40
3.0923400000000001
  1
40
 41
0.5
  0
TEXT
  5
34
  8
0
 62
     7
 10
98.926982500000022
 20
239.965
 30
0.0
 40
3.0923400000000001
  1
120
 41
0.5
 72
     1
 11
100.602
 21
239.965
 31
0.0
  0
TEXT
  5
35
  8
0
 62
     7
 10
110.52144
 20
229.46700000000001
 30
0.0
 40
3.0923400000000001
  1
18
 41
0.5
 72
     2
 11
112.583
 21
229.46700000000001
 31
0.0
  0
TEXT
  5
36
  8
0
 62
     7
 10
41.163600000000002
 20
229.46700000000001
 30
0.0
 40
3.0923400000000001
  1
18
 41
0.5
  0
TEXT
  5
37
  8
0
 62
     7
 10
102.154
 20
145.56
 30
0.0
 40
3.0923400000000001
  1
水栓
 41
0.5
  0
TEXT
  5
38
  8
0
 62
     7
 10
102.154
 20
141.69399999999999
 30
0.0
 40
3.0923400000000001
  1
取付穴：%%c28
 41
0.5
  0
TEXT
  5
39
  8
0
 62
     7
 10
75.117000000000004
 20
135.8309825
 30
0.0
 40
3.0923400000000001
  1
150
 50
90.0
 41
0.5
 72
     1
 11
75.117000000000004
 21
137.506
 31
0.0
  0
TEXT
  5
3A
  8
0
 62
     7
 10
69.0167
 20
135.852135
 30
0.0
 40
3.0923400000000001
  1
153
 50
90.0
 41
0.5
 72
     1
 11
69.0167
 21
137.65600000000001
 31
0.0
  0
TEXT
  5
3B
  8
0
 62
     7
 10
39.549300000000002
 20
130.7693725
 30
0.0
 40
3.0923400000000001
  1
60
 50
90.0
 41
0.5
 72
     1
 11
39.549300000000002
 21
131.929
 31
0.0
  0
TEXT
  5
3C
  8
0
 62
     7
 10
39.549300000000002
 20
123.7693725
 30
0.0
 40
3.0923400000000001
  1
80
 50
90.0
 41
0.5
 72
     1
 11
39.549300000000002
 21
124.929
 31
0.0
  0
TEXT
  5
3D
  8
0
 62
     7
 10
56.468200000000003
 20
136.09027
 30
0.0
 40
3.0923400000000001
  1
137
 50
90.0
 41
0.5
 72
     2
 11
56.468200000000003
 21
139.69800000000001
 31
0.0
  0
TEXT
  5
3E
  8
0
 62
     7
 10
96.414024999999995
 20
157.28100000000001
 30
0.0
 40
3.0923400000000001
  1
62
 41
0.5
 72
     1
 11
97.702500000000001
 21
157.28100000000001
 31
0.0
  0
TEXT
  5
3F
  8
0
 62
     7
 10
87.477382500000004
 20
157.28100000000001
 30
0.0
 40
3.0923400000000001
  1
109
 41
0.5
 72
     1
 11
89.1524
 21
157.28100000000001
 31
0.0
  0
TEXT
  5
40
  8
0
 62
     7
 10
71.793883000000008
 20
104.816
 30
0.0
 40
3.0923400000000001
  1
444～524
 41
0.5
 72
     1
 11
77.102400000000003
 21
104.816
 31
0.0
  0
TEXT
  5
41
  8
0
 62
     7
 10
64.234200000000001
 20
114.61799999999999
 30
0.0
 40
3.0923400000000001
  1
G1 1/4
 41
0.5
  0
TEXT
  5
42
  8
0
 62
     7
 10
83.617099999999994
 20
88.568499999999986
 30
0.0
 40
3.0923400000000001
  1
G1/2
 41
0.5
  0
TEXT
  5
43
  8
0
 62
     7
 10
134.91698600000001
 20
129.84200000000001
 30
0.0
 40
3.0923400000000001
  1
開
 41
0.5
 72
     2
 11
136.25700000000001
 21
129.84200000000001
 31
0.0
  0
TEXT
  5
44
  8
0
 62
     7
 10
139.16298599999999
 20
142.23599999999999
 30
0.0
 40
3.0923400000000001
  1
閉
 41
0.5
 72
     2
 11
140.50299999999999
 21
142.23599999999999
 31
0.0
  0
TEXT
  5
45
  8
0
 62
     7
 10
133.197653
 20
137.251
 30
0.0
 40
3.0923400000000001
  1
120ﾟ
 41
0.5
 72
     2
 11
136.96000000000001
 21
137.251
 31
0.0
  0
TEXT
  5
46
  8
0
 62
     7
 10
163.971
 20
131.74744000000001
 30
0.0
 40
3.0923400000000001
  1
18
 50
90.0
 41
0.5
 72
     2
 11
163.971
 21
133.809
 31
0.0
  0
TEXT
  5
47
  8
0
 62
     7
 10
163.971
 20
124.4683725
 30
0.0
 40
3.0923400000000001
  1
30
 50
90.0
 41
0.5
 72
     1
 11
163.971
 21
125.628
 31
0.0
  0
TEXT
  5
48
  8
0
 62
     7
 10
163.971
 20
121.5895249999999
 30
0.0
 40
3.0923400000000001
  1
25
 50
90.0
 41
0.5
 72
     1
 11
163.971
 21
122.878
 31
0.0
  0
TEXT
  5
49
  8
0
 62
     7
 10
163.971
 20
117.4153725
 30
0.0
 40
3.0923400000000001
  1
60
 50
90.0
 41
0.5
 72
     1
 11
163.971
 21
118.575
 31
0.0
  0
TEXT
  5
4A
  8
0
 62
     7
 10
170.36500000000001
 20
125.24052500000001
 30
0.0
 40
3.0923400000000001
  1
48
 50
90.0
 41
0.5
 72
     1
 11
170.36500000000001
 21
126.529
 31
0.0
  0
TEXT
  5
4B
  8
0
 62
     7
 10
157.101
 20
106.039
 30
0.0
 40
3.0923400000000001
  1
%%c5\U+00D735
 41
0.5
  0
TEXT
  5
4C
  8
0
 62
     7
 10
157.101
 20
102.173
 30
0.0
 40
3.0923400000000001
  1
トラスタッピングネジ
 41
0.5
  0
TEXT
  5
4D
  8
0
 62
     7
 10
146.816135
 20
86.767300000000006
 30
0.0
 40
3.0923400000000001
  1
125
 41
0.5
 72
     1
 11
148.62
 21
86.767300000000006
 31
0.0
  0
TEXT
  5
4E
  8
0
 62
     7
 10
111.31999999999999
 20
130.74052499999999
 30
0.0
 40
3.0923400000000001
  1
62
 50
90.0
 41
0.5
 72
     1
 11
111.31999999999999
 21
132.029
 31
0.0
  0
TEXT
  5
4F
  8
0
 62
     7
 10
119.464
 20
138.67513500000001
 30
0.0
 40
3.0923400000000001
  1
231
 50
90.0
 41
0.5
 72
     1
 11
119.464
 21
140.47900000000001
 31
0.0
  0
TEXT
  5
50
  8
0
 62
     7
 10
119.464
 20
109.11644
 30
0.0
 40
3.0923400000000001
  1
355
 50
90.0
 41
0.5
 72
     1
 11
119.464
 21
111.178
 31
0.0
  0
ARC
  5
51
  8
0
 62
     7
 10
83.741202999999985
 20
144.412429
 30
0.0
 40
5.2966730000000002
 50
219.54188999999991
 51
269.57463799999999
  0
ARC
  5
52
  8
0
 62
     7
 10
83.692410999999993
 20
144.36385200000001
 30
0.0
 40
5.2479589999999989
 50
270.10339099999999
 51
302.80952100000002
  0
LINE
  5
53
  8
0
 62
     7
 10
83.701899999999995
 20
143.62899999999999
 30
0.0
 11
83.701899999999995
 21
138.416
 31
0.0
  0
LINE
  5
54
  8
0
 62
     7
 10
83.191000000000003
 20
142.75700000000001
 30
0.0
 11
81.893900000000016
 21
138.768
 31
0.0
  0
LINE
  5
55
  8
0
  6
AIGENLINE002
 62
     7
 10
84.805999999999997
 20
147.726
 30
0.0
 11
83.376700000000014
 21
143.32900000000001
 31
0.0
  0
LINE
  5
56
  8
0
 62
     7
 10
79.854699999999994
 20
139.86600000000001
 30
0.0
 11
82.090100000000007
 21
139.37100000000001
 31
0.0
  0
LINE
  5
57
  8
0
 62
     7
 10
82.090100000000007
 20
139.37100000000001
 30
0.0
 11
80.402000000000001
 21
140.917
 31
0.0
  0
LINE
  5
58
  8
0
 62
     7
 10
80.402000000000001
 20
140.917
 30
0.0
 11
79.854699999999994
 21
139.86600000000001
 31
0.0
  0
LINE
  5
59
  8
0
 62
     7
 10
85.740399999999994
 20
140.15799999999999
 30
0.0
 11
83.701899999999995
 21
139.11600000000001
 31
0.0
  0
LINE
  5
5A
  8
0
 62
     7
 10
83.701899999999995
 20
139.11600000000001
 30
0.0
 11
85.987899999999996
 21
138.999
 31
0.0
  0
LINE
  5
5B
  8
0
 62
     7
 10
85.987899999999996
 20
138.999
 30
0.0
 11
85.740399999999994
 21
140.15799999999999
 31
0.0
  0
LINE
  5
5C
  8
0
 62
     7
 10
100.86
 20
228.767
 30
0.0
 11
99.843800000000016
 21
231.46700000000001
 31
0.0
  0
LINE
  5
5D
  8
0
 62
     7
 10
52.694800000000001
 20
228.767
 30
0.0
 11
54.946199999999997
 21
232.56899999999999
 31
0.0
  0
LINE
  5
5E
  8
0
  6
AIGENLINE002
 62
     7
 10
100.803
 20
136.28100000000001
 30
0.0
 11
100.803
 21
139.16200000000001
 31
0.0
  0
ARC
  5
5F
  8
0
 62
     7
 10
142.38055700000001
 20
135.128905
 30
0.0
 40
6.0813829999999989
 50
180.003615
 51
209.928898
  0
ARC
  5
60
  8
0
 62
     7
 10
142.36930000000001
 20
135.12835000000001
 30
0.0
 40
6.0701249999999991
 50
89.998373999999998
 51
179.998344
  0
LINE
  5
61
  8
0
 62
     7
 10
142.369
 20
135.12899999999999
 30
0.0
 11
136.64099999999999
 21
131.821
 31
0.0
  0
LINE
  5
62
  8
0
 62
     7
 10
100.803
 20
139.86199999999999
 30
0.0
 11
100.803
 21
157.28100000000001
 31
0.0
  0
LINE
  5
63
  8
0
 62
     7
 10
96.813999999999993
 20
157.17400000000001
 30
0.0
 11
94.602599999999995
 21
156.58099999999999
 31
0.0
  0
LINE
  5
64
  8
0
 62
     7
 10
94.602599999999995
 20
156.58099999999999
 30
0.0
 11
96.813999999999993
 21
155.989
 31
0.0
  0
LINE
  5
65
  8
0
 62
     7
 10
96.813999999999993
 20
155.989
 30
0.0
 11
96.813999999999993
 21
157.17400000000001
 31
0.0
  0
LINE
  5
66
  8
0
 62
     7
 10
85.913599999999988
 20
157.17400000000001
 30
0.0
 11
83.702200000000005
 21
156.58099999999999
 31
0.0
  0
LINE
  5
67
  8
0
 62
     7
 10
83.702200000000005
 20
156.58099999999999
 30
0.0
 11
85.913599999999988
 21
155.989
 31
0.0
  0
LINE
  5
68
  8
0
 62
     7
 10
85.913599999999988
 20
155.989
 30
0.0
 11
85.913599999999988
 21
157.17400000000001
 31
0.0
  0
LINE
  5
69
  8
0
 62
     7
 10
92.391199999999984
 20
155.989
 30
0.0
 11
94.602599999999995
 21
156.58099999999999
 31
0.0
  0
LINE
  5
6A
  8
0
 62
     7
 10
94.602599999999995
 20
156.58099999999999
 30
0.0
 11
92.391199999999984
 21
157.17400000000001
 31
0.0
  0
LINE
  5
6B
  8
0
 62
     7
 10
92.391199999999984
 20
157.17400000000001
 30
0.0
 11
92.391199999999984
 21
155.989
 31
0.0
  0
LINE
  5
6C
  8
0
 62
     7
 10
98.591300000000004
 20
155.989
 30
0.0
 11
100.803
 21
156.58099999999999
 31
0.0
  0
LINE
  5
6D
  8
0
 62
     7
 10
100.803
 20
156.58099999999999
 30
0.0
 11
98.591300000000004
 21
157.17400000000001
 31
0.0
  0
LINE
  5
6E
  8
0
 62
     7
 10
98.591300000000004
 20
157.17400000000001
 30
0.0
 11
98.591300000000004
 21
155.989
 31
0.0
  0
LINE
  5
6F
  8
0
 62
     7
 10
83.702200000000005
 20
156.58099999999999
 30
0.0
 11
100.803
 21
156.58099999999999
 31
0.0
  0
LINE
  5
70
  8
0
 62
     7
 10
94.602599999999995
 20
157.28100000000001
 30
0.0
 11
94.602599999999995
 21
147.941
 31
0.0
  0
LINE
  5
71
  8
0
 62
     7
 10
83.702200000000005
 20
157.28100000000001
 30
0.0
 11
83.702200000000005
 21
145.11199999999999
 31
0.0
  0
LINE
  5
72
  8
0
  6
AIGENLINE003
 62
     7
 10
97.802400000000006
 20
221.398
 30
0.0
 11
97.802400000000006
 21
198.19800000000001
 31
0.0
  0
LINE
  5
73
  8
0
  6
AIGENLINE003
 62
     7
 10
56.4024
 20
221.398
 30
0.0
 11
56.4024
 21
198.19800000000001
 31
0.0
  0
ARC
  5
74
  8
0
  6
AIGENLINE001
 62
     7
 10
137.37616399999999
 20
127.072958
 30
0.0
 40
0.743933
 50
216.66490899999999
 51
302.48840200000001
  0
ARC
  5
75
  8
0
  6
AIGENLINE001
 62
     7
 10
137.37564499999999
 20
127.029933
 30
0.0
 40
0.7083120000000001
 50
304.39347299999997
 51
325.49893900000001
  0
LINE
  5
76
  8
0
  6
AIGENLINE001
 62
     7
 10
137.119
 20
127.128
 30
0.0
 11
137.119
 21
128.32900000000001
 31
0.0
  0
LINE
  5
77
  8
0
  6
AIGENLINE001
 62
     7
 10
137.619
 20
127.128
 30
0.0
 11
137.619
 21
128.32900000000001
 31
0.0
  0
LINE
  5
78
  8
0
  6
AIGENLINE001
 62
     7
 10
137.619
 20
128.32900000000001
 30
0.0
 11
137.369
 21
128.62899999999999
 31
0.0
  0
LINE
  5
79
  8
0
  6
AIGENLINE001
 62
     7
 10
137.119
 20
128.32900000000001
 30
0.0
 11
137.369
 21
128.62899999999999
 31
0.0
  0
ARC
  5
7A
  8
0
  6
AIGENLINE001
 62
     7
 10
145.876283
 20
127.073978
 30
0.0
 40
0.7448040000000001
 50
216.71287699999999
 51
302.44748199999998
  0
ARC
  5
7B
  8
0
  6
AIGENLINE001
 62
     7
 10
145.878165
 20
127.026454
 30
0.0
 40
0.7040960000000001
 50
304.393438
 51
325.60657200000003
  0
LINE
  5
7C
  8
0
  6
AIGENLINE001
 62
     7
 10
145.619
 20
127.128
 30
0.0
 11
145.619
 21
128.32900000000001
 31
0.0
  0
LINE
  5
7D
  8
0
  6
AIGENLINE001
 62
     7
 10
146.119
 20
127.128
 30
0.0
 11
146.119
 21
128.32900000000001
 31
0.0
  0
LINE
  5
7E
  8
0
  6
AIGENLINE001
 62
     7
 10
146.119
 20
128.32900000000001
 30
0.0
 11
145.869
 21
128.62899999999999
 31
0.0
  0
LINE
  5
7F
  8
0
  6
AIGENLINE001
 62
     7
 10
145.619
 20
128.32900000000001
 30
0.0
 11
145.869
 21
128.62899999999999
 31
0.0
  0
ARC
  5
80
  8
0
 62
     7
 10
154.81249700000001
 20
115.62169900000001
 30
0.0
 40
0.7432710000000001
 50
126.61740500000001
 51
212.53588599999989
  0
ARC
  5
81
  8
0
 62
     7
 10
154.778899
 20
115.631687
 30
0.0
 40
0.720805
 50
214.642076
 51
235.35795400000001
  0
LINE
  5
82
  8
0
 62
     7
 10
154.369
 20
120.929
 30
0.0
 11
154.369
 21
113.129
 31
0.0
  0
LINE
  5
83
  8
0
 62
     7
 10
153.125
 20
120.929
 30
0.0
 11
154.13200000000001
 21
120.30800000000001
 31
0.0
  0
LINE
  5
84
  8
0
 62
     7
 10
149.50700000000001
 20
120.929
 30
0.0
 11
154.06399999999999
 21
118.117
 31
0.0
  0
ARC
  5
85
  8
0
 62
     7
 10
154.16678200000001
 20
118.29693899999999
 30
0.0
 40
0.207497
 50
240.39242400000001
 51
326.36027100000001
  0
ARC
  5
86
  8
0
 62
     7
 10
154.16596200000001
 20
118.28765
 30
0.0
 40
0.203199
 50
328.66944000000012
 51
359.73870599999998
  0
ARC
  5
87
  8
0
 62
     7
 10
153.85779099999999
 20
119.875822
 30
0.0
 40
0.5114030000000001
 50
0.6711550000000001
 51
57.603220999999991
  0
LINE
  5
88
  8
0
 62
     7
 10
154.869
 20
120.929
 30
0.0
 11
154.869
 21
113.129
 31
0.0
  0
LINE
  5
89
  8
0
 62
     7
 10
154.369
 20
113.129
 30
0.0
 11
154.869
 21
113.129
 31
0.0
  0
ARC
  5
8A
  8
0
 62
     7
 10
130.18020100000001
 20
121.240135
 30
0.0
 40
0.311198
 50
182.077507
 51
267.98834299999999
  0
ARC
  5
8B
  8
0
 62
     7
 10
130.18053399999999
 20
128.61735100000001
 30
0.0
 40
0.3115429999999999
 50
92.070718999999997
 51
177.86343199999999
  0
LINE
  5
8C
  8
0
 62
     7
 10
130.16900000000001
 20
120.929
 30
0.0
 11
154.869
 21
120.929
 31
0.0
  0
LINE
  5
8D
  8
0
 62
     7
 10
154.869
 20
128.929
 30
0.0
 11
154.869
 21
120.929
 31
0.0
  0
LINE
  5
8E
  8
0
 62
     7
 10
130.16900000000001
 20
128.929
 30
0.0
 11
154.869
 21
128.929
 31
0.0
  0
LINE
  5
8F
  8
0
 62
     7
 10
129.869
 20
128.62899999999999
 30
0.0
 11
129.869
 21
121.229
 31
0.0
  0
ARC
  5
90
  8
0
 62
     7
 10
103.28852500000001
 20
115.614824
 30
0.0
 40
0.363941
 50
2.1489989999999999
 51
87.794569999999979
  0
ARC
  5
91
  8
0
 62
     7
 10
103.31621199999999
 20
115.614789
 30
0.0
 40
0.363963
 50
92.154366000000024
 51
177.84560400000001
  0
ARC
  5
92
  8
0
 62
     7
 10
103.31622299999999
 20
115.64216399999999
 30
0.0
 40
0.363974
 50
182.15601599999999
 51
267.84401400000002
  0
ARC
  5
93
  8
0
 62
     7
 10
103.288839
 20
115.64180399999999
 30
0.0
 40
0.363615
 50
272.15783399999998
 51
357.898597
  0
LINE
  5
94
  8
0
 62
     7
 10
103.05200000000001
 20
120.929
 30
0.0
 11
103.05200000000001
 21
118.087
 31
0.0
  0
LINE
  5
95
  8
0
 62
     7
 10
103.55200000000001
 20
120.929
 30
0.0
 11
103.55200000000001
 21
118.087
 31
0.0
  0
LINE
  5
96
  8
0
 62
     7
 10
103.55200000000001
 20
118.087
 30
0.0
 11
103.05200000000001
 21
118.087
 31
0.0
  0
ARC
  5
97
  8
0
 62
     7
 10
103.30253
 20
116.922755
 30
0.0
 40
3.7944539999999991
 50
246.71439799999999
 51
293.2856220000001
  0
LINE
  5
98
  8
0
 62
     7
 10
101.803
 20
120.929
 30
0.0
 11
101.803
 21
113.437
 31
0.0
  0
LINE
  5
99
  8
0
 62
     7
 10
104.803
 20
120.929
 30
0.0
 11
104.803
 21
113.437
 31
0.0
  0
ARC
  5
9A
  8
0
 62
     7
 10
50.889017000000003
 20
115.615191
 30
0.0
 40
0.363547
 50
2.0934240000000002
 51
87.906565999999998
  0
ARC
  5
9B
  8
0
 62
     7
 10
50.915979
 20
115.614789
 30
0.0
 40
0.363963
 50
92.154366000000024
 51
177.84560400000001
  0
ARC
  5
9C
  8
0
 62
     7
 10
50.915596000000001
 20
115.64176999999999
 30
0.0
 40
0.363567
 50
182.09638000000001
 51
267.90364899999997
  0
ARC
  5
9D
  8
0
 62
     7
 10
50.888613999999997
 20
115.64215299999999
 30
0.0
 40
0.363963
 50
272.15438599999999
 51
357.84562399999999
  0
LINE
  5
9E
  8
0
 62
     7
 10
50.652500000000003
 20
120.929
 30
0.0
 11
50.652500000000003
 21
118.087
 31
0.0
  0
LINE
  5
9F
  8
0
 62
     7
 10
51.1524
 20
120.929
 30
0.0
 11
51.1524
 21
118.087
 31
0.0
  0
LINE
  5
A0
  8
0
 62
     7
 10
51.1524
 20
118.087
 30
0.0
 11
50.652500000000003
 21
118.087
 31
0.0
  0
ARC
  5
A1
  8
0
 62
     7
 10
50.902296999999997
 20
116.97673
 30
0.0
 40
3.8440910000000001
 50
247.03242499999999
 51
292.96759500000002
  0
LINE
  5
A2
  8
0
 62
     7
 10
49.40229999999999
 20
120.929
 30
0.0
 11
49.40229999999999
 21
113.437
 31
0.0
  0
LINE
  5
A3
  8
0
 62
     7
 10
52.402299999999997
 20
120.929
 30
0.0
 11
52.402299999999997
 21
113.437
 31
0.0
  0
LINE
  5
A4
  8
0
 62
     7
 10
49.40229999999999
 20
221.398
 30
0.0
 11
52.402299999999997
 21
221.398
 31
0.0
  0
LINE
  5
A5
  8
0
 62
     7
 10
101.803
 20
221.398
 30
0.0
 11
104.803
 21
221.398
 31
0.0
  0
LINE
  5
A6
  8
0
 62
     7
 10
106.602
 20
221.398
 30
0.0
 11
47.602200000000003
 21
221.398
 31
0.0
  0
LINE
  5
A7
  8
0
 62
     7
 10
47.602200000000003
 20
196.398
 30
0.0
 11
106.602
 21
196.398
 31
0.0
  0
LINE
  5
A8
  8
0
 62
     7
 10
47.602200000000003
 20
120.929
 30
0.0
 11
106.602
 21
120.929
 31
0.0
  0
LINE
  5
A9
  8
0
 62
     7
 10
47.602200000000003
 20
128.929
 30
0.0
 11
106.602
 21
128.929
 31
0.0
  0
LINE
  5
AA
  8
0
 62
     7
 10
106.602
 20
128.929
 30
0.0
 11
106.602
 21
120.929
 31
0.0
  0
LINE
  5
AB
  8
0
 62
     7
 10
47.602200000000003
 20
128.929
 30
0.0
 11
47.602200000000003
 21
120.929
 31
0.0
  0
LINE
  5
AC
  8
0
 62
     7
 10
106.602
 20
221.398
 30
0.0
 11
106.602
 21
196.398
 31
0.0
  0
LINE
  5
AD
  8
0
 62
     7
 10
47.602200000000003
 20
221.398
 30
0.0
 11
47.602200000000003
 21
196.398
 31
0.0
  0
LINE
  5
AE
  8
0
  6
AIGENLINE001
 62
     7
 10
150.619
 20
127.128
 30
0.0
 11
150.619
 21
128.32900000000001
 31
0.0
  0
LINE
  5
AF
  8
0
  6
AIGENLINE001
 62
     7
 10
151.119
 20
127.128
 30
0.0
 11
151.119
 21
128.32900000000001
 31
0.0
  0
LINE
  5
B0
  8
0
  6
AIGENLINE001
 62
     7
 10
151.119
 20
128.32900000000001
 30
0.0
 11
150.869
 21
128.62899999999999
 31
0.0
  0
LINE
  5
B1
  8
0
  6
AIGENLINE001
 62
     7
 10
150.619
 20
128.32900000000001
 30
0.0
 11
150.869
 21
128.62899999999999
 31
0.0
  0
ARC
  5
B2
  8
0
  6
AIGENLINE001
 62
     7
 10
150.87620000000001
 20
127.072958
 30
0.0
 40
0.743933
 50
216.66490899999999
 51
302.48840200000001
  0
ARC
  5
B3
  8
0
  6
AIGENLINE001
 62
     7
 10
150.88369800000001
 20
127.021902
 30
0.0
 40
0.6971600000000001
 50
304.22268400000002
 51
325.66972900000002
  0
ARC
  5
B4
  8
0
  6
AIGENLINE001
 62
     7
 10
154.81427600000001
 20
124.121854
 30
0.0
 40
0.7445960000000002
 50
126.712271
 51
212.44102000000001
  0
ARC
  5
B5
  8
0
  6
AIGENLINE001
 62
     7
 10
154.78618399999999
 20
124.13720499999999
 30
0.0
 40
0.7296610000000001
 50
214.64219399999999
 51
235.14284300000011
  0
ARC
  5
B6
  8
0
  6
AIGENLINE001
 62
     7
 10
154.81223800000001
 20
121.622039
 30
0.0
 40
0.742857
 50
126.616283
 51
212.522898
  0
ARC
  5
B7
  8
0
  6
AIGENLINE001
 62
     7
 10
154.77763400000001
 20
121.62890899999999
 30
0.0
 40
0.717788
 50
214.47075899999999
 51
235.314278
  0
ARC
  5
B8
  8
0
  6
AIGENLINE001
 62
     7
 10
140.982224
 20
126.420529
 30
0.0
 40
0.208356
 50
92.207546000000008
 51
177.693724
  0
ARC
  5
B9
  8
0
  6
AIGENLINE001
 62
     7
 10
140.97683799999999
 20
126.43078
 30
0.0
 40
0.202809
 50
180.527379
 51
238.03385900000001
  0
LINE
  5
BA
  8
0
  6
AIGENLINE001
 62
     7
 10
154.369
 20
120.929
 30
0.0
 11
154.369
 21
125.129
 31
0.0
  0
LINE
  5
BB
  8
0
  6
AIGENLINE001
 62
     7
 10
134.869
 20
126.629
 30
0.0
 11
152.869
 21
126.629
 31
0.0
  0
ARC
  5
BC
  8
0
  6
AIGENLINE001
 62
     7
 10
143.74627599999999
 20
126.128953
 30
0.0
 40
0.499777
 50
58.331963000000002
 51
90.055122000000011
  0
LINE
  5
BD
  8
0
  6
AIGENLINE001
 62
     7
 10
144.00899999999999
 20
126.554
 30
0.0
 11
153.125
 21
120.929
 31
0.0
  0
LINE
  5
BE
  8
0
  6
AIGENLINE001
 62
     7
 10
140.869
 20
126.259
 30
0.0
 11
149.50700000000001
 21
120.929
 31
0.0
  0
LINE
  5
BF
  8
0
  6
AIGENLINE001
 62
     7
 10
134.869
 20
126.629
 30
0.0
 11
134.869
 21
127.128
 31
0.0
  0
ARC
  5
C0
  8
0
  6
AIGENLINE001
 62
     7
 10
152.81197900000001
 20
125.071551
 30
0.0
 40
1.5582290000000001
 50
2.102806999999999
 51
87.897182999999998
  0
ARC
  5
C1
  8
0
  6
AIGENLINE001
 62
     7
 10
152.79335599999999
 20
125.052212
 30
0.0
 40
2.0774430000000002
 50
2.1107259999999992
 51
87.90900400000001
  0
LINE
  5
C2
  8
0
  6
AIGENLINE001
 62
     7
 10
134.869
 20
127.128
 30
0.0
 11
152.869
 21
127.128
 31
0.0
  0
LINE
  5
C3
  8
0
  6
AIGENLINE001
 62
     7
 10
138.96899999999999
 20
123.429
 30
0.0
 11
139.16800000000001
 21
121.229
 31
0.0
  0
LINE
  5
C4
  8
0
  6
AIGENLINE001
 62
     7
 10
145.56999999999999
 20
121.229
 30
0.0
 11
145.76900000000001
 21
123.429
 31
0.0
  0
LINE
  5
C5
  8
0
  6
AIGENLINE001
 62
     7
 10
138.755
 20
123.73399999999999
 30
0.0
 11
138.96899999999999
 21
123.429
 31
0.0
  0
LINE
  5
C6
  8
0
  6
AIGENLINE001
 62
     7
 10
138.52199999999999
 20
124.03700000000001
 30
0.0
 11
138.755
 21
123.73399999999999
 31
0.0
  0
ARC
  5
C7
  8
0
  6
AIGENLINE001
 62
     7
 10
138.83606499999999
 20
124.27890499999999
 30
0.0
 40
0.395992
 50
192.83087399999991
 51
217.59615199999999
  0
LINE
  5
C8
  8
0
  6
AIGENLINE001
 62
     7
 10
138.34399999999999
 20
124.65300000000001
 30
0.0
 11
138.44999999999999
 21
124.191
 31
0.0
  0
LINE
  5
C9
  8
0
  6
AIGENLINE001
 62
     7
 10
138.238
 20
125.11799999999999
 30
0.0
 11
138.34399999999999
 21
124.65300000000001
 31
0.0
  0
ARC
  5
CA
  8
0
  6
AIGENLINE001
 62
     7
 10
137.828869
 20
125.00377400000001
 30
0.0
 40
0.4251120000000001
 50
15.544931999999999
 51
87.407306000000005
  0
LINE
  5
CB
  8
0
  6
AIGENLINE001
 62
     7
 10
137.518
 20
125.428
 30
0.0
 11
137.84800000000001
 21
125.428
 31
0.0
  0
ARC
  5
CC
  8
0
  6
AIGENLINE001
 62
     7
 10
137.578576
 20
126.496135
 30
0.0
 40
1.069397999999999
 50
189.81454199999999
 51
266.755787
  0
LINE
  5
CD
  8
0
  6
AIGENLINE001
 62
     7
 10
136.375
 20
127.605
 30
0.0
 11
136.52500000000001
 21
126.31399999999999
 31
0.0
  0
LINE
  5
CE
  8
0
  6
AIGENLINE001
 62
     7
 10
136.24000000000001
 20
128.77199999999999
 30
0.0
 11
136.375
 21
127.605
 31
0.0
  0
LINE
  5
CF
  8
0
  6
AIGENLINE001
 62
     7
 10
148.499
 20
128.774
 30
0.0
 11
148.52699999999999
 21
128.929
 31
0.0
  0
LINE
  5
D0
  8
0
  6
AIGENLINE001
 62
     7
 10
136.21100000000001
 20
128.929
 30
0.0
 11
136.24000000000001
 21
128.77199999999999
 31
0.0
  0
LINE
  5
D1
  8
0
  6
AIGENLINE001
 62
     7
 10
148.517
 20
128.929
 30
0.0
 11
145.83000000000001
 21
124.27500000000001
 31
0.0
  0
LINE
  5
D2
  8
0
  6
AIGENLINE001
 62
     7
 10
138.905
 20
124.282
 30
0.0
 11
136.22200000000001
 21
128.929
 31
0.0
  0
LINE
  5
D3
  8
0
  6
AIGENLINE001
 62
     7
 10
139.16800000000001
 20
121.229
 30
0.0
 11
145.56999999999999
 21
121.229
 31
0.0
  0
LINE
  5
D4
  8
0
  6
AIGENLINE001
 62
     7
 10
145.48400000000001
 20
124.075
 30
0.0
 11
139.251
 21
124.08199999999999
 31
0.0
  0
ARC
  5
D5
  8
0
  6
AIGENLINE001
 62
     7
 10
145.47532100000001
 20
124.489893
 30
0.0
 40
0.414765
 50
271.13166799999999
 51
328.79874899999999
  0
LINE
  5
D6
  8
0
  6
AIGENLINE001
 62
     7
 10
145.76900000000001
 20
123.429
 30
0.0
 11
145.98400000000001
 21
123.73399999999999
 31
0.0
  0
LINE
  5
D7
  8
0
  6
AIGENLINE001
 62
     7
 10
145.98400000000001
 20
123.73399999999999
 30
0.0
 11
146.21600000000001
 21
124.03700000000001
 31
0.0
  0
ARC
  5
D8
  8
0
  6
AIGENLINE001
 62
     7
 10
145.89565099999999
 20
124.28286300000001
 30
0.0
 40
0.403587
 50
322.52473199999997
 51
346.83815700000002
  0
LINE
  5
D9
  8
0
  6
AIGENLINE001
 62
     7
 10
146.2889999999999
 20
124.191
 30
0.0
 11
146.39400000000001
 21
124.65300000000001
 31
0.0
  0
LINE
  5
DA
  8
0
  6
AIGENLINE001
 62
     7
 10
146.39400000000001
 20
124.65300000000001
 30
0.0
 11
146.5
 21
125.11799999999999
 31
0.0
  0
ARC
  5
DB
  8
0
  6
AIGENLINE001
 62
     7
 10
146.90866500000001
 20
125.00512999999999
 30
0.0
 40
0.4237250000000001
 50
92.503841000000008
 51
164.59319099999999
  0
LINE
  5
DC
  8
0
  6
AIGENLINE001
 62
     7
 10
146.88999999999999
 20
125.428
 30
0.0
 11
147.221
 21
125.428
 31
0.0
  0
ARC
  5
DD
  8
0
  6
AIGENLINE001
 62
     7
 10
147.16051899999999
 20
126.495963
 30
0.0
 40
1.0692170000000001
 50
273.23655200000002
 51
350.19315899999998
  0
LINE
  5
DE
  8
0
  6
AIGENLINE001
 62
     7
 10
148.214
 20
126.31399999999999
 30
0.0
 11
148.364
 21
127.605
 31
0.0
  0
LINE
  5
DF
  8
0
  6
AIGENLINE001
 62
     7
 10
148.364
 20
127.605
 30
0.0
 11
148.499
 21
128.774
 31
0.0
  0
ARC
  5
E0
  8
0
  6
AIGENLINE001
 62
     7
 10
139.25909899999999
 20
124.49669299999999
 30
0.0
 40
0.4146810000000001
 50
211.19374099999999
 51
268.82655699999998
  0
LINE
  5
E1
  8
0
  6
AIGENLINE001
 62
     7
 10
138.96899999999999
 20
123.429
 30
0.0
 11
145.76900000000001
 21
123.429
 31
0.0
  0
ARC
  5
E2
  8
0
  6
AIGENLINE001
 62
     7
 10
139.531554
 20
120.913748
 30
0.0
 40
0.315281
 50
91.909638000000001
 51
156.38197400000001
  0
LINE
  5
E3
  8
0
  6
AIGENLINE001
 62
     7
 10
139.24299999999999
 20
121.04000000000001
 30
0.0
 11
139.19800000000001
 21
120.929
 31
0.0
  0
LINE
  5
E4
  8
0
  6
AIGENLINE001
 62
     7
 10
139.52099999999999
 20
121.229
 30
0.0
 11
145.215
 21
121.229
 31
0.0
  0
ARC
  5
E5
  8
0
  6
AIGENLINE001
 62
     7
 10
145.205724
 20
120.915342
 30
0.0
 40
0.313643
 50
23.43119500000001
 51
88.342979000000014
  0
LINE
  5
E6
  8
0
  6
AIGENLINE001
 62
     7
 10
145.494
 20
121.04000000000001
 30
0.0
 11
145.53800000000001
 21
120.929
 31
0.0
  0
LINE
  5
E7
  8
0
  6
AIGENLINE001
 62
     7
 10
135.37
 20
128.929
 30
0.0
 11
135.37
 21
127.128
 31
0.0
  0
LINE
  5
E8
  8
0
  6
AIGENLINE001
 62
     7
 10
149.37
 20
128.929
 30
0.0
 11
149.37
 21
127.128
 31
0.0
  0
LINE
  5
E9
  8
0
  6
AIGENLINE001
 62
     7
 10
129.869
 20
127.128
 30
0.0
 11
154.869
 21
127.128
 31
0.0
  0
LINE
  5
EA
  8
0
  6
AIGENLINE001
 62
     7
 10
131.66900000000001
 20
127.128
 30
0.0
 11
131.66900000000001
 21
120.929
 31
0.0
  0
LINE
  5
EB
  8
0
  6
AIGENLINE001
 62
     7
 10
75.4739
 20
121.04000000000001
 30
0.0
 11
75.429500000000004
 21
120.929
 31
0.0
  0
LINE
  5
EC
  8
0
  6
AIGENLINE001
 62
     7
 10
81.724699999999999
 20
121.04000000000001
 30
0.0
 11
81.769199999999998
 21
120.929
 31
0.0
  0
ARC
  5
ED
  8
0
  6
AIGENLINE001
 62
     7
 10
75.764265000000009
 20
120.911534
 30
0.0
 40
0.317533
 50
92.102278999999996
 51
156.12350799999999
  0
ARC
  5
EE
  8
0
  6
AIGENLINE001
 62
     7
 10
81.435426000000007
 20
120.913115
 30
0.0
 40
0.315928
 50
23.691973999999998
 51
88.016373999999999
  0
ARC
  5
EF
  8
0
  6
AIGENLINE001
 62
     7
 10
73.20842900000001
 20
128.65877499999999
 30
0.0
 40
1.0169239999999991
 50
4.1861879999999987
 51
15.392135
  0
LINE
  5
F0
  8
0
  6
AIGENLINE001
 62
     7
 10
83.095499999999987
 20
124.194
 30
0.0
 11
86.719800000000006
 21
128.929
 31
0.0
  0
ARC
  5
F1
  8
0
  6
AIGENLINE001
 62
     7
 10
75.047684000000004
 20
124.340706
 30
0.0
 40
0.5053989999999999
 50
184.32555199999999
 51
222.370611
  0
LINE
  5
F2
  8
0
  6
AIGENLINE001
 62
     7
 10
74.674300000000002
 20
124.0
 30
0.0
 11
75.200000000000003
 21
123.429
 31
0.0
  0
LINE
  5
F3
  8
0
  6
AIGENLINE001
 62
     7
 10
80.800399999999996
 20
121.229
 30
0.0
 11
76.400300000000001
 21
121.229
 31
0.0
  0
ARC
  5
F4
  8
0
  6
AIGENLINE001
 62
     7
 10
82.701098000000002
 20
124.493623
 30
0.0
 40
0.4950880000000001
 50
303.91964200000001
 51
322.81702300000001
  0
LINE
  5
F5
  8
0
  6
AIGENLINE001
 62
     7
 10
81.801599999999979
 20
121.229
 30
0.0
 11
80.800399999999996
 21
121.229
 31
0.0
  0
LINE
  5
F6
  8
0
  6
AIGENLINE001
 62
     7
 10
82.977400000000003
 20
124.083
 30
0.0
 11
82.001400000000004
 21
123.429
 31
0.0
  0
LINE
  5
F7
  8
0
  6
AIGENLINE001
 62
     7
 10
76.400300000000001
 20
121.229
 30
0.0
 11
75.399799999999985
 21
121.229
 31
0.0
  0
LINE
  5
F8
  8
0
  6
AIGENLINE001
 62
     7
 10
74.543700000000001
 20
124.303
 30
0.0
 11
74.2226
 21
128.733
 31
0.0
  0
LINE
  5
F9
  8
0
  6
AIGENLINE001
 62
     7
 10
75.200000000000003
 20
123.429
 30
0.0
 11
75.399799999999985
 21
121.229
 31
0.0
  0
LINE
  5
FA
  8
0
  6
AIGENLINE001
 62
     7
 10
81.801599999999979
 20
121.229
 30
0.0
 11
82.001400000000004
 21
123.429
 31
0.0
  0
LINE
  5
FB
  8
0
  6
AIGENLINE001
 62
     7
 10
103.05200000000001
 20
126.629
 30
0.0
 11
103.05200000000001
 21
120.929
 31
0.0
  0
LINE
  5
FC
  8
0
  6
AIGENLINE001
 62
     7
 10
103.55200000000001
 20
126.629
 30
0.0
 11
103.55200000000001
 21
120.929
 31
0.0
  0
LINE
  5
FD
  8
0
  6
AIGENLINE001
 62
     7
 10
101.803
 20
126.629
 30
0.0
 11
104.803
 21
126.629
 31
0.0
  0
LINE
  5
FE
  8
0
  6
AIGENLINE001
 62
     7
 10
101.803
 20
127.128
 30
0.0
 11
101.803
 21
120.929
 31
0.0
  0
LINE
  5
FF
  8
0
  6
AIGENLINE001
 62
     7
 10
50.652500000000003
 20
126.629
 30
0.0
 11
50.652500000000003
 21
120.929
 31
0.0
  0
LINE
  5
100
  8
0
  6
AIGENLINE001
 62
     7
 10
51.1524
 20
126.629
 30
0.0
 11
51.1524
 21
120.929
 31
0.0
  0
LINE
  5
101
  8
0
  6
AIGENLINE001
 62
     7
 10
49.40229999999999
 20
126.629
 30
0.0
 11
52.402299999999997
 21
126.629
 31
0.0
  0
LINE
  5
102
  8
0
  6
AIGENLINE001
 62
     7
 10
52.402299999999997
 20
127.128
 30
0.0
 11
52.402299999999997
 21
120.929
 31
0.0
  0
ARC
  5
103
  8
0
  6
AIGENLINE001
 62
     7
 10
103.98925
 20
124.115267
 30
0.0
 40
0.363266
 50
2.1591299999999989
 51
87.89733600000001
  0
ARC
  5
104
  8
0
  6
AIGENLINE001
 62
     7
 10
104.016203
 20
124.11425300000001
 30
0.0
 40
0.36429
 50
92.143414000000007
 51
177.68729300000001
  0
ARC
  5
105
  8
0
  6
AIGENLINE001
 62
     7
 10
104.015916
 20
124.14264900000001
 30
0.0
 40
0.363964
 50
182.156542
 51
267.89985300000001
  0
ARC
  5
106
  8
0
  6
AIGENLINE001
 62
     7
 10
103.98888700000001
 20
124.142286
 30
0.0
 40
0.363615
 50
272.15783399999998
 51
357.898597
  0
ARC
  5
107
  8
0
  6
AIGENLINE001
 62
     7
 10
102.588112
 20
121.614833
 30
0.0
 40
0.36465
 50
2.145888999999999
 51
87.741425000000007
  0
ARC
  5
108
  8
0
  6
AIGENLINE001
 62
     7
 10
102.616213
 20
121.615472
 30
0.0
 40
0.363987
 50
92.161872999999986
 51
177.950773
  0
ARC
  5
109
  8
0
  6
AIGENLINE001
 62
     7
 10
102.616175
 20
121.64218
 30
0.0
 40
0.363974
 50
182.15601599999999
 51
267.84401400000002
  0
ARC
  5
10A
  8
0
  6
AIGENLINE001
 62
     7
 10
102.58880000000001
 20
121.642169
 30
0.0
 40
0.363963
 50
272.15438599999999
 51
357.84562399999999
  0
ARC
  5
10B
  8
0
  6
AIGENLINE001
 62
     7
 10
51.589740999999997
 20
124.115635
 30
0.0
 40
0.3628719999999999
 50
2.1033019999999998
 51
88.009585999999985
  0
ARC
  5
10C
  8
0
  6
AIGENLINE001
 62
     7
 10
51.615977999999998
 20
124.114603
 30
0.0
 40
0.36394
 50
92.146844999999999
 51
177.740227
  0
ARC
  5
10D
  8
0
  6
AIGENLINE001
 62
     7
 10
51.615623999999997
 20
124.142233
 30
0.0
 40
0.363546
 50
182.09342699999999
 51
267.9066029999999
  0
ARC
  5
10E
  8
0
  6
AIGENLINE001
 62
     7
 10
51.588661999999999
 20
124.142635
 30
0.0
 40
0.363963
 50
272.15438599999999
 51
357.84562399999999
  0
ARC
  5
10F
  8
0
  6
AIGENLINE001
 62
     7
 10
50.188282000000001
 20
121.61525
 30
0.0
 40
0.364232
 50
2.08277
 51
87.748122999999978
  0
ARC
  5
110
  8
0
  6
AIGENLINE001
 62
     7
 10
50.216324
 20
121.615472
 30
0.0
 40
0.363987
 50
92.161872999999986
 51
177.950773
  0
ARC
  5
111
  8
0
  6
AIGENLINE001
 62
     7
 10
50.215893000000001
 20
121.641786
 30
0.0
 40
0.363567
 50
182.09638000000001
 51
267.90364899999997
  0
ARC
  5
112
  8
0
  6
AIGENLINE001
 62
     7
 10
50.188901999999999
 20
121.64182
 30
0.0
 40
0.363615
 50
272.15783399999998
 51
357.898597
  0
LINE
  5
113
  8
0
  6
AIGENLINE001
 62
     7
 10
52.402299999999997
 20
221.398
 30
0.0
 11
52.402299999999997
 21
201.70699999999999
 31
0.0
  0
ARC
  5
114
  8
0
  6
AIGENLINE001
 62
     7
 10
50.902296999999997
 20
205.25373099999999
 30
0.0
 40
3.8512349999999991
 50
247.077459
 51
292.92256099999992
  0
ARC
  5
115
  8
0
  6
AIGENLINE001
 62
     7
 10
50.188969999999991
 20
217.38483099999999
 30
0.0
 40
0.363545
 50
2.091127999999999
 51
87.852440999999985
  0
ARC
  5
116
  8
0
  6
AIGENLINE001
 62
     7
 10
50.21549199999999
 20
217.385198
 30
0.0
 40
0.363151
 50
92.035419000000005
 51
177.964551
  0
ARC
  5
117
  8
0
  6
AIGENLINE001
 62
     7
 10
50.215883000000012
 20
217.41138599999999
 30
0.0
 40
0.363557
 50
182.09490199999999
 51
267.90512799999999
  0
ARC
  5
118
  8
0
  6
AIGENLINE001
 62
     7
 10
50.18968499999999
 20
217.41064700000001
 30
0.0
 40
0.362805
 50
272.03892400000001
 51
358.01750700000002
  0
ARC
  5
119
  8
0
  6
AIGENLINE001
 62
     7
 10
51.589055000000002
 20
212.384908
 30
0.0
 40
0.363557
 50
2.0948989999999998
 51
87.905091000000013
  0
ARC
  5
11A
  8
0
  6
AIGENLINE001
 62
     7
 10
51.615242999999992
 20
212.385299
 30
0.0
 40
0.363151
 50
92.035419000000005
 51
177.964551
  0
ARC
  5
11B
  8
0
  6
AIGENLINE001
 62
     7
 10
51.615634
 20
212.41148699999999
 30
0.0
 40
0.363557
 50
182.09490199999999
 51
267.90512799999999
  0
ARC
  5
11C
  8
0
  6
AIGENLINE001
 62
     7
 10
51.589446000000002
 20
212.41109599999999
 30
0.0
 40
0.363151
 50
272.03545600000001
 51
357.96455400000002
  0
ARC
  5
11D
  8
0
  6
AIGENLINE001
 62
     7
 10
50.889006999999992
 20
203.88477
 30
0.0
 40
0.363557
 50
2.0948989999999998
 51
87.905091000000013
  0
ARC
  5
11E
  8
0
  6
AIGENLINE001
 62
     7
 10
50.915194999999997
 20
203.88516100000001
 30
0.0
 40
0.363151
 50
92.035419000000005
 51
177.964551
  0
ARC
  5
11F
  8
0
  6
AIGENLINE001
 62
     7
 10
50.91558599999999
 20
203.911349
 30
0.0
 40
0.363557
 50
182.09490199999999
 51
267.90512799999999
  0
ARC
  5
120
  8
0
  6
AIGENLINE001
 62
     7
 10
50.889398
 20
203.91095799999999
 30
0.0
 40
0.363151
 50
272.03545600000001
 51
357.96455400000002
  0
LINE
  5
121
  8
0
  6
AIGENLINE001
 62
     7
 10
101.803
 20
221.398
 30
0.0
 11
101.803
 21
201.70699999999999
 31
0.0
  0
ARC
  5
122
  8
0
  6
AIGENLINE001
 62
     7
 10
103.30253
 20
205.19783799999999
 30
0.0
 40
3.799817
 50
246.74919800000001
 51
293.25082200000003
  0
ARC
  5
123
  8
0
  6
AIGENLINE001
 62
     7
 10
102.58880000000001
 20
217.38441399999999
 30
0.0
 40
0.363963
 50
2.1543759999999992
 51
87.845613999999983
  0
ARC
  5
124
  8
0
  6
AIGENLINE001
 62
     7
 10
102.615381
 20
217.385198
 30
0.0
 40
0.363151
 50
92.035419000000005
 51
177.964551
  0
ARC
  5
125
  8
0
  6
AIGENLINE001
 62
     7
 10
102.616165
 20
217.41177799999991
 30
0.0
 40
0.363963
 50
182.15439599999991
 51
267.84563400000002
  0
ARC
  5
126
  8
0
  6
AIGENLINE001
 62
     7
 10
102.589584
 20
217.41099399999999
 30
0.0
 40
0.363151
 50
272.03545600000001
 51
357.96455400000002
  0
ARC
  5
127
  8
0
  6
AIGENLINE001
 62
     7
 10
103.988562
 20
212.38453899999999
 30
0.0
 40
0.363952
 50
2.1506150000000002
 51
87.792953999999995
  0
ARC
  5
128
  8
0
  6
AIGENLINE001
 62
     7
 10
104.015467
 20
212.384951
 30
0.0
 40
0.363498
 50
92.031959000000015
 51
177.91164599999999
  0
ARC
  5
129
  8
0
  6
AIGENLINE001
 62
     7
 10
104.015927
 20
212.41190399999999
 30
0.0
 40
0.363975
 50
182.15815799999999
 51
267.89823799999999
  0
ARC
  5
12A
  8
0
  6
AIGENLINE001
 62
     7
 10
103.98967
 20
212.41074800000001
 30
0.0
 40
0.362805
 50
272.03892400000001
 51
358.01750700000002
  0
ARC
  5
12B
  8
0
  6
AIGENLINE001
 62
     7
 10
103.28851400000001
 20
203.88440199999999
 30
0.0
 40
0.363952
 50
2.1506150000000002
 51
87.792953999999995
  0
ARC
  5
12C
  8
0
  6
AIGENLINE001
 62
     7
 10
103.315428
 20
203.88516100000001
 30
0.0
 40
0.363151
 50
92.035419000000005
 51
177.964551
  0
ARC
  5
12D
  8
0
  6
AIGENLINE001
 62
     7
 10
103.31621199999999
 20
203.911742
 30
0.0
 40
0.363963
 50
182.15439599999991
 51
267.84563400000002
  0
ARC
  5
12E
  8
0
  6
AIGENLINE001
 62
     7
 10
103.28962199999999
 20
203.91060999999999
 30
0.0
 40
0.362805
 50
272.03892400000001
 51
358.01750700000002
  0
LINE
  5
12F
  8
0
  6
AIGENLINE001
 62
     7
 10
49.40229999999999
 20
198.19800000000001
 30
0.0
 11
104.803
 21
198.19800000000001
 31
0.0
  0
LINE
  5
130
  8
0
  6
AIGENLINE001
 62
     7
 10
47.602200000000003
 20
127.128
 30
0.0
 11
106.602
 21
127.128
 31
0.0
  0
LINE
  5
131
  8
0
  6
AIGENLINE001
 62
     7
 10
87.601799999999997
 20
128.929
 30
0.0
 11
87.601799999999997
 21
127.128
 31
0.0
  0
LINE
  5
132
  8
0
  6
AIGENLINE001
 62
     7
 10
72.601699999999994
 20
128.929
 30
0.0
 11
72.601699999999994
 21
127.128
 31
0.0
  0
LINE
  5
133
  8
0
  6
AIGENLINE001
 62
     7
 10
104.803
 20
221.398
 30
0.0
 11
104.803
 21
196.398
 31
0.0
  0
LINE
  5
134
  8
0
  6
AIGENLINE001
 62
     7
 10
49.40229999999999
 20
221.398
 30
0.0
 11
49.40229999999999
 21
196.398
 31
0.0
  0
LINE
  5
135
  8
0
  6
AIGENLINE001
 62
     7
 10
104.803
 20
127.128
 30
0.0
 11
104.803
 21
120.929
 31
0.0
  0
LINE
  5
136
  8
0
  6
AIGENLINE001
 62
     7
 10
49.40229999999999
 20
127.128
 30
0.0
 11
49.40229999999999
 21
120.929
 31
0.0
  0
LINE
  5
137
  8
0
  6
AIGENLINE001
 62
     7
 10
93.6524
 20
126.229
 30
0.0
 11
93.6524
 21
124.74299999999999
 31
0.0
  0
LINE
  5
138
  8
0
  6
AIGENLINE001
 62
     7
 10
93.552199999999999
 20
126.229
 30
0.0
 11
93.552199999999999
 21
124.74299999999999
 31
0.0
  0
LINE
  5
139
  8
0
 62
     7
 10
94.601900000000001
 20
95.057000000000002
 30
0.0
 11
93.973200000000006
 21
95.057000000000002
 31
0.0
  0
LINE
  5
13A
  8
0
 62
     7
 10
94.101699999999994
 20
94.878499999999988
 30
0.0
 11
94.101699999999994
 21
95.057000000000002
 31
0.0
  0
LINE
  5
13B
  8
0
 62
     7
 10
94.601900000000001
 20
95.418000000000006
 30
0.0
 11
94.405199999999994
 21
95.418000000000006
 31
0.0
  0
LINE
  5
13C
  8
0
 62
     7
 10
94.248799999999989
 20
95.418000000000006
 30
0.0
 11
93.973200000000006
 21
95.418000000000006
 31
0.0
  0
ARC
  5
13D
  8
0
 62
     7
 10
93.986750999999998
 20
95.250738999999996
 30
0.0
 40
0.194229
 50
183.905316
 51
265.98526600000008
  0
ARC
  5
13E
  8
0
 62
     7
 10
93.987307999999999
 20
95.223726999999997
 30
0.0
 40
0.194823
 50
94.16656900000001
 51
175.942849
  0
LINE
  5
13F
  8
0
 62
     7
 10
94.601900000000001
 20
96.280000000000001
 30
0.0
 11
94.405199999999994
 21
96.280000000000001
 31
0.0
  0
LINE
  5
140
  8
0
 62
     7
 10
94.248799999999989
 20
96.280000000000001
 30
0.0
 11
93.973200000000006
 21
96.280000000000001
 31
0.0
  0
LINE
  5
141
  8
0
 62
     7
 10
94.248799999999989
 20
96.280000000000001
 30
0.0
 11
94.248799999999989
 21
95.418000000000006
 31
0.0
  0
LINE
  5
142
  8
0
 62
     7
 10
94.405199999999994
 20
96.280000000000001
 30
0.0
 11
94.405199999999994
 21
95.418000000000006
 31
0.0
  0
LINE
  5
143
  8
0
 62
     7
 10
93.973200000000006
 20
96.280000000000001
 30
0.0
 11
93.863600000000005
 21
96.389600000000002
 31
0.0
  0
LINE
  5
144
  8
0
 62
     7
 10
93.973200000000006
 20
96.280000000000001
 30
0.0
 11
93.973200000000006
 21
95.418000000000006
 31
0.0
  0
LINE
  5
145
  8
0
 62
     7
 10
93.863600000000005
 20
97.064800000000005
 30
0.0
 11
94.601900000000001
 21
97.064800000000005
 31
0.0
  0
LINE
  5
146
  8
0
 62
     7
 10
93.863600000000005
 20
97.064800000000005
 30
0.0
 11
93.863600000000005
 21
96.389600000000002
 31
0.0
  0
LINE
  5
147
  8
0
 62
     7
 10
94.601900000000001
 20
95.057000000000002
 30
0.0
 11
95.230599999999995
 21
95.057000000000002
 31
0.0
  0
LINE
  5
148
  8
0
 62
     7
 10
95.102099999999979
 20
94.878499999999988
 30
0.0
 11
95.102099999999979
 21
95.057000000000002
 31
0.0
  0
LINE
  5
149
  8
0
 62
     7
 10
94.601900000000001
 20
95.418000000000006
 30
0.0
 11
94.798599999999993
 21
95.418000000000006
 31
0.0
  0
LINE
  5
14A
  8
0
 62
     7
 10
94.954300000000003
 20
95.418000000000006
 30
0.0
 11
95.230599999999995
 21
95.418000000000006
 31
0.0
  0
ARC
  5
14B
  8
0
 62
     7
 10
95.216980000000007
 20
95.224241000000006
 30
0.0
 40
0.194274
 50
3.9167199999999989
 51
85.973822999999996
  0
ARC
  5
14C
  8
0
 62
     7
 10
95.217332999999996
 20
95.250428999999997
 30
0.0
 40
0.193898
 50
273.92956500000003
 51
356.17989299999999
  0
LINE
  5
14D
  8
0
 62
     7
 10
94.601900000000001
 20
96.280000000000001
 30
0.0
 11
94.798599999999993
 21
96.280000000000001
 31
0.0
  0
LINE
  5
14E
  8
0
 62
     7
 10
94.954300000000003
 20
96.280000000000001
 30
0.0
 11
95.230599999999995
 21
96.280000000000001
 31
0.0
  0
LINE
  5
14F
  8
0
 62
     7
 10
94.954300000000003
 20
96.280000000000001
 30
0.0
 11
94.954300000000003
 21
95.418000000000006
 31
0.0
  0
LINE
  5
150
  8
0
 62
     7
 10
94.798599999999993
 20
96.280000000000001
 30
0.0
 11
94.798599999999993
 21
95.418000000000006
 31
0.0
  0
LINE
  5
151
  8
0
 62
     7
 10
95.230599999999995
 20
96.280000000000001
 30
0.0
 11
95.340199999999996
 21
96.389600000000002
 31
0.0
  0
LINE
  5
152
  8
0
 62
     7
 10
95.230599999999995
 20
96.280000000000001
 30
0.0
 11
95.230599999999995
 21
95.418000000000006
 31
0.0
  0
LINE
  5
153
  8
0
 62
     7
 10
95.340199999999996
 20
97.064800000000005
 30
0.0
 11
94.601900000000001
 21
97.064800000000005
 31
0.0
  0
LINE
  5
154
  8
0
 62
     7
 10
95.340199999999996
 20
97.064800000000005
 30
0.0
 11
95.340199999999996
 21
96.389600000000002
 31
0.0
  0
LINE
  5
155
  8
0
 62
     7
 10
95.340199999999996
 20
97.064800000000005
 30
0.0
 11
94.601900000000001
 21
97.064800000000005
 31
0.0
  0
LINE
  5
156
  8
0
 62
     7
 10
93.863600000000005
 20
97.064800000000005
 30
0.0
 11
94.601900000000001
 21
97.064800000000005
 31
0.0
  0
LINE
  5
157
  8
0
 62
     7
 10
94.103399999999993
 20
120.929
 30
0.0
 11
94.103399999999993
 21
97.064800000000005
 31
0.0
  0
LINE
  5
158
  8
0
 62
     7
 10
95.100399999999993
 20
120.929
 30
0.0
 11
95.100399999999993
 21
97.064800000000005
 31
0.0
  0
LINE
  5
159
  8
0
 62
     7
 10
93.202100000000016
 20
93.6541
 30
0.0
 11
93.202100000000016
 21
94.653899999999993
 31
0.0
  0
LINE
  5
15A
  8
0
 62
     7
 10
93.902199999999993
 20
93.6541
 30
0.0
 11
93.902199999999993
 21
94.653899999999993
 31
0.0
  0
LINE
  5
15B
  8
0
 62
     7
 10
95.652000000000001
 20
93.428799999999995
 30
0.0
 11
93.5518
 21
93.428799999999995
 31
0.0
  0
LINE
  5
15C
  8
0
 62
     7
 10
95.652000000000001
 20
94.878499999999988
 30
0.0
 11
93.5518
 21
94.878499999999988
 31
0.0
  0
LINE
  5
15D
  8
0
 62
     7
 10
95.301599999999993
 20
93.6541
 30
0.0
 11
95.301599999999993
 21
94.653899999999993
 31
0.0
  0
LINE
  5
15E
  8
0
 62
     7
 10
96.001599999999996
 20
93.6541
 30
0.0
 11
96.001599999999996
 21
94.653899999999993
 31
0.0
  0
ARC
  5
15F
  8
0
 62
     7
 10
93.540723
 20
94.382459999999995
 30
0.0
 40
0.496194
 50
88.719052000000005
 51
108.4913959999999
  0
ARC
  5
160
  8
0
 62
     7
 10
93.456608000000003
 20
94.604347999999987
 30
0.0
 40
0.259253
 50
106.414085
 51
168.97932700000001
  0
ARC
  5
161
  8
0
 62
     7
 10
93.565359999999998
 20
94.396569999999997
 30
0.0
 40
0.482149
 50
71.214327999999995
 51
91.609782999999979
  0
ARC
  5
162
  8
0
 62
     7
 10
93.647004000000024
 20
94.603577999999999
 30
0.0
 40
0.260095
 50
11.157527999999999
 51
73.557372000000001
  0
ARC
  5
163
  8
0
 62
     7
 10
94.637438000000003
 20
92.579979000000009
 30
0.0
 40
2.298826
 50
83.979964000000024
 51
90.886098999999987
  0
ARC
  5
164
  8
0
 62
     7
 10
94.764510000000001
 20
93.744373999999993
 30
0.0
 40
1.127532999999999
 50
78.062697000000014
 51
84.196173000000002
  0
ARC
  5
165
  8
0
 62
     7
 10
94.841668999999996
 20
94.132881999999995
 30
0.0
 40
0.731483
 50
70.091854999999995
 51
77.681293000000011
  0
ARC
  5
166
  8
0
 62
     7
 10
94.981290999999985
 20
94.465573000000006
 30
0.0
 40
0.371566
 50
30.455306000000011
 51
72.867285999999993
  0
ARC
  5
167
  8
0
 62
     7
 10
94.566612000000006
 20
92.573806000000005
 30
0.0
 40
2.3049939999999989
 50
89.123131999999984
 51
96.010765000000035
  0
ARC
  5
168
  8
0
 62
     7
 10
94.441096999999999
 20
93.732620999999995
 30
0.0
 40
1.1394109999999991
 50
95.835806999999974
 51
101.905283
  0
ARC
  5
169
  8
0
 62
     7
 10
94.366625999999997
 20
94.113974999999996
 30
0.0
 40
0.75092
 50
102.348007
 51
109.76602800000001
  0
ARC
  5
16A
  8
0
 62
     7
 10
94.228114999999988
 20
94.458690000000004
 30
0.0
 40
0.379923
 50
107.688222
 51
149.0803389999999
  0
ARC
  5
16B
  8
0
 62
     7
 10
95.640827999999985
 20
94.380582999999987
 30
0.0
 40
0.4980710000000001
 50
88.71950600000001
 51
108.456343
  0
ARC
  5
16C
  8
0
 62
     7
 10
95.557018999999997
 20
94.603350000000006
 30
0.0
 40
0.260384
 50
106.481162
 51
168.803898
  0
ARC
  5
16D
  8
0
 62
     7
 10
95.665503000000015
 20
94.396569999999997
 30
0.0
 40
0.482149
 50
71.214327999999995
 51
91.609782999999979
  0
ARC
  5
16E
  8
0
 62
     7
 10
95.746649000000005
 20
94.603564000000006
 30
0.0
 40
0.2602489999999999
 50
11.153772999999999
 51
73.452775000000003
  0
ARC
  5
16F
  8
0
 62
     7
 10
93.537439000000006
 20
93.903195999999994
 30
0.0
 40
0.47459
 50
251.05374399999999
 51
271.73580699999991
  0
ARC
  5
170
  8
0
 62
     7
 10
93.457025999999999
 20
93.703215000000014
 30
0.0
 40
0.259573
 50
190.89915300000001
 51
253.51043100000001
  0
ARC
  5
171
  8
0
 62
     7
 10
93.564677000000003
 20
93.915301999999997
 30
0.0
 40
0.486648
 50
268.48548700000009
 51
288.69040200000001
  0
ARC
  5
172
  8
0
 62
     7
 10
93.646780000000007
 20
93.703807999999995
 30
0.0
 40
0.260189
 50
286.48810400000002
 51
348.99403599999999
  0
ARC
  5
173
  8
0
 62
     7
 10
94.637285000000006
 20
95.730789999999985
 30
0.0
 40
2.302238
 50
269.11902500000002
 51
276.01491199999998
  0
ARC
  5
174
  8
0
 62
     7
 10
94.761685999999983
 20
94.581074999999998
 30
0.0
 40
1.1458209999999991
 50
275.85282000000001
 51
281.88830899999999
  0
ARC
  5
175
  8
0
 62
     7
 10
94.834485999999998
 20
94.199336000000002
 30
0.0
 40
0.7573100000000002
 50
282.44830000000002
 51
289.77855299999999
  0
ARC
  5
176
  8
0
 62
     7
 10
94.976334999999992
 20
93.847246999999996
 30
0.0
 40
0.378263
 50
287.606087
 51
329.30134199999998
  0
ARC
  5
177
  8
0
 62
     7
 10
94.566334999999995
 20
95.727374999999995
 30
0.0
 40
2.298826
 50
263.979984
 51
270.88611900000001
  0
ARC
  5
178
  8
0
 62
     7
 10
94.437321999999995
 20
94.550543000000005
 30
0.0
 40
1.114963999999999
 50
258.02811200000002
 51
264.23079799999999
  0
ARC
  5
179
  8
0
 62
     7
 10
94.447560999999993
 20
94.474576999999996
 30
0.0
 40
1.043091999999999
 50
251.27377300000001
 51
256.61219299999999
  0
ARC
  5
17A
  8
0
 62
     7
 10
94.224958999999984
 20
93.843893999999992
 30
0.0
 40
0.374423
 50
210.45119900000009
 51
252.55013299999999
  0
ARC
  5
17B
  8
0
 62
     7
 10
95.638060999999979
 20
93.908445999999984
 30
0.0
 40
0.479823
 50
251.16438199999999
 51
271.65976799999999
  0
ARC
  5
17C
  8
0
 62
     7
 10
95.557940000000002
 20
93.704667999999998
 30
0.0
 40
0.261284
 50
191.151556
 51
253.366344
  0
ARC
  5
17D
  8
0
 62
     7
 10
95.664653000000001
 20
93.916411999999994
 30
0.0
 40
0.4877530000000001
 50
268.50861800000001
 51
288.66727100000003
  0
ARC
  5
17E
  8
0
 62
     7
 10
95.747078999999985
 20
93.703225999999987
 30
0.0
 40
0.259587
 50
286.49147299999998
 51
349.09898299999998
  0
LINE
  5
17F
  8
0
  6
AIGENLINE001
 62
     7
 10
94.601900000000001
 20
123.11499999999999
 30
0.0
 11
95.230599999999995
 21
123.11499999999999
 31
0.0
  0
LINE
  5
180
  8
0
  6
AIGENLINE001
 62
     7
 10
94.601900000000001
 20
122.754
 30
0.0
 11
94.798599999999993
 21
122.754
 31
0.0
  0
LINE
  5
181
  8
0
  6
AIGENLINE001
 62
     7
 10
94.954700000000003
 20
122.754
 30
0.0
 11
95.230599999999995
 21
122.754
 31
0.0
  0
ARC
  5
182
  8
0
  6
AIGENLINE001
 62
     7
 10
95.217022
 20
122.920958
 30
0.0
 40
0.194229
 50
3.905297
 51
85.985245999999989
  0
ARC
  5
183
  8
0
  6
AIGENLINE001
 62
     7
 10
95.216465000000014
 20
122.94797
 30
0.0
 40
0.194823
 50
274.16658799999999
 51
355.94286899999997
  0
LINE
  5
184
  8
0
  6
AIGENLINE001
 62
     7
 10
94.601900000000001
 20
121.892
 30
0.0
 11
94.798599999999993
 21
121.892
 31
0.0
  0
LINE
  5
185
  8
0
  6
AIGENLINE001
 62
     7
 10
94.954700000000003
 20
121.892
 30
0.0
 11
95.230599999999995
 21
121.892
 31
0.0
  0
LINE
  5
186
  8
0
  6
AIGENLINE001
 62
     7
 10
94.954700000000003
 20
121.892
 30
0.0
 11
94.954700000000003
 21
122.754
 31
0.0
  0
LINE
  5
187
  8
0
  6
AIGENLINE001
 62
     7
 10
94.798599999999993
 20
121.892
 30
0.0
 11
94.798599999999993
 21
122.754
 31
0.0
  0
LINE
  5
188
  8
0
  6
AIGENLINE001
 62
     7
 10
95.230599999999995
 20
121.892
 30
0.0
 11
95.340199999999996
 21
121.782
 31
0.0
  0
LINE
  5
189
  8
0
  6
AIGENLINE001
 62
     7
 10
95.230599999999995
 20
121.892
 30
0.0
 11
95.230599999999995
 21
122.754
 31
0.0
  0
LINE
  5
18A
  8
0
  6
AIGENLINE001
 62
     7
 10
95.340199999999996
 20
121.107
 30
0.0
 11
95.340199999999996
 21
121.782
 31
0.0
  0
LINE
  5
18B
  8
0
  6
AIGENLINE001
 62
     7
 10
94.601900000000001
 20
123.11499999999999
 30
0.0
 11
93.973200000000006
 21
123.11499999999999
 31
0.0
  0
LINE
  5
18C
  8
0
  6
AIGENLINE001
 62
     7
 10
94.601900000000001
 20
122.754
 30
0.0
 11
94.405199999999994
 21
122.754
 31
0.0
  0
LINE
  5
18D
  8
0
  6
AIGENLINE001
 62
     7
 10
94.249499999999998
 20
122.754
 30
0.0
 11
93.973200000000006
 21
122.754
 31
0.0
  0
ARC
  5
18E
  8
0
  6
AIGENLINE001
 62
     7
 10
93.987314999999995
 20
122.948348
 30
0.0
 40
0.195201
 50
184.16054399999999
 51
265.83948600000002
  0
ARC
  5
18F
  8
0
  6
AIGENLINE001
 62
     7
 10
93.986444999999989
 20
122.920894
 30
0.0
 40
0.194272
 50
93.923415000000006
 51
176.07655500000001
  0
LINE
  5
190
  8
0
  6
AIGENLINE001
 62
     7
 10
94.601900000000001
 20
121.892
 30
0.0
 11
94.405199999999994
 21
121.892
 31
0.0
  0
LINE
  5
191
  8
0
  6
AIGENLINE001
 62
     7
 10
94.249499999999998
 20
121.892
 30
0.0
 11
93.973200000000006
 21
121.892
 31
0.0
  0
LINE
  5
192
  8
0
  6
AIGENLINE001
 62
     7
 10
94.249499999999998
 20
121.892
 30
0.0
 11
94.249499999999998
 21
122.754
 31
0.0
  0
LINE
  5
193
  8
0
  6
AIGENLINE001
 62
     7
 10
94.405199999999994
 20
121.892
 30
0.0
 11
94.405199999999994
 21
122.754
 31
0.0
  0
LINE
  5
194
  8
0
  6
AIGENLINE001
 62
     7
 10
93.973200000000006
 20
121.892
 30
0.0
 11
93.863600000000005
 21
121.782
 31
0.0
  0
LINE
  5
195
  8
0
  6
AIGENLINE001
 62
     7
 10
93.973200000000006
 20
121.892
 30
0.0
 11
93.973200000000006
 21
122.754
 31
0.0
  0
LINE
  5
196
  8
0
  6
AIGENLINE001
 62
     7
 10
93.863600000000005
 20
121.107
 30
0.0
 11
93.863600000000005
 21
121.782
 31
0.0
  0
LINE
  5
197
  8
0
  6
AIGENLINE001
 62
     7
 10
93.863600000000005
 20
121.107
 30
0.0
 11
94.601900000000001
 21
121.107
 31
0.0
  0
LINE
  5
198
  8
0
  6
AIGENLINE001
 62
     7
 10
95.340199999999996
 20
121.107
 30
0.0
 11
94.601900000000001
 21
121.107
 31
0.0
  0
LINE
  5
199
  8
0
  6
AIGENLINE001
 62
     7
 10
95.102099999999979
 20
123.29300000000001
 30
0.0
 11
95.102099999999979
 21
123.11499999999999
 31
0.0
  0
LINE
  5
19A
  8
0
  6
AIGENLINE001
 62
     7
 10
94.101699999999994
 20
123.29300000000001
 30
0.0
 11
94.101699999999994
 21
123.11499999999999
 31
0.0
  0
LINE
  5
19B
  8
0
  6
AIGENLINE001
 62
     7
 10
93.202100000000016
 20
123.518
 30
0.0
 11
93.202100000000016
 21
124.518
 31
0.0
  0
LINE
  5
19C
  8
0
  6
AIGENLINE001
 62
     7
 10
93.902199999999993
 20
123.518
 30
0.0
 11
93.902199999999993
 21
124.518
 31
0.0
  0
LINE
  5
19D
  8
0
  6
AIGENLINE001
 62
     7
 10
95.652000000000001
 20
123.29300000000001
 30
0.0
 11
93.5518
 21
123.29300000000001
 31
0.0
  0
LINE
  5
19E
  8
0
  6
AIGENLINE001
 62
     7
 10
95.652000000000001
 20
124.74299999999999
 30
0.0
 11
93.5518
 21
124.74299999999999
 31
0.0
  0
LINE
  5
19F
  8
0
  6
AIGENLINE001
 62
     7
 10
95.301599999999993
 20
123.518
 30
0.0
 11
95.301599999999993
 21
124.518
 31
0.0
  0
LINE
  5
1A0
  8
0
  6
AIGENLINE001
 62
     7
 10
96.001999999999995
 20
123.518
 30
0.0
 11
96.001999999999995
 21
124.518
 31
0.0
  0
ARC
  5
1A1
  8
0
  6
AIGENLINE001
 62
     7
 10
93.540723
 20
124.246803
 30
0.0
 40
0.496194
 50
88.719052000000005
 51
108.4913959999999
  0
ARC
  5
1A2
  8
0
  6
AIGENLINE001
 62
     7
 10
93.457037999999997
 20
124.46847099999999
 30
0.0
 40
0.259587
 50
106.49145300000001
 51
169.098963
  0
ARC
  5
1A3
  8
0
  6
AIGENLINE001
 62
     7
 10
93.565359999999998
 20
124.260914
 30
0.0
 40
0.482149
 50
71.214327999999995
 51
91.609782999999979
  0
ARC
  5
1A4
  8
0
  6
AIGENLINE001
 62
     7
 10
93.646449000000004
 20
124.467589
 30
0.0
 40
0.260571
 50
11.056908999999999
 51
73.460950999999994
  0
ARC
  5
1A5
  8
0
  6
AIGENLINE001
 62
     7
 10
94.637438000000003
 20
122.444322
 30
0.0
 40
2.298826
 50
83.979964000000024
 51
90.886098999999987
  0
ARC
  5
1A6
  8
0
  6
AIGENLINE001
 62
     7
 10
94.764510000000001
 20
123.608717
 30
0.0
 40
1.127532999999999
 50
78.062697000000014
 51
84.196173000000002
  0
ARC
  5
1A7
  8
0
  6
AIGENLINE001
 62
     7
 10
94.833316999999994
 20
123.96501000000001
 30
0.0
 40
0.76474
 50
70.301068999999984
 51
77.584856000000002
  0
ARC
  5
1A8
  8
0
  6
AIGENLINE001
 62
     7
 10
94.981055999999995
 20
124.32996199999999
 30
0.0
 40
0.371694
 50
30.312557999999999
 51
72.780011999999999
  0
ARC
  5
1A9
  8
0
  6
AIGENLINE001
 62
     7
 10
94.566489000000004
 20
122.440907
 30
0.0
 40
2.302238
 50
89.119004999999987
 51
96.014891999999989
  0
ARC
  5
1AA
  8
0
  6
AIGENLINE001
 62
     7
 10
94.441096999999999
 20
123.596965
 30
0.0
 40
1.1394109999999991
 50
95.835806999999974
 51
101.905283
  0
ARC
  5
1AB
  8
0
  6
AIGENLINE001
 62
     7
 10
94.363568000000001
 20
123.992159
 30
0.0
 40
0.736745
 50
102.345833
 51
109.88097999999999
  0
ARC
  5
1AC
  8
0
  6
AIGENLINE001
 62
     7
 10
94.227438000000006
 20
124.32445
 30
0.0
 40
0.378263
 50
107.60606799999999
 51
149.301323
  0
ARC
  5
1AD
  8
0
  6
AIGENLINE001
 62
     7
 10
95.640866000000017
 20
124.246803
 30
0.0
 40
0.496194
 50
88.719052000000005
 51
108.4913959999999
  0
ARC
  5
1AE
  8
0
  6
AIGENLINE001
 62
     7
 10
95.556882999999985
 20
124.46830300000001
 30
0.0
 40
0.259664
 50
106.417678
 51
169.06442200000001
  0
ARC
  5
1AF
  8
0
  6
AIGENLINE001
 62
     7
 10
95.665503000000015
 20
124.260914
 30
0.0
 40
0.482149
 50
71.214327999999995
 51
91.609782999999979
  0
ARC
  5
1B0
  8
0
  6
AIGENLINE001
 62
     7
 10
95.746092000000004
 20
124.46757599999999
 30
0.0
 40
0.260726
 50
11.053156
 51
73.356387999999995
  0
ARC
  5
1B1
  8
0
  6
AIGENLINE001
 62
     7
 10
93.542997999999983
 20
123.80427400000001
 30
0.0
 40
0.5111830000000001
 50
251.801275
 51
270.98827699999998
  0
ARC
  5
1B2
  8
0
  6
AIGENLINE001
 62
     7
 10
93.455866
 20
123.56667400000001
 30
0.0
 40
0.258397
 50
190.90523099999999
 51
253.701357
  0
ARC
  5
1B3
  8
0
  6
AIGENLINE001
 62
     7
 10
93.562514000000007
 20
123.793966
 30
0.0
 40
0.5009130000000001
 50
268.77606200000002
 51
288.39982700000002
  0
ARC
  5
1B4
  8
0
  6
AIGENLINE001
 62
     7
 10
93.646754000000016
 20
123.568347
 30
0.0
 40
0.260384
 50
286.48118199999999
 51
348.80391800000001
  0
ARC
  5
1B5
  8
0
  6
AIGENLINE001
 62
     7
 10
94.637285000000006
 20
125.595133
 30
0.0
 40
2.302238
 50
269.11902500000002
 51
276.01491199999998
  0
ARC
  5
1B6
  8
0
  6
AIGENLINE001
 62
     7
 10
94.761685999999983
 20
124.445418
 30
0.0
 40
1.1458209999999991
 50
275.85282000000001
 51
281.88830899999999
  0
ARC
  5
1B7
  8
0
  6
AIGENLINE001
 62
     7
 10
94.841212999999996
 20
124.04359599999999
 30
0.0
 40
0.736252
 50
282.274024
 51
289.84005000000002
  0
ARC
  5
1B8
  8
0
  6
AIGENLINE001
 62
     7
 10
94.976292999999984
 20
123.712879
 30
0.0
 40
0.379608
 50
287.60293200000001
 51
329.074476
  0
ARC
  5
1B9
  8
0
  6
AIGENLINE001
 62
     7
 10
94.566334999999995
 20
125.591718
 30
0.0
 40
2.298826
 50
263.979984
 51
270.88611900000001
  0
ARC
  5
1BA
  8
0
  6
AIGENLINE001
 62
     7
 10
94.441962000000004
 20
124.44462
 30
0.0
 40
1.1450139999999991
 50
258.10958099999999
 51
264.14932900000002
  0
ARC
  5
1BB
  8
0
  6
AIGENLINE001
 62
     7
 10
94.358493999999993
 20
124.026319
 30
0.0
 40
0.7185060000000001
 50
250.023233
 51
257.749954
  0
ARC
  5
1BC
  8
0
  6
AIGENLINE001
 62
     7
 10
94.222482999999997
 20
123.706124
 30
0.0
 40
0.371566
 50
210.45532499999999
 51
252.86730600000001
  0
ARC
  5
1BD
  8
0
  6
AIGENLINE001
 62
     7
 10
95.642291
 20
123.798655
 30
0.0
 40
0.5055800000000001
 50
251.69393700000001
 51
271.09561500000001
  0
ARC
  5
1BE
  8
0
  6
AIGENLINE001
 62
     7
 10
95.555514999999986
 20
123.56666300000001
 30
0.0
 40
0.258248
 50
190.90905000000001
 51
253.80589000000001
  0
ARC
  5
1BF
  8
0
  6
AIGENLINE001
 62
     7
 10
95.662468000000004
 20
123.795222
 30
0.0
 40
0.5021640000000001
 50
268.80075199999999
 51
288.375137
  0
ARC
  5
1C0
  8
0
  6
AIGENLINE001
 62
     7
 10
95.747055000000003
 20
123.567763
 30
0.0
 40
0.259779
 50
286.4845279999999
 51
348.90892400000001
  0
LINE
  5
1C1
  8
0
  6
AIGENLINE001
 62
     7
 10
95.552000000000007
 20
126.229
 30
0.0
 11
95.552000000000007
 21
124.74299999999999
 31
0.0
  0
LINE
  5
1C2
  8
0
  6
AIGENLINE001
 62
     7
 10
95.652000000000001
 20
126.229
 30
0.0
 11
95.652000000000001
 21
124.74299999999999
 31
0.0
  0
LINE
  5
1C3
  8
0
  6
AIGENLINE001
 62
     7
 10
92.602000000000004
 20
127.029
 30
0.0
 11
96.602099999999993
 21
127.029
 31
0.0
  0
LINE
  5
1C4
  8
0
  6
AIGENLINE001
 62
     7
 10
92.602000000000004
 20
127.029
 30
0.0
 11
92.602000000000004
 21
127.129
 31
0.0
  0
LINE
  5
1C5
  8
0
  6
AIGENLINE001
 62
     7
 10
96.602099999999993
 20
127.029
 30
0.0
 11
96.602099999999993
 21
127.129
 31
0.0
  0
LINE
  5
1C6
  8
0
  6
AIGENLINE001
 62
     7
 10
93.202499999999986
 20
126.229
 30
0.0
 11
96.001999999999995
 21
126.229
 31
0.0
  0
LINE
  5
1C7
  8
0
  6
AIGENLINE001
 62
     7
 10
93.202499999999986
 20
126.229
 30
0.0
 11
93.202499999999986
 21
127.029
 31
0.0
  0
LINE
  5
1C8
  8
0
  6
AIGENLINE001
 62
     7
 10
96.001999999999995
 20
126.229
 30
0.0
 11
96.001999999999995
 21
127.029
 31
0.0
  0
LINE
  5
1C9
  8
0
  6
AIGENLINE001
 62
     7
 10
95.201999999999998
 20
126.229
 30
0.0
 11
95.201999999999998
 21
127.029
 31
0.0
  0
LINE
  5
1CA
  8
0
  6
AIGENLINE001
 62
     7
 10
94.002099999999984
 20
126.229
 30
0.0
 11
94.002099999999984
 21
127.029
 31
0.0
  0
LINE
  5
1CB
  8
0
  6
AIGENLINE001
 62
     7
 10
93.552199999999999
 20
128.929
 30
0.0
 11
93.552199999999999
 21
127.129
 31
0.0
  0
LINE
  5
1CC
  8
0
  6
AIGENLINE001
 62
     7
 10
95.652000000000001
 20
128.929
 30
0.0
 11
95.652000000000001
 21
127.129
 31
0.0
  0
LINE
  5
1CD
  8
0
  6
AIGENLINE001
 62
     7
 10
95.552000000000007
 20
128.929
 30
0.0
 11
95.552000000000007
 21
127.129
 31
0.0
  0
LINE
  5
1CE
  8
0
  6
AIGENLINE001
 62
     7
 10
93.6524
 20
128.929
 30
0.0
 11
93.6524
 21
127.129
 31
0.0
  0
LINE
  5
1CF
  8
0
  6
AIGENLINE001
 62
     7
 10
96.001999999999995
 20
128.929
 30
0.0
 11
96.001999999999995
 21
127.129
 31
0.0
  0
LINE
  5
1D0
  8
0
  6
AIGENLINE001
 62
     7
 10
93.202100000000016
 20
128.929
 30
0.0
 11
93.202100000000016
 21
127.129
 31
0.0
  0
LINE
  5
1D1
  8
0
 62
     7
 10
92.552700000000016
 20
129.029
 30
0.0
 11
96.652799999999999
 21
129.029
 31
0.0
  0
LINE
  5
1D2
  8
0
 62
     7
 10
92.602000000000004
 20
128.929
 30
0.0
 11
92.602000000000004
 21
129.029
 31
0.0
  0
LINE
  5
1D3
  8
0
 62
     7
 10
96.602099999999993
 20
129.029
 30
0.0
 11
96.602099999999993
 21
128.929
 31
0.0
  0
LINE
  5
1D4
  8
0
 62
     7
 10
96.652799999999999
 20
133.27799999999999
 30
0.0
 11
96.652799999999999
 21
129.029
 31
0.0
  0
LINE
  5
1D5
  8
0
 62
     7
 10
96.6524
 20
133.27799999999999
 30
0.0
 11
98.102500000000006
 21
133.27799999999999
 31
0.0
  0
LINE
  5
1D6
  8
0
 62
     7
 10
98.202399999999997
 20
133.27799999999999
 30
0.0
 11
102.30200000000001
 21
133.27799999999999
 31
0.0
  0
LINE
  5
1D7
  8
0
 62
     7
 10
98.202399999999997
 20
133.779
 30
0.0
 11
98.102500000000006
 21
133.779
 31
0.0
  0
ARC
  5
1D8
  8
0
 62
     7
 10
96.868397000000002
 20
135.138756
 30
0.0
 40
1.3832199999999999
 50
166.367683
 51
180.423867
  0
ARC
  5
1D9
  8
0
 62
     7
 10
96.897499999999994
 20
135.12166099999999
 30
0.0
 40
1.4123019999999991
 50
179.72156299999989
 51
193.486887
  0
ARC
  5
1DA
  8
0
 62
     7
 10
97.023092000000005
 20
135.17230499999999
 30
0.0
 40
1.54637
 50
194.226348
 51
209.10183799999999
  0
ARC
  5
1DB
  8
0
 62
     7
 10
97.581806000000014
 20
135.48724100000001
 30
0.0
 40
2.1877270000000002
 50
209.191911
 51
216.49974399999999
  0
ARC
  5
1DC
  8
0
 62
     7
 10
99.159937999999997
 20
136.66072
 30
0.0
 40
4.1543339999999986
 50
216.56331800000001
 51
221.86369300000001
  0
ARC
  5
1DD
  8
0
 62
     7
 10
103.218504
 20
140.28939500000001
 30
0.0
 40
9.5985259999999997
 50
221.827124
 51
224.143709
  0
ARC
  5
1DE
  8
0
 62
     7
 10
123.414333
 20
160.026229
 30
0.0
 40
37.837004999999998
 50
224.29130499999999
 51
224.6509870000001
  0
LINE
  5
1DF
  8
0
 62
     7
 10
92.552700000000016
 20
139.02799999999999
 30
0.0
 11
92.552700000000016
 21
129.029
 31
0.0
  0
LINE
  5
1E0
  8
0
 62
     7
 10
96.652799999999999
 20
139.02799999999999
 30
0.0
 11
96.652799999999999
 21
136.97900000000001
 31
0.0
  0
ARC
  5
1E1
  8
0
 62
     7
 10
97.041054000000017
 20
135.07901100000001
 30
0.0
 40
1.5651909999999991
 50
151.01262
 51
165.73188300000001
  0
ARC
  5
1E2
  8
0
 62
     7
 10
97.735046999999994
 20
134.67156499999999
 30
0.0
 40
2.3697849999999989
 50
143.781305
 51
150.52704
  0
ARC
  5
1E3
  8
0
 62
     7
 10
99.307068999999998
 20
133.47025099999999
 30
0.0
 40
4.3480470000000002
 50
138.19291899999999
 51
143.24995699999999
  0
ARC
  5
1E4
  8
0
 62
     7
 10
102.43811100000001
 20
130.695009
 30
0.0
 40
8.5319710000000004
 50
135.71147300000001
 51
138.31769399999999
  0
ARC
  5
1E5
  8
0
 62
     7
 10
123.989424
 20
109.776191
 30
0.0
 40
38.566198999999997
 50
135.468242
 51
135.821855
  0
LINE
  5
1E6
  8
0
 62
     7
 10
102.30200000000001
 20
136.97900000000001
 30
0.0
 11
102.30200000000001
 21
133.27799999999999
 31
0.0
  0
LINE
  5
1E7
  8
0
 62
     7
 10
101.503
 20
136.97900000000001
 30
0.0
 11
101.503
 21
133.27799999999999
 31
0.0
  0
LINE
  5
1E8
  8
0
 62
     7
 10
96.6524
 20
136.97900000000001
 30
0.0
 11
98.102500000000006
 21
136.97900000000001
 31
0.0
  0
LINE
  5
1E9
  8
0
 62
     7
 10
98.202399999999997
 20
136.97900000000001
 30
0.0
 11
100.303
 21
136.97900000000001
 31
0.0
  0
LINE
  5
1EA
  8
0
 62
     7
 10
101.303
 20
136.97900000000001
 30
0.0
 11
102.30200000000001
 21
136.97900000000001
 31
0.0
  0
LINE
  5
1EB
  8
0
 62
     7
 10
98.102500000000006
 20
136.97900000000001
 30
0.0
 11
98.102500000000006
 21
133.27799999999999
 31
0.0
  0
LINE
  5
1EC
  8
0
 62
     7
 10
98.202399999999997
 20
136.97900000000001
 30
0.0
 11
98.202399999999997
 21
133.27799999999999
 31
0.0
  0
LINE
  5
1ED
  8
0
 62
     7
 10
98.202399999999997
 20
136.47800000000001
 30
0.0
 11
98.102500000000006
 21
136.47800000000001
 31
0.0
  0
LINE
  5
1EE
  8
0
 62
     7
 10
100.303
 20
138.32900000000001
 30
0.0
 11
100.303
 21
136.97900000000001
 31
0.0
  0
LINE
  5
1EF
  8
0
 62
     7
 10
101.303
 20
138.32900000000001
 30
0.0
 11
101.303
 21
136.97900000000001
 31
0.0
  0
LINE
  5
1F0
  8
0
 62
     7
 10
101.303
 20
138.32900000000001
 30
0.0
 11
100.303
 21
138.32900000000001
 31
0.0
  0
LINE
  5
1F1
  8
0
 62
     7
 10
100.672
 20
136.91300000000001
 30
0.0
 11
100.803
 21
136.91
 31
0.0
  0
ARC
  5
1F2
  8
0
 62
     7
 10
100.755227
 20
138.63426000000001
 30
0.0
 40
1.7231849999999991
 50
261.58416699999998
 51
267.22625900000003
  0
ARC
  5
1F3
  8
0
 62
     7
 10
100.679283
 20
138.183763
 30
0.0
 40
1.2664569999999991
 50
255.8348
 51
262.0000839999999
  0
ARC
  5
1F4
  8
0
 62
     7
 10
100.52574300000001
 20
137.52600699999999
 30
0.0
 40
0.5912500000000001
 50
250.03698199999999
 51
254.66279299999999
  0
ARC
  5
1F5
  8
0
 62
     7
 10
100.80293899999999
 20
139.202237
 30
0.0
 40
2.2925879999999998
 50
269.98675600000001
 51
273.44141500000001
  0
ARC
  5
1F6
  8
0
 62
     7
 10
100.85544400000001
 20
138.620949
 30
0.0
 40
1.7092869999999989
 50
272.85423300000002
 51
278.47319900000002
  0
ARC
  5
1F7
  8
0
 62
     7
 10
100.947543
 20
138.06948800000001
 30
0.0
 40
1.150315999999999
 50
277.98316299999999
 51
284.63672000000003
  0
ARC
  5
1F8
  8
0
 62
     7
 10
100.96275300000001
 20
137.865983
 30
0.0
 40
0.9502819999999999
 50
286.85051099999998
 51
289.76073100000002
  0
LINE
  5
1F9
  8
0
 62
     7
 10
92.552700000000016
 20
137.428
 30
0.0
 11
96.652799999999999
 21
137.428
 31
0.0
  0
LINE
  5
1FA
  8
0
 62
     7
 10
93.6524
 20
146.155
 30
0.0
 11
93.6524
 21
139.02799999999999
 31
0.0
  0
LINE
  5
1FB
  8
0
 62
     7
 10
92.552700000000016
 20
139.02799999999999
 30
0.0
 11
96.6524
 21
139.02799999999999
 31
0.0
  0
LINE
  5
1FC
  8
0
 62
     7
 10
95.552400000000006
 20
146.155
 30
0.0
 11
95.552400000000006
 21
139.02799999999999
 31
0.0
  0
ARC
  5
1FD
  8
0
  6
AIGENLINE002
 62
     7
 10
89.578162000000006
 20
146.15473899999989
 30
0.0
 40
5.024413
 50
0.002585
 51
89.995440999999985
  0
LINE
  5
1FE
  8
0
  6
AIGENLINE002
 62
     7
 10
89.578599999999994
 20
151.179
 30
0.0
 11
89.559600000000003
 21
151.179
 31
0.0
  0
ARC
  5
1FF
  8
0
 62
     7
 10
89.577989999999986
 20
146.15456699999999
 30
0.0
 40
5.9744049999999991
 50
0.003827
 51
89.997815000000003
  0
ARC
  5
200
  8
0
 62
     7
 10
89.578215999999998
 20
146.154965
 30
0.0
 40
4.0741959999999988
 50
0.00001
 51
89.999980000000008
  0
ARC
  5
201
  8
0
 62
     7
 10
89.813878999999986
 20
145.830726
 30
0.0
 40
6.3026519999999993
 50
92.142838999999995
 51
159.852981
  0
ARC
  5
202
  8
0
  6
AIGENLINE002
 62
     7
 10
89.755006999999992
 20
145.91177200000001
 30
0.0
 40
5.2710030000000003
 50
92.124409
 51
159.868313
  0
LINE
  5
203
  8
0
 62
     7
 10
82.798899999999989
 20
144.62299999999999
 30
0.0
 11
84.605900000000005
 21
144.036
 31
0.0
  0
LINE
  5
204
  8
0
 62
     7
 10
85.703800000000001
 20
147.41499999999999
 30
0.0
 11
84.605900000000005
 21
144.036
 31
0.0
  0
LINE
  5
205
  8
0
 62
     7
 10
83.896899999999988
 20
148.00200000000001
 30
0.0
 11
82.798899999999989
 21
144.62299999999999
 31
0.0
  0
ARC
  5
206
  8
0
 62
     7
 10
89.737373000000005
 20
145.93571800000001
 30
0.0
 40
4.2963919999999991
 50
92.122957
 51
159.86752000000001
  0
LINE
  5
207
  8
0
  6
AIGENLINE001
 62
     7
 10
141.41900000000001
 20
126.22799999999999
 30
0.0
 11
141.41900000000001
 21
124.74299999999999
 31
0.0
  0
LINE
  5
208
  8
0
  6
AIGENLINE001
 62
     7
 10
143.41900000000001
 20
126.22799999999999
 30
0.0
 11
143.41900000000001
 21
124.74299999999999
 31
0.0
  0
LINE
  5
209
  8
0
  6
AIGENLINE001
 62
     7
 10
143.31899999999999
 20
126.22799999999999
 30
0.0
 11
143.31899999999999
 21
124.74299999999999
 31
0.0
  0
LINE
  5
20A
  8
0
  6
AIGENLINE001
 62
     7
 10
141.31899999999999
 20
126.22799999999999
 30
0.0
 11
141.31899999999999
 21
124.74299999999999
 31
0.0
  0
LINE
  5
20B
  8
0
  6
AIGENLINE001
 62
     7
 10
143.41900000000001
 20
128.929
 30
0.0
 11
143.41900000000001
 21
127.128
 31
0.0
  0
LINE
  5
20C
  8
0
  6
AIGENLINE001
 62
     7
 10
141.31899999999999
 20
128.929
 30
0.0
 11
141.31899999999999
 21
127.128
 31
0.0
  0
LINE
  5
20D
  8
0
  6
AIGENLINE001
 62
     7
 10
141.41900000000001
 20
128.929
 30
0.0
 11
141.41900000000001
 21
127.128
 31
0.0
  0
LINE
  5
20E
  8
0
  6
AIGENLINE001
 62
     7
 10
143.31899999999999
 20
128.929
 30
0.0
 11
143.31899999999999
 21
127.128
 31
0.0
  0
LINE
  5
20F
  8
0
 62
     7
 10
142.369
 20
95.057000000000002
 30
0.0
 11
141.74000000000001
 21
95.057000000000002
 31
0.0
  0
LINE
  5
210
  8
0
 62
     7
 10
141.869
 20
94.878499999999988
 30
0.0
 11
141.869
 21
95.057000000000002
 31
0.0
  0
LINE
  5
211
  8
0
 62
     7
 10
142.369
 20
95.418000000000006
 30
0.0
 11
142.173
 21
95.418000000000006
 31
0.0
  0
LINE
  5
212
  8
0
 62
     7
 10
142.01599999999999
 20
95.418000000000006
 30
0.0
 11
141.74000000000001
 21
95.418000000000006
 31
0.0
  0
ARC
  5
213
  8
0
 62
     7
 10
141.75328300000001
 20
95.250082000000006
 30
0.0
 40
0.193525
 50
183.92899299999991
 51
266.18069300000002
  0
ARC
  5
214
  8
0
 62
     7
 10
141.754593
 20
95.223732999999996
 30
0.0
 40
0.19482
 50
94.179868000000013
 51
176.147818
  0
LINE
  5
215
  8
0
 62
     7
 10
142.369
 20
96.279300000000006
 30
0.0
 11
142.173
 21
96.279300000000006
 31
0.0
  0
LINE
  5
216
  8
0
 62
     7
 10
142.01599999999999
 20
96.279300000000006
 30
0.0
 11
141.74000000000001
 21
96.279300000000006
 31
0.0
  0
LINE
  5
217
  8
0
 62
     7
 10
142.01599999999999
 20
96.279300000000006
 30
0.0
 11
142.01599999999999
 21
95.418000000000006
 31
0.0
  0
LINE
  5
218
  8
0
 62
     7
 10
142.173
 20
96.279300000000006
 30
0.0
 11
142.173
 21
95.418000000000006
 31
0.0
  0
LINE
  5
219
  8
0
 62
     7
 10
141.74000000000001
 20
96.279300000000006
 30
0.0
 11
141.631
 21
96.389600000000002
 31
0.0
  0
LINE
  5
21A
  8
0
 62
     7
 10
141.74000000000001
 20
96.279300000000006
 30
0.0
 11
141.74000000000001
 21
95.418000000000006
 31
0.0
  0
LINE
  5
21B
  8
0
 62
     7
 10
141.631
 20
97.064800000000005
 30
0.0
 11
142.369
 21
97.064800000000005
 31
0.0
  0
LINE
  5
21C
  8
0
 62
     7
 10
141.631
 20
97.064800000000005
 30
0.0
 11
141.631
 21
96.389600000000002
 31
0.0
  0
LINE
  5
21D
  8
0
 62
     7
 10
142.369
 20
95.057000000000002
 30
0.0
 11
142.99799999999999
 21
95.057000000000002
 31
0.0
  0
LINE
  5
21E
  8
0
 62
     7
 10
142.869
 20
94.878499999999988
 30
0.0
 11
142.869
 21
95.057000000000002
 31
0.0
  0
LINE
  5
21F
  8
0
 62
     7
 10
142.369
 20
95.418000000000006
 30
0.0
 11
142.566
 21
95.418000000000006
 31
0.0
  0
LINE
  5
220
  8
0
 62
     7
 10
142.72200000000001
 20
95.418000000000006
 30
0.0
 11
142.99799999999999
 21
95.418000000000006
 31
0.0
  0
ARC
  5
221
  8
0
 62
     7
 10
142.98385400000001
 20
95.223582999999977
 30
0.0
 40
0.19498
 50
3.893149999999999
 51
85.779124999999993
  0
ARC
  5
222
  8
0
 62
     7
 10
142.984962
 20
95.250433999999984
 30
0.0
 40
0.193901
 50
273.91612500000002
 51
355.97422799999998
  0
LINE
  5
223
  8
0
 62
     7
 10
142.369
 20
96.279300000000006
 30
0.0
 11
142.566
 21
96.279300000000006
 31
0.0
  0
LINE
  5
224
  8
0
 62
     7
 10
142.72200000000001
 20
96.279300000000006
 30
0.0
 11
142.99799999999999
 21
96.279300000000006
 31
0.0
  0
LINE
  5
225
  8
0
 62
     7
 10
142.72200000000001
 20
96.279300000000006
 30
0.0
 11
142.72200000000001
 21
95.418000000000006
 31
0.0
  0
LINE
  5
226
  8
0
 62
     7
 10
142.566
 20
96.279300000000006
 30
0.0
 11
142.566
 21
95.418000000000006
 31
0.0
  0
LINE
  5
227
  8
0
 62
     7
 10
142.99799999999999
 20
96.279300000000006
 30
0.0
 11
143.108
 21
96.389600000000002
 31
0.0
  0
LINE
  5
228
  8
0
 62
     7
 10
142.99799999999999
 20
96.279300000000006
 30
0.0
 11
142.99799999999999
 21
95.418000000000006
 31
0.0
  0
LINE
  5
229
  8
0
 62
     7
 10
143.108
 20
97.064800000000005
 30
0.0
 11
143.108
 21
96.389600000000002
 31
0.0
  0
LINE
  5
22A
  8
0
 62
     7
 10
143.108
 20
97.064800000000005
 30
0.0
 11
142.369
 21
97.064800000000005
 31
0.0
  0
LINE
  5
22B
  8
0
 62
     7
 10
141.631
 20
97.064800000000005
 30
0.0
 11
142.369
 21
97.064800000000005
 31
0.0
  0
LINE
  5
22C
  8
0
 62
     7
 10
141.87100000000001
 20
120.929
 30
0.0
 11
141.87100000000001
 21
97.064800000000005
 31
0.0
  0
LINE
  5
22D
  8
0
 62
     7
 10
142.86799999999999
 20
120.929
 30
0.0
 11
142.86799999999999
 21
97.064800000000005
 31
0.0
  0
LINE
  5
22E
  8
0
 62
     7
 10
140.96899999999999
 20
93.653400000000005
 30
0.0
 11
140.96899999999999
 21
94.653199999999998
 31
0.0
  0
LINE
  5
22F
  8
0
 62
     7
 10
141.66900000000001
 20
93.653400000000005
 30
0.0
 11
141.66900000000001
 21
94.653199999999998
 31
0.0
  0
LINE
  5
230
  8
0
 62
     7
 10
143.41900000000001
 20
93.428100000000001
 30
0.0
 11
141.31899999999999
 21
93.428100000000001
 31
0.0
  0
LINE
  5
231
  8
0
 62
     7
 10
143.41900000000001
 20
94.878499999999988
 30
0.0
 11
141.31899999999999
 21
94.878499999999988
 31
0.0
  0
LINE
  5
232
  8
0
 62
     7
 10
143.06899999999999
 20
93.653400000000005
 30
0.0
 11
143.06899999999999
 21
94.653199999999998
 31
0.0
  0
LINE
  5
233
  8
0
 62
     7
 10
143.76900000000001
 20
93.653400000000005
 30
0.0
 11
143.76900000000001
 21
94.653199999999998
 31
0.0
  0
ARC
  5
234
  8
0
 62
     7
 10
141.31396699999999
 20
94.345060000000004
 30
0.0
 40
0.5334970000000001
 50
89.416546999999994
 51
107.793902
  0
ARC
  5
235
  8
0
 62
     7
 10
141.224324
 20
94.603958999999989
 30
0.0
 40
0.259664
 50
106.417678
 51
169.06442200000001
  0
ARC
  5
236
  8
0
 62
     7
 10
141.32678200000001
 20
94.355768999999995
 30
0.0
 40
0.5228120000000001
 50
72.014981999999989
 51
90.809128999999984
  0
ARC
  5
237
  8
0
 62
     7
 10
141.412915
 20
94.602671999999998
 30
0.0
 40
0.261441
 50
11.147805999999999
 51
73.261737999999994
  0
ARC
  5
238
  8
0
 62
     7
 10
142.404945
 20
92.579238999999987
 30
0.0
 40
2.2995700000000001
 50
83.979976000000008
 51
90.892464000000004
  0
ARC
  5
239
  8
0
 62
     7
 10
142.52679900000001
 20
93.710443999999995
 30
0.0
 40
1.161826
 50
78.153297999999992
 51
84.105571999999995
  0
ARC
  5
23A
  8
0
 62
     7
 10
142.63950199999999
 20
94.252156999999997
 30
0.0
 40
0.608514
 50
68.923449000000019
 51
78.067812000000004
  0
ARC
  5
23B
  8
0
 62
     7
 10
142.74687599999999
 20
94.461691000000002
 30
0.0
 40
0.375208
 50
30.694296999999999
 51
72.719304000000008
  0
ARC
  5
23C
  8
0
 62
     7
 10
142.35433399999999
 20
92.116934999999998
 30
0.0
 40
2.761633999999999
 50
89.693097999999992
 51
95.440798999999984
  0
ARC
  5
23D
  8
0
 62
     7
 10
142.208337
 20
93.732620999999995
 30
0.0
 40
1.1394109999999991
 50
95.835806999999974
 51
101.905283
  0
ARC
  5
23E
  8
0
 62
     7
 10
142.176838
 20
93.989776000000006
 30
0.0
 40
0.8815700000000001
 50
103.35010200000001
 51
109.658597
  0
ARC
  5
23F
  8
0
 62
     7
 10
141.989093
 20
94.465680000000006
 30
0.0
 40
0.370621
 50
107.07598400000001
 51
149.60138499999999
  0
ARC
  5
240
  8
0
 62
     7
 10
143.41375500000001
 20
94.345132999999976
 30
0.0
 40
0.5334240000000001
 50
89.415273999999997
 51
107.795175
  0
ARC
  5
241
  8
0
 62
     7
 10
143.32396799999989
 20
94.604539000000003
 30
0.0
 40
0.259064
 50
106.42106200000001
 51
169.169355
  0
ARC
  5
242
  8
0
 62
     7
 10
143.42774199999999
 20
94.363453000000007
 30
0.0
 40
0.515147
 50
71.873858999999996
 51
90.95025200000002
  0
ARC
  5
243
  8
0
 62
     7
 10
143.51271399999999
 20
94.602671999999998
 30
0.0
 40
0.261441
 50
11.147805999999999
 51
73.261737999999994
  0
ARC
  5
244
  8
0
 62
     7
 10
141.309732
 20
93.933622999999983
 30
0.0
 40
0.5055800000000001
 50
251.69393700000001
 51
271.09561500000001
  0
ARC
  5
245
  8
0
 62
     7
 10
141.22572600000001
 20
93.703979000000004
 30
0.0
 40
0.261284
 50
191.151556
 51
253.366344
  0
ARC
  5
246
  8
0
 62
     7
 10
141.32675699999999
 20
93.951059000000001
 30
0.0
 40
0.522976
 50
269.19383499999998
 51
287.98205400000001
  0
ARC
  5
247
  8
0
 62
     7
 10
141.41452000000001
 20
93.702537000000007
 30
0.0
 40
0.259587
 50
286.49147299999998
 51
349.09898299999998
  0
ARC
  5
248
  8
0
 62
     7
 10
142.383895
 20
96.197541999999999
 30
0.0
 40
2.769445999999999
 50
269.694478
 51
275.43308100000002
  0
ARC
  5
249
  8
0
 62
     7
 10
142.47328999999999
 20
94.886234999999999
 30
0.0
 40
1.455991
 50
276.81700499999999
 51
281.570177
  0
ARC
  5
24A
  8
0
 62
     7
 10
142.606256
 20
94.184849000000014
 30
0.0
 40
0.742261
 50
282.37389100000001
 51
289.85296199999999
  0
ARC
  5
24B
  8
0
 62
     7
 10
142.74918299999999
 20
93.842051999999995
 30
0.0
 40
0.371735
 50
287.07495699999998
 51
329.51144199999999
  0
ARC
  5
24C
  8
0
 62
     7
 10
142.353996
 20
96.182174000000003
 30
0.0
 40
2.7540800000000001
 50
264.551312
 51
270.31479100000001
  0
ARC
  5
24D
  8
0
 62
     7
 10
142.24838399999999
 20
94.781672999999998
 30
0.0
 40
1.3501659999999991
 50
258.243448
 51
263.36941000000002
  0
ARC
  5
24E
  8
0
 62
     7
 10
142.12573399999999
 20
94.161975999999996
 30
0.0
 40
0.7185060000000001
 50
250.023233
 51
257.749954
  0
ARC
  5
24F
  8
0
 62
     7
 10
141.99239399999999
 20
93.845157999999998
 30
0.0
 40
0.375585
 50
210.69297700000001
 51
252.62965399999999
  0
ARC
  5
250
  8
0
 62
     7
 10
143.40953099999999
 20
93.933622999999983
 30
0.0
 40
0.5055800000000001
 50
251.69393700000001
 51
271.09561500000001
  0
ARC
  5
251
  8
0
 62
     7
 10
143.324409
 20
93.702526000000006
 30
0.0
 40
0.259573
 50
190.89915300000001
 51
253.51043100000001
  0
ARC
  5
252
  8
0
 62
     7
 10
143.42648399999999
 20
93.951537999999999
 30
0.0
 40
0.523453
 50
269.20248299999997
 51
287.97340600000001
  0
ARC
  5
253
  8
0
 62
     7
 10
143.51477299999999
 20
93.702124999999995
 30
0.0
 40
0.259064
 50
286.42108200000001
 51
349.169374
  0
LINE
  5
254
  8
0
  6
AIGENLINE001
 62
     7
 10
141.87100000000001
 20
121.10599999999999
 30
0.0
 11
141.87100000000001
 21
120.929
 31
0.0
  0
LINE
  5
255
  8
0
  6
AIGENLINE001
 62
     7
 10
142.86799999999999
 20
121.10599999999999
 30
0.0
 11
142.86799999999999
 21
120.929
 31
0.0
  0
LINE
  5
256
  8
0
  6
AIGENLINE001
 62
     7
 10
142.369
 20
123.11499999999999
 30
0.0
 11
142.99799999999999
 21
123.11499999999999
 31
0.0
  0
LINE
  5
257
  8
0
  6
AIGENLINE001
 62
     7
 10
142.369
 20
122.754
 30
0.0
 11
142.566
 21
122.754
 31
0.0
  0
LINE
  5
258
  8
0
  6
AIGENLINE001
 62
     7
 10
142.72200000000001
 20
122.754
 30
0.0
 11
142.99799999999999
 21
122.754
 31
0.0
  0
ARC
  5
259
  8
0
  6
AIGENLINE001
 62
     7
 10
142.98456399999989
 20
122.92091600000001
 30
0.0
 40
0.194274
 50
3.9167199999999989
 51
85.973822999999996
  0
ARC
  5
25A
  8
0
  6
AIGENLINE001
 62
     7
 10
142.984917
 20
122.94710499999999
 30
0.0
 40
0.193898
 50
273.92956500000003
 51
356.17989299999999
  0
LINE
  5
25B
  8
0
  6
AIGENLINE001
 62
     7
 10
142.369
 20
121.892
 30
0.0
 11
142.566
 21
121.892
 31
0.0
  0
LINE
  5
25C
  8
0
  6
AIGENLINE001
 62
     7
 10
142.72200000000001
 20
121.892
 30
0.0
 11
142.99799999999999
 21
121.892
 31
0.0
  0
LINE
  5
25D
  8
0
  6
AIGENLINE001
 62
     7
 10
142.72200000000001
 20
121.892
 30
0.0
 11
142.72200000000001
 21
122.754
 31
0.0
  0
LINE
  5
25E
  8
0
  6
AIGENLINE001
 62
     7
 10
142.566
 20
121.892
 30
0.0
 11
142.566
 21
122.754
 31
0.0
  0
LINE
  5
25F
  8
0
  6
AIGENLINE001
 62
     7
 10
142.99799999999999
 20
121.892
 30
0.0
 11
143.108
 21
121.782
 31
0.0
  0
LINE
  5
260
  8
0
  6
AIGENLINE001
 62
     7
 10
142.99799999999999
 20
121.892
 30
0.0
 11
142.99799999999999
 21
122.754
 31
0.0
  0
LINE
  5
261
  8
0
  6
AIGENLINE001
 62
     7
 10
143.108
 20
121.10599999999999
 30
0.0
 11
143.108
 21
121.782
 31
0.0
  0
LINE
  5
262
  8
0
  6
AIGENLINE001
 62
     7
 10
142.369
 20
123.11499999999999
 30
0.0
 11
141.74000000000001
 21
123.11499999999999
 31
0.0
  0
LINE
  5
263
  8
0
  6
AIGENLINE001
 62
     7
 10
142.369
 20
122.754
 30
0.0
 11
142.173
 21
122.754
 31
0.0
  0
LINE
  5
264
  8
0
  6
AIGENLINE001
 62
     7
 10
142.017
 20
122.754
 30
0.0
 11
141.74000000000001
 21
122.754
 31
0.0
  0
ARC
  5
265
  8
0
  6
AIGENLINE001
 62
     7
 10
141.75403299999999
 20
122.947457
 30
0.0
 40
0.194274
 50
183.91674
 51
265.97384299999999
  0
ARC
  5
266
  8
0
  6
AIGENLINE001
 62
     7
 10
141.75368
 20
122.921268
 30
0.0
 40
0.193898
 50
93.929545000000005
 51
176.17987299999999
  0
LINE
  5
267
  8
0
  6
AIGENLINE001
 62
     7
 10
142.369
 20
121.892
 30
0.0
 11
142.173
 21
121.892
 31
0.0
  0
LINE
  5
268
  8
0
  6
AIGENLINE001
 62
     7
 10
142.017
 20
121.892
 30
0.0
 11
141.74000000000001
 21
121.892
 31
0.0
  0
LINE
  5
269
  8
0
  6
AIGENLINE001
 62
     7
 10
142.017
 20
121.892
 30
0.0
 11
142.017
 21
122.754
 31
0.0
  0
LINE
  5
26A
  8
0
  6
AIGENLINE001
 62
     7
 10
142.173
 20
121.892
 30
0.0
 11
142.173
 21
122.754
 31
0.0
  0
LINE
  5
26B
  8
0
  6
AIGENLINE001
 62
     7
 10
141.74000000000001
 20
121.892
 30
0.0
 11
141.631
 21
121.782
 31
0.0
  0
LINE
  5
26C
  8
0
  6
AIGENLINE001
 62
     7
 10
141.74000000000001
 20
121.892
 30
0.0
 11
141.74000000000001
 21
122.754
 31
0.0
  0
LINE
  5
26D
  8
0
  6
AIGENLINE001
 62
     7
 10
141.631
 20
121.10599999999999
 30
0.0
 11
141.631
 21
121.782
 31
0.0
  0
LINE
  5
26E
  8
0
  6
AIGENLINE001
 62
     7
 10
141.631
 20
121.10599999999999
 30
0.0
 11
142.369
 21
121.10599999999999
 31
0.0
  0
LINE
  5
26F
  8
0
  6
AIGENLINE001
 62
     7
 10
143.108
 20
121.10599999999999
 30
0.0
 11
142.369
 21
121.10599999999999
 31
0.0
  0
LINE
  5
270
  8
0
  6
AIGENLINE001
 62
     7
 10
142.869
 20
123.292
 30
0.0
 11
142.869
 21
123.11499999999999
 31
0.0
  0
LINE
  5
271
  8
0
  6
AIGENLINE001
 62
     7
 10
141.869
 20
123.292
 30
0.0
 11
141.869
 21
123.11499999999999
 31
0.0
  0
LINE
  5
272
  8
0
  6
AIGENLINE001
 62
     7
 10
140.96899999999999
 20
123.518
 30
0.0
 11
140.96899999999999
 21
124.518
 31
0.0
  0
LINE
  5
273
  8
0
  6
AIGENLINE001
 62
     7
 10
141.66900000000001
 20
123.518
 30
0.0
 11
141.66900000000001
 21
124.518
 31
0.0
  0
LINE
  5
274
  8
0
  6
AIGENLINE001
 62
     7
 10
143.41900000000001
 20
123.292
 30
0.0
 11
141.31899999999999
 21
123.292
 31
0.0
  0
LINE
  5
275
  8
0
  6
AIGENLINE001
 62
     7
 10
143.41900000000001
 20
124.74299999999999
 30
0.0
 11
141.31899999999999
 21
124.74299999999999
 31
0.0
  0
LINE
  5
276
  8
0
  6
AIGENLINE001
 62
     7
 10
143.06899999999999
 20
123.518
 30
0.0
 11
143.06899999999999
 21
124.518
 31
0.0
  0
LINE
  5
277
  8
0
  6
AIGENLINE001
 62
     7
 10
143.76900000000001
 20
123.518
 30
0.0
 11
143.76900000000001
 21
124.518
 31
0.0
  0
ARC
  5
278
  8
0
  6
AIGENLINE001
 62
     7
 10
141.30830700000001
 20
124.246803
 30
0.0
 40
0.496194
 50
88.719052000000005
 51
108.4913959999999
  0
ARC
  5
279
  8
0
  6
AIGENLINE001
 62
     7
 10
141.22477900000001
 20
124.467889
 30
0.0
 40
0.260189
 50
106.488084
 51
168.99401599999999
  0
ARC
  5
27A
  8
0
  6
AIGENLINE001
 62
     7
 10
141.32678200000001
 20
124.2201129999999
 30
0.0
 40
0.5228120000000001
 50
72.014981999999989
 51
90.809128999999984
  0
ARC
  5
27B
  8
0
  6
AIGENLINE001
 62
     7
 10
141.41453300000001
 20
124.46848199999999
 30
0.0
 40
0.259573
 50
10.899133000000001
 51
73.510411000000005
  0
ARC
  5
27C
  8
0
  6
AIGENLINE001
 62
     7
 10
142.384602
 20
121.988834
 30
0.0
 40
2.7540800000000001
 50
84.551293000000015
 51
90.314770999999979
  0
ARC
  5
27D
  8
0
  6
AIGENLINE001
 62
     7
 10
142.50386900000001
 20
123.473709
 30
0.0
 40
1.2647859999999991
 50
78.070284999999998
 51
83.542531999999994
  0
ARC
  5
27E
  8
0
  6
AIGENLINE001
 62
     7
 10
142.62689700000001
 20
124.03806299999999
 30
0.0
 40
0.6872
 50
70.288612999999984
 51
78.379829999999998
  0
ARC
  5
27F
  8
0
  6
AIGENLINE001
 62
     7
 10
142.744361
 20
124.324572
 30
0.0
 40
0.378118
 50
30.690275
 51
72.402295999999993
  0
ARC
  5
280
  8
0
  6
AIGENLINE001
 62
     7
 10
142.33412200000001
 20
122.433111
 30
0.0
 40
2.3100320000000001
 50
89.123187999999985
 51
96.004332000000005
  0
ARC
  5
281
  8
0
  6
AIGENLINE001
 62
     7
 10
142.196934
 20
123.70722499999999
 30
0.0
 40
1.028562999999999
 50
95.828405000000004
 51
102.55873800000001
  0
ARC
  5
282
  8
0
  6
AIGENLINE001
 62
     7
 10
142.136774
 20
123.952032
 30
0.0
 40
0.776551
 50
102.15370900000001
 51
109.288123
  0
ARC
  5
283
  8
0
  6
AIGENLINE001
 62
     7
 10
141.99467799999999
 20
124.32445
 30
0.0
 40
0.378263
 50
107.60606799999999
 51
149.301323
  0
ARC
  5
284
  8
0
  6
AIGENLINE001
 62
     7
 10
143.40814399999999
 20
124.248677
 30
0.0
 40
0.494319
 50
88.718596000000005
 51
108.52659
  0
ARC
  5
285
  8
0
  6
AIGENLINE001
 62
     7
 10
143.324467
 20
124.46830300000001
 30
0.0
 40
0.259664
 50
106.417678
 51
169.06442200000001
  0
ARC
  5
286
  8
0
  6
AIGENLINE001
 62
     7
 10
143.42774199999999
 20
124.227797
 30
0.0
 40
0.515147
 50
71.873858999999996
 51
90.95025200000002
  0
ARC
  5
287
  8
0
  6
AIGENLINE001
 62
     7
 10
143.51271399999999
 20
124.467015
 30
0.0
 40
0.261441
 50
11.147805999999999
 51
73.261737999999994
  0
ARC
  5
288
  8
0
  6
AIGENLINE001
 62
     7
 10
141.309732
 20
123.797966
 30
0.0
 40
0.5055800000000001
 50
251.69393700000001
 51
271.09561500000001
  0
ARC
  5
289
  8
0
  6
AIGENLINE001
 62
     7
 10
141.22572600000001
 20
123.56832300000001
 30
0.0
 40
0.261284
 50
191.151556
 51
253.366344
  0
ARC
  5
28A
  8
0
  6
AIGENLINE001
 62
     7
 10
141.32675699999999
 20
123.815403
 30
0.0
 40
0.522976
 50
269.19383499999998
 51
287.98205400000001
  0
ARC
  5
28B
  8
0
  6
AIGENLINE001
 62
     7
 10
141.412938
 20
123.568315
 30
0.0
 40
0.261414
 50
286.73467900000003
 51
348.85577699999999
  0
ARC
  5
28C
  8
0
  6
AIGENLINE001
 62
     7
 10
142.38360900000001
 20
125.923216
 30
0.0
 40
2.630776
 50
269.69209599999999
 51
275.72664500000002
  0
ARC
  5
28D
  8
0
  6
AIGENLINE001
 62
     7
 10
142.56154000000001
 20
124.238653
 30
0.0
 40
0.936908
 50
275.17907300000002
 51
282.56205699999998
  0
ARC
  5
28E
  8
0
  6
AIGENLINE001
 62
     7
 10
142.602553
 20
124.065292
 30
0.0
 40
0.75878
 50
282.38650200000001
 51
289.72757300000001
  0
ARC
  5
28F
  8
0
  6
AIGENLINE001
 62
     7
 10
142.74984900000001
 20
123.70532799999999
 30
0.0
 40
0.370621
 50
287.0760029999999
 51
329.601405
  0
ARC
  5
290
  8
0
  6
AIGENLINE001
 62
     7
 10
142.33507
 20
125.501417
 30
0.0
 40
2.2092070000000001
 50
263.695806
 51
270.892223
  0
ARC
  5
291
  8
0
  6
AIGENLINE001
 62
     7
 10
142.206704
 20
124.42861499999999
 30
0.0
 40
1.128838999999999
 50
258.06626799999998
 51
264.19264199999998
  0
ARC
  5
292
  8
0
  6
AIGENLINE001
 62
     7
 10
142.12573399999999
 20
124.026319
 30
0.0
 40
0.7185060000000001
 50
250.023233
 51
257.749954
  0
ARC
  5
293
  8
0
  6
AIGENLINE001
 62
     7
 10
141.99239399999999
 20
123.709502
 30
0.0
 40
0.375585
 50
210.69297700000001
 51
252.62965399999999
  0
ARC
  5
294
  8
0
  6
AIGENLINE001
 62
     7
 10
143.40913399999999
 20
123.793201
 30
0.0
 40
0.500823
 50
251.603297
 51
271.15151700000001
  0
ARC
  5
295
  8
0
  6
AIGENLINE001
 62
     7
 10
143.32425699999999
 20
123.566858
 30
0.0
 40
0.259421
 50
190.90294599999999
 51
253.6149529999999
  0
ARC
  5
296
  8
0
  6
AIGENLINE001
 62
     7
 10
143.42648399999999
 20
123.815881
 30
0.0
 40
0.523453
 50
269.20248299999997
 51
287.97340600000001
  0
ARC
  5
297
  8
0
  6
AIGENLINE001
 62
     7
 10
143.513205
 20
123.567891
 30
0.0
 40
0.260874
 50
286.66319900000002
 51
348.927257
  0
LINE
  5
298
  8
0
 62
     7
 10
140.31899999999999
 20
137.428
 30
0.0
 11
141.869
 21
137.428
 31
0.0
  0
LINE
  5
299
  8
0
 62
     7
 10
142.869
 20
137.428
 30
0.0
 11
144.41900000000001
 21
137.428
 31
0.0
  0
LINE
  5
29A
  8
0
 62
     7
 10
144.41900000000001
 20
139.02799999999999
 30
0.0
 11
144.41900000000001
 21
129.029
 31
0.0
  0
LINE
  5
29B
  8
0
 62
     7
 10
141.869
 20
138.32900000000001
 30
0.0
 11
142.869
 21
138.32900000000001
 31
0.0
  0
LINE
  5
29C
  8
0
 62
     7
 10
142.869
 20
136.91
 30
0.0
 11
142.869
 21
138.32900000000001
 31
0.0
  0
LINE
  5
29D
  8
0
 62
     7
 10
141.869
 20
136.91
 30
0.0
 11
141.869
 21
138.32900000000001
 31
0.0
  0
ARC
  5
29E
  8
0
 62
     7
 10
142.36912599999999
 20
135.128523
 30
0.0
 40
1.8500279999999989
 50
179.99996999999999
 51
270.00002000000001
  0
ARC
  5
29F
  8
0
 62
     7
 10
142.36912699999999
 20
135.128523
 30
0.0
 40
1.8500279999999989
 50
90.0
 51
179.99996999999999
  0
ARC
  5
2A0
  8
0
 62
     7
 10
142.36912599999999
 20
135.128523
 30
0.0
 40
1.8500279999999989
 50
0.00001
 51
89.999980000000008
  0
ARC
  5
2A1
  8
0
 62
     7
 10
142.36912599999999
 20
135.128524
 30
0.0
 40
1.8500279999999989
 50
270.00002000000001
 51
359.99999000000003
  0
LINE
  5
2A2
  8
0
 62
     7
 10
140.31899999999999
 20
139.02799999999999
 30
0.0
 11
140.31899999999999
 21
129.029
 31
0.0
  0
LINE
  5
2A3
  8
0
 62
     7
 10
140.31899999999999
 20
129.029
 30
0.0
 11
144.41900000000001
 21
129.029
 31
0.0
  0
LINE
  5
2A4
  8
0
 62
     7
 10
140.31899999999999
 20
139.02799999999999
 30
0.0
 11
144.41900000000001
 21
139.02799999999999
 31
0.0
  0
ARC
  5
2A5
  8
0
 62
     7
 10
142.40570500000001
 20
151.142574
 30
0.0
 40
0.9870629999999998
 50
92.103743000000009
 51
177.89622700000001
  0
ARC
  5
2A6
  8
0
 62
     7
 10
142.33290299999999
 20
151.14259799999999
 30
0.0
 40
0.9870509999999999
 50
2.1023819999999991
 51
87.876829999999984
  0
LINE
  5
2A7
  8
0
 62
     7
 10
143.31899999999999
 20
139.02799999999999
 30
0.0
 11
143.31899999999999
 21
151.179
 31
0.0
  0
LINE
  5
2A8
  8
0
 62
     7
 10
141.41900000000001
 20
139.02799999999999
 30
0.0
 11
141.41900000000001
 21
151.179
 31
0.0
  0
LINE
  5
2A9
  8
0
 62
     7
 10
140.369
 20
128.929
 30
0.0
 11
140.369
 21
129.029
 31
0.0
  0
LINE
  5
2AA
  8
0
 62
     7
 10
144.369
 20
129.029
 30
0.0
 11
144.369
 21
128.929
 31
0.0
  0
LINE
  5
2AB
  8
0
  6
AIGENLINE001
 62
     7
 10
140.369
 20
127.02800000000001
 30
0.0
 11
144.369
 21
127.02800000000001
 31
0.0
  0
LINE
  5
2AC
  8
0
  6
AIGENLINE001
 62
     7
 10
140.369
 20
127.02800000000001
 30
0.0
 11
140.369
 21
127.128
 31
0.0
  0
LINE
  5
2AD
  8
0
  6
AIGENLINE001
 62
     7
 10
144.369
 20
127.02800000000001
 30
0.0
 11
144.369
 21
127.128
 31
0.0
  0
LINE
  5
2AE
  8
0
  6
AIGENLINE001
 62
     7
 10
140.96899999999999
 20
126.22799999999999
 30
0.0
 11
143.76900000000001
 21
126.22799999999999
 31
0.0
  0
LINE
  5
2AF
  8
0
  6
AIGENLINE001
 62
     7
 10
140.96899999999999
 20
126.22799999999999
 30
0.0
 11
140.96899999999999
 21
127.02800000000001
 31
0.0
  0
LINE
  5
2B0
  8
0
  6
AIGENLINE001
 62
     7
 10
143.76900000000001
 20
126.22799999999999
 30
0.0
 11
143.76900000000001
 21
127.02800000000001
 31
0.0
  0
LINE
  5
2B1
  8
0
  6
AIGENLINE001
 62
     7
 10
142.97
 20
126.22799999999999
 30
0.0
 11
142.97
 21
127.02800000000001
 31
0.0
  0
LINE
  5
2B2
  8
0
  6
AIGENLINE001
 62
     7
 10
141.76900000000001
 20
126.22799999999999
 30
0.0
 11
141.76900000000001
 21
127.02800000000001
 31
0.0
  0
LINE
  5
2B3
  8
0
  6
AIGENLINE001
 62
     7
 10
140.96899999999999
 20
128.929
 30
0.0
 11
140.96899999999999
 21
127.128
 31
0.0
  0
LINE
  5
2B4
  8
0
  6
AIGENLINE001
 62
     7
 10
143.76900000000001
 20
128.929
 30
0.0
 11
143.76900000000001
 21
127.128
 31
0.0
  0
ARC
  5
2B5
  8
0
 62
     7
 10
100.783113
 20
208.91761199999999
 30
0.0
 40
0.519898
 50
272.12699300000003
 51
357.83354300000002
  0
ARC
  5
2B6
  8
0
 62
     7
 10
100.821724
 20
208.91727299999999
 30
0.0
 40
0.5195610000000001
 50
182.13050699999999
 51
267.86952200000002
  0
ARC
  5
2B7
  8
0
 62
     7
 10
100.821737
 20
208.878987
 30
0.0
 40
0.519562
 50
92.132005000000007
 51
177.90743900000001
  0
ARC
  5
2B8
  8
0
 62
     7
 10
100.802409
 20
208.89795799999999
 30
0.0
 40
0.5002310000000002
 50
0.00001
 51
89.999980000000008
  0
LINE
  5
2B9
  8
0
 62
     7
 10
101.503
 20
210.74799999999999
 30
0.0
 11
102.30200000000001
 21
210.74799999999999
 31
0.0
  0
LINE
  5
2BA
  8
0
 62
     7
 10
102.30200000000001
 20
210.74799999999999
 30
0.0
 11
102.30200000000001
 21
207.048
 31
0.0
  0
LINE
  5
2BB
  8
0
 62
     7
 10
101.503
 20
207.048
 30
0.0
 11
102.30200000000001
 21
207.048
 31
0.0
  0
LINE
  5
2BC
  8
0
 62
     7
 10
101.503
 20
210.74799999999999
 30
0.0
 11
101.503
 21
207.048
 31
0.0
  0
LINE
  5
2BD
  8
0
 62
     7
 10
98.202399999999997
 20
207.548
 30
0.0
 11
98.202399999999997
 21
207.048
 31
0.0
  0
LINE
  5
2BE
  8
0
 62
     7
 10
98.102500000000006
 20
207.548
 30
0.0
 11
98.102500000000006
 21
207.048
 31
0.0
  0
LINE
  5
2BF
  8
0
 62
     7
 10
98.202399999999997
 20
207.048
 30
0.0
 11
101.503
 21
207.048
 31
0.0
  0
LINE
  5
2C0
  8
0
 62
     7
 10
98.202399999999997
 20
207.548
 30
0.0
 11
98.102500000000006
 21
207.548
 31
0.0
  0
LINE
  5
2C1
  8
0
 62
     7
 10
98.202399999999997
 20
210.24799999999999
 30
0.0
 11
98.202399999999997
 21
207.548
 31
0.0
  0
LINE
  5
2C2
  8
0
 62
     7
 10
98.102500000000006
 20
210.24799999999999
 30
0.0
 11
98.102500000000006
 21
207.548
 31
0.0
  0
LINE
  5
2C3
  8
0
 62
     7
 10
98.202399999999997
 20
210.74799999999999
 30
0.0
 11
101.503
 21
210.74799999999999
 31
0.0
  0
LINE
  5
2C4
  8
0
 62
     7
 10
98.102500000000006
 20
210.74799999999999
 30
0.0
 11
98.102500000000006
 21
210.24799999999999
 31
0.0
  0
LINE
  5
2C5
  8
0
 62
     7
 10
98.202399999999997
 20
210.74799999999999
 30
0.0
 11
98.202399999999997
 21
210.24799999999999
 31
0.0
  0
LINE
  5
2C6
  8
0
 62
     7
 10
98.202399999999997
 20
210.24799999999999
 30
0.0
 11
98.102500000000006
 21
210.24799999999999
 31
0.0
  0
ARC
  5
2C7
  8
0
 62
     7
 10
94.630234000000002
 20
208.944243
 30
0.0
 40
2.096242999999999
 50
208.38213200000001
 51
269.40411
  0
ARC
  5
2C8
  8
0
 62
     7
 10
94.767034999999993
 20
208.575929
 30
0.0
 40
1.688361
 50
295.17416300000002
 51
297.72065300000003
  0
ARC
  5
2C9
  8
0
 62
     7
 10
94.557580000000016
 20
208.925104
 30
0.0
 40
2.0950159999999989
 50
298.34946100000002
 51
359.25757900000002
  0
ARC
  5
2CA
  8
0
 62
     7
 10
94.597655000000003
 20
208.91894300000001
 30
0.0
 40
2.0708579999999999
 50
270.29820100000001
 51
295.37845299999998
  0
LINE
  5
2CB
  8
0
 62
     7
 10
95.552400000000006
 20
207.048
 30
0.0
 11
95.552400000000006
 21
207.08099999999999
 31
0.0
  0
LINE
  5
2CC
  8
0
 62
     7
 10
95.552400000000006
 20
207.048
 30
0.0
 11
98.102500000000006
 21
207.048
 31
0.0
  0
ARC
  5
2CD
  8
0
 62
     7
 10
94.554489000000004
 20
208.86791299999999
 30
0.0
 40
2.0981469999999991
 50
0.8204879999999999
 51
63.666554000000012
  0
LINE
  5
2CE
  8
0
 62
     7
 10
95.485200000000006
 20
210.74799999999999
 30
0.0
 11
98.102500000000006
 21
210.74799999999999
 31
0.0
  0
ARC
  5
2CF
  8
0
 62
     7
 10
94.603250000000003
 20
208.898337
 30
0.0
 40
2.049472999999999
 50
64.511032999999983
 51
89.855119999999985
  0
ARC
  5
2D0
  8
0
 62
     7
 10
94.629001000000002
 20
208.85371499999999
 30
0.0
 40
2.0941890000000001
 50
90.562759999999997
 51
151.65099799999999
  0
LINE
  5
2D1
  8
0
 62
     7
 10
92.786000000000001
 20
209.84800000000001
 30
0.0
 11
94.601900000000001
 21
209.84800000000001
 31
0.0
  0
ARC
  5
2D2
  8
0
 62
     7
 10
94.565997999999993
 20
208.861738
 30
0.0
 40
0.987061
 50
2.102933999999999
 51
87.876277999999999
  0
LINE
  5
2D3
  8
0
 62
     7
 10
94.602599999999995
 20
209.84800000000001
 30
0.0
 11
94.601900000000001
 21
209.84800000000001
 31
0.0
  0
ARC
  5
2D4
  8
0
 62
     7
 10
94.565537000000006
 20
208.934639
 30
0.0
 40
0.9875389999999999
 50
272.149427
 51
357.87136099999998
  0
LINE
  5
2D5
  8
0
 62
     7
 10
92.786000000000001
 20
207.94800000000001
 30
0.0
 11
94.602599999999995
 21
207.94800000000001
 31
0.0
  0
ARC
  5
2D6
  8
0
 62
     7
 10
83.850402000000003
 20
208.89981299999999
 30
0.0
 40
1.0513410000000001
 50
166.39925299999999
 51
183.46394100000001
  0
ARC
  5
2D7
  8
0
 62
     7
 10
83.710766000000007
 20
208.85693599999999
 30
0.0
 40
0.9091610000000001
 50
217.56607600000001
 51
269.61367300000001
  0
ARC
  5
2D8
  8
0
 62
     7
 10
83.835774999999984
 20
208.902703
 30
0.0
 40
1.036921999999999
 50
183.672179
 51
215.35877099999999
  0
LINE
  5
2D9
  8
0
 62
     7
 10
83.704599999999985
 20
207.94800000000001
 30
0.0
 11
92.786000000000001
 21
207.94800000000001
 31
0.0
  0
ARC
  5
2DA
  8
0
 62
     7
 10
83.745593999999997
 20
208.897806
 30
0.0
 40
0.9503159999999999
 50
89.976859999999988
 51
164.79548199999999
  0
LINE
  5
2DB
  8
0
 62
     7
 10
83.745999999999995
 20
209.84800000000001
 30
0.0
 11
92.786000000000001
 21
209.84800000000001
 31
0.0
  0
LINE
  5
2DC
  8
0
 62
     7
 10
144.41900000000001
 20
134.929
 30
0.0
 11
151.173
 21
134.929
 31
0.0
  0
LINE
  5
2DD
  8
0
 62
     7
 10
133.566
 20
134.929
 30
0.0
 11
140.31899999999999
 21
134.929
 31
0.0
  0
LINE
  5
2DE
  8
0
 62
     7
 10
151.46899999999999
 20
128.929
 30
0.0
 11
151.37200000000001
 21
134.732
 31
0.0
  0
LINE
  5
2DF
  8
0
 62
     7
 10
133.26900000000001
 20
128.929
 30
0.0
 11
133.36600000000001
 21
134.732
 31
0.0
  0
ARC
  5
2E0
  8
0
 62
     7
 10
151.15848399999999
 20
134.7139379999999
 30
0.0
 40
0.215244
 50
4.9030959999999988
 51
86.192001999999988
  0
ARC
  5
2E1
  8
0
 62
     7
 10
133.58041600000001
 20
134.71400600000001
 30
0.0
 40
0.2151969999999999
 50
93.889664999999994
 51
175.11388199999999
  0
LINE
  5
2E2
  8
0
 62
     7
 10
60.796000000000006
 20
134.929
 30
0.0
 11
90.404399999999995
 21
134.929
 31
0.0
  0
ARC
  5
2E3
  8
0
 62
     7
 10
90.39631700000001
 20
134.72104400000001
 30
0.0
 40
0.207818
 50
3.1145070000000001
 51
87.783047999999994
  0
LINE
  5
2E4
  8
0
 62
     7
 10
90.700599999999994
 20
128.929
 30
0.0
 11
90.603800000000007
 21
134.732
 31
0.0
  0
ARC
  5
2E5
  8
0
 62
     7
 10
60.803013
 20
134.72170800000001
 30
0.0
 40
0.207118
 50
91.944744999999983
 51
177.05880199999999
  0
LINE
  5
2E6
  8
0
 62
     7
 10
60.596200000000003
 20
134.732
 30
0.0
 11
60.499400000000001
 21
128.929
 31
0.0
  0
LINE
  5
2E7
  8
0
 62
     7
 10
90.702000000000012
 20
209.87299999999999
 30
0.0
 11
90.702000000000012
 21
217.69900000000001
 31
0.0
  0
ARC
  5
2E8
  8
0
 62
     7
 10
60.99859
 20
217.248726
 30
0.0
 40
0.2922820000000001
 50
99.162548000000015
 51
108.065794
  0
ARC
  5
2E9
  8
0
 62
     7
 10
61.056793999999989
 20
216.840565
 30
0.0
 40
0.7045430000000001
 50
92.355243999999999
 51
98.549978999999993
  0
ARC
  5
2EA
  8
0
 62
     7
 10
61.084181000000008
 20
216.21247399999999
 30
0.0
 40
1.3332310000000001
 50
89.119555000000005
 51
92.421922999999992
  0
ARC
  5
2EB
  8
0
 62
     7
 10
60.819405000000003
 20
204.32326699999999
 30
0.0
 40
13.225357000000001
 50
88.571477000000002
 51
88.764064000000005
  0
ARC
  5
2EC
  8
0
 62
     7
 10
61.126486999999997
 20
216.441091
 30
0.0
 40
1.1036539999999999
 50
86.301193000000026
 51
88.825492000000011
  0
ARC
  5
2ED
  8
0
 62
     7
 10
61.106580000000001
 20
215.71474699999999
 30
0.0
 40
1.829969
 50
85.470877999999985
 51
87.146331000000004
  0
ARC
  5
2EE
  8
0
 62
     7
 10
61.087223999999999
 20
215.04520099999999
 30
0.0
 40
2.4991779999999988
 50
84.909756999999985
 51
86.240655000000004
  0
LINE
  5
2EF
  8
0
 62
     7
 10
61.371000000000002
 20
217.529
 30
0.0
 11
61.308999999999997
 21
217.535
 31
0.0
  0
ARC
  5
2F0
  8
0
 62
     7
 10
60.870328000000001
 20
205.32788600000001
 30
0.0
 40
5.0843109999999996
 50
273.98731900000001
 51
275.65102100000001
  0
LINE
  5
2F1
  8
0
 62
     7
 10
61.104700000000001
 20
200.251
 30
0.0
 11
61.2239
 21
200.256
 31
0.0
  0
LINE
  5
2F2
  8
0
 62
     7
 10
61.040900000000001
 20
200.25200000000001
 30
0.0
 11
61.104700000000001
 21
200.251
 31
0.0
  0
LINE
  5
2F3
  8
0
 62
     7
 10
60.989600000000003
 20
200.255
 30
0.0
 11
61.040900000000001
 21
200.25200000000001
 31
0.0
  0
LINE
  5
2F4
  8
0
 62
     7
 10
60.948599999999999
 20
200.25999999999999
 30
0.0
 11
60.989600000000003
 21
200.255
 31
0.0
  0
ARC
  5
2F5
  8
0
 62
     7
 10
60.993917000000003
 20
200.54672199999999
 30
0.0
 40
0.289925
 50
254.31374700000001
 51
261.00810100000001
  0
ARC
  5
2F6
  8
0
 62
     7
 10
90.151876999999999
 20
217.223433
 30
0.0
 40
0.311478
 50
94.767341000000016
 51
101.49284299999999
  0
ARC
  5
2F7
  8
0
 62
     7
 10
90.147800000000004
 20
217.264937
 30
0.0
 40
0.26978
 50
87.826896000000005
 51
94.637038999999973
  0
ARC
  5
2F8
  8
0
 62
     7
 10
90.144160999999997
 20
217.368146
 30
0.0
 40
0.166954
 50
75.387543999999991
 51
85.234864999999999
  0
ARC
  5
2F9
  8
0
 62
     7
 10
90.164707999999976
 20
217.44866400000001
 30
0.0
 40
0.08642
 50
17.209804999999999
 51
37.647671000000003
  0
ARC
  5
2FA
  8
0
 62
     7
 10
90.157762000000005
 20
200.35154600000001
 30
0.0
 40
0.094132
 50
323.19743299999999
 51
341.94508999999999
  0
LINE
  5
2FB
  8
0
 62
     7
 10
60.8645
 20
208.898
 30
0.0
 11
60.8645
 21
200.315
 31
0.0
  0
LINE
  5
2FC
  8
0
 62
     7
 10
60.8645
 20
217.482
 30
0.0
 11
60.8645
 21
208.898
 31
0.0
  0
LINE
  5
2FD
  8
0
 62
     7
 10
60.5944
 20
200.19499999999999
 30
0.0
 11
60.599299999999999
 21
217.602
 31
0.0
  0
LINE
  5
2FE
  8
0
 62
     7
 10
90.246200000000002
 20
210.78999999999999
 30
0.0
 11
90.246200000000002
 21
209.87299999999999
 31
0.0
  0
LINE
  5
2FF
  8
0
 62
     7
 10
90.246200000000002
 20
211.73599999999999
 30
0.0
 11
90.246200000000002
 21
210.78999999999999
 31
0.0
  0
LINE
  5
300
  8
0
 62
     7
 10
90.246200000000002
 20
212.68199999999999
 30
0.0
 11
90.246200000000002
 21
211.73599999999999
 31
0.0
  0
ARC
  5
301
  8
0
 62
     7
 10
736.33993699999985
 20
213.15543400000001
 30
0.0
 40
646.09354199999996
 50
179.95800299999999
 51
180.04199700000001
  0
ARC
  5
302
  8
0
 62
     7
 10
-124.407258
 20
214.101463
 30
0.0
 40
214.65400399999999
 50
359.87374199999999
 51
0.126258
  0
ARC
  5
303
  8
0
 62
     7
 10
182.23039600000001
 20
215.047493
 30
0.0
 40
91.985387000000003
 50
179.70534799999999
 51
180.29465200000001
  0
ARC
  5
304
  8
0
 62
     7
 10
66.396804000000003
 20
215.99352200000001
 30
0.0
 40
23.854111
 50
358.86378000000002
 51
1.13622
  0
ARC
  5
305
  8
0
 62
     7
 10
113.898245
 20
217.06536199999999
 30
0.0
 40
23.659600000000001
 50
179.99429599999999
 51
181.450334
  0
ARC
  5
306
  8
0
 62
     7
 10
97.650406000000004
 20
217.06747200000001
 30
0.0
 40
7.411760000000001
 50
177.40862200000001
 51
179.99814499999999
  0
ARC
  5
307
  8
0
 62
     7
 10
90.071752000000004
 20
1100.1080400000001
 30
0.0
 40
882.58006300000011
 50
269.94938500000001
 51
270.00019900000001
  0
LINE
  5
308
  8
0
 62
     7
 10
88.494000000000014
 20
217.52799999999999
 30
0.0
 11
89.291899999999998
 21
217.52799999999999
 31
0.0
  0
LINE
  5
309
  8
0
 62
     7
 10
87.6965
 20
217.52799999999999
 30
0.0
 11
88.494000000000014
 21
217.52799999999999
 31
0.0
  0
LINE
  5
30A
  8
0
 62
     7
 10
86.898600000000016
 20
217.52799999999999
 30
0.0
 11
87.6965
 21
217.52799999999999
 31
0.0
  0
LINE
  5
30B
  8
0
 62
     7
 10
86.101100000000002
 20
217.52799999999999
 30
0.0
 11
86.898600000000016
 21
217.52799999999999
 31
0.0
  0
LINE
  5
30C
  8
0
 62
     7
 10
85.303200000000004
 20
217.52799999999999
 30
0.0
 11
86.101100000000002
 21
217.52799999999999
 31
0.0
  0
LINE
  5
30D
  8
0
 62
     7
 10
84.505600000000015
 20
217.52799999999999
 30
0.0
 11
85.303200000000004
 21
217.52799999999999
 31
0.0
  0
LINE
  5
30E
  8
0
 62
     7
 10
83.707700000000003
 20
217.52799999999999
 30
0.0
 11
84.505600000000015
 21
217.52799999999999
 31
0.0
  0
LINE
  5
30F
  8
0
 62
     7
 10
82.910200000000003
 20
217.52799999999999
 30
0.0
 11
83.707700000000003
 21
217.52799999999999
 31
0.0
  0
LINE
  5
310
  8
0
 62
     7
 10
82.112300000000005
 20
217.529
 30
0.0
 11
82.910200000000003
 21
217.52799999999999
 31
0.0
  0
LINE
  5
311
  8
0
 62
     7
 10
81.314400000000006
 20
217.529
 30
0.0
 11
82.112300000000005
 21
217.529
 31
0.0
  0
LINE
  5
312
  8
0
 62
     7
 10
80.516900000000007
 20
217.529
 30
0.0
 11
81.314400000000006
 21
217.529
 31
0.0
  0
LINE
  5
313
  8
0
 62
     7
 10
79.718999999999994
 20
217.529
 30
0.0
 11
80.516900000000007
 21
217.529
 31
0.0
  0
LINE
  5
314
  8
0
 62
     7
 10
78.921400000000006
 20
217.529
 30
0.0
 11
79.718999999999994
 21
217.529
 31
0.0
  0
LINE
  5
315
  8
0
 62
     7
 10
78.123500000000007
 20
217.529
 30
0.0
 11
78.921400000000006
 21
217.529
 31
0.0
  0
LINE
  5
316
  8
0
 62
     7
 10
77.326000000000008
 20
217.529
 30
0.0
 11
78.123500000000007
 21
217.529
 31
0.0
  0
LINE
  5
317
  8
0
 62
     7
 10
76.528099999999995
 20
217.529
 30
0.0
 11
77.326000000000008
 21
217.529
 31
0.0
  0
LINE
  5
318
  8
0
 62
     7
 10
75.730199999999996
 20
217.529
 30
0.0
 11
76.528099999999995
 21
217.529
 31
0.0
  0
LINE
  5
319
  8
0
 62
     7
 10
74.932699999999997
 20
217.529
 30
0.0
 11
75.730199999999996
 21
217.529
 31
0.0
  0
LINE
  5
31A
  8
0
 62
     7
 10
74.134799999999984
 20
217.529
 30
0.0
 11
74.932699999999997
 21
217.529
 31
0.0
  0
LINE
  5
31B
  8
0
 62
     7
 10
73.337199999999996
 20
217.529
 30
0.0
 11
74.134799999999984
 21
217.529
 31
0.0
  0
LINE
  5
31C
  8
0
 62
     7
 10
72.539400000000001
 20
217.529
 30
0.0
 11
73.337199999999996
 21
217.529
 31
0.0
  0
LINE
  5
31D
  8
0
 62
     7
 10
71.741500000000002
 20
217.529
 30
0.0
 11
72.539400000000001
 21
217.529
 31
0.0
  0
LINE
  5
31E
  8
0
 62
     7
 10
70.943899999999999
 20
217.529
 30
0.0
 11
71.741500000000002
 21
217.529
 31
0.0
  0
LINE
  5
31F
  8
0
 62
     7
 10
70.146399999999986
 20
217.529
 30
0.0
 11
70.943899999999999
 21
217.529
 31
0.0
  0
LINE
  5
320
  8
0
 62
     7
 10
69.348500000000001
 20
217.529
 30
0.0
 11
70.146399999999986
 21
217.529
 31
0.0
  0
LINE
  5
321
  8
0
 62
     7
 10
68.550600000000003
 20
217.529
 30
0.0
 11
69.348500000000001
 21
217.529
 31
0.0
  0
LINE
  5
322
  8
0
 62
     7
 10
67.753100000000003
 20
217.529
 30
0.0
 11
68.550600000000003
 21
217.529
 31
0.0
  0
LINE
  5
323
  8
0
 62
     7
 10
66.955200000000005
 20
217.529
 30
0.0
 11
67.753100000000003
 21
217.529
 31
0.0
  0
LINE
  5
324
  8
0
 62
     7
 10
66.157600000000002
 20
217.529
 30
0.0
 11
66.955200000000005
 21
217.529
 31
0.0
  0
LINE
  5
325
  8
0
 62
     7
 10
65.360100000000003
 20
217.529
 30
0.0
 11
66.157600000000002
 21
217.529
 31
0.0
  0
LINE
  5
326
  8
0
 62
     7
 10
64.561800000000005
 20
217.529
 30
0.0
 11
65.360100000000003
 21
217.529
 31
0.0
  0
LINE
  5
327
  8
0
 62
     7
 10
63.764299999999999
 20
217.529
 30
0.0
 11
64.561800000000005
 21
217.529
 31
0.0
  0
LINE
  5
328
  8
0
 62
     7
 10
62.9664
 20
217.529
 30
0.0
 11
63.764299999999999
 21
217.529
 31
0.0
  0
LINE
  5
329
  8
0
 62
     7
 10
62.168900000000001
 20
217.529
 30
0.0
 11
62.9664
 21
217.529
 31
0.0
  0
LINE
  5
32A
  8
0
 62
     7
 10
61.371000000000002
 20
217.52799999999999
 30
0.0
 11
62.168900000000001
 21
217.529
 31
0.0
  0
LINE
  5
32B
  8
0
 62
     7
 10
90.246200000000002
 20
207.923
 30
0.0
 11
90.246200000000002
 21
200.39400000000001
 31
0.0
  0
LINE
  5
32C
  8
0
 62
     7
 10
90.305099999999996
 20
199.89500000000001
 30
0.0
 11
60.8949
 21
199.89500000000001
 31
0.0
  0
LINE
  5
32D
  8
0
 62
     7
 10
62.168900000000001
 20
200.268
 30
0.0
 11
61.371000000000002
 21
200.268
 31
0.0
  0
ARC
  5
32E
  8
0
 62
     7
 10
62.567807999999992
 20
85.670321999999985
 30
0.0
 40
114.59865600000001
 50
89.800530000000009
 51
90.199450000000013
  0
ARC
  5
32F
  8
0
 62
     7
 10
63.365524999999991
 20
85.720192999999995
 30
0.0
 40
114.548785
 50
89.800529000000026
 51
90.199450999999996
  0
LINE
  5
330
  8
0
 62
     7
 10
64.561800000000005
 20
200.268
 30
0.0
 11
63.764299999999999
 21
200.268
 31
0.0
  0
LINE
  5
331
  8
0
 62
     7
 10
65.360100000000003
 20
200.268
 30
0.0
 11
64.561800000000005
 21
200.268
 31
0.0
  0
LINE
  5
332
  8
0
 62
     7
 10
66.157600000000002
 20
200.268
 30
0.0
 11
65.360100000000003
 21
200.268
 31
0.0
  0
LINE
  5
333
  8
0
 62
     7
 10
66.955200000000005
 20
200.268
 30
0.0
 11
66.157600000000002
 21
200.268
 31
0.0
  0
LINE
  5
334
  8
0
 62
     7
 10
67.753100000000003
 20
200.268
 30
0.0
 11
66.955200000000005
 21
200.268
 31
0.0
  0
LINE
  5
335
  8
0
 62
     7
 10
68.550600000000003
 20
200.268
 30
0.0
 11
67.753100000000003
 21
200.268
 31
0.0
  0
LINE
  5
336
  8
0
 62
     7
 10
69.348500000000001
 20
200.268
 30
0.0
 11
68.550600000000003
 21
200.268
 31
0.0
  0
LINE
  5
337
  8
0
 62
     7
 10
70.146399999999986
 20
200.268
 30
0.0
 11
69.348500000000001
 21
200.268
 31
0.0
  0
LINE
  5
338
  8
0
 62
     7
 10
70.943899999999999
 20
200.268
 30
0.0
 11
70.146399999999986
 21
200.268
 31
0.0
  0
LINE
  5
339
  8
0
 62
     7
 10
71.741500000000002
 20
200.268
 30
0.0
 11
70.943899999999999
 21
200.268
 31
0.0
  0
LINE
  5
33A
  8
0
 62
     7
 10
72.539400000000001
 20
200.268
 30
0.0
 11
71.741500000000002
 21
200.268
 31
0.0
  0
LINE
  5
33B
  8
0
 62
     7
 10
73.337199999999996
 20
200.268
 30
0.0
 11
72.539400000000001
 21
200.268
 31
0.0
  0
LINE
  5
33C
  8
0
 62
     7
 10
74.134799999999984
 20
200.268
 30
0.0
 11
73.337199999999996
 21
200.268
 31
0.0
  0
LINE
  5
33D
  8
0
 62
     7
 10
74.932699999999997
 20
200.268
 30
0.0
 11
74.134799999999984
 21
200.268
 31
0.0
  0
LINE
  5
33E
  8
0
 62
     7
 10
75.730199999999996
 20
200.268
 30
0.0
 11
74.932699999999997
 21
200.268
 31
0.0
  0
LINE
  5
33F
  8
0
 62
     7
 10
76.528099999999995
 20
200.268
 30
0.0
 11
75.730199999999996
 21
200.268
 31
0.0
  0
LINE
  5
340
  8
0
 62
     7
 10
77.326000000000008
 20
200.268
 30
0.0
 11
76.528099999999995
 21
200.268
 31
0.0
  0
LINE
  5
341
  8
0
 62
     7
 10
78.123500000000007
 20
200.268
 30
0.0
 11
77.326000000000008
 21
200.268
 31
0.0
  0
LINE
  5
342
  8
0
 62
     7
 10
78.921400000000006
 20
200.268
 30
0.0
 11
78.123500000000007
 21
200.268
 31
0.0
  0
LINE
  5
343
  8
0
 62
     7
 10
79.718999999999994
 20
200.268
 30
0.0
 11
78.921400000000006
 21
200.268
 31
0.0
  0
LINE
  5
344
  8
0
 62
     7
 10
80.516900000000007
 20
200.268
 30
0.0
 11
79.718999999999994
 21
200.268
 31
0.0
  0
LINE
  5
345
  8
0
 62
     7
 10
81.314400000000006
 20
200.268
 30
0.0
 11
80.516900000000007
 21
200.268
 31
0.0
  0
LINE
  5
346
  8
0
 62
     7
 10
82.112300000000005
 20
200.268
 30
0.0
 11
81.314400000000006
 21
200.268
 31
0.0
  0
LINE
  5
347
  8
0
 62
     7
 10
82.910200000000003
 20
200.268
 30
0.0
 11
82.112300000000005
 21
200.268
 31
0.0
  0
LINE
  5
348
  8
0
 62
     7
 10
83.707700000000003
 20
200.268
 30
0.0
 11
82.910200000000003
 21
200.268
 31
0.0
  0
LINE
  5
349
  8
0
 62
     7
 10
84.505600000000015
 20
200.268
 30
0.0
 11
83.707700000000003
 21
200.268
 31
0.0
  0
LINE
  5
34A
  8
0
 62
     7
 10
85.303200000000004
 20
200.268
 30
0.0
 11
84.505600000000015
 21
200.268
 31
0.0
  0
LINE
  5
34B
  8
0
 62
     7
 10
86.101100000000002
 20
200.268
 30
0.0
 11
85.303200000000004
 21
200.268
 31
0.0
  0
LINE
  5
34C
  8
0
 62
     7
 10
86.898600000000016
 20
200.268
 30
0.0
 11
86.101100000000002
 21
200.268
 31
0.0
  0
LINE
  5
34D
  8
0
 62
     7
 10
87.6965
 20
200.268
 30
0.0
 11
86.898600000000016
 21
200.268
 31
0.0
  0
LINE
  5
34E
  8
0
 62
     7
 10
88.494000000000014
 20
200.268
 30
0.0
 11
87.6965
 21
200.268
 31
0.0
  0
LINE
  5
34F
  8
0
 62
     7
 10
89.291600000000017
 20
200.268
 30
0.0
 11
88.494000000000014
 21
200.268
 31
0.0
  0
LINE
  5
350
  8
0
 62
     7
 10
90.074299999999994
 20
200.268
 30
0.0
 11
89.291600000000017
 21
200.268
 31
0.0
  0
LINE
  5
351
  8
0
 62
     7
 10
90.605199999999996
 20
207.923
 30
0.0
 11
90.605199999999996
 21
200.19499999999999
 31
0.0
  0
LINE
  5
352
  8
0
 62
     7
 10
90.605199999999996
 20
217.602
 30
0.0
 11
90.605199999999996
 21
209.87299999999999
 31
0.0
  0
LINE
  5
353
  8
0
 62
     7
 10
60.89929999999999
 20
217.90100000000001
 30
0.0
 11
90.305099999999996
 21
217.90100000000001
 31
0.0
  0
LINE
  5
354
  8
0
 62
     7
 10
90.702000000000012
 20
200.09800000000001
 30
0.0
 11
90.702000000000012
 21
207.923
 31
0.0
  0
LINE
  5
355
  8
0
 62
     7
 10
90.401899999999998
 20
217.999
 30
0.0
 11
60.802900000000001
 21
217.999
 31
0.0
  0
LINE
  5
356
  8
0
 62
     7
 10
60.797699999999992
 20
199.798
 30
0.0
 11
90.401899999999998
 21
199.798
 31
0.0
  0
LINE
  5
357
  8
0
 62
     7
 10
60.502800000000001
 20
217.69900000000001
 30
0.0
 11
60.498000000000012
 21
200.09800000000001
 31
0.0
  0
LINE
  5
358
  8
0
 62
     7
 10
74.370400000000004
 20
203.37899999999999
 30
0.0
 11
74.370400000000004
 21
208.898
 31
0.0
  0
LINE
  5
359
  8
0
 62
     7
 10
74.8703
 20
203.369
 30
0.0
 11
74.8703
 21
208.898
 31
0.0
  0
ARC
  5
35A
  8
0
 62
     7
 10
78.601900000000001
 20
208.89813100000001
 30
0.0
 40
2.2997879999999991
 50
270.00431099999997
 51
0.004282
  0
ARC
  5
35B
  8
0
 62
     7
 10
78.601900000000001
 20
208.89847499999999
 30
0.0
 40
2.3001320000000001
 50
180.00430099999991
 51
270.00431099999997
  0
ARC
  5
35C
  8
0
 62
     7
 10
78.690600000000003
 20
208.80941799999999
 30
0.0
 40
2.3904849999999991
 50
92.122309999999999
 51
177.869079
  0
ARC
  5
35D
  8
0
 62
     7
 10
78.513595999999993
 20
208.81018299999999
 30
0.0
 40
2.3897179999999998
 50
2.1132270000000002
 51
87.878179999999986
  0
LINE
  5
35E
  8
0
 62
     7
 10
82.902299999999997
 20
208.898
 30
0.0
 11
82.902299999999997
 21
205.054
 31
0.0
  0
ARC
  5
35F
  8
0
 62
     7
 10
90.282135999999994
 20
217.57870199999999
 30
0.0
 40
0.323887
 50
4.0721280000000002
 51
85.927862000000005
  0
ARC
  5
360
  8
0
 62
     7
 10
90.378943999999976
 20
217.67551
 30
0.0
 40
0.323887
 50
4.0721280000000002
 51
85.927862000000005
  0
ARC
  5
361
  8
0
 62
     7
 10
90.380696999999984
 20
200.119711
 30
0.0
 40
0.3220429999999999
 50
273.78291000000002
 51
356.15128099999998
  0
ARC
  5
362
  8
0
 62
     7
 10
90.283866000000003
 20
200.21651700000001
 30
0.0
 40
0.3220429999999999
 50
273.78697099999999
 51
356.21303899999998
  0
ARC
  5
363
  8
0
 62
     7
 10
60.82018699999999
 20
200.12054900000001
 30
0.0
 40
0.322963
 50
183.92548199999999
 51
266.00872900000002
  0
ARC
  5
364
  8
0
 62
     7
 10
60.917076999999999
 20
200.21783500000001
 30
0.0
 40
0.323422
 50
184.00484
 51
266.06093399999997
  0
ARC
  5
365
  8
0
 62
     7
 10
60.825875000000003
 20
217.67551
 30
0.0
 40
0.323887
 50
94.072118000000003
 51
175.927852
  0
ARC
  5
366
  8
0
 62
     7
 10
60.922338000000003
 20
217.57870199999999
 30
0.0
 40
0.323887
 50
94.072118000000003
 51
175.927852
  0
LINE
  5
367
  8
0
 62
     7
 10
82.902299999999997
 20
205.36799999999999
 30
0.0
 11
89.940600000000003
 21
200.499
 31
0.0
  0
LINE
  5
368
  8
0
 62
     7
 10
74.993300000000005
 20
203.27099999999999
 30
0.0
 11
82.825100000000006
 21
204.95699999999999
 31
0.0
  0
LINE
  5
369
  8
0
 62
     7
 10
61.4619
 20
200.35900000000001
 30
0.0
 11
74.272900000000007
 21
203.11600000000001
 31
0.0
  0
LINE
  5
36A
  8
0
 62
     7
 10
74.8703
 20
203.57599999999999
 30
0.0
 11
74.463800000000006
 21
203.202
 31
0.0
  0
ARC
  5
36B
  8
0
 62
     7
 10
74.115061999999995
 20
203.722836
 30
0.0
 40
0.626686
 50
284.59136999999998
 51
303.812521
  0
ARC
  5
36C
  8
0
 62
     7
 10
74.978217999999998
 20
203.37650500000001
 30
0.0
 40
0.108164
 50
184.037634
 51
265.76516400000003
  0
ARC
  5
36D
  8
0
 62
     7
 10
82.796570999999986
 20
205.05897400000001
 30
0.0
 40
0.105804
 50
285.641796
 51
357.43613699999997
  0
LINE
  5
36E
  8
0
 62
     7
 10
74.370400000000004
 20
214.41800000000001
 30
0.0
 11
74.370400000000004
 21
208.898
 31
0.0
  0
LINE
  5
36F
  8
0
 62
     7
 10
74.8703
 20
214.428
 30
0.0
 11
74.8703
 21
208.898
 31
0.0
  0
LINE
  5
370
  8
0
 62
     7
 10
82.902299999999997
 20
208.898
 30
0.0
 11
82.902299999999997
 21
212.74199999999999
 31
0.0
  0
LINE
  5
371
  8
0
 62
     7
 10
82.902299999999997
 20
212.429
 30
0.0
 11
89.940600000000003
 21
217.298
 31
0.0
  0
LINE
  5
372
  8
0
 62
     7
 10
74.993300000000005
 20
214.52500000000001
 30
0.0
 11
82.825100000000006
 21
212.84
 31
0.0
  0
LINE
  5
373
  8
0
 62
     7
 10
61.4619
 20
217.43799999999999
 30
0.0
 11
74.272900000000007
 21
214.68100000000001
 31
0.0
  0
LINE
  5
374
  8
0
 62
     7
 10
74.8703
 20
214.221
 30
0.0
 11
74.463800000000006
 21
214.595
 31
0.0
  0
ARC
  5
375
  8
0
 62
     7
 10
74.104985999999997
 20
214.05169699999999
 30
0.0
 40
0.650932
 50
56.548654000000013
 51
75.047454999999999
  0
ARC
  5
376
  8
0
 62
     7
 10
74.977888000000007
 20
214.42042799999999
 30
0.0
 40
0.107813
 50
94.073048999999983
 51
176.12415300000001
  0
ARC
  5
377
  8
0
 62
     7
 10
82.796210000000002
 20
212.737707
 30
0.0
 40
0.10616
 50
2.5146220000000001
 51
74.209968000000003
  0
LINE
  5
378
  8
0
 62
     7
 10
142.86799999999999
 20
120.729
 30
0.0
 11
145.61799999999999
 21
120.729
 31
0.0
  0
LINE
  5
379
  8
0
 62
     7
 10
142.86799999999999
 20
120.578
 30
0.0
 11
145.15899999999999
 21
120.578
 31
0.0
  0
LINE
  5
37A
  8
0
 62
     7
 10
142.86799999999999
 20
119.57899999999999
 30
0.0
 11
144.41800000000001
 21
119.57899999999999
 31
0.0
  0
LINE
  5
37B
  8
0
 62
     7
 10
142.86799999999999
 20
119.479
 30
0.0
 11
144.31800000000001
 21
119.479
 31
0.0
  0
LINE
  5
37C
  8
0
 62
     7
 10
139.11799999999999
 20
120.729
 30
0.0
 11
141.87100000000001
 21
120.729
 31
0.0
  0
LINE
  5
37D
  8
0
 62
     7
 10
139.19800000000001
 20
120.929
 30
0.0
 11
139.11799999999999
 21
120.729
 31
0.0
  0
LINE
  5
37E
  8
0
 62
     7
 10
145.53800000000001
 20
120.929
 30
0.0
 11
145.61799999999999
 21
120.729
 31
0.0
  0
ARC
  5
37F
  8
0
 62
     7
 10
139.58587399999999
 20
120.893975
 30
0.0
 40
0.314981
 50
211.66562999999999
 51
268.485209
  0
LINE
  5
380
  8
0
 62
     7
 10
139.578
 20
120.578
 30
0.0
 11
141.87100000000001
 21
120.578
 31
0.0
  0
ARC
  5
381
  8
0
 62
     7
 10
145.15154100000001
 20
120.891822
 30
0.0
 40
0.312807
 50
271.363203
 51
328.55177200000003
  0
LINE
  5
382
  8
0
 62
     7
 10
140.41800000000001
 20
119.479
 30
0.0
 11
141.87100000000001
 21
119.479
 31
0.0
  0
LINE
  5
383
  8
0
 62
     7
 10
140.31800000000001
 20
119.57899999999999
 30
0.0
 11
140.31800000000001
 21
120.578
 31
0.0
  0
LINE
  5
384
  8
0
 62
     7
 10
144.41800000000001
 20
119.57899999999999
 30
0.0
 11
144.41800000000001
 21
120.578
 31
0.0
  0
LINE
  5
385
  8
0
 62
     7
 10
144.31800000000001
 20
119.479
 30
0.0
 11
144.31800000000001
 21
120.578
 31
0.0
  0
LINE
  5
386
  8
0
 62
     7
 10
140.31800000000001
 20
119.57899999999999
 30
0.0
 11
141.87100000000001
 21
119.57899999999999
 31
0.0
  0
LINE
  5
387
  8
0
 62
     7
 10
140.41800000000001
 20
119.479
 30
0.0
 11
140.41800000000001
 21
120.578
 31
0.0
  0
LINE
  5
388
  8
0
 62
     7
 10
140.41800000000001
 20
119.479
 30
0.0
 11
140.31800000000001
 21
119.57899999999999
 31
0.0
  0
LINE
  5
389
  8
0
 62
     7
 10
144.41800000000001
 20
119.57899999999999
 30
0.0
 11
144.31800000000001
 21
119.479
 31
0.0
  0
LINE
  5
38A
  8
0
 62
     7
 10
78.8994
 20
119.27800000000001
 30
0.0
 11
78.8994
 21
119.479
 31
0.0
  0
LINE
  5
38B
  8
0
 62
     7
 10
78.299199999999999
 20
119.27800000000001
 30
0.0
 11
78.299199999999999
 21
119.479
 31
0.0
  0
LINE
  5
38C
  8
0
 62
     7
 10
78.799099999999996
 20
119.178
 30
0.0
 11
78.799099999999996
 21
119.479
 31
0.0
  0
LINE
  5
38D
  8
0
 62
     7
 10
78.399500000000003
 20
119.178
 30
0.0
 11
78.399500000000003
 21
119.479
 31
0.0
  0
LINE
  5
38E
  8
0
 62
     7
 10
75.349199999999996
 20
120.729
 30
0.0
 11
81.849100000000007
 21
120.729
 31
0.0
  0
LINE
  5
38F
  8
0
 62
     7
 10
75.429500000000004
 20
120.929
 30
0.0
 11
75.349199999999996
 21
120.729
 31
0.0
  0
LINE
  5
390
  8
0
 62
     7
 10
81.769199999999998
 20
120.929
 30
0.0
 11
81.849100000000007
 21
120.729
 31
0.0
  0
ARC
  5
391
  8
0
 62
     7
 10
75.815177000000006
 20
120.890023
 30
0.0
 40
0.310985
 50
211.2651689999999
 51
268.81989600000003
  0
LINE
  5
392
  8
0
 62
     7
 10
75.808800000000005
 20
120.578
 30
0.0
 11
81.389899999999983
 21
120.578
 31
0.0
  0
ARC
  5
393
  8
0
 62
     7
 10
81.385031000000012
 20
120.887293
 30
0.0
 40
0.308226
 50
270.89808299999999
 51
329.01689099999999
  0
LINE
  5
394
  8
0
 62
     7
 10
76.6494
 20
119.479
 30
0.0
 11
80.549599999999984
 21
119.479
 31
0.0
  0
LINE
  5
395
  8
0
 62
     7
 10
76.549099999999996
 20
119.57899999999999
 30
0.0
 11
76.549099999999996
 21
120.578
 31
0.0
  0
LINE
  5
396
  8
0
 62
     7
 10
80.649500000000003
 20
119.57899999999999
 30
0.0
 11
80.649500000000003
 21
120.578
 31
0.0
  0
LINE
  5
397
  8
0
 62
     7
 10
80.549599999999984
 20
119.479
 30
0.0
 11
80.549599999999984
 21
120.578
 31
0.0
  0
LINE
  5
398
  8
0
 62
     7
 10
76.549099999999996
 20
119.57899999999999
 30
0.0
 11
80.649500000000003
 21
119.57899999999999
 31
0.0
  0
LINE
  5
399
  8
0
 62
     7
 10
76.6494
 20
119.479
 30
0.0
 11
76.6494
 21
120.578
 31
0.0
  0
LINE
  5
39A
  8
0
 62
     7
 10
76.6494
 20
119.479
 30
0.0
 11
76.549099999999996
 21
119.57899999999999
 31
0.0
  0
LINE
  5
39B
  8
0
 62
     7
 10
80.649500000000003
 20
119.57899999999999
 30
0.0
 11
80.549599999999984
 21
119.479
 31
0.0
  0
LINE
  5
39C
  8
0
 62
     7
 10
78.8994
 20
119.27800000000001
 30
0.0
 11
78.799099999999996
 21
119.178
 31
0.0
  0
LINE
  5
39D
  8
0
 62
     7
 10
78.299199999999999
 20
119.27800000000001
 30
0.0
 11
78.399500000000003
 21
119.178
 31
0.0
  0
LINE
  5
39E
  8
0
 62
     7
 10
78.799099999999996
 20
119.178
 30
0.0
 11
78.399500000000003
 21
119.178
 31
0.0
  0
LINE
  5
39F
  8
0
 62
     7
 10
78.8994
 20
119.27800000000001
 30
0.0
 11
78.299199999999999
 21
119.27800000000001
 31
0.0
  0
LINE
  5
3A0
  8
0
  6
AIGENLINE002
 62
     7
 10
150.869
 20
126.128
 30
0.0
 11
150.869
 21
127.629
 31
0.0
  0
LINE
  5
3A1
  8
0
  6
AIGENLINE002
 62
     7
 10
145.869
 20
126.128
 30
0.0
 11
145.869
 21
127.629
 31
0.0
  0
LINE
  5
3A2
  8
0
  6
AIGENLINE002
 62
     7
 10
137.369
 20
126.128
 30
0.0
 11
137.369
 21
127.629
 31
0.0
  0
LINE
  5
3A3
  8
0
  6
AIGENLINE002
 62
     7
 10
153.869
 20
121.628
 30
0.0
 11
158.524
 21
121.628
 31
0.0
  0
LINE
  5
3A4
  8
0
  6
AIGENLINE002
 62
     7
 10
153.869
 20
124.129
 30
0.0
 11
158.50299999999999
 21
124.129
 31
0.0
  0
LINE
  5
3A5
  8
0
  6
AIGENLINE002
 62
     7
 10
153.869
 20
115.628
 30
0.0
 11
158.5449999999999
 21
115.628
 31
0.0
  0
LINE
  5
3A6
  8
0
  6
AIGENLINE002
 62
     7
 10
142.369
 20
153.78399999999999
 30
0.0
 11
142.369
 21
92.438699999999983
 31
0.0
  0
LINE
  5
3A7
  8
0
  6
AIGENLINE002
 62
     7
 10
78.601699999999994
 20
135.62700000000001
 30
0.0
 11
78.601699999999994
 21
117.53
 31
0.0
  0
LINE
  5
3A8
  8
0
  6
AIGENLINE002
 62
     7
 10
78.601699999999994
 20
212.43000000000001
 30
0.0
 11
78.601699999999994
 21
205.36600000000001
 31
0.0
  0
LINE
  5
3A9
  8
0
  6
AIGENLINE002
 62
     7
 10
103.352
 20
121.628
 30
0.0
 11
101.803
 21
121.628
 31
0.0
  0
LINE
  5
3AA
  8
0
  6
AIGENLINE002
 62
     7
 10
102.602
 20
122.379
 30
0.0
 11
102.602
 21
120.879
 31
0.0
  0
LINE
  5
3AB
  8
0
  6
AIGENLINE002
 62
     7
 10
104.003
 20
124.879
 30
0.0
 11
104.003
 21
123.379
 31
0.0
  0
LINE
  5
3AC
  8
0
  6
AIGENLINE002
 62
     7
 10
104.753
 20
124.129
 30
0.0
 11
103.253
 21
124.129
 31
0.0
  0
LINE
  5
3AD
  8
0
  6
AIGENLINE002
 62
     7
 10
104.053
 20
115.628
 30
0.0
 11
102.553
 21
115.628
 31
0.0
  0
LINE
  5
3AE
  8
0
  6
AIGENLINE002
 62
     7
 10
103.303
 20
127.965
 30
0.0
 11
103.303
 21
111.461
 31
0.0
  0
LINE
  5
3AF
  8
0
  6
AIGENLINE002
 62
     7
 10
50.95259999999999
 20
121.628
 30
0.0
 11
49.40229999999999
 21
121.628
 31
0.0
  0
LINE
  5
3B0
  8
0
  6
AIGENLINE002
 62
     7
 10
50.202599999999997
 20
122.379
 30
0.0
 11
50.202599999999997
 21
120.879
 31
0.0
  0
LINE
  5
3B1
  8
0
  6
AIGENLINE002
 62
     7
 10
51.6023
 20
124.879
 30
0.0
 11
51.6023
 21
123.379
 31
0.0
  0
LINE
  5
3B2
  8
0
  6
AIGENLINE002
 62
     7
 10
52.3523
 20
124.129
 30
0.0
 11
50.8523
 21
124.129
 31
0.0
  0
LINE
  5
3B3
  8
0
  6
AIGENLINE002
 62
     7
 10
51.652299999999997
 20
115.628
 30
0.0
 11
50.1526
 21
115.628
 31
0.0
  0
LINE
  5
3B4
  8
0
  6
AIGENLINE002
 62
     7
 10
50.902299999999997
 20
127.965
 30
0.0
 11
50.902299999999997
 21
111.461
 31
0.0
  0
LINE
  5
3B5
  8
0
  6
AIGENLINE002
 62
     7
 10
50.902299999999997
 20
222.631
 30
0.0
 11
50.902299999999997
 21
199.93100000000001
 31
0.0
  0
LINE
  5
3B6
  8
0
  6
AIGENLINE002
 62
     7
 10
51.652299999999997
 20
203.898
 30
0.0
 11
50.1526
 21
203.898
 31
0.0
  0
LINE
  5
3B7
  8
0
  6
AIGENLINE002
 62
     7
 10
50.202599999999997
 20
218.148
 30
0.0
 11
50.202599999999997
 21
216.648
 31
0.0
  0
LINE
  5
3B8
  8
0
  6
AIGENLINE002
 62
     7
 10
51.6023
 20
213.148
 30
0.0
 11
51.6023
 21
211.648
 31
0.0
  0
LINE
  5
3B9
  8
0
  6
AIGENLINE002
 62
     7
 10
52.3523
 20
212.398
 30
0.0
 11
50.8523
 21
212.398
 31
0.0
  0
LINE
  5
3BA
  8
0
  6
AIGENLINE002
 62
     7
 10
50.95259999999999
 20
217.398
 30
0.0
 11
49.452199999999991
 21
217.398
 31
0.0
  0
LINE
  5
3BB
  8
0
  6
AIGENLINE002
 62
     7
 10
103.303
 20
222.631
 30
0.0
 11
103.303
 21
199.93100000000001
 31
0.0
  0
LINE
  5
3BC
  8
0
  6
AIGENLINE002
 62
     7
 10
104.053
 20
203.898
 30
0.0
 11
102.553
 21
203.898
 31
0.0
  0
LINE
  5
3BD
  8
0
  6
AIGENLINE002
 62
     7
 10
102.602
 20
218.148
 30
0.0
 11
102.602
 21
216.648
 31
0.0
  0
LINE
  5
3BE
  8
0
  6
AIGENLINE002
 62
     7
 10
104.003
 20
213.148
 30
0.0
 11
104.003
 21
211.648
 31
0.0
  0
LINE
  5
3BF
  8
0
  6
AIGENLINE002
 62
     7
 10
104.753
 20
212.398
 30
0.0
 11
103.253
 21
212.398
 31
0.0
  0
LINE
  5
3C0
  8
0
  6
AIGENLINE002
 62
     7
 10
103.352
 20
217.398
 30
0.0
 11
101.85299999999999
 21
217.398
 31
0.0
  0
LINE
  5
3C1
  8
0
  6
AIGENLINE002
 62
     7
 10
94.602599999999995
 20
212.648
 30
0.0
 11
94.602599999999995
 21
205.36600000000001
 31
0.0
  0
LINE
  5
3C2
  8
0
  6
AIGENLINE002
 62
     7
 10
94.602599999999995
 20
146.155
 30
0.0
 11
94.602599999999995
 21
125.401
 31
0.0
  0
LINE
  5
3C3
  8
0
  6
AIGENLINE002
 62
     7
 10
109.178
 20
208.898
 30
0.0
 11
45.602299999999993
 21
208.898
 31
0.0
  0
LINE
  5
3C4
  8
0
 62
     7
 10
82.210499999999996
 20
206.12700000000001
 30
0.0
 11
80.227800000000002
 21
207.27199999999999
 31
0.0
  0
LINE
  5
3C5
  8
0
 62
     7
 10
80.227800000000002
 20
207.27199999999999
 30
0.0
 11
81.372299999999996
 21
205.28899999999999
 31
0.0
  0
LINE
  5
3C6
  8
0
 62
     7
 10
81.372299999999996
 20
205.28899999999999
 30
0.0
 11
82.210499999999996
 21
206.12700000000001
 31
0.0
  0
LINE
  5
3C7
  8
0
 62
     7
 10
74.992599999999996
 20
211.66900000000001
 30
0.0
 11
76.974900000000005
 21
210.524
 31
0.0
  0
LINE
  5
3C8
  8
0
 62
     7
 10
76.974900000000005
 20
210.524
 30
0.0
 11
75.830500000000001
 21
212.50700000000001
 31
0.0
  0
LINE
  5
3C9
  8
0
 62
     7
 10
75.830500000000001
 20
212.50700000000001
 30
0.0
 11
74.992599999999996
 21
211.66900000000001
 31
0.0
  0
LINE
  5
3CA
  8
0
 62
     7
 10
82.292100000000005
 20
205.20699999999999
 30
0.0
 11
64.971500000000006
 21
222.52799999999999
 31
0.0
  0
LINE
  5
3CB
  8
0
 62
     7
 10
64.971500000000006
 20
222.52799999999999
 30
0.0
 11
59.303899999999999
 21
222.52799999999999
 31
0.0
  0
LINE
  5
3CC
  8
0
 62
     7
 10
42.134099999999989
 20
217.90100000000001
 30
0.0
 11
42.134099999999989
 21
199.89500000000001
 31
0.0
  0
LINE
  5
3CD
  8
0
 62
     7
 10
60.199599999999997
 20
199.89500000000001
 30
0.0
 11
41.434100000000001
 21
199.89500000000001
 31
0.0
  0
LINE
  5
3CE
  8
0
 62
     7
 10
60.199599999999997
 20
217.90100000000001
 30
0.0
 11
41.434100000000001
 21
217.90100000000001
 31
0.0
  0
LINE
  5
3CF
  8
0
 62
     7
 10
42.726700000000001
 20
215.69
 30
0.0
 11
42.134099999999989
 21
217.90100000000001
 31
0.0
  0
LINE
  5
3D0
  8
0
 62
     7
 10
42.134099999999989
 20
217.90100000000001
 30
0.0
 11
41.541600000000003
 21
215.69
 31
0.0
  0
LINE
  5
3D1
  8
0
 62
     7
 10
41.541600000000003
 20
215.69
 30
0.0
 11
42.726700000000001
 21
215.69
 31
0.0
  0
LINE
  5
3D2
  8
0
 62
     7
 10
41.541600000000003
 20
202.107
 30
0.0
 11
42.134099999999989
 21
199.89500000000001
 31
0.0
  0
LINE
  5
3D3
  8
0
 62
     7
 10
42.134099999999989
 20
199.89500000000001
 30
0.0
 11
42.726700000000001
 21
202.107
 31
0.0
  0
LINE
  5
3D4
  8
0
 62
     7
 10
42.726700000000001
 20
202.107
 30
0.0
 11
41.541600000000003
 21
202.107
 31
0.0
  0
LINE
  5
3D5
  8
0
 62
     7
 10
36.664999999999999
 20
219.18600000000001
 30
0.0
 11
36.072400000000002
 21
221.398
 31
0.0
  0
LINE
  5
3D6
  8
0
 62
     7
 10
36.072400000000002
 20
221.398
 30
0.0
 11
35.479900000000001
 21
219.18600000000001
 31
0.0
  0
LINE
  5
3D7
  8
0
 62
     7
 10
35.479900000000001
 20
219.18600000000001
 30
0.0
 11
36.664999999999999
 21
219.18600000000001
 31
0.0
  0
LINE
  5
3D8
  8
0
 62
     7
 10
35.479900000000001
 20
198.61000000000001
 30
0.0
 11
36.072400000000002
 21
196.398
 31
0.0
  0
LINE
  5
3D9
  8
0
 62
     7
 10
36.072400000000002
 20
196.398
 30
0.0
 11
36.664999999999999
 21
198.61000000000001
 31
0.0
  0
LINE
  5
3DA
  8
0
 62
     7
 10
36.664999999999999
 20
198.61000000000001
 30
0.0
 11
35.479900000000001
 21
198.61000000000001
 31
0.0
  0
LINE
  5
3DB
  8
0
 62
     7
 10
36.072400000000002
 20
221.398
 30
0.0
 11
36.072400000000002
 21
196.398
 31
0.0
  0
LINE
  5
3DC
  8
0
 62
     7
 10
46.902200000000001
 20
196.398
 30
0.0
 11
35.372399999999999
 21
196.398
 31
0.0
  0
LINE
  5
3DD
  8
0
 62
     7
 10
46.902200000000001
 20
221.398
 30
0.0
 11
35.372399999999999
 21
221.398
 31
0.0
  0
LINE
  5
3DE
  8
0
 62
     7
 10
62.805900000000001
 20
184.18899999999999
 30
0.0
 11
60.5944
 21
183.596
 31
0.0
  0
LINE
  5
3DF
  8
0
 62
     7
 10
60.5944
 20
183.596
 30
0.0
 11
62.805900000000001
 21
183.00399999999999
 31
0.0
  0
LINE
  5
3E0
  8
0
 62
     7
 10
62.805900000000001
 20
183.00399999999999
 30
0.0
 11
62.805900000000001
 21
184.18899999999999
 31
0.0
  0
LINE
  5
3E1
  8
0
 62
     7
 10
58.383000000000003
 20
183.00399999999999
 30
0.0
 11
60.5944
 21
183.596
 31
0.0
  0
LINE
  5
3E2
  8
0
 62
     7
 10
60.5944
 20
183.596
 30
0.0
 11
58.383000000000003
 21
184.18899999999999
 31
0.0
  0
LINE
  5
3E3
  8
0
 62
     7
 10
58.383000000000003
 20
184.18899999999999
 30
0.0
 11
58.383000000000003
 21
183.00399999999999
 31
0.0
  0
LINE
  5
3E4
  8
0
 62
     7
 10
92.816999999999993
 20
184.18899999999999
 30
0.0
 11
90.605199999999996
 21
183.596
 31
0.0
  0
LINE
  5
3E5
  8
0
 62
     7
 10
90.605199999999996
 20
183.596
 30
0.0
 11
92.816999999999993
 21
183.00399999999999
 31
0.0
  0
LINE
  5
3E6
  8
0
 62
     7
 10
92.816999999999993
 20
183.00399999999999
 30
0.0
 11
92.816999999999993
 21
184.18899999999999
 31
0.0
  0
LINE
  5
3E7
  8
0
 62
     7
 10
88.393399999999986
 20
183.00399999999999
 30
0.0
 11
90.605199999999996
 21
183.596
 31
0.0
  0
LINE
  5
3E8
  8
0
 62
     7
 10
90.605199999999996
 20
183.596
 30
0.0
 11
88.393399999999986
 21
184.18899999999999
 31
0.0
  0
LINE
  5
3E9
  8
0
 62
     7
 10
88.393399999999986
 20
184.18899999999999
 30
0.0
 11
88.393399999999986
 21
183.00399999999999
 31
0.0
  0
LINE
  5
3EA
  8
0
 62
     7
 10
80.813500000000005
 20
190.11099999999999
 30
0.0
 11
78.601699999999994
 21
189.518
 31
0.0
  0
LINE
  5
3EB
  8
0
 62
     7
 10
78.601699999999994
 20
189.518
 30
0.0
 11
80.813500000000005
 21
188.92599999999999
 31
0.0
  0
LINE
  5
3EC
  8
0
 62
     7
 10
80.813500000000005
 20
188.92599999999999
 30
0.0
 11
80.813500000000005
 21
190.11099999999999
 31
0.0
  0
LINE
  5
3ED
  8
0
 62
     7
 10
62.81069999999999
 20
190.11099999999999
 30
0.0
 11
60.599299999999999
 21
189.518
 31
0.0
  0
LINE
  5
3EE
  8
0
 62
     7
 10
60.599299999999999
 20
189.518
 30
0.0
 11
62.81069999999999
 21
188.92599999999999
 31
0.0
  0
LINE
  5
3EF
  8
0
 62
     7
 10
62.81069999999999
 20
188.92599999999999
 30
0.0
 11
62.81069999999999
 21
190.11099999999999
 31
0.0
  0
LINE
  5
3F0
  8
0
 62
     7
 10
76.390000000000001
 20
188.92599999999999
 30
0.0
 11
78.601699999999994
 21
189.518
 31
0.0
  0
LINE
  5
3F1
  8
0
 62
     7
 10
78.601699999999994
 20
189.518
 30
0.0
 11
76.390000000000001
 21
190.11099999999999
 31
0.0
  0
LINE
  5
3F2
  8
0
 62
     7
 10
76.390000000000001
 20
190.11099999999999
 30
0.0
 11
76.390000000000001
 21
188.92599999999999
 31
0.0
  0
LINE
  5
3F3
  8
0
 62
     7
 10
88.393399999999986
 20
188.92599999999999
 30
0.0
 11
90.605199999999996
 21
189.518
 31
0.0
  0
LINE
  5
3F4
  8
0
 62
     7
 10
90.605199999999996
 20
189.518
 30
0.0
 11
88.393399999999986
 21
190.11099999999999
 31
0.0
  0
LINE
  5
3F5
  8
0
 62
     7
 10
88.393399999999986
 20
190.11099999999999
 30
0.0
 11
88.393399999999986
 21
188.92599999999999
 31
0.0
  0
LINE
  5
3F6
  8
0
 62
     7
 10
60.599299999999999
 20
189.518
 30
0.0
 11
90.605199999999996
 21
189.518
 31
0.0
  0
LINE
  5
3F7
  8
0
 62
     7
 10
78.601699999999994
 20
204.666
 30
0.0
 11
78.601699999999994
 21
188.81800000000001
 31
0.0
  0
LINE
  5
3F8
  8
0
 62
     7
 10
49.813600000000001
 20
184.18899999999999
 30
0.0
 11
47.602200000000003
 21
183.596
 31
0.0
  0
LINE
  5
3F9
  8
0
 62
     7
 10
47.602200000000003
 20
183.596
 30
0.0
 11
49.813600000000001
 21
183.00399999999999
 31
0.0
  0
LINE
  5
3FA
  8
0
 62
     7
 10
49.813600000000001
 20
183.00399999999999
 30
0.0
 11
49.813600000000001
 21
184.18899999999999
 31
0.0
  0
LINE
  5
3FB
  8
0
 62
     7
 10
104.39100000000001
 20
183.00399999999999
 30
0.0
 11
106.602
 21
183.596
 31
0.0
  0
LINE
  5
3FC
  8
0
 62
     7
 10
106.602
 20
183.596
 30
0.0
 11
104.39100000000001
 21
184.18899999999999
 31
0.0
  0
LINE
  5
3FD
  8
0
 62
     7
 10
104.39100000000001
 20
184.18899999999999
 30
0.0
 11
104.39100000000001
 21
183.00399999999999
 31
0.0
  0
LINE
  5
3FE
  8
0
 62
     7
 10
47.602200000000003
 20
183.596
 30
0.0
 11
106.602
 21
183.596
 31
0.0
  0
LINE
  5
3FF
  8
0
 62
     7
 10
47.602200000000003
 20
195.69800000000001
 30
0.0
 11
47.602200000000003
 21
176.86799999999999
 31
0.0
  0
LINE
  5
400
  8
0
 62
     7
 10
90.605199999999996
 20
199.495
 30
0.0
 11
90.605199999999996
 21
182.89599999999999
 31
0.0
  0
LINE
  5
401
  8
0
 62
     7
 10
60.5944
 20
199.495
 30
0.0
 11
60.5944
 21
182.89599999999999
 31
0.0
  0
LINE
  5
402
  8
0
 62
     7
 10
49.813600000000001
 20
178.16
 30
0.0
 11
47.602200000000003
 21
177.56800000000001
 31
0.0
  0
LINE
  5
403
  8
0
 62
     7
 10
47.602200000000003
 20
177.56800000000001
 30
0.0
 11
49.813600000000001
 21
176.97499999999999
 31
0.0
  0
LINE
  5
404
  8
0
 62
     7
 10
49.813600000000001
 20
176.97499999999999
 30
0.0
 11
49.813600000000001
 21
178.16
 31
0.0
  0
LINE
  5
405
  8
0
 62
     7
 10
104.39100000000001
 20
176.97499999999999
 30
0.0
 11
106.602
 21
177.56800000000001
 31
0.0
  0
LINE
  5
406
  8
0
 62
     7
 10
106.602
 20
177.56800000000001
 30
0.0
 11
104.39100000000001
 21
178.16
 31
0.0
  0
LINE
  5
407
  8
0
 62
     7
 10
104.39100000000001
 20
178.16
 30
0.0
 11
104.39100000000001
 21
176.97499999999999
 31
0.0
  0
LINE
  5
408
  8
0
 62
     7
 10
47.602200000000003
 20
177.56800000000001
 30
0.0
 11
106.602
 21
177.56800000000001
 31
0.0
  0
LINE
  5
409
  8
0
 62
     7
 10
106.602
 20
195.69800000000001
 30
0.0
 11
106.602
 21
176.86799999999999
 31
0.0
  0
LINE
  5
40A
  8
0
 62
     7
 10
114.188
 20
194.18700000000001
 30
0.0
 11
113.596
 21
196.398
 31
0.0
  0
LINE
  5
40B
  8
0
 62
     7
 10
113.596
 20
196.398
 30
0.0
 11
113.003
 21
194.18700000000001
 31
0.0
  0
LINE
  5
40C
  8
0
 62
     7
 10
113.003
 20
194.18700000000001
 30
0.0
 11
114.188
 21
194.18700000000001
 31
0.0
  0
LINE
  5
40D
  8
0
 62
     7
 10
113.003
 20
200.41
 30
0.0
 11
113.596
 21
198.19800000000001
 31
0.0
  0
LINE
  5
40E
  8
0
 62
     7
 10
113.596
 20
198.19800000000001
 30
0.0
 11
114.188
 21
200.41
 31
0.0
  0
LINE
  5
40F
  8
0
 62
     7
 10
114.188
 20
200.41
 30
0.0
 11
113.003
 21
200.41
 31
0.0
  0
LINE
  5
410
  8
0
 62
     7
 10
113.596
 20
201.947
 30
0.0
 11
113.596
 21
190.93599999999989
 31
0.0
  0
LINE
  5
411
  8
0
 62
     7
 10
107.303
 20
196.398
 30
0.0
 11
114.29600000000001
 21
196.398
 31
0.0
  0
LINE
  5
412
  8
0
 62
     7
 10
105.503
 20
198.19800000000001
 30
0.0
 11
114.29600000000001
 21
198.19800000000001
 31
0.0
  0
LINE
  5
413
  8
0
 62
     7
 10
102.59099999999999
 20
228.17400000000001
 30
0.0
 11
104.803
 21
228.767
 31
0.0
  0
LINE
  5
414
  8
0
 62
     7
 10
104.803
 20
228.767
 30
0.0
 11
102.59099999999999
 21
229.36000000000001
 31
0.0
  0
LINE
  5
415
  8
0
 62
     7
 10
102.59099999999999
 20
229.36000000000001
 30
0.0
 11
102.59099999999999
 21
228.17400000000001
 31
0.0
  0
LINE
  5
416
  8
0
 62
     7
 10
108.81399999999999
 20
229.292
 30
0.0
 11
106.602
 21
228.69900000000001
 31
0.0
  0
LINE
  5
417
  8
0
 62
     7
 10
106.602
 20
228.69900000000001
 30
0.0
 11
108.81399999999999
 21
228.10599999999999
 31
0.0
  0
LINE
  5
418
  8
0
 62
     7
 10
108.81399999999999
 20
228.10599999999999
 30
0.0
 11
108.81399999999999
 21
229.292
 31
0.0
  0
LINE
  5
419
  8
0
 62
     7
 10
100.014
 20
229.36000000000001
 30
0.0
 11
97.802400000000006
 21
228.767
 31
0.0
  0
LINE
  5
41A
  8
0
 62
     7
 10
97.802400000000006
 20
228.767
 30
0.0
 11
100.014
 21
228.17400000000001
 31
0.0
  0
LINE
  5
41B
  8
0
 62
     7
 10
100.014
 20
228.17400000000001
 30
0.0
 11
100.014
 21
229.36000000000001
 31
0.0
  0
LINE
  5
41C
  8
0
 62
     7
 10
112.583
 20
228.767
 30
0.0
 11
97.802400000000006
 21
228.767
 31
0.0
  0
LINE
  5
41D
  8
0
 62
     7
 10
97.802400000000006
 20
222.09800000000001
 30
0.0
 11
97.802400000000006
 21
229.46700000000001
 31
0.0
  0
LINE
  5
41E
  8
0
 62
     7
 10
51.614100000000001
 20
229.36000000000001
 30
0.0
 11
49.40229999999999
 21
228.767
 31
0.0
  0
LINE
  5
41F
  8
0
 62
     7
 10
49.40229999999999
 20
228.767
 30
0.0
 11
51.614100000000001
 21
228.17400000000001
 31
0.0
  0
LINE
  5
420
  8
0
 62
     7
 10
51.614100000000001
 20
228.17400000000001
 30
0.0
 11
51.614100000000001
 21
229.36000000000001
 31
0.0
  0
LINE
  5
421
  8
0
 62
     7
 10
45.390799999999999
 20
228.17400000000001
 30
0.0
 11
47.602200000000003
 21
228.767
 31
0.0
  0
LINE
  5
422
  8
0
 62
     7
 10
47.602200000000003
 20
228.767
 30
0.0
 11
45.390799999999999
 21
229.36000000000001
 31
0.0
  0
LINE
  5
423
  8
0
 62
     7
 10
45.390799999999999
 20
229.36000000000001
 30
0.0
 11
45.390799999999999
 21
228.17400000000001
 31
0.0
  0
LINE
  5
424
  8
0
 62
     7
 10
54.191000000000003
 20
228.17400000000001
 30
0.0
 11
56.4024
 21
228.767
 31
0.0
  0
LINE
  5
425
  8
0
 62
     7
 10
56.4024
 20
228.767
 30
0.0
 11
54.191000000000003
 21
229.36000000000001
 31
0.0
  0
LINE
  5
426
  8
0
 62
     7
 10
54.191000000000003
 20
229.36000000000001
 30
0.0
 11
54.191000000000003
 21
228.17400000000001
 31
0.0
  0
LINE
  5
427
  8
0
 62
     7
 10
41.163600000000002
 20
228.767
 30
0.0
 11
56.4024
 21
228.767
 31
0.0
  0
LINE
  5
428
  8
0
 62
     7
 10
56.4024
 20
222.09800000000001
 30
0.0
 11
56.4024
 21
229.46700000000001
 31
0.0
  0
LINE
  5
429
  8
0
 62
     7
 10
104.39100000000001
 20
244.69499999999999
 30
0.0
 11
106.602
 21
245.28800000000001
 31
0.0
  0
LINE
  5
42A
  8
0
 62
     7
 10
106.602
 20
245.28800000000001
 30
0.0
 11
104.39100000000001
 21
245.88
 31
0.0
  0
LINE
  5
42B
  8
0
 62
     7
 10
104.39100000000001
 20
245.88
 30
0.0
 11
104.39100000000001
 21
244.69499999999999
 31
0.0
  0
LINE
  5
42C
  8
0
 62
     7
 10
49.813600000000001
 20
245.88
 30
0.0
 11
47.602200000000003
 21
245.28800000000001
 31
0.0
  0
LINE
  5
42D
  8
0
 62
     7
 10
47.602200000000003
 20
245.28800000000001
 30
0.0
 11
49.813600000000001
 21
244.69499999999999
 31
0.0
  0
LINE
  5
42E
  8
0
 62
     7
 10
49.813600000000001
 20
244.69499999999999
 30
0.0
 11
49.813600000000001
 21
245.88
 31
0.0
  0
LINE
  5
42F
  8
0
 62
     7
 10
106.602
 20
245.28800000000001
 30
0.0
 11
47.602200000000003
 21
245.28800000000001
 31
0.0
  0
LINE
  5
430
  8
0
 62
     7
 10
76.391300000000001
 20
244.69499999999999
 30
0.0
 11
78.602400000000003
 21
245.28800000000001
 31
0.0
  0
LINE
  5
431
  8
0
 62
     7
 10
78.602400000000003
 20
245.28800000000001
 30
0.0
 11
76.391300000000001
 21
245.88
 31
0.0
  0
LINE
  5
432
  8
0
 62
     7
 10
76.391300000000001
 20
245.88
 30
0.0
 11
76.391300000000001
 21
244.69499999999999
 31
0.0
  0
LINE
  5
433
  8
0
 62
     7
 10
80.814199999999985
 20
245.88
 30
0.0
 11
78.602400000000003
 21
245.28800000000001
 31
0.0
  0
LINE
  5
434
  8
0
 62
     7
 10
78.602400000000003
 20
245.28800000000001
 30
0.0
 11
80.814199999999985
 21
244.69499999999999
 31
0.0
  0
LINE
  5
435
  8
0
 62
     7
 10
80.814199999999985
 20
244.69499999999999
 30
0.0
 11
80.814199999999985
 21
245.88
 31
0.0
  0
LINE
  5
436
  8
0
 62
     7
 10
88.391400000000004
 20
238.52099999999999
 30
0.0
 11
90.602400000000003
 21
239.114
 31
0.0
  0
LINE
  5
437
  8
0
 62
     7
 10
90.602400000000003
 20
239.114
 30
0.0
 11
88.391400000000004
 21
239.70599999999999
 31
0.0
  0
LINE
  5
438
  8
0
 62
     7
 10
88.391400000000004
 20
239.70599999999999
 30
0.0
 11
88.391400000000004
 21
238.52099999999999
 31
0.0
  0
LINE
  5
439
  8
0
 62
     7
 10
104.39100000000001
 20
238.52099999999999
 30
0.0
 11
106.602
 21
239.114
 31
0.0
  0
LINE
  5
43A
  8
0
 62
     7
 10
106.602
 20
239.114
 30
0.0
 11
104.39100000000001
 21
239.70599999999999
 31
0.0
  0
LINE
  5
43B
  8
0
 62
     7
 10
104.39100000000001
 20
239.70599999999999
 30
0.0
 11
104.39100000000001
 21
238.52099999999999
 31
0.0
  0
LINE
  5
43C
  8
0
 62
     7
 10
96.813999999999993
 20
239.70599999999999
 30
0.0
 11
94.602599999999995
 21
239.114
 31
0.0
  0
LINE
  5
43D
  8
0
 62
     7
 10
94.602599999999995
 20
239.114
 30
0.0
 11
96.813999999999993
 21
238.52099999999999
 31
0.0
  0
LINE
  5
43E
  8
0
 62
     7
 10
96.813999999999993
 20
238.52099999999999
 30
0.0
 11
96.813999999999993
 21
239.70599999999999
 31
0.0
  0
LINE
  5
43F
  8
0
 62
     7
 10
106.602
 20
239.114
 30
0.0
 11
84.693700000000007
 21
239.114
 31
0.0
  0
LINE
  5
440
  8
0
 62
     7
 10
106.602
 20
222.09800000000001
 30
0.0
 11
106.602
 21
245.988
 31
0.0
  0
LINE
  5
441
  8
0
 62
     7
 10
90.602400000000003
 20
218.82400000000001
 30
0.0
 11
90.602400000000003
 21
230.512
 31
0.0
  0
LINE
  5
442
  8
0
 62
     7
 10
90.602400000000003
 20
236.56800000000001
 30
0.0
 11
90.602400000000003
 21
239.81399999999999
 31
0.0
  0
LINE
  5
443
  8
0
 62
     7
 10
94.602599999999995
 20
213.34800000000001
 30
0.0
 11
94.602599999999995
 21
230.613
 31
0.0
  0
LINE
  5
444
  8
0
 62
     7
 10
94.602599999999995
 20
236.46700000000001
 30
0.0
 11
94.602599999999995
 21
239.81399999999999
 31
0.0
  0
LINE
  5
445
  8
0
 62
     7
 10
104.803
 20
222.09800000000001
 30
0.0
 11
104.803
 21
229.46700000000001
 31
0.0
  0
LINE
  5
446
  8
0
 62
     7
 10
49.40229999999999
 20
222.09800000000001
 30
0.0
 11
49.40229999999999
 21
229.46700000000001
 31
0.0
  0
LINE
  5
447
  8
0
 62
     7
 10
78.602400000000003
 20
212.81700000000001
 30
0.0
 11
78.602400000000003
 21
245.988
 31
0.0
  0
LINE
  5
448
  8
0
 62
     7
 10
47.602200000000003
 20
222.09800000000001
 30
0.0
 11
47.602200000000003
 21
245.988
 31
0.0
  0
LINE
  5
449
  8
0
 62
     7
 10
97.016599999999997
 20
130.98099999999999
 30
0.0
 11
96.001999999999995
 21
128.929
 31
0.0
  0
LINE
  5
44A
  8
0
 62
     7
 10
96.001999999999995
 20
128.929
 30
0.0
 11
97.9071
 21
130.1989999999999
 31
0.0
  0
LINE
  5
44B
  8
0
 62
     7
 10
97.9071
 20
130.1989999999999
 30
0.0
 11
97.016599999999997
 21
130.98099999999999
 31
0.0
  0
LINE
  5
44C
  8
0
 62
     7
 10
96.001999999999995
 20
128.929
 30
0.0
 11
106.009
 21
140.46299999999999
 31
0.0
  0
LINE
  5
44D
  8
0
 62
     7
 10
75.816999999999993
 20
144.32900000000001
 30
0.0
 11
75.816999999999993
 21
128.929
 31
0.0
  0
LINE
  5
44E
  8
0
 62
     7
 10
82.821700000000007
 20
144.32900000000001
 30
0.0
 11
75.117000000000004
 21
144.32900000000001
 31
0.0
  0
LINE
  5
44F
  8
0
 62
     7
 10
76.409599999999983
 20
142.11799999999999
 30
0.0
 11
75.816999999999993
 21
144.32900000000001
 31
0.0
  0
LINE
  5
450
  8
0
 62
     7
 10
75.816999999999993
 20
144.32900000000001
 30
0.0
 11
75.224500000000006
 21
142.11799999999999
 31
0.0
  0
LINE
  5
451
  8
0
 62
     7
 10
75.224500000000006
 20
142.11799999999999
 30
0.0
 11
76.409599999999983
 21
142.11799999999999
 31
0.0
  0
LINE
  5
452
  8
0
 62
     7
 10
75.224500000000006
 20
131.13999999999999
 30
0.0
 11
75.816999999999993
 21
128.929
 31
0.0
  0
LINE
  5
453
  8
0
 62
     7
 10
75.816999999999993
 20
128.929
 30
0.0
 11
76.409599999999983
 21
131.13999999999999
 31
0.0
  0
LINE
  5
454
  8
0
 62
     7
 10
76.409599999999983
 20
131.13999999999999
 30
0.0
 11
75.224500000000006
 21
131.13999999999999
 31
0.0
  0
LINE
  5
455
  8
0
 62
     7
 10
69.716800000000006
 20
144.62299999999999
 30
0.0
 11
69.716800000000006
 21
128.929
 31
0.0
  0
LINE
  5
456
  8
0
 62
     7
 10
82.055099999999996
 20
144.62299999999999
 30
0.0
 11
69.0167
 21
144.62299999999999
 31
0.0
  0
LINE
  5
457
  8
0
 62
     7
 10
70.309299999999993
 20
142.411
 30
0.0
 11
69.716800000000006
 21
144.62299999999999
 31
0.0
  0
LINE
  5
458
  8
0
 62
     7
 10
69.716800000000006
 20
144.62299999999999
 30
0.0
 11
69.124200000000002
 21
142.411
 31
0.0
  0
LINE
  5
459
  8
0
 62
     7
 10
69.124200000000002
 20
142.411
 30
0.0
 11
70.309299999999993
 21
142.411
 31
0.0
  0
LINE
  5
45A
  8
0
 62
     7
 10
69.124200000000002
 20
131.13999999999999
 30
0.0
 11
69.716800000000006
 21
128.929
 31
0.0
  0
LINE
  5
45B
  8
0
 62
     7
 10
69.716800000000006
 20
128.929
 30
0.0
 11
70.309299999999993
 21
131.13999999999999
 31
0.0
  0
LINE
  5
45C
  8
0
 62
     7
 10
70.309299999999993
 20
131.13999999999999
 30
0.0
 11
69.124200000000002
 21
131.13999999999999
 31
0.0
  0
LINE
  5
45D
  8
0
 62
     7
 10
40.841900000000003
 20
132.71799999999999
 30
0.0
 11
40.249299999999998
 21
134.929
 31
0.0
  0
LINE
  5
45E
  8
0
 62
     7
 10
40.249299999999998
 20
134.929
 30
0.0
 11
39.656700000000001
 21
132.71799999999999
 31
0.0
  0
LINE
  5
45F
  8
0
 62
     7
 10
39.656700000000001
 20
132.71799999999999
 30
0.0
 11
40.841900000000003
 21
132.71799999999999
 31
0.0
  0
LINE
  5
460
  8
0
 62
     7
 10
40.841900000000003
 20
126.718
 30
0.0
 11
40.249299999999998
 21
128.929
 31
0.0
  0
LINE
  5
461
  8
0
 62
     7
 10
40.249299999999998
 20
128.929
 30
0.0
 11
39.656700000000001
 21
126.718
 31
0.0
  0
LINE
  5
462
  8
0
 62
     7
 10
39.656700000000001
 20
126.718
 30
0.0
 11
40.841900000000003
 21
126.718
 31
0.0
  0
LINE
  5
463
  8
0
 62
     7
 10
39.656700000000001
 20
131.13999999999999
 30
0.0
 11
40.249299999999998
 21
128.929
 31
0.0
  0
LINE
  5
464
  8
0
 62
     7
 10
40.249299999999998
 20
128.929
 30
0.0
 11
40.841900000000003
 21
131.13999999999999
 31
0.0
  0
LINE
  5
465
  8
0
 62
     7
 10
40.841900000000003
 20
131.13999999999999
 30
0.0
 11
39.656700000000001
 21
131.13999999999999
 31
0.0
  0
LINE
  5
466
  8
0
 62
     7
 10
39.656700000000001
 20
123.14
 30
0.0
 11
40.249299999999998
 21
120.929
 31
0.0
  0
LINE
  5
467
  8
0
 62
     7
 10
40.249299999999998
 20
120.929
 30
0.0
 11
40.841900000000003
 21
123.14
 31
0.0
  0
LINE
  5
468
  8
0
 62
     7
 10
40.841900000000003
 20
123.14
 30
0.0
 11
39.656700000000001
 21
123.14
 31
0.0
  0
LINE
  5
469
  8
0
 62
     7
 10
57.760800000000003
 20
132.71799999999999
 30
0.0
 11
57.168300000000002
 21
134.929
 31
0.0
  0
LINE
  5
46A
  8
0
 62
     7
 10
57.168300000000002
 20
134.929
 30
0.0
 11
56.575699999999991
 21
132.71799999999999
 31
0.0
  0
LINE
  5
46B
  8
0
 62
     7
 10
56.575699999999991
 20
132.71799999999999
 30
0.0
 11
57.760800000000003
 21
132.71799999999999
 31
0.0
  0
LINE
  5
46C
  8
0
 62
     7
 10
56.575699999999991
 20
123.44
 30
0.0
 11
57.168300000000002
 21
121.229
 31
0.0
  0
LINE
  5
46D
  8
0
 62
     7
 10
57.168300000000002
 20
121.229
 30
0.0
 11
57.760800000000003
 21
123.44
 31
0.0
  0
LINE
  5
46E
  8
0
 62
     7
 10
57.760800000000003
 20
123.44
 30
0.0
 11
56.575699999999991
 21
123.44
 31
0.0
  0
LINE
  5
46F
  8
0
 62
     7
 10
57.168300000000002
 20
139.69800000000001
 30
0.0
 11
57.168300000000002
 21
121.229
 31
0.0
  0
LINE
  5
470
  8
0
 62
     7
 10
74.7273
 20
121.229
 30
0.0
 11
56.468200000000003
 21
121.229
 31
0.0
  0
LINE
  5
471
  8
0
 62
     7
 10
60.123800000000003
 20
134.929
 30
0.0
 11
39.549300000000002
 21
134.929
 31
0.0
  0
LINE
  5
472
  8
0
 62
     7
 10
40.249299999999998
 20
134.929
 30
0.0
 11
40.249299999999998
 21
120.929
 31
0.0
  0
LINE
  5
473
  8
0
 62
     7
 10
46.930100000000003
 20
120.929
 30
0.0
 11
39.549300000000002
 21
120.929
 31
0.0
  0
LINE
  5
474
  8
0
 62
     7
 10
46.930100000000003
 20
128.929
 30
0.0
 11
39.549300000000002
 21
128.929
 31
0.0
  0
LINE
  5
475
  8
0
 62
     7
 10
53.114100000000001
 20
104.708
 30
0.0
 11
50.902299999999997
 21
104.116
 31
0.0
  0
LINE
  5
476
  8
0
 62
     7
 10
50.902299999999997
 20
104.116
 30
0.0
 11
53.114100000000001
 21
103.523
 31
0.0
  0
LINE
  5
477
  8
0
 62
     7
 10
53.114100000000001
 20
103.523
 30
0.0
 11
53.114100000000001
 21
104.708
 31
0.0
  0
LINE
  5
478
  8
0
 62
     7
 10
101.09099999999999
 20
103.523
 30
0.0
 11
103.303
 21
104.116
 31
0.0
  0
LINE
  5
479
  8
0
 62
     7
 10
103.303
 20
104.116
 30
0.0
 11
101.09099999999999
 21
104.708
 31
0.0
  0
LINE
  5
47A
  8
0
 62
     7
 10
101.09099999999999
 20
104.708
 30
0.0
 11
101.09099999999999
 21
103.523
 31
0.0
  0
LINE
  5
47B
  8
0
 62
     7
 10
50.902299999999997
 20
104.116
 30
0.0
 11
103.303
 21
104.116
 31
0.0
  0
LINE
  5
47C
  8
0
 62
     7
 10
103.303
 20
110.761
 30
0.0
 11
103.303
 21
103.416
 31
0.0
  0
LINE
  5
47D
  8
0
 62
     7
 10
50.902299999999997
 20
110.761
 30
0.0
 11
50.902299999999997
 21
103.416
 31
0.0
  0
LINE
  5
47E
  8
0
 62
     7
 10
76.404399999999995
 20
117.334
 30
0.0
 11
77.204700000000003
 21
119.479
 31
0.0
  0
LINE
  5
47F
  8
0
 62
     7
 10
77.204700000000003
 20
119.479
 30
0.0
 11
75.439099999999996
 21
118.021
 31
0.0
  0
LINE
  5
480
  8
0
 62
     7
 10
75.439099999999996
 20
118.021
 30
0.0
 11
76.404399999999995
 21
117.334
 31
0.0
  0
LINE
  5
481
  8
0
 62
     7
 10
73.244600000000005
 20
113.91800000000001
 30
0.0
 11
77.204700000000003
 21
119.479
 31
0.0
  0
LINE
  5
482
  8
0
 62
     7
 10
64.234200000000001
 20
113.91800000000001
 30
0.0
 11
73.244600000000005
 21
113.91800000000001
 31
0.0
  0
LINE
  5
483
  8
0
 62
     7
 10
93.220100000000002
 20
91.283900000000017
 30
0.0
 11
94.020399999999995
 21
93.428799999999995
 31
0.0
  0
LINE
  5
484
  8
0
 62
     7
 10
94.020399999999995
 20
93.428799999999995
 30
0.0
 11
92.254699999999985
 21
91.970900000000015
 31
0.0
  0
LINE
  5
485
  8
0
 62
     7
 10
92.254699999999985
 20
91.970900000000015
 30
0.0
 11
93.220100000000002
 21
91.283900000000017
 31
0.0
  0
LINE
  5
486
  8
0
 62
     7
 10
90.060199999999995
 20
87.868399999999994
 30
0.0
 11
94.020399999999995
 21
93.428799999999995
 31
0.0
  0
LINE
  5
487
  8
0
 62
     7
 10
83.617099999999994
 20
87.868399999999994
 30
0.0
 11
90.060199999999995
 21
87.868399999999994
 31
0.0
  0
LINE
  5
488
  8
0
 62
     7
 10
154.869
 20
115.879
 30
0.0
 11
157.5689999999999
 21
115.879
 31
0.0
  0
LINE
  5
489
  8
0
 62
     7
 10
154.869
 20
115.379
 30
0.0
 11
157.5689999999999
 21
115.379
 31
0.0
  0
LINE
  5
48A
  8
0
 62
     7
 10
156.68000000000001
 20
115.879
 30
0.0
 11
156.80799999999999
 21
115.379
 31
0.0
  0
LINE
  5
48B
  8
0
 62
     7
 10
156.08000000000001
 20
115.879
 30
0.0
 11
156.208
 21
115.379
 31
0.0
  0
LINE
  5
48C
  8
0
 62
     7
 10
155.47999999999999
 20
115.879
 30
0.0
 11
155.608
 21
115.379
 31
0.0
  0
LINE
  5
48D
  8
0
 62
     7
 10
155.88
 20
115.879
 30
0.0
 11
156.00800000000001
 21
115.379
 31
0.0
  0
LINE
  5
48E
  8
0
 62
     7
 10
155.08000000000001
 20
115.879
 30
0.0
 11
155.208
 21
115.379
 31
0.0
  0
LINE
  5
48F
  8
0
 62
     7
 10
156.88
 20
115.879
 30
0.0
 11
157.00800000000001
 21
115.379
 31
0.0
  0
LINE
  5
490
  8
0
 62
     7
 10
156.47999999999999
 20
115.879
 30
0.0
 11
156.608
 21
115.379
 31
0.0
  0
LINE
  5
491
  8
0
 62
     7
 10
157.28
 20
115.879
 30
0.0
 11
157.40799999999999
 21
115.379
 31
0.0
  0
LINE
  5
492
  8
0
 62
     7
 10
155.68000000000001
 20
115.879
 30
0.0
 11
155.80799999999999
 21
115.379
 31
0.0
  0
LINE
  5
493
  8
0
 62
     7
 10
156.28
 20
115.879
 30
0.0
 11
156.40799999999999
 21
115.379
 31
0.0
  0
LINE
  5
494
  8
0
 62
     7
 10
157.08000000000001
 20
115.879
 30
0.0
 11
157.208
 21
115.379
 31
0.0
  0
LINE
  5
495
  8
0
 62
     7
 10
155.28
 20
115.879
 30
0.0
 11
155.40799999999999
 21
115.379
 31
0.0
  0
LINE
  5
496
  8
0
 62
     7
 10
157.47999999999999
 20
115.879
 30
0.0
 11
157.601
 21
115.405
 31
0.0
  0
LINE
  5
497
  8
0
 62
     7
 10
157.5689999999999
 20
115.379
 30
0.0
 11
157.87
 21
115.628
 31
0.0
  0
LINE
  5
498
  8
0
 62
     7
 10
157.5689999999999
 20
115.879
 30
0.0
 11
157.87
 21
115.628
 31
0.0
  0
LINE
  5
499
  8
0
 62
     7
 10
154.869
 20
121.879
 30
0.0
 11
157.5689999999999
 21
121.879
 31
0.0
  0
LINE
  5
49A
  8
0
 62
     7
 10
154.869
 20
121.379
 30
0.0
 11
157.5689999999999
 21
121.379
 31
0.0
  0
LINE
  5
49B
  8
0
 62
     7
 10
156.68000000000001
 20
121.879
 30
0.0
 11
156.80799999999999
 21
121.379
 31
0.0
  0
LINE
  5
49C
  8
0
 62
     7
 10
156.08000000000001
 20
121.879
 30
0.0
 11
156.208
 21
121.379
 31
0.0
  0
LINE
  5
49D
  8
0
 62
     7
 10
155.47999999999999
 20
121.879
 30
0.0
 11
155.608
 21
121.379
 31
0.0
  0
LINE
  5
49E
  8
0
 62
     7
 10
155.88
 20
121.879
 30
0.0
 11
156.00800000000001
 21
121.379
 31
0.0
  0
LINE
  5
49F
  8
0
 62
     7
 10
155.08000000000001
 20
121.879
 30
0.0
 11
155.208
 21
121.379
 31
0.0
  0
LINE
  5
4A0
  8
0
 62
     7
 10
156.88
 20
121.879
 30
0.0
 11
157.00800000000001
 21
121.379
 31
0.0
  0
LINE
  5
4A1
  8
0
 62
     7
 10
156.47999999999999
 20
121.879
 30
0.0
 11
156.608
 21
121.379
 31
0.0
  0
LINE
  5
4A2
  8
0
 62
     7
 10
157.28
 20
121.879
 30
0.0
 11
157.40799999999999
 21
121.379
 31
0.0
  0
LINE
  5
4A3
  8
0
 62
     7
 10
155.68000000000001
 20
121.879
 30
0.0
 11
155.80799999999999
 21
121.379
 31
0.0
  0
LINE
  5
4A4
  8
0
 62
     7
 10
156.28
 20
121.879
 30
0.0
 11
156.40799999999999
 21
121.379
 31
0.0
  0
LINE
  5
4A5
  8
0
 62
     7
 10
157.08000000000001
 20
121.879
 30
0.0
 11
157.208
 21
121.379
 31
0.0
  0
LINE
  5
4A6
  8
0
 62
     7
 10
155.28
 20
121.879
 30
0.0
 11
155.40799999999999
 21
121.379
 31
0.0
  0
LINE
  5
4A7
  8
0
 62
     7
 10
157.47999999999999
 20
121.879
 30
0.0
 11
157.601
 21
121.405
 31
0.0
  0
LINE
  5
4A8
  8
0
 62
     7
 10
157.5689999999999
 20
121.379
 30
0.0
 11
157.87
 21
121.629
 31
0.0
  0
LINE
  5
4A9
  8
0
 62
     7
 10
157.5689999999999
 20
121.879
 30
0.0
 11
157.87
 21
121.629
 31
0.0
  0
LINE
  5
4AA
  8
0
 62
     7
 10
154.869
 20
124.378
 30
0.0
 11
157.5689999999999
 21
124.378
 31
0.0
  0
LINE
  5
4AB
  8
0
 62
     7
 10
154.869
 20
123.879
 30
0.0
 11
157.5689999999999
 21
123.879
 31
0.0
  0
LINE
  5
4AC
  8
0
 62
     7
 10
156.68000000000001
 20
124.378
 30
0.0
 11
156.80799999999999
 21
123.879
 31
0.0
  0
LINE
  5
4AD
  8
0
 62
     7
 10
156.08000000000001
 20
124.378
 30
0.0
 11
156.208
 21
123.879
 31
0.0
  0
LINE
  5
4AE
  8
0
 62
     7
 10
155.47999999999999
 20
124.378
 30
0.0
 11
155.608
 21
123.879
 31
0.0
  0
LINE
  5
4AF
  8
0
 62
     7
 10
155.88
 20
124.378
 30
0.0
 11
156.00800000000001
 21
123.879
 31
0.0
  0
LINE
  5
4B0
  8
0
 62
     7
 10
155.08000000000001
 20
124.378
 30
0.0
 11
155.208
 21
123.879
 31
0.0
  0
LINE
  5
4B1
  8
0
 62
     7
 10
156.88
 20
124.378
 30
0.0
 11
157.00800000000001
 21
123.879
 31
0.0
  0
LINE
  5
4B2
  8
0
 62
     7
 10
156.47999999999999
 20
124.378
 30
0.0
 11
156.608
 21
123.879
 31
0.0
  0
LINE
  5
4B3
  8
0
 62
     7
 10
157.28
 20
124.378
 30
0.0
 11
157.40799999999999
 21
123.879
 31
0.0
  0
LINE
  5
4B4
  8
0
 62
     7
 10
155.68000000000001
 20
124.378
 30
0.0
 11
155.80799999999999
 21
123.879
 31
0.0
  0
LINE
  5
4B5
  8
0
 62
     7
 10
156.28
 20
124.378
 30
0.0
 11
156.40799999999999
 21
123.879
 31
0.0
  0
LINE
  5
4B6
  8
0
 62
     7
 10
157.08000000000001
 20
124.378
 30
0.0
 11
157.208
 21
123.879
 31
0.0
  0
LINE
  5
4B7
  8
0
 62
     7
 10
155.28
 20
124.378
 30
0.0
 11
155.40799999999999
 21
123.879
 31
0.0
  0
LINE
  5
4B8
  8
0
 62
     7
 10
157.47999999999999
 20
124.378
 30
0.0
 11
157.601
 21
123.905
 31
0.0
  0
LINE
  5
4B9
  8
0
 62
     7
 10
157.5689999999999
 20
123.879
 30
0.0
 11
157.87
 21
124.129
 31
0.0
  0
LINE
  5
4BA
  8
0
 62
     7
 10
157.5689999999999
 20
124.378
 30
0.0
 11
157.87
 21
124.129
 31
0.0
  0
LINE
  5
4BB
  8
0
 62
     7
 10
112.613
 20
132.917
 30
0.0
 11
112.02
 21
135.12899999999999
 31
0.0
  0
LINE
  5
4BC
  8
0
 62
     7
 10
112.02
 20
135.12899999999999
 30
0.0
 11
111.42700000000001
 21
132.917
 31
0.0
  0
LINE
  5
4BD
  8
0
 62
     7
 10
111.42700000000001
 20
132.917
 30
0.0
 11
112.613
 21
132.917
 31
0.0
  0
LINE
  5
4BE
  8
0
 62
     7
 10
111.42700000000001
 20
131.126
 30
0.0
 11
112.02
 21
128.91499999999999
 31
0.0
  0
LINE
  5
4BF
  8
0
 62
     7
 10
112.02
 20
128.91499999999999
 30
0.0
 11
112.613
 21
131.126
 31
0.0
  0
LINE
  5
4C0
  8
0
 62
     7
 10
112.613
 20
131.126
 30
0.0
 11
111.42700000000001
 21
131.126
 31
0.0
  0
LINE
  5
4C1
  8
0
 62
     7
 10
120.75700000000001
 20
126.718
 30
0.0
 11
120.164
 21
128.929
 31
0.0
  0
LINE
  5
4C2
  8
0
 62
     7
 10
120.164
 20
128.929
 30
0.0
 11
119.572
 21
126.718
 31
0.0
  0
LINE
  5
4C3
  8
0
 62
     7
 10
119.572
 20
126.718
 30
0.0
 11
120.75700000000001
 21
126.718
 31
0.0
  0
LINE
  5
4C4
  8
0
 62
     7
 10
119.572
 20
95.639899999999997
 30
0.0
 11
120.164
 21
93.428100000000001
 31
0.0
  0
LINE
  5
4C5
  8
0
 62
     7
 10
120.164
 20
93.428100000000001
 30
0.0
 11
120.75700000000001
 21
95.639899999999997
 31
0.0
  0
LINE
  5
4C6
  8
0
 62
     7
 10
120.75700000000001
 20
95.639899999999997
 30
0.0
 11
119.572
 21
95.639899999999997
 31
0.0
  0
LINE
  5
4C7
  8
0
 62
     7
 10
120.75700000000001
 20
149.81800000000001
 30
0.0
 11
120.164
 21
152.029
 31
0.0
  0
LINE
  5
4C8
  8
0
 62
     7
 10
120.164
 20
152.029
 30
0.0
 11
119.572
 21
149.81800000000001
 31
0.0
  0
LINE
  5
4C9
  8
0
 62
     7
 10
119.572
 20
149.81800000000001
 30
0.0
 11
120.75700000000001
 21
149.81800000000001
 31
0.0
  0
LINE
  5
4CA
  8
0
 62
     7
 10
119.572
 20
131.13999999999999
 30
0.0
 11
120.164
 21
128.929
 31
0.0
  0
LINE
  5
4CB
  8
0
 62
     7
 10
120.164
 20
128.929
 30
0.0
 11
120.75700000000001
 21
131.13999999999999
 31
0.0
  0
LINE
  5
4CC
  8
0
 62
     7
 10
120.75700000000001
 20
131.13999999999999
 30
0.0
 11
119.572
 21
131.13999999999999
 31
0.0
  0
LINE
  5
4CD
  8
0
 62
     7
 10
112.02
 20
135.12899999999999
 30
0.0
 11
112.02
 21
128.91499999999999
 31
0.0
  0
LINE
  5
4CE
  8
0
 62
     7
 10
120.164
 20
152.029
 30
0.0
 11
120.164
 21
93.428100000000001
 31
0.0
  0
LINE
  5
4CF
  8
0
 62
     7
 10
96.859800000000007
 20
93.428100000000001
 30
0.0
 11
120.864
 21
93.428100000000001
 31
0.0
  0
LINE
  5
4D0
  8
0
  6
AIGENLINE002
 62
     7
 10
94.602599999999995
 20
135.12899999999999
 30
0.0
 11
103.899
 21
135.12899999999999
 31
0.0
  0
LINE
  5
4D1
  8
0
 62
     7
 10
104.599
 20
135.12899999999999
 30
0.0
 11
112.72
 21
135.12899999999999
 31
0.0
  0
LINE
  5
4D2
  8
0
 62
     7
 10
107.30200000000001
 20
128.929
 30
0.0
 11
120.864
 21
128.929
 31
0.0
  0
LINE
  5
4D3
  8
0
 62
     7
 10
92.603699999999989
 20
152.029
 30
0.0
 11
120.864
 21
152.029
 31
0.0
  0
ARC
  5
4D4
  8
0
 62
     7
 10
164.67977300000001
 20
127.13695199999999
 30
0.0
 40
0.228644
 50
182.175712
 51
267.82431800000001
  0
ARC
  5
4D5
  8
0
 62
     7
 10
164.66241299999999
 20
127.13695199999999
 30
0.0
 40
0.228644
 50
272.175702
 51
357.82430799999997
  0
ARC
  5
4D6
  8
0
 62
     7
 10
164.66241299999999
 20
127.119592
 30
0.0
 40
0.228644
 50
2.1756919999999988
 51
87.824297999999999
  0
ARC
  5
4D7
  8
0
 62
     7
 10
164.67977300000001
 20
127.119592
 30
0.0
 40
0.228644
 50
92.175681999999995
 51
177.824288
  0
ARC
  5
4D8
  8
0
 62
     7
 10
164.67977300000001
 20
124.13763299999999
 30
0.0
 40
0.228644
 50
182.175712
 51
267.82431800000001
  0
ARC
  5
4D9
  8
0
 62
     7
 10
164.66241299999999
 20
124.13763299999999
 30
0.0
 40
0.228644
 50
272.175702
 51
357.82430799999997
  0
ARC
  5
4DA
  8
0
 62
     7
 10
164.66241299999999
 20
124.120273
 30
0.0
 40
0.228644
 50
2.1756919999999988
 51
87.824297999999999
  0
ARC
  5
4DB
  8
0
 62
     7
 10
164.67977300000001
 20
124.120273
 30
0.0
 40
0.228644
 50
92.175681999999995
 51
177.824288
  0
LINE
  5
4DC
  8
0
 62
     7
 10
159.232
 20
115.628
 30
0.0
 11
165.37100000000001
 21
115.628
 31
0.0
  0
LINE
  5
4DD
  8
0
 62
     7
 10
155.53200000000001
 20
127.128
 30
0.0
 11
165.37100000000001
 21
127.128
 31
0.0
  0
LINE
  5
4DE
  8
0
 62
     7
 10
171.65799999999999
 20
126.718
 30
0.0
 11
171.065
 21
128.929
 31
0.0
  0
LINE
  5
4DF
  8
0
 62
     7
 10
171.065
 20
128.929
 30
0.0
 11
170.47300000000001
 21
126.718
 31
0.0
  0
LINE
  5
4E0
  8
0
 62
     7
 10
170.47300000000001
 20
126.718
 30
0.0
 11
171.65799999999999
 21
126.718
 31
0.0
  0
LINE
  5
4E1
  8
0
 62
     7
 10
170.47300000000001
 20
126.34
 30
0.0
 11
171.065
 21
124.129
 31
0.0
  0
LINE
  5
4E2
  8
0
 62
     7
 10
171.065
 20
124.129
 30
0.0
 11
171.65799999999999
 21
126.34
 31
0.0
  0
LINE
  5
4E3
  8
0
 62
     7
 10
171.65799999999999
 20
126.34
 30
0.0
 11
170.47300000000001
 21
126.34
 31
0.0
  0
LINE
  5
4E4
  8
0
 62
     7
 10
171.065
 20
128.929
 30
0.0
 11
171.065
 21
124.129
 31
0.0
  0
LINE
  5
4E5
  8
0
 62
     7
 10
165.26400000000001
 20
119.417
 30
0.0
 11
164.67099999999999
 21
121.628
 31
0.0
  0
LINE
  5
4E6
  8
0
 62
     7
 10
164.67099999999999
 20
121.628
 30
0.0
 11
164.07900000000001
 21
119.417
 31
0.0
  0
LINE
  5
4E7
  8
0
 62
     7
 10
164.07900000000001
 20
119.417
 30
0.0
 11
165.26400000000001
 21
119.417
 31
0.0
  0
LINE
  5
4E8
  8
0
 62
     7
 10
135.74100000000001
 20
133.93000000000001
 30
0.0
 11
137.11000000000001
 21
132.095
 31
0.0
  0
LINE
  5
4E9
  8
0
 62
     7
 10
137.11000000000001
 20
132.095
 30
0.0
 11
136.84100000000001
 21
134.369
 31
0.0
  0
LINE
  5
4EA
  8
0
 62
     7
 10
136.84100000000001
 20
134.369
 30
0.0
 11
135.74100000000001
 21
133.93000000000001
 31
0.0
  0
LINE
  5
4EB
  8
0
 62
     7
 10
140.23599999999999
 20
140.36699999999999
 30
0.0
 11
142.369
 21
141.19900000000001
 31
0.0
  0
LINE
  5
4EC
  8
0
 62
     7
 10
142.369
 20
141.19900000000001
 30
0.0
 11
140.10599999999999
 21
141.54499999999999
 31
0.0
  0
LINE
  5
4ED
  8
0
 62
     7
 10
140.10599999999999
 20
141.54499999999999
 30
0.0
 11
140.23599999999999
 21
140.36699999999999
 31
0.0
  0
LINE
  5
4EE
  8
0
 62
     7
 10
164.07900000000001
 20
131.13999999999999
 30
0.0
 11
164.67099999999999
 21
128.929
 31
0.0
  0
LINE
  5
4EF
  8
0
 62
     7
 10
164.67099999999999
 20
128.929
 30
0.0
 11
165.26400000000001
 21
131.13999999999999
 31
0.0
  0
LINE
  5
4F0
  8
0
 62
     7
 10
165.26400000000001
 20
131.13999999999999
 30
0.0
 11
164.07900000000001
 21
131.13999999999999
 31
0.0
  0
LINE
  5
4F1
  8
0
 62
     7
 10
164.07900000000001
 20
117.84
 30
0.0
 11
164.67099999999999
 21
115.628
 31
0.0
  0
LINE
  5
4F2
  8
0
 62
     7
 10
164.67099999999999
 20
115.628
 30
0.0
 11
165.26400000000001
 21
117.84
 31
0.0
  0
LINE
  5
4F3
  8
0
 62
     7
 10
165.26400000000001
 20
117.84
 30
0.0
 11
164.07900000000001
 21
117.84
 31
0.0
  0
LINE
  5
4F4
  8
0
 62
     7
 10
164.67099999999999
 20
133.809
 30
0.0
 11
164.67099999999999
 21
115.628
 31
0.0
  0
LINE
  5
4F5
  8
0
 62
     7
 10
159.232
 20
121.628
 30
0.0
 11
165.37100000000001
 21
121.628
 31
0.0
  0
LINE
  5
4F6
  8
0
 62
     7
 10
159.232
 20
124.129
 30
0.0
 11
171.76499999999999
 21
124.129
 31
0.0
  0
LINE
  5
4F7
  8
0
 62
     7
 10
155.53200000000001
 20
128.929
 30
0.0
 11
171.76499999999999
 21
128.929
 31
0.0
  0
LINE
  5
4F8
  8
0
 62
     7
 10
157.72800000000001
 20
113.86799999999999
 30
0.0
 11
156.00800000000001
 21
115.379
 31
0.0
  0
LINE
  5
4F9
  8
0
 62
     7
 10
156.00800000000001
 20
115.379
 30
0.0
 11
156.74299999999999
 21
113.20999999999999
 31
0.0
  0
LINE
  5
4FA
  8
0
 62
     7
 10
156.74299999999999
 20
113.20999999999999
 30
0.0
 11
157.72800000000001
 21
113.86799999999999
 31
0.0
  0
LINE
  5
4FB
  8
0
 62
     7
 10
156.00800000000001
 20
115.379
 30
0.0
 11
159.792
 21
109.709
 31
0.0
  0
LINE
  5
4FC
  8
0
 62
     7
 10
144.58099999999999
 20
86.659899999999979
 30
0.0
 11
142.369
 21
86.067300000000003
 31
0.0
  0
LINE
  5
4FD
  8
0
 62
     7
 10
142.369
 20
86.067300000000003
 30
0.0
 11
144.58099999999999
 21
85.474699999999999
 31
0.0
  0
LINE
  5
4FE
  8
0
 62
     7
 10
144.58099999999999
 20
85.474699999999999
 30
0.0
 11
144.58099999999999
 21
86.659899999999979
 31
0.0
  0
LINE
  5
4FF
  8
0
 62
     7
 10
152.65799999999999
 20
85.474699999999999
 30
0.0
 11
154.869
 21
86.067300000000003
 31
0.0
  0
LINE
  5
500
  8
0
 62
     7
 10
154.869
 20
86.067300000000003
 30
0.0
 11
152.65799999999999
 21
86.659899999999979
 31
0.0
  0
LINE
  5
501
  8
0
 62
     7
 10
152.65799999999999
 20
86.659899999999979
 30
0.0
 11
152.65799999999999
 21
85.474699999999999
 31
0.0
  0
LINE
  5
502
  8
0
 62
     7
 10
142.369
 20
86.067300000000003
 30
0.0
 11
154.869
 21
86.067300000000003
 31
0.0
  0
LINE
  5
503
  8
0
 62
     7
 10
154.869
 20
112.429
 30
0.0
 11
154.869
 21
85.367199999999997
 31
0.0
  0
LINE
  5
504
  8
0
 62
     7
 10
142.369
 20
91.702799999999996
 30
0.0
 11
142.369
 21
85.367199999999997
 31
0.0
  0
TEXT
  5
505
  8
_________2
 62
     7
 10
28.151399999999999
 20
60.847000000000001
 30
0.0
 40
4.2168199999999993
  1
※壁取付部には厚さ20mm以上の補強木を入れてください。
 41
0.5
  0
TEXT
  5
506
  8
_________2
 62
     7
 10
141.72900000000001
 20
179.82499999999999
 30
0.0
 40
3.0923400000000001
  1
手洗器：人工大理石
 41
0.5
  0
TEXT
  5
507
  8
_________2
 62
     7
 10
141.72900000000001
 20
247.89400000000001
 30
0.0
 40
3.0923400000000001
  1
カウンター
 41
0.5
  0
TEXT
  5
508
  8
_________2
 62
     7
 10
141.72900000000001
 20
244.029
 30
0.0
 40
3.0923400000000001
  1
基材：防水MDF
 41
0.5
  0
TEXT
  5
509
  8
_________2
 62
     7
 10
141.72900000000001
 20
240.16300000000001
 30
0.0
 40
3.0923400000000001
  1
表面：メラミン化粧板
 41
0.5
  0
LINE
  5
50A
  8
_________2
 62
     7
 10
141.72900000000001
 20
233.36099999999999
 30
0.0
 11
141.72900000000001
 21
184.36099999999999
 31
0.0
  0
LINE
  5
50B
  8
_________2
 62
     7
 10
181.62200000000001
 20
233.36099999999999
 30
0.0
 11
181.62200000000001
 21
184.36099999999999
 31
0.0
  0
TEXT
  5
50C
  8
_________2
 62
     7
 10
184.77487833333331
 20
186.512
 30
0.0
 40
3.3734599999999988
  1
1
 41
0.5
 72
     1
 11
185.0559999999999
 21
186.512
 31
0.0
  0
TEXT
  5
50D
  8
_________2
 62
     7
 10
143.86600000000001
 20
186.512
 30
0.0
 40
3.3734599999999988
  1
フレキ管（L＝300）
 41
0.5
  0
LINE
  5
50E
  8
_________2
 62
     7
 10
141.72900000000001
 20
184.36099999999999
 30
0.0
 11
188.49000000000001
 21
184.36099999999999
 31
0.0
  0
TEXT
  5
50F
  8
_________2
 62
     7
 10
184.77487833333331
 20
193.512
 30
0.0
 40
3.3734599999999988
  1
1
 41
0.5
 72
     1
 11
185.0559999999999
 21
193.512
 31
0.0
  0
TEXT
  5
510
  8
_________2
 62
     7
 10
143.86600000000001
 20
193.512
 30
0.0
 40
3.3734599999999988
  1
排水目皿
 41
0.5
  0
LINE
  5
511
  8
_________2
 62
     7
 10
141.72900000000001
 20
191.36099999999999
 30
0.0
 11
188.49000000000001
 21
191.36099999999999
 31
0.0
  0
TEXT
  5
512
  8
_________2
 62
     7
 10
184.77487833333331
 20
200.512
 30
0.0
 40
3.3734599999999988
  1
1
 41
0.5
 72
     1
 11
185.0559999999999
 21
200.512
 31
0.0
  0
TEXT
  5
513
  8
_________2
 62
     7
 10
143.86600000000001
 20
200.512
 30
0.0
 40
3.3734599999999988
  1
立水栓（JIS）
 41
0.5
  0
LINE
  5
514
  8
_________2
 62
     7
 10
141.72900000000001
 20
198.36099999999999
 30
0.0
 11
188.49000000000001
 21
198.36099999999999
 31
0.0
  0
TEXT
  5
515
  8
_________2
 62
     7
 10
184.77487833333331
 20
207.512
 30
0.0
 40
3.3734599999999988
  1
1
 41
0.5
 72
     1
 11
185.0559999999999
 21
207.512
 31
0.0
  0
TEXT
  5
516
  8
_________2
 62
     7
 10
143.86600000000001
 20
207.512
 30
0.0
 40
3.3734599999999988
  1
手洗器（オーバーフローなし）
 41
0.5
  0
LINE
  5
517
  8
_________2
 62
     7
 10
141.72900000000001
 20
205.36099999999999
 30
0.0
 11
188.49000000000001
 21
205.36099999999999
 31
0.0
  0
TEXT
  5
518
  8
_________2
 62
     7
 10
184.4937566666666
 20
214.512
 30
0.0
 40
3.3734599999999988
  1
2
 41
0.5
 72
     1
 11
185.0559999999999
 21
214.512
 31
0.0
  0
TEXT
  5
519
  8
_________2
 62
     7
 10
184.77487833333331
 20
221.512
 30
0.0
 40
3.3734599999999988
  1
1
 41
0.5
 72
     1
 11
185.0559999999999
 21
221.512
 31
0.0
  0
TEXT
  5
51A
  8
_________2
 62
     7
 10
184.2688593333333
 20
228.512
 30
0.0
 40
3.3734599999999988
  1
数
 41
0.5
 72
     1
 11
185.0559999999999
 21
228.512
 31
0.0
  0
TEXT
  5
51B
  8
_________2
 62
     7
 10
143.86600000000001
 20
214.512
 30
0.0
 40
3.3734599999999988
  1
ブラケット
 41
0.5
  0
TEXT
  5
51C
  8
_________2
 62
     7
 10
143.86600000000001
 20
221.512
 30
0.0
 40
3.3734599999999988
  1
カウンター
 41
0.5
  0
TEXT
  5
51D
  8
_________2
 62
     7
 10
156.7272586666667
 20
228.512
 30
0.0
 40
3.3734599999999988
  1
セット内容
 41
0.5
 72
     1
 11
161.67500000000001
 21
228.512
 31
0.0
  0
LINE
  5
51E
  8
_________2
 62
     7
 10
141.72900000000001
 20
212.36099999999999
 30
0.0
 11
188.49000000000001
 21
212.36099999999999
 31
0.0
  0
LINE
  5
51F
  8
_________2
 62
     7
 10
141.72900000000001
 20
219.36099999999999
 30
0.0
 11
188.49000000000001
 21
219.36099999999999
 31
0.0
  0
LINE
  5
520
  8
_________2
 62
     7
 10
141.72900000000001
 20
233.36099999999999
 30
0.0
 11
188.49000000000001
 21
233.36099999999999
 31
0.0
  0
LINE
  5
521
  8
_________2
 62
     7
 10
141.72900000000001
 20
226.36099999999999
 30
0.0
 11
188.49000000000001
 21
226.36099999999999
 31
0.0
  0
LINE
  5
522
  8
_________2
 62
     7
 10
141.72900000000001
 20
280.43000000000001
 30
0.0
 11
141.72900000000001
 21
252.43000000000001
 31
0.0
  0
LINE
  5
523
  8
_________2
 62
     7
 10
169.25299999999999
 20
280.43000000000001
 30
0.0
 11
169.25299999999999
 21
252.43000000000001
 31
0.0
  0
TEXT
  5
524
  8
_________2
 62
     7
 10
175.26196966666669
 20
254.58099999999999
 30
0.0
 40
3.3734599999999988
  1
ホワイト
 41
0.5
 72
     1
 11
179.029
 21
254.58099999999999
 31
0.0
  0
TEXT
  5
525
  8
_________2
 62
     7
 10
143.12164666666661
 20
254.58099999999999
 30
0.0
 40
3.3734599999999988
  1
CEK420SET02R-WH
 41
0.5
 72
     1
 11
155.49100000000001
 21
254.58099999999999
 31
0.0
  0
LINE
  5
526
  8
_________2
 62
     7
 10
141.72900000000001
 20
252.43000000000001
 30
0.0
 11
188.49000000000001
 21
252.43000000000001
 31
0.0
  0
TEXT
  5
527
  8
_________2
 62
     7
 10
175.2057453333334
 20
261.58100000000002
 30
0.0
 40
3.3734599999999988
  1
ブラウン
 41
0.5
 72
     1
 11
179.029
 21
261.58100000000002
 31
0.0
  0
TEXT
  5
528
  8
_________2
 62
     7
 10
174.19370733333329
 20
268.58100000000002
 30
0.0
 40
3.3734599999999988
  1
ナチュラル
 41
0.5
 72
     1
 11
179.029
 21
268.58100000000002
 31
0.0
  0
TEXT
  5
529
  8
_________2
 62
     7
 10
173.06922066666669
 20
275.58100000000002
 30
0.0
 40
3.3734599999999988
  1
カウンター色
 41
0.5
 72
     1
 11
179.029
 21
275.58100000000002
 31
0.0
  0
TEXT
  5
52A
  8
_________2
 62
     7
 10
143.40276833333331
 20
261.58100000000002
 30
0.0
 40
3.3734599999999988
  1
CEK420SET02R-BR
 41
0.5
 72
     1
 11
155.49100000000001
 21
261.58100000000002
 31
0.0
  0
TEXT
  5
52B
  8
_________2
 62
     7
 10
143.40276833333331
 20
268.58100000000002
 30
0.0
 40
3.3734599999999988
  1
CEK420SET02R-NA
 41
0.5
 72
     1
 11
155.49100000000001
 21
268.58100000000002
 31
0.0
  0
TEXT
  5
52C
  8
_________2
 62
     7
 10
153.69182133333331
 20
275.58100000000002
 30
0.0
 40
3.3734599999999988
  1
品番
 41
0.5
 72
     1
 11
155.49100000000001
 21
275.58100000000002
 31
0.0
  0
LINE
  5
52D
  8
_________2
 62
     7
 10
141.72900000000001
 20
259.43000000000001
 30
0.0
 11
188.49000000000001
 21
259.43000000000001
 31
0.0
  0
LINE
  5
52E
  8
_________2
 62
     7
 10
141.72900000000001
 20
266.43000000000001
 30
0.0
 11
188.49000000000001
 21
266.43000000000001
 31
0.0
  0
LINE
  5
52F
  8
_________2
 62
     7
 10
141.72900000000001
 20
273.43000000000001
 30
0.0
 11
188.49000000000001
 21
273.43000000000001
 31
0.0
  0
TEXT
  5
530
  8
_________2
 62
     7
 10
29.525700000000001
 20
22.226900000000001
 30
0.0
 40
3.9357000000000002
  1
セット重量：6.6kg
 41
0.5
  0
LINE
  5
531
  8
_________2
 62
     7
 10
210.24000000000001
 20
148.93100000000001
 30
0.0
 11
188.49000000000001
 21
148.93100000000001
 31
0.0
  0
LINE
  5
532
  8
_________2
 62
     7
 10
105.239
 20
17.4285
 30
0.0
 11
105.239
 21
0.4482100000000001
 31
0.0
  0
LINE
  5
533
  8
_________2
 62
     7
 10
105.239
 20
297.44999999999999
 30
0.0
 11
105.239
 21
280.43000000000001
 31
0.0
  0
LINE
  5
534
  8
_________2
 62
     7
 10
21.988499999999998
 20
148.93100000000001
 30
0.0
 11
0.238058
 21
148.93100000000001
 31
0.0
  0
LINE
  5
535
  8
_________2
 62
     7
 10
81.679900000000004
 20
51.324300000000001
 30
0.0
 11
79.493700000000004
 21
51.324300000000001
 31
0.0
  0
LINE
  5
536
  8
_________2
 62
     7
 10
82.172600000000017
 20
51.324300000000001
 30
0.0
 11
81.920400000000001
 21
51.324300000000001
 31
0.0
  0
LINE
  5
537
  8
_________2
 62
     7
 10
82.665199999999984
 20
51.324300000000001
 30
0.0
 11
85.590100000000007
 21
51.324300000000001
 31
0.0
  0
LINE
  5
538
  8
_________2
 62
     7
 10
82.172600000000017
 20
51.324300000000001
 30
0.0
 11
82.424800000000005
 21
51.324300000000001
 31
0.0
  0
LINE
  5
539
  8
_________2
 62
     7
 10
75.776399999999995
 20
51.324300000000001
 30
0.0
 11
73.589399999999998
 21
51.324300000000001
 31
0.0
  0
LINE
  5
53A
  8
_________2
 62
     7
 10
76.2684
 20
51.324300000000001
 30
0.0
 11
76.016900000000007
 21
51.324300000000001
 31
0.0
  0
LINE
  5
53B
  8
_________2
 62
     7
 10
76.2684
 20
51.817
 30
0.0
 11
76.2684
 21
54.003900000000002
 31
0.0
  0
LINE
  5
53C
  8
_________2
 62
     7
 10
76.2684
 20
51.324300000000001
 30
0.0
 11
76.2684
 21
51.576500000000003
 31
0.0
  0
LINE
  5
53D
  8
_________2
 62
     7
 10
76.76100000000001
 20
51.324300000000001
 30
0.0
 11
78.947999999999993
 21
51.324300000000001
 31
0.0
  0
LINE
  5
53E
  8
_________2
 62
     7
 10
76.2684
 20
51.324300000000001
 30
0.0
 11
76.520499999999998
 21
51.324300000000001
 31
0.0
  0
LINE
  5
53F
  8
_________2
 62
     7
 10
76.2684
 20
50.832399999999993
 30
0.0
 11
76.2684
 21
48.645400000000002
 31
0.0
  0
LINE
  5
540
  8
_________2
 62
     7
 10
76.2684
 20
51.324300000000001
 30
0.0
 11
76.2684
 21
51.072800000000001
 31
0.0
  0
LINE
  5
541
  8
_________2
 62
     7
 10
79.979399999999984
 20
50.104799999999997
 30
0.0
 11
85.157399999999996
 21
49.240000000000002
 31
0.0
  0
LINE
  5
542
  8
_________2
 62
     7
 10
79.979399999999984
 20
52.543900000000001
 30
0.0
 11
85.157399999999996
 21
53.409300000000002
 31
0.0
  0
LINE
  5
543
  8
_________2
 62
     7
 10
85.157399999999996
 20
49.240000000000002
 30
0.0
 11
85.157399999999996
 21
53.409300000000002
 31
0.0
  0
LINE
  5
544
  8
_________2
 62
     7
 10
79.979399999999984
 20
50.104799999999997
 30
0.0
 11
79.979399999999984
 21
52.543900000000001
 31
0.0
  0
ARC
  5
545
  8
_________2
 62
     7
 10
76.222110000000001
 20
51.277366999999991
 30
0.0
 40
1.2673709999999989
 50
2.1232950000000002
 51
87.909056000000007
  0
ARC
  5
546
  8
_________2
 62
     7
 10
76.315273000000005
 20
51.277400999999998
 30
0.0
 40
1.267363
 50
92.121785999999986
 51
177.878185
  0
ARC
  5
547
  8
_________2
 62
     7
 10
76.315273000000005
 20
51.371245999999992
 30
0.0
 40
1.267363
 50
182.121815
 51
267.87821400000001
  0
ARC
  5
548
  8
_________2
 62
     7
 10
76.221461000000005
 20
51.371928999999987
 30
0.0
 40
1.2680439999999991
 50
272.11916400000001
 51
357.84848499999998
  0
ARC
  5
549
  8
_________2
 62
     7
 10
76.268349999999984
 20
51.324323
 30
0.0
 40
2.0849849999999992
 50
0.00001
 51
89.999980000000008
  0
ARC
  5
54A
  8
_________2
 62
     7
 10
76.348388
 20
51.245001999999992
 30
0.0
 40
2.1657860000000002
 50
92.117855000000034
 51
177.90105299999999
  0
ARC
  5
54B
  8
_________2
 62
     7
 10
76.348354
 20
51.404327000000002
 30
0.0
 40
2.1657779999999991
 50
182.11700400000001
 51
267.88302499999998
  0
ARC
  5
54C
  8
_________2
 62
     7
 10
76.188378999999983
 20
51.405009999999997
 30
0.0
 40
2.1664590000000001
 50
272.11546800000002
 51
357.86560400000002
  0
TEXT
  5
54D
  8
_________2
 62
     7
 10
109.544
 20
23.199100000000001
 30
0.0
 40
3.0923400000000001
  1
図番
 41
0.5
  0
LINE
  5
54E
  8
_________2
 62
     7
 10
108.489
 20
27.4283
 30
0.0
 11
188.49000000000001
 21
27.4283
 31
0.0
  0
TEXT
  5
54F
  8
_________2
 62
     7
 10
109.544
 20
33.198900000000002
 30
0.0
 40
3.0923400000000001
  1
品番
 41
0.5
  0
TEXT
  5
550
  8
_________2
 62
     7
 10
109.544
 20
53.337699999999998
 30
0.0
 40
3.0923400000000001
  1
名称
 41
0.5
  0
TEXT
  5
551
  8
_________2
 62
     7
 10
96.784058333333334
 20
48.341500000000011
 30
0.0
 40
3.6545800000000002
  1
mm
 41
0.5
 72
     1
 11
98.306799999999996
 21
48.341500000000011
 31
0.0
  0
TEXT
  5
552
  8
_________2
 62
     7
 10
90.582099999999997
 20
53.337699999999998
 30
0.0
 40
3.0923400000000001
  1
単位
 41
0.5
  0
TEXT
  5
553
  8
_________2
 62
     7
 10
90.582099999999997
 20
40.930399999999999
 30
0.0
 40
3.0923400000000001
  1
尺度
 41
0.5
  0
TEXT
  5
554
  8
_________2
 62
     7
 10
95.030836166666674
 20
34.737499999999997
 30
0.0
 40
3.6545800000000002
  1
1 ： 10
 41
0.5
 72
     1
 11
98.898600000000002
 21
34.737499999999997
 31
0.0
  0
TEXT
  5
555
  8
_________2
 62
     7
 10
141.60152500000001
 20
30.627400000000002
 30
0.0
 40
3.9357000000000002
  1
図中の表参照
 41
0.5
 72
     1
 11
148.489
 21
30.627400000000002
 31
0.0
  0
TEXT
  5
556
  8
_________2
 62
     7
 10
137.33785
 20
20.626999999999999
 30
0.0
 40
3.9357000000000002
  1
CEK420SET02R
 41
0.5
 72
     1
 11
148.489
 21
20.626999999999999
 31
0.0
  0
TEXT
  5
557
  8
_________2
 62
     7
 10
114.11799999999999
 20
46.795400000000001
 30
0.0
 40
3.9357000000000002
  1
セラオリジナルコレクション
 41
0.5
  0
TEXT
  5
558
  8
_________2
 62
     7
 10
114.11799999999999
 20
41.875700000000002
 30
0.0
 40
3.9357000000000002
  1
カウンターセット
 41
0.5
  0
TEXT
  5
559
  8
_________2
 62
     7
 10
44.364200333333329
 20
35.122599999999998
 30
0.0
 40
3.6545800000000002
  1
井田
 41
0.5
 72
     1
 11
46.252400000000002
 21
35.122599999999998
 31
0.0
  0
TEXT
  5
55A
  8
_________2
 62
     7
 10
25.729290666666671
 20
35.122599999999998
 30
0.0
 40
3.6545800000000002
  1
鈴木
 41
0.5
 72
     1
 11
27.6784
 21
35.122599999999998
 31
0.0
  0
TEXT
  5
55B
  8
_________2
 62
     7
 10
72.724699999999999
 20
34.737499999999997
 30
0.0
 40
3.6545800000000002
  1
18.05.01
 41
0.5
  0
TEXT
  5
55C
  8
_________2
 62
     7
 10
71.531999999999996
 20
40.930399999999999
 30
0.0
 40
3.0923400000000001
  1
日付
 41
0.5
  0
TEXT
  5
55D
  8
_________2
 62
     7
 10
34.578299999999999
 20
40.930399999999999
 30
0.0
 40
3.0923400000000001
  1
検図
 41
0.5
  0
TEXT
  5
55E
  8
_________2
 62
     7
 10
22.960000000000001
 20
26.731000000000002
 30
0.0
 40
3.0923400000000001
  1
備考
 41
0.5
  0
TEXT
  5
55F
  8
_________2
 62
     7
 10
22.960000000000001
 20
40.930399999999999
 30
0.0
 40
3.0923400000000001
  1
製図
 41
0.5
  0
TEXT
  5
560
  8
_________2
 62
     7
 10
28.727365333333339
 20
49.456400000000002
 30
0.0
 40
4.4979399999999989
  1
セラトレーディング株式会社
 41
0.5
 72
     1
 11
46.119399999999992
 21
49.456400000000002
 31
0.0
  0
LINE
  5
561
  8
_________2
 62
     7
 10
188.49000000000001
 20
17.4285
 30
0.0
 11
21.988499999999998
 21
17.4285
 31
0.0
  0
LINE
  5
562
  8
_________2
 62
     7
 10
21.988499999999998
 20
17.4285
 30
0.0
 11
21.988499999999998
 21
280.43000000000001
 31
0.0
  0
LINE
  5
563
  8
_________2
 62
     7
 10
21.988499999999998
 20
280.43000000000001
 30
0.0
 11
188.49000000000001
 21
280.43000000000001
 31
0.0
  0
LINE
  5
564
  8
_________2
 62
     7
 10
188.49000000000001
 20
280.43000000000001
 30
0.0
 11
188.49000000000001
 21
17.4285
 31
0.0
  0
LINE
  5
565
  8
_________2
 62
     7
 10
70.488799999999998
 20
30.9285
 30
0.0
 11
70.488799999999998
 21
57.428400000000011
 31
0.0
  0
LINE
  5
566
  8
_________2
 62
     7
 10
89.488600000000005
 20
30.9285
 30
0.0
 11
89.488600000000005
 21
57.428400000000011
 31
0.0
  0
LINE
  5
567
  8
_________2
 62
     7
 10
108.489
 20
17.4285
 30
0.0
 11
108.489
 21
57.428400000000011
 31
0.0
  0
LINE
  5
568
  8
_________2
 62
     7
 10
33.488300000000002
 20
30.9285
 30
0.0
 11
33.488300000000002
 21
44.928800000000003
 31
0.0
  0
LINE
  5
569
  8
_________2
 62
     7
 10
21.988499999999998
 20
30.9285
 30
0.0
 11
108.489
 21
30.9285
 31
0.0
  0
LINE
  5
56A
  8
_________2
 62
     7
 10
21.988499999999998
 20
44.928800000000003
 30
0.0
 11
108.489
 21
44.928800000000003
 31
0.0
  0
LINE
  5
56B
  8
_________2
 62
     7
 10
108.489
 20
37.428100000000001
 30
0.0
 11
188.49000000000001
 21
37.428100000000001
 31
0.0
  0
LINE
  5
56C
  8
_________2
 62
     7
 10
21.988499999999998
 20
57.428400000000011
 30
0.0
 11
188.49000000000001
 21
57.428400000000011
 31
0.0
  0
ENDSEC
  0
EOF
