  0
SECTION
  2
HEADER
  9
$ACADVER
  1
AC1009
  9
$INSBASE
 10
0.0
 20
0.0
 30
0.0
  9
$EXTMIN
 10
0.238058
 20
0.4482100000000001
 30
0.0
  9
$EXTMAX
 10
210.24000000000001
 20
297.44999999999999
 30
0.0
  9
$LIMMIN
 10
0.0
 20
0.0
  9
$LIMMAX
 10
12.0
 20
9.0
  9
$ORTHOMODE
 70
     0
  9
$REGENMODE
 70
     1
  9
$FILLMODE
 70
     1
  9
$QTEXTMODE
 70
     0
  9
$MIRRTEXT
 70
     1
  9
$DRAGMODE
 70
     2
  9
$LTSCALE
 40
1.0
  9
$OSMODE
 70
    37
  9
$ATTMODE
 70
     1
  9
$TEXTSIZE
 40
0.0
  9
$TRACEWID
 40
0.05
  9
$TEXTSTYLE
  7
STANDARD
  9
$CLAYER
  8
0
  9
$CELTYPE
  6
CONTINUOUS
  9
$CECOLOR
 62
   256
  9
$DIMSCALE
 40
1.0
  9
$DIMASZ
 40
0.18
  9
$DIMEXO
 40
0.0625
  9
$DIMDLI
 40
0.38
  9
$DIMRND
 40
0.0
  9
$DIMDLE
 40
0.0
  9
$DIMEXE
 40
0.18
  9
$DIMTP
 40
0.0
  9
$DIMTM
 40
0.0
  9
$DIMTXT
 40
0.18
  9
$DIMCEN
 40
0.09
  9
$DIMTSZ
 40
0.0
  9
$DIMTOL
 70
     0
  9
$DIMLIM
 70
     0
  9
$DIMTIH
 70
     1
  9
$DIMTOH
 70
     1
  9
$DIMSE1
 70
     0
  9
$DIMSE2
 70
     0
  9
$DIMTAD
 70
     0
  9
$DIMZIN
 70
     0
  9
$DIMBLK
  1

  9
$DIMASO
 70
     1
  9
$DIMSHO
 70
     1
  9
$DIMPOST
  1

  9
$DIMAPOST
  1

  9
$DIMALT
 70
     0
  9
$DIMALTD
 70
     2
  9
$DIMALTF
 40
25.399999999999999
  9
$DIMLFAC
 40
1.0
  9
$DIMTOFL
 70
     0
  9
$DIMTVP
 40
0.0
  9
$DIMTIX
 70
     0
  9
$DIMSOXD
 70
     0
  9
$DIMSAH
 70
     0
  9
$DIMBLK1
  1

  9
$DIMBLK2
  1

  9
$DIMSTYLE
  2
STANDARD
  9
$DIMCLRD
 70
     0
  9
$DIMCLRE
 70
     0
  9
$DIMCLRT
 70
     0
  9
$DIMTFAC
 40
1.0
  9
$DIMGAP
 40
0.09
  9
$LUNITS
 70
     2
  9
$LUPREC
 70
     4
  9
$SKETCHINC
 40
0.1
  9
$FILLETRAD
 40
0.0
  9
$AUNITS
 70
     0
  9
$AUPREC
 70
     0
  9
$MENU
  1
.
  9
$ELEVATION
 40
0.0
  9
$PELEVATION
 40
0.0
  9
$THICKNESS
 40
0.0
  9
$LIMCHECK
 70
     0
  9
$BLIPMODE
 70
     0
  9
$CHAMFERA
 40
0.0
  9
$CHAMFERB
 40
0.0
  9
$SKPOLY
 70
     0
  9
$TDCREATE
 40
2444972.375
  9
$TDUPDATE
 40
2457436.2500704741
  9
$TDINDWG
 40
0.0000316435
  9
$TDUSRTIMER
 40
0.0000316435
  9
$USRTIMER
 70
     1
  9
$ANGBASE
 50
0.0
  9
$ANGDIR
 70
     0
  9
$PDMODE
 70
     0
  9
$PDSIZE
 40
0.0
  9
$PLINEWID
 40
0.0
  9
$COORDS
 70
     1
  9
$SPLFRAME
 70
     0
  9
$SPLINETYPE
 70
     6
  9
$SPLINESEGS
 70
     8
  9
$ATTDIA
 70
     1
  9
$ATTREQ
 70
     1
  9
$HANDLING
 70
     1
  9
$HANDSEED
  5
773
  9
$SURFTAB1
 70
     6
  9
$SURFTAB2
 70
     6
  9
$SURFTYPE
 70
     6
  9
$SURFU
 70
     6
  9
$SURFV
 70
     6
  9
$UCSNAME
  2

  9
$UCSORG
 10
0.0
 20
0.0
 30
0.0
  9
$UCSXDIR
 10
1.0
 20
0.0
 30
0.0
  9
$UCSYDIR
 10
0.0
 20
1.0
 30
0.0
  9
$PUCSNAME
  2

  9
$PUCSORG
 10
0.0
 20
0.0
 30
0.0
  9
$PUCSXDIR
 10
1.0
 20
0.0
 30
0.0
  9
$PUCSYDIR
 10
0.0
 20
1.0
 30
0.0
  9
$USERI1
 70
     0
  9
$USERI2
 70
     0
  9
$USERI3
 70
     0
  9
$USERI4
 70
     0
  9
$USERI5
 70
     0
  9
$USERR1
 40
0.0
  9
$USERR2
 40
0.0
  9
$USERR3
 40
0.0
  9
$USERR4
 40
0.0
  9
$USERR5
 40
0.0
  9
$WORLDVIEW
 70
     1
  9
$SHADEDGE
 70
     3
  9
$SHADEDIF
 70
    70
  9
$TILEMODE
 70
     1
  9
$MAXACTVP
 70
    48
  9
$PLIMCHECK
 70
     0
  9
$PEXTMIN
 10
1.0000000000000000E+020
 20
1.0000000000000000E+020
 30
1.0000000000000000E+020
  9
$PEXTMAX
 10
-1.0000000000000000E+020
 20
-1.0000000000000000E+020
 30
-1.0000000000000000E+020
  9
$PLIMMIN
 10
0.0
 20
0.0
  9
$PLIMMAX
 10
12.0
 20
9.0
  9
$UNITMODE
 70
     0
  9
$VISRETAIN
 70
     1
  9
$PLINEGEN
 70
     0
  9
$PSLTSCALE
 70
     1
  0
ENDSEC
  0
SECTION
  2
TABLES
  0
TABLE
  2
VPORT
 70
     1
  0
VPORT
  2
*ACTIVE
 70
     0
 10
0.0
 20
0.0
 11
1.0
 21
1.0
 12
170.6464204695861
 22
148.72499999999991
 13
0.0
 23
0.0
 14
1.0
 24
1.0
 15
0.0
 25
0.0
 16
0.0
 26
0.0
 36
1.0
 17
0.0
 27
0.0
 37
0.0
 40
283.9561120433716
 41
2.1001926782273599
 42
50.0
 43
0.0
 44
0.0
 50
0.0
 51
0.0
 71
     0
 72
   100
 73
     1
 74
     1
 75
     0
 76
     0
 77
     0
 78
     0
  0
ENDTAB
  0
TABLE
  2
LTYPE
 70
     4
  0
LTYPE
  2
CONTINUOUS
 70
     0
  3
Solid line
 72
    65
 73
     0
 40
0.0
  0
LTYPE
  2
AIGENLINE001
 70
     0
  3
generate AI->DXF Converter
 72
    65
 73
     2
 40
1.5522299999999991
 49
0.776115
 49
-0.776115
  0
LTYPE
  2
AIGENLINE002
 70
     0
  3
generate AI->DXF Converter
 72
    65
 73
     4
 40
5.8561449999999988
 49
3.5278
 49
-0.776115
 49
0.776115
 49
-0.776115
  0
LTYPE
  2
AIGENLINE003
 70
     0
  3
generate AI->DXF Converter
 72
    65
 73
     6
 40
7.4083750000000004
 49
3.5278
 49
-0.776115
 49
0.776115
 49
-0.776115
 49
0.776115
 49
-0.776115
  0
ENDTAB
  0
TABLE
  2
LAYER
 70
     2
  0
LAYER
  2
0
 70
     0
 62
     7
  6
CONTINUOUS
  0
LAYER
  2
_________2
 70
     0
 62
     7
  6
CONTINUOUS
  0
ENDTAB
  0
TABLE
  2
STYLE
 70
     1
  0
STYLE
  2
STANDARD
 70
     0
 40
0.0
 41
0.0
 50
0.0
 71
     0
 42
0.0
  3
TXT
  4
EXTFONT.SHX
  0
ENDTAB
  0
TABLE
  2
VIEW
 70
     0
  0
ENDTAB
  0
TABLE
  2
UCS
 70
     0
  0
ENDTAB
  0
TABLE
  2
APPID
 70
     3
  0
APPID
  2
ACAD
 70
     0
  0
APPID
  2
ACAD_NAV_VCDISPLAY
 70
     0
  0
APPID
  2
ACAD_MLEADERVER
 70
     0
  0
ENDTAB
  0
TABLE
  2
DIMSTYLE
 70
     1
  0
DIMSTYLE
  2
STANDARD
 70
     0
  3

  4

  5

  6

  7

 40
1.0
 41
0.18
 42
0.0625
 43
0.38
 44
0.18
 45
0.0
 46
0.0
 47
0.0
 48
0.0
140
0.18
141
0.09
142
0.0
143
25.399999999999999
144
1.0
145
0.0
146
1.0
147
0.09
 71
     0
 72
     0
 73
     1
 74
     1
 75
     0
 76
     0
 77
     0
 78
     0
170
     0
171
     2
172
     0
173
     0
174
     0
175
     0
176
     0
177
     0
178
     0
  0
ENDTAB
  0
ENDSEC
  0
SECTION
  2
BLOCKS
  0
BLOCK
  8
0
  2
$MODEL_SPACE
 70
     0
 10
0.0
 20
0.0
 30
0.0
  3
$MODEL_SPACE
  1

  0
ENDBLK
  5
1A
  8
0
  0
BLOCK
 67
     1
  8
0
  2
$PAPER_SPACE
 70
     0
 10
0.0
 20
0.0
 30
0.0
  3
$PAPER_SPACE
  1

  0
ENDBLK
  5
17
 67
     1
  8
0
  0
ENDSEC
  0
SECTION
  2
ENTITIES
  0
TEXT
  5
24
  8
0
 62
     7
 10
82.622924999999995
 20
232.239
 30
0.0
 40
3.0923400000000001
  1
70（ブラケット取付範囲）
 41
0.5
 72
     2
 11
104.527
 21
232.239
 31
0.0
  0
TEXT
  5
25
  8
0
 62
     7
 10
49.283062500000007
 20
233.13300000000001
 30
0.0
 40
3.0923400000000001
  1
70（ブラケット取付範囲）
 41
0.5
 72
     1
 11
60.235100000000003
 21
233.13300000000001
 31
0.0
  0
TEXT
  5
26
  8
0
 62
     7
 10
81.198335
 20
189.65000000000001
 30
0.0
 40
3.0923400000000001
  1
158
 41
0.5
 72
     1
 11
83.002200000000016
 21
189.65000000000001
 31
0.0
  0
TEXT
  5
27
  8
0
 62
     7
 10
65.398335000000003
 20
189.65000000000001
 30
0.0
 40
3.0923400000000001
  1
158
 41
0.5
 72
     1
 11
67.202200000000005
 21
189.65000000000001
 31
0.0
  0
TEXT
  5
28
  8
0
 62
     7
 10
96.948335000000014
 20
183.727
 30
0.0
 40
3.0923400000000001
  1
157
 41
0.5
 72
     1
 11
98.752200000000002
 21
183.727
 31
0.0
  0
TEXT
  5
29
  8
0
 62
     7
 10
75.169687500000009
 20
177.69900000000001
 30
0.0
 40
3.0923400000000001
  1
590
 41
0.5
 72
     1
 11
77.102400000000003
 21
177.69900000000001
 31
0.0
  0
TEXT
  5
2A
  8
0
 62
     7
 10
73.298334999999994
 20
183.727
 30
0.0
 40
3.0923400000000001
  1
316
 41
0.5
 72
     1
 11
75.102199999999996
 21
183.727
 31
0.0
  0
TEXT
  5
2B
  8
0
 62
     7
 10
51.905830000000002
 20
183.727
 30
0.0
 40
3.0923400000000001
  1
117
 41
0.5
 72
     1
 11
53.451999999999998
 21
183.727
 31
0.0
  0
TEXT
  5
2C
  8
0
 62
     7
 10
41.1357
 20
206.96528749999999
 30
0.0
 40
3.0923400000000001
  1
202
 50
90.0
 41
0.5
 72
     1
 11
41.1357
 21
208.898
 31
0.0
  0
TEXT
  5
2D
  8
0
 62
     7
 10
35.073999999999998
 20
206.96528749999999
 30
0.0
 40
3.0923400000000001
  1
250
 50
90.0
 41
0.5
 72
     1
 11
35.073999999999998
 21
208.898
 31
0.0
  0
TEXT
  5
2E
  8
0
 62
     7
 10
94.910600000000002
 20
199.89699999999999
 30
0.0
 40
3.0923400000000001
  1
開
 41
0.5
  0
TEXT
  5
2F
  8
0
 62
     7
 10
84.718986000000015
 20
209.55799999999999
 30
0.0
 40
3.0923400000000001
  1
閉
 41
0.5
 72
     2
 11
86.058999999999997
 21
209.55799999999999
 31
0.0
  0
TEXT
  5
30
  8
0
 62
     7
 10
91.635116499999995
 20
201.11699999999999
 30
0.0
 40
3.0923400000000001
  1
90ﾟ
 41
0.5
 72
     1
 11
93.000900000000001
 21
201.11699999999999
 31
0.0
  0
TEXT
  5
31
  8
0
 62
     7
 10
56.992899999999999
 20
223.01900000000001
 30
0.0
 40
3.0923400000000001
  1
%%c46
 41
0.5
  0
TEXT
  5
32
  8
0
 62
     7
 10
59.290840000000003
 20
245.93100000000001
 30
0.0
 40
3.0923400000000001
  1
275
 41
0.5
 72
     1
 11
61.352400000000003
 21
245.93100000000001
 31
0.0
  0
TEXT
  5
33
  8
0
 62
     7
 10
89.048334999999994
 20
245.93100000000001
 30
0.0
 40
3.0923400000000001
  1
315
 41
0.5
 72
     1
 11
90.852199999999996
 21
245.93100000000001
 31
0.0
  0
TEXT
  5
34
  8
0
 62
     7
 10
84.993799999999993
 20
239.75700000000001
 30
0.0
 40
3.0923400000000001
  1
37
 41
0.5
  0
TEXT
  5
35
  8
0
 62
     7
 10
98.926982500000022
 20
239.90799999999999
 30
0.0
 40
3.0923400000000001
  1
120
 41
0.5
 72
     1
 11
100.602
 21
239.90799999999999
 31
0.0
  0
TEXT
  5
36
  8
0
 62
     7
 10
110.52144
 20
229.46700000000001
 30
0.0
 40
3.0923400000000001
  1
18
 41
0.5
 72
     2
 11
112.583
 21
229.46700000000001
 31
0.0
  0
TEXT
  5
37
  8
0
 62
     7
 10
41.163600000000002
 20
229.46700000000001
 30
0.0
 40
3.0923400000000001
  1
18
 41
0.5
  0
TEXT
  5
38
  8
0
 62
     7
 10
112.908
 20
190.93599999999989
 30
0.0
 40
3.0923400000000001
  1
18
 50
90.0
 41
0.5
  0
TEXT
  5
39
  8
0
 62
     7
 10
53.831000000000003
 20
133.37337249999999
 30
0.0
 40
3.0923400000000001
  1
60
 50
90.0
 41
0.5
 72
     1
 11
53.831000000000003
 21
134.53299999999999
 31
0.0
  0
TEXT
  5
3A
  8
0
 62
     7
 10
39.796599999999998
 20
134.046525
 30
0.0
 40
3.0923400000000001
  1
76
 50
90.0
 41
0.5
 72
     1
 11
39.796599999999998
 21
135.33500000000001
 31
0.0
  0
TEXT
  5
3B
  8
0
 62
     7
 10
39.796599999999998
 20
126.3753725
 30
0.0
 40
3.0923400000000001
  1
80
 50
90.0
 41
0.5
 72
     1
 11
39.796599999999998
 21
127.535
 31
0.0
  0
TEXT
  5
3C
  8
0
 62
     7
 10
90.834999999999994
 20
139.511135
 30
0.0
 40
3.0923400000000001
  1
129
 50
90.0
 41
0.5
 72
     1
 11
90.834999999999994
 21
141.315
 31
0.0
  0
TEXT
  5
3D
  8
0
 62
     7
 10
82.392216499999989
 20
138.82900000000001
 30
0.0
 40
3.0923400000000001
  1
70ﾟ
 41
0.5
 72
     1
 11
83.757999999999996
 21
138.82900000000001
 31
0.0
  0
TEXT
  5
3E
  8
0
 62
     7
 10
72.770499999999998
 20
138.440135
 30
0.0
 40
3.0923400000000001
  1
138
 50
90.0
 41
0.5
 72
     1
 11
72.770499999999998
 21
140.244
 31
0.0
  0
TEXT
  5
3F
  8
0
 62
     7
 10
96.985900000000015
 20
142.286
 30
0.0
 40
3.0923400000000001
  1
水栓
 41
0.5
  0
TEXT
  5
40
  8
0
 62
     7
 10
96.985900000000015
 20
138.42099999999999
 30
0.0
 40
3.0923400000000001
  1
取付穴：%%c28
 41
0.5
  0
TEXT
  5
41
  8
0
 62
     7
 10
71.793883000000008
 20
107.422
 30
0.0
 40
3.0923400000000001
  1
444～524
 41
0.5
 72
     1
 11
77.102400000000003
 21
107.422
 31
0.0
  0
TEXT
  5
42
  8
0
 62
     7
 10
60.287100000000002
 20
118.224
 30
0.0
 40
3.0923400000000001
  1
G 1 1/4
 41
0.5
  0
TEXT
  5
43
  8
0
 62
     7
 10
114.726
 20
140.05228750000001
 30
0.0
 40
3.0923400000000001
  1
208
 50
90.0
 41
0.5
 72
     1
 11
114.726
 21
141.98500000000001
 31
0.0
  0
TEXT
  5
44
  8
0
 62
     7
 10
114.726
 20
110.72344
 30
0.0
 40
3.0923400000000001
  1
375
 50
90.0
 41
0.5
 72
     1
 11
114.726
 21
112.785
 31
0.0
  0
TEXT
  5
45
  8
0
 62
     7
 10
83.472800000000007
 20
89.1751
 30
0.0
 40
3.0923400000000001
  1
G1/2
 41
0.5
  0
TEXT
  5
46
  8
0
 62
     7
 10
157.58799999999999
 20
108.645
 30
0.0
 40
3.0923400000000001
  1
%%c5\U+00D735
 41
0.5
  0
TEXT
  5
47
  8
0
 62
     7
 10
157.58799999999999
 20
104.779
 30
0.0
 40
3.0923400000000001
  1
トラスタッピングネジ
 41
0.5
  0
TEXT
  5
48
  8
0
 62
     7
 10
163.708
 20
134.35344000000001
 30
0.0
 40
3.0923400000000001
  1
18
 50
90.0
 41
0.5
 72
     2
 11
163.708
 21
136.41499999999999
 31
0.0
  0
TEXT
  5
49
  8
0
 62
     7
 10
163.708
 20
127.0743725
 30
0.0
 40
3.0923400000000001
  1
30
 50
90.0
 41
0.5
 72
     1
 11
163.708
 21
128.23400000000001
 31
0.0
  0
TEXT
  5
4A
  8
0
 62
     7
 10
163.708
 20
124.19652499999999
 30
0.0
 40
3.0923400000000001
  1
25
 50
90.0
 41
0.5
 72
     1
 11
163.708
 21
125.485
 31
0.0
  0
TEXT
  5
4B
  8
0
 62
     7
 10
163.708
 20
120.0223725
 30
0.0
 40
3.0923400000000001
  1
60
 50
90.0
 41
0.5
 72
     1
 11
163.708
 21
121.182
 31
0.0
  0
TEXT
  5
4C
  8
0
 62
     7
 10
170.102
 20
127.8465249999999
 30
0.0
 40
3.0923400000000001
  1
48
 50
90.0
 41
0.5
 72
     1
 11
170.102
 21
129.13499999999999
 31
0.0
  0
TEXT
  5
4D
  8
0
 62
     7
 10
146.50213500000001
 20
87.029200000000003
 30
0.0
 40
3.0923400000000001
  1
125
 41
0.5
 72
     1
 11
148.30600000000001
 21
87.029200000000003
 31
0.0
  0
LINE
  5
4E
  8
0
 62
     7
 10
101.083
 20
228.767
 30
0.0
 11
100.06699999999999
 21
231.46700000000001
 31
0.0
  0
LINE
  5
4F
  8
0
 62
     7
 10
52.917900000000003
 20
228.767
 30
0.0
 11
55.169199999999989
 21
232.56999999999999
 31
0.0
  0
LINE
  5
50
  8
0
 62
     7
 10
61.513599999999997
 20
183.62
 30
0.0
 11
59.302199999999999
 21
183.02699999999999
 31
0.0
  0
LINE
  5
51
  8
0
 62
     7
 10
59.302199999999999
 20
183.02699999999999
 30
0.0
 11
61.513599999999997
 21
182.435
 31
0.0
  0
LINE
  5
52
  8
0
 62
     7
 10
61.513599999999997
 20
182.435
 30
0.0
 11
61.513599999999997
 21
183.62
 31
0.0
  0
LINE
  5
53
  8
0
 62
     7
 10
57.090800000000002
 20
182.435
 30
0.0
 11
59.302199999999999
 21
183.02699999999999
 31
0.0
  0
LINE
  5
54
  8
0
 62
     7
 10
59.302199999999999
 20
183.02699999999999
 30
0.0
 11
57.090800000000002
 21
183.62
 31
0.0
  0
LINE
  5
55
  8
0
 62
     7
 10
57.090800000000002
 20
183.62
 30
0.0
 11
57.090800000000002
 21
182.435
 31
0.0
  0
LINE
  5
56
  8
0
 62
     7
 10
93.113900000000015
 20
183.62
 30
0.0
 11
90.902199999999993
 21
183.02699999999999
 31
0.0
  0
LINE
  5
57
  8
0
 62
     7
 10
90.902199999999993
 20
183.02699999999999
 30
0.0
 11
93.113900000000015
 21
182.435
 31
0.0
  0
LINE
  5
58
  8
0
 62
     7
 10
93.113900000000015
 20
182.435
 30
0.0
 11
93.113900000000015
 21
183.62
 31
0.0
  0
LINE
  5
59
  8
0
 62
     7
 10
88.690399999999997
 20
182.435
 30
0.0
 11
90.902199999999993
 21
183.02699999999999
 31
0.0
  0
LINE
  5
5A
  8
0
 62
     7
 10
90.902199999999993
 20
183.02699999999999
 30
0.0
 11
88.690399999999997
 21
183.62
 31
0.0
  0
LINE
  5
5B
  8
0
 62
     7
 10
88.690399999999997
 20
183.62
 30
0.0
 11
88.690399999999997
 21
182.435
 31
0.0
  0
LINE
  5
5C
  8
0
 62
     7
 10
77.314300000000003
 20
189.542
 30
0.0
 11
75.102500000000006
 21
188.94999999999999
 31
0.0
  0
LINE
  5
5D
  8
0
 62
     7
 10
75.102500000000006
 20
188.94999999999999
 30
0.0
 11
77.314300000000003
 21
188.357
 31
0.0
  0
LINE
  5
5E
  8
0
 62
     7
 10
77.314300000000003
 20
188.357
 30
0.0
 11
77.314300000000003
 21
189.542
 31
0.0
  0
LINE
  5
5F
  8
0
 62
     7
 10
61.513599999999997
 20
189.542
 30
0.0
 11
59.302199999999999
 21
188.94999999999999
 31
0.0
  0
LINE
  5
60
  8
0
 62
     7
 10
59.302199999999999
 20
188.94999999999999
 30
0.0
 11
61.513599999999997
 21
188.357
 31
0.0
  0
LINE
  5
61
  8
0
 62
     7
 10
61.513599999999997
 20
188.357
 30
0.0
 11
61.513599999999997
 21
189.542
 31
0.0
  0
LINE
  5
62
  8
0
 62
     7
 10
72.890799999999999
 20
188.357
 30
0.0
 11
75.102500000000006
 21
188.94999999999999
 31
0.0
  0
LINE
  5
63
  8
0
 62
     7
 10
75.102500000000006
 20
188.94999999999999
 30
0.0
 11
72.890799999999999
 21
189.542
 31
0.0
  0
LINE
  5
64
  8
0
 62
     7
 10
72.890799999999999
 20
189.542
 30
0.0
 11
72.890799999999999
 21
188.357
 31
0.0
  0
LINE
  5
65
  8
0
 62
     7
 10
88.690399999999997
 20
188.357
 30
0.0
 11
90.902199999999993
 21
188.94999999999999
 31
0.0
  0
LINE
  5
66
  8
0
 62
     7
 10
90.902199999999993
 20
188.94999999999999
 30
0.0
 11
88.690399999999997
 21
189.542
 31
0.0
  0
LINE
  5
67
  8
0
 62
     7
 10
88.690399999999997
 20
189.542
 30
0.0
 11
88.690399999999997
 21
188.357
 31
0.0
  0
LINE
  5
68
  8
0
 62
     7
 10
59.302199999999999
 20
188.94999999999999
 30
0.0
 11
90.902199999999993
 21
188.94999999999999
 31
0.0
  0
LINE
  5
69
  8
0
 62
     7
 10
75.102500000000006
 20
203.613
 30
0.0
 11
75.102500000000006
 21
188.25
 31
0.0
  0
LINE
  5
6A
  8
0
 62
     7
 10
49.813600000000001
 20
183.62
 30
0.0
 11
47.602200000000003
 21
183.02699999999999
 31
0.0
  0
LINE
  5
6B
  8
0
 62
     7
 10
47.602200000000003
 20
183.02699999999999
 30
0.0
 11
49.813600000000001
 21
182.435
 31
0.0
  0
LINE
  5
6C
  8
0
 62
     7
 10
49.813600000000001
 20
182.435
 30
0.0
 11
49.813600000000001
 21
183.62
 31
0.0
  0
LINE
  5
6D
  8
0
 62
     7
 10
104.39100000000001
 20
182.435
 30
0.0
 11
106.602
 21
183.02699999999999
 31
0.0
  0
LINE
  5
6E
  8
0
 62
     7
 10
106.602
 20
183.02699999999999
 30
0.0
 11
104.39100000000001
 21
183.62
 31
0.0
  0
LINE
  5
6F
  8
0
 62
     7
 10
104.39100000000001
 20
183.62
 30
0.0
 11
104.39100000000001
 21
182.435
 31
0.0
  0
LINE
  5
70
  8
0
 62
     7
 10
47.602200000000003
 20
183.02699999999999
 30
0.0
 11
106.602
 21
183.02699999999999
 31
0.0
  0
LINE
  5
71
  8
0
 62
     7
 10
47.602200000000003
 20
195.69800000000001
 30
0.0
 11
47.602200000000003
 21
176.29900000000001
 31
0.0
  0
LINE
  5
72
  8
0
 62
     7
 10
90.902199999999993
 20
206.68199999999999
 30
0.0
 11
90.902199999999993
 21
182.327
 31
0.0
  0
LINE
  5
73
  8
0
 62
     7
 10
59.302199999999999
 20
206.68199999999999
 30
0.0
 11
59.302199999999999
 21
182.327
 31
0.0
  0
LINE
  5
74
  8
0
 62
     7
 10
49.813600000000001
 20
177.59100000000001
 30
0.0
 11
47.602200000000003
 21
176.999
 31
0.0
  0
LINE
  5
75
  8
0
 62
     7
 10
47.602200000000003
 20
176.999
 30
0.0
 11
49.813600000000001
 21
176.40599999999989
 31
0.0
  0
LINE
  5
76
  8
0
 62
     7
 10
49.813600000000001
 20
176.40599999999989
 30
0.0
 11
49.813600000000001
 21
177.59100000000001
 31
0.0
  0
LINE
  5
77
  8
0
 62
     7
 10
104.39100000000001
 20
176.40599999999989
 30
0.0
 11
106.602
 21
176.999
 31
0.0
  0
LINE
  5
78
  8
0
 62
     7
 10
106.602
 20
176.999
 30
0.0
 11
104.39100000000001
 21
177.59100000000001
 31
0.0
  0
LINE
  5
79
  8
0
 62
     7
 10
104.39100000000001
 20
177.59100000000001
 30
0.0
 11
104.39100000000001
 21
176.40599999999989
 31
0.0
  0
LINE
  5
7A
  8
0
 62
     7
 10
47.602200000000003
 20
176.999
 30
0.0
 11
106.602
 21
176.999
 31
0.0
  0
LINE
  5
7B
  8
0
 62
     7
 10
106.602
 20
195.69800000000001
 30
0.0
 11
106.602
 21
176.29900000000001
 31
0.0
  0
LINE
  5
7C
  8
0
 62
     7
 10
41.835799999999999
 20
218.99799999999999
 30
0.0
 11
41.835799999999999
 21
198.798
 31
0.0
  0
LINE
  5
7D
  8
0
 62
     7
 10
69.805999999999983
 20
198.798
 30
0.0
 11
41.1357
 21
198.798
 31
0.0
  0
LINE
  5
7E
  8
0
 62
     7
 10
69.805999999999983
 20
218.99799999999999
 30
0.0
 11
41.1357
 21
218.99799999999999
 31
0.0
  0
LINE
  5
7F
  8
0
 62
     7
 10
42.4283
 20
216.786
 30
0.0
 11
41.835799999999999
 21
218.99799999999999
 31
0.0
  0
LINE
  5
80
  8
0
 62
     7
 10
41.835799999999999
 20
218.99799999999999
 30
0.0
 11
41.243199999999987
 21
216.786
 31
0.0
  0
LINE
  5
81
  8
0
 62
     7
 10
41.243199999999987
 20
216.786
 30
0.0
 11
42.4283
 21
216.786
 31
0.0
  0
LINE
  5
82
  8
0
 62
     7
 10
41.243199999999987
 20
201.00999999999999
 30
0.0
 11
41.835799999999999
 21
198.798
 31
0.0
  0
LINE
  5
83
  8
0
 62
     7
 10
41.835799999999999
 20
198.798
 30
0.0
 11
42.4283
 21
201.00999999999999
 31
0.0
  0
LINE
  5
84
  8
0
 62
     7
 10
42.4283
 20
201.00999999999999
 30
0.0
 11
41.243199999999987
 21
201.00999999999999
 31
0.0
  0
LINE
  5
85
  8
0
 62
     7
 10
36.366700000000002
 20
219.18600000000001
 30
0.0
 11
35.774099999999997
 21
221.398
 31
0.0
  0
LINE
  5
86
  8
0
 62
     7
 10
35.774099999999997
 20
221.398
 30
0.0
 11
35.1815
 21
219.18600000000001
 31
0.0
  0
LINE
  5
87
  8
0
 62
     7
 10
35.1815
 20
219.18600000000001
 30
0.0
 11
36.366700000000002
 21
219.18600000000001
 31
0.0
  0
LINE
  5
88
  8
0
 62
     7
 10
35.1815
 20
198.61000000000001
 30
0.0
 11
35.774099999999997
 21
196.398
 31
0.0
  0
LINE
  5
89
  8
0
 62
     7
 10
35.774099999999997
 20
196.398
 30
0.0
 11
36.366700000000002
 21
198.61000000000001
 31
0.0
  0
LINE
  5
8A
  8
0
 62
     7
 10
36.366700000000002
 20
198.61000000000001
 30
0.0
 11
35.1815
 21
198.61000000000001
 31
0.0
  0
LINE
  5
8B
  8
0
 62
     7
 10
35.774099999999997
 20
221.398
 30
0.0
 11
35.774099999999997
 21
196.398
 31
0.0
  0
LINE
  5
8C
  8
0
 62
     7
 10
46.914900000000003
 20
196.398
 30
0.0
 11
35.073999999999998
 21
196.398
 31
0.0
  0
LINE
  5
8D
  8
0
 62
     7
 10
46.914900000000003
 20
221.398
 30
0.0
 11
35.073999999999998
 21
221.398
 31
0.0
  0
LINE
  5
8E
  8
0
 62
     7
 10
92.334299999999999
 20
199.52500000000001
 30
0.0
 11
94.601900000000001
 21
199.839
 31
0.0
  0
LINE
  5
8F
  8
0
 62
     7
 10
94.601900000000001
 20
199.839
 30
0.0
 11
92.481099999999998
 21
200.70099999999999
 31
0.0
  0
LINE
  5
90
  8
0
 62
     7
 10
92.481099999999998
 20
200.70099999999999
 30
0.0
 11
92.334299999999999
 21
199.52500000000001
 31
0.0
  0
LINE
  5
91
  8
0
 62
     7
 10
86.318099999999987
 20
206.77199999999999
 30
0.0
 11
85.468199999999996
 21
208.898
 31
0.0
  0
LINE
  5
92
  8
0
 62
     7
 10
85.468199999999996
 20
208.898
 30
0.0
 11
85.140900000000016
 21
206.63200000000001
 31
0.0
  0
LINE
  5
93
  8
0
 62
     7
 10
85.140900000000016
 20
206.63200000000001
 30
0.0
 11
86.318099999999987
 21
206.77199999999999
 31
0.0
  0
ARC
  5
94
  8
0
 62
     7
 10
94.602316000000002
 20
208.953337
 30
0.0
 40
9.1148310000000006
 50
179.99942899999999
 51
269.9994779999999
  0
LINE
  5
95
  8
0
 62
     7
 10
94.602199999999996
 20
199.13800000000001
 30
0.0
 11
94.602199999999996
 21
205.06
 31
0.0
  0
LINE
  5
96
  8
0
 62
     7
 10
78.711299999999994
 20
206.12700000000001
 30
0.0
 11
76.7286
 21
207.27199999999999
 31
0.0
  0
LINE
  5
97
  8
0
 62
     7
 10
76.7286
 20
207.27199999999999
 30
0.0
 11
77.873099999999994
 21
205.28899999999999
 31
0.0
  0
LINE
  5
98
  8
0
 62
     7
 10
77.873099999999994
 20
205.28899999999999
 30
0.0
 11
78.711299999999994
 21
206.12700000000001
 31
0.0
  0
LINE
  5
99
  8
0
 62
     7
 10
71.493399999999994
 20
211.66900000000001
 30
0.0
 11
73.475700000000003
 21
210.524
 31
0.0
  0
LINE
  5
9A
  8
0
 62
     7
 10
73.475700000000003
 20
210.524
 30
0.0
 11
72.331299999999999
 21
212.50700000000001
 31
0.0
  0
LINE
  5
9B
  8
0
 62
     7
 10
72.331299999999999
 20
212.50700000000001
 30
0.0
 11
71.493399999999994
 21
211.66900000000001
 31
0.0
  0
LINE
  5
9C
  8
0
 62
     7
 10
78.792900000000003
 20
205.20699999999999
 30
0.0
 11
61.681699999999992
 21
222.31899999999999
 31
0.0
  0
LINE
  5
9D
  8
0
 62
     7
 10
61.681699999999992
 20
222.31899999999999
 30
0.0
 11
56.992899999999999
 21
222.31899999999999
 31
0.0
  0
LINE
  5
9E
  8
0
 62
     7
 10
102.59099999999999
 20
228.17400000000001
 30
0.0
 11
104.803
 21
228.767
 31
0.0
  0
LINE
  5
9F
  8
0
 62
     7
 10
104.803
 20
228.767
 30
0.0
 11
102.59099999999999
 21
229.36000000000001
 31
0.0
  0
LINE
  5
A0
  8
0
 62
     7
 10
102.59099999999999
 20
229.36000000000001
 30
0.0
 11
102.59099999999999
 21
228.17400000000001
 31
0.0
  0
LINE
  5
A1
  8
0
 62
     7
 10
108.81399999999999
 20
229.292
 30
0.0
 11
106.602
 21
228.69900000000001
 31
0.0
  0
LINE
  5
A2
  8
0
 62
     7
 10
106.602
 20
228.69900000000001
 30
0.0
 11
108.81399999999999
 21
228.10599999999999
 31
0.0
  0
LINE
  5
A3
  8
0
 62
     7
 10
108.81399999999999
 20
228.10599999999999
 30
0.0
 11
108.81399999999999
 21
229.292
 31
0.0
  0
LINE
  5
A4
  8
0
 62
     7
 10
100.014
 20
229.36000000000001
 30
0.0
 11
97.802400000000006
 21
228.767
 31
0.0
  0
LINE
  5
A5
  8
0
 62
     7
 10
97.802400000000006
 20
228.767
 30
0.0
 11
100.014
 21
228.17400000000001
 31
0.0
  0
LINE
  5
A6
  8
0
 62
     7
 10
100.014
 20
228.17400000000001
 30
0.0
 11
100.014
 21
229.36000000000001
 31
0.0
  0
LINE
  5
A7
  8
0
 62
     7
 10
112.583
 20
228.767
 30
0.0
 11
97.802400000000006
 21
228.767
 31
0.0
  0
LINE
  5
A8
  8
0
 62
     7
 10
97.802400000000006
 20
222.09800000000001
 30
0.0
 11
97.802400000000006
 21
229.46700000000001
 31
0.0
  0
LINE
  5
A9
  8
0
 62
     7
 10
51.614100000000001
 20
229.36000000000001
 30
0.0
 11
49.40229999999999
 21
228.767
 31
0.0
  0
LINE
  5
AA
  8
0
 62
     7
 10
49.40229999999999
 20
228.767
 30
0.0
 11
51.614100000000001
 21
228.17400000000001
 31
0.0
  0
LINE
  5
AB
  8
0
 62
     7
 10
51.614100000000001
 20
228.17400000000001
 30
0.0
 11
51.614100000000001
 21
229.36000000000001
 31
0.0
  0
LINE
  5
AC
  8
0
 62
     7
 10
45.390799999999999
 20
228.17400000000001
 30
0.0
 11
47.602200000000003
 21
228.767
 31
0.0
  0
LINE
  5
AD
  8
0
 62
     7
 10
47.602200000000003
 20
228.767
 30
0.0
 11
45.390799999999999
 21
229.36000000000001
 31
0.0
  0
LINE
  5
AE
  8
0
 62
     7
 10
45.390799999999999
 20
229.36000000000001
 30
0.0
 11
45.390799999999999
 21
228.17400000000001
 31
0.0
  0
LINE
  5
AF
  8
0
 62
     7
 10
54.191000000000003
 20
228.17400000000001
 30
0.0
 11
56.4024
 21
228.767
 31
0.0
  0
LINE
  5
B0
  8
0
 62
     7
 10
56.4024
 20
228.767
 30
0.0
 11
54.191000000000003
 21
229.36000000000001
 31
0.0
  0
LINE
  5
B1
  8
0
 62
     7
 10
54.191000000000003
 20
229.36000000000001
 30
0.0
 11
54.191000000000003
 21
228.17400000000001
 31
0.0
  0
LINE
  5
B2
  8
0
 62
     7
 10
41.163600000000002
 20
228.767
 30
0.0
 11
56.4024
 21
228.767
 31
0.0
  0
LINE
  5
B3
  8
0
 62
     7
 10
56.4024
 20
222.09800000000001
 30
0.0
 11
56.4024
 21
229.46700000000001
 31
0.0
  0
LINE
  5
B4
  8
0
 62
     7
 10
104.39100000000001
 20
244.63800000000001
 30
0.0
 11
106.602
 21
245.23099999999999
 31
0.0
  0
LINE
  5
B5
  8
0
 62
     7
 10
106.602
 20
245.23099999999999
 30
0.0
 11
104.39100000000001
 21
245.82300000000001
 31
0.0
  0
LINE
  5
B6
  8
0
 62
     7
 10
104.39100000000001
 20
245.82300000000001
 30
0.0
 11
104.39100000000001
 21
244.63800000000001
 31
0.0
  0
LINE
  5
B7
  8
0
 62
     7
 10
49.813600000000001
 20
245.82300000000001
 30
0.0
 11
47.602200000000003
 21
245.23099999999999
 31
0.0
  0
LINE
  5
B8
  8
0
 62
     7
 10
47.602200000000003
 20
245.23099999999999
 30
0.0
 11
49.813600000000001
 21
244.63800000000001
 31
0.0
  0
LINE
  5
B9
  8
0
 62
     7
 10
49.813600000000001
 20
244.63800000000001
 30
0.0
 11
49.813600000000001
 21
245.82300000000001
 31
0.0
  0
LINE
  5
BA
  8
0
 62
     7
 10
106.602
 20
245.23099999999999
 30
0.0
 11
47.602200000000003
 21
245.23099999999999
 31
0.0
  0
LINE
  5
BB
  8
0
 62
     7
 10
72.891400000000004
 20
244.63800000000001
 30
0.0
 11
75.102500000000006
 21
245.23099999999999
 31
0.0
  0
LINE
  5
BC
  8
0
 62
     7
 10
75.102500000000006
 20
245.23099999999999
 30
0.0
 11
72.891400000000004
 21
245.82300000000001
 31
0.0
  0
LINE
  5
BD
  8
0
 62
     7
 10
72.891400000000004
 20
245.82300000000001
 30
0.0
 11
72.891400000000004
 21
244.63800000000001
 31
0.0
  0
LINE
  5
BE
  8
0
 62
     7
 10
77.314300000000003
 20
245.82300000000001
 30
0.0
 11
75.102500000000006
 21
245.23099999999999
 31
0.0
  0
LINE
  5
BF
  8
0
 62
     7
 10
75.102500000000006
 20
245.23099999999999
 30
0.0
 11
77.314300000000003
 21
244.63800000000001
 31
0.0
  0
LINE
  5
C0
  8
0
 62
     7
 10
77.314300000000003
 20
244.63800000000001
 30
0.0
 11
77.314300000000003
 21
245.82300000000001
 31
0.0
  0
LINE
  5
C1
  8
0
 62
     7
 10
88.691399999999987
 20
238.464
 30
0.0
 11
90.902500000000003
 21
239.05699999999999
 31
0.0
  0
LINE
  5
C2
  8
0
 62
     7
 10
90.902500000000003
 20
239.05699999999999
 30
0.0
 11
88.691399999999987
 21
239.649
 31
0.0
  0
LINE
  5
C3
  8
0
 62
     7
 10
88.691399999999987
 20
239.649
 30
0.0
 11
88.691399999999987
 21
238.464
 31
0.0
  0
LINE
  5
C4
  8
0
 62
     7
 10
104.39100000000001
 20
238.464
 30
0.0
 11
106.602
 21
239.05699999999999
 31
0.0
  0
LINE
  5
C5
  8
0
 62
     7
 10
106.602
 20
239.05699999999999
 30
0.0
 11
104.39100000000001
 21
239.649
 31
0.0
  0
LINE
  5
C6
  8
0
 62
     7
 10
104.39100000000001
 20
239.649
 30
0.0
 11
104.39100000000001
 21
238.464
 31
0.0
  0
LINE
  5
C7
  8
0
 62
     7
 10
96.813999999999993
 20
239.649
 30
0.0
 11
94.602599999999995
 21
239.05699999999999
 31
0.0
  0
LINE
  5
C8
  8
0
 62
     7
 10
94.602599999999995
 20
239.05699999999999
 30
0.0
 11
96.813999999999993
 21
238.464
 31
0.0
  0
LINE
  5
C9
  8
0
 62
     7
 10
96.813999999999993
 20
238.464
 30
0.0
 11
96.813999999999993
 21
239.649
 31
0.0
  0
LINE
  5
CA
  8
0
 62
     7
 10
106.602
 20
239.05699999999999
 30
0.0
 11
84.993799999999993
 21
239.05699999999999
 31
0.0
  0
LINE
  5
CB
  8
0
 62
     7
 10
106.602
 20
222.09800000000001
 30
0.0
 11
106.602
 21
245.93100000000001
 31
0.0
  0
LINE
  5
CC
  8
0
 62
     7
 10
90.902500000000003
 20
211.81299999999999
 30
0.0
 11
90.902500000000003
 21
230.655
 31
0.0
  0
LINE
  5
CD
  8
0
 62
     7
 10
90.902500000000003
 20
236.63999999999999
 30
0.0
 11
90.902500000000003
 21
239.75700000000001
 31
0.0
  0
LINE
  5
CE
  8
0
 62
     7
 10
94.602599999999995
 20
213.34800000000001
 30
0.0
 11
94.602599999999995
 21
230.655
 31
0.0
  0
LINE
  5
CF
  8
0
 62
     7
 10
94.602599999999995
 20
236.577
 30
0.0
 11
94.602599999999995
 21
239.75700000000001
 31
0.0
  0
LINE
  5
D0
  8
0
 62
     7
 10
104.803
 20
222.09800000000001
 30
0.0
 11
104.803
 21
229.46700000000001
 31
0.0
  0
LINE
  5
D1
  8
0
 62
     7
 10
49.40229999999999
 20
222.09800000000001
 30
0.0
 11
49.40229999999999
 21
229.46700000000001
 31
0.0
  0
LINE
  5
D2
  8
0
 62
     7
 10
75.102500000000006
 20
214.54900000000001
 30
0.0
 11
75.102500000000006
 21
245.93100000000001
 31
0.0
  0
LINE
  5
D3
  8
0
 62
     7
 10
47.602200000000003
 20
222.09800000000001
 30
0.0
 11
47.602200000000003
 21
245.93100000000001
 31
0.0
  0
LINE
  5
D4
  8
0
 62
     7
 10
114.20099999999999
 20
194.18600000000001
 30
0.0
 11
113.608
 21
196.398
 31
0.0
  0
LINE
  5
D5
  8
0
 62
     7
 10
113.608
 20
196.398
 30
0.0
 11
113.01600000000001
 21
194.18600000000001
 31
0.0
  0
LINE
  5
D6
  8
0
 62
     7
 10
113.01600000000001
 20
194.18600000000001
 30
0.0
 11
114.20099999999999
 21
194.18600000000001
 31
0.0
  0
LINE
  5
D7
  8
0
 62
     7
 10
113.01600000000001
 20
200.40899999999999
 30
0.0
 11
113.608
 21
198.19800000000001
 31
0.0
  0
LINE
  5
D8
  8
0
 62
     7
 10
113.608
 20
198.19800000000001
 30
0.0
 11
114.20099999999999
 21
200.40899999999999
 31
0.0
  0
LINE
  5
D9
  8
0
 62
     7
 10
114.20099999999999
 20
200.40899999999999
 30
0.0
 11
113.01600000000001
 21
200.40899999999999
 31
0.0
  0
LINE
  5
DA
  8
0
 62
     7
 10
113.608
 20
201.947
 30
0.0
 11
113.608
 21
190.93599999999989
 31
0.0
  0
LINE
  5
DB
  8
0
 62
     7
 10
107.315
 20
196.398
 30
0.0
 11
114.30800000000001
 21
196.398
 31
0.0
  0
LINE
  5
DC
  8
0
 62
     7
 10
105.515
 20
198.19800000000001
 30
0.0
 11
114.30800000000001
 21
198.19800000000001
 31
0.0
  0
LINE
  5
DD
  8
0
 62
     7
 10
55.12360000000001
 20
135.31899999999999
 30
0.0
 11
54.530999999999999
 21
137.53
 31
0.0
  0
LINE
  5
DE
  8
0
 62
     7
 10
54.530999999999999
 20
137.53
 30
0.0
 11
53.938499999999998
 21
135.31899999999999
 31
0.0
  0
LINE
  5
DF
  8
0
 62
     7
 10
53.938499999999998
 20
135.31899999999999
 30
0.0
 11
55.12360000000001
 21
135.31899999999999
 31
0.0
  0
LINE
  5
E0
  8
0
 62
     7
 10
53.938499999999998
 20
133.74600000000001
 30
0.0
 11
54.530999999999999
 21
131.535
 31
0.0
  0
LINE
  5
E1
  8
0
 62
     7
 10
54.530999999999999
 20
131.535
 30
0.0
 11
55.12360000000001
 21
133.74600000000001
 31
0.0
  0
LINE
  5
E2
  8
0
 62
     7
 10
55.12360000000001
 20
133.74600000000001
 30
0.0
 11
53.938499999999998
 21
133.74600000000001
 31
0.0
  0
LINE
  5
E3
  8
0
 62
     7
 10
67.984899999999996
 20
137.53
 30
0.0
 11
53.831000000000003
 21
137.53
 31
0.0
  0
LINE
  5
E4
  8
0
 62
     7
 10
54.530999999999999
 20
137.53
 30
0.0
 11
54.530999999999999
 21
131.535
 31
0.0
  0
LINE
  5
E5
  8
0
 62
     7
 10
41.089199999999998
 20
136.923
 30
0.0
 11
40.49669999999999
 21
139.13499999999999
 31
0.0
  0
LINE
  5
E6
  8
0
 62
     7
 10
40.49669999999999
 20
139.13499999999999
 30
0.0
 11
39.9041
 21
136.923
 31
0.0
  0
LINE
  5
E7
  8
0
 62
     7
 10
39.9041
 20
136.923
 30
0.0
 11
41.089199999999998
 21
136.923
 31
0.0
  0
LINE
  5
E8
  8
0
 62
     7
 10
41.089199999999998
 20
129.32400000000001
 30
0.0
 11
40.49669999999999
 21
131.535
 31
0.0
  0
LINE
  5
E9
  8
0
 62
     7
 10
40.49669999999999
 20
131.535
 30
0.0
 11
39.9041
 21
129.32400000000001
 31
0.0
  0
LINE
  5
EA
  8
0
 62
     7
 10
39.9041
 20
129.32400000000001
 30
0.0
 11
41.089199999999998
 21
129.32400000000001
 31
0.0
  0
LINE
  5
EB
  8
0
 62
     7
 10
39.9041
 20
133.74600000000001
 30
0.0
 11
40.49669999999999
 21
131.535
 31
0.0
  0
LINE
  5
EC
  8
0
 62
     7
 10
40.49669999999999
 20
131.535
 30
0.0
 11
41.089199999999998
 21
133.74600000000001
 31
0.0
  0
LINE
  5
ED
  8
0
 62
     7
 10
41.089199999999998
 20
133.74600000000001
 30
0.0
 11
39.9041
 21
133.74600000000001
 31
0.0
  0
LINE
  5
EE
  8
0
 62
     7
 10
39.9041
 20
125.746
 30
0.0
 11
40.49669999999999
 21
123.535
 31
0.0
  0
LINE
  5
EF
  8
0
 62
     7
 10
40.49669999999999
 20
123.535
 30
0.0
 11
41.089199999999998
 21
125.746
 31
0.0
  0
LINE
  5
F0
  8
0
 62
     7
 10
41.089199999999998
 20
125.746
 30
0.0
 11
39.9041
 21
125.746
 31
0.0
  0
LINE
  5
F1
  8
0
 62
     7
 10
58.89289999999999
 20
139.13499999999999
 30
0.0
 11
39.796599999999998
 21
139.13499999999999
 31
0.0
  0
LINE
  5
F2
  8
0
 62
     7
 10
40.49669999999999
 20
139.13499999999999
 30
0.0
 11
40.49669999999999
 21
123.535
 31
0.0
  0
LINE
  5
F3
  8
0
 62
     7
 10
46.902200000000001
 20
123.535
 30
0.0
 11
39.796599999999998
 21
123.535
 31
0.0
  0
LINE
  5
F4
  8
0
 62
     7
 10
46.902200000000001
 20
131.535
 30
0.0
 11
39.796599999999998
 21
131.535
 31
0.0
  0
ARC
  5
F5
  8
0
 62
     7
 10
86.817182999999986
 20
145.68933699999999
 30
0.0
 40
9.3844380000000012
 50
201.046345
 51
268.97210899999999
  0
LINE
  5
F6
  8
0
  6
AIGENLINE002
 62
     7
 10
85.314499999999995
 20
144.96000000000001
 30
0.0
 11
94.602199999999996
 21
148.34
 31
0.0
  0
LINE
  5
F7
  8
0
  6
AIGENLINE002
 62
     7
 10
94.602199999999996
 20
154.33099999999999
 30
0.0
 11
94.602199999999996
 21
128.00700000000001
 31
0.0
  0
LINE
  5
F8
  8
0
 62
     7
 10
96.426100000000005
 20
133.785
 30
0.0
 11
96.002300000000005
 21
131.535
 31
0.0
  0
LINE
  5
F9
  8
0
 62
     7
 10
96.002300000000005
 20
131.535
 30
0.0
 11
97.494399999999985
 21
133.27199999999999
 31
0.0
  0
LINE
  5
FA
  8
0
 62
     7
 10
97.494399999999985
 20
133.27199999999999
 30
0.0
 11
96.426100000000005
 21
133.785
 31
0.0
  0
LINE
  5
FB
  8
0
 62
     7
 10
96.002300000000005
 20
131.535
 30
0.0
 11
98.767700000000005
 21
137.38399999999999
 31
0.0
  0
LINE
  5
FC
  8
0
 62
     7
 10
90.942499999999995
 20
133.74600000000001
 30
0.0
 11
91.534999999999997
 21
131.535
 31
0.0
  0
LINE
  5
FD
  8
0
 62
     7
 10
91.534999999999997
 20
131.535
 30
0.0
 11
92.127600000000015
 21
133.74600000000001
 31
0.0
  0
LINE
  5
FE
  8
0
 62
     7
 10
92.127600000000015
 20
133.74600000000001
 30
0.0
 11
90.942499999999995
 21
133.74600000000001
 31
0.0
  0
LINE
  5
FF
  8
0
 62
     7
 10
84.386399999999995
 20
135.959
 30
0.0
 11
86.648799999999994
 21
136.30600000000001
 31
0.0
  0
LINE
  5
100
  8
0
 62
     7
 10
86.648799999999994
 20
136.30600000000001
 30
0.0
 11
84.515600000000006
 21
137.137
 31
0.0
  0
LINE
  5
101
  8
0
 62
     7
 10
84.515600000000006
 20
137.137
 30
0.0
 11
84.386399999999995
 21
135.959
 31
0.0
  0
LINE
  5
102
  8
0
 62
     7
 10
79.611500000000007
 20
140.637
 30
0.0
 11
78.058800000000005
 21
142.31899999999999
 31
0.0
  0
LINE
  5
103
  8
0
 62
     7
 10
78.058800000000005
 20
142.31899999999999
 30
0.0
 11
78.562100000000001
 21
140.08600000000001
 31
0.0
  0
LINE
  5
104
  8
0
 62
     7
 10
78.562100000000001
 20
140.08600000000001
 30
0.0
 11
79.611500000000007
 21
140.637
 31
0.0
  0
LINE
  5
105
  8
0
 62
     7
 10
92.127600000000015
 20
142.22399999999999
 30
0.0
 11
91.534999999999997
 21
144.435
 31
0.0
  0
LINE
  5
106
  8
0
 62
     7
 10
91.534999999999997
 20
144.435
 30
0.0
 11
90.942499999999995
 21
142.22399999999999
 31
0.0
  0
LINE
  5
107
  8
0
 62
     7
 10
90.942499999999995
 20
142.22399999999999
 30
0.0
 11
92.127600000000015
 21
142.22399999999999
 31
0.0
  0
LINE
  5
108
  8
0
 62
     7
 10
91.534999999999997
 20
131.535
 30
0.0
 11
91.534999999999997
 21
144.435
 31
0.0
  0
LINE
  5
109
  8
0
 62
     7
 10
87.814999999999984
 20
144.435
 30
0.0
 11
92.235100000000003
 21
144.435
 31
0.0
  0
LINE
  5
10A
  8
0
 62
     7
 10
86.648799999999994
 20
144.482
 30
0.0
 11
86.648799999999994
 21
135.60599999999999
 31
0.0
  0
LINE
  5
10B
  8
0
 62
     7
 10
84.600399999999993
 20
144.6989999999999
 30
0.0
 11
77.1999
 21
142.006
 31
0.0
  0
LINE
  5
10C
  8
0
 62
     7
 10
74.063100000000006
 20
143.23400000000001
 30
0.0
 11
73.470600000000005
 21
145.44499999999999
 31
0.0
  0
LINE
  5
10D
  8
0
 62
     7
 10
73.470600000000005
 20
145.44499999999999
 30
0.0
 11
72.878
 21
143.23400000000001
 31
0.0
  0
LINE
  5
10E
  8
0
 62
     7
 10
72.878
 20
143.23400000000001
 30
0.0
 11
74.063100000000006
 21
143.23400000000001
 31
0.0
  0
LINE
  5
10F
  8
0
 62
     7
 10
72.878
 20
133.74600000000001
 30
0.0
 11
73.470600000000005
 21
131.535
 31
0.0
  0
LINE
  5
110
  8
0
 62
     7
 10
73.470600000000005
 20
131.535
 30
0.0
 11
74.063100000000006
 21
133.74600000000001
 31
0.0
  0
LINE
  5
111
  8
0
 62
     7
 10
74.063100000000006
 20
133.74600000000001
 30
0.0
 11
72.878
 21
133.74600000000001
 31
0.0
  0
LINE
  5
112
  8
0
 62
     7
 10
73.470600000000005
 20
145.44499999999999
 30
0.0
 11
73.470600000000005
 21
131.535
 31
0.0
  0
LINE
  5
113
  8
0
 62
     7
 10
85.636300000000006
 20
145.44499999999999
 30
0.0
 11
72.770499999999998
 21
145.44499999999999
 31
0.0
  0
LINE
  5
114
  8
0
 62
     7
 10
53.114100000000001
 20
107.31399999999999
 30
0.0
 11
50.902299999999997
 21
106.72199999999999
 31
0.0
  0
LINE
  5
115
  8
0
 62
     7
 10
50.902299999999997
 20
106.72199999999999
 30
0.0
 11
53.114100000000001
 21
106.129
 31
0.0
  0
LINE
  5
116
  8
0
 62
     7
 10
53.114100000000001
 20
106.129
 30
0.0
 11
53.114100000000001
 21
107.31399999999999
 31
0.0
  0
LINE
  5
117
  8
0
 62
     7
 10
101.09099999999999
 20
106.129
 30
0.0
 11
103.303
 21
106.72199999999999
 31
0.0
  0
LINE
  5
118
  8
0
 62
     7
 10
103.303
 20
106.72199999999999
 30
0.0
 11
101.09099999999999
 21
107.31399999999999
 31
0.0
  0
LINE
  5
119
  8
0
 62
     7
 10
101.09099999999999
 20
107.31399999999999
 30
0.0
 11
101.09099999999999
 21
106.129
 31
0.0
  0
LINE
  5
11A
  8
0
 62
     7
 10
50.902299999999997
 20
106.72199999999999
 30
0.0
 11
103.303
 21
106.72199999999999
 31
0.0
  0
LINE
  5
11B
  8
0
 62
     7
 10
103.303
 20
113.36799999999999
 30
0.0
 11
103.303
 21
106.02200000000001
 31
0.0
  0
LINE
  5
11C
  8
0
 62
     7
 10
50.902299999999997
 20
113.36799999999999
 30
0.0
 11
50.902299999999997
 21
106.02200000000001
 31
0.0
  0
LINE
  5
11D
  8
0
 62
     7
 10
73.507400000000004
 20
120.93899999999999
 30
0.0
 11
74.307699999999997
 21
123.084
 31
0.0
  0
LINE
  5
11E
  8
0
 62
     7
 10
74.307699999999997
 20
123.084
 30
0.0
 11
72.542100000000005
 21
121.627
 31
0.0
  0
LINE
  5
11F
  8
0
 62
     7
 10
72.542100000000005
 20
121.627
 30
0.0
 11
73.507400000000004
 21
120.93899999999999
 31
0.0
  0
LINE
  5
120
  8
0
 62
     7
 10
70.3476
 20
117.524
 30
0.0
 11
74.307699999999997
 21
123.084
 31
0.0
  0
LINE
  5
121
  8
0
 62
     7
 10
60.287100000000002
 20
117.524
 30
0.0
 11
70.3476
 21
117.524
 31
0.0
  0
LINE
  5
122
  8
0
 62
     7
 10
116.018
 20
129.32400000000001
 30
0.0
 11
115.426
 21
131.535
 31
0.0
  0
LINE
  5
123
  8
0
 62
     7
 10
115.426
 20
131.535
 30
0.0
 11
114.833
 21
129.32400000000001
 31
0.0
  0
LINE
  5
124
  8
0
 62
     7
 10
114.833
 20
129.32400000000001
 30
0.0
 11
116.018
 21
129.32400000000001
 31
0.0
  0
LINE
  5
125
  8
0
 62
     7
 10
114.833
 20
96.246600000000001
 30
0.0
 11
115.426
 21
94.035200000000003
 31
0.0
  0
LINE
  5
126
  8
0
 62
     7
 10
115.426
 20
94.035200000000003
 30
0.0
 11
116.018
 21
96.246600000000001
 31
0.0
  0
LINE
  5
127
  8
0
 62
     7
 10
116.018
 20
96.246600000000001
 30
0.0
 11
114.833
 21
96.246600000000001
 31
0.0
  0
LINE
  5
128
  8
0
 62
     7
 10
116.018
 20
150.22399999999999
 30
0.0
 11
115.426
 21
152.435
 31
0.0
  0
LINE
  5
129
  8
0
 62
     7
 10
115.426
 20
152.435
 30
0.0
 11
114.833
 21
150.22399999999999
 31
0.0
  0
LINE
  5
12A
  8
0
 62
     7
 10
114.833
 20
150.22399999999999
 30
0.0
 11
116.018
 21
150.22399999999999
 31
0.0
  0
LINE
  5
12B
  8
0
 62
     7
 10
114.833
 20
133.74700000000001
 30
0.0
 11
115.426
 21
131.535
 31
0.0
  0
LINE
  5
12C
  8
0
 62
     7
 10
115.426
 20
131.535
 30
0.0
 11
116.018
 21
133.74700000000001
 31
0.0
  0
LINE
  5
12D
  8
0
 62
     7
 10
116.018
 20
133.74700000000001
 30
0.0
 11
114.833
 21
133.74700000000001
 31
0.0
  0
LINE
  5
12E
  8
0
 62
     7
 10
115.426
 20
152.435
 30
0.0
 11
115.426
 21
94.035200000000003
 31
0.0
  0
LINE
  5
12F
  8
0
 62
     7
 10
96.424700000000016
 20
94.035200000000003
 30
0.0
 11
116.126
 21
94.035200000000003
 31
0.0
  0
LINE
  5
130
  8
0
 62
     7
 10
107.325
 20
131.535
 30
0.0
 11
116.126
 21
131.535
 31
0.0
  0
LINE
  5
131
  8
0
 62
     7
 10
96.674099999999996
 20
152.435
 30
0.0
 11
116.126
 21
152.435
 31
0.0
  0
LINE
  5
132
  8
0
 62
     7
 10
93.075699999999998
 20
91.890199999999993
 30
0.0
 11
93.876000000000005
 21
94.035200000000003
 31
0.0
  0
LINE
  5
133
  8
0
 62
     7
 10
93.876000000000005
 20
94.035200000000003
 30
0.0
 11
92.110399999999998
 21
92.577499999999986
 31
0.0
  0
LINE
  5
134
  8
0
 62
     7
 10
92.110399999999998
 20
92.577499999999986
 30
0.0
 11
93.075699999999998
 21
91.890199999999993
 31
0.0
  0
LINE
  5
135
  8
0
 62
     7
 10
89.915800000000004
 20
88.475099999999983
 30
0.0
 11
93.876000000000005
 21
94.035200000000003
 31
0.0
  0
LINE
  5
136
  8
0
 62
     7
 10
83.472800000000007
 20
88.475099999999983
 30
0.0
 11
89.915800000000004
 21
88.475099999999983
 31
0.0
  0
LINE
  5
137
  8
0
 62
     7
 10
158.215
 20
116.474
 30
0.0
 11
156.494
 21
117.985
 31
0.0
  0
LINE
  5
138
  8
0
 62
     7
 10
156.494
 20
117.985
 30
0.0
 11
157.22900000000001
 21
115.816
 31
0.0
  0
LINE
  5
139
  8
0
 62
     7
 10
157.22900000000001
 20
115.816
 30
0.0
 11
158.215
 21
116.474
 31
0.0
  0
LINE
  5
13A
  8
0
 62
     7
 10
156.494
 20
117.985
 30
0.0
 11
160.279
 21
112.315
 31
0.0
  0
ARC
  5
13B
  8
0
 62
     7
 10
164.41656599999999
 20
129.74318400000001
 30
0.0
 40
0.228644
 50
182.175712
 51
267.82431800000001
  0
ARC
  5
13C
  8
0
 62
     7
 10
164.39920599999999
 20
129.74318400000001
 30
0.0
 40
0.228644
 50
272.175702
 51
357.82430799999997
  0
ARC
  5
13D
  8
0
 62
     7
 10
164.39920599999999
 20
129.72582299999999
 30
0.0
 40
0.228644
 50
2.1756919999999988
 51
87.824297999999999
  0
ARC
  5
13E
  8
0
 62
     7
 10
164.41656599999999
 20
129.72582299999999
 30
0.0
 40
0.228644
 50
92.175681999999995
 51
177.824288
  0
ARC
  5
13F
  8
0
 62
     7
 10
164.41656599999999
 20
126.74352
 30
0.0
 40
0.228644
 50
182.175712
 51
267.82431800000001
  0
ARC
  5
140
  8
0
 62
     7
 10
164.39920599999999
 20
126.74352
 30
0.0
 40
0.228644
 50
272.175702
 51
357.82430799999997
  0
ARC
  5
141
  8
0
 62
     7
 10
164.39920599999999
 20
126.72615999999999
 30
0.0
 40
0.228644
 50
2.1756919999999988
 51
87.824297999999999
  0
ARC
  5
142
  8
0
 62
     7
 10
164.41656599999999
 20
126.72615999999999
 30
0.0
 40
0.228644
 50
92.175681999999995
 51
177.824288
  0
LINE
  5
143
  8
0
 62
     7
 10
158.96899999999999
 20
118.235
 30
0.0
 11
165.108
 21
118.235
 31
0.0
  0
LINE
  5
144
  8
0
 62
     7
 10
155.26900000000001
 20
129.73500000000001
 30
0.0
 11
165.108
 21
129.73500000000001
 31
0.0
  0
LINE
  5
145
  8
0
 62
     7
 10
171.39500000000001
 20
129.32400000000001
 30
0.0
 11
170.80199999999999
 21
131.535
 31
0.0
  0
LINE
  5
146
  8
0
 62
     7
 10
170.80199999999999
 20
131.535
 30
0.0
 11
170.209
 21
129.32400000000001
 31
0.0
  0
LINE
  5
147
  8
0
 62
     7
 10
170.209
 20
129.32400000000001
 30
0.0
 11
171.39500000000001
 21
129.32400000000001
 31
0.0
  0
LINE
  5
148
  8
0
 62
     7
 10
170.209
 20
128.946
 30
0.0
 11
170.80199999999999
 21
126.735
 31
0.0
  0
LINE
  5
149
  8
0
 62
     7
 10
170.80199999999999
 20
126.735
 30
0.0
 11
171.39500000000001
 21
128.946
 31
0.0
  0
LINE
  5
14A
  8
0
 62
     7
 10
171.39500000000001
 20
128.946
 30
0.0
 11
170.209
 21
128.946
 31
0.0
  0
LINE
  5
14B
  8
0
 62
     7
 10
170.80199999999999
 20
131.535
 30
0.0
 11
170.80199999999999
 21
126.735
 31
0.0
  0
LINE
  5
14C
  8
0
 62
     7
 10
165.0
 20
122.023
 30
0.0
 11
164.40799999999999
 21
124.235
 31
0.0
  0
LINE
  5
14D
  8
0
 62
     7
 10
164.40799999999999
 20
124.235
 30
0.0
 11
163.815
 21
122.023
 31
0.0
  0
LINE
  5
14E
  8
0
 62
     7
 10
163.815
 20
122.023
 30
0.0
 11
165.0
 21
122.023
 31
0.0
  0
LINE
  5
14F
  8
0
 62
     7
 10
163.815
 20
133.74600000000001
 30
0.0
 11
164.40799999999999
 21
131.535
 31
0.0
  0
LINE
  5
150
  8
0
 62
     7
 10
164.40799999999999
 20
131.535
 30
0.0
 11
165.0
 21
133.74600000000001
 31
0.0
  0
LINE
  5
151
  8
0
 62
     7
 10
165.0
 20
133.74600000000001
 30
0.0
 11
163.815
 21
133.74600000000001
 31
0.0
  0
LINE
  5
152
  8
0
 62
     7
 10
163.815
 20
120.446
 30
0.0
 11
164.40799999999999
 21
118.235
 31
0.0
  0
LINE
  5
153
  8
0
 62
     7
 10
164.40799999999999
 20
118.235
 30
0.0
 11
165.0
 21
120.446
 31
0.0
  0
LINE
  5
154
  8
0
 62
     7
 10
165.0
 20
120.446
 30
0.0
 11
163.815
 21
120.446
 31
0.0
  0
LINE
  5
155
  8
0
 62
     7
 10
164.40799999999999
 20
136.41499999999999
 30
0.0
 11
164.40799999999999
 21
118.235
 31
0.0
  0
LINE
  5
156
  8
0
 62
     7
 10
158.96899999999999
 20
124.235
 30
0.0
 11
165.108
 21
124.235
 31
0.0
  0
LINE
  5
157
  8
0
 62
     7
 10
158.96899999999999
 20
126.735
 30
0.0
 11
171.50200000000001
 21
126.735
 31
0.0
  0
LINE
  5
158
  8
0
 62
     7
 10
155.26900000000001
 20
131.535
 30
0.0
 11
171.50200000000001
 21
131.535
 31
0.0
  0
LINE
  5
159
  8
0
 62
     7
 10
144.267
 20
86.921700000000001
 30
0.0
 11
142.05600000000001
 21
86.329099999999997
 31
0.0
  0
LINE
  5
15A
  8
0
 62
     7
 10
142.05600000000001
 20
86.329099999999997
 30
0.0
 11
144.267
 21
85.736599999999996
 31
0.0
  0
LINE
  5
15B
  8
0
 62
     7
 10
144.267
 20
85.736599999999996
 30
0.0
 11
144.267
 21
86.921700000000001
 31
0.0
  0
LINE
  5
15C
  8
0
 62
     7
 10
152.34399999999999
 20
85.736599999999996
 30
0.0
 11
154.55600000000001
 21
86.329099999999997
 31
0.0
  0
LINE
  5
15D
  8
0
 62
     7
 10
154.55600000000001
 20
86.329099999999997
 30
0.0
 11
152.34399999999999
 21
86.921700000000001
 31
0.0
  0
LINE
  5
15E
  8
0
 62
     7
 10
152.34399999999999
 20
86.921700000000001
 30
0.0
 11
152.34399999999999
 21
85.736599999999996
 31
0.0
  0
LINE
  5
15F
  8
0
 62
     7
 10
142.05600000000001
 20
86.329099999999997
 30
0.0
 11
154.55600000000001
 21
86.329099999999997
 31
0.0
  0
LINE
  5
160
  8
0
 62
     7
 10
154.55600000000001
 20
115.06
 30
0.0
 11
154.55600000000001
 21
85.629099999999994
 31
0.0
  0
LINE
  5
161
  8
0
 62
     7
 10
142.05600000000001
 20
91.964600000000004
 30
0.0
 11
142.05600000000001
 21
85.629099999999994
 31
0.0
  0
LINE
  5
162
  8
0
 62
     7
 10
154.55600000000001
 20
118.48399999999999
 30
0.0
 11
157.255
 21
118.48399999999999
 31
0.0
  0
LINE
  5
163
  8
0
 62
     7
 10
154.55600000000001
 20
117.985
 30
0.0
 11
157.255
 21
117.985
 31
0.0
  0
LINE
  5
164
  8
0
 62
     7
 10
156.36600000000001
 20
118.48399999999999
 30
0.0
 11
156.494
 21
117.985
 31
0.0
  0
LINE
  5
165
  8
0
 62
     7
 10
155.76599999999999
 20
118.48399999999999
 30
0.0
 11
155.89400000000001
 21
117.985
 31
0.0
  0
LINE
  5
166
  8
0
 62
     7
 10
155.166
 20
118.48399999999999
 30
0.0
 11
155.2939999999999
 21
117.985
 31
0.0
  0
LINE
  5
167
  8
0
 62
     7
 10
155.566
 20
118.48399999999999
 30
0.0
 11
155.69399999999999
 21
117.985
 31
0.0
  0
LINE
  5
168
  8
0
 62
     7
 10
154.76599999999999
 20
118.48399999999999
 30
0.0
 11
154.89400000000001
 21
117.985
 31
0.0
  0
LINE
  5
169
  8
0
 62
     7
 10
156.566
 20
118.48399999999999
 30
0.0
 11
156.69399999999999
 21
117.985
 31
0.0
  0
LINE
  5
16A
  8
0
 62
     7
 10
156.166
 20
118.48399999999999
 30
0.0
 11
156.29400000000001
 21
117.985
 31
0.0
  0
LINE
  5
16B
  8
0
 62
     7
 10
156.96600000000001
 20
118.48399999999999
 30
0.0
 11
157.09399999999999
 21
117.985
 31
0.0
  0
LINE
  5
16C
  8
0
 62
     7
 10
155.36600000000001
 20
118.48399999999999
 30
0.0
 11
155.494
 21
117.985
 31
0.0
  0
LINE
  5
16D
  8
0
 62
     7
 10
155.96600000000001
 20
118.48399999999999
 30
0.0
 11
156.09399999999999
 21
117.985
 31
0.0
  0
LINE
  5
16E
  8
0
 62
     7
 10
154.566
 20
118.48399999999999
 30
0.0
 11
154.69399999999999
 21
117.985
 31
0.0
  0
LINE
  5
16F
  8
0
 62
     7
 10
156.76599999999999
 20
118.48399999999999
 30
0.0
 11
156.89400000000001
 21
117.985
 31
0.0
  0
LINE
  5
170
  8
0
 62
     7
 10
154.96600000000001
 20
118.48399999999999
 30
0.0
 11
155.09399999999999
 21
117.985
 31
0.0
  0
LINE
  5
171
  8
0
 62
     7
 10
157.166
 20
118.48399999999999
 30
0.0
 11
157.28700000000001
 21
118.011
 31
0.0
  0
LINE
  5
172
  8
0
 62
     7
 10
157.255
 20
117.985
 30
0.0
 11
157.55600000000001
 21
118.235
 31
0.0
  0
LINE
  5
173
  8
0
 62
     7
 10
157.255
 20
118.48399999999999
 30
0.0
 11
157.55600000000001
 21
118.235
 31
0.0
  0
LINE
  5
174
  8
0
 62
     7
 10
154.55600000000001
 20
124.485
 30
0.0
 11
157.255
 21
124.485
 31
0.0
  0
LINE
  5
175
  8
0
 62
     7
 10
154.55600000000001
 20
123.985
 30
0.0
 11
157.255
 21
123.985
 31
0.0
  0
LINE
  5
176
  8
0
 62
     7
 10
156.36600000000001
 20
124.485
 30
0.0
 11
156.494
 21
123.985
 31
0.0
  0
LINE
  5
177
  8
0
 62
     7
 10
155.76599999999999
 20
124.485
 30
0.0
 11
155.89400000000001
 21
123.985
 31
0.0
  0
LINE
  5
178
  8
0
 62
     7
 10
155.166
 20
124.485
 30
0.0
 11
155.2939999999999
 21
123.985
 31
0.0
  0
LINE
  5
179
  8
0
 62
     7
 10
155.566
 20
124.485
 30
0.0
 11
155.69399999999999
 21
123.985
 31
0.0
  0
LINE
  5
17A
  8
0
 62
     7
 10
154.76599999999999
 20
124.485
 30
0.0
 11
154.89400000000001
 21
123.985
 31
0.0
  0
LINE
  5
17B
  8
0
 62
     7
 10
156.566
 20
124.485
 30
0.0
 11
156.69399999999999
 21
123.985
 31
0.0
  0
LINE
  5
17C
  8
0
 62
     7
 10
156.166
 20
124.485
 30
0.0
 11
156.29400000000001
 21
123.985
 31
0.0
  0
LINE
  5
17D
  8
0
 62
     7
 10
156.96600000000001
 20
124.485
 30
0.0
 11
157.09399999999999
 21
123.985
 31
0.0
  0
LINE
  5
17E
  8
0
 62
     7
 10
155.36600000000001
 20
124.485
 30
0.0
 11
155.494
 21
123.985
 31
0.0
  0
LINE
  5
17F
  8
0
 62
     7
 10
155.96600000000001
 20
124.485
 30
0.0
 11
156.09399999999999
 21
123.985
 31
0.0
  0
LINE
  5
180
  8
0
 62
     7
 10
154.566
 20
124.485
 30
0.0
 11
154.69399999999999
 21
123.985
 31
0.0
  0
LINE
  5
181
  8
0
 62
     7
 10
156.76599999999999
 20
124.485
 30
0.0
 11
156.89400000000001
 21
123.985
 31
0.0
  0
LINE
  5
182
  8
0
 62
     7
 10
154.96600000000001
 20
124.485
 30
0.0
 11
155.09399999999999
 21
123.985
 31
0.0
  0
LINE
  5
183
  8
0
 62
     7
 10
157.166
 20
124.485
 30
0.0
 11
157.28700000000001
 21
124.011
 31
0.0
  0
LINE
  5
184
  8
0
 62
     7
 10
157.255
 20
123.985
 30
0.0
 11
157.55600000000001
 21
124.235
 31
0.0
  0
LINE
  5
185
  8
0
 62
     7
 10
157.255
 20
124.485
 30
0.0
 11
157.55600000000001
 21
124.235
 31
0.0
  0
LINE
  5
186
  8
0
 62
     7
 10
154.55600000000001
 20
126.985
 30
0.0
 11
157.255
 21
126.985
 31
0.0
  0
LINE
  5
187
  8
0
 62
     7
 10
154.55600000000001
 20
126.485
 30
0.0
 11
157.255
 21
126.485
 31
0.0
  0
LINE
  5
188
  8
0
 62
     7
 10
156.36600000000001
 20
126.985
 30
0.0
 11
156.494
 21
126.485
 31
0.0
  0
LINE
  5
189
  8
0
 62
     7
 10
155.76599999999999
 20
126.985
 30
0.0
 11
155.89400000000001
 21
126.485
 31
0.0
  0
LINE
  5
18A
  8
0
 62
     7
 10
155.166
 20
126.985
 30
0.0
 11
155.2939999999999
 21
126.485
 31
0.0
  0
LINE
  5
18B
  8
0
 62
     7
 10
155.566
 20
126.985
 30
0.0
 11
155.69399999999999
 21
126.485
 31
0.0
  0
LINE
  5
18C
  8
0
 62
     7
 10
154.76599999999999
 20
126.985
 30
0.0
 11
154.89400000000001
 21
126.485
 31
0.0
  0
LINE
  5
18D
  8
0
 62
     7
 10
156.566
 20
126.985
 30
0.0
 11
156.69399999999999
 21
126.485
 31
0.0
  0
LINE
  5
18E
  8
0
 62
     7
 10
156.166
 20
126.985
 30
0.0
 11
156.29400000000001
 21
126.485
 31
0.0
  0
LINE
  5
18F
  8
0
 62
     7
 10
156.96600000000001
 20
126.985
 30
0.0
 11
157.09399999999999
 21
126.485
 31
0.0
  0
LINE
  5
190
  8
0
 62
     7
 10
155.36600000000001
 20
126.985
 30
0.0
 11
155.494
 21
126.485
 31
0.0
  0
LINE
  5
191
  8
0
 62
     7
 10
155.96600000000001
 20
126.985
 30
0.0
 11
156.09399999999999
 21
126.485
 31
0.0
  0
LINE
  5
192
  8
0
 62
     7
 10
154.566
 20
126.985
 30
0.0
 11
154.69399999999999
 21
126.485
 31
0.0
  0
LINE
  5
193
  8
0
 62
     7
 10
156.76599999999999
 20
126.985
 30
0.0
 11
156.89400000000001
 21
126.485
 31
0.0
  0
LINE
  5
194
  8
0
 62
     7
 10
154.96600000000001
 20
126.985
 30
0.0
 11
155.09399999999999
 21
126.485
 31
0.0
  0
LINE
  5
195
  8
0
 62
     7
 10
157.166
 20
126.985
 30
0.0
 11
157.28700000000001
 21
126.511
 31
0.0
  0
LINE
  5
196
  8
0
 62
     7
 10
157.255
 20
126.485
 30
0.0
 11
157.55600000000001
 21
126.735
 31
0.0
  0
LINE
  5
197
  8
0
 62
     7
 10
157.255
 20
126.985
 30
0.0
 11
157.55600000000001
 21
126.735
 31
0.0
  0
LINE
  5
198
  8
0
  6
AIGENLINE003
 62
     7
 10
56.4024
 20
221.398
 30
0.0
 11
56.4024
 21
198.19800000000001
 31
0.0
  0
LINE
  5
199
  8
0
  6
AIGENLINE003
 62
     7
 10
97.802400000000006
 20
221.398
 30
0.0
 11
97.802400000000006
 21
198.19800000000001
 31
0.0
  0
LINE
  5
19A
  8
0
 62
     7
 10
154.05600000000001
 20
123.535
 30
0.0
 11
154.05600000000001
 21
115.735
 31
0.0
  0
LINE
  5
19B
  8
0
 62
     7
 10
154.55600000000001
 20
123.535
 30
0.0
 11
154.55600000000001
 21
115.735
 31
0.0
  0
ARC
  5
19C
  8
0
 62
     7
 10
153.85334700000001
 20
120.90386700000001
 30
0.0
 40
0.207539
 50
240.37648799999999
 51
326.13658199999998
  0
ARC
  5
19D
  8
0
 62
     7
 10
153.85394199999999
 20
120.89402200000001
 30
0.0
 40
0.201711
 50
328.365048
 51
359.89259800000002
  0
ARC
  5
19E
  8
0
 62
     7
 10
153.54491100000001
 20
122.48239700000001
 30
0.0
 40
0.510778
 50
0.6720760000000002
 51
57.641753999999999
  0
LINE
  5
19F
  8
0
 62
     7
 10
152.81200000000001
 20
123.535
 30
0.0
 11
153.81800000000001
 21
122.914
 31
0.0
  0
LINE
  5
1A0
  8
0
 62
     7
 10
149.19399999999999
 20
123.535
 30
0.0
 11
153.751
 21
120.723
 31
0.0
  0
ARC
  5
1A1
  8
0
 62
     7
 10
154.500913
 20
118.22770300000001
 30
0.0
 40
0.744876
 50
126.70984199999999
 51
212.405125
  0
ARC
  5
1A2
  8
0
 62
     7
 10
154.46992700000001
 20
118.242796
 30
0.0
 40
0.7273960000000002
 50
214.71744899999999
 51
235.28258099999999
  0
LINE
  5
1A3
  8
0
 62
     7
 10
154.05600000000001
 20
115.735
 30
0.0
 11
154.55600000000001
 21
115.735
 31
0.0
  0
ARC
  5
1A4
  8
0
  6
AIGENLINE001
 62
     7
 10
137.06272100000001
 20
129.68022099999999
 30
0.0
 40
0.744877
 50
216.709889
 51
302.40509800000001
  0
ARC
  5
1A5
  8
0
  6
AIGENLINE001
 62
     7
 10
137.059743
 20
129.63711900000001
 30
0.0
 40
0.710544
 50
304.47080999999997
 51
325.5292
  0
LINE
  5
1A6
  8
0
  6
AIGENLINE001
 62
     7
 10
136.80600000000001
 20
129.73500000000001
 30
0.0
 11
136.80600000000001
 21
130.935
 31
0.0
  0
LINE
  5
1A7
  8
0
  6
AIGENLINE001
 62
     7
 10
137.30500000000001
 20
129.73500000000001
 30
0.0
 11
137.30500000000001
 21
130.935
 31
0.0
  0
LINE
  5
1A8
  8
0
  6
AIGENLINE001
 62
     7
 10
137.30500000000001
 20
130.935
 30
0.0
 11
137.05600000000001
 21
131.23500000000001
 31
0.0
  0
LINE
  5
1A9
  8
0
  6
AIGENLINE001
 62
     7
 10
136.80600000000001
 20
130.935
 30
0.0
 11
137.05600000000001
 21
131.23500000000001
 31
0.0
  0
ARC
  5
1AA
  8
0
  6
AIGENLINE001
 62
     7
 10
145.56269399999999
 20
129.67933099999999
 30
0.0
 40
0.7442130000000001
 50
216.662474
 51
302.45251300000001
  0
ARC
  5
1AB
  8
0
  6
AIGENLINE001
 62
     7
 10
145.55988099999999
 20
129.63711900000001
 30
0.0
 40
0.710544
 50
304.47080999999997
 51
325.5292
  0
LINE
  5
1AC
  8
0
  6
AIGENLINE001
 62
     7
 10
145.30600000000001
 20
129.73500000000001
 30
0.0
 11
145.30600000000001
 21
130.935
 31
0.0
  0
LINE
  5
1AD
  8
0
  6
AIGENLINE001
 62
     7
 10
145.80600000000001
 20
129.73500000000001
 30
0.0
 11
145.80600000000001
 21
130.935
 31
0.0
  0
LINE
  5
1AE
  8
0
  6
AIGENLINE001
 62
     7
 10
145.80600000000001
 20
130.935
 30
0.0
 11
145.55600000000001
 21
131.23500000000001
 31
0.0
  0
LINE
  5
1AF
  8
0
  6
AIGENLINE001
 62
     7
 10
145.30600000000001
 20
130.935
 30
0.0
 11
145.55600000000001
 21
131.23500000000001
 31
0.0
  0
ARC
  5
1B0
  8
0
 62
     7
 10
129.866714
 20
123.84604
 30
0.0
 40
0.311218
 50
182.0808429999999
 51
267.985006
  0
ARC
  5
1B1
  8
0
 62
     7
 10
129.855772
 20
131.23485199999999
 30
0.0
 40
0.30007
 50
90.0
 51
179.99996999999999
  0
LINE
  5
1B2
  8
0
 62
     7
 10
129.85599999999999
 20
123.535
 30
0.0
 11
154.55600000000001
 21
123.535
 31
0.0
  0
LINE
  5
1B3
  8
0
 62
     7
 10
154.55600000000001
 20
131.535
 30
0.0
 11
154.55600000000001
 21
123.535
 31
0.0
  0
LINE
  5
1B4
  8
0
 62
     7
 10
129.85599999999999
 20
131.535
 30
0.0
 11
154.55600000000001
 21
131.535
 31
0.0
  0
LINE
  5
1B5
  8
0
 62
     7
 10
129.55600000000001
 20
131.23500000000001
 30
0.0
 11
129.55600000000001
 21
123.83499999999999
 31
0.0
  0
LINE
  5
1B6
  8
0
 62
     7
 10
77.151300000000006
 20
123.535
 30
0.0
 11
77.151300000000006
 21
123.185
 31
0.0
  0
LINE
  5
1B7
  8
0
 62
     7
 10
77.051100000000005
 20
123.535
 30
0.0
 11
77.051100000000005
 21
123.084
 31
0.0
  0
LINE
  5
1B8
  8
0
 62
     7
 10
73.150899999999993
 20
123.535
 30
0.0
 11
73.150899999999993
 21
123.084
 31
0.0
  0
LINE
  5
1B9
  8
0
 62
     7
 10
73.051299999999998
 20
123.535
 30
0.0
 11
73.051299999999998
 21
123.185
 31
0.0
  0
ARC
  5
1BA
  8
0
 62
     7
 10
50.888679000000003
 20
118.22145500000001
 30
0.0
 40
0.363883
 50
2.0862080000000001
 51
87.800995
  0
ARC
  5
1BB
  8
0
 62
     7
 10
50.916328
 20
118.22101499999999
 30
0.0
 40
0.364313
 50
92.153068000000019
 51
177.846902
  0
ARC
  5
1BC
  8
0
 62
     7
 10
50.915258999999999
 20
118.248035
 30
0.0
 40
0.363232
 50
182.10361499999999
 51
268.00920200000002
  0
ARC
  5
1BD
  8
0
 62
     7
 10
50.888975000000002
 20
118.248369
 30
0.0
 40
0.363603
 50
272.154068
 51
357.84594199999998
  0
LINE
  5
1BE
  8
0
 62
     7
 10
50.652200000000001
 20
123.535
 30
0.0
 11
50.652200000000001
 21
120.693
 31
0.0
  0
LINE
  5
1BF
  8
0
 62
     7
 10
51.1524
 20
123.535
 30
0.0
 11
51.1524
 21
120.693
 31
0.0
  0
LINE
  5
1C0
  8
0
 62
     7
 10
51.1524
 20
120.693
 30
0.0
 11
50.652200000000001
 21
120.693
 31
0.0
  0
ARC
  5
1C1
  8
0
 62
     7
 10
50.902296999999997
 20
119.53803499999999
 30
0.0
 40
3.8030839999999988
 50
246.77034
 51
293.22967999999992
  0
LINE
  5
1C2
  8
0
 62
     7
 10
49.40229999999999
 20
123.535
 30
0.0
 11
49.40229999999999
 21
116.04300000000001
 31
0.0
  0
LINE
  5
1C3
  8
0
 62
     7
 10
52.402299999999997
 20
123.535
 30
0.0
 11
52.402299999999997
 21
116.04300000000001
 31
0.0
  0
ARC
  5
1C4
  8
0
 62
     7
 10
103.288509
 20
118.221039
 30
0.0
 40
0.364301
 50
2.149321
 51
87.794303999999997
  0
ARC
  5
1C5
  8
0
 62
     7
 10
103.316226
 20
118.22136399999999
 30
0.0
 40
0.363964
 50
92.156494999999993
 51
177.8998409999999
  0
ARC
  5
1C6
  8
0
 62
     7
 10
103.31587399999999
 20
118.24840399999999
 30
0.0
 40
0.363626
 50
182.1594639999999
 51
267.89698700000002
  0
ARC
  5
1C7
  8
0
 62
     7
 10
103.28886199999999
 20
118.248729
 30
0.0
 40
0.363963
 50
272.15224499999999
 51
357.7913430000001
  0
LINE
  5
1C8
  8
0
 62
     7
 10
103.05200000000001
 20
123.535
 30
0.0
 11
103.05200000000001
 21
120.693
 31
0.0
  0
LINE
  5
1C9
  8
0
 62
     7
 10
103.55200000000001
 20
123.535
 30
0.0
 11
103.55200000000001
 21
120.693
 31
0.0
  0
LINE
  5
1CA
  8
0
 62
     7
 10
103.55200000000001
 20
120.693
 30
0.0
 11
103.05200000000001
 21
120.693
 31
0.0
  0
ARC
  5
1CB
  8
0
 62
     7
 10
103.30253
 20
119.538664
 30
0.0
 40
3.8036609999999991
 50
246.77407600000001
 51
293.22594400000003
  0
LINE
  5
1CC
  8
0
 62
     7
 10
101.803
 20
123.535
 30
0.0
 11
101.803
 21
116.04300000000001
 31
0.0
  0
LINE
  5
1CD
  8
0
 62
     7
 10
104.803
 20
123.535
 30
0.0
 11
104.803
 21
116.04300000000001
 31
0.0
  0
LINE
  5
1CE
  8
0
 62
     7
 10
47.602200000000003
 20
131.535
 30
0.0
 11
106.602
 21
131.535
 31
0.0
  0
LINE
  5
1CF
  8
0
 62
     7
 10
47.602200000000003
 20
123.535
 30
0.0
 11
106.602
 21
123.535
 31
0.0
  0
LINE
  5
1D0
  8
0
 62
     7
 10
47.602200000000003
 20
196.398
 30
0.0
 11
106.602
 21
196.398
 31
0.0
  0
LINE
  5
1D1
  8
0
 62
     7
 10
106.602
 20
221.398
 30
0.0
 11
47.602200000000003
 21
221.398
 31
0.0
  0
LINE
  5
1D2
  8
0
 62
     7
 10
106.602
 20
131.535
 30
0.0
 11
106.602
 21
123.535
 31
0.0
  0
LINE
  5
1D3
  8
0
 62
     7
 10
47.602200000000003
 20
131.535
 30
0.0
 11
47.602200000000003
 21
123.535
 31
0.0
  0
LINE
  5
1D4
  8
0
 62
     7
 10
47.602200000000003
 20
221.398
 30
0.0
 11
47.602200000000003
 21
196.398
 31
0.0
  0
LINE
  5
1D5
  8
0
 62
     7
 10
106.602
 20
221.398
 30
0.0
 11
106.602
 21
196.398
 31
0.0
  0
ARC
  5
1D6
  8
0
  6
AIGENLINE001
 62
     7
 10
140.66872699999999
 20
129.02710999999999
 30
0.0
 40
0.208006
 50
92.213549000000015
 51
177.78642099999999
  0
ARC
  5
1D7
  8
0
  6
AIGENLINE001
 62
     7
 10
140.66441399999999
 20
129.03698600000001
 30
0.0
 40
0.203546
 50
180.51823099999999
 51
237.68943999999999
  0
ARC
  5
1D8
  8
0
  6
AIGENLINE001
 62
     7
 10
143.43030999999999
 20
128.72771900000001
 30
0.0
 40
0.507246
 50
58.571261000000007
 51
89.776415
  0
LINE
  5
1D9
  8
0
  6
AIGENLINE001
 62
     7
 10
140.55600000000001
 20
128.86500000000001
 30
0.0
 11
149.19399999999999
 21
123.535
 31
0.0
  0
LINE
  5
1DA
  8
0
  6
AIGENLINE001
 62
     7
 10
143.69499999999999
 20
129.161
 30
0.0
 11
152.81200000000001
 21
123.535
 31
0.0
  0
ARC
  5
1DB
  8
0
  6
AIGENLINE001
 62
     7
 10
154.500022
 20
124.227884
 30
0.0
 40
0.7442130000000001
 50
126.66242699999999
 51
212.45254
  0
ARC
  5
1DC
  8
0
  6
AIGENLINE001
 62
     7
 10
154.46992700000001
 20
124.242813
 30
0.0
 40
0.7273960000000002
 50
214.71744899999999
 51
235.28258099999999
  0
ARC
  5
1DD
  8
0
  6
AIGENLINE001
 62
     7
 10
154.50104300000001
 20
126.72767899999999
 30
0.0
 40
0.745084
 50
126.710401
 51
212.41162600000001
  0
ARC
  5
1DE
  8
0
  6
AIGENLINE001
 62
     7
 10
154.474977
 20
126.748772
 30
0.0
 40
0.7350710000000001
 50
214.88940099999999
 51
235.21822599999999
  0
LINE
  5
1DF
  8
0
  6
AIGENLINE001
 62
     7
 10
154.05600000000001
 20
123.535
 30
0.0
 11
154.05600000000001
 21
127.735
 31
0.0
  0
LINE
  5
1E0
  8
0
  6
AIGENLINE001
 62
     7
 10
134.55600000000001
 20
129.23500000000001
 30
0.0
 11
134.55600000000001
 21
129.73500000000001
 31
0.0
  0
LINE
  5
1E1
  8
0
  6
AIGENLINE001
 62
     7
 10
134.55600000000001
 20
129.23500000000001
 30
0.0
 11
152.55600000000001
 21
129.23500000000001
 31
0.0
  0
LINE
  5
1E2
  8
0
  6
AIGENLINE001
 62
     7
 10
150.30600000000001
 20
129.73500000000001
 30
0.0
 11
150.30600000000001
 21
130.935
 31
0.0
  0
LINE
  5
1E3
  8
0
  6
AIGENLINE001
 62
     7
 10
150.80600000000001
 20
129.73500000000001
 30
0.0
 11
150.80600000000001
 21
130.935
 31
0.0
  0
LINE
  5
1E4
  8
0
  6
AIGENLINE001
 62
     7
 10
150.80600000000001
 20
130.935
 30
0.0
 11
150.55600000000001
 21
131.23500000000001
 31
0.0
  0
LINE
  5
1E5
  8
0
  6
AIGENLINE001
 62
     7
 10
150.30600000000001
 20
130.935
 30
0.0
 11
150.55600000000001
 21
131.23500000000001
 31
0.0
  0
ARC
  5
1E6
  8
0
  6
AIGENLINE001
 62
     7
 10
150.562757
 20
129.68022099999999
 30
0.0
 40
0.744877
 50
216.709889
 51
302.40509800000001
  0
ARC
  5
1E7
  8
0
  6
AIGENLINE001
 62
     7
 10
150.55977999999999
 20
129.63711900000001
 30
0.0
 40
0.710544
 50
304.47080999999997
 51
325.5292
  0
ARC
  5
1E8
  8
0
  6
AIGENLINE001
 62
     7
 10
152.49848299999999
 20
127.677792
 30
0.0
 40
1.558219
 50
2.1024579999999999
 51
87.897531999999984
  0
ARC
  5
1E9
  8
0
  6
AIGENLINE001
 62
     7
 10
152.47882000000001
 20
127.658486
 30
0.0
 40
2.0781269999999989
 50
2.1088580000000001
 51
87.881263000000004
  0
ARC
  5
1EA
  8
0
  6
AIGENLINE001
 62
     7
 10
138.76482999999999
 20
134.30256
 30
0.0
 40
4.5524909999999998
 50
217.4406680000001
 51
221.18486899999999
  0
ARC
  5
1EB
  8
0
  6
AIGENLINE001
 62
     7
 10
144.75434300000001
 20
134.755154
 30
0.0
 40
5.2949989999999989
 50
303.64987600000001
 51
322.54306600000001
  0
LINE
  5
1EC
  8
0
  6
AIGENLINE001
 62
     7
 10
144.35599999999999
 20
128.33500000000001
 30
0.0
 11
139.756
 21
128.33500000000001
 31
0.0
  0
LINE
  5
1ED
  8
0
  6
AIGENLINE001
 62
     7
 10
145.55600000000001
 20
129.58500000000001
 30
0.0
 11
138.55500000000001
 21
129.58500000000001
 31
0.0
  0
LINE
  5
1EE
  8
0
  6
AIGENLINE001
 62
     7
 10
144.35599999999999
 20
124.83499999999999
 30
0.0
 11
144.35599999999999
 21
128.13300000000001
 31
0.0
  0
LINE
  5
1EF
  8
0
  6
AIGENLINE001
 62
     7
 10
144.49600000000001
 20
128.47999999999999
 30
0.0
 11
145.44300000000001
 21
129.46000000000001
 31
0.0
  0
ARC
  5
1F0
  8
0
  6
AIGENLINE001
 62
     7
 10
144.63355799999999
 20
128.15037799999999
 30
0.0
 40
0.278184
 50
174.586781
 51
183.608777
  0
ARC
  5
1F1
  8
0
  6
AIGENLINE001
 62
     7
 10
144.88184200000001
 20
128.12311299999999
 30
0.0
 40
0.5279460000000001
 50
145.21230600000001
 51
174.182917
  0
ARC
  5
1F2
  8
0
  6
AIGENLINE001
 62
     7
 10
144.72692799999999
 20
128.23509200000001
 30
0.0
 40
0.336851
 50
133.32632899999999
 51
145.821482
  0
ARC
  5
1F3
  8
0
  6
AIGENLINE001
 62
     7
 10
145.08008599999999
 20
134.21606399999999
 30
0.0
 40
4.6658200000000001
 50
288.645779
 51
303.98827299999999
  0
ARC
  5
1F4
  8
0
  6
AIGENLINE001
 62
     7
 10
145.311218
 20
133.469491
 30
0.0
 40
3.8845849999999991
 50
276.16602499999999
 51
288.93621100000001
  0
ARC
  5
1F5
  8
0
  6
AIGENLINE001
 62
     7
 10
145.65309999999999
 20
129.28138300000001
 30
0.0
 40
0.276047
 50
130.393835
 51
139.60613499999999
  0
ARC
  5
1F6
  8
0
  6
AIGENLINE001
 62
     7
 10
145.820706
 20
129.07879700000001
 30
0.0
 40
0.538966
 50
107.589225
 51
130.00757400000001
  0
ARC
  5
1F7
  8
0
  6
AIGENLINE001
 62
     7
 10
145.75432599999999
 20
129.308311
 30
0.0
 40
0.300184
 50
94.942976999999999
 51
108.749788
  0
LINE
  5
1F8
  8
0
  6
AIGENLINE001
 62
     7
 10
139.756
 20
124.83499999999999
 30
0.0
 11
139.756
 21
128.13300000000001
 31
0.0
  0
LINE
  5
1F9
  8
0
  6
AIGENLINE001
 62
     7
 10
139.61500000000001
 20
128.47999999999999
 30
0.0
 11
138.66800000000001
 21
129.46000000000001
 31
0.0
  0
ARC
  5
1FA
  8
0
  6
AIGENLINE001
 62
     7
 10
139.38202000000001
 20
128.231551
 30
0.0
 40
0.340765
 50
39.379812999999999
 51
46.843801000000013
  0
ARC
  5
1FB
  8
0
  6
AIGENLINE001
 62
     7
 10
139.23024000000001
 20
128.12213600000001
 30
0.0
 40
0.527633
 50
9.1351130000000005
 51
38.10651
  0
ARC
  5
1FC
  8
0
  6
AIGENLINE001
 62
     7
 10
139.44351700000001
 20
128.15038300000001
 30
0.0
 40
0.312635
 50
356.78844900000013
 51
10.229604
  0
ARC
  5
1FD
  8
0
  6
AIGENLINE001
 62
     7
 10
138.703385
 20
132.75128900000001
 30
0.0
 40
3.1601799999999991
 50
259.51290599999999
 51
264.18355500000001
  0
ARC
  5
1FE
  8
0
  6
AIGENLINE001
 62
     7
 10
138.94726299999999
 20
134.016321
 30
0.0
 40
4.4484799999999991
 50
244.71830399999999
 51
259.38989900000001
  0
ARC
  5
1FF
  8
0
  6
AIGENLINE001
 62
     7
 10
139.34581700000001
 20
134.759118
 30
0.0
 40
5.2905179999999987
 50
220.76278500000009
 51
244.25094000000001
  0
ARC
  5
200
  8
0
  6
AIGENLINE001
 62
     7
 10
138.337785
 20
129.19725800000001
 30
0.0
 40
0.412619
 50
77.530369999999991
 51
83.691316999999998
  0
ARC
  5
201
  8
0
  6
AIGENLINE001
 62
     7
 10
138.28951799999999
 20
129.07359700000001
 30
0.0
 40
0.5441690000000001
 50
53.175883999999989
 51
75.379047999999983
  0
ARC
  5
202
  8
0
  6
AIGENLINE001
 62
     7
 10
138.40044
 20
129.222544
 30
0.0
 40
0.358457
 50
41.544176999999998
 51
53.098872999999998
  0
LINE
  5
203
  8
0
  6
AIGENLINE001
 62
     7
 10
146.05600000000001
 20
128.13499999999999
 30
0.0
 11
145.55600000000001
 21
124.83499999999999
 31
0.0
  0
LINE
  5
204
  8
0
  6
AIGENLINE001
 62
     7
 10
138.05500000000001
 20
128.13499999999999
 30
0.0
 11
138.55500000000001
 21
124.83499999999999
 31
0.0
  0
LINE
  5
205
  8
0
  6
AIGENLINE001
 62
     7
 10
138.05500000000001
 20
128.13499999999999
 30
0.0
 11
138.05500000000001
 21
128.55099999999999
 31
0.0
  0
LINE
  5
206
  8
0
  6
AIGENLINE001
 62
     7
 10
146.05600000000001
 20
128.13499999999999
 30
0.0
 11
146.05600000000001
 21
128.55099999999999
 31
0.0
  0
ARC
  5
207
  8
0
  6
AIGENLINE001
 62
     7
 10
138.56600599999999
 20
133.026758
 30
0.0
 40
4.012573999999999
 50
245.700683
 51
256.394408
  0
ARC
  5
208
  8
0
  6
AIGENLINE001
 62
     7
 10
139.50076200000001
 20
134.946978
 30
0.0
 40
6.1476439999999997
 50
224.543477
 51
245.12501399999999
  0
ARC
  5
209
  8
0
  6
AIGENLINE001
 62
     7
 10
138.38613699999999
 20
133.88153600000001
 30
0.0
 40
4.6059309999999991
 50
216.890027
 51
224.82328899999999
  0
ARC
  5
20A
  8
0
  6
AIGENLINE001
 62
     7
 10
137.21766
 20
133.053462
 30
0.0
 40
3.17456
 50
208.577494
 51
217.59626
  0
ARC
  5
20B
  8
0
  6
AIGENLINE001
 62
     7
 10
146.19725500000001
 20
133.51009099999999
 30
0.0
 40
4.0050559999999988
 50
319.73805399999998
 51
330.45092099999999
  0
ARC
  5
20C
  8
0
  6
AIGENLINE001
 62
     7
 10
144.59751399999999
 20
134.94272599999999
 30
0.0
 40
6.1519890000000004
 50
298.61714899999998
 51
319.18525099999999
  0
ARC
  5
20D
  8
0
  6
AIGENLINE001
 62
     7
 10
145.228117
 20
133.76605799999999
 30
0.0
 40
4.8170429999999991
 50
291.151701
 51
298.73612300000002
  0
ARC
  5
20E
  8
0
  6
AIGENLINE001
 62
     7
 10
145.772921
 20
132.304372
 30
0.0
 40
3.2573039999999991
 50
282.70208400000001
 51
291.49176199999999
  0
LINE
  5
20F
  8
0
  6
AIGENLINE001
 62
     7
 10
138.55500000000001
 20
124.83499999999999
 30
0.0
 11
145.55600000000001
 21
124.83499999999999
 31
0.0
  0
ARC
  5
210
  8
0
  6
AIGENLINE001
 62
     7
 10
137.52772899999999
 20
128.73791800000001
 30
0.0
 40
0.4001540000000001
 50
70.332217
 51
76.359154000000004
  0
ARC
  5
211
  8
0
  6
AIGENLINE001
 62
     7
 10
137.43471299999999
 20
128.52892800000001
 30
0.0
 40
0.628494
 50
26.267666999999999
 51
68.759345999999994
  0
ARC
  5
212
  8
0
  6
AIGENLINE001
 62
     7
 10
137.51542000000001
 20
128.56478000000001
 30
0.0
 40
0.540266
 50
358.47659299999998
 51
26.646156000000008
  0
ARC
  5
213
  8
0
  6
AIGENLINE001
 62
     7
 10
146.636529
 20
128.561916
 30
0.0
 40
0.580896
 50
176.987256
 51
181.13436200000001
  0
ARC
  5
214
  8
0
  6
AIGENLINE001
 62
     7
 10
146.68447399999999
 20
128.53555299999999
 30
0.0
 40
0.630611
 50
132.472408
 51
174.82373200000001
  0
ARC
  5
215
  8
0
  6
AIGENLINE001
 62
     7
 10
146.62603100000001
 20
128.60288199999999
 30
0.0
 40
0.5414909999999999
 50
104.64323400000001
 51
132.72157300000001
  0
LINE
  5
216
  8
0
  6
AIGENLINE001
 62
     7
 10
135.05600000000001
 20
131.535
 30
0.0
 11
135.05600000000001
 21
129.73500000000001
 31
0.0
  0
LINE
  5
217
  8
0
  6
AIGENLINE001
 62
     7
 10
149.05600000000001
 20
131.535
 30
0.0
 11
149.05600000000001
 21
129.73500000000001
 31
0.0
  0
LINE
  5
218
  8
0
  6
AIGENLINE001
 62
     7
 10
131.35599999999999
 20
129.73500000000001
 30
0.0
 11
131.35599999999999
 21
123.535
 31
0.0
  0
LINE
  5
219
  8
0
  6
AIGENLINE001
 62
     7
 10
129.55600000000001
 20
129.73500000000001
 30
0.0
 11
154.55600000000001
 21
129.73500000000001
 31
0.0
  0
LINE
  5
21A
  8
0
  6
AIGENLINE001
 62
     7
 10
71.975700000000003
 20
124.646
 30
0.0
 11
71.931299999999993
 21
124.535
 31
0.0
  0
LINE
  5
21B
  8
0
  6
AIGENLINE001
 62
     7
 10
78.226200000000006
 20
124.646
 30
0.0
 11
78.271000000000001
 21
124.535
 31
0.0
  0
ARC
  5
21C
  8
0
  6
AIGENLINE001
 62
     7
 10
72.264578
 20
124.519218
 30
0.0
 40
0.315469
 50
91.903340999999983
 51
156.291076
  0
ARC
  5
21D
  8
0
  6
AIGENLINE001
 62
     7
 10
77.937793999999997
 20
124.51932100000001
 30
0.0
 40
0.315352
 50
23.697769000000001
 51
88.173555000000007
  0
LINE
  5
21E
  8
0
  6
AIGENLINE001
 62
     7
 10
71.851399999999998
 20
124.33499999999999
 30
0.0
 11
78.351299999999995
 21
124.33499999999999
 31
0.0
  0
LINE
  5
21F
  8
0
  6
AIGENLINE001
 62
     7
 10
71.931299999999993
 20
124.535
 30
0.0
 11
71.851399999999998
 21
124.33499999999999
 31
0.0
  0
LINE
  5
220
  8
0
  6
AIGENLINE001
 62
     7
 10
78.271000000000001
 20
124.535
 30
0.0
 11
78.351299999999995
 21
124.33499999999999
 31
0.0
  0
ARC
  5
221
  8
0
  6
AIGENLINE001
 62
     7
 10
72.317511999999994
 20
124.497282
 30
0.0
 40
0.31225
 50
211.46773300000001
 51
268.73163
  0
LINE
  5
222
  8
0
  6
AIGENLINE001
 62
     7
 10
72.310900000000004
 20
124.184
 30
0.0
 11
77.8917
 21
124.184
 31
0.0
  0
ARC
  5
223
  8
0
  6
AIGENLINE001
 62
     7
 10
77.884270999999984
 20
124.498164
 30
0.0
 40
0.313143
 50
271.357507
 51
328.44316900000001
  0
LINE
  5
224
  8
0
  6
AIGENLINE001
 62
     7
 10
73.051299999999998
 20
123.535
 30
0.0
 11
73.051299999999998
 21
124.184
 31
0.0
  0
LINE
  5
225
  8
0
  6
AIGENLINE001
 62
     7
 10
77.151300000000006
 20
123.535
 30
0.0
 11
77.151300000000006
 21
124.184
 31
0.0
  0
LINE
  5
226
  8
0
  6
AIGENLINE001
 62
     7
 10
77.051100000000005
 20
123.535
 30
0.0
 11
77.051100000000005
 21
124.184
 31
0.0
  0
LINE
  5
227
  8
0
  6
AIGENLINE001
 62
     7
 10
73.150899999999993
 20
123.535
 30
0.0
 11
73.150899999999993
 21
124.184
 31
0.0
  0
LINE
  5
228
  8
0
  6
AIGENLINE001
 62
     7
 10
101.803
 20
221.398
 30
0.0
 11
101.803
 21
201.70599999999999
 31
0.0
  0
ARC
  5
229
  8
0
  6
AIGENLINE001
 62
     7
 10
103.30253
 20
205.253559
 30
0.0
 40
3.8512349999999991
 50
247.077459
 51
292.92256099999992
  0
ARC
  5
22A
  8
0
  6
AIGENLINE001
 62
     7
 10
103.288848
 20
203.88420500000001
 30
0.0
 40
0.363963
 50
2.1543759999999992
 51
87.845613999999983
  0
ARC
  5
22B
  8
0
  6
AIGENLINE001
 62
     7
 10
103.31542
 20
203.884998
 30
0.0
 40
0.363142
 50
92.034085000000005
 51
177.96588499999999
  0
ARC
  5
22C
  8
0
  6
AIGENLINE001
 62
     7
 10
103.31621199999999
 20
203.91156899999999
 30
0.0
 40
0.363963
 50
182.15439599999991
 51
267.84563400000002
  0
ARC
  5
22D
  8
0
  6
AIGENLINE001
 62
     7
 10
103.28962300000001
 20
203.91079400000001
 30
0.0
 40
0.36316
 50
272.03679299999999
 51
357.96321699999999
  0
ARC
  5
22E
  8
0
  6
AIGENLINE001
 62
     7
 10
102.58880000000001
 20
217.38406900000001
 30
0.0
 40
0.363963
 50
2.1543759999999992
 51
87.845613999999983
  0
ARC
  5
22F
  8
0
  6
AIGENLINE001
 62
     7
 10
102.61537199999999
 20
217.384862
 30
0.0
 40
0.363142
 50
92.034085000000005
 51
177.96588499999999
  0
ARC
  5
230
  8
0
  6
AIGENLINE001
 62
     7
 10
102.616165
 20
217.41143400000001
 30
0.0
 40
0.363963
 50
182.15439599999991
 51
267.84563400000002
  0
ARC
  5
231
  8
0
  6
AIGENLINE001
 62
     7
 10
102.589575
 20
217.41065900000001
 30
0.0
 40
0.36316
 50
272.03679299999999
 51
357.96321699999999
  0
ARC
  5
232
  8
0
  6
AIGENLINE001
 62
     7
 10
103.988562
 20
212.38419500000001
 30
0.0
 40
0.363952
 50
2.1506150000000002
 51
87.792953999999995
  0
ARC
  5
233
  8
0
  6
AIGENLINE001
 62
     7
 10
104.015467
 20
212.384963
 30
0.0
 40
0.363142
 50
92.034085000000005
 51
177.96588499999999
  0
ARC
  5
234
  8
0
  6
AIGENLINE001
 62
     7
 10
104.01626
 20
212.41153499999999
 30
0.0
 40
0.363963
 50
182.15439599999991
 51
267.84563400000002
  0
ARC
  5
235
  8
0
  6
AIGENLINE001
 62
     7
 10
103.989661
 20
212.41041300000001
 30
0.0
 40
0.362814
 50
272.04026099999999
 51
358.0161700000001
  0
LINE
  5
236
  8
0
  6
AIGENLINE001
 62
     7
 10
52.402299999999997
 20
221.398
 30
0.0
 11
52.402299999999997
 21
201.70599999999999
 31
0.0
  0
ARC
  5
237
  8
0
  6
AIGENLINE001
 62
     7
 10
50.902296999999997
 20
205.196832
 30
0.0
 40
3.799051
 50
246.744235
 51
293.255785
  0
ARC
  5
238
  8
0
  6
AIGENLINE001
 62
     7
 10
50.889018
 20
203.88462200000001
 30
0.0
 40
0.363545
 50
2.091127999999999
 51
87.852440999999985
  0
ARC
  5
239
  8
0
  6
AIGENLINE001
 62
     7
 10
50.915521000000012
 20
203.88464999999999
 30
0.0
 40
0.363489
 50
92.030624999999986
 51
177.91297900000001
  0
ARC
  5
23A
  8
0
  6
AIGENLINE001
 62
     7
 10
50.915597999999989
 20
203.91120100000001
 30
0.0
 40
0.363569
 50
182.09867399999999
 51
267.95772099999999
  0
ARC
  5
23B
  8
0
  6
AIGENLINE001
 62
     7
 10
50.889733
 20
203.910438
 30
0.0
 40
0.362805
 50
272.03892400000001
 51
358.01750700000002
  0
ARC
  5
23C
  8
0
  6
AIGENLINE001
 62
     7
 10
50.188969999999991
 20
217.38448600000001
 30
0.0
 40
0.363545
 50
2.091127999999999
 51
87.852440999999985
  0
ARC
  5
23D
  8
0
  6
AIGENLINE001
 62
     7
 10
50.215472999999989
 20
217.384514
 30
0.0
 40
0.363489
 50
92.030624999999986
 51
177.91297900000001
  0
ARC
  5
23E
  8
0
  6
AIGENLINE001
 62
     7
 10
50.21555
 20
217.41106500000001
 30
0.0
 40
0.363569
 50
182.09867399999999
 51
267.95772099999999
  0
ARC
  5
23F
  8
0
  6
AIGENLINE001
 62
     7
 10
50.189681
 20
217.41030699999999
 30
0.0
 40
0.362809
 50
272.03959200000003
 51
358.016839
  0
ARC
  5
240
  8
0
  6
AIGENLINE001
 62
     7
 10
51.589055000000002
 20
212.38456300000001
 30
0.0
 40
0.363557
 50
2.0948989999999998
 51
87.905091000000013
  0
ARC
  5
241
  8
0
  6
AIGENLINE001
 62
     7
 10
51.615242999999992
 20
212.38495499999999
 30
0.0
 40
0.363151
 50
92.035419000000005
 51
177.964551
  0
ARC
  5
242
  8
0
  6
AIGENLINE001
 62
     7
 10
51.615634
 20
212.41114200000001
 30
0.0
 40
0.363557
 50
182.09490199999999
 51
267.90512799999999
  0
ARC
  5
243
  8
0
  6
AIGENLINE001
 62
     7
 10
51.589446000000002
 20
212.410751
 30
0.0
 40
0.363151
 50
272.03545600000001
 51
357.96455400000002
  0
LINE
  5
244
  8
0
  6
AIGENLINE001
 62
     7
 10
50.652200000000001
 20
129.23500000000001
 30
0.0
 11
50.652200000000001
 21
123.535
 31
0.0
  0
LINE
  5
245
  8
0
  6
AIGENLINE001
 62
     7
 10
51.1524
 20
129.23500000000001
 30
0.0
 11
51.1524
 21
123.535
 31
0.0
  0
LINE
  5
246
  8
0
  6
AIGENLINE001
 62
     7
 10
49.40229999999999
 20
129.23500000000001
 30
0.0
 11
52.402299999999997
 21
129.23500000000001
 31
0.0
  0
LINE
  5
247
  8
0
  6
AIGENLINE001
 62
     7
 10
52.402299999999997
 20
129.73500000000001
 30
0.0
 11
52.402299999999997
 21
123.535
 31
0.0
  0
ARC
  5
248
  8
0
  6
AIGENLINE001
 62
     7
 10
51.589064
 20
126.72156
 30
0.0
 40
0.363547
 50
2.0934240000000002
 51
87.906565999999998
  0
ARC
  5
249
  8
0
  6
AIGENLINE001
 62
     7
 10
51.616027000000003
 20
126.721158
 30
0.0
 40
0.363963
 50
92.154366000000024
 51
177.84560400000001
  0
ARC
  5
24A
  8
0
  6
AIGENLINE001
 62
     7
 10
51.615296000000001
 20
126.748148
 30
0.0
 40
0.363219
 50
182.099839
 51
267.95661200000001
  0
ARC
  5
24B
  8
0
  6
AIGENLINE001
 62
     7
 10
51.588687
 20
126.748856
 30
0.0
 40
0.363952
 50
272.15062499999999
 51
357.79296299999999
  0
ARC
  5
24C
  8
0
  6
AIGENLINE001
 62
     7
 10
50.188969999999991
 20
124.221797
 30
0.0
 40
0.363545
 50
2.091127999999999
 51
87.852440999999985
  0
ARC
  5
24D
  8
0
  6
AIGENLINE001
 62
     7
 10
50.216256000000001
 20
124.221042
 30
0.0
 40
0.364301
 50
92.149310999999983
 51
177.79429400000001
  0
ARC
  5
24E
  8
0
  6
AIGENLINE001
 62
     7
 10
50.21555
 20
124.248377
 30
0.0
 40
0.363569
 50
182.09867399999999
 51
267.95772099999999
  0
ARC
  5
24F
  8
0
  6
AIGENLINE001
 62
     7
 10
50.18889699999999
 20
124.248401
 30
0.0
 40
0.36362
 50
272.15864399999998
 51
357.89778799999999
  0
LINE
  5
250
  8
0
  6
AIGENLINE001
 62
     7
 10
103.05200000000001
 20
129.23500000000001
 30
0.0
 11
103.05200000000001
 21
123.535
 31
0.0
  0
LINE
  5
251
  8
0
  6
AIGENLINE001
 62
     7
 10
103.55200000000001
 20
129.23500000000001
 30
0.0
 11
103.55200000000001
 21
123.535
 31
0.0
  0
LINE
  5
252
  8
0
  6
AIGENLINE001
 62
     7
 10
101.803
 20
129.23500000000001
 30
0.0
 11
104.803
 21
129.23500000000001
 31
0.0
  0
LINE
  5
253
  8
0
  6
AIGENLINE001
 62
     7
 10
101.803
 20
129.73500000000001
 30
0.0
 11
101.803
 21
123.535
 31
0.0
  0
ARC
  5
254
  8
0
  6
AIGENLINE001
 62
     7
 10
103.988573
 20
126.721193
 30
0.0
 40
0.363941
 50
2.1489989999999999
 51
87.794569999999979
  0
ARC
  5
255
  8
0
  6
AIGENLINE001
 62
     7
 10
104.01625
 20
126.72116800000001
 30
0.0
 40
0.363952
 50
92.152749999999983
 51
177.84721999999999
  0
ARC
  5
256
  8
0
  6
AIGENLINE001
 62
     7
 10
104.015922
 20
126.748541
 30
0.0
 40
0.363626
 50
182.1594639999999
 51
267.89698700000002
  0
ARC
  5
257
  8
0
  6
AIGENLINE001
 62
     7
 10
103.988901
 20
126.74851700000001
 30
0.0
 40
0.363614
 50
272.155689
 51
357.84432099999998
  0
ARC
  5
258
  8
0
  6
AIGENLINE001
 62
     7
 10
102.58880000000001
 20
124.22138099999999
 30
0.0
 40
0.363963
 50
2.1543759999999992
 51
87.845613999999983
  0
ARC
  5
259
  8
0
  6
AIGENLINE001
 62
     7
 10
102.61615399999999
 20
124.221391
 30
0.0
 40
0.363952
 50
92.152749999999983
 51
177.84721999999999
  0
ARC
  5
25A
  8
0
  6
AIGENLINE001
 62
     7
 10
102.616165
 20
124.248745
 30
0.0
 40
0.363963
 50
182.15439599999991
 51
267.84563400000002
  0
ARC
  5
25B
  8
0
  6
AIGENLINE001
 62
     7
 10
102.58879
 20
124.248756
 30
0.0
 40
0.363974
 50
272.15600599999999
 51
357.84400399999998
  0
LINE
  5
25C
  8
0
  6
AIGENLINE001
 62
     7
 10
71.602599999999995
 20
124.83499999999999
 30
0.0
 11
78.602099999999993
 21
124.83499999999999
 31
0.0
  0
LINE
  5
25D
  8
0
  6
AIGENLINE001
 62
     7
 10
79.102599999999995
 20
128.13499999999999
 30
0.0
 11
78.602099999999993
 21
124.83499999999999
 31
0.0
  0
ARC
  5
25E
  8
0
  6
AIGENLINE001
 62
     7
 10
71.752960999999999
 20
136.83512899999999
 30
0.0
 40
7.8254140000000003
 50
258.364012
 51
261.61489900000009
  0
ARC
  5
25F
  8
0
  6
AIGENLINE001
 62
     7
 10
72.568794999999994
 20
140.58058299999999
 30
0.0
 40
11.658523000000001
 50
254.72668899999999
 51
258.1495680000001
  0
ARC
  5
260
  8
0
  6
AIGENLINE001
 62
     7
 10
74.350298999999993
 20
146.898752
 30
0.0
 40
18.222906999999999
 50
248.85639399999999
 51
254.55619799999999
  0
ARC
  5
261
  8
0
  6
AIGENLINE001
 62
     7
 10
73.365887000000001
 20
144.48715200000001
 30
0.0
 40
15.618648
 50
244.84166400000001
 51
249.033433
  0
ARC
  5
262
  8
0
  6
AIGENLINE001
 62
     7
 10
70.850099999999998
 20
139.23774900000001
 30
0.0
 40
9.7978140000000007
 50
241.11553199999989
 51
245.107719
  0
ARC
  5
263
  8
0
  6
AIGENLINE001
 62
     7
 10
69.418875999999997
 20
136.663937
 30
0.0
 40
6.8528570000000011
 50
238.38159899999999
 51
241.19834599999999
  0
ARC
  5
264
  8
0
  6
AIGENLINE001
 62
     7
 10
68.441016000000005
 20
135.65701200000001
 30
0.0
 40
5.4912159999999997
 50
239.20670000000001
 51
241.563704
  0
ARC
  5
265
  8
0
  6
AIGENLINE001
 62
     7
 10
71.71100899999999
 20
141.15716900000001
 30
0.0
 40
11.890008999999999
 50
235.52736899999999
 51
239.23935299999999
  0
ARC
  5
266
  8
0
  6
AIGENLINE001
 62
     7
 10
68.817071999999996
 20
136.961814
 30
0.0
 40
6.7933770000000004
 50
233.95321299999989
 51
235.62122199999999
  0
ARC
  5
267
  8
0
  6
AIGENLINE001
 62
     7
 10
67.207299000000006
 20
134.774441
 30
0.0
 40
4.0775670000000002
 50
232.605569
 51
234.15568500000001
  0
LINE
  5
268
  8
0
  6
AIGENLINE001
 62
     7
 10
71.102099999999993
 20
128.13499999999999
 30
0.0
 11
71.602599999999995
 21
124.83499999999999
 31
0.0
  0
LINE
  5
269
  8
0
  6
AIGENLINE001
 62
     7
 10
71.102099999999993
 20
128.13499999999999
 30
0.0
 11
71.102099999999993
 21
128.50299999999999
 31
0.0
  0
ARC
  5
26A
  8
0
  6
AIGENLINE001
 62
     7
 10
70.495699999999999
 20
128.49175600000001
 30
0.0
 40
0.612714
 50
40.764420999999999
 51
79.076041000000004
  0
ARC
  5
26B
  8
0
  6
AIGENLINE001
 62
     7
 10
70.522827000000007
 20
128.51148800000001
 30
0.0
 40
0.57929
 50
359.14795800000002
 51
41.038133000000002
  0
ARC
  5
26C
  8
0
  6
AIGENLINE001
 62
     7
 10
80.593244999999996
 20
136.985333
 30
0.0
 40
7.2276879999999997
 50
298.05885799999999
 51
301.58505700000001
  0
ARC
  5
26D
  8
0
  6
AIGENLINE001
 62
     7
 10
78.240764999999996
 20
141.461175
 30
0.0
 40
12.284053
 50
294.67544600000002
 51
297.92192599999998
  0
ARC
  5
26E
  8
0
  6
AIGENLINE001
 62
     7
 10
75.78801
 20
147.02824899999999
 30
0.0
 40
18.366999
 50
288.72313600000001
 51
294.37802900000003
  0
ARC
  5
26F
  8
0
  6
AIGENLINE001
 62
     7
 10
76.754855000000006
 20
143.97556499999999
 30
0.0
 40
15.165644
 50
284.64786299999997
 51
288.96574600000002
  0
ARC
  5
270
  8
0
  6
AIGENLINE001
 62
     7
 10
78.000371000000001
 20
139.010988
 30
0.0
 40
10.047587
 50
281.04533199999997
 51
284.93524100000002
  0
ARC
  5
271
  8
0
  6
AIGENLINE001
 62
     7
 10
78.755398
 20
135.06369799999999
 30
0.0
 40
6.0287850000000001
 50
277.985094
 51
281.18981000000002
  0
ARC
  5
272
  8
0
  6
AIGENLINE001
 62
     7
 10
80.55234200000001
 20
138.08811
 30
0.0
 40
8.1953689999999995
 50
305.32877999999999
 51
306.906093
  0
ARC
  5
273
  8
0
  6
AIGENLINE001
 62
     7
 10
78.178685000000002
 20
141.63565199999999
 30
0.0
 40
12.462759999999999
 50
301.25788999999997
 51
304.80059799999998
  0
ARC
  5
274
  8
0
  6
AIGENLINE001
 62
     7
 10
80.690813999999989
 20
137.50084699999999
 30
0.0
 40
7.6246399999999994
 50
299.75885399999999
 51
301.24318399999999
  0
ARC
  5
275
  8
0
  6
AIGENLINE001
 62
     7
 10
82.755900999999994
 20
133.87392700000001
 30
0.0
 40
3.4510320000000001
 50
298.05235599999997
 51
299.88297899999998
  0
LINE
  5
276
  8
0
  6
AIGENLINE001
 62
     7
 10
79.102599999999995
 20
128.13499999999999
 30
0.0
 11
79.102599999999995
 21
128.50299999999999
 31
0.0
  0
ARC
  5
277
  8
0
  6
AIGENLINE001
 62
     7
 10
79.707343999999992
 20
128.50143600000001
 30
0.0
 40
0.604697
 50
141.05993799999999
 51
179.86372900000001
  0
ARC
  5
278
  8
0
  6
AIGENLINE001
 62
     7
 10
79.692524000000006
 20
128.52119200000001
 30
0.0
 40
0.5807850000000001
 50
99.878135000000015
 51
141.657028
  0
LINE
  5
279
  8
0
  6
AIGENLINE001
 62
     7
 10
47.602200000000003
 20
129.73500000000001
 30
0.0
 11
106.602
 21
129.73500000000001
 31
0.0
  0
LINE
  5
27A
  8
0
  6
AIGENLINE001
 62
     7
 10
49.40229999999999
 20
198.19800000000001
 30
0.0
 11
104.803
 21
198.19800000000001
 31
0.0
  0
LINE
  5
27B
  8
0
  6
AIGENLINE001
 62
     7
 10
87.389499999999998
 20
131.535
 30
0.0
 11
87.389499999999998
 21
129.73500000000001
 31
0.0
  0
LINE
  5
27C
  8
0
  6
AIGENLINE001
 62
     7
 10
62.8155
 20
131.535
 30
0.0
 11
62.8155
 21
129.73500000000001
 31
0.0
  0
LINE
  5
27D
  8
0
  6
AIGENLINE001
 62
     7
 10
104.803
 20
221.398
 30
0.0
 11
104.803
 21
196.398
 31
0.0
  0
LINE
  5
27E
  8
0
  6
AIGENLINE001
 62
     7
 10
49.40229999999999
 20
221.398
 30
0.0
 11
49.40229999999999
 21
196.398
 31
0.0
  0
LINE
  5
27F
  8
0
  6
AIGENLINE001
 62
     7
 10
104.803
 20
129.73500000000001
 30
0.0
 11
104.803
 21
123.535
 31
0.0
  0
LINE
  5
280
  8
0
  6
AIGENLINE001
 62
     7
 10
49.40229999999999
 20
129.73500000000001
 30
0.0
 11
49.40229999999999
 21
123.535
 31
0.0
  0
ARC
  5
281
  8
0
 62
     7
 10
143.747907
 20
135.54726700000001
 30
0.0
 40
3.5454050000000001
 50
84.206198000000015
 51
86.800685000000001
  0
ARC
  5
282
  8
0
 62
     7
 10
142.99955199999999
 20
123.382862
 30
0.0
 40
15.732764
 50
86.551948000000024
 51
88.338492000000016
  0
ARC
  5
283
  8
0
 62
     7
 10
140.35670500000001
 20
135.61493100000001
 30
0.0
 40
3.4760119999999999
 50
93.149342000000004
 51
95.794297999999969
  0
ARC
  5
284
  8
0
 62
     7
 10
141.15247400000001
 20
122.536602
 30
0.0
 40
16.578481
 50
91.717719000000017
 51
93.412202000000022
  0
LINE
  5
285
  8
0
 62
     7
 10
142.05600000000001
 20
97.263599999999997
 30
0.0
 11
141.42699999999999
 21
97.263599999999997
 31
0.0
  0
LINE
  5
286
  8
0
 62
     7
 10
141.55600000000001
 20
97.085099999999997
 30
0.0
 11
141.55600000000001
 21
97.263599999999997
 31
0.0
  0
LINE
  5
287
  8
0
 62
     7
 10
142.05600000000001
 20
97.624300000000005
 30
0.0
 11
141.85900000000001
 21
97.624300000000005
 31
0.0
  0
LINE
  5
288
  8
0
 62
     7
 10
141.703
 20
97.624300000000005
 30
0.0
 11
141.42699999999999
 21
97.624300000000005
 31
0.0
  0
ARC
  5
289
  8
0
 62
     7
 10
141.44015200000001
 20
97.457029000000006
 30
0.0
 40
0.193899
 50
183.922853
 51
266.07717700000001
  0
ARC
  5
28A
  8
0
 62
     7
 10
141.44104200000001
 20
97.42998
 30
0.0
 40
0.194823
 50
94.16656900000001
 51
175.942849
  0
LINE
  5
28B
  8
0
 62
     7
 10
142.05600000000001
 20
98.486299999999986
 30
0.0
 11
141.85900000000001
 21
98.486299999999986
 31
0.0
  0
LINE
  5
28C
  8
0
 62
     7
 10
141.703
 20
98.486299999999986
 30
0.0
 11
141.42699999999999
 21
98.486299999999986
 31
0.0
  0
LINE
  5
28D
  8
0
 62
     7
 10
141.703
 20
98.486299999999986
 30
0.0
 11
141.703
 21
97.624300000000005
 31
0.0
  0
LINE
  5
28E
  8
0
 62
     7
 10
141.85900000000001
 20
98.486299999999986
 30
0.0
 11
141.85900000000001
 21
97.624300000000005
 31
0.0
  0
LINE
  5
28F
  8
0
 62
     7
 10
141.42699999999999
 20
98.486299999999986
 30
0.0
 11
141.31800000000001
 21
98.595800000000011
 31
0.0
  0
LINE
  5
290
  8
0
 62
     7
 10
141.42699999999999
 20
98.486299999999986
 30
0.0
 11
141.42699999999999
 21
97.624300000000005
 31
0.0
  0
LINE
  5
291
  8
0
 62
     7
 10
141.31800000000001
 20
99.271400000000014
 30
0.0
 11
142.05600000000001
 21
99.271400000000014
 31
0.0
  0
LINE
  5
292
  8
0
 62
     7
 10
141.31800000000001
 20
99.271400000000014
 30
0.0
 11
141.31800000000001
 21
98.595800000000011
 31
0.0
  0
LINE
  5
293
  8
0
 62
     7
 10
142.05600000000001
 20
97.263599999999997
 30
0.0
 11
142.684
 21
97.263599999999997
 31
0.0
  0
LINE
  5
294
  8
0
 62
     7
 10
142.55600000000001
 20
97.085099999999997
 30
0.0
 11
142.55600000000001
 21
97.263599999999997
 31
0.0
  0
LINE
  5
295
  8
0
 62
     7
 10
142.05600000000001
 20
97.624300000000005
 30
0.0
 11
142.25200000000001
 21
97.624300000000005
 31
0.0
  0
LINE
  5
296
  8
0
 62
     7
 10
142.40799999999999
 20
97.624300000000005
 30
0.0
 11
142.684
 21
97.624300000000005
 31
0.0
  0
ARC
  5
297
  8
0
 62
     7
 10
142.67019300000001
 20
97.429602000000003
 30
0.0
 40
0.195201
 50
4.1605239999999988
 51
85.839466000000002
  0
ARC
  5
298
  8
0
 62
     7
 10
142.67108500000001
 20
97.457403999999997
 30
0.0
 40
0.194274
 50
273.91672999999997
 51
355.97383300000001
  0
LINE
  5
299
  8
0
 62
     7
 10
142.05600000000001
 20
98.486299999999986
 30
0.0
 11
142.25200000000001
 21
98.486299999999986
 31
0.0
  0
LINE
  5
29A
  8
0
 62
     7
 10
142.40799999999999
 20
98.486299999999986
 30
0.0
 11
142.684
 21
98.486299999999986
 31
0.0
  0
LINE
  5
29B
  8
0
 62
     7
 10
142.40799999999999
 20
98.486299999999986
 30
0.0
 11
142.40799999999999
 21
97.624300000000005
 31
0.0
  0
LINE
  5
29C
  8
0
 62
     7
 10
142.25200000000001
 20
98.486299999999986
 30
0.0
 11
142.25200000000001
 21
97.624300000000005
 31
0.0
  0
LINE
  5
29D
  8
0
 62
     7
 10
142.684
 20
98.486299999999986
 30
0.0
 11
142.7939999999999
 21
98.595800000000011
 31
0.0
  0
LINE
  5
29E
  8
0
 62
     7
 10
142.684
 20
98.486299999999986
 30
0.0
 11
142.684
 21
97.624300000000005
 31
0.0
  0
LINE
  5
29F
  8
0
 62
     7
 10
142.7939999999999
 20
99.271400000000014
 30
0.0
 11
142.05600000000001
 21
99.271400000000014
 31
0.0
  0
LINE
  5
2A0
  8
0
 62
     7
 10
142.7939999999999
 20
99.271400000000014
 30
0.0
 11
142.7939999999999
 21
98.595800000000011
 31
0.0
  0
LINE
  5
2A1
  8
0
 62
     7
 10
142.7939999999999
 20
99.271400000000014
 30
0.0
 11
142.05600000000001
 21
99.271400000000014
 31
0.0
  0
LINE
  5
2A2
  8
0
 62
     7
 10
141.31800000000001
 20
99.271400000000014
 30
0.0
 11
142.05600000000001
 21
99.271400000000014
 31
0.0
  0
LINE
  5
2A3
  8
0
 62
     7
 10
140.65600000000001
 20
95.859999999999999
 30
0.0
 11
140.65600000000001
 21
96.860200000000006
 31
0.0
  0
LINE
  5
2A4
  8
0
 62
     7
 10
141.35599999999999
 20
95.859999999999999
 30
0.0
 11
141.35599999999999
 21
96.860200000000006
 31
0.0
  0
LINE
  5
2A5
  8
0
 62
     7
 10
143.10599999999999
 20
95.635099999999994
 30
0.0
 11
141.006
 21
95.635099999999994
 31
0.0
  0
LINE
  5
2A6
  8
0
 62
     7
 10
143.10599999999999
 20
97.085099999999997
 30
0.0
 11
141.006
 21
97.085099999999997
 31
0.0
  0
LINE
  5
2A7
  8
0
 62
     7
 10
142.756
 20
95.859999999999999
 30
0.0
 11
142.756
 21
96.860200000000006
 31
0.0
  0
LINE
  5
2A8
  8
0
 62
     7
 10
143.45599999999999
 20
95.859999999999999
 30
0.0
 11
143.45599999999999
 21
96.860200000000006
 31
0.0
  0
ARC
  5
2A9
  8
0
 62
     7
 10
140.99658700000001
 20
96.575106000000005
 30
0.0
 40
0.5101060000000001
 50
88.954573999999994
 51
108.22127500000001
  0
ARC
  5
2AA
  8
0
 62
     7
 10
140.91253
 20
96.808599999999998
 30
0.0
 40
0.262126
 50
106.72794399999999
 51
168.65573000000001
  0
ARC
  5
2AB
  8
0
 62
     7
 10
141.017549
 20
96.592780000000005
 30
0.0
 40
0.4924850000000001
 50
71.433378000000005
 51
91.356134000000026
  0
ARC
  5
2AC
  8
0
 62
     7
 10
141.10126299999999
 20
96.811179000000024
 30
0.0
 40
0.258984
 50
10.902164000000001
 51
73.605789000000001
  0
ARC
  5
2AD
  8
0
 62
     7
 10
142.09143900000001
 20
94.785836000000003
 30
0.0
 40
2.2995700000000001
 50
83.979976000000008
 51
90.892464000000004
  0
ARC
  5
2AE
  8
0
 62
     7
 10
142.21858899999989
 20
95.950970999999996
 30
0.0
 40
1.127532999999999
 50
78.062697000000014
 51
84.196173000000002
  0
ARC
  5
2AF
  8
0
 62
     7
 10
142.268057
 20
96.253543999999991
 30
0.0
 40
0.821394
 50
70.308716000000004
 51
77.073098000000002
  0
ARC
  5
2B0
  8
0
 62
     7
 10
142.43269799999999
 20
96.668448999999995
 30
0.0
 40
0.375585
 50
30.692957
 51
72.629633999999996
  0
ARC
  5
2B1
  8
0
 62
     7
 10
142.02959000000001
 20
94.574223000000003
 30
0.0
 40
2.5110389999999989
 50
89.406018000000003
 51
95.727878999999987
  0
ARC
  5
2B2
  8
0
 62
     7
 10
141.89483100000001
 20
95.939218999999994
 30
0.0
 40
1.1394109999999991
 50
95.835806999999974
 51
101.905283
  0
ARC
  5
2B3
  8
0
 62
     7
 10
141.83188899999999
 20
96.293326000000008
 30
0.0
 40
0.780021
 50
102.74726200000001
 51
109.870885
  0
ARC
  5
2B4
  8
0
 62
     7
 10
141.67887400000001
 20
96.667799000000016
 30
0.0
 40
0.3762
 50
107.338711
 51
149.247648
  0
ARC
  5
2B5
  8
0
 62
     7
 10
143.09639300000001
 20
96.577213
 30
0.0
 40
0.507999
 50
88.951019999999986
 51
108.259428
  0
ARC
  5
2B6
  8
0
 62
     7
 10
143.012204
 20
96.809027
 30
0.0
 40
0.261582
 50
106.65643300000001
 51
168.72723999999999
  0
ARC
  5
2B7
  8
0
 62
     7
 10
143.11764700000001
 20
96.592641000000015
 30
0.0
 40
0.4926310000000001
 50
71.433553000000003
 51
91.390557999999984
  0
ARC
  5
2B8
  8
0
 62
     7
 10
143.20140599999999
 20
96.811179000000024
 30
0.0
 40
0.258984
 50
10.902164000000001
 51
73.605789000000001
  0
ARC
  5
2B9
  8
0
 62
     7
 10
140.996768
 20
96.146300999999994
 30
0.0
 40
0.5113050000000001
 50
251.801534
 51
271.02261600000003
  0
ARC
  5
2BA
  8
0
 62
     7
 10
140.91128900000001
 20
95.910475000000005
 30
0.0
 40
0.260689
 50
191.1545439999999
 51
253.461783
  0
ARC
  5
2BB
  8
0
 62
     7
 10
141.01493500000001
 20
96.144700999999998
 30
0.0
 40
0.5097040000000001
 50
268.98363799999998
 51
288.22685000000001
  0
ARC
  5
2BC
  8
0
 62
     7
 10
141.09954200000001
 20
95.910589000000002
 30
0.0
 40
0.260972
 50
286.65976499999999
 51
348.83228200000002
  0
ARC
  5
2BD
  8
0
 62
     7
 10
142.08170799999999
 20
98.151681000000011
 30
0.0
 40
2.5167389999999989
 50
269.406091
 51
275.72146900000001
  0
ARC
  5
2BE
  8
0
 62
     7
 10
142.22861399999999
 20
96.667908000000011
 30
0.0
 40
1.025714
 50
275.81906600000002
 51
282.56811699999997
  0
ARC
  5
2BF
  8
0
 62
     7
 10
142.31806399999999
 20
96.312096999999994
 30
0.0
 40
0.6590390000000002
 50
281.70895100000001
 51
290.1257950000001
  0
ARC
  5
2C0
  8
0
 62
     7
 10
142.43304499999999
 20
96.051315999999986
 30
0.0
 40
0.375062
 50
287.33974000000001
 51
329.33766800000001
  0
ARC
  5
2C1
  8
0
 62
     7
 10
142.02007
 20
97.933627999999999
 30
0.0
 40
2.298826
 50
263.979984
 51
270.88611900000001
  0
ARC
  5
2C2
  8
0
 62
     7
 10
141.872906
 20
96.605715000000004
 30
0.0
 40
0.962827
 50
257.21121900000003
 51
264.40163899999999
  0
ARC
  5
2C3
  8
0
 62
     7
 10
141.799139
 20
96.33179100000001
 30
0.0
 40
0.6794640000000002
 50
250.00095400000001
 51
258.16433899999998
  0
ARC
  5
2C4
  8
0
 62
     7
 10
141.68092200000001
 20
96.054998999999995
 30
0.0
 40
0.379289
 50
210.930926
 51
252.48271500000001
  0
ARC
  5
2C5
  8
0
 62
     7
 10
143.096025
 20
96.140565000000024
 30
0.0
 40
0.5055800000000001
 50
251.69393700000001
 51
271.09561500000001
  0
ARC
  5
2C6
  8
0
 62
     7
 10
143.01143300000001
 20
95.910475000000005
 30
0.0
 40
0.260689
 50
191.1545439999999
 51
253.461783
  0
ARC
  5
2C7
  8
0
 62
     7
 10
143.114935
 20
96.145526000000004
 30
0.0
 40
0.5105330000000001
 50
268.9627220000001
 51
288.213167
  0
ARC
  5
2C8
  8
0
 62
     7
 10
143.199218
 20
95.911013999999994
 30
0.0
 40
0.261514
 50
286.7312609999999
 51
348.760786
  0
LINE
  5
2C9
  8
0
 62
     7
 10
140.95599999999999
 20
94.035200000000003
 30
0.0
 11
143.15600000000001
 21
94.035200000000003
 31
0.0
  0
LINE
  5
2CA
  8
0
 62
     7
 10
140.78100000000001
 20
94.136499999999998
 30
0.0
 11
140.78100000000001
 21
95.534099999999995
 31
0.0
  0
LINE
  5
2CB
  8
0
 62
     7
 10
140.95599999999999
 20
94.035200000000003
 30
0.0
 11
140.78100000000001
 21
94.136499999999998
 31
0.0
  0
LINE
  5
2CC
  8
0
 62
     7
 10
140.95599999999999
 20
95.635099999999994
 30
0.0
 11
140.78100000000001
 21
95.534099999999995
 31
0.0
  0
LINE
  5
2CD
  8
0
 62
     7
 10
143.33099999999999
 20
94.136499999999998
 30
0.0
 11
143.33099999999999
 21
95.534099999999995
 31
0.0
  0
LINE
  5
2CE
  8
0
 62
     7
 10
143.15600000000001
 20
94.035200000000003
 30
0.0
 11
143.33099999999999
 21
94.136499999999998
 31
0.0
  0
LINE
  5
2CF
  8
0
 62
     7
 10
143.15600000000001
 20
95.635400000000004
 30
0.0
 11
143.33099999999999
 21
95.534099999999995
 31
0.0
  0
LINE
  5
2D0
  8
0
 62
     7
 10
140.95599999999999
 20
95.635099999999994
 30
0.0
 11
143.15600000000001
 21
95.635099999999994
 31
0.0
  0
LINE
  5
2D1
  8
0
 62
     7
 10
141.33600000000001
 20
95.534099999999995
 30
0.0
 11
141.33600000000001
 21
94.136499999999998
 31
0.0
  0
LINE
  5
2D2
  8
0
 62
     7
 10
141.506
 20
95.534099999999995
 30
0.0
 11
141.506
 21
94.136499999999998
 31
0.0
  0
LINE
  5
2D3
  8
0
 62
     7
 10
142.607
 20
95.534099999999995
 30
0.0
 11
142.607
 21
94.136499999999998
 31
0.0
  0
LINE
  5
2D4
  8
0
 62
     7
 10
142.77699999999999
 20
95.534099999999995
 30
0.0
 11
142.77699999999999
 21
94.136499999999998
 31
0.0
  0
ARC
  5
2D5
  8
0
 62
     7
 10
141.060326
 20
94.496391000000003
 30
0.0
 40
0.4531310000000001
 50
232.59297100000001
 51
307.40704899999997
  0
ARC
  5
2D6
  8
0
 62
     7
 10
142.05648199999999
 20
95.615738000000007
 30
0.0
 40
1.5784679999999991
 50
249.580949
 51
290.41907099999997
  0
ARC
  5
2D7
  8
0
 62
     7
 10
143.05229299999999
 20
94.496391000000003
 30
0.0
 40
0.4531310000000001
 50
232.59297100000001
 51
307.40704899999997
  0
ARC
  5
2D8
  8
0
 62
     7
 10
141.060326
 20
95.174194999999997
 30
0.0
 40
0.4531310000000001
 50
52.592950999999999
 51
127.40702899999999
  0
ARC
  5
2D9
  8
0
 62
     7
 10
142.05648199999999
 20
94.049819000000014
 30
0.0
 40
1.583183
 50
69.644435000000001
 51
110.35554500000001
  0
ARC
  5
2DA
  8
0
 62
     7
 10
143.05229299999999
 20
95.174194999999997
 30
0.0
 40
0.4531310000000001
 50
52.592950999999999
 51
127.40702899999999
  0
LINE
  5
2DB
  8
0
 62
     7
 10
141.33600000000001
 20
94.136499999999998
 30
0.0
 11
141.506
 21
94.136499999999998
 31
0.0
  0
LINE
  5
2DC
  8
0
 62
     7
 10
142.607
 20
94.136499999999998
 30
0.0
 11
142.77699999999999
 21
94.136499999999998
 31
0.0
  0
LINE
  5
2DD
  8
0
 62
     7
 10
141.33600000000001
 20
95.534099999999995
 30
0.0
 11
141.506
 21
95.534099999999995
 31
0.0
  0
LINE
  5
2DE
  8
0
 62
     7
 10
142.607
 20
95.534099999999995
 30
0.0
 11
142.77699999999999
 21
95.534099999999995
 31
0.0
  0
LINE
  5
2DF
  8
0
 62
     7
 10
141.55699999999999
 20
123.535
 30
0.0
 11
141.55699999999999
 21
99.271400000000014
 31
0.0
  0
LINE
  5
2E0
  8
0
 62
     7
 10
142.554
 20
123.535
 30
0.0
 11
142.554
 21
99.271400000000014
 31
0.0
  0
LINE
  5
2E1
  8
0
  6
AIGENLINE001
 62
     7
 10
141.55699999999999
 20
123.712
 30
0.0
 11
141.55699999999999
 21
123.535
 31
0.0
  0
LINE
  5
2E2
  8
0
  6
AIGENLINE001
 62
     7
 10
142.554
 20
123.712
 30
0.0
 11
142.554
 21
123.535
 31
0.0
  0
LINE
  5
2E3
  8
0
  6
AIGENLINE001
 62
     7
 10
142.05600000000001
 20
125.721
 30
0.0
 11
142.684
 21
125.721
 31
0.0
  0
LINE
  5
2E4
  8
0
  6
AIGENLINE001
 62
     7
 10
142.05600000000001
 20
125.36
 30
0.0
 11
142.25200000000001
 21
125.36
 31
0.0
  0
LINE
  5
2E5
  8
0
  6
AIGENLINE001
 62
     7
 10
142.40799999999999
 20
125.36
 30
0.0
 11
142.684
 21
125.36
 31
0.0
  0
ARC
  5
2E6
  8
0
  6
AIGENLINE001
 62
     7
 10
142.670571
 20
125.526262
 30
0.0
 40
0.194823
 50
4.1665779999999986
 51
85.942858999999999
  0
ARC
  5
2E7
  8
0
  6
AIGENLINE001
 62
     7
 10
142.67019300000001
 20
125.55458
 30
0.0
 40
0.195201
 50
274.16053399999998
 51
355.83947599999999
  0
LINE
  5
2E8
  8
0
  6
AIGENLINE001
 62
     7
 10
142.05600000000001
 20
124.498
 30
0.0
 11
142.25200000000001
 21
124.498
 31
0.0
  0
LINE
  5
2E9
  8
0
  6
AIGENLINE001
 62
     7
 10
142.40799999999999
 20
124.498
 30
0.0
 11
142.684
 21
124.498
 31
0.0
  0
LINE
  5
2EA
  8
0
  6
AIGENLINE001
 62
     7
 10
142.40799999999999
 20
124.498
 30
0.0
 11
142.40799999999999
 21
125.36
 31
0.0
  0
LINE
  5
2EB
  8
0
  6
AIGENLINE001
 62
     7
 10
142.25200000000001
 20
124.498
 30
0.0
 11
142.25200000000001
 21
125.36
 31
0.0
  0
LINE
  5
2EC
  8
0
  6
AIGENLINE001
 62
     7
 10
142.684
 20
124.498
 30
0.0
 11
142.7939999999999
 21
124.389
 31
0.0
  0
LINE
  5
2ED
  8
0
  6
AIGENLINE001
 62
     7
 10
142.684
 20
124.498
 30
0.0
 11
142.684
 21
125.36
 31
0.0
  0
LINE
  5
2EE
  8
0
  6
AIGENLINE001
 62
     7
 10
142.7939999999999
 20
123.712
 30
0.0
 11
142.7939999999999
 21
124.389
 31
0.0
  0
LINE
  5
2EF
  8
0
  6
AIGENLINE001
 62
     7
 10
142.05600000000001
 20
125.721
 30
0.0
 11
141.42699999999999
 21
125.721
 31
0.0
  0
LINE
  5
2F0
  8
0
  6
AIGENLINE001
 62
     7
 10
142.05600000000001
 20
125.36
 30
0.0
 11
141.85900000000001
 21
125.36
 31
0.0
  0
LINE
  5
2F1
  8
0
  6
AIGENLINE001
 62
     7
 10
141.703
 20
125.36
 30
0.0
 11
141.42699999999999
 21
125.36
 31
0.0
  0
ARC
  5
2F2
  8
0
  6
AIGENLINE001
 62
     7
 10
141.440527
 20
125.55368799999999
 30
0.0
 40
0.194274
 50
183.91674
 51
265.97384299999999
  0
ARC
  5
2F3
  8
0
  6
AIGENLINE001
 62
     7
 10
141.44015200000001
 20
125.527152
 30
0.0
 40
0.193899
 50
93.922822999999994
 51
176.077147
  0
LINE
  5
2F4
  8
0
  6
AIGENLINE001
 62
     7
 10
142.05600000000001
 20
124.498
 30
0.0
 11
141.85900000000001
 21
124.498
 31
0.0
  0
LINE
  5
2F5
  8
0
  6
AIGENLINE001
 62
     7
 10
141.703
 20
124.498
 30
0.0
 11
141.42699999999999
 21
124.498
 31
0.0
  0
LINE
  5
2F6
  8
0
  6
AIGENLINE001
 62
     7
 10
141.703
 20
124.498
 30
0.0
 11
141.703
 21
125.36
 31
0.0
  0
LINE
  5
2F7
  8
0
  6
AIGENLINE001
 62
     7
 10
141.85900000000001
 20
124.498
 30
0.0
 11
141.85900000000001
 21
125.36
 31
0.0
  0
LINE
  5
2F8
  8
0
  6
AIGENLINE001
 62
     7
 10
141.42699999999999
 20
124.498
 30
0.0
 11
141.31800000000001
 21
124.389
 31
0.0
  0
LINE
  5
2F9
  8
0
  6
AIGENLINE001
 62
     7
 10
141.42699999999999
 20
124.498
 30
0.0
 11
141.42699999999999
 21
125.36
 31
0.0
  0
LINE
  5
2FA
  8
0
  6
AIGENLINE001
 62
     7
 10
141.31800000000001
 20
123.712
 30
0.0
 11
141.31800000000001
 21
124.389
 31
0.0
  0
LINE
  5
2FB
  8
0
  6
AIGENLINE001
 62
     7
 10
141.31800000000001
 20
123.712
 30
0.0
 11
142.05600000000001
 21
123.712
 31
0.0
  0
LINE
  5
2FC
  8
0
  6
AIGENLINE001
 62
     7
 10
142.7939999999999
 20
123.712
 30
0.0
 11
142.05600000000001
 21
123.712
 31
0.0
  0
LINE
  5
2FD
  8
0
  6
AIGENLINE001
 62
     7
 10
142.55600000000001
 20
125.899
 30
0.0
 11
142.55600000000001
 21
125.721
 31
0.0
  0
LINE
  5
2FE
  8
0
  6
AIGENLINE001
 62
     7
 10
141.55600000000001
 20
125.899
 30
0.0
 11
141.55600000000001
 21
125.721
 31
0.0
  0
LINE
  5
2FF
  8
0
  6
AIGENLINE001
 62
     7
 10
140.65600000000001
 20
126.124
 30
0.0
 11
140.65600000000001
 21
127.124
 31
0.0
  0
LINE
  5
300
  8
0
  6
AIGENLINE001
 62
     7
 10
141.35599999999999
 20
126.124
 30
0.0
 11
141.35599999999999
 21
127.124
 31
0.0
  0
LINE
  5
301
  8
0
  6
AIGENLINE001
 62
     7
 10
143.10599999999999
 20
125.899
 30
0.0
 11
141.006
 21
125.899
 31
0.0
  0
LINE
  5
302
  8
0
  6
AIGENLINE001
 62
     7
 10
143.10599999999999
 20
127.349
 30
0.0
 11
141.006
 21
127.349
 31
0.0
  0
LINE
  5
303
  8
0
  6
AIGENLINE001
 62
     7
 10
142.756
 20
126.124
 30
0.0
 11
142.756
 21
127.124
 31
0.0
  0
LINE
  5
304
  8
0
  6
AIGENLINE001
 62
     7
 10
143.45599999999999
 20
126.124
 30
0.0
 11
143.45599999999999
 21
127.124
 31
0.0
  0
ARC
  5
305
  8
0
  6
AIGENLINE001
 62
     7
 10
140.99656200000001
 20
126.839246
 30
0.0
 40
0.509943
 50
88.951472999999993
 51
108.22437600000001
  0
ARC
  5
306
  8
0
  6
AIGENLINE001
 62
     7
 10
140.91236799999999
 20
127.073167
 30
0.0
 40
0.261514
 50
106.7312409999999
 51
168.76076599999999
  0
ARC
  5
307
  8
0
  6
AIGENLINE001
 62
     7
 10
141.01327699999999
 20
126.82634400000001
 30
0.0
 40
0.5228120000000001
 50
72.014981999999989
 51
90.809128999999984
  0
ARC
  5
308
  8
0
  6
AIGENLINE001
 62
     7
 10
141.10130599999999
 20
127.074882
 30
0.0
 40
0.259332
 50
10.948969
 51
73.558983999999995
  0
ARC
  5
309
  8
0
  6
AIGENLINE001
 62
     7
 10
142.09143900000001
 20
125.049813
 30
0.0
 40
2.2995700000000001
 50
83.979976000000008
 51
90.892464000000004
  0
ARC
  5
30A
  8
0
  6
AIGENLINE001
 62
     7
 10
142.23920200000001
 20
126.381691
 30
0.0
 40
0.9595679999999999
 50
77.198971
 51
84.413847000000018
  0
ARC
  5
30B
  8
0
  6
AIGENLINE001
 62
     7
 10
142.308494
 20
126.63852799999999
 30
0.0
 40
0.6938439999999999
 50
70.085664000000008
 51
78.079589999999996
  0
ARC
  5
30C
  8
0
  6
AIGENLINE001
 62
     7
 10
142.43536900000001
 20
126.935804
 30
0.0
 40
0.371566
 50
30.455306000000011
 51
72.867285999999993
  0
ARC
  5
30D
  8
0
  6
AIGENLINE001
 62
     7
 10
142.02959000000001
 20
124.8382
 30
0.0
 40
2.5110389999999989
 50
89.406018000000003
 51
95.727878999999987
  0
ARC
  5
30E
  8
0
  6
AIGENLINE001
 62
     7
 10
141.9084189999999
 20
126.159047
 30
0.0
 40
1.1847469999999991
 50
96.272444999999991
 51
102.11469700000001
  0
ARC
  5
30F
  8
0
  6
AIGENLINE001
 62
     7
 10
141.79480100000001
 20
126.667601
 30
0.0
 40
0.6636880000000001
 50
101.73846399999999
 51
110.096242
  0
ARC
  5
310
  8
0
  6
AIGENLINE001
 62
     7
 10
141.678541
 20
126.93286500000001
 30
0.0
 40
0.375062
 50
107.33972
 51
149.337648
  0
ARC
  5
311
  8
0
  6
AIGENLINE001
 62
     7
 10
143.09639300000001
 20
126.84119099999999
 30
0.0
 40
0.507999
 50
88.951019999999986
 51
108.259428
  0
ARC
  5
312
  8
0
  6
AIGENLINE001
 62
     7
 10
143.01267300000001
 20
127.072577
 30
0.0
 40
0.262126
 50
106.72794399999999
 51
168.65573000000001
  0
ARC
  5
313
  8
0
  6
AIGENLINE001
 62
     7
 10
143.11423600000001
 20
126.834028
 30
0.0
 40
0.515147
 50
71.873858999999996
 51
90.95025200000002
  0
ARC
  5
314
  8
0
  6
AIGENLINE001
 62
     7
 10
143.20110500000001
 20
127.074882
 30
0.0
 40
0.259332
 50
10.948969
 51
73.558983999999995
  0
ARC
  5
315
  8
0
  6
AIGENLINE001
 62
     7
 10
140.99916400000001
 20
126.425797
 30
0.0
 40
0.52713
 50
252.09267
 51
270.73147999999998
  0
ARC
  5
316
  8
0
  6
AIGENLINE001
 62
     7
 10
140.91076000000001
 20
126.173101
 30
0.0
 40
0.259573
 50
190.89915300000001
 51
253.51043100000001
  0
ARC
  5
317
  8
0
  6
AIGENLINE001
 62
     7
 10
141.0138639999999
 20
126.417582
 30
0.0
 40
0.518934
 50
269.11999200000002
 51
288.05589800000001
  0
ARC
  5
318
  8
0
  6
AIGENLINE001
 62
     7
 10
141.099433
 20
126.17454600000001
 30
0.0
 40
0.261414
 50
286.73467900000003
 51
348.85577699999999
  0
ARC
  5
319
  8
0
  6
AIGENLINE001
 62
     7
 10
142.08170799999999
 20
128.415313
 30
0.0
 40
2.5167389999999989
 50
269.406091
 51
275.72146900000001
  0
ARC
  5
31A
  8
0
  6
AIGENLINE001
 62
     7
 10
142.20004800000001
 20
127.108035
 30
0.0
 40
1.204240999999999
 50
276.31979200000001
 51
282.06738999999999
  0
ARC
  5
31B
  8
0
  6
AIGENLINE001
 62
     7
 10
142.3150389999999
 20
126.586337
 30
0.0
 40
0.6700390000000001
 50
281.778165
 51
290.05658
  0
ARC
  5
31C
  8
0
  6
AIGENLINE001
 62
     7
 10
142.43323000000001
 20
126.314322
 30
0.0
 40
0.374408
 50
287.341363
 51
329.45114700000011
  0
ARC
  5
31D
  8
0
  6
AIGENLINE001
 62
     7
 10
142.02935400000001
 20
128.404359
 30
0.0
 40
2.5057869999999989
 50
264.265488
 51
270.600615
  0
ARC
  5
31E
  8
0
  6
AIGENLINE001
 62
     7
 10
141.902412
 20
127.051652
 30
0.0
 40
1.1471999999999991
 50
257.78960899999998
 51
263.82324799999998
  0
ARC
  5
31F
  8
0
  6
AIGENLINE001
 62
     7
 10
141.82454999999999
 20
126.684527
 30
0.0
 40
0.771913
 50
250.490488
 51
257.67480599999999
  0
ARC
  5
320
  8
0
  6
AIGENLINE001
 62
     7
 10
141.679979
 20
126.31637000000001
 30
0.0
 40
0.376848
 50
210.69163
 51
252.51589899999999
  0
ARC
  5
321
  8
0
  6
AIGENLINE001
 62
     7
 10
143.098388
 20
126.419811
 30
0.0
 40
0.5211520000000001
 50
251.986481
 51
270.80307099999999
  0
ARC
  5
322
  8
0
  6
AIGENLINE001
 62
     7
 10
143.01201900000001
 20
126.174554
 30
0.0
 40
0.261284
 50
191.151556
 51
253.366344
  0
ARC
  5
323
  8
0
  6
AIGENLINE001
 62
     7
 10
143.11378999999999
 20
126.416738
 30
0.0
 40
0.518091
 50
269.10445800000002
 51
288.07143100000002
  0
ARC
  5
324
  8
0
  6
AIGENLINE001
 62
     7
 10
143.19969900000001
 20
126.17412299999999
 30
0.0
 40
0.260874
 50
286.66319900000002
 51
348.927257
  0
LINE
  5
325
  8
0
  6
AIGENLINE001
 62
     7
 10
142.059
 20
128.875
 30
0.0
 11
142.059
 21
129.45500000000001
 31
0.0
  0
LINE
  5
326
  8
0
  6
AIGENLINE001
 62
     7
 10
142.98699999999999
 20
128.875
 30
0.0
 11
142.98699999999999
 21
127.349
 31
0.0
  0
LINE
  5
327
  8
0
  6
AIGENLINE001
 62
     7
 10
143.10299999999989
 20
128.875
 30
0.0
 11
143.10299999999989
 21
127.349
 31
0.0
  0
LINE
  5
328
  8
0
  6
AIGENLINE001
 62
     7
 10
143.2579999999999
 20
128.875
 30
0.0
 11
140.858
 21
128.875
 31
0.0
  0
LINE
  5
329
  8
0
  6
AIGENLINE001
 62
     7
 10
141.124
 20
127.349
 30
0.0
 11
141.124
 21
128.875
 31
0.0
  0
LINE
  5
32A
  8
0
  6
AIGENLINE001
 62
     7
 10
141.0079999999999
 20
127.349
 30
0.0
 11
141.0079999999999
 21
128.875
 31
0.0
  0
LINE
  5
32B
  8
0
  6
AIGENLINE001
 62
     7
 10
140.858
 20
128.875
 30
0.0
 11
140.858
 21
129.45500000000001
 31
0.0
  0
LINE
  5
32C
  8
0
  6
AIGENLINE001
 62
     7
 10
143.2579999999999
 20
129.45500000000001
 30
0.0
 11
140.858
 21
129.45500000000001
 31
0.0
  0
LINE
  5
32D
  8
0
  6
AIGENLINE001
 62
     7
 10
143.2579999999999
 20
128.875
 30
0.0
 11
143.2579999999999
 21
129.45500000000001
 31
0.0
  0
LINE
  5
32E
  8
0
  6
AIGENLINE001
 62
     7
 10
143.10299999999989
 20
129.476
 30
0.0
 11
143.10299999999989
 21
129.45500000000001
 31
0.0
  0
LINE
  5
32F
  8
0
  6
AIGENLINE001
 62
     7
 10
144.05600000000001
 20
129.61500000000001
 30
0.0
 11
144.05600000000001
 21
129.45500000000001
 31
0.0
  0
LINE
  5
330
  8
0
  6
AIGENLINE001
 62
     7
 10
142.91800000000001
 20
129.45500000000001
 30
0.0
 11
143.05099999999999
 21
129.45500000000001
 31
0.0
  0
LINE
  5
331
  8
0
  6
AIGENLINE001
 62
     7
 10
143.65799999999999
 20
129.45500000000001
 30
0.0
 11
143.74299999999999
 21
129.45500000000001
 31
0.0
  0
LINE
  5
332
  8
0
  6
AIGENLINE001
 62
     7
 10
144.03100000000001
 20
129.45500000000001
 30
0.0
 11
144.05600000000001
 21
129.45500000000001
 31
0.0
  0
LINE
  5
333
  8
0
  6
AIGENLINE001
 62
     7
 10
143.67400000000001
 20
129.62200000000001
 30
0.0
 11
143.72900000000001
 21
129.62200000000001
 31
0.0
  0
LINE
  5
334
  8
0
  6
AIGENLINE001
 62
     7
 10
143.02799999999999
 20
129.62200000000001
 30
0.0
 11
142.94200000000001
 21
129.62200000000001
 31
0.0
  0
LINE
  5
335
  8
0
  6
AIGENLINE001
 62
     7
 10
142.584
 20
129.57499999999999
 30
0.0
 11
142.91800000000001
 21
129.45500000000001
 31
0.0
  0
LINE
  5
336
  8
0
  6
AIGENLINE001
 62
     7
 10
143.322
 20
129.73500000000001
 30
0.0
 11
143.44
 21
129.73500000000001
 31
0.0
  0
LINE
  5
337
  8
0
  6
AIGENLINE001
 62
     7
 10
143.89699999999999
 20
129.73500000000001
 30
0.0
 11
143.952
 21
129.73500000000001
 31
0.0
  0
LINE
  5
338
  8
0
  6
AIGENLINE001
 62
     7
 10
143.34399999999999
 20
129.57599999999999
 30
0.0
 11
143.41900000000001
 21
129.57599999999999
 31
0.0
  0
LINE
  5
339
  8
0
  6
AIGENLINE001
 62
     7
 10
143.90700000000001
 20
129.57599999999999
 30
0.0
 11
143.9429999999999
 21
129.57599999999999
 31
0.0
  0
LINE
  5
33A
  8
0
  6
AIGENLINE001
 62
     7
 10
143.02799999999999
 20
129.62200000000001
 30
0.0
 11
143.322
 21
129.73500000000001
 31
0.0
  0
LINE
  5
33B
  8
0
  6
AIGENLINE001
 62
     7
 10
143.44
 20
129.73500000000001
 30
0.0
 11
143.67400000000001
 21
129.62200000000001
 31
0.0
  0
LINE
  5
33C
  8
0
  6
AIGENLINE001
 62
     7
 10
143.952
 20
129.73500000000001
 30
0.0
 11
144.05600000000001
 21
129.61500000000001
 31
0.0
  0
LINE
  5
33D
  8
0
  6
AIGENLINE001
 62
     7
 10
143.9429999999999
 20
129.57599999999999
 30
0.0
 11
144.03100000000001
 21
129.45500000000001
 31
0.0
  0
LINE
  5
33E
  8
0
  6
AIGENLINE001
 62
     7
 10
143.72900000000001
 20
129.62200000000001
 30
0.0
 11
143.89699999999999
 21
129.73500000000001
 31
0.0
  0
LINE
  5
33F
  8
0
  6
AIGENLINE001
 62
     7
 10
143.90700000000001
 20
129.57599999999999
 30
0.0
 11
143.74299999999999
 21
129.45500000000001
 31
0.0
  0
LINE
  5
340
  8
0
  6
AIGENLINE001
 62
     7
 10
143.65799999999999
 20
129.45500000000001
 30
0.0
 11
143.41900000000001
 21
129.57599999999999
 31
0.0
  0
LINE
  5
341
  8
0
  6
AIGENLINE001
 62
     7
 10
143.34399999999999
 20
129.57599999999999
 30
0.0
 11
143.05099999999999
 21
129.45500000000001
 31
0.0
  0
LINE
  5
342
  8
0
  6
AIGENLINE001
 62
     7
 10
142.72999999999999
 20
129.45500000000001
 30
0.0
 11
142.80500000000001
 21
129.45500000000001
 31
0.0
  0
LINE
  5
343
  8
0
  6
AIGENLINE001
 62
     7
 10
142.80500000000001
 20
129.45500000000001
 30
0.0
 11
142.83199999999999
 21
129.48500000000001
 31
0.0
  0
LINE
  5
344
  8
0
  6
AIGENLINE001
 62
     7
 10
142.94200000000001
 20
129.62200000000001
 30
0.0
 11
142.66300000000001
 21
129.73500000000001
 31
0.0
  0
LINE
  5
345
  8
0
  6
AIGENLINE001
 62
     7
 10
141.98099999999999
 20
129.45500000000001
 30
0.0
 11
142.131
 21
129.45500000000001
 31
0.0
  0
LINE
  5
346
  8
0
  6
AIGENLINE001
 62
     7
 10
142.44
 20
129.73500000000001
 30
0.0
 11
142.66300000000001
 21
129.73500000000001
 31
0.0
  0
LINE
  5
347
  8
0
  6
AIGENLINE001
 62
     7
 10
142.00700000000001
 20
129.61500000000001
 30
0.0
 11
142.10499999999999
 21
129.61500000000001
 31
0.0
  0
LINE
  5
348
  8
0
  6
AIGENLINE001
 62
     7
 10
142.48400000000001
 20
129.57499999999999
 30
0.0
 11
142.584
 21
129.57499999999999
 31
0.0
  0
LINE
  5
349
  8
0
  6
AIGENLINE001
 62
     7
 10
142.10499999999999
 20
129.61500000000001
 30
0.0
 11
142.458
 21
129.73500000000001
 31
0.0
  0
LINE
  5
34A
  8
0
  6
AIGENLINE001
 62
     7
 10
142.131
 20
129.45500000000001
 30
0.0
 11
142.48699999999999
 21
129.57599999999999
 31
0.0
  0
LINE
  5
34B
  8
0
  6
AIGENLINE001
 62
     7
 10
141.654
 20
129.73500000000001
 30
0.0
 11
142.00700000000001
 21
129.61500000000001
 31
0.0
  0
LINE
  5
34C
  8
0
  6
AIGENLINE001
 62
     7
 10
141.62700000000001
 20
129.57499999999999
 30
0.0
 11
141.98099999999999
 21
129.45500000000001
 31
0.0
  0
LINE
  5
34D
  8
0
  6
AIGENLINE001
 62
     7
 10
141.62700000000001
 20
129.57499999999999
 30
0.0
 11
141.52699999999999
 21
129.57499999999999
 31
0.0
  0
LINE
  5
34E
  8
0
  6
AIGENLINE001
 62
     7
 10
141.67099999999999
 20
129.73500000000001
 30
0.0
 11
141.44800000000001
 21
129.73500000000001
 31
0.0
  0
LINE
  5
34F
  8
0
  6
AIGENLINE001
 62
     7
 10
141.16999999999999
 20
129.62200000000001
 30
0.0
 11
141.501
 21
129.73500000000001
 31
0.0
  0
LINE
  5
350
  8
0
  6
AIGENLINE001
 62
     7
 10
141.52699999999999
 20
129.57499999999999
 30
0.0
 11
141.19399999999999
 21
129.45500000000001
 31
0.0
  0
LINE
  5
351
  8
0
  6
AIGENLINE001
 62
     7
 10
142.26400000000001
 20
129.45500000000001
 30
0.0
 11
142.36099999999999
 21
129.45500000000001
 31
0.0
  0
LINE
  5
352
  8
0
  6
AIGENLINE001
 62
     7
 10
141.84700000000001
 20
129.45500000000001
 30
0.0
 11
141.75
 21
129.45500000000001
 31
0.0
  0
LINE
  5
353
  8
0
  6
AIGENLINE001
 62
     7
 10
141.381
 20
129.45500000000001
 30
0.0
 11
141.52699999999999
 21
129.57499999999999
 31
0.0
  0
LINE
  5
354
  8
0
  6
AIGENLINE001
 62
     7
 10
141.62700000000001
 20
129.57499999999999
 30
0.0
 11
141.75
 21
129.45500000000001
 31
0.0
  0
LINE
  5
355
  8
0
  6
AIGENLINE001
 62
     7
 10
142.26400000000001
 20
129.45500000000001
 30
0.0
 11
142.22999999999999
 21
129.489
 31
0.0
  0
LINE
  5
356
  8
0
  6
AIGENLINE001
 62
     7
 10
142.36099999999999
 20
129.45500000000001
 30
0.0
 11
142.48500000000001
 21
129.57499999999999
 31
0.0
  0
LINE
  5
357
  8
0
  6
AIGENLINE001
 62
     7
 10
142.584
 20
129.57499999999999
 30
0.0
 11
142.72999999999999
 21
129.45500000000001
 31
0.0
  0
LINE
  5
358
  8
0
  6
AIGENLINE001
 62
     7
 10
141.881
 20
129.489
 30
0.0
 11
141.84700000000001
 21
129.45500000000001
 31
0.0
  0
LINE
  5
359
  8
0
  6
AIGENLINE001
 62
     7
 10
141.93000000000001
 20
129.73500000000001
 30
0.0
 11
142.18199999999999
 21
129.73500000000001
 31
0.0
  0
LINE
  5
35A
  8
0
  6
AIGENLINE001
 62
     7
 10
141.93000000000001
 20
129.73500000000001
 30
0.0
 11
141.875
 21
129.66
 31
0.0
  0
LINE
  5
35B
  8
0
  6
AIGENLINE001
 62
     7
 10
142.18199999999999
 20
129.73500000000001
 30
0.0
 11
142.23599999999999
 21
129.66
 31
0.0
  0
LINE
  5
35C
  8
0
  6
AIGENLINE001
 62
     7
 10
141.0079999999999
 20
129.45500000000001
 30
0.0
 11
141.0079999999999
 21
129.476
 31
0.0
  0
LINE
  5
35D
  8
0
  6
AIGENLINE001
 62
     7
 10
140.05600000000001
 20
129.61500000000001
 30
0.0
 11
140.05600000000001
 21
129.45500000000001
 31
0.0
  0
LINE
  5
35E
  8
0
  6
AIGENLINE001
 62
     7
 10
140.36799999999999
 20
129.45500000000001
 30
0.0
 11
140.453
 21
129.45500000000001
 31
0.0
  0
LINE
  5
35F
  8
0
  6
AIGENLINE001
 62
     7
 10
141.06100000000001
 20
129.45500000000001
 30
0.0
 11
141.19399999999999
 21
129.45500000000001
 31
0.0
  0
LINE
  5
360
  8
0
  6
AIGENLINE001
 62
     7
 10
140.05600000000001
 20
129.45500000000001
 30
0.0
 11
140.08099999999999
 21
129.45500000000001
 31
0.0
  0
LINE
  5
361
  8
0
  6
AIGENLINE001
 62
     7
 10
141.16999999999999
 20
129.62200000000001
 30
0.0
 11
141.084
 21
129.62200000000001
 31
0.0
  0
LINE
  5
362
  8
0
  6
AIGENLINE001
 62
     7
 10
140.43799999999999
 20
129.62200000000001
 30
0.0
 11
140.38300000000001
 21
129.62200000000001
 31
0.0
  0
LINE
  5
363
  8
0
  6
AIGENLINE001
 62
     7
 10
140.78999999999999
 20
129.73500000000001
 30
0.0
 11
140.672
 21
129.73500000000001
 31
0.0
  0
LINE
  5
364
  8
0
  6
AIGENLINE001
 62
     7
 10
140.215
 20
129.73500000000001
 30
0.0
 11
140.15899999999999
 21
129.73500000000001
 31
0.0
  0
LINE
  5
365
  8
0
  6
AIGENLINE001
 62
     7
 10
140.767
 20
129.57599999999999
 30
0.0
 11
140.69200000000001
 21
129.57599999999999
 31
0.0
  0
LINE
  5
366
  8
0
  6
AIGENLINE001
 62
     7
 10
140.20400000000001
 20
129.57599999999999
 30
0.0
 11
140.16900000000001
 21
129.57599999999999
 31
0.0
  0
LINE
  5
367
  8
0
  6
AIGENLINE001
 62
     7
 10
140.05600000000001
 20
129.61500000000001
 30
0.0
 11
140.15899999999999
 21
129.73500000000001
 31
0.0
  0
LINE
  5
368
  8
0
  6
AIGENLINE001
 62
     7
 10
140.215
 20
129.73500000000001
 30
0.0
 11
140.38300000000001
 21
129.62200000000001
 31
0.0
  0
LINE
  5
369
  8
0
  6
AIGENLINE001
 62
     7
 10
140.43799999999999
 20
129.62200000000001
 30
0.0
 11
140.672
 21
129.73500000000001
 31
0.0
  0
LINE
  5
36A
  8
0
  6
AIGENLINE001
 62
     7
 10
140.78999999999999
 20
129.73500000000001
 30
0.0
 11
141.084
 21
129.62200000000001
 31
0.0
  0
LINE
  5
36B
  8
0
  6
AIGENLINE001
 62
     7
 10
141.06100000000001
 20
129.45500000000001
 30
0.0
 11
140.767
 21
129.57599999999999
 31
0.0
  0
LINE
  5
36C
  8
0
  6
AIGENLINE001
 62
     7
 10
140.69200000000001
 20
129.57599999999999
 30
0.0
 11
140.453
 21
129.45500000000001
 31
0.0
  0
LINE
  5
36D
  8
0
  6
AIGENLINE001
 62
     7
 10
140.36799999999999
 20
129.45500000000001
 30
0.0
 11
140.20400000000001
 21
129.57599999999999
 31
0.0
  0
LINE
  5
36E
  8
0
  6
AIGENLINE001
 62
     7
 10
140.16900000000001
 20
129.57599999999999
 30
0.0
 11
140.08099999999999
 21
129.45500000000001
 31
0.0
  0
LINE
  5
36F
  8
0
  6
AIGENLINE001
 62
     7
 10
141.381
 20
129.45500000000001
 30
0.0
 11
141.30600000000001
 21
129.45500000000001
 31
0.0
  0
LINE
  5
370
  8
0
  6
AIGENLINE001
 62
     7
 10
141.30600000000001
 20
129.45500000000001
 30
0.0
 11
141.28
 21
129.48599999999999
 31
0.0
  0
LINE
  5
371
  8
0
  6
AIGENLINE001
 62
     7
 10
141.446
 20
129.73500000000001
 30
0.0
 11
141.387
 21
129.696
 31
0.0
  0
LINE
  5
372
  8
0
  6
AIGENLINE001
 62
     7
 10
141.126
 20
129.62200000000001
 30
0.0
 11
141.124
 21
131.13499999999999
 31
0.0
  0
LINE
  5
373
  8
0
  6
AIGENLINE001
 62
     7
 10
141.0079999999999
 20
129.65100000000001
 30
0.0
 11
141.0079999999999
 21
131.13499999999999
 31
0.0
  0
LINE
  5
374
  8
0
  6
AIGENLINE001
 62
     7
 10
140.65600000000001
 20
131.535
 30
0.0
 11
140.65600000000001
 21
129.73500000000001
 31
0.0
  0
LINE
  5
375
  8
0
  6
AIGENLINE001
 62
     7
 10
142.98699999999999
 20
131.13499999999999
 30
0.0
 11
142.98699999999999
 21
129.62200000000001
 31
0.0
  0
LINE
  5
376
  8
0
  6
AIGENLINE001
 62
     7
 10
143.10299999999989
 20
131.13499999999999
 30
0.0
 11
143.10299999999989
 21
129.65100000000001
 31
0.0
  0
LINE
  5
377
  8
0
  6
AIGENLINE001
 62
     7
 10
143.45599999999999
 20
131.535
 30
0.0
 11
143.45599999999999
 21
129.73500000000001
 31
0.0
  0
LINE
  5
378
  8
0
 62
     7
 10
143.85599999999999
 20
131.63499999999999
 30
0.0
 11
143.85599999999999
 21
131.535
 31
0.0
  0
LINE
  5
379
  8
0
 62
     7
 10
140.256
 20
131.63499999999999
 30
0.0
 11
143.85599999999999
 21
131.63499999999999
 31
0.0
  0
LINE
  5
37A
  8
0
 62
     7
 10
140.256
 20
131.63499999999999
 30
0.0
 11
140.256
 21
131.535
 31
0.0
  0
LINE
  5
37B
  8
0
 62
     7
 10
144.05600000000001
 20
131.63499999999999
 30
0.0
 11
144.05600000000001
 21
131.88499999999999
 31
0.0
  0
ARC
  5
37C
  8
0
 62
     7
 10
144.00209100000001
 20
131.88111000000001
 30
0.0
 40
0.053902
 50
4.080932999999999
 51
86.312841000000006
  0
LINE
  5
37D
  8
0
 62
     7
 10
144.05600000000001
 20
131.63499999999999
 30
0.0
 11
143.85599999999999
 21
131.63499999999999
 31
0.0
  0
LINE
  5
37E
  8
0
 62
     7
 10
143.85599999999999
 20
131.63499999999999
 30
0.0
 11
140.256
 21
131.63499999999999
 31
0.0
  0
LINE
  5
37F
  8
0
 62
     7
 10
140.256
 20
131.63499999999999
 30
0.0
 11
140.05600000000001
 21
131.63499999999999
 31
0.0
  0
LINE
  5
380
  8
0
 62
     7
 10
140.05600000000001
 20
131.63499999999999
 30
0.0
 11
140.05600000000001
 21
131.88499999999999
 31
0.0
  0
ARC
  5
381
  8
0
 62
     7
 10
140.10942700000001
 20
131.881203
 30
0.0
 40
0.053827
 50
93.987099999999984
 51
176.01286999999999
  0
LINE
  5
382
  8
0
 62
     7
 10
144.006
 20
131.935
 30
0.0
 11
140.10599999999999
 21
131.935
 31
0.0
  0
LINE
  5
383
  8
0
  6
AIGENLINE001
 62
     7
 10
143.18100000000001
 20
131.13499999999999
 30
0.0
 11
140.93100000000001
 21
131.13499999999999
 31
0.0
  0
LINE
  5
384
  8
0
  6
AIGENLINE001
 62
     7
 10
143.18100000000001
 20
131.13499999999999
 30
0.0
 11
143.18100000000001
 21
131.43799999999999
 31
0.0
  0
LINE
  5
385
  8
0
  6
AIGENLINE001
 62
     7
 10
140.93100000000001
 20
131.13499999999999
 30
0.0
 11
140.93100000000001
 21
131.43799999999999
 31
0.0
  0
ARC
  5
386
  8
0
  6
AIGENLINE001
 62
     7
 10
143.28680600000001
 20
131.43340799999999
 30
0.0
 40
0.106114
 50
106.93302199999999
 51
177.45827600000001
  0
ARC
  5
387
  8
0
  6
AIGENLINE001
 62
     7
 10
140.825503
 20
131.43434300000001
 30
0.0
 40
0.10501
 50
2.05783
 51
73.295815000000019
  0
LINE
  5
388
  8
0
 62
     7
 10
140.65600000000001
 20
131.935
 30
0.0
 11
143.45599999999999
 21
131.935
 31
0.0
  0
LINE
  5
389
  8
0
 62
     7
 10
140.65600000000001
 20
131.935
 30
0.0
 11
140.65600000000001
 21
138.935
 31
0.0
  0
LINE
  5
38A
  8
0
 62
     7
 10
140.65600000000001
 20
138.935
 30
0.0
 11
143.45599999999999
 21
138.935
 31
0.0
  0
LINE
  5
38B
  8
0
 62
     7
 10
143.45599999999999
 20
131.935
 30
0.0
 11
143.45599999999999
 21
138.935
 31
0.0
  0
LINE
  5
38C
  8
0
 62
     7
 10
140.65600000000001
 20
138.935
 30
0.0
 11
143.45599999999999
 21
138.935
 31
0.0
  0
LINE
  5
38D
  8
0
 62
     7
 10
140.65600000000001
 20
138.935
 30
0.0
 11
140.65600000000001
 21
150.185
 31
0.0
  0
LINE
  5
38E
  8
0
 62
     7
 10
143.45599999999999
 20
138.935
 30
0.0
 11
143.45599999999999
 21
150.185
 31
0.0
  0
LINE
  5
38F
  8
0
 62
     7
 10
140.70599999999999
 20
152.435
 30
0.0
 11
143.40600000000001
 21
152.435
 31
0.0
  0
LINE
  5
390
  8
0
 62
     7
 10
140.65600000000001
 20
152.33500000000001
 30
0.0
 11
140.65600000000001
 21
152.38499999999999
 31
0.0
  0
LINE
  5
391
  8
0
 62
     7
 10
140.65600000000001
 20
152.33500000000001
 30
0.0
 11
143.45599999999999
 21
152.33500000000001
 31
0.0
  0
LINE
  5
392
  8
0
 62
     7
 10
143.45599999999999
 20
152.33500000000001
 30
0.0
 11
143.45599999999999
 21
152.38499999999999
 31
0.0
  0
ARC
  5
393
  8
0
 62
     7
 10
143.401668
 20
152.38104899999999
 30
0.0
 40
0.054176
 50
3.9398939999999998
 51
85.666312000000005
  0
ARC
  5
394
  8
0
 62
     7
 10
140.70996400000001
 20
152.38063099999999
 30
0.0
 40
0.054596
 50
94.349389000000016
 51
175.65058099999999
  0
LINE
  5
395
  8
0
 62
     7
 10
140.65600000000001
 20
152.33500000000001
 30
0.0
 11
140.65600000000001
 21
150.30500000000001
 31
0.0
  0
LINE
  5
396
  8
0
 62
     7
 10
143.45599999999999
 20
152.33500000000001
 30
0.0
 11
140.65600000000001
 21
152.33500000000001
 31
0.0
  0
LINE
  5
397
  8
0
 62
     7
 10
143.42599999999999
 20
150.27500000000001
 30
0.0
 11
140.68600000000001
 21
150.27500000000001
 31
0.0
  0
LINE
  5
398
  8
0
 62
     7
 10
143.45599999999999
 20
152.33500000000001
 30
0.0
 11
143.45599999999999
 21
150.30500000000001
 31
0.0
  0
ARC
  5
399
  8
0
 62
     7
 10
140.68777399999999
 20
150.307255
 30
0.0
 40
0.032331
 50
184.080512
 51
266.57432
  0
ARC
  5
39A
  8
0
 62
     7
 10
143.423856
 20
150.30684199999999
 30
0.0
 40
0.031916
 50
273.39139999999998
 51
356.60861
  0
LINE
  5
39B
  8
0
 62
     7
 10
143.251
 20
150.185
 30
0.0
 11
140.86000000000001
 21
150.185
 31
0.0
  0
LINE
  5
39C
  8
0
 62
     7
 10
142.17400000000001
 20
150.23500000000001
 30
0.0
 11
142.17400000000001
 21
150.27500000000001
 31
0.0
  0
LINE
  5
39D
  8
0
 62
     7
 10
141.93700000000001
 20
150.23500000000001
 30
0.0
 11
141.93700000000001
 21
150.27500000000001
 31
0.0
  0
LINE
  5
39E
  8
0
 62
     7
 10
142.98699999999999
 20
150.251
 30
0.0
 11
142.98699999999999
 21
150.27500000000001
 31
0.0
  0
LINE
  5
39F
  8
0
 62
     7
 10
143.10599999999999
 20
150.23500000000001
 30
0.0
 11
143.10599999999999
 21
150.27500000000001
 31
0.0
  0
LINE
  5
3A0
  8
0
 62
     7
 10
141.124
 20
150.251
 30
0.0
 11
141.124
 21
150.27500000000001
 31
0.0
  0
LINE
  5
3A1
  8
0
 62
     7
 10
141.006
 20
150.23500000000001
 30
0.0
 11
141.006
 21
150.27500000000001
 31
0.0
  0
ARC
  5
3A2
  8
0
 62
     7
 10
142.58082899999999
 20
155.20145400000001
 30
0.0
 40
4.9665499999999989
 50
265.30695700000001
 51
274.693063
  0
ARC
  5
3A3
  8
0
 62
     7
 10
141.530585
 20
155.1993389999999
 30
0.0
 40
4.9644289999999991
 50
265.30694199999999
 51
274.69307800000001
  0
LINE
  5
3A4
  8
0
 62
     7
 10
143.20599999999999
 20
150.185
 30
0.0
 11
143.20599999999999
 21
150.23500000000001
 31
0.0
  0
LINE
  5
3A5
  8
0
 62
     7
 10
140.90600000000001
 20
150.185
 30
0.0
 11
140.90600000000001
 21
150.23500000000001
 31
0.0
  0
LINE
  5
3A6
  8
0
 62
     7
 10
143.20599999999999
 20
150.23500000000001
 30
0.0
 11
142.17400000000001
 21
150.23500000000001
 31
0.0
  0
LINE
  5
3A7
  8
0
 62
     7
 10
141.93700000000001
 20
150.23500000000001
 30
0.0
 11
140.90600000000001
 21
150.23500000000001
 31
0.0
  0
LINE
  5
3A8
  8
0
 62
     7
 10
140.65600000000001
 20
150.185
 30
0.0
 11
143.45599999999999
 21
150.185
 31
0.0
  0
ARC
  5
3A9
  8
0
 62
     7
 10
141.84957399999999
 20
100.890952
 30
0.0
 40
38.250209999999988
 50
85.169664999999995
 51
86.618365000000011
  0
ARC
  5
3AA
  8
0
 62
     7
 10
142.10802799999999
 20
103.446879
 30
0.0
 40
35.688274999999997
 50
93.377006999999963
 51
97.561803000000026
  0
ARC
  5
3AB
  8
0
 62
     7
 10
134.46081100000001
 20
136.42147700000001
 30
0.0
 40
2.506043
 50
178.26687899999999
 51
181.449479
  0
ARC
  5
3AC
  8
0
 62
     7
 10
137.610806
 20
136.29351600000001
 30
0.0
 40
5.6585599999999987
 50
172.74076199999999
 51
177.93644
  0
ARC
  5
3AD
  8
0
 62
     7
 10
135.981008
 20
136.53293300000001
 30
0.0
 40
4.011696999999999
 50
169.047158
 51
173.191486
  0
ARC
  5
3AE
  8
0
 62
     7
 10
134.228151
 20
136.85471100000001
 30
0.0
 40
2.2296979999999991
 50
166.54918499999999
 51
168.60705200000001
  0
ARC
  5
3AF
  8
0
 62
     7
 10
137.36207999999999
 20
134.48686499999999
 30
0.0
 40
4.8173409999999999
 50
213.61160899999999
 51
217.79039800000001
  0
ARC
  5
3B0
  8
0
 62
     7
 10
139.170028
 20
135.63561200000001
 30
0.0
 40
6.9590569999999996
 50
207.21798000000001
 51
213.24834799999999
  0
ARC
  5
3B1
  8
0
 62
     7
 10
141.88664
 20
136.98246599999999
 30
0.0
 40
9.9909869999999987
 50
191.59601799999999
 51
206.961094
  0
ARC
  5
3B2
  8
0
 62
     7
 10
139.20128700000001
 20
136.462264
 30
0.0
 40
7.2559409999999991
 50
185.548495
 51
191.83447100000001
  0
ARC
  5
3B3
  8
0
 62
     7
 10
136.48086599999999
 20
136.234611
 30
0.0
 40
4.526402
 50
178.733453
 51
186.00982500000001
  0
ARC
  5
3B4
  8
0
 62
     7
 10
132.260862
 20
137.32978299999999
 30
0.0
 40
0.205914
 50
132.80760000000001
 51
167.78174200000001
  0
ARC
  5
3B5
  8
0
 62
     7
 10
132.24074899999999
 20
137.35853
 30
0.0
 40
0.171222
 50
106.694928
 51
134.40698599999999
  0
LINE
  5
3B6
  8
0
 62
     7
 10
131.95500000000001
 20
136.33500000000001
 30
0.0
 11
131.95500000000001
 21
136.358
 31
0.0
  0
ARC
  5
3B7
  8
0
 62
     7
 10
149.813478
 20
136.844491
 30
0.0
 40
2.2997869999999989
 50
9.8252440000000014
 51
13.295014999999999
  0
ARC
  5
3B8
  8
0
 62
     7
 10
146.522876
 20
136.290435
 30
0.0
 40
5.6366930000000002
 50
4.4496519999999986
 51
9.6667670000000001
  0
ARC
  5
3B9
  8
0
 62
     7
 10
148.497411
 20
136.404788
 30
0.0
 40
3.6594479999999998
 50
0.5255920000000001
 51
5.0631320000000004
  0
ARC
  5
3BA
  8
0
 62
     7
 10
149.649855
 20
136.419737
 30
0.0
 40
2.5069180000000002
 50
358.59082799999999
 51
0.425578
  0
ARC
  5
3BB
  8
0
 62
     7
 10
147.207482
 20
136.255921
 30
0.0
 40
4.94916
 50
356.841812
 51
0.911583
  0
ARC
  5
3BC
  8
0
 62
     7
 10
145.204106
 20
136.42400699999999
 30
0.0
 40
6.9589910000000001
 50
350.337602
 51
356.36872299999999
  0
ARC
  5
3BD
  8
0
 62
     7
 10
142.180623
 20
136.98935599999999
 30
0.0
 40
10.034596000000001
 50
334.75502799999998
 51
350.05291199999999
  0
ARC
  5
3BE
  8
0
 62
     7
 10
144.783659
 20
135.72697400000001
 30
0.0
 40
7.1418470000000003
 50
328.62141000000003
 51
335.00892199999998
  0
ARC
  5
3BF
  8
0
 62
     7
 10
146.76017999999999
 20
134.49105499999999
 30
0.0
 40
4.8109400000000004
 50
322.08726100000001
 51
328.931104
  0
ARC
  5
3C0
  8
0
 62
     7
 10
151.85016300000001
 20
137.32631699999999
 30
0.0
 40
0.208169
 50
26.706047999999999
 51
70.491477000000003
  0
ARC
  5
3C1
  8
0
 62
     7
 10
151.89763600000001
 20
137.34787
 30
0.0
 40
0.156088
 50
9.3996680000000001
 51
27.470224999999999
  0
LINE
  5
3C2
  8
0
 62
     7
 10
152.15600000000001
 20
136.33500000000001
 30
0.0
 11
152.15600000000001
 21
136.358
 31
0.0
  0
ARC
  5
3C3
  8
0
 62
     7
 10
138.07074700000001
 20
122.880842
 30
0.0
 40
15.77796
 50
108.876836
 51
111.877289
  0
ARC
  5
3C4
  8
0
 62
     7
 10
139.71348499999999
 20
117.849018
 30
0.0
 40
21.070765000000002
 50
103.10028200000001
 51
108.6767389999999
  0
ARC
  5
3C5
  8
0
 62
     7
 10
141.29296500000001
 20
110.66896699999999
 30
0.0
 40
28.422091999999999
 50
97.848910000000004
 51
102.920806
  0
ARC
  5
3C6
  8
0
 62
     7
 10
142.69765899999999
 20
109.92190100000001
 30
0.0
 40
29.180045
 50
78.991781000000003
 51
85.335818000000003
  0
ARC
  5
3C7
  8
0
 62
     7
 10
144.10880299999999
 20
116.769755
 30
0.0
 40
22.188870000000001
 50
73.72641400000002
 51
79.192115000000001
  0
ARC
  5
3C8
  8
0
 62
     7
 10
145.82773299999999
 20
122.376622
 30
0.0
 40
16.325150000000001
 50
68.089151999999999
 51
74.003264000000001
  0
ARC
  5
3C9
  8
0
 62
     7
 10
94.656154000000001
 20
208.95188099999999
 30
0.0
 40
1.455017999999999
 50
182.12388200000001
 51
267.876148
  0
ARC
  5
3CA
  8
0
 62
     7
 10
94.655377000000001
 20
208.84463299999999
 30
0.0
 40
1.4542200000000001
 50
92.094401000000005
 51
177.89851999999999
  0
ARC
  5
3CB
  8
0
 62
     7
 10
94.548462000000001
 20
208.84401
 30
0.0
 40
1.454864999999999
 50
2.125065999999999
 51
87.881973999999985
  0
ARC
  5
3CC
  8
0
 62
     7
 10
94.549071999999995
 20
208.95111700000001
 30
0.0
 40
1.454226
 50
272.09490899999997
 51
357.905101
  0
ARC
  5
3CD
  8
0
 62
     7
 10
94.602402999999995
 20
208.897786
 30
0.0
 40
1.3499689999999991
 50
179.992659
 51
269.99270899999999
  0
ARC
  5
3CE
  8
0
 62
     7
 10
94.602231000000003
 20
208.89795799999999
 30
0.0
 40
1.349796999999999
 50
90.0
 51
179.99996999999999
  0
ARC
  5
3CF
  8
0
 62
     7
 10
94.602402999999995
 20
208.897786
 30
0.0
 40
1.3499689999999991
 50
0.007321
 51
90.007291000000023
  0
ARC
  5
3D0
  8
0
 62
     7
 10
94.602231000000003
 20
208.89795799999999
 30
0.0
 40
1.3501419999999991
 50
270.00002000000001
 51
359.99999000000003
  0
ARC
  5
3D1
  8
0
 62
     7
 10
86.658163999999999
 20
209.71928600000001
 30
0.0
 40
0.153903
 50
93.347348999999994
 51
136.50734700000001
  0
ARC
  5
3D2
  8
0
 62
     7
 10
86.879593000000014
 20
209.50101699999999
 30
0.0
 40
0.4648060000000001
 50
135.77448100000001
 51
156.4515679999999
  0
ARC
  5
3D3
  8
0
 62
     7
 10
87.536430000000024
 20
209.194232
 30
0.0
 40
1.189659
 50
155.54536100000001
 51
166.54448600000001
  0
ARC
  5
3D4
  8
0
 62
     7
 10
88.479539000000003
 20
208.966387
 30
0.0
 40
2.1598989999999998
 50
166.48777100000001
 51
173.811226
  0
ARC
  5
3D5
  8
0
 62
     7
 10
88.992976999999996
 20
208.905159
 30
0.0
 40
2.6769519999999991
 50
173.69306
 51
180.15413699999999
  0
ARC
  5
3D6
  8
0
 62
     7
 10
89.105591000000004
 20
208.89680999999999
 30
0.0
 40
2.7895560000000001
 50
179.97639699999999
 51
186.17640599999999
  0
ARC
  5
3D7
  8
0
 62
     7
 10
88.515901999999997
 20
208.83584300000001
 30
0.0
 40
2.196733
 50
186.25025400000001
 51
193.45075
  0
ARC
  5
3D8
  8
0
 62
     7
 10
87.511077
 20
208.59297799999999
 30
0.0
 40
1.162979999999999
 50
193.328947
 51
204.58120600000001
  0
ARC
  5
3D9
  8
0
 62
     7
 10
86.856358999999983
 20
208.27891099999999
 30
0.0
 40
0.437151
 50
202.84399199999999
 51
224.864047
  0
ARC
  5
3DA
  8
0
 62
     7
 10
86.658730000000006
 20
208.077675
 30
0.0
 40
0.155151
 50
223.67490900000001
 51
266.470395
  0
LINE
  5
3DB
  8
0
 62
     7
 10
86.649199999999993
 20
209.87299999999999
 30
0.0
 11
88.528499999999994
 21
209.87299999999999
 31
0.0
  0
LINE
  5
3DC
  8
0
 62
     7
 10
86.649199999999993
 20
207.923
 30
0.0
 11
88.528499999999994
 21
207.923
 31
0.0
  0
ARC
  5
3DD
  8
0
 62
     7
 10
88.537419999999997
 20
209.72020900000001
 30
0.0
 40
0.152978
 50
93.346892999999994
 51
136.655181
  0
ARC
  5
3DE
  8
0
 62
     7
 10
88.762829000000011
 20
209.49754300000001
 30
0.0
 40
0.469794
 50
135.775418
 51
156.25441799999999
  0
ARC
  5
3DF
  8
0
 62
     7
 10
89.415740999999997
 20
209.194232
 30
0.0
 40
1.189659
 50
155.54536100000001
 51
166.54448600000001
  0
ARC
  5
3E0
  8
0
 62
     7
 10
90.443039999999996
 20
208.95176900000001
 30
0.0
 40
2.2451810000000001
 50
166.627039
 51
173.67195699999999
  0
ARC
  5
3E1
  8
0
 62
     7
 10
90.872288999999995
 20
208.905159
 30
0.0
 40
2.6769519999999991
 50
173.69306
 51
180.15413699999999
  0
ARC
  5
3E2
  8
0
 62
     7
 10
90.984902000000005
 20
208.89680999999999
 30
0.0
 40
2.7895560000000001
 50
179.97639699999999
 51
186.17640599999999
  0
ARC
  5
3E3
  8
0
 62
     7
 10
90.395213999999996
 20
208.83584300000001
 30
0.0
 40
2.196733
 50
186.25025400000001
 51
193.45075
  0
ARC
  5
3E4
  8
0
 62
     7
 10
89.424329
 20
208.604634
 30
0.0
 40
1.198698
 50
193.49710999999999
 51
204.41304299999999
  0
ARC
  5
3E5
  8
0
 62
     7
 10
88.755120999999988
 20
208.292776
 30
0.0
 40
0.4604890000000001
 50
203.49432400000001
 51
224.40983600000001
  0
ARC
  5
3E6
  8
0
 62
     7
 10
88.538437999999985
 20
208.07771600000001
 30
0.0
 40
0.155218
 50
223.67270600000001
 51
266.32522
  0
ARC
  5
3E7
  8
0
 62
     7
 10
94.656154000000001
 20
208.95188099999999
 30
0.0
 40
1.455017999999999
 50
182.12388200000001
 51
267.876148
  0
ARC
  5
3E8
  8
0
 62
     7
 10
94.655377000000001
 20
208.84463299999999
 30
0.0
 40
1.4542200000000001
 50
92.094401000000005
 51
177.89851999999999
  0
ARC
  5
3E9
  8
0
 62
     7
 10
94.548462000000001
 20
208.84401
 30
0.0
 40
1.454864999999999
 50
2.125065999999999
 51
87.881973999999985
  0
ARC
  5
3EA
  8
0
 62
     7
 10
94.549071999999995
 20
208.95111700000001
 30
0.0
 40
1.454226
 50
272.09490899999997
 51
357.905101
  0
LINE
  5
3EB
  8
0
 62
     7
 10
93.187999999999988
 20
208.49799999999999
 30
0.0
 11
91.182599999999994
 21
208.49799999999999
 31
0.0
  0
LINE
  5
3EC
  8
0
 62
     7
 10
93.187999999999988
 20
209.298
 30
0.0
 11
91.182599999999994
 21
209.298
 31
0.0
  0
ARC
  5
3ED
  8
0
 62
     7
 10
93.184443000000016
 20
208.39261099999999
 30
0.0
 40
0.10527
 50
21.472227
 51
87.870402999999996
  0
ARC
  5
3EE
  8
0
 62
     7
 10
93.184601999999998
 20
209.402737
 30
0.0
 40
0.10504
 50
272.04766999999998
 51
338.60969999999998
  0
LINE
  5
3EF
  8
0
 62
     7
 10
91.102699999999984
 20
209.21799999999999
 30
0.0
 11
91.102699999999984
 21
208.578
 31
0.0
  0
ARC
  5
3F0
  8
0
 62
     7
 10
91.188096000000002
 20
208.583223
 30
0.0
 40
0.085592
 50
183.676703
 51
266.32332700000001
  0
ARC
  5
3F1
  8
0
 62
     7
 10
91.188636000000002
 20
209.21180899999999
 30
0.0
 40
0.086166
 50
94.011564000000007
 51
175.988406
  0
ARC
  5
3F2
  8
0
 62
     7
 10
94.559392000000017
 20
208.937218
 30
0.0
 40
1.451662999999999
 50
290.553518
 51
344.444952
  0
ARC
  5
3F3
  8
0
 62
     7
 10
94.634853000000007
 20
208.96572399999999
 30
0.0
 40
1.454264999999999
 50
201.567342
 51
287.37140799999997
  0
ARC
  5
3F5
  8
0
 62
     7
 10
94.601974999999996
 20
208.895253
 30
0.0
 40
1.4026289999999999
 50
75.538380000000004
 51
89.989519999999999
  0
ARC
  5
3F6
  8
0
 62
     7
 10
94.537152000000006
 20
208.85944799999999
 30
0.0
 40
1.4544840000000001
 50
347.63287300000002
 51
73.417504000000008
  0
ARC
  5
3F7
  8
0
 62
     7
 10
94.654438999999996
 20
208.824277
 30
0.0
 40
1.4745289999999991
 50
92.029069999999976
 51
158.51112499999999
  0
LINE
  5
3F8
  8
0
 62
     7
 10
93.597599999999986
 20
207.923
 30
0.0
 11
88.6143
 21
207.923
 31
0.0
  0
LINE
  5
3F9
  8
0
 62
     7
 10
93.597599999999986
 20
209.87299999999999
 30
0.0
 11
88.6143
 21
209.87299999999999
 31
0.0
  0
LINE
  5
3FA
  8
0
 62
     7
 10
88.6143
 20
209.87299999999999
 30
0.0
 11
88.5505
 21
209.85400000000001
 31
0.0
  0
LINE
  5
3FB
  8
0
 62
     7
 10
88.5505
 20
209.85400000000001
 30
0.0
 11
88.489900000000006
 21
209.79900000000001
 31
0.0
  0
LINE
  5
3FC
  8
0
 62
     7
 10
88.489900000000006
 20
209.79900000000001
 30
0.0
 11
88.433700000000002
 21
209.709
 31
0.0
  0
LINE
  5
3FD
  8
0
 62
     7
 10
88.433700000000002
 20
209.709
 30
0.0
 11
88.384499999999989
 21
209.58699999999999
 31
0.0
  0
LINE
  5
3FE
  8
0
 62
     7
 10
88.384499999999989
 20
209.58699999999999
 30
0.0
 11
88.343800000000016
 21
209.43899999999999
 31
0.0
  0
LINE
  5
3FF
  8
0
 62
     7
 10
88.343800000000016
 20
209.43899999999999
 30
0.0
 11
88.313900000000004
 21
209.27099999999999
 31
0.0
  0
LINE
  5
400
  8
0
 62
     7
 10
88.313900000000004
 20
209.27099999999999
 30
0.0
 11
88.295299999999997
 21
209.08799999999999
 31
0.0
  0
LINE
  5
401
  8
0
 62
     7
 10
88.295299999999997
 20
209.08799999999999
 30
0.0
 11
88.289400000000015
 21
208.898
 31
0.0
  0
LINE
  5
402
  8
0
 62
     7
 10
88.289400000000015
 20
208.898
 30
0.0
 11
88.295299999999997
 21
208.70699999999999
 31
0.0
  0
LINE
  5
403
  8
0
 62
     7
 10
88.295299999999997
 20
208.70699999999999
 30
0.0
 11
88.313900000000004
 21
208.52500000000001
 31
0.0
  0
LINE
  5
404
  8
0
 62
     7
 10
88.313900000000004
 20
208.52500000000001
 30
0.0
 11
88.343800000000016
 21
208.357
 31
0.0
  0
LINE
  5
405
  8
0
 62
     7
 10
88.343800000000016
 20
208.357
 30
0.0
 11
88.384499999999989
 21
208.208
 31
0.0
  0
LINE
  5
406
  8
0
 62
     7
 10
88.384499999999989
 20
208.208
 30
0.0
 11
88.433700000000002
 21
208.08699999999999
 31
0.0
  0
LINE
  5
407
  8
0
 62
     7
 10
88.433700000000002
 20
208.08699999999999
 30
0.0
 11
88.489900000000006
 21
207.99700000000001
 31
0.0
  0
LINE
  5
408
  8
0
 62
     7
 10
88.489900000000006
 20
207.99700000000001
 30
0.0
 11
88.5505
 21
207.941
 31
0.0
  0
LINE
  5
409
  8
0
 62
     7
 10
88.5505
 20
207.941
 30
0.0
 11
88.6143
 21
207.923
 31
0.0
  0
LINE
  5
40A
  8
0
 62
     7
 10
88.489199999999997
 20
209.798
 30
0.0
 11
88.400700000000001
 21
209.798
 31
0.0
  0
LINE
  5
40B
  8
0
 62
     7
 10
88.489199999999997
 20
207.99799999999999
 30
0.0
 11
88.400700000000001
 21
207.99799999999999
 31
0.0
  0
ARC
  5
40C
  8
0
 62
     7
 10
94.651353999999984
 20
208.81393399999999
 30
0.0
 40
2.084493999999999
 50
91.350329000000002
 51
149.46705499999999
  0
ARC
  5
40D
  8
0
 62
     7
 10
94.602402999999995
 20
208.897786
 30
0.0
 40
2.000062999999999
 50
0.004945
 51
90.004914999999997
  0
ARC
  5
40E
  8
0
 62
     7
 10
94.602231000000003
 20
208.89795899999999
 30
0.0
 40
2.0002349999999991
 50
270.00002000000001
 51
359.99999000000003
  0
ARC
  5
40F
  8
0
 62
     7
 10
94.651269999999997
 20
208.98131799999999
 30
0.0
 40
2.0841720000000001
 50
210.522457
 51
268.65175199999999
  0
ARC
  5
410
  8
0
 62
     7
 10
82.857979999999984
 20
208.87965299999999
 30
0.0
 40
8.0468550000000008
 50
6.9112799999999988
 51
36.352732000000003
  0
ARC
  5
411
  8
0
 62
     7
 10
82.861089000000007
 20
208.88032200000001
 30
0.0
 40
7.7103349999999997
 50
7.2094820000000004
 51
38.072797999999999
  0
ARC
  5
412
  8
0
 62
     7
 10
64.439651999999995
 20
205.23266799999999
 30
0.0
 40
3.353699999999999
 50
233.59561400000001
 51
235.71712600000001
  0
ARC
  5
413
  8
0
 62
     7
 10
66.027559999999994
 20
207.319548
 30
0.0
 40
5.9758449999999987
 50
229.84984
 51
233.21687299999999
  0
ARC
  5
414
  8
0
 62
     7
 10
68.262691000000004
 20
209.87023600000001
 30
0.0
 40
9.3668949999999995
 50
222.79693499999999
 51
229.459754
  0
ARC
  5
415
  8
0
 62
     7
 10
66.264881000000003
 20
208.06377800000001
 30
0.0
 40
6.6737339999999987
 50
218.185394
 51
223.06992600000001
  0
ARC
  5
416
  8
0
 62
     7
 10
64.154516000000001
 20
206.40848
 30
0.0
 40
3.9916399999999999
 50
214.52583200000001
 51
218.23643100000001
  0
ARC
  5
417
  8
0
 62
     7
 10
67.302433999999991
 20
208.89776000000001
 30
0.0
 40
8.0004319999999982
 50
126.437759
 51
216.43601200000001
  0
ARC
  5
418
  8
0
 62
     7
 10
65.59772199999999
 20
206.89731599999999
 30
0.0
 40
5.041847999999999
 50
229.064638
 51
233.022637
  0
ARC
  5
419
  8
0
 62
     7
 10
68.238646000000003
 20
209.835813
 30
0.0
 40
8.9923559999999991
 50
223.10644099999999
 51
228.620158
  0
ARC
  5
41A
  8
0
 62
     7
 10
66.412417000000005
 20
208.16421500000001
 30
0.0
 40
6.5168150000000002
 50
220.00462200000001
 51
223.34869399999999
  0
ARC
  5
41B
  8
0
 62
     7
 10
64.154645999999985
 20
206.28857500000001
 30
0.0
 40
3.581655
 50
216.454654
 51
220.23945800000001
  0
ARC
  5
41C
  8
0
 62
     7
 10
67.302947000000003
 20
208.89753099999999
 30
0.0
 40
7.66751
 50
128.164266
 51
218.15698499999999
  0
ARC
  5
41D
  8
0
 62
     7
 10
73.237768000000003
 20
204.29690099999999
 30
0.0
 40
14.606722
 50
98.081257999999991
 51
101.00036299999999
  0
ARC
  5
41E
  8
0
 62
     7
 10
74.316781000000006
 20
195.883848
 30
0.0
 40
23.088197999999998
 50
94.478680999999995
 51
97.797388000000026
  0
ARC
  5
41F
  8
0
 62
     7
 10
75.118456999999992
 20
183.853466
 30
0.0
 40
35.144725999999999
 50
87.552836999999997
 51
94.250109000000009
  0
ARC
  5
420
  8
0
 62
     7
 10
75.472436000000002
 20
190.992367
 30
0.0
 40
27.997264000000001
 50
84.555080000000004
 51
87.652786000000006
  0
ARC
  5
421
  8
0
 62
     7
 10
76.481168000000011
 20
200.995394
 30
0.0
 40
17.943739000000001
 50
81.865005000000011
 51
84.730722999999998
  0
ARC
  5
422
  8
0
 62
     7
 10
77.127161999999998
 20
205.25022200000001
 30
0.0
 40
13.640364999999999
 50
78.896190000000004
 51
82.022148999999985
  0
ARC
  5
423
  8
0
 62
     7
 10
73.473124999999996
 20
205.94904199999999
 30
0.0
 40
12.842116000000001
 50
95.924233000000001
 51
98.66107300000003
  0
ARC
  5
424
  8
0
 62
     7
 10
74.438327000000001
 20
196.604724
 30
0.0
 40
22.236151
 50
93.411727999999997
 51
95.912867999999975
  0
ARC
  5
425
  8
0
 62
     7
 10
75.112741
 20
183.55977100000001
 30
0.0
 40
35.298268999999998
 50
89.115098000000003
 51
93.244380000000021
  0
ARC
  5
426
  8
0
 62
     7
 10
75.32459200000001
 20
190.100146
 30
0.0
 40
28.755616
 50
86.142424000000005
 51
89.335905000000011
  0
ARC
  5
427
  8
0
 62
     7
 10
76.015986999999996
 20
199.51303100000001
 30
0.0
 40
19.317625
 50
83.492852999999997
 51
86.310191000000003
  0
ARC
  5
428
  8
0
 62
     7
 10
77.068237999999994
 20
208.44333399999999
 30
0.0
 40
10.325659
 50
81.101458999999991
 51
83.678336999999999
  0
ARC
  5
429
  8
0
 62
     7
 10
76.987227000000004
 20
213.37769599999999
 30
0.0
 40
14.484097
 50
277.80762800000002
 51
281.01289200000002
  0
ARC
  5
42A
  8
0
 62
     7
 10
75.899319999999989
 20
221.84876499999999
 30
0.0
 40
23.024543000000001
 50
274.46265399999999
 51
277.62609400000002
  0
ARC
  5
42B
  8
0
 62
     7
 10
75.087316999999999
 20
233.967624
 30
0.0
 40
35.170095000000003
 50
267.55287399999997
 51
274.24530499999997
  0
ARC
  5
42C
  8
0
 62
     7
 10
74.721074000000002
 20
226.68553900000001
 30
0.0
 40
27.879066999999999
 50
264.555049
 51
267.66586799999999
  0
ARC
  5
42D
  8
0
 62
     7
 10
73.723532999999989
 20
216.80017799999999
 30
0.0
 40
17.943739000000001
 50
261.865025
 51
264.73074300000002
  0
ARC
  5
42E
  8
0
 62
     7
 10
73.077539000000002
 20
212.54535000000001
 30
0.0
 40
13.640364999999999
 50
258.89621
 51
262.02216900000002
  0
ARC
  5
42F
  8
0
 62
     7
 10
67.467691000000002
 20
209.36406400000001
 30
0.0
 40
7.7343130000000002
 50
127.35841600000001
 51
129.47579999999999
  0
ARC
  5
430
  8
0
 62
     7
 10
69.496030000000005
 20
206.65420599999999
 30
0.0
 40
11.119099
 50
123.40748499999999
 51
127.192984
  0
ARC
  5
431
  8
0
 62
     7
 10
71.892415999999983
 20
202.87040099999999
 30
0.0
 40
15.597374
 50
119.179502
 51
123.103031
  0
ARC
  5
432
  8
0
 62
     7
 10
74.406912000000005
 20
198.10701499999999
 30
0.0
 40
20.982589999999998
 50
110.12020699999999
 51
118.832764
  0
ARC
  5
433
  8
0
 62
     7
 10
73.273813000000004
 20
201.37680399999999
 30
0.0
 40
17.522676000000001
 50
104.77821
 51
110.319106
  0
ARC
  5
434
  8
0
 62
     7
 10
71.936674999999994
 20
206.63617300000001
 30
0.0
 40
12.096308000000001
 50
100.115309
 51
105.008622
  0
ARC
  5
435
  8
0
 62
     7
 10
71.300601
 20
210.367662
 30
0.0
 40
8.3111580000000007
 50
95.870153000000002
 51
100.31643199999991
  0
ARC
  5
436
  8
0
 62
     7
 10
71.501599999999996
 20
209.00753599999999
 30
0.0
 40
9.9031320000000012
 50
262.253219
 51
263.907736
  0
ARC
  5
437
  8
0
 62
     7
 10
71.777218999999974
 20
210.350359
 30
0.0
 40
11.271228000000001
 50
258.052595
 51
261.785055
  0
ARC
  5
438
  8
0
 62
     7
 10
72.672939999999997
 20
214.25860900000001
 30
0.0
 40
15.280392000000001
 50
253.79537999999999
 51
257.80041
  0
ARC
  5
439
  8
0
 62
     7
 10
74.327794999999995
 20
219.56976700000001
 30
0.0
 40
20.842637
 50
244.72988599999999
 51
253.501428
  0
ARC
  5
43A
  8
0
 62
     7
 10
72.696072999999998
 20
216.317959
 30
0.0
 40
17.205672
 50
239.37835000000001
 51
245.021007
  0
ARC
  5
43B
  8
0
 62
     7
 10
70.193854999999999
 20
212.18150700000001
 30
0.0
 40
12.371589999999999
 50
234.80813900000001
 51
239.592825
  0
ARC
  5
43C
  8
0
 62
     7
 10
67.763668999999993
 20
208.78164799999999
 30
0.0
 40
8.1926220000000001
 50
230.48245
 51
234.994305
  0
ARC
  5
43D
  8
0
 62
     7
 10
85.866438000000002
 20
212.71461600000001
 30
0.0
 40
3.1715719999999998
 50
53.445042999999998
 51
55.683323999999999
  0
ARC
  5
43E
  8
0
 62
     7
 10
84.539811999999984
 20
210.92717500000001
 30
0.0
 40
5.3975269999999993
 50
49.702890000000011
 51
53.433669999999992
  0
ARC
  5
43F
  8
0
 62
     7
 10
81.902974
 20
207.889162
 30
0.0
 40
9.4201160000000002
 50
42.797046000000002
 51
49.421394999999997
  0
ARC
  5
440
  8
0
 62
     7
 10
83.819521999999978
 20
209.62002000000001
 30
0.0
 40
6.8379449999999986
 50
38.294812999999998
 51
43.065740999999989
  0
ARC
  5
441
  8
0
 62
     7
 10
86.707981000000004
 20
211.879931
 30
0.0
 40
3.1705450000000002
 50
33.925620000000002
 51
38.590271999999999
  0
ARC
  5
442
  8
0
 62
     7
 10
82.803820999999999
 20
208.95538500000001
 30
0.0
 40
8.1054139999999997
 50
306.75859300000002
 51
352.85904700000009
  0
ARC
  5
443
  8
0
 62
     7
 10
78.703101000000004
 20
208.78803600000001
 30
0.0
 40
9.9031320000000012
 50
82.253198999999995
 51
83.907715999999994
  0
ARC
  5
444
  8
0
 62
     7
 10
78.444109999999995
 20
207.52406300000001
 30
0.0
 40
11.190811999999999
 50
78.052474000000004
 51
81.811610000000016
  0
ARC
  5
445
  8
0
 62
     7
 10
77.521090999999998
 20
203.49902399999999
 30
0.0
 40
15.319898
 50
73.795400000000001
 51
77.791505000000001
  0
ARC
  5
446
  8
0
 62
     7
 10
75.881181999999995
 20
198.23341199999999
 30
0.0
 40
20.834226000000001
 50
64.729856000000012
 51
73.505832999999996
  0
ARC
  5
447
  8
0
 62
     7
 10
77.477706999999995
 20
201.425331
 30
0.0
 40
17.266413
 50
59.378402000000001
 51
64.999166999999986
  0
ARC
  5
448
  8
0
 62
     7
 10
80.132902000000001
 20
205.80346299999999
 30
0.0
 40
12.146469
 50
54.763754000000013
 51
59.637171000000002
  0
ARC
  5
449
  8
0
 62
     7
 10
82.510456999999974
 20
209.097894
 30
0.0
 40
8.0840209999999981
 50
50.482205
 51
55.055909999999997
  0
ARC
  5
44A
  8
0
 62
     7
 10
82.658827999999986
 20
208.53388899999999
 30
0.0
 40
7.8631320000000011
 50
307.3585700000001
 51
309.44400899999999
  0
ARC
  5
44B
  8
0
 62
     7
 10
81.081580000000017
 20
210.61713399999999
 30
0.0
 40
10.476088000000001
 50
303.28618999999998
 51
307.30150400000002
  0
ARC
  5
44C
  8
0
 62
     7
 10
78.549870999999996
 20
214.529222
 30
0.0
 40
15.135845
 50
299.12504100000001
 51
303.17004900000001
  0
ARC
  5
44D
  8
0
 62
     7
 10
75.797788999999995
 20
219.688557
 30
0.0
 40
20.982589999999998
 50
290.120227
 51
298.832784
  0
ARC
  5
44E
  8
0
 62
     7
 10
76.953682999999998
 20
216.34668600000001
 30
0.0
 40
17.447164000000001
 50
284.76623000000001
 51
290.33112599999998
  0
ARC
  5
44F
  8
0
 62
     7
 10
78.257264000000006
 20
211.213596
 30
0.0
 40
12.151443
 50
280.12214599999999
 51
284.99147900000003
  0
ARC
  5
450
  8
0
 62
     7
 10
78.907780000000002
 20
207.39222100000001
 30
0.0
 40
8.2752800000000004
 50
275.87010199999997
 51
280.33819899999997
  0
ARC
  5
451
  8
0
 62
     7
 10
67.603206
 20
209.23279199999999
 30
0.0
 40
7.6023820000000004
 50
129.02589399999999
 51
131.50666200000001
  0
ARC
  5
452
  8
0
 62
     7
 10
70.229263000000003
 20
205.91779500000001
 30
0.0
 40
11.831322
 50
123.649784
 51
128.79693999999989
  0
ARC
  5
453
  8
0
 62
     7
 10
72.780226999999996
 20
201.952955
 30
0.0
 40
16.545506
 50
119.125175
 51
123.395419
  0
ARC
  5
454
  8
0
 62
     7
 10
74.717345999999992
 20
198.305193
 30
0.0
 40
20.675039000000002
 50
107.944838
 51
118.894465
  0
ARC
  5
455
  8
0
 62
     7
 10
73.3917
 20
202.60723300000001
 30
0.0
 40
16.173971999999999
 50
102.583456
 51
108.17264299999999
  0
ARC
  5
456
  8
0
 62
     7
 10
72.576580000000007
 20
206.42880199999999
 30
0.0
 40
12.266671000000001
 50
98.648330000000001
 51
102.756434
  0
ARC
  5
457
  8
0
 62
     7
 10
72.114734999999996
 20
209.69156799999999
 30
0.0
 40
8.9716210000000007
 50
93.677828999999988
 51
98.865632000000005
  0
ARC
  5
458
  8
0
 62
     7
 10
84.829817000000006
 20
211.173866
 30
0.0
 40
4.6876499999999988
 50
48.915019000000001
 51
53.172215999999999
  0
ARC
  5
459
  8
0
 62
     7
 10
81.981994999999984
 20
207.97419400000001
 30
0.0
 40
8.9709880000000002
 50
43.106374000000002
 51
48.635583000000011
  0
ARC
  5
45A
  8
0
 62
     7
 10
83.845683999999991
 20
209.67590300000001
 30
0.0
 40
6.4475379999999989
 50
40.004466000000001
 51
43.383336
  0
ARC
  5
45B
  8
0
 62
     7
 10
86.110709999999997
 20
211.56187
 30
0.0
 40
3.5001720000000001
 50
36.319845000000001
 51
40.191509000000003
  0
ARC
  5
45C
  8
0
 62
     7
 10
82.815989000000002
 20
208.946991
 30
0.0
 40
7.7590820000000003
 50
308.43886600000002
 51
352.60103700000002
  0
ARC
  5
45D
  8
0
 62
     7
 10
78.038882999999998
 20
209.16409400000001
 30
0.0
 40
9.5013009999999998
 50
84.233999999999995
 51
86.218774999999994
  0
ARC
  5
45E
  8
0
 62
     7
 10
77.718076999999994
 20
206.892551
 30
0.0
 40
11.793931000000001
 50
78.626652000000007
 51
83.792055000000005
  0
ARC
  5
45F
  8
0
 62
     7
 10
76.876312999999996
 20
202.91164000000001
 30
0.0
 40
15.862717
 50
74.028689000000014
 51
78.481470999999999
  0
ARC
  5
460
  8
0
 62
     7
 10
75.47126999999999
 20
198.22740999999999
 30
0.0
 40
20.752832000000001
 50
63.851869999999998
 51
73.857749999999996
  0
ARC
  5
461
  8
0
 62
     7
 10
77.088830999999999
 20
201.37840700000001
 30
0.0
 40
17.211583999999998
 50
58.740808000000001
 51
64.062901999999994
  0
ARC
  5
462
  8
0
 62
     7
 10
79.438578000000007
 20
205.142989
 30
0.0
 40
12.774323000000001
 50
53.668621999999992
 51
58.988171999999999
  0
ARC
  5
463
  8
0
 62
     7
 10
81.919961000000001
 20
208.448421
 30
0.0
 40
8.6414429999999989
 50
48.555790999999992
 51
53.938444999999987
  0
ARC
  5
464
  8
0
 62
     7
 10
76.731577000000001
 20
211.84652999999989
 30
0.0
 40
12.842116000000001
 50
275.92425300000002
 51
278.66109299999999
  0
ARC
  5
465
  8
0
 62
     7
 10
75.765220999999997
 20
221.24778599999999
 30
0.0
 40
22.292905000000001
 50
273.40690599999999
 51
275.90075899999999
  0
ARC
  5
466
  8
0
 62
     7
 10
75.091064000000003
 20
234.17674299999999
 30
0.0
 40
35.239204000000001
 50
269.115092
 51
273.25186400000001
  0
ARC
  5
467
  8
0
 62
     7
 10
74.878270999999998
 20
227.63834600000001
 30
0.0
 40
28.698519000000001
 50
266.13912399999998
 51
269.33827300000002
  0
ARC
  5
468
  8
0
 62
     7
 10
74.192391000000001
 20
218.32884100000001
 30
0.0
 40
19.364042999999999
 50
263.497589
 51
266.30918700000001
  0
ARC
  5
469
  8
0
 62
     7
 10
73.650641000000007
 20
213.20064400000001
 30
0.0
 40
14.207549
 50
261.453552
 51
263.32628299999999
  0
ARC
  5
46A
  8
0
 62
     7
 10
72.165818000000002
 20
208.63147799999999
 30
0.0
 40
9.5013009999999998
 50
264.23401999999999
 51
266.218795
  0
ARC
  5
46B
  8
0
 62
     7
 10
72.489052000000001
 20
210.89659499999999
 30
0.0
 40
11.787807000000001
 50
258.61205999999999
 51
263.77696300000002
  0
ARC
  5
46C
  8
0
 62
     7
 10
73.292753000000005
 20
214.74069399999999
 30
0.0
 40
15.714943999999999
 50
254.01095599999999
 51
258.50685199999998
  0
ARC
  5
46D
  8
0
 62
     7
 10
74.706363999999994
 20
219.50193899999999
 30
0.0
 40
20.681436000000001
 50
242.93195700000001
 51
253.87957800000001
  0
ARC
  5
46E
  8
0
 62
     7
 10
72.767568999999995
 20
215.811319
 30
0.0
 40
16.512882999999999
 50
237.62327099999999
 51
243.09510900000001
  0
ARC
  5
46F
  8
0
 62
     7
 10
70.588241999999994
 20
212.404157
 30
0.0
 40
12.468396
 50
233.653368
 51
237.69707099999999
  0
ARC
  5
470
  8
0
 62
     7
 10
68.288538000000003
 20
209.35878700000001
 30
0.0
 40
8.6526809999999994
 50
228.58795900000001
 51
233.96717899999999
  0
ARC
  5
471
  8
0
 62
     7
 10
82.601495
 20
208.56278
 30
0.0
 40
7.6023820000000004
 50
309.025914
 51
311.50668200000001
  0
ARC
  5
472
  8
0
 62
     7
 10
79.975438999999994
 20
211.87777700000001
 30
0.0
 40
11.831322
 50
303.64980400000002
 51
308.79696000000001
  0
ARC
  5
473
  8
0
 62
     7
 10
77.424474000000004
 20
215.84261699999999
 30
0.0
 40
16.545506
 50
299.12519500000002
 51
303.39543800000001
  0
ARC
  5
474
  8
0
 62
     7
 10
75.478615000000005
 20
219.51131899999999
 30
0.0
 40
20.697596000000001
 50
287.95107000000002
 51
298.88765899999999
  0
ARC
  5
475
  8
0
 62
     7
 10
76.808028000000007
 20
215.21075200000001
 30
0.0
 40
16.196762
 50
282.583505
 51
288.165998
  0
ARC
  5
476
  8
0
 62
     7
 10
77.635672
 20
211.32698600000001
 30
0.0
 40
12.226034
 50
278.64151900000002
 51
282.76328400000011
  0
ARC
  5
477
  8
0
 62
     7
 10
78.092652000000001
 20
208.062433
 30
0.0
 40
8.9299630000000008
 50
273.67776099999998
 51
278.88990200000001
  0
ARC
  5
478
  8
0
 62
     7
 10
75.236733999999984
 20
209.03181799999999
 30
0.0
 40
3.6365769999999991
 50
182.11223499999991
 51
267.884975
  0
ARC
  5
479
  8
0
 62
     7
 10
75.236175000000003
 20
208.76431299999999
 30
0.0
 40
3.6359979999999998
 50
92.106546000000009
 51
177.896244
  0
ARC
  5
47A
  8
0
 62
     7
 10
74.968368999999996
 20
208.76416900000001
 30
0.0
 40
3.6361599999999989
 50
2.105910999999999
 51
87.885618999999991
  0
ARC
  5
47B
  8
0
 62
     7
 10
74.968855000000005
 20
209.03091699999999
 30
0.0
 40
3.6356559999999991
 50
272.10700400000002
 51
357.90146600000003
  0
ARC
  5
47C
  8
0
 62
     7
 10
75.190840000000009
 20
208.98592400000001
 30
0.0
 40
2.389902999999999
 50
182.113541
 51
267.88219800000002
  0
ARC
  5
47D
  8
0
 62
     7
 10
75.191069999999996
 20
208.80941799999999
 30
0.0
 40
2.3901419999999991
 50
92.123104000000012
 51
177.881157
  0
ARC
  5
47E
  8
0
 62
     7
 10
75.014655000000005
 20
208.81045499999999
 30
0.0
 40
2.389079999999999
 50
2.094878
 51
87.892238000000006
  0
ARC
  5
47F
  8
0
 62
     7
 10
75.013965999999996
 20
208.985806
 30
0.0
 40
2.3897939999999989
 50
272.12366600000001
 51
357.88921800000003
  0
ARC
  5
480
  8
0
 62
     7
 10
84.305960999999996
 20
209.48248000000001
 30
0.0
 40
4.3691440000000004
 50
31.489063999999999
 51
35.415583000000012
  0
ARC
  5
481
  8
0
 62
     7
 10
83.637293000000014
 20
209.13387700000001
 30
0.0
 40
5.121694999999999
 50
17.254693
 51
30.907321
  0
ARC
  5
482
  8
0
 62
     7
 10
82.753216000000009
 20
208.909854
 30
0.0
 40
6.0326269999999989
 50
8.946002
 51
16.796009000000002
  0
ARC
  5
483
  8
0
 62
     7
 10
83.210496000000006
 20
208.80150800000001
 30
0.0
 40
5.5712070000000002
 50
339.5010430000001
 51
351.18545799999998
  0
ARC
  5
484
  8
0
 62
     7
 10
84.164453000000009
 20
208.410606
 30
0.0
 40
4.5408790000000003
 50
324.618156
 51
339.90586500000001
  0
ARC
  5
485
  8
0
 62
     7
 10
81.111818999999997
 20
210.001946
 30
0.0
 40
7.9650339999999993
 50
320.56736899999999
 51
328.00179700000001
  0
ARC
  5
486
  8
0
 62
     7
 10
78.805506999999992
 20
211.999571
 30
0.0
 40
11.015473
 50
312.50504100000001
 51
320.16161399999999
  0
ARC
  5
487
  8
0
 62
     7
 10
76.958437000000004
 20
214.09144499999999
 30
0.0
 40
13.805718000000001
 50
301.17471399999999
 51
312.29050999999998
  0
ARC
  5
488
  8
0
 62
     7
 10
77.638258999999991
 20
212.86546999999999
 30
0.0
 40
12.404987
 50
293.28621600000002
 51
301.41939100000002
  0
ARC
  5
489
  8
0
 62
     7
 10
78.743043
 20
210.180386
 30
0.0
 40
9.5019919999999995
 50
286.88902899999999
 51
293.56774999999999
  0
ARC
  5
48A
  8
0
 62
     7
 10
79.388698000000005
 20
207.896165
 30
0.0
 40
7.1288629999999999
 50
279.48716000000002
 51
287.25715000000002
  0
ARC
  5
48B
  8
0
 62
     7
 10
79.222980000000007
 20
209.21224900000001
 30
0.0
 40
7.834267999999998
 50
72.588188000000002
 51
80.145983999999999
  0
ARC
  5
48C
  8
0
 62
     7
 10
78.23740699999999
 20
206.255436
 30
0.0
 40
10.950657
 50
64.593291000000008
 51
72.297156999999984
  0
ARC
  5
48D
  8
0
 62
     7
 10
76.967091999999994
 20
203.69779800000001
 30
0.0
 40
13.806042
 50
53.270698000000003
 51
64.385265000000004
  0
ARC
  5
48E
  8
0
 62
     7
 10
77.956530000000001
 20
204.90931499999999
 30
0.0
 40
12.24352
 50
45.349837999999998
 51
53.591141
  0
ARC
  5
48F
  8
0
 62
     7
 10
79.819985000000003
 20
206.73560800000001
 30
0.0
 40
9.6347759999999987
 50
39.01369600000001
 51
45.600838000000003
  0
ARC
  5
490
  8
0
 62
     7
 10
81.824116000000004
 20
208.300128
 30
0.0
 40
7.0928490000000002
 50
31.578475000000001
 51
39.385192000000004
  0
ARC
  5
491
  8
0
 62
     7
 10
65.430960999999996
 20
207.99129099999999
 30
0.0
 40
3.8013419999999991
 50
211.78977800000001
 51
215.54645099999999
  0
ARC
  5
492
  8
0
 62
     7
 10
66.502211000000003
 20
208.63727499999999
 30
0.0
 40
5.0522210000000003
 50
197.79526799999991
 51
211.61670699999999
  0
ARC
  5
493
  8
0
 62
     7
 10
67.540076999999997
 20
208.90706299999999
 30
0.0
 40
6.1231790000000004
 50
173.181737
 51
197.23093600000001
  0
ARC
  5
494
  8
0
 62
     7
 10
66.97863000000001
 20
208.99783099999999
 30
0.0
 40
5.5549749999999989
 50
159.47991500000001
 51
173.42382799999999
  0
ARC
  5
495
  8
0
 62
     7
 10
66.031419
 20
209.391403
 30
0.0
 40
4.5300529999999988
 50
144.618075
 51
159.94243700000001
  0
ARC
  5
496
  8
0
 62
     7
 10
70.970023999999995
 20
208.545794
 30
0.0
 40
7.7951220000000001
 50
252.58807999999999
 51
260.18328700000001
  0
ARC
  5
497
  8
0
 62
     7
 10
71.964169999999996
 20
211.52277000000001
 30
0.0
 40
10.933327999999999
 50
244.57029600000001
 51
252.28537299999999
  0
ARC
  5
498
  8
0
 62
     7
 10
73.301061000000004
 20
214.205725
 30
0.0
 40
13.930515
 50
233.32708199999999
 51
244.34287800000001
  0
ARC
  5
499
  8
0
 62
     7
 10
72.24140899999999
 20
212.874447
 30
0.0
 40
12.230002000000001
 50
225.33409300000011
 51
233.58381800000001
  0
ARC
  5
49A
  8
0
 62
     7
 10
70.341830000000002
 20
211.02518900000001
 30
0.0
 40
9.5795630000000003
 50
219.01358300000001
 51
225.63936000000001
  0
ARC
  5
49B
  8
0
 62
     7
 10
68.390711999999994
 20
209.501847
 30
0.0
 40
7.1047390000000004
 50
211.57853900000001
 51
219.37330499999999
  0
ARC
  5
49C
  8
0
 62
     7
 10
69.101342000000002
 20
207.786675
 30
0.0
 40
7.9759830000000003
 50
140.56738300000001
 51
147.99058400000001
  0
ARC
  5
49D
  8
0
 62
     7
 10
71.390782999999999
 20
205.805342
 30
0.0
 40
11.003030000000001
 50
132.50499300000001
 51
140.17088799999999
  0
ARC
  5
49E
  8
0
 62
     7
 10
73.272767000000002
 20
203.667509
 30
0.0
 40
13.850768
 50
121.190084
 51
132.269184
  0
ARC
  5
49F
  8
0
 62
     7
 10
72.566442000000009
 20
204.93010200000001
 30
0.0
 40
12.404987
 50
113.286196
 51
121.419371
  0
ARC
  5
4A0
  8
0
 62
     7
 10
71.461658
 20
207.61518599999999
 30
0.0
 40
9.5019919999999995
 50
106.889009
 51
113.56773099999999
  0
ARC
  5
4A1
  8
0
 62
     7
 10
70.813029999999998
 20
209.91732099999999
 30
0.0
 40
7.1108739999999999
 50
99.487075000000004
 51
107.277074
  0
ARC
  5
4A2
  8
0
 62
     7
 10
63.494926
 20
136.48013599999999
 30
0.0
 40
4.1945709999999989
 50
179.59654800000001
 51
181.690944
  0
ARC
  5
4A3
  8
0
 62
     7
 10
69.036473999999998
 20
136.41298900000001
 30
0.0
 40
9.7364949999999997
 50
177.013116
 51
179.43103400000001
  0
ARC
  5
4A4
  8
0
 62
     7
 10
73.408788000000001
 20
136.08700400000001
 30
0.0
 40
14.120193
 50
171.16381699999999
 51
176.61661699999999
  0
ARC
  5
4A5
  8
0
 62
     7
 10
68.415715000000006
 20
136.885177
 30
0.0
 40
9.0637990000000013
 50
168.440325
 51
171.30109200000001
  0
ARC
  5
4A6
  8
0
 62
     7
 10
64.598862999999994
 20
137.68203600000001
 30
0.0
 40
5.1647089999999993
 50
165.478341
 51
168.61609300000001
  0
ARC
  5
4A7
  8
0
 62
     7
 10
82.692758999999995
 20
136.99755999999999
 30
0.0
 40
8.1569699999999994
 50
12.966924000000001
 51
14.044556999999999
  0
ARC
  5
4A8
  8
0
 62
     7
 10
82.999600000000001
 20
137.11738199999999
 30
0.0
 40
7.831213
 50
9.6080380000000005
 51
12.616358
  0
ARC
  5
4A9
  8
0
 62
     7
 10
76.886661000000004
 20
136.08956800000001
 30
0.0
 40
14.029954999999999
 50
4.0939930000000002
 51
9.5798759999999987
  0
ARC
  5
4AA
  8
0
 62
     7
 10
81.411812999999995
 20
136.40982600000001
 30
0.0
 40
9.493487
 50
1.3865959999999991
 51
4.1158589999999986
  0
ARC
  5
4AB
  8
0
 62
     7
 10
86.102073000000004
 20
136.49795800000001
 30
0.0
 40
4.8025339999999987
 50
358.31049000000002
 51
1.689509999999999
  0
ARC
  5
4AC
  8
0
 62
     7
 10
63.799244000000002
 20
133.99372600000001
 30
0.0
 40
3.7996309999999989
 50
217.65745899999999
 51
220.32455999999999
  0
ARC
  5
4AD
  8
0
 62
     7
 10
65.355959999999996
 20
135.14374799999999
 30
0.0
 40
5.7347859999999988
 50
209.639498
 51
217.25170199999999
  0
ARC
  5
4AE
  8
0
 62
     7
 10
68.026973999999996
 20
136.58116000000001
 30
0.0
 40
8.7674610000000008
 50
189.74029200000001
 51
209.17163400000001
  0
ARC
  5
4AF
  8
0
 62
     7
 10
65.753873999999996
 20
136.20187000000001
 30
0.0
 40
6.462968
 50
183.822284
 51
189.83555100000001
  0
ARC
  5
4B0
  8
0
 62
     7
 10
63.672066999999998
 20
136.08684099999999
 30
0.0
 40
4.378188999999999
 50
176.47060400000001
 51
184.13640899999999
  0
ARC
  5
4B1
  8
0
 62
     7
 10
86.838592000000006
 20
136.10148799999999
 30
0.0
 40
4.0719120000000002
 50
1.09958
 51
3.588684999999999
  0
ARC
  5
4B2
  8
0
 62
     7
 10
85.157929999999993
 20
136.12950699999999
 30
0.0
 40
5.7520429999999996
 50
352.91094099999998
 51
0.4992670000000001
  0
ARC
  5
4B3
  8
0
 62
     7
 10
82.165596999999991
 20
136.572791
 30
0.0
 40
8.7764919999999993
 50
333.03852799999999
 51
352.4499990000001
  0
ARC
  5
4B4
  8
0
 62
     7
 10
84.196768000000006
 20
135.53487100000001
 30
0.0
 40
6.4955030000000002
 50
327.09510799999998
 51
333.07553200000001
  0
ARC
  5
4B5
  8
0
 62
     7
 10
86.056056000000027
 20
134.29333199999999
 30
0.0
 40
4.2601550000000001
 50
319.64734399999998
 51
327.52968900000002
  0
ARC
  5
4B6
  8
0
 62
     7
 10
81.734998000000004
 20
172.20740900000001
 30
0.0
 40
34.187379
 50
281.89803799999999
 51
284.628805
  0
ARC
  5
4B7
  8
0
 62
     7
 10
79.208078
 20
184.73087799999999
 30
0.0
 40
46.962897999999988
 50
278.52338400000002
 51
281.76464299999998
  0
ARC
  5
4B8
  8
0
 62
     7
 10
76.657741999999999
 20
202.93210300000001
 30
0.0
 40
65.341327000000007
 50
274.986806
 51
278.36950400000001
  0
ARC
  5
4B9
  8
0
 62
     7
 10
75.137939000000003
 20
222.534055
 30
0.0
 40
85.001404000000008
 50
270.68512299999998
 51
274.85882099999998
  0
ARC
  5
4BA
  8
0
 62
     7
 10
74.978971999999999
 20
219.932007
 30
0.0
 40
82.401662000000002
 50
265.39734700000002
 51
270.81728199999998
  0
ARC
  5
4BB
  8
0
 62
     7
 10
73.172751000000005
 20
199.585038
 30
0.0
 40
61.975594999999998
 50
261.952045
 51
265.55233600000003
  0
ARC
  5
4BC
  8
0
 62
     7
 10
70.782518999999994
 20
183.52115699999999
 30
0.0
 40
45.735438000000002
 50
258.7229870000001
 51
262.099515
  0
ARC
  5
4BD
  8
0
 62
     7
 10
68.090237999999999
 20
170.515221
 30
0.0
 40
32.454267000000002
 50
255.26492099999999
 51
258.89415100000002
  0
ARC
  5
4BE
  8
0
 62
     7
 10
90.400255999999985
 20
138.91606899999999
 30
0.0
 40
0.214494
 50
16.521132000000001
 51
98.320870000000014
  0
ARC
  5
4BF
  8
0
 62
     7
 10
59.804506999999987
 20
138.916439
 30
0.0
 40
0.214118
 50
81.681201999999999
 51
163.55251699999999
  0
LINE
  5
4C0
  8
0
  6
AIGENLINE001
 62
     7
 10
93.402299999999997
 20
131.13499999999999
 30
0.0
 11
93.402299999999997
 21
131.535
 31
0.0
  0
LINE
  5
4C1
  8
0
  6
AIGENLINE001
 62
     7
 10
94.184999999999988
 20
131.13499999999999
 30
0.0
 11
94.184999999999988
 21
131.535
 31
0.0
  0
LINE
  5
4C2
  8
0
  6
AIGENLINE001
 62
     7
 10
93.670699999999997
 20
129.62200000000001
 30
0.0
 11
93.670699999999997
 21
131.13499999999999
 31
0.0
  0
LINE
  5
4C3
  8
0
  6
AIGENLINE001
 62
     7
 10
93.554599999999979
 20
129.65100000000001
 30
0.0
 11
93.554599999999979
 21
131.13499999999999
 31
0.0
  0
LINE
  5
4C4
  8
0
  6
AIGENLINE001
 62
     7
 10
93.202799999999996
 20
131.535
 30
0.0
 11
93.202799999999996
 21
129.73500000000001
 31
0.0
  0
LINE
  5
4C5
  8
0
  6
AIGENLINE001
 62
     7
 10
95.802199999999999
 20
131.13499999999999
 30
0.0
 11
95.802199999999999
 21
131.535
 31
0.0
  0
LINE
  5
4C6
  8
0
  6
AIGENLINE001
 62
     7
 10
95.802199999999999
 20
131.13499999999999
 30
0.0
 11
93.402299999999997
 21
131.13499999999999
 31
0.0
  0
LINE
  5
4C7
  8
0
  6
AIGENLINE001
 62
     7
 10
95.019800000000004
 20
131.13499999999999
 30
0.0
 11
95.019800000000004
 21
131.535
 31
0.0
  0
LINE
  5
4C8
  8
0
  6
AIGENLINE001
 62
     7
 10
95.534099999999995
 20
131.13499999999999
 30
0.0
 11
95.534099999999995
 21
129.62200000000001
 31
0.0
  0
LINE
  5
4C9
  8
0
  6
AIGENLINE001
 62
     7
 10
95.649899999999988
 20
131.13499999999999
 30
0.0
 11
95.649899999999988
 21
129.65100000000001
 31
0.0
  0
LINE
  5
4CA
  8
0
  6
AIGENLINE001
 62
     7
 10
96.002700000000004
 20
131.535
 30
0.0
 11
96.002700000000004
 21
129.73500000000001
 31
0.0
  0
LINE
  5
4CB
  8
0
  6
AIGENLINE001
 62
     7
 10
92.602299999999985
 20
129.61500000000001
 30
0.0
 11
92.602299999999985
 21
129.45500000000001
 31
0.0
  0
LINE
  5
4CC
  8
0
  6
AIGENLINE001
 62
     7
 10
96.602500000000006
 20
129.61500000000001
 30
0.0
 11
96.602500000000006
 21
129.45500000000001
 31
0.0
  0
LINE
  5
4CD
  8
0
  6
AIGENLINE001
 62
     7
 10
94.677300000000017
 20
129.45500000000001
 30
0.0
 11
94.527499999999989
 21
129.45500000000001
 31
0.0
  0
LINE
  5
4CE
  8
0
  6
AIGENLINE001
 62
     7
 10
94.217799999999997
 20
129.73500000000001
 30
0.0
 11
93.994499999999988
 21
129.73500000000001
 31
0.0
  0
LINE
  5
4CF
  8
0
  6
AIGENLINE001
 62
     7
 10
94.651200000000003
 20
129.61500000000001
 30
0.0
 11
94.553700000000006
 21
129.61500000000001
 31
0.0
  0
LINE
  5
4D0
  8
0
  6
AIGENLINE001
 62
     7
 10
94.173699999999997
 20
129.57499999999999
 30
0.0
 11
94.073800000000006
 21
129.57499999999999
 31
0.0
  0
LINE
  5
4D1
  8
0
  6
AIGENLINE001
 62
     7
 10
94.553700000000006
 20
129.61500000000001
 30
0.0
 11
94.200199999999995
 21
129.73500000000001
 31
0.0
  0
LINE
  5
4D2
  8
0
  6
AIGENLINE001
 62
     7
 10
94.527499999999989
 20
129.45500000000001
 30
0.0
 11
94.170199999999994
 21
129.57599999999999
 31
0.0
  0
LINE
  5
4D3
  8
0
  6
AIGENLINE001
 62
     7
 10
95.004599999999996
 20
129.73500000000001
 30
0.0
 11
94.651200000000003
 21
129.61500000000001
 31
0.0
  0
LINE
  5
4D4
  8
0
  6
AIGENLINE001
 62
     7
 10
95.030799999999999
 20
129.57499999999999
 30
0.0
 11
94.677300000000017
 21
129.45500000000001
 31
0.0
  0
LINE
  5
4D5
  8
0
  6
AIGENLINE001
 62
     7
 10
93.739900000000006
 20
129.45500000000001
 30
0.0
 11
93.607299999999995
 21
129.45500000000001
 31
0.0
  0
LINE
  5
4D6
  8
0
  6
AIGENLINE001
 62
     7
 10
92.999899999999997
 20
129.45500000000001
 30
0.0
 11
92.914799999999985
 21
129.45500000000001
 31
0.0
  0
LINE
  5
4D7
  8
0
  6
AIGENLINE001
 62
     7
 10
92.627799999999993
 20
129.45500000000001
 30
0.0
 11
92.602299999999985
 21
129.45500000000001
 31
0.0
  0
LINE
  5
4D8
  8
0
  6
AIGENLINE001
 62
     7
 10
96.289599999999993
 20
129.45500000000001
 30
0.0
 11
96.204600000000013
 21
129.45500000000001
 31
0.0
  0
LINE
  5
4D9
  8
0
  6
AIGENLINE001
 62
     7
 10
95.597200000000001
 20
129.45500000000001
 30
0.0
 11
95.464500000000001
 21
129.45500000000001
 31
0.0
  0
LINE
  5
4DA
  8
0
  6
AIGENLINE001
 62
     7
 10
96.602500000000006
 20
129.45500000000001
 30
0.0
 11
96.577299999999994
 21
129.45500000000001
 31
0.0
  0
LINE
  5
4DB
  8
0
  6
AIGENLINE001
 62
     7
 10
92.984399999999994
 20
129.62200000000001
 30
0.0
 11
92.929599999999979
 21
129.62200000000001
 31
0.0
  0
LINE
  5
4DC
  8
0
  6
AIGENLINE001
 62
     7
 10
93.629999999999995
 20
129.62200000000001
 30
0.0
 11
93.716499999999996
 21
129.62200000000001
 31
0.0
  0
LINE
  5
4DD
  8
0
  6
AIGENLINE001
 62
     7
 10
95.488699999999994
 20
129.62200000000001
 30
0.0
 11
95.574399999999983
 21
129.62200000000001
 31
0.0
  0
LINE
  5
4DE
  8
0
  6
AIGENLINE001
 62
     7
 10
96.220399999999998
 20
129.62200000000001
 30
0.0
 11
96.275499999999994
 21
129.62200000000001
 31
0.0
  0
LINE
  5
4DF
  8
0
  6
AIGENLINE001
 62
     7
 10
94.073800000000006
 20
129.57499999999999
 30
0.0
 11
93.739900000000006
 21
129.45500000000001
 31
0.0
  0
LINE
  5
4E0
  8
0
  6
AIGENLINE001
 62
     7
 10
95.030799999999999
 20
129.57499999999999
 30
0.0
 11
95.131100000000004
 21
129.57499999999999
 31
0.0
  0
LINE
  5
4E1
  8
0
  6
AIGENLINE001
 62
     7
 10
94.986699999999999
 20
129.73500000000001
 30
0.0
 11
95.209900000000005
 21
129.73500000000001
 31
0.0
  0
LINE
  5
4E2
  8
0
  6
AIGENLINE001
 62
     7
 10
93.336200000000005
 20
129.73500000000001
 30
0.0
 11
93.218299999999999
 21
129.73500000000001
 31
0.0
  0
LINE
  5
4E3
  8
0
  6
AIGENLINE001
 62
     7
 10
92.761499999999984
 20
129.73500000000001
 30
0.0
 11
92.705999999999989
 21
129.73500000000001
 31
0.0
  0
LINE
  5
4E4
  8
0
  6
AIGENLINE001
 62
     7
 10
95.868700000000004
 20
129.73500000000001
 30
0.0
 11
95.986500000000007
 21
129.73500000000001
 31
0.0
  0
LINE
  5
4E5
  8
0
  6
AIGENLINE001
 62
     7
 10
96.443299999999994
 20
129.73500000000001
 30
0.0
 11
96.498400000000004
 21
129.73500000000001
 31
0.0
  0
LINE
  5
4E6
  8
0
  6
AIGENLINE001
 62
     7
 10
93.313800000000015
 20
129.57599999999999
 30
0.0
 11
93.2393
 21
129.57599999999999
 31
0.0
  0
LINE
  5
4E7
  8
0
  6
AIGENLINE001
 62
     7
 10
92.750500000000002
 20
129.57599999999999
 30
0.0
 11
92.715000000000003
 21
129.57599999999999
 31
0.0
  0
LINE
  5
4E8
  8
0
  6
AIGENLINE001
 62
     7
 10
95.8904
 20
129.57599999999999
 30
0.0
 11
95.965500000000006
 21
129.57599999999999
 31
0.0
  0
LINE
  5
4E9
  8
0
  6
AIGENLINE001
 62
     7
 10
96.453999999999994
 20
129.57599999999999
 30
0.0
 11
96.489500000000007
 21
129.57599999999999
 31
0.0
  0
LINE
  5
4EA
  8
0
  6
AIGENLINE001
 62
     7
 10
93.629999999999995
 20
129.62200000000001
 30
0.0
 11
93.336200000000005
 21
129.73500000000001
 31
0.0
  0
LINE
  5
4EB
  8
0
  6
AIGENLINE001
 62
     7
 10
93.218299999999999
 20
129.73500000000001
 30
0.0
 11
92.984399999999994
 21
129.62200000000001
 31
0.0
  0
LINE
  5
4EC
  8
0
  6
AIGENLINE001
 62
     7
 10
92.705999999999989
 20
129.73500000000001
 30
0.0
 11
92.602299999999985
 21
129.61500000000001
 31
0.0
  0
LINE
  5
4ED
  8
0
  6
AIGENLINE001
 62
     7
 10
92.715000000000003
 20
129.57599999999999
 30
0.0
 11
92.627799999999993
 21
129.45500000000001
 31
0.0
  0
LINE
  5
4EE
  8
0
  6
AIGENLINE001
 62
     7
 10
92.929599999999979
 20
129.62200000000001
 30
0.0
 11
92.761499999999984
 21
129.73500000000001
 31
0.0
  0
LINE
  5
4EF
  8
0
  6
AIGENLINE001
 62
     7
 10
92.750500000000002
 20
129.57599999999999
 30
0.0
 11
92.914799999999985
 21
129.45500000000001
 31
0.0
  0
LINE
  5
4F0
  8
0
  6
AIGENLINE001
 62
     7
 10
92.999899999999997
 20
129.45500000000001
 30
0.0
 11
93.2393
 21
129.57599999999999
 31
0.0
  0
LINE
  5
4F1
  8
0
  6
AIGENLINE001
 62
     7
 10
93.313800000000015
 20
129.57599999999999
 30
0.0
 11
93.607299999999995
 21
129.45500000000001
 31
0.0
  0
LINE
  5
4F2
  8
0
  6
AIGENLINE001
 62
     7
 10
96.602500000000006
 20
129.61500000000001
 30
0.0
 11
96.498400000000004
 21
129.73500000000001
 31
0.0
  0
LINE
  5
4F3
  8
0
  6
AIGENLINE001
 62
     7
 10
96.443299999999994
 20
129.73500000000001
 30
0.0
 11
96.275499999999994
 21
129.62200000000001
 31
0.0
  0
LINE
  5
4F4
  8
0
  6
AIGENLINE001
 62
     7
 10
96.220399999999998
 20
129.62200000000001
 30
0.0
 11
95.986500000000007
 21
129.73500000000001
 31
0.0
  0
LINE
  5
4F5
  8
0
  6
AIGENLINE001
 62
     7
 10
95.868700000000004
 20
129.73500000000001
 30
0.0
 11
95.574399999999983
 21
129.62200000000001
 31
0.0
  0
LINE
  5
4F6
  8
0
  6
AIGENLINE001
 62
     7
 10
95.488699999999994
 20
129.62200000000001
 30
0.0
 11
95.157199999999989
 21
129.73500000000001
 31
0.0
  0
LINE
  5
4F7
  8
0
  6
AIGENLINE001
 62
     7
 10
95.131100000000004
 20
129.57499999999999
 30
0.0
 11
95.464500000000001
 21
129.45500000000001
 31
0.0
  0
LINE
  5
4F8
  8
0
  6
AIGENLINE001
 62
     7
 10
95.597200000000001
 20
129.45500000000001
 30
0.0
 11
95.8904
 21
129.57599999999999
 31
0.0
  0
LINE
  5
4F9
  8
0
  6
AIGENLINE001
 62
     7
 10
95.965500000000006
 20
129.57599999999999
 30
0.0
 11
96.204600000000013
 21
129.45500000000001
 31
0.0
  0
LINE
  5
4FA
  8
0
  6
AIGENLINE001
 62
     7
 10
96.289599999999993
 20
129.45500000000001
 30
0.0
 11
96.453999999999994
 21
129.57599999999999
 31
0.0
  0
LINE
  5
4FB
  8
0
  6
AIGENLINE001
 62
     7
 10
96.489500000000007
 20
129.57599999999999
 30
0.0
 11
96.577299999999994
 21
129.45500000000001
 31
0.0
  0
LINE
  5
4FC
  8
0
  6
AIGENLINE001
 62
     7
 10
94.393799999999985
 20
129.45500000000001
 30
0.0
 11
94.297000000000025
 21
129.45500000000001
 31
0.0
  0
LINE
  5
4FD
  8
0
  6
AIGENLINE001
 62
     7
 10
93.927700000000002
 20
129.45500000000001
 30
0.0
 11
93.852599999999995
 21
129.45500000000001
 31
0.0
  0
LINE
  5
4FE
  8
0
  6
AIGENLINE001
 62
     7
 10
94.810699999999997
 20
129.45500000000001
 30
0.0
 11
94.907799999999995
 21
129.45500000000001
 31
0.0
  0
LINE
  5
4FF
  8
0
  6
AIGENLINE001
 62
     7
 10
95.277100000000004
 20
129.45500000000001
 30
0.0
 11
95.351900000000001
 21
129.45500000000001
 31
0.0
  0
LINE
  5
500
  8
0
  6
AIGENLINE001
 62
     7
 10
95.277100000000004
 20
129.45500000000001
 30
0.0
 11
95.131100000000004
 21
129.57499999999999
 31
0.0
  0
LINE
  5
501
  8
0
  6
AIGENLINE001
 62
     7
 10
95.030799999999999
 20
129.57499999999999
 30
0.0
 11
94.907799999999995
 21
129.45500000000001
 31
0.0
  0
LINE
  5
502
  8
0
  6
AIGENLINE001
 62
     7
 10
94.393799999999985
 20
129.45500000000001
 30
0.0
 11
94.427599999999984
 21
129.489
 31
0.0
  0
LINE
  5
503
  8
0
  6
AIGENLINE001
 62
     7
 10
94.297000000000025
 20
129.45500000000001
 30
0.0
 11
94.173699999999997
 21
129.57499999999999
 31
0.0
  0
LINE
  5
504
  8
0
  6
AIGENLINE001
 62
     7
 10
94.073800000000006
 20
129.57499999999999
 30
0.0
 11
93.927700000000002
 21
129.45500000000001
 31
0.0
  0
LINE
  5
505
  8
0
  6
AIGENLINE001
 62
     7
 10
95.351900000000001
 20
129.45500000000001
 30
0.0
 11
95.377700000000004
 21
129.48599999999999
 31
0.0
  0
LINE
  5
506
  8
0
  6
AIGENLINE001
 62
     7
 10
94.776899999999998
 20
129.489
 30
0.0
 11
94.810699999999997
 21
129.45500000000001
 31
0.0
  0
LINE
  5
507
  8
0
  6
AIGENLINE001
 62
     7
 10
94.728300000000004
 20
129.73500000000001
 30
0.0
 11
94.476100000000002
 21
129.73500000000001
 31
0.0
  0
LINE
  5
508
  8
0
  6
AIGENLINE001
 62
     7
 10
95.211699999999993
 20
129.73500000000001
 30
0.0
 11
95.271600000000007
 21
129.696
 31
0.0
  0
LINE
  5
509
  8
0
  6
AIGENLINE001
 62
     7
 10
93.852599999999995
 20
129.45500000000001
 30
0.0
 11
93.825699999999983
 21
129.48599999999999
 31
0.0
  0
LINE
  5
50A
  8
0
  6
AIGENLINE001
 62
     7
 10
93.716499999999996
 20
129.62200000000001
 30
0.0
 11
93.994499999999988
 21
129.73500000000001
 31
0.0
  0
LINE
  5
50B
  8
0
  6
AIGENLINE001
 62
     7
 10
94.728300000000004
 20
129.73500000000001
 30
0.0
 11
94.782799999999995
 21
129.66
 31
0.0
  0
LINE
  5
50C
  8
0
  6
AIGENLINE001
 62
     7
 10
94.476100000000002
 20
129.73500000000001
 30
0.0
 11
94.421400000000006
 21
129.66
 31
0.0
  0
LINE
  5
50D
  8
0
  6
AIGENLINE001
 62
     7
 10
93.217600000000004
 20
128.875
 30
0.0
 11
93.217600000000004
 21
129.45500000000001
 31
0.0
  0
LINE
  5
50E
  8
0
  6
AIGENLINE001
 62
     7
 10
95.987200000000001
 20
128.875
 30
0.0
 11
95.987200000000001
 21
129.45500000000001
 31
0.0
  0
LINE
  5
50F
  8
0
  6
AIGENLINE001
 62
     7
 10
95.987200000000001
 20
129.45500000000001
 30
0.0
 11
95.597200000000001
 21
129.45500000000001
 31
0.0
  0
LINE
  5
510
  8
0
  6
AIGENLINE001
 62
     7
 10
95.597200000000001
 20
129.45500000000001
 30
0.0
 11
95.464500000000001
 21
129.45500000000001
 31
0.0
  0
LINE
  5
511
  8
0
  6
AIGENLINE001
 62
     7
 10
95.464500000000001
 20
129.45500000000001
 30
0.0
 11
95.351900000000001
 21
129.45500000000001
 31
0.0
  0
LINE
  5
512
  8
0
  6
AIGENLINE001
 62
     7
 10
95.351900000000001
 20
129.45500000000001
 30
0.0
 11
95.277100000000004
 21
129.45500000000001
 31
0.0
  0
LINE
  5
513
  8
0
  6
AIGENLINE001
 62
     7
 10
95.277100000000004
 20
129.45500000000001
 30
0.0
 11
94.907799999999995
 21
129.45500000000001
 31
0.0
  0
LINE
  5
514
  8
0
  6
AIGENLINE001
 62
     7
 10
94.907799999999995
 20
129.45500000000001
 30
0.0
 11
94.810699999999997
 21
129.45500000000001
 31
0.0
  0
LINE
  5
515
  8
0
  6
AIGENLINE001
 62
     7
 10
94.810699999999997
 20
129.45500000000001
 30
0.0
 11
94.677300000000017
 21
129.45500000000001
 31
0.0
  0
LINE
  5
516
  8
0
  6
AIGENLINE001
 62
     7
 10
94.677300000000017
 20
129.45500000000001
 30
0.0
 11
94.527499999999989
 21
129.45500000000001
 31
0.0
  0
LINE
  5
517
  8
0
  6
AIGENLINE001
 62
     7
 10
94.527499999999989
 20
129.45500000000001
 30
0.0
 11
94.393799999999985
 21
129.45500000000001
 31
0.0
  0
LINE
  5
518
  8
0
  6
AIGENLINE001
 62
     7
 10
94.393799999999985
 20
129.45500000000001
 30
0.0
 11
94.297000000000025
 21
129.45500000000001
 31
0.0
  0
LINE
  5
519
  8
0
  6
AIGENLINE001
 62
     7
 10
94.297000000000025
 20
129.45500000000001
 30
0.0
 11
93.927700000000002
 21
129.45500000000001
 31
0.0
  0
LINE
  5
51A
  8
0
  6
AIGENLINE001
 62
     7
 10
93.927700000000002
 20
129.45500000000001
 30
0.0
 11
93.852599999999995
 21
129.45500000000001
 31
0.0
  0
LINE
  5
51B
  8
0
  6
AIGENLINE001
 62
     7
 10
93.852599999999995
 20
129.45500000000001
 30
0.0
 11
93.739900000000006
 21
129.45500000000001
 31
0.0
  0
LINE
  5
51C
  8
0
  6
AIGENLINE001
 62
     7
 10
93.739900000000006
 20
129.45500000000001
 30
0.0
 11
93.607299999999995
 21
129.45500000000001
 31
0.0
  0
LINE
  5
51D
  8
0
  6
AIGENLINE001
 62
     7
 10
93.607299999999995
 20
129.45500000000001
 30
0.0
 11
93.217600000000004
 21
129.45500000000001
 31
0.0
  0
LINE
  5
51E
  8
0
  6
AIGENLINE001
 62
     7
 10
95.987200000000001
 20
128.875
 30
0.0
 11
93.217600000000004
 21
128.875
 31
0.0
  0
LINE
  5
51F
  8
0
  6
AIGENLINE001
 62
     7
 10
95.649899999999988
 20
129.45500000000001
 30
0.0
 11
95.597200000000001
 21
129.45500000000001
 31
0.0
  0
LINE
  5
520
  8
0
  6
AIGENLINE001
 62
     7
 10
95.597200000000001
 20
129.45500000000001
 30
0.0
 11
95.464500000000001
 21
129.45500000000001
 31
0.0
  0
LINE
  5
521
  8
0
  6
AIGENLINE001
 62
     7
 10
95.464500000000001
 20
129.45500000000001
 30
0.0
 11
95.351900000000001
 21
129.45500000000001
 31
0.0
  0
LINE
  5
522
  8
0
  6
AIGENLINE001
 62
     7
 10
95.351900000000001
 20
129.45500000000001
 30
0.0
 11
95.277100000000004
 21
129.45500000000001
 31
0.0
  0
LINE
  5
523
  8
0
  6
AIGENLINE001
 62
     7
 10
95.277100000000004
 20
129.45500000000001
 30
0.0
 11
94.907799999999995
 21
129.45500000000001
 31
0.0
  0
LINE
  5
524
  8
0
  6
AIGENLINE001
 62
     7
 10
94.907799999999995
 20
129.45500000000001
 30
0.0
 11
94.810699999999997
 21
129.45500000000001
 31
0.0
  0
LINE
  5
525
  8
0
  6
AIGENLINE001
 62
     7
 10
94.810699999999997
 20
129.45500000000001
 30
0.0
 11
94.677300000000017
 21
129.45500000000001
 31
0.0
  0
LINE
  5
526
  8
0
  6
AIGENLINE001
 62
     7
 10
94.677300000000017
 20
129.45500000000001
 30
0.0
 11
94.527499999999989
 21
129.45500000000001
 31
0.0
  0
LINE
  5
527
  8
0
  6
AIGENLINE001
 62
     7
 10
94.527499999999989
 20
129.45500000000001
 30
0.0
 11
94.393799999999985
 21
129.45500000000001
 31
0.0
  0
LINE
  5
528
  8
0
  6
AIGENLINE001
 62
     7
 10
94.393799999999985
 20
129.45500000000001
 30
0.0
 11
94.297000000000025
 21
129.45500000000001
 31
0.0
  0
LINE
  5
529
  8
0
  6
AIGENLINE001
 62
     7
 10
94.297000000000025
 20
129.45500000000001
 30
0.0
 11
93.927700000000002
 21
129.45500000000001
 31
0.0
  0
LINE
  5
52A
  8
0
  6
AIGENLINE001
 62
     7
 10
93.927700000000002
 20
129.45500000000001
 30
0.0
 11
93.852599999999995
 21
129.45500000000001
 31
0.0
  0
LINE
  5
52B
  8
0
  6
AIGENLINE001
 62
     7
 10
93.852599999999995
 20
129.45500000000001
 30
0.0
 11
93.739900000000006
 21
129.45500000000001
 31
0.0
  0
LINE
  5
52C
  8
0
  6
AIGENLINE001
 62
     7
 10
93.739900000000006
 20
129.45500000000001
 30
0.0
 11
93.607299999999995
 21
129.45500000000001
 31
0.0
  0
LINE
  5
52D
  8
0
  6
AIGENLINE001
 62
     7
 10
93.607299999999995
 20
129.45500000000001
 30
0.0
 11
93.554599999999979
 21
129.45500000000001
 31
0.0
  0
LINE
  5
52E
  8
0
  6
AIGENLINE001
 62
     7
 10
93.554599999999979
 20
128.875
 30
0.0
 11
95.649899999999988
 21
128.875
 31
0.0
  0
LINE
  5
52F
  8
0
  6
AIGENLINE001
 62
     7
 10
93.910099999999986
 20
128.875
 30
0.0
 11
93.910099999999986
 21
129.45500000000001
 31
0.0
  0
LINE
  5
530
  8
0
  6
AIGENLINE001
 62
     7
 10
95.295400000000001
 20
128.875
 30
0.0
 11
95.295400000000001
 21
129.45500000000001
 31
0.0
  0
LINE
  5
531
  8
0
  6
AIGENLINE001
 62
     7
 10
93.554599999999979
 20
129.45500000000001
 30
0.0
 11
93.554599999999979
 21
129.477
 31
0.0
  0
LINE
  5
532
  8
0
  6
AIGENLINE001
 62
     7
 10
95.649899999999988
 20
129.477
 30
0.0
 11
95.649899999999988
 21
129.45500000000001
 31
0.0
  0
LINE
  5
533
  8
0
  6
AIGENLINE001
 62
     7
 10
93.670699999999997
 20
127.349
 30
0.0
 11
93.670699999999997
 21
128.875
 31
0.0
  0
LINE
  5
534
  8
0
  6
AIGENLINE001
 62
     7
 10
93.554599999999979
 20
127.349
 30
0.0
 11
93.554599999999979
 21
128.875
 31
0.0
  0
LINE
  5
535
  8
0
  6
AIGENLINE001
 62
     7
 10
95.534099999999995
 20
128.875
 30
0.0
 11
95.534099999999995
 21
127.349
 31
0.0
  0
LINE
  5
536
  8
0
  6
AIGENLINE001
 62
     7
 10
95.649899999999988
 20
128.875
 30
0.0
 11
95.649899999999988
 21
127.349
 31
0.0
  0
LINE
  5
537
  8
0
  6
AIGENLINE001
 62
     7
 10
94.103399999999993
 20
123.712
 30
0.0
 11
94.103399999999993
 21
123.535
 31
0.0
  0
LINE
  5
538
  8
0
  6
AIGENLINE001
 62
     7
 10
95.100399999999993
 20
123.712
 30
0.0
 11
95.100399999999993
 21
123.535
 31
0.0
  0
LINE
  5
539
  8
0
  6
AIGENLINE001
 62
     7
 10
94.602199999999996
 20
125.721
 30
0.0
 11
95.230599999999995
 21
125.721
 31
0.0
  0
LINE
  5
53A
  8
0
  6
AIGENLINE001
 62
     7
 10
94.602199999999996
 20
125.36
 30
0.0
 11
94.798599999999993
 21
125.36
 31
0.0
  0
LINE
  5
53B
  8
0
  6
AIGENLINE001
 62
     7
 10
94.954999999999984
 20
125.36
 30
0.0
 11
95.230599999999995
 21
125.36
 31
0.0
  0
ARC
  5
53C
  8
0
  6
AIGENLINE001
 62
     7
 10
95.216836000000015
 20
125.526262
 30
0.0
 40
0.194823
 50
4.1665779999999986
 51
85.942858999999999
  0
ARC
  5
53D
  8
0
  6
AIGENLINE001
 62
     7
 10
95.216457999999989
 20
125.55458
 30
0.0
 40
0.195201
 50
274.16053399999998
 51
355.83947599999999
  0
LINE
  5
53E
  8
0
  6
AIGENLINE001
 62
     7
 10
94.602199999999996
 20
124.498
 30
0.0
 11
94.798599999999993
 21
124.498
 31
0.0
  0
LINE
  5
53F
  8
0
  6
AIGENLINE001
 62
     7
 10
94.954999999999984
 20
124.498
 30
0.0
 11
95.230599999999995
 21
124.498
 31
0.0
  0
LINE
  5
540
  8
0
  6
AIGENLINE001
 62
     7
 10
94.954999999999984
 20
124.498
 30
0.0
 11
94.954999999999984
 21
125.36
 31
0.0
  0
LINE
  5
541
  8
0
  6
AIGENLINE001
 62
     7
 10
94.798599999999993
 20
124.498
 30
0.0
 11
94.798599999999993
 21
125.36
 31
0.0
  0
LINE
  5
542
  8
0
  6
AIGENLINE001
 62
     7
 10
95.230599999999995
 20
124.498
 30
0.0
 11
95.340199999999996
 21
124.389
 31
0.0
  0
LINE
  5
543
  8
0
  6
AIGENLINE001
 62
     7
 10
95.230599999999995
 20
124.498
 30
0.0
 11
95.230599999999995
 21
125.36
 31
0.0
  0
LINE
  5
544
  8
0
  6
AIGENLINE001
 62
     7
 10
95.340199999999996
 20
123.712
 30
0.0
 11
95.340199999999996
 21
124.389
 31
0.0
  0
LINE
  5
545
  8
0
  6
AIGENLINE001
 62
     7
 10
94.602199999999996
 20
125.721
 30
0.0
 11
93.973200000000006
 21
125.721
 31
0.0
  0
LINE
  5
546
  8
0
  6
AIGENLINE001
 62
     7
 10
94.602199999999996
 20
125.36
 30
0.0
 11
94.405199999999994
 21
125.36
 31
0.0
  0
LINE
  5
547
  8
0
  6
AIGENLINE001
 62
     7
 10
94.249499999999998
 20
125.36
 30
0.0
 11
93.973200000000006
 21
125.36
 31
0.0
  0
ARC
  5
548
  8
0
  6
AIGENLINE001
 62
     7
 10
93.986793000000006
 20
125.55368799999999
 30
0.0
 40
0.194274
 50
183.91674
 51
265.97384299999999
  0
ARC
  5
549
  8
0
  6
AIGENLINE001
 62
     7
 10
93.986418
 20
125.527152
 30
0.0
 40
0.193899
 50
93.922822999999994
 51
176.077147
  0
LINE
  5
54A
  8
0
  6
AIGENLINE001
 62
     7
 10
94.602199999999996
 20
124.498
 30
0.0
 11
94.405199999999994
 21
124.498
 31
0.0
  0
LINE
  5
54B
  8
0
  6
AIGENLINE001
 62
     7
 10
94.249499999999998
 20
124.498
 30
0.0
 11
93.973200000000006
 21
124.498
 31
0.0
  0
LINE
  5
54C
  8
0
  6
AIGENLINE001
 62
     7
 10
94.249499999999998
 20
124.498
 30
0.0
 11
94.249499999999998
 21
125.36
 31
0.0
  0
LINE
  5
54D
  8
0
  6
AIGENLINE001
 62
     7
 10
94.405199999999994
 20
124.498
 30
0.0
 11
94.405199999999994
 21
125.36
 31
0.0
  0
LINE
  5
54E
  8
0
  6
AIGENLINE001
 62
     7
 10
93.973200000000006
 20
124.498
 30
0.0
 11
93.8643
 21
124.389
 31
0.0
  0
LINE
  5
54F
  8
0
  6
AIGENLINE001
 62
     7
 10
93.973200000000006
 20
124.498
 30
0.0
 11
93.973200000000006
 21
125.36
 31
0.0
  0
LINE
  5
550
  8
0
  6
AIGENLINE001
 62
     7
 10
93.8643
 20
123.712
 30
0.0
 11
93.8643
 21
124.389
 31
0.0
  0
LINE
  5
551
  8
0
  6
AIGENLINE001
 62
     7
 10
93.8643
 20
123.712
 30
0.0
 11
94.602199999999996
 21
123.712
 31
0.0
  0
LINE
  5
552
  8
0
  6
AIGENLINE001
 62
     7
 10
95.340199999999996
 20
123.712
 30
0.0
 11
94.602199999999996
 21
123.712
 31
0.0
  0
LINE
  5
553
  8
0
  6
AIGENLINE001
 62
     7
 10
95.102099999999979
 20
125.899
 30
0.0
 11
95.102099999999979
 21
125.721
 31
0.0
  0
LINE
  5
554
  8
0
  6
AIGENLINE001
 62
     7
 10
94.102000000000004
 20
125.899
 30
0.0
 11
94.102000000000004
 21
125.721
 31
0.0
  0
LINE
  5
555
  8
0
  6
AIGENLINE001
 62
     7
 10
93.202100000000016
 20
126.124
 30
0.0
 11
93.202100000000016
 21
127.124
 31
0.0
  0
LINE
  5
556
  8
0
  6
AIGENLINE001
 62
     7
 10
93.902199999999993
 20
126.124
 30
0.0
 11
93.902199999999993
 21
127.124
 31
0.0
  0
LINE
  5
557
  8
0
  6
AIGENLINE001
 62
     7
 10
95.652299999999997
 20
125.899
 30
0.0
 11
93.552199999999999
 21
125.899
 31
0.0
  0
LINE
  5
558
  8
0
  6
AIGENLINE001
 62
     7
 10
95.652299999999997
 20
127.349
 30
0.0
 11
93.552199999999999
 21
127.349
 31
0.0
  0
LINE
  5
559
  8
0
  6
AIGENLINE001
 62
     7
 10
95.301900000000003
 20
126.124
 30
0.0
 11
95.301900000000003
 21
127.124
 31
0.0
  0
LINE
  5
55A
  8
0
  6
AIGENLINE001
 62
     7
 10
96.002300000000005
 20
126.124
 30
0.0
 11
96.002300000000005
 21
127.124
 31
0.0
  0
ARC
  5
55B
  8
0
  6
AIGENLINE001
 62
     7
 10
93.542828
 20
126.839246
 30
0.0
 40
0.509943
 50
88.951472999999993
 51
108.22437600000001
  0
ARC
  5
55C
  8
0
  6
AIGENLINE001
 62
     7
 10
93.459108000000001
 20
127.072737
 30
0.0
 40
0.262063
 50
106.8034
 51
168.68860699999999
  0
ARC
  5
55D
  8
0
  6
AIGENLINE001
 62
     7
 10
93.559542000000008
 20
126.82634400000001
 30
0.0
 40
0.5228120000000001
 50
72.014981999999989
 51
90.809128999999984
  0
ARC
  5
55E
  8
0
  6
AIGENLINE001
 62
     7
 10
93.647571999999997
 20
127.074882
 30
0.0
 40
0.259332
 50
10.948969
 51
73.558983999999995
  0
ARC
  5
55F
  8
0
  6
AIGENLINE001
 62
     7
 10
94.637782000000001
 20
125.05055299999999
 30
0.0
 40
2.298826
 50
83.979964000000024
 51
90.886098999999987
  0
ARC
  5
560
  8
0
  6
AIGENLINE001
 62
     7
 10
94.785466999999997
 20
126.381691
 30
0.0
 40
0.9595679999999999
 50
77.198971
 51
84.413847000000018
  0
ARC
  5
561
  8
0
  6
AIGENLINE001
 62
     7
 10
94.854759999999999
 20
126.63852799999999
 30
0.0
 40
0.6938439999999999
 50
70.085664000000008
 51
78.079589999999996
  0
ARC
  5
562
  8
0
  6
AIGENLINE001
 62
     7
 10
94.981634999999997
 20
126.935804
 30
0.0
 40
0.371566
 50
30.455306000000011
 51
72.867285999999993
  0
ARC
  5
563
  8
0
  6
AIGENLINE001
 62
     7
 10
94.576143000000016
 20
124.83250099999999
 30
0.0
 40
2.5167389999999989
 50
89.406070999999983
 51
95.721448999999993
  0
ARC
  5
564
  8
0
  6
AIGENLINE001
 62
     7
 10
94.454684999999998
 20
126.159047
 30
0.0
 40
1.1847469999999991
 50
96.272444999999991
 51
102.11469700000001
  0
ARC
  5
565
  8
0
  6
AIGENLINE001
 62
     7
 10
94.347006000000007
 20
126.64677500000001
 30
0.0
 40
0.6852890000000002
 50
101.8704089999999
 51
109.964297
  0
ARC
  5
566
  8
0
  6
AIGENLINE001
 62
     7
 10
94.224806999999984
 20
126.93286500000001
 30
0.0
 40
0.375062
 50
107.33972
 51
149.337648
  0
ARC
  5
567
  8
0
  6
AIGENLINE001
 62
     7
 10
95.642664999999994
 20
126.843294
 30
0.0
 40
0.505896
 50
88.947438999999989
 51
108.297747
  0
ARC
  5
568
  8
0
  6
AIGENLINE001
 62
     7
 10
95.558975000000004
 20
127.07241399999999
 30
0.0
 40
0.262193
 50
106.653139
 51
168.622387
  0
ARC
  5
569
  8
0
  6
AIGENLINE001
 62
     7
 10
95.660799999999995
 20
126.838048
 30
0.0
 40
0.5111270000000001
 50
71.802195999999995
 51
90.952578000000003
  0
ARC
  5
56A
  8
0
  6
AIGENLINE001
 62
     7
 10
95.748018000000016
 20
127.074905
 30
0.0
 40
0.259031
 50
10.956564999999999
 51
73.767870000000002
  0
ARC
  5
56B
  8
0
  6
AIGENLINE001
 62
     7
 10
93.54543000000001
 20
126.425797
 30
0.0
 40
0.52713
 50
252.09267
 51
270.73147999999998
  0
ARC
  5
56C
  8
0
  6
AIGENLINE001
 62
     7
 10
93.458643999999993
 20
126.17456799999999
 30
0.0
 40
0.261441
 50
191.14782600000001
 51
253.26175699999999
  0
ARC
  5
56D
  8
0
  6
AIGENLINE001
 62
     7
 10
93.560129000000003
 20
126.417582
 30
0.0
 40
0.518934
 50
269.11999200000002
 51
288.05589800000001
  0
ARC
  5
56E
  8
0
  6
AIGENLINE001
 62
     7
 10
93.646166000000008
 20
126.17412299999999
 30
0.0
 40
0.260874
 50
286.66319900000002
 51
348.927257
  0
ARC
  5
56F
  8
0
  6
AIGENLINE001
 62
     7
 10
94.628262000000007
 20
128.40961399999989
 30
0.0
 40
2.5110389999999989
 50
269.40603800000002
 51
275.72789899999998
  0
ARC
  5
570
  8
0
  6
AIGENLINE001
 62
     7
 10
94.746313999999984
 20
127.108035
 30
0.0
 40
1.204240999999999
 50
276.31979200000001
 51
282.06738999999999
  0
ARC
  5
571
  8
0
  6
AIGENLINE001
 62
     7
 10
94.861304999999987
 20
126.586337
 30
0.0
 40
0.6700390000000001
 50
281.778165
 51
290.05658
  0
ARC
  5
572
  8
0
  6
AIGENLINE001
 62
     7
 10
94.979495999999997
 20
126.314322
 30
0.0
 40
0.374408
 50
287.341363
 51
329.45114700000011
  0
ARC
  5
573
  8
0
  6
AIGENLINE001
 62
     7
 10
94.575680000000006
 20
128.404956
 30
0.0
 40
2.5063869999999988
 50
264.2654970000001
 51
270.60698300000001
  0
ARC
  5
574
  8
0
  6
AIGENLINE001
 62
     7
 10
94.448678000000001
 20
127.051652
 30
0.0
 40
1.1471999999999991
 50
257.78960899999998
 51
263.82324799999998
  0
ARC
  5
575
  8
0
  6
AIGENLINE001
 62
     7
 10
94.372062999999983
 20
126.6889
 30
0.0
 40
0.776452
 50
250.51151300000001
 51
257.65378099999998
  0
ARC
  5
576
  8
0
  6
AIGENLINE001
 62
     7
 10
94.226244999999992
 20
126.31637000000001
 30
0.0
 40
0.376848
 50
210.69163
 51
252.51589899999999
  0
ARC
  5
577
  8
0
  6
AIGENLINE001
 62
     7
 10
95.644231000000005
 20
126.414844
 30
0.0
 40
0.5161920000000001
 50
251.897031
 51
270.85778299999998
  0
ARC
  5
578
  8
0
  6
AIGENLINE001
 62
     7
 10
95.558129000000008
 20
126.174541
 30
0.0
 40
0.261128
 50
191.155292
 51
253.47073800000001
  0
ARC
  5
579
  8
0
  6
AIGENLINE001
 62
     7
 10
95.660144999999986
 20
126.41408699999999
 30
0.0
 40
0.5154370000000002
 50
269.12823300000002
 51
288.11699299999998
  0
ARC
  5
57A
  8
0
  6
AIGENLINE001
 62
     7
 10
95.745300000000015
 20
126.175298
 30
0.0
 40
0.262092
 50
286.65656899999999
 51
348.71744000000001
  0
LINE
  5
57B
  8
0
 62
     7
 10
93.502499999999998
 20
94.035200000000003
 30
0.0
 11
95.702600000000004
 21
94.035200000000003
 31
0.0
  0
LINE
  5
57C
  8
0
 62
     7
 10
93.327900000000014
 20
94.136499999999998
 30
0.0
 11
93.327900000000014
 21
95.534099999999995
 31
0.0
  0
LINE
  5
57D
  8
0
 62
     7
 10
93.502499999999998
 20
94.035200000000003
 30
0.0
 11
93.327900000000014
 21
94.136499999999998
 31
0.0
  0
LINE
  5
57E
  8
0
 62
     7
 10
93.502499999999998
 20
95.635099999999994
 30
0.0
 11
93.327900000000014
 21
95.534099999999995
 31
0.0
  0
LINE
  5
57F
  8
0
 62
     7
 10
95.877600000000015
 20
94.136499999999998
 30
0.0
 11
95.877600000000015
 21
95.534099999999995
 31
0.0
  0
LINE
  5
580
  8
0
 62
     7
 10
95.702600000000004
 20
94.035200000000003
 30
0.0
 11
95.877600000000015
 21
94.136499999999998
 31
0.0
  0
LINE
  5
581
  8
0
 62
     7
 10
95.702600000000004
 20
95.635400000000004
 30
0.0
 11
95.877600000000015
 21
95.534099999999995
 31
0.0
  0
LINE
  5
582
  8
0
 62
     7
 10
93.502499999999998
 20
95.635099999999994
 30
0.0
 11
95.702600000000004
 21
95.635099999999994
 31
0.0
  0
LINE
  5
583
  8
0
 62
     7
 10
93.882199999999997
 20
95.534099999999995
 30
0.0
 11
93.882199999999997
 21
94.136499999999998
 31
0.0
  0
LINE
  5
584
  8
0
 62
     7
 10
94.052000000000007
 20
95.534099999999995
 30
0.0
 11
94.052000000000007
 21
94.136499999999998
 31
0.0
  0
LINE
  5
585
  8
0
 62
     7
 10
95.153800000000004
 20
95.534099999999995
 30
0.0
 11
95.153800000000004
 21
94.136499999999998
 31
0.0
  0
LINE
  5
586
  8
0
 62
     7
 10
95.322900000000004
 20
95.534099999999995
 30
0.0
 11
95.322900000000004
 21
94.136499999999998
 31
0.0
  0
ARC
  5
587
  8
0
 62
     7
 10
93.606763999999998
 20
94.497547999999995
 30
0.0
 40
0.454155
 50
232.66437099999999
 51
307.33564899999999
  0
ARC
  5
588
  8
0
 62
     7
 10
94.602747999999977
 20
95.614804000000007
 30
0.0
 40
1.577472999999999
 50
249.580849
 51
290.41917100000001
  0
ARC
  5
589
  8
0
 62
     7
 10
95.598558999999995
 20
94.496845999999991
 30
0.0
 40
0.4537010000000001
 50
232.59332699999999
 51
307.40669300000002
  0
ARC
  5
58A
  8
0
 62
     7
 10
93.606763999999998
 20
95.173968000000002
 30
0.0
 40
0.453416
 50
52.593129000000012
 51
127.406851
  0
ARC
  5
58B
  8
0
 62
     7
 10
94.602747999999977
 20
94.052616000000015
 30
0.0
 40
1.5804400000000001
 50
69.620873000000003
 51
110.379108
  0
ARC
  5
58C
  8
0
 62
     7
 10
95.598558999999995
 20
95.172809999999998
 30
0.0
 40
0.454441
 50
52.664529000000002
 51
127.33545100000001
  0
LINE
  5
58D
  8
0
 62
     7
 10
93.882199999999997
 20
94.136499999999998
 30
0.0
 11
94.052000000000007
 21
94.136499999999998
 31
0.0
  0
LINE
  5
58E
  8
0
 62
     7
 10
95.153800000000004
 20
94.136499999999998
 30
0.0
 11
95.322900000000004
 21
94.136499999999998
 31
0.0
  0
LINE
  5
58F
  8
0
 62
     7
 10
93.882199999999997
 20
95.534099999999995
 30
0.0
 11
94.052000000000007
 21
95.534099999999995
 31
0.0
  0
LINE
  5
590
  8
0
 62
     7
 10
95.153800000000004
 20
95.534099999999995
 30
0.0
 11
95.322900000000004
 21
95.534099999999995
 31
0.0
  0
LINE
  5
591
  8
0
 62
     7
 10
94.602199999999996
 20
97.263599999999997
 30
0.0
 11
93.973200000000006
 21
97.263599999999997
 31
0.0
  0
LINE
  5
592
  8
0
 62
     7
 10
94.102000000000004
 20
97.085099999999997
 30
0.0
 11
94.102000000000004
 21
97.263599999999997
 31
0.0
  0
LINE
  5
593
  8
0
 62
     7
 10
94.602199999999996
 20
97.624300000000005
 30
0.0
 11
94.405499999999989
 21
97.624300000000005
 31
0.0
  0
LINE
  5
594
  8
0
 62
     7
 10
94.249099999999999
 20
97.624300000000005
 30
0.0
 11
93.973200000000006
 21
97.624300000000005
 31
0.0
  0
ARC
  5
595
  8
0
 62
     7
 10
93.986418
 20
97.457029000000006
 30
0.0
 40
0.193899
 50
183.922853
 51
266.07717700000001
  0
ARC
  5
596
  8
0
 62
     7
 10
93.987307999999999
 20
97.42998
 30
0.0
 40
0.194823
 50
94.16656900000001
 51
175.942849
  0
LINE
  5
597
  8
0
 62
     7
 10
94.602199999999996
 20
98.486299999999986
 30
0.0
 11
94.405499999999989
 21
98.486299999999986
 31
0.0
  0
LINE
  5
598
  8
0
 62
     7
 10
94.249099999999999
 20
98.486299999999986
 30
0.0
 11
93.973200000000006
 21
98.486299999999986
 31
0.0
  0
LINE
  5
599
  8
0
 62
     7
 10
94.249099999999999
 20
98.486299999999986
 30
0.0
 11
94.249099999999999
 21
97.624300000000005
 31
0.0
  0
LINE
  5
59A
  8
0
 62
     7
 10
94.405499999999989
 20
98.486299999999986
 30
0.0
 11
94.405499999999989
 21
97.624300000000005
 31
0.0
  0
LINE
  5
59B
  8
0
 62
     7
 10
93.973200000000006
 20
98.486299999999986
 30
0.0
 11
93.8643
 21
98.595800000000011
 31
0.0
  0
LINE
  5
59C
  8
0
 62
     7
 10
93.973200000000006
 20
98.486299999999986
 30
0.0
 11
93.973200000000006
 21
97.624300000000005
 31
0.0
  0
LINE
  5
59D
  8
0
 62
     7
 10
93.8643
 20
99.271400000000014
 30
0.0
 11
94.602199999999996
 21
99.271400000000014
 31
0.0
  0
LINE
  5
59E
  8
0
 62
     7
 10
93.8643
 20
99.271400000000014
 30
0.0
 11
93.8643
 21
98.595800000000011
 31
0.0
  0
LINE
  5
59F
  8
0
 62
     7
 10
94.602199999999996
 20
97.263599999999997
 30
0.0
 11
95.230599999999995
 21
97.263599999999997
 31
0.0
  0
LINE
  5
5A0
  8
0
 62
     7
 10
95.102099999999979
 20
97.085099999999997
 30
0.0
 11
95.102099999999979
 21
97.263599999999997
 31
0.0
  0
LINE
  5
5A1
  8
0
 62
     7
 10
94.602199999999996
 20
97.624300000000005
 30
0.0
 11
94.798599999999993
 21
97.624300000000005
 31
0.0
  0
LINE
  5
5A2
  8
0
 62
     7
 10
94.954700000000003
 20
97.624300000000005
 30
0.0
 11
95.230599999999995
 21
97.624300000000005
 31
0.0
  0
ARC
  5
5A3
  8
0
 62
     7
 10
95.216457999999989
 20
97.429602000000003
 30
0.0
 40
0.195201
 50
4.1605239999999988
 51
85.839466000000002
  0
ARC
  5
5A4
  8
0
 62
     7
 10
95.217349999999996
 20
97.457403999999997
 30
0.0
 40
0.194274
 50
273.91672999999997
 51
355.97383300000001
  0
LINE
  5
5A5
  8
0
 62
     7
 10
94.602199999999996
 20
98.486299999999986
 30
0.0
 11
94.798599999999993
 21
98.486299999999986
 31
0.0
  0
LINE
  5
5A6
  8
0
 62
     7
 10
94.954700000000003
 20
98.486299999999986
 30
0.0
 11
95.230599999999995
 21
98.486299999999986
 31
0.0
  0
LINE
  5
5A7
  8
0
 62
     7
 10
94.954700000000003
 20
98.486299999999986
 30
0.0
 11
94.954700000000003
 21
97.624300000000005
 31
0.0
  0
LINE
  5
5A8
  8
0
 62
     7
 10
94.798599999999993
 20
98.486299999999986
 30
0.0
 11
94.798599999999993
 21
97.624300000000005
 31
0.0
  0
LINE
  5
5A9
  8
0
 62
     7
 10
95.230599999999995
 20
98.486299999999986
 30
0.0
 11
95.340199999999996
 21
98.595800000000011
 31
0.0
  0
LINE
  5
5AA
  8
0
 62
     7
 10
95.230599999999995
 20
98.486299999999986
 30
0.0
 11
95.230599999999995
 21
97.624300000000005
 31
0.0
  0
LINE
  5
5AB
  8
0
 62
     7
 10
95.340199999999996
 20
99.271400000000014
 30
0.0
 11
94.602199999999996
 21
99.271400000000014
 31
0.0
  0
LINE
  5
5AC
  8
0
 62
     7
 10
95.340199999999996
 20
99.271400000000014
 30
0.0
 11
95.340199999999996
 21
98.595800000000011
 31
0.0
  0
LINE
  5
5AD
  8
0
 62
     7
 10
95.340199999999996
 20
99.271400000000014
 30
0.0
 11
94.602199999999996
 21
99.271400000000014
 31
0.0
  0
LINE
  5
5AE
  8
0
 62
     7
 10
93.8643
 20
99.271400000000014
 30
0.0
 11
94.602199999999996
 21
99.271400000000014
 31
0.0
  0
LINE
  5
5AF
  8
0
 62
     7
 10
94.103399999999993
 20
123.535
 30
0.0
 11
94.103399999999993
 21
99.271400000000014
 31
0.0
  0
LINE
  5
5B0
  8
0
 62
     7
 10
95.100399999999993
 20
123.535
 30
0.0
 11
95.100399999999993
 21
99.271400000000014
 31
0.0
  0
LINE
  5
5B1
  8
0
 62
     7
 10
93.202100000000016
 20
95.859999999999999
 30
0.0
 11
93.202100000000016
 21
96.860200000000006
 31
0.0
  0
LINE
  5
5B2
  8
0
 62
     7
 10
93.901799999999994
 20
95.859999999999999
 30
0.0
 11
93.901799999999994
 21
96.860200000000006
 31
0.0
  0
LINE
  5
5B3
  8
0
 62
     7
 10
95.652299999999997
 20
95.635099999999994
 30
0.0
 11
93.552199999999999
 21
95.635099999999994
 31
0.0
  0
LINE
  5
5B4
  8
0
 62
     7
 10
95.652299999999997
 20
97.085099999999997
 30
0.0
 11
93.552199999999999
 21
97.085099999999997
 31
0.0
  0
LINE
  5
5B5
  8
0
 62
     7
 10
95.301900000000003
 20
95.859999999999999
 30
0.0
 11
95.301900000000003
 21
96.860200000000006
 31
0.0
  0
LINE
  5
5B6
  8
0
 62
     7
 10
96.001999999999995
 20
95.859999999999999
 30
0.0
 11
96.001999999999995
 21
96.860200000000006
 31
0.0
  0
ARC
  5
5B7
  8
0
 62
     7
 10
93.542828
 20
96.575269000000006
 30
0.0
 40
0.509943
 50
88.951472999999993
 51
108.22437600000001
  0
ARC
  5
5B8
  8
0
 62
     7
 10
93.458634000000004
 20
96.809190000000015
 30
0.0
 40
0.261514
 50
106.7312409999999
 51
168.76076599999999
  0
ARC
  5
5B9
  8
0
 62
     7
 10
93.563031999999993
 20
96.585476
 30
0.0
 40
0.49977
 50
71.577506999999997
 51
91.246604000000005
  0
ARC
  5
5BA
  8
0
 62
     7
 10
93.647375999999994
 20
96.811166999999998
 30
0.0
 40
0.259136
 50
10.898365
 51
73.501067000000006
  0
ARC
  5
5BB
  8
0
 62
     7
 10
94.637782000000001
 20
94.786575999999997
 30
0.0
 40
2.298826
 50
83.979964000000024
 51
90.886098999999987
  0
ARC
  5
5BC
  8
0
 62
     7
 10
94.764854999999997
 20
95.950970999999996
 30
0.0
 40
1.127532999999999
 50
78.062697000000014
 51
84.196173000000002
  0
ARC
  5
5BD
  8
0
 62
     7
 10
94.814322999999987
 20
96.253543999999991
 30
0.0
 40
0.821394
 50
70.308716000000004
 51
77.073098000000002
  0
ARC
  5
5BE
  8
0
 62
     7
 10
94.978964000000005
 20
96.668448999999995
 30
0.0
 40
0.375585
 50
30.692957
 51
72.629633999999996
  0
ARC
  5
5BF
  8
0
 62
     7
 10
94.576239999999999
 20
94.566355999999999
 30
0.0
 40
2.5189049999999988
 50
89.408789999999996
 51
95.718730000000008
  0
ARC
  5
5C0
  8
0
 62
     7
 10
94.441096999999999
 20
95.939218999999994
 30
0.0
 40
1.1394109999999991
 50
95.835806999999974
 51
101.905283
  0
ARC
  5
5C1
  8
0
 62
     7
 10
94.387252999999987
 20
96.262230000000017
 30
0.0
 40
0.8123600000000001
 50
102.88922700000001
 51
109.72891899999991
  0
ARC
  5
5C2
  8
0
 62
     7
 10
94.225139999999996
 20
96.667799000000016
 30
0.0
 40
0.3762
 50
107.338711
 51
149.247648
  0
ARC
  5
5C3
  8
0
 62
     7
 10
95.642657999999983
 20
96.577213
 30
0.0
 40
0.507999
 50
88.951019999999986
 51
108.259428
  0
ARC
  5
5C4
  8
0
 62
     7
 10
95.558938999999995
 20
96.808599999999998
 30
0.0
 40
0.262126
 50
106.72794399999999
 51
168.65573000000001
  0
ARC
  5
5C5
  8
0
 62
     7
 10
95.664197000000001
 20
96.596472000000006
 30
0.0
 40
0.4888
 50
71.360412999999994
 51
91.394361000000004
  0
ARC
  5
5C6
  8
0
 62
     7
 10
95.747822999999997
 20
96.811189999999996
 30
0.0
 40
0.258834
 50
10.90597
 51
73.710317000000003
  0
ARC
  5
5C7
  8
0
 62
     7
 10
93.543033999999992
 20
96.146300999999994
 30
0.0
 40
0.5113050000000001
 50
251.801534
 51
271.02261600000003
  0
ARC
  5
5C8
  8
0
 62
     7
 10
93.458055999999999
 20
95.910488999999998
 30
0.0
 40
0.260845
 50
191.15080199999991
 51
253.357191
  0
ARC
  5
5C9
  8
0
 62
     7
 10
93.561261999999999
 20
96.146446999999995
 30
0.0
 40
0.511451
 50
268.98017499999997
 51
288.19571400000001
  0
ARC
  5
5CA
  8
0
 62
     7
 10
93.646311999999995
 20
95.910002000000006
 30
0.0
 40
0.260364
 50
286.663095
 51
348.93747200000001
  0
ARC
  5
5CB
  8
0
 62
     7
 10
94.628360000000015
 20
98.143803000000005
 30
0.0
 40
2.508861
 50
269.40329100000002
 51
275.73064600000009
  0
ARC
  5
5CC
  8
0
 62
     7
 10
94.77488000000001
 20
96.667908000000011
 30
0.0
 40
1.025714
 50
275.81906600000002
 51
282.56811699999997
  0
ARC
  5
5CD
  8
0
 62
     7
 10
94.86433000000001
 20
96.312096999999994
 30
0.0
 40
0.6590390000000002
 50
281.70895100000001
 51
290.1257950000001
  0
ARC
  5
5CE
  8
0
 62
     7
 10
94.979310999999996
 20
96.051315999999986
 30
0.0
 40
0.375062
 50
287.33974000000001
 51
329.33766800000001
  0
ARC
  5
5CF
  8
0
 62
     7
 10
94.566412999999983
 20
97.934368000000021
 30
0.0
 40
2.2995700000000001
 50
263.97999600000003
 51
270.89248400000002
  0
ARC
  5
5D0
  8
0
 62
     7
 10
94.419172000000003
 20
96.605715000000004
 30
0.0
 40
0.962827
 50
257.21121900000003
 51
264.40163899999999
  0
ARC
  5
5D1
  8
0
 62
     7
 10
94.346456000000003
 20
96.335479000000007
 30
0.0
 40
0.68329
 50
250.023842
 51
258.14145200000002
  0
ARC
  5
5D2
  8
0
 62
     7
 10
94.227187999999998
 20
96.054998999999995
 30
0.0
 40
0.379289
 50
210.930926
 51
252.48271500000001
  0
ARC
  5
5D3
  8
0
 62
     7
 10
95.642291
 20
96.140565000000024
 30
0.0
 40
0.5055800000000001
 50
251.69393700000001
 51
271.09561500000001
  0
ARC
  5
5D4
  8
0
 62
     7
 10
95.557698000000002
 20
95.910475000000005
 30
0.0
 40
0.260689
 50
191.1545439999999
 51
253.461783
  0
ARC
  5
5D5
  8
0
 62
     7
 10
95.661281999999986
 20
96.142956999999996
 30
0.0
 40
0.5079590000000001
 50
268.98713700000002
 51
288.25808899999998
  0
ARC
  5
5D6
  8
0
 62
     7
 10
95.745446999999999
 20
95.911176999999995
 30
0.0
 40
0.261582
 50
286.656453
 51
348.72726
  0
LINE
  5
5D7
  8
0
 62
     7
 10
92.802199999999985
 20
131.63499999999999
 30
0.0
 11
92.802199999999985
 21
131.535
 31
0.0
  0
LINE
  5
5D8
  8
0
 62
     7
 10
96.402299999999997
 20
131.63499999999999
 30
0.0
 11
92.802199999999985
 21
131.63499999999999
 31
0.0
  0
LINE
  5
5D9
  8
0
 62
     7
 10
96.402299999999997
 20
131.63499999999999
 30
0.0
 11
96.402299999999997
 21
131.535
 31
0.0
  0
LINE
  5
5DA
  8
0
 62
     7
 10
96.602500000000006
 20
131.63499999999999
 30
0.0
 11
96.602500000000006
 21
131.88499999999999
 31
0.0
  0
ARC
  5
5DB
  8
0
 62
     7
 10
96.547972999999999
 20
131.88037600000001
 30
0.0
 40
0.054685
 50
4.7929979999999999
 51
85.600775999999996
  0
LINE
  5
5DC
  8
0
 62
     7
 10
96.602500000000006
 20
131.63499999999999
 30
0.0
 11
96.402299999999997
 21
131.63499999999999
 31
0.0
  0
LINE
  5
5DD
  8
0
 62
     7
 10
96.402299999999997
 20
131.63499999999999
 30
0.0
 11
92.802199999999985
 21
131.63499999999999
 31
0.0
  0
LINE
  5
5DE
  8
0
 62
     7
 10
92.802199999999985
 20
131.63499999999999
 30
0.0
 11
92.602299999999985
 21
131.63499999999999
 31
0.0
  0
LINE
  5
5DF
  8
0
 62
     7
 10
92.602299999999985
 20
131.63499999999999
 30
0.0
 11
92.602299999999985
 21
131.88499999999999
 31
0.0
  0
ARC
  5
5E0
  8
0
 62
     7
 10
92.656036999999984
 20
131.881203
 30
0.0
 40
0.053827
 50
93.987099999999984
 51
176.01286999999999
  0
LINE
  5
5E1
  8
0
 62
     7
 10
96.552199999999985
 20
131.935
 30
0.0
 11
92.652299999999997
 21
131.935
 31
0.0
  0
LINE
  5
5E2
  8
0
 62
     7
 10
93.202100000000016
 20
131.935
 30
0.0
 11
96.002300000000005
 21
131.935
 31
0.0
  0
LINE
  5
5E3
  8
0
 62
     7
 10
93.202100000000016
 20
131.935
 30
0.0
 11
93.202100000000016
 21
138.935
 31
0.0
  0
LINE
  5
5E4
  8
0
 62
     7
 10
96.002300000000005
 20
152.33500000000001
 30
0.0
 11
96.002300000000005
 21
152.38499999999999
 31
0.0
  0
LINE
  5
5E5
  8
0
 62
     7
 10
96.002300000000005
 20
152.33500000000001
 30
0.0
 11
95.963099999999997
 21
152.33500000000001
 31
0.0
  0
ARC
  5
5E6
  8
0
 62
     7
 10
95.948471999999995
 20
152.381056
 30
0.0
 40
0.053983
 50
3.9461940000000002
 51
85.856565000000003
  0
LINE
  5
5E7
  8
0
 62
     7
 10
96.002300000000005
 20
152.23500000000001
 30
0.0
 11
96.002300000000005
 21
150.30500000000001
 31
0.0
  0
LINE
  5
5E8
  8
0
 62
     7
 10
95.963099999999997
 20
152.23500000000001
 30
0.0
 11
95.963099999999997
 21
152.33500000000001
 31
0.0
  0
LINE
  5
5E9
  8
0
 62
     7
 10
95.963099999999997
 20
152.23500000000001
 30
0.0
 11
96.002300000000005
 21
152.23500000000001
 31
0.0
  0
LINE
  5
5EA
  8
0
 62
     7
 10
96.002300000000005
 20
138.935
 30
0.0
 11
96.002300000000005
 21
150.185
 31
0.0
  0
LINE
  5
5EB
  8
0
 62
     7
 10
96.002300000000005
 20
138.935
 30
0.0
 11
93.202100000000016
 21
138.935
 31
0.0
  0
LINE
  5
5EC
  8
0
 62
     7
 10
96.002300000000005
 20
131.935
 30
0.0
 11
96.002300000000005
 21
138.935
 31
0.0
  0
LINE
  5
5ED
  8
0
 62
     7
 10
93.202100000000016
 20
138.935
 30
0.0
 11
96.002300000000005
 21
138.935
 31
0.0
  0
LINE
  5
5EE
  8
0
 62
     7
 10
95.752199999999988
 20
150.185
 30
0.0
 11
95.752199999999988
 21
150.27500000000001
 31
0.0
  0
LINE
  5
5EF
  8
0
 62
     7
 10
95.071500000000015
 20
150.25700000000001
 30
0.0
 11
95.071500000000015
 21
150.27500000000001
 31
0.0
  0
LINE
  5
5F0
  8
0
 62
     7
 10
95.277100000000004
 20
150.25700000000001
 30
0.0
 11
95.277100000000004
 21
150.27500000000001
 31
0.0
  0
LINE
  5
5F1
  8
0
 62
     7
 10
94.133399999999995
 20
150.25700000000001
 30
0.0
 11
94.133399999999995
 21
150.27500000000001
 31
0.0
  0
LINE
  5
5F2
  8
0
 62
     7
 10
93.927300000000002
 20
150.25700000000001
 30
0.0
 11
93.927300000000002
 21
150.27500000000001
 31
0.0
  0
ARC
  5
5F3
  8
0
 62
     7
 10
95.514669999999995
 20
151.535864
 30
0.0
 40
1.3010099999999989
 50
259.47983299999999
 51
280.52018700000002
  0
ARC
  5
5F4
  8
0
 62
     7
 10
94.602402999999995
 20
155.27599900000001
 30
0.0
 40
5.0411449999999993
 50
264.66120899999999
 51
275.33881000000002
  0
ARC
  5
5F5
  8
0
 62
     7
 10
95.970611000000005
 20
150.30667600000001
 30
0.0
 40
0.031763
 50
273.76932299999999
 51
356.893058
  0
LINE
  5
5F6
  8
0
 62
     7
 10
95.952399999999997
 20
152.435
 30
0.0
 11
93.252399999999994
 21
152.435
 31
0.0
  0
LINE
  5
5F7
  8
0
 62
     7
 10
95.963099999999997
 20
152.33500000000001
 30
0.0
 11
93.202100000000016
 21
152.33500000000001
 31
0.0
  0
LINE
  5
5F8
  8
0
 62
     7
 10
93.202100000000016
 20
152.33500000000001
 30
0.0
 11
93.202100000000016
 21
152.38499999999999
 31
0.0
  0
ARC
  5
5F9
  8
0
 62
     7
 10
93.256518000000014
 20
152.38068799999999
 30
0.0
 40
0.054535
 50
94.294290000000004
 51
175.70568
  0
LINE
  5
5FA
  8
0
 62
     7
 10
93.406800000000004
 20
150.185
 30
0.0
 11
95.797999999999973
 21
150.185
 31
0.0
  0
LINE
  5
5FB
  8
0
 62
     7
 10
93.452600000000004
 20
150.185
 30
0.0
 11
93.452600000000004
 21
150.27500000000001
 31
0.0
  0
ARC
  5
5FC
  8
0
 62
     7
 10
93.689964000000003
 20
151.53862799999999
 30
0.0
 40
1.303696999999999
 50
259.50945300000001
 51
280.490567
  0
LINE
  5
5FD
  8
0
 62
     7
 10
93.452600000000004
 20
150.23500000000001
 30
0.0
 11
95.752199999999988
 21
150.23500000000001
 31
0.0
  0
LINE
  5
5FE
  8
0
 62
     7
 10
93.202100000000016
 20
152.33500000000001
 30
0.0
 11
95.963099999999997
 21
152.33500000000001
 31
0.0
  0
LINE
  5
5FF
  8
0
 62
     7
 10
93.232100000000017
 20
150.27500000000001
 30
0.0
 11
95.972699999999989
 21
150.27500000000001
 31
0.0
  0
LINE
  5
600
  8
0
 62
     7
 10
91.182599999999994
 20
152.035
 30
0.0
 11
93.101900000000001
 21
152.035
 31
0.0
  0
LINE
  5
601
  8
0
 62
     7
 10
91.182599999999994
 20
151.23500000000001
 30
0.0
 11
93.101900000000001
 21
151.23500000000001
 31
0.0
  0
LINE
  5
602
  8
0
 62
     7
 10
93.202100000000016
 20
152.33500000000001
 30
0.0
 11
93.202100000000016
 21
152.13499999999999
 31
0.0
  0
LINE
  5
603
  8
0
 62
     7
 10
93.202100000000016
 20
151.13499999999999
 30
0.0
 11
93.202100000000016
 21
150.30500000000001
 31
0.0
  0
ARC
  5
604
  8
0
 62
     7
 10
93.094367000000005
 20
152.14250200000001
 30
0.0
 40
0.108041
 50
274.17188700000003
 51
355.92682300000001
  0
ARC
  5
605
  8
0
 62
     7
 10
93.094618999999994
 20
151.127275
 30
0.0
 40
0.107785
 50
4.0474249999999987
 51
85.952565000000007
  0
LINE
  5
606
  8
0
 62
     7
 10
91.102699999999984
 20
151.95500000000001
 30
0.0
 11
91.102699999999984
 21
151.315
 31
0.0
  0
ARC
  5
607
  8
0
 62
     7
 10
91.188344999999998
 20
151.949083
 30
0.0
 40
0.085856
 50
93.831789000000015
 51
176.168181
  0
ARC
  5
608
  8
0
 62
     7
 10
91.188136000000014
 20
151.320246
 30
0.0
 40
0.085634
 50
183.70146700000001
 51
266.298563
  0
ARC
  5
609
  8
0
 62
     7
 10
93.234386000000015
 20
150.307233
 30
0.0
 40
0.032331
 50
184.041315
 51
265.95871399999999
  0
ARC
  5
60A
  8
0
 62
     7
 10
91.840865000000008
 20
151.63476900000001
 30
0.0
 40
1.4188160000000001
 50
343.62578100000002
 51
16.374219
  0
LINE
  5
60B
  8
0
 62
     7
 10
93.202100000000016
 20
138.935
 30
0.0
 11
93.202100000000016
 21
146.078
 31
0.0
  0
LINE
  5
60C
  8
0
 62
     7
 10
93.202100000000016
 20
149.00800000000001
 30
0.0
 11
93.202100000000016
 21
150.185
 31
0.0
  0
LINE
  5
60D
  8
0
 62
     7
 10
96.002300000000005
 20
150.185
 30
0.0
 11
93.202100000000016
 21
150.185
 31
0.0
  0
LINE
  5
60E
  8
0
 62
     7
 10
93.2393
 20
148.797
 30
0.0
 11
93.329300000000003
 21
148.70699999999999
 31
0.0
  0
LINE
  5
60F
  8
0
 62
     7
 10
93.329300000000003
 20
148.70699999999999
 30
0.0
 11
93.404700000000005
 21
148.613
 31
0.0
  0
LINE
  5
610
  8
0
 62
     7
 10
93.404700000000005
 20
148.613
 30
0.0
 11
93.467099999999988
 21
148.51599999999999
 31
0.0
  0
LINE
  5
611
  8
0
 62
     7
 10
93.467099999999988
 20
148.51599999999999
 30
0.0
 11
93.515600000000006
 21
148.41399999999999
 31
0.0
  0
LINE
  5
612
  8
0
 62
     7
 10
93.515600000000006
 20
148.41399999999999
 30
0.0
 11
93.550399999999996
 21
148.309
 31
0.0
  0
LINE
  5
613
  8
0
 62
     7
 10
93.550399999999996
 20
148.309
 30
0.0
 11
93.571799999999996
 21
148.19800000000001
 31
0.0
  0
LINE
  5
614
  8
0
 62
     7
 10
93.571799999999996
 20
148.19800000000001
 30
0.0
 11
93.579699999999988
 21
148.084
 31
0.0
  0
LINE
  5
615
  8
0
 62
     7
 10
93.579699999999988
 20
148.084
 30
0.0
 11
93.573899999999995
 21
147.965
 31
0.0
  0
LINE
  5
616
  8
0
 62
     7
 10
93.573899999999995
 20
147.965
 30
0.0
 11
93.520099999999985
 21
147.70099999999999
 31
0.0
  0
LINE
  5
617
  8
0
 62
     7
 10
93.520099999999985
 20
147.70099999999999
 30
0.0
 11
93.409499999999994
 21
147.38900000000001
 31
0.0
  0
LINE
  5
618
  8
0
 62
     7
 10
93.409499999999994
 20
147.38900000000001
 30
0.0
 11
93.241799999999998
 21
147.02799999999999
 31
0.0
  0
LINE
  5
619
  8
0
 62
     7
 10
93.241799999999998
 20
147.02799999999999
 30
0.0
 11
93.015799999999984
 21
146.61699999999999
 31
0.0
  0
ARC
  5
61A
  8
0
 62
     7
 10
92.992191000000005
 20
149.015007
 30
0.0
 40
0.210054
 50
291.89792699999998
 51
358.14621599999998
  0
ARC
  5
61B
  8
0
 62
     7
 10
92.705145999999999
 20
146.06011100000001
 30
0.0
 40
0.518612
 50
90.320083000000011
 51
109.57721600000001
  0
ARC
  5
61C
  8
0
 62
     7
 10
92.682594999999992
 20
146.059189
 30
0.0
 40
0.519898
 50
2.1269830000000001
 51
87.833532999999989
  0
LINE
  5
61D
  8
0
 62
     7
 10
86.965400000000002
 20
144.57599999999999
 30
0.0
 11
86.332899999999995
 21
146.31399999999999
 31
0.0
  0
LINE
  5
61E
  8
0
 62
     7
 10
88.194999999999993
 20
147.04599999999999
 30
0.0
 11
86.362899999999996
 21
146.37899999999999
 31
0.0
  0
LINE
  5
61F
  8
0
 62
     7
 10
88.862300000000005
 20
145.21299999999999
 30
0.0
 11
87.029499999999985
 21
144.54599999999999
 31
0.0
  0
ARC
  5
620
  8
0
 62
     7
 10
87.015024999999994
 20
144.598859
 30
0.0
 40
0.054717
 50
205.011954
 51
285.35967799999997
  0
ARC
  5
621
  8
0
 62
     7
 10
86.384706000000008
 20
146.32929999999999
 30
0.0
 40
0.05387
 50
113.891131
 51
195.97394800000001
  0
LINE
  5
622
  8
0
 62
     7
 10
88.862300000000005
 20
145.21299999999999
 30
0.0
 11
88.194999999999993
 21
147.04599999999999
 31
0.0
  0
LINE
  5
623
  8
0
 62
     7
 10
88.956400000000002
 20
145.24700000000001
 30
0.0
 11
88.289400000000015
 21
147.07900000000001
 31
0.0
  0
LINE
  5
624
  8
0
 62
     7
 10
93.070899999999995
 20
148.81999999999999
 30
0.0
 11
88.289400000000015
 21
147.07900000000001
 31
0.0
  0
LINE
  5
625
  8
0
 62
     7
 10
92.531400000000005
 20
146.548
 30
0.0
 11
88.956400000000002
 21
145.24700000000001
 31
0.0
  0
LINE
  5
626
  8
0
 62
     7
 10
88.930899999999994
 20
145.31800000000001
 30
0.0
 11
88.836799999999997
 21
145.28299999999999
 31
0.0
  0
LINE
  5
627
  8
0
 62
     7
 10
88.817899999999995
 20
145.334
 30
0.0
 11
88.924700000000016
 21
145.315
 31
0.0
  0
LINE
  5
628
  8
0
 62
     7
 10
88.314899999999994
 20
147.00899999999999
 30
0.0
 11
88.220799999999997
 21
146.97499999999999
 31
0.0
  0
LINE
  5
629
  8
0
 62
     7
 10
88.239400000000003
 20
146.92400000000001
 30
0.0
 11
88.308999999999983
 21
147.00700000000001
 31
0.0
  0
LINE
  5
62A
  8
0
 62
     7
 10
88.836799999999997
 20
145.28299999999999
 30
0.0
 11
88.220799999999997
 21
146.97499999999999
 31
0.0
  0
LINE
  5
62B
  8
0
 62
     7
 10
75.401200000000003
 20
122.88500000000001
 30
0.0
 11
75.401200000000003
 21
123.084
 31
0.0
  0
LINE
  5
62C
  8
0
 62
     7
 10
74.801400000000001
 20
122.88500000000001
 30
0.0
 11
74.801400000000001
 21
123.084
 31
0.0
  0
LINE
  5
62D
  8
0
 62
     7
 10
75.301000000000002
 20
122.785
 30
0.0
 11
75.301000000000002
 21
123.084
 31
0.0
  0
LINE
  5
62E
  8
0
 62
     7
 10
74.90100000000001
 20
122.785
 30
0.0
 11
74.90100000000001
 21
123.084
 31
0.0
  0
LINE
  5
62F
  8
0
 62
     7
 10
73.150899999999993
 20
123.084
 30
0.0
 11
77.051100000000005
 21
123.084
 31
0.0
  0
LINE
  5
630
  8
0
 62
     7
 10
73.051299999999998
 20
123.185
 30
0.0
 11
77.151300000000006
 21
123.185
 31
0.0
  0
LINE
  5
631
  8
0
 62
     7
 10
73.150899999999993
 20
123.084
 30
0.0
 11
73.051299999999998
 21
123.185
 31
0.0
  0
LINE
  5
632
  8
0
 62
     7
 10
77.151300000000006
 20
123.185
 30
0.0
 11
77.051100000000005
 21
123.084
 31
0.0
  0
LINE
  5
633
  8
0
 62
     7
 10
75.401200000000003
 20
122.88500000000001
 30
0.0
 11
75.301000000000002
 21
122.785
 31
0.0
  0
LINE
  5
634
  8
0
 62
     7
 10
74.801400000000001
 20
122.88500000000001
 30
0.0
 11
74.90100000000001
 21
122.785
 31
0.0
  0
LINE
  5
635
  8
0
 62
     7
 10
75.301000000000002
 20
122.785
 30
0.0
 11
74.90100000000001
 21
122.785
 31
0.0
  0
LINE
  5
636
  8
0
 62
     7
 10
75.401200000000003
 20
122.88500000000001
 30
0.0
 11
74.801400000000001
 21
122.88500000000001
 31
0.0
  0
LINE
  5
637
  8
0
  6
AIGENLINE002
 62
     7
 10
153.55600000000001
 20
118.235
 30
0.0
 11
158.31299999999999
 21
118.235
 31
0.0
  0
LINE
  5
638
  8
0
  6
AIGENLINE002
 62
     7
 10
153.55600000000001
 20
124.235
 30
0.0
 11
158.25200000000001
 21
124.235
 31
0.0
  0
LINE
  5
639
  8
0
  6
AIGENLINE002
 62
     7
 10
153.55600000000001
 20
126.735
 30
0.0
 11
158.267
 21
126.735
 31
0.0
  0
LINE
  5
63A
  8
0
  6
AIGENLINE002
 62
     7
 10
137.05600000000001
 20
128.73500000000001
 30
0.0
 11
137.05600000000001
 21
130.23500000000001
 31
0.0
  0
LINE
  5
63B
  8
0
  6
AIGENLINE002
 62
     7
 10
145.55600000000001
 20
128.73500000000001
 30
0.0
 11
145.55600000000001
 21
130.23500000000001
 31
0.0
  0
LINE
  5
63C
  8
0
  6
AIGENLINE002
 62
     7
 10
150.55600000000001
 20
128.73500000000001
 30
0.0
 11
150.55600000000001
 21
130.23500000000001
 31
0.0
  0
LINE
  5
63D
  8
0
  6
AIGENLINE002
 62
     7
 10
142.05600000000001
 20
154.02500000000001
 30
0.0
 11
142.05600000000001
 21
92.664699999999996
 31
0.0
  0
LINE
  5
63E
  8
0
  6
AIGENLINE002
 62
     7
 10
75.102500000000006
 20
138.18199999999999
 30
0.0
 11
75.102500000000006
 21
119.789
 31
0.0
  0
LINE
  5
63F
  8
0
  6
AIGENLINE002
 62
     7
 10
75.102500000000006
 20
213.84899999999999
 30
0.0
 11
75.102500000000006
 21
203.947
 31
0.0
  0
LINE
  5
640
  8
0
  6
AIGENLINE002
 62
     7
 10
94.602199999999996
 20
212.648
 30
0.0
 11
94.602199999999996
 21
205.31299999999999
 31
0.0
  0
LINE
  5
641
  8
0
  6
AIGENLINE002
 62
     7
 10
110.901
 20
208.898
 30
0.0
 11
43.304400000000001
 21
208.898
 31
0.0
  0
LINE
  5
642
  8
0
  6
AIGENLINE002
 62
     7
 10
103.303
 20
222.631
 30
0.0
 11
103.303
 21
199.93000000000001
 31
0.0
  0
LINE
  5
643
  8
0
  6
AIGENLINE002
 62
     7
 10
104.05200000000001
 20
203.898
 30
0.0
 11
102.553
 21
203.898
 31
0.0
  0
LINE
  5
644
  8
0
  6
AIGENLINE002
 62
     7
 10
102.602
 20
218.148
 30
0.0
 11
102.602
 21
216.648
 31
0.0
  0
LINE
  5
645
  8
0
  6
AIGENLINE002
 62
     7
 10
104.003
 20
213.148
 30
0.0
 11
104.003
 21
211.648
 31
0.0
  0
LINE
  5
646
  8
0
  6
AIGENLINE002
 62
     7
 10
104.752
 20
212.398
 30
0.0
 11
103.252
 21
212.398
 31
0.0
  0
LINE
  5
647
  8
0
  6
AIGENLINE002
 62
     7
 10
103.352
 20
217.398
 30
0.0
 11
101.852
 21
217.398
 31
0.0
  0
LINE
  5
648
  8
0
  6
AIGENLINE002
 62
     7
 10
50.9026
 20
222.631
 30
0.0
 11
50.9026
 21
199.93000000000001
 31
0.0
  0
LINE
  5
649
  8
0
  6
AIGENLINE002
 62
     7
 10
51.652299999999997
 20
203.898
 30
0.0
 11
50.1526
 21
203.898
 31
0.0
  0
LINE
  5
64A
  8
0
  6
AIGENLINE002
 62
     7
 10
50.202599999999997
 20
218.148
 30
0.0
 11
50.202599999999997
 21
216.648
 31
0.0
  0
LINE
  5
64B
  8
0
  6
AIGENLINE002
 62
     7
 10
51.6023
 20
213.148
 30
0.0
 11
51.6023
 21
211.648
 31
0.0
  0
LINE
  5
64C
  8
0
  6
AIGENLINE002
 62
     7
 10
52.3523
 20
212.398
 30
0.0
 11
50.8523
 21
212.398
 31
0.0
  0
LINE
  5
64D
  8
0
  6
AIGENLINE002
 62
     7
 10
50.952300000000001
 20
217.398
 30
0.0
 11
49.452199999999991
 21
217.398
 31
0.0
  0
LINE
  5
64E
  8
0
  6
AIGENLINE002
 62
     7
 10
50.952300000000001
 20
124.235
 30
0.0
 11
49.40229999999999
 21
124.235
 31
0.0
  0
LINE
  5
64F
  8
0
  6
AIGENLINE002
 62
     7
 10
50.202599999999997
 20
124.985
 30
0.0
 11
50.202599999999997
 21
123.485
 31
0.0
  0
LINE
  5
650
  8
0
  6
AIGENLINE002
 62
     7
 10
51.6023
 20
127.485
 30
0.0
 11
51.6023
 21
125.985
 31
0.0
  0
LINE
  5
651
  8
0
  6
AIGENLINE002
 62
     7
 10
52.3523
 20
126.735
 30
0.0
 11
50.8523
 21
126.735
 31
0.0
  0
LINE
  5
652
  8
0
  6
AIGENLINE002
 62
     7
 10
51.652299999999997
 20
118.235
 30
0.0
 11
50.1526
 21
118.235
 31
0.0
  0
LINE
  5
653
  8
0
  6
AIGENLINE002
 62
     7
 10
50.9026
 20
130.571
 30
0.0
 11
50.9026
 21
114.068
 31
0.0
  0
LINE
  5
654
  8
0
  6
AIGENLINE002
 62
     7
 10
103.352
 20
124.235
 30
0.0
 11
101.803
 21
124.235
 31
0.0
  0
LINE
  5
655
  8
0
  6
AIGENLINE002
 62
     7
 10
102.602
 20
124.985
 30
0.0
 11
102.602
 21
123.485
 31
0.0
  0
LINE
  5
656
  8
0
  6
AIGENLINE002
 62
     7
 10
104.003
 20
127.485
 30
0.0
 11
104.003
 21
125.985
 31
0.0
  0
LINE
  5
657
  8
0
  6
AIGENLINE002
 62
     7
 10
104.752
 20
126.735
 30
0.0
 11
103.252
 21
126.735
 31
0.0
  0
LINE
  5
658
  8
0
  6
AIGENLINE002
 62
     7
 10
104.05200000000001
 20
118.235
 30
0.0
 11
102.553
 21
118.235
 31
0.0
  0
LINE
  5
659
  8
0
  6
AIGENLINE002
 62
     7
 10
103.303
 20
130.571
 30
0.0
 11
103.303
 21
114.068
 31
0.0
  0
TEXT
  5
65A
  8
_________2
 62
     7
 10
28.151399999999999
 20
60.847000000000001
 30
0.0
 40
4.2168199999999993
  1
※壁取付部には厚さ20mm以上の補強木を入れてください。
 41
0.5
  0
TEXT
  5
65B
  8
_________2
 62
     7
 10
143.82900000000001
 20
179.82499999999999
 30
0.0
 40
3.0923400000000001
  1
手洗器：人工大理石
 41
0.5
  0
TEXT
  5
65C
  8
_________2
 62
     7
 10
143.82900000000001
 20
247.89400000000001
 30
0.0
 40
3.0923400000000001
  1
カウンター
 41
0.5
  0
TEXT
  5
65D
  8
_________2
 62
     7
 10
143.82900000000001
 20
244.029
 30
0.0
 40
3.0923400000000001
  1
基材：防水MDF
 41
0.5
  0
TEXT
  5
65E
  8
_________2
 62
     7
 10
143.82900000000001
 20
240.16300000000001
 30
0.0
 40
3.0923400000000001
  1
表面：メラミン化粧板
 41
0.5
  0
LINE
  5
65F
  8
_________2
 62
     7
 10
143.82900000000001
 20
233.36099999999999
 30
0.0
 11
143.82900000000001
 21
184.36099999999999
 31
0.0
  0
LINE
  5
660
  8
_________2
 62
     7
 10
181.62200000000001
 20
233.36099999999999
 30
0.0
 11
181.62200000000001
 21
184.36099999999999
 31
0.0
  0
TEXT
  5
661
  8
_________2
 62
     7
 10
184.77487833333331
 20
186.512
 30
0.0
 40
3.3734599999999988
  1
1
 41
0.5
 72
     1
 11
185.0559999999999
 21
186.512
 31
0.0
  0
TEXT
  5
662
  8
_________2
 62
     7
 10
145.96700000000001
 20
186.512
 30
0.0
 40
3.3734599999999988
  1
フレキ管（L＝300）
 41
0.5
  0
LINE
  5
663
  8
_________2
 62
     7
 10
143.82900000000001
 20
184.36099999999999
 30
0.0
 11
188.49000000000001
 21
184.36099999999999
 31
0.0
  0
TEXT
  5
664
  8
_________2
 62
     7
 10
184.77487833333331
 20
193.512
 30
0.0
 40
3.3734599999999988
  1
1
 41
0.5
 72
     1
 11
185.0559999999999
 21
193.512
 31
0.0
  0
TEXT
  5
665
  8
_________2
 62
     7
 10
145.96700000000001
 20
193.512
 30
0.0
 40
3.3734599999999988
  1
排水目皿
 41
0.5
  0
LINE
  5
666
  8
_________2
 62
     7
 10
143.82900000000001
 20
191.36099999999999
 30
0.0
 11
188.49000000000001
 21
191.36099999999999
 31
0.0
  0
TEXT
  5
667
  8
_________2
 62
     7
 10
184.77487833333331
 20
200.512
 30
0.0
 40
3.3734599999999988
  1
1
 41
0.5
 72
     1
 11
185.0559999999999
 21
200.512
 31
0.0
  0
TEXT
  5
668
  8
_________2
 62
     7
 10
145.96700000000001
 20
200.512
 30
0.0
 40
3.3734599999999988
  1
立水栓（JIS、定流量弁付）
 41
0.5
  0
LINE
  5
669
  8
_________2
 62
     7
 10
143.82900000000001
 20
198.36099999999999
 30
0.0
 11
188.49000000000001
 21
198.36099999999999
 31
0.0
  0
TEXT
  5
66A
  8
_________2
 62
     7
 10
184.77487833333331
 20
207.512
 30
0.0
 40
3.3734599999999988
  1
1
 41
0.5
 72
     1
 11
185.0559999999999
 21
207.512
 31
0.0
  0
TEXT
  5
66B
  8
_________2
 62
     7
 10
145.96700000000001
 20
207.512
 30
0.0
 40
3.3734599999999988
  1
手洗器（オーバーフローなし）
 41
0.5
  0
LINE
  5
66C
  8
_________2
 62
     7
 10
143.82900000000001
 20
205.36099999999999
 30
0.0
 11
188.49000000000001
 21
205.36099999999999
 31
0.0
  0
TEXT
  5
66D
  8
_________2
 62
     7
 10
184.4937566666666
 20
214.512
 30
0.0
 40
3.3734599999999988
  1
2
 41
0.5
 72
     1
 11
185.0559999999999
 21
214.512
 31
0.0
  0
TEXT
  5
66E
  8
_________2
 62
     7
 10
184.77487833333331
 20
221.512
 30
0.0
 40
3.3734599999999988
  1
1
 41
0.5
 72
     1
 11
185.0559999999999
 21
221.512
 31
0.0
  0
TEXT
  5
66F
  8
_________2
 62
     7
 10
184.2688593333333
 20
228.512
 30
0.0
 40
3.3734599999999988
  1
数
 41
0.5
 72
     1
 11
185.0559999999999
 21
228.512
 31
0.0
  0
TEXT
  5
670
  8
_________2
 62
     7
 10
145.96700000000001
 20
214.512
 30
0.0
 40
3.3734599999999988
  1
ブラケット
 41
0.5
  0
TEXT
  5
671
  8
_________2
 62
     7
 10
145.96700000000001
 20
221.512
 30
0.0
 40
3.3734599999999988
  1
カウンター
 41
0.5
  0
TEXT
  5
672
  8
_________2
 62
     7
 10
157.7772586666666
 20
228.512
 30
0.0
 40
3.3734599999999988
  1
セット内容
 41
0.5
 72
     1
 11
162.72499999999999
 21
228.512
 31
0.0
  0
LINE
  5
673
  8
_________2
 62
     7
 10
143.82900000000001
 20
212.36099999999999
 30
0.0
 11
188.49000000000001
 21
212.36099999999999
 31
0.0
  0
LINE
  5
674
  8
_________2
 62
     7
 10
143.82900000000001
 20
219.36099999999999
 30
0.0
 11
188.49000000000001
 21
219.36099999999999
 31
0.0
  0
LINE
  5
675
  8
_________2
 62
     7
 10
143.82900000000001
 20
233.36099999999999
 30
0.0
 11
188.49000000000001
 21
233.36099999999999
 31
0.0
  0
LINE
  5
676
  8
_________2
 62
     7
 10
143.82900000000001
 20
226.36099999999999
 30
0.0
 11
188.49000000000001
 21
226.36099999999999
 31
0.0
  0
LINE
  5
677
  8
_________2
 62
     7
 10
143.82900000000001
 20
280.43000000000001
 30
0.0
 11
143.82900000000001
 21
252.43000000000001
 31
0.0
  0
LINE
  5
678
  8
_________2
 62
     7
 10
169.25299999999999
 20
280.43000000000001
 30
0.0
 11
169.25299999999999
 21
252.43000000000001
 31
0.0
  0
TEXT
  5
679
  8
_________2
 62
     7
 10
175.26196966666669
 20
254.58099999999999
 30
0.0
 40
3.3734599999999988
  1
ホワイト
 41
0.5
 72
     1
 11
179.029
 21
254.58099999999999
 31
0.0
  0
TEXT
  5
67A
  8
_________2
 62
     7
 10
145.15557250000001
 20
254.58099999999999
 30
0.0
 40
3.3734599999999988
  1
CEK537SET01-WH
 41
0.5
 72
     1
 11
156.541
 21
254.58099999999999
 31
0.0
  0
LINE
  5
67B
  8
_________2
 62
     7
 10
143.82900000000001
 20
252.43000000000001
 30
0.0
 11
188.49000000000001
 21
252.43000000000001
 31
0.0
  0
TEXT
  5
67C
  8
_________2
 62
     7
 10
175.2057453333334
 20
261.58100000000002
 30
0.0
 40
3.3734599999999988
  1
ブラウン
 41
0.5
 72
     1
 11
179.029
 21
261.58100000000002
 31
0.0
  0
TEXT
  5
67D
  8
_________2
 62
     7
 10
174.19370733333329
 20
268.58100000000002
 30
0.0
 40
3.3734599999999988
  1
ナチュラル
 41
0.5
 72
     1
 11
179.029
 21
268.58100000000002
 31
0.0
  0
TEXT
  5
67E
  8
_________2
 62
     7
 10
173.06922066666669
 20
275.58100000000002
 30
0.0
 40
3.3734599999999988
  1
カウンター色
 41
0.5
 72
     1
 11
179.029
 21
275.58100000000002
 31
0.0
  0
TEXT
  5
67F
  8
_________2
 62
     7
 10
145.4366941666666
 20
261.58100000000002
 30
0.0
 40
3.3734599999999988
  1
CEK537SET01-BR
 41
0.5
 72
     1
 11
156.541
 21
261.58100000000002
 31
0.0
  0
TEXT
  5
680
  8
_________2
 62
     7
 10
145.4366941666666
 20
268.58100000000002
 30
0.0
 40
3.3734599999999988
  1
CEK537SET01-NA
 41
0.5
 72
     1
 11
156.541
 21
268.58100000000002
 31
0.0
  0
TEXT
  5
681
  8
_________2
 62
     7
 10
154.74182133333329
 20
275.58100000000002
 30
0.0
 40
3.3734599999999988
  1
品番
 41
0.5
 72
     1
 11
156.541
 21
275.58100000000002
 31
0.0
  0
LINE
  5
682
  8
_________2
 62
     7
 10
143.82900000000001
 20
259.43000000000001
 30
0.0
 11
188.49000000000001
 21
259.43000000000001
 31
0.0
  0
LINE
  5
683
  8
_________2
 62
     7
 10
143.82900000000001
 20
266.43000000000001
 30
0.0
 11
188.49000000000001
 21
266.43000000000001
 31
0.0
  0
LINE
  5
684
  8
_________2
 62
     7
 10
143.82900000000001
 20
273.43000000000001
 30
0.0
 11
188.49000000000001
 21
273.43000000000001
 31
0.0
  0
TEXT
  5
685
  8
_________2
 62
     7
 10
29.525700000000001
 20
22.226900000000001
 30
0.0
 40
3.9357000000000002
  1
セット重量：6.5kg
 41
0.5
  0
LINE
  5
686
  8
_________2
 62
     7
 10
210.24000000000001
 20
148.93100000000001
 30
0.0
 11
188.49000000000001
 21
148.93100000000001
 31
0.0
  0
LINE
  5
687
  8
_________2
 62
     7
 10
105.239
 20
17.4285
 30
0.0
 11
105.239
 21
0.4482100000000001
 31
0.0
  0
LINE
  5
688
  8
_________2
 62
     7
 10
105.239
 20
297.44999999999999
 30
0.0
 11
105.239
 21
280.43000000000001
 31
0.0
  0
LINE
  5
689
  8
_________2
 62
     7
 10
21.988499999999998
 20
148.93100000000001
 30
0.0
 11
0.238058
 21
148.93100000000001
 31
0.0
  0
LINE
  5
68A
  8
_________2
 62
     7
 10
81.679900000000004
 20
51.324300000000001
 30
0.0
 11
79.493700000000004
 21
51.324300000000001
 31
0.0
  0
LINE
  5
68B
  8
_________2
 62
     7
 10
82.172600000000017
 20
51.324300000000001
 30
0.0
 11
81.920400000000001
 21
51.324300000000001
 31
0.0
  0
LINE
  5
68C
  8
_________2
 62
     7
 10
82.665199999999984
 20
51.324300000000001
 30
0.0
 11
85.590100000000007
 21
51.324300000000001
 31
0.0
  0
LINE
  5
68D
  8
_________2
 62
     7
 10
82.172600000000017
 20
51.324300000000001
 30
0.0
 11
82.424800000000005
 21
51.324300000000001
 31
0.0
  0
LINE
  5
68E
  8
_________2
 62
     7
 10
75.776399999999995
 20
51.324300000000001
 30
0.0
 11
73.589399999999998
 21
51.324300000000001
 31
0.0
  0
LINE
  5
68F
  8
_________2
 62
     7
 10
76.2684
 20
51.324300000000001
 30
0.0
 11
76.016900000000007
 21
51.324300000000001
 31
0.0
  0
LINE
  5
690
  8
_________2
 62
     7
 10
76.2684
 20
51.817
 30
0.0
 11
76.2684
 21
54.003900000000002
 31
0.0
  0
LINE
  5
691
  8
_________2
 62
     7
 10
76.2684
 20
51.324300000000001
 30
0.0
 11
76.2684
 21
51.576500000000003
 31
0.0
  0
LINE
  5
692
  8
_________2
 62
     7
 10
76.76100000000001
 20
51.324300000000001
 30
0.0
 11
78.947999999999993
 21
51.324300000000001
 31
0.0
  0
LINE
  5
693
  8
_________2
 62
     7
 10
76.2684
 20
51.324300000000001
 30
0.0
 11
76.520499999999998
 21
51.324300000000001
 31
0.0
  0
LINE
  5
694
  8
_________2
 62
     7
 10
76.2684
 20
50.832399999999993
 30
0.0
 11
76.2684
 21
48.645400000000002
 31
0.0
  0
LINE
  5
695
  8
_________2
 62
     7
 10
76.2684
 20
51.324300000000001
 30
0.0
 11
76.2684
 21
51.072800000000001
 31
0.0
  0
LINE
  5
696
  8
_________2
 62
     7
 10
79.979399999999984
 20
50.104799999999997
 30
0.0
 11
85.157399999999996
 21
49.240000000000002
 31
0.0
  0
LINE
  5
697
  8
_________2
 62
     7
 10
79.979399999999984
 20
52.543900000000001
 30
0.0
 11
85.157399999999996
 21
53.409300000000002
 31
0.0
  0
LINE
  5
698
  8
_________2
 62
     7
 10
85.157399999999996
 20
49.240000000000002
 30
0.0
 11
85.157399999999996
 21
53.409300000000002
 31
0.0
  0
LINE
  5
699
  8
_________2
 62
     7
 10
79.979399999999984
 20
50.104799999999997
 30
0.0
 11
79.979399999999984
 21
52.543900000000001
 31
0.0
  0
ARC
  5
69A
  8
_________2
 62
     7
 10
76.222110000000001
 20
51.277366999999991
 30
0.0
 40
1.2673709999999989
 50
2.1232950000000002
 51
87.909056000000007
  0
ARC
  5
69B
  8
_________2
 62
     7
 10
76.315273000000005
 20
51.277400999999998
 30
0.0
 40
1.267363
 50
92.121785999999986
 51
177.878185
  0
ARC
  5
69C
  8
_________2
 62
     7
 10
76.315273000000005
 20
51.371245999999992
 30
0.0
 40
1.267363
 50
182.121815
 51
267.87821400000001
  0
ARC
  5
69D
  8
_________2
 62
     7
 10
76.221461000000005
 20
51.371928999999987
 30
0.0
 40
1.2680439999999991
 50
272.11916400000001
 51
357.84848499999998
  0
ARC
  5
69E
  8
_________2
 62
     7
 10
76.268349999999984
 20
51.324323
 30
0.0
 40
2.0849849999999992
 50
0.00001
 51
89.999980000000008
  0
ARC
  5
69F
  8
_________2
 62
     7
 10
76.348388
 20
51.245001999999992
 30
0.0
 40
2.1657860000000002
 50
92.117855000000034
 51
177.90105299999999
  0
ARC
  5
6A0
  8
_________2
 62
     7
 10
76.348354
 20
51.404327000000002
 30
0.0
 40
2.1657779999999991
 50
182.11700400000001
 51
267.88302499999998
  0
ARC
  5
6A1
  8
_________2
 62
     7
 10
76.188378999999983
 20
51.405009999999997
 30
0.0
 40
2.1664590000000001
 50
272.11546800000002
 51
357.86560400000002
  0
TEXT
  5
6A2
  8
_________2
 62
     7
 10
109.544
 20
23.199100000000001
 30
0.0
 40
3.0923400000000001
  1
図番
 41
0.5
  0
LINE
  5
6A3
  8
_________2
 62
     7
 10
108.489
 20
27.4283
 30
0.0
 11
188.49000000000001
 21
27.4283
 31
0.0
  0
TEXT
  5
6A4
  8
_________2
 62
     7
 10
109.544
 20
33.198900000000002
 30
0.0
 40
3.0923400000000001
  1
品番
 41
0.5
  0
TEXT
  5
6A5
  8
_________2
 62
     7
 10
109.544
 20
53.337699999999998
 30
0.0
 40
3.0923400000000001
  1
名称
 41
0.5
  0
TEXT
  5
6A6
  8
_________2
 62
     7
 10
96.784058333333334
 20
48.341500000000011
 30
0.0
 40
3.6545800000000002
  1
mm
 41
0.5
 72
     1
 11
98.306799999999996
 21
48.341500000000011
 31
0.0
  0
TEXT
  5
6A7
  8
_________2
 62
     7
 10
90.582099999999997
 20
53.337699999999998
 30
0.0
 40
3.0923400000000001
  1
単位
 41
0.5
  0
TEXT
  5
6A8
  8
_________2
 62
     7
 10
90.582099999999997
 20
40.930399999999999
 30
0.0
 40
3.0923400000000001
  1
尺度
 41
0.5
  0
TEXT
  5
6A9
  8
_________2
 62
     7
 10
95.030836166666674
 20
34.737499999999997
 30
0.0
 40
3.6545800000000002
  1
1 ： 10
 41
0.5
 72
     1
 11
98.898600000000002
 21
34.737499999999997
 31
0.0
  0
TEXT
  5
6AA
  8
_________2
 62
     7
 10
141.60152500000001
 20
30.627400000000002
 30
0.0
 40
3.9357000000000002
  1
図中の表参照
 41
0.5
 72
     1
 11
148.489
 21
30.627400000000002
 31
0.0
  0
TEXT
  5
6AB
  8
_________2
 62
     7
 10
138.48576249999999
 20
20.626999999999999
 30
0.0
 40
3.9357000000000002
  1
CEK537SET01
 41
0.5
 72
     1
 11
148.489
 21
20.626999999999999
 31
0.0
  0
TEXT
  5
6AC
  8
_________2
 62
     7
 10
114.11799999999999
 20
46.795400000000001
 30
0.0
 40
3.9357000000000002
  1
セラオリジナルコレクション
 41
0.5
  0
TEXT
  5
6AD
  8
_________2
 62
     7
 10
114.11799999999999
 20
41.875700000000002
 30
0.0
 40
3.9357000000000002
  1
カウンターセット
 41
0.5
  0
TEXT
  5
6AE
  8
_________2
 62
     7
 10
44.364200333333329
 20
35.122599999999998
 30
0.0
 40
3.6545800000000002
  1
早川
 41
0.5
 72
     1
 11
46.252400000000002
 21
35.122599999999998
 31
0.0
  0
TEXT
  5
6AF
  8
_________2
 62
     7
 10
25.729290666666671
 20
35.122599999999998
 30
0.0
 40
3.6545800000000002
  1
菅原
 41
0.5
 72
     1
 11
27.6784
 21
35.122599999999998
 31
0.0
  0
TEXT
  5
6B0
  8
_________2
 62
     7
 10
72.724699999999999
 20
34.737499999999997
 30
0.0
 40
3.6545800000000002
  1
15.12.25
 41
0.5
  0
TEXT
  5
6B1
  8
_________2
 62
     7
 10
71.531999999999996
 20
40.930399999999999
 30
0.0
 40
3.0923400000000001
  1
日付
 41
0.5
  0
TEXT
  5
6B2
  8
_________2
 62
     7
 10
34.578299999999999
 20
40.930399999999999
 30
0.0
 40
3.0923400000000001
  1
検図
 41
0.5
  0
TEXT
  5
6B3
  8
_________2
 62
     7
 10
22.960000000000001
 20
26.731000000000002
 30
0.0
 40
3.0923400000000001
  1
備考
 41
0.5
  0
TEXT
  5
6B4
  8
_________2
 62
     7
 10
22.960000000000001
 20
40.930399999999999
 30
0.0
 40
3.0923400000000001
  1
製図
 41
0.5
  0
TEXT
  5
6B5
  8
_________2
 62
     7
 10
28.727365333333339
 20
49.456400000000002
 30
0.0
 40
4.4979399999999989
  1
セラトレーディング株式会社
 41
0.5
 72
     1
 11
46.119399999999992
 21
49.456400000000002
 31
0.0
  0
LINE
  5
6B6
  8
_________2
 62
     7
 10
188.49000000000001
 20
17.4285
 30
0.0
 11
21.988499999999998
 21
17.4285
 31
0.0
  0
LINE
  5
6B7
  8
_________2
 62
     7
 10
21.988499999999998
 20
17.4285
 30
0.0
 11
21.988499999999998
 21
280.43000000000001
 31
0.0
  0
LINE
  5
6B8
  8
_________2
 62
     7
 10
21.988499999999998
 20
280.43000000000001
 30
0.0
 11
188.49000000000001
 21
280.43000000000001
 31
0.0
  0
LINE
  5
6B9
  8
_________2
 62
     7
 10
188.49000000000001
 20
280.43000000000001
 30
0.0
 11
188.49000000000001
 21
17.4285
 31
0.0
  0
LINE
  5
6BA
  8
_________2
 62
     7
 10
70.488799999999998
 20
30.9285
 30
0.0
 11
70.488799999999998
 21
57.428400000000011
 31
0.0
  0
LINE
  5
6BB
  8
_________2
 62
     7
 10
89.488600000000005
 20
30.9285
 30
0.0
 11
89.488600000000005
 21
57.428400000000011
 31
0.0
  0
LINE
  5
6BC
  8
_________2
 62
     7
 10
108.489
 20
17.4285
 30
0.0
 11
108.489
 21
57.428400000000011
 31
0.0
  0
LINE
  5
6BD
  8
_________2
 62
     7
 10
33.488300000000002
 20
30.9285
 30
0.0
 11
33.488300000000002
 21
44.928800000000003
 31
0.0
  0
LINE
  5
6BE
  8
_________2
 62
     7
 10
21.988499999999998
 20
30.9285
 30
0.0
 11
108.489
 21
30.9285
 31
0.0
  0
LINE
  5
6BF
  8
_________2
 62
     7
 10
21.988499999999998
 20
44.928800000000003
 30
0.0
 11
108.489
 21
44.928800000000003
 31
0.0
  0
LINE
  5
6C0
  8
_________2
 62
     7
 10
108.489
 20
37.428100000000001
 30
0.0
 11
188.49000000000001
 21
37.428100000000001
 31
0.0
  0
LINE
  5
6C1
  8
_________2
 62
     7
 10
21.988499999999998
 20
57.428400000000011
 30
0.0
 11
188.49000000000001
 21
57.428400000000011
 31
0.0
  0
ENDSEC
  0
EOF
