  0
SECTION
  2
HEADER
  9
$ACADVER
  1
AC1009
  9
$INSBASE
 10
0.0
 20
0.0
 30
0.0
  9
$EXTMIN
 10
0.238058
 20
0.4482100000000001
 30
0.0
  9
$EXTMAX
 10
210.24000000000001
 20
297.44999999999999
 30
0.0
  9
$LIMMIN
 10
0.0
 20
0.0
  9
$LIMMAX
 10
12.0
 20
9.0
  9
$ORTHOMODE
 70
     0
  9
$REGENMODE
 70
     1
  9
$FILLMODE
 70
     1
  9
$QTEXTMODE
 70
     0
  9
$MIRRTEXT
 70
     1
  9
$DRAGMODE
 70
     2
  9
$LTSCALE
 40
1.0
  9
$OSMODE
 70
    37
  9
$ATTMODE
 70
     1
  9
$TEXTSIZE
 40
0.0
  9
$TRACEWID
 40
0.05
  9
$TEXTSTYLE
  7
STANDARD
  9
$CLAYER
  8
0
  9
$CELTYPE
  6
CONTINUOUS
  9
$CECOLOR
 62
   256
  9
$DIMSCALE
 40
1.0
  9
$DIMASZ
 40
0.18
  9
$DIMEXO
 40
0.0625
  9
$DIMDLI
 40
0.38
  9
$DIMRND
 40
0.0
  9
$DIMDLE
 40
0.0
  9
$DIMEXE
 40
0.18
  9
$DIMTP
 40
0.0
  9
$DIMTM
 40
0.0
  9
$DIMTXT
 40
0.18
  9
$DIMCEN
 40
0.09
  9
$DIMTSZ
 40
0.0
  9
$DIMTOL
 70
     0
  9
$DIMLIM
 70
     0
  9
$DIMTIH
 70
     1
  9
$DIMTOH
 70
     1
  9
$DIMSE1
 70
     0
  9
$DIMSE2
 70
     0
  9
$DIMTAD
 70
     0
  9
$DIMZIN
 70
     0
  9
$DIMBLK
  1

  9
$DIMASO
 70
     1
  9
$DIMSHO
 70
     1
  9
$DIMPOST
  1

  9
$DIMAPOST
  1

  9
$DIMALT
 70
     0
  9
$DIMALTD
 70
     2
  9
$DIMALTF
 40
25.399999999999999
  9
$DIMLFAC
 40
1.0
  9
$DIMTOFL
 70
     0
  9
$DIMTVP
 40
0.0
  9
$DIMTIX
 70
     0
  9
$DIMSOXD
 70
     0
  9
$DIMSAH
 70
     0
  9
$DIMBLK1
  1

  9
$DIMBLK2
  1

  9
$DIMSTYLE
  2
STANDARD
  9
$DIMCLRD
 70
     0
  9
$DIMCLRE
 70
     0
  9
$DIMCLRT
 70
     0
  9
$DIMTFAC
 40
1.0
  9
$DIMGAP
 40
0.09
  9
$LUNITS
 70
     2
  9
$LUPREC
 70
     4
  9
$SKETCHINC
 40
0.1
  9
$FILLETRAD
 40
0.0
  9
$AUNITS
 70
     0
  9
$AUPREC
 70
     0
  9
$MENU
  1
.
  9
$ELEVATION
 40
0.0
  9
$PELEVATION
 40
0.0
  9
$THICKNESS
 40
0.0
  9
$LIMCHECK
 70
     0
  9
$BLIPMODE
 70
     0
  9
$CHAMFERA
 40
0.0
  9
$CHAMFERB
 40
0.0
  9
$SKPOLY
 70
     0
  9
$TDCREATE
 40
2444972.375
  9
$TDUPDATE
 40
2459448.3315977552
  9
$TDINDWG
 40
0.0000488079
  9
$TDUSRTIMER
 40
0.0000488079
  9
$USRTIMER
 70
     1
  9
$ANGBASE
 50
0.0
  9
$ANGDIR
 70
     0
  9
$PDMODE
 70
     0
  9
$PDSIZE
 40
0.0
  9
$PLINEWID
 40
0.0
  9
$COORDS
 70
     1
  9
$SPLFRAME
 70
     0
  9
$SPLINETYPE
 70
     6
  9
$SPLINESEGS
 70
     8
  9
$ATTDIA
 70
     1
  9
$ATTREQ
 70
     1
  9
$HANDLING
 70
     1
  9
$HANDSEED
  5
6EE
  9
$SURFTAB1
 70
     6
  9
$SURFTAB2
 70
     6
  9
$SURFTYPE
 70
     6
  9
$SURFU
 70
     6
  9
$SURFV
 70
     6
  9
$UCSNAME
  2

  9
$UCSORG
 10
0.0
 20
0.0
 30
0.0
  9
$UCSXDIR
 10
1.0
 20
0.0
 30
0.0
  9
$UCSYDIR
 10
0.0
 20
1.0
 30
0.0
  9
$PUCSNAME
  2

  9
$PUCSORG
 10
0.0
 20
0.0
 30
0.0
  9
$PUCSXDIR
 10
1.0
 20
0.0
 30
0.0
  9
$PUCSYDIR
 10
0.0
 20
1.0
 30
0.0
  9
$USERI1
 70
     0
  9
$USERI2
 70
     0
  9
$USERI3
 70
     0
  9
$USERI4
 70
     0
  9
$USERI5
 70
     0
  9
$USERR1
 40
0.0
  9
$USERR2
 40
0.0
  9
$USERR3
 40
0.0
  9
$USERR4
 40
0.0
  9
$USERR5
 40
0.0
  9
$WORLDVIEW
 70
     1
  9
$SHADEDGE
 70
     3
  9
$SHADEDIF
 70
    70
  9
$TILEMODE
 70
     1
  9
$MAXACTVP
 70
    48
  9
$PLIMCHECK
 70
     0
  9
$PEXTMIN
 10
1.0000000000000000E+020
 20
1.0000000000000000E+020
 30
1.0000000000000000E+020
  9
$PEXTMAX
 10
-1.0000000000000000E+020
 20
-1.0000000000000000E+020
 30
-1.0000000000000000E+020
  9
$PLIMMIN
 10
0.0
 20
0.0
  9
$PLIMMAX
 10
12.0
 20
9.0
  9
$UNITMODE
 70
     0
  9
$VISRETAIN
 70
     1
  9
$PLINEGEN
 70
     0
  9
$PSLTSCALE
 70
     1
  0
ENDSEC
  0
SECTION
  2
TABLES
  0
TABLE
  2
VPORT
 70
     1
  0
VPORT
  2
*ACTIVE
 70
     0
 10
0.0
 20
0.0
 11
1.0
 21
1.0
 12
159.54780818418419
 22
148.72499999999991
 13
0.0
 23
0.0
 14
1.0
 24
1.0
 15
0.0
 25
0.0
 16
0.0
 26
0.0
 36
1.0
 17
0.0
 27
0.0
 37
0.0
 40
257.58312629693847
 41
2.2294736842105261
 42
50.0
 43
0.0
 44
0.0
 50
0.0
 51
0.0
 71
     0
 72
   100
 73
     1
 74
     1
 75
     0
 76
     0
 77
     0
 78
     0
  0
ENDTAB
  0
TABLE
  2
LTYPE
 70
     4
  0
LTYPE
  2
CONTINUOUS
 70
     0
  3
Solid line
 72
    65
 73
     0
 40
0.0
  0
LTYPE
  2
AIGENLINE001
 70
     0
  3
generate AI->DXF Converter
 72
    65
 73
     4
 40
5.8561449999999988
 49
3.5278
 49
-0.776115
 49
0.776115
 49
-0.776115
  0
LTYPE
  2
AIGENLINE002
 70
     0
  3
generate AI->DXF Converter
 72
    65
 73
     2
 40
1.5522299999999991
 49
0.776115
 49
-0.776115
  0
LTYPE
  2
AIGENLINE003
 70
     0
  3
generate AI->DXF Converter
 72
    65
 73
     6
 40
7.4083750000000004
 49
3.5278
 49
-0.776115
 49
0.776115
 49
-0.776115
 49
0.776115
 49
-0.776115
  0
ENDTAB
  0
TABLE
  2
LAYER
 70
     4
  0
LAYER
  2
0
 70
     0
 62
     7
  6
CONTINUOUS
  0
LAYER
  2
____
 70
     0
 62
     7
  6
CONTINUOUS
  0
LAYER
  2
_________1
 70
     0
 62
     7
  6
CONTINUOUS
  0
LAYER
  2
_________2
 70
     0
 62
     7
  6
CONTINUOUS
  0
ENDTAB
  0
TABLE
  2
STYLE
 70
     1
  0
STYLE
  2
STANDARD
 70
     0
 40
0.0
 41
0.0
 50
0.0
 71
     0
 42
0.0
  3
TXT
  4
EXTFONT.SHX
  0
ENDTAB
  0
TABLE
  2
VIEW
 70
     0
  0
ENDTAB
  0
TABLE
  2
UCS
 70
     0
  0
ENDTAB
  0
TABLE
  2
APPID
 70
     3
  0
APPID
  2
ACAD
 70
     0
  0
APPID
  2
ACAD_NAV_VCDISPLAY
 70
     0
  0
APPID
  2
ACAD_MLEADERVER
 70
     0
  0
ENDTAB
  0
TABLE
  2
DIMSTYLE
 70
     1
  0
DIMSTYLE
  2
STANDARD
 70
     0
  3

  4

  5

  6

  7

 40
1.0
 41
0.18
 42
0.0625
 43
0.38
 44
0.18
 45
0.0
 46
0.0
 47
0.0
 48
0.0
140
0.18
141
0.09
142
0.0
143
25.399999999999999
144
1.0
145
0.0
146
1.0
147
0.09
 71
     0
 72
     0
 73
     1
 74
     1
 75
     0
 76
     0
 77
     0
 78
     0
170
     0
171
     2
172
     0
173
     0
174
     0
175
     0
176
     0
177
     0
178
     0
  0
ENDTAB
  0
ENDSEC
  0
SECTION
  2
BLOCKS
  0
BLOCK
  8
0
  2
$MODEL_SPACE
 70
     0
 10
0.0
 20
0.0
 30
0.0
  3
$MODEL_SPACE
  1

  0
ENDBLK
  5
1A
  8
0
  0
BLOCK
 67
     1
  8
0
  2
$PAPER_SPACE
 70
     0
 10
0.0
 20
0.0
 30
0.0
  3
$PAPER_SPACE
  1

  0
ENDBLK
  5
17
 67
     1
  8
0
  0
BLOCK
  8
_________1
  2
AIGNBL02020010
 70
     0
 10
0.0
 20
0.0
 30
0.0
  3
AIGNBL02020010
  1

  0
LINE
  5
28
  8
_________1
 62
     7
 10
73.425399999999996
 20
122.44799999999999
 30
0.0
 11
74.225700000000003
 21
124.593
 31
0.0
  0
LINE
  5
29
  8
_________1
 62
     7
 10
74.225700000000003
 20
124.593
 30
0.0
 11
72.460099999999997
 21
123.13500000000001
 31
0.0
  0
LINE
  5
2A
  8
_________1
 62
     7
 10
72.460099999999997
 20
123.13500000000001
 30
0.0
 11
73.425399999999996
 21
122.44799999999999
 31
0.0
  0
LINE
  5
2B
  8
_________1
 62
     7
 10
70.265600000000006
 20
119.033
 30
0.0
 11
74.225700000000003
 21
124.593
 31
0.0
  0
ENDBLK
  5
2C
  8
_________1
  0
BLOCK
  8
_________1
  2
AIGNBL02020012
 70
     0
 10
0.0
 20
0.0
 30
0.0
  3
AIGNBL02020012
  1

  0
LINE
  5
2F
  8
_________1
 62
     7
 10
93.075400000000016
 20
85.898499999999999
 30
0.0
 11
93.875699999999995
 21
88.043400000000005
 31
0.0
  0
LINE
  5
30
  8
_________1
 62
     7
 10
93.875699999999995
 20
88.043400000000005
 30
0.0
 11
92.109999999999999
 21
86.585800000000006
 31
0.0
  0
LINE
  5
31
  8
_________1
 62
     7
 10
92.109999999999999
 20
86.585800000000006
 30
0.0
 11
93.075400000000016
 21
85.898499999999999
 31
0.0
  0
LINE
  5
32
  8
_________1
 62
     7
 10
89.915499999999994
 20
82.483300000000014
 30
0.0
 11
93.875699999999995
 21
88.043400000000005
 31
0.0
  0
ENDBLK
  5
33
  8
_________1
  0
BLOCK
  8
_________1
  2
AIGNBL02020016
 70
     0
 10
0.0
 20
0.0
 30
0.0
  3
AIGNBL02020016
  1

  0
LINE
  5
36
  8
_________1
 62
     7
 10
97.016199999999998
 20
135.096
 30
0.0
 11
96.001599999999996
 21
133.04300000000001
 31
0.0
  0
LINE
  5
37
  8
_________1
 62
     7
 10
96.001599999999996
 20
133.04300000000001
 30
0.0
 11
97.906800000000004
 21
134.31399999999999
 31
0.0
  0
LINE
  5
38
  8
_________1
 62
     7
 10
97.906800000000004
 20
134.31399999999999
 30
0.0
 11
97.016199999999998
 21
135.096
 31
0.0
  0
LINE
  5
39
  8
_________1
 62
     7
 10
96.001599999999996
 20
133.04300000000001
 30
0.0
 11
106.009
 21
144.578
 31
0.0
  0
ENDBLK
  5
3A
  8
_________1
  0
BLOCK
  8
_________1
  2
AIGNBL02020019
 70
     0
 10
0.0
 20
0.0
 30
0.0
  3
AIGNBL02020019
  1

  0
LINE
  5
3D
  8
_________1
 62
     7
 10
158.20099999999999
 20
117.983
 30
0.0
 11
156.48099999999999
 21
119.49299999999999
 31
0.0
  0
LINE
  5
3E
  8
_________1
 62
     7
 10
156.48099999999999
 20
119.49299999999999
 30
0.0
 11
157.21600000000001
 21
117.325
 31
0.0
  0
LINE
  5
3F
  8
_________1
 62
     7
 10
157.21600000000001
 20
117.325
 30
0.0
 11
158.20099999999999
 21
117.983
 31
0.0
  0
LINE
  5
40
  8
_________1
 62
     7
 10
156.48099999999999
 20
119.49299999999999
 30
0.0
 11
160.26499999999999
 21
113.82299999999999
 31
0.0
  0
ENDBLK
  5
41
  8
_________1
  0
BLOCK
  8
_________1
  2
AIGNBL02010002
 70
     0
 10
0.0
 20
0.0
 30
0.0
  3
AIGNBL02010002
  1

  0
LINE
  5
44
  8
_________1
 62
     7
 10
78.711299999999994
 20
206.126
 30
0.0
 11
76.7286
 21
207.27099999999999
 31
0.0
  0
LINE
  5
45
  8
_________1
 62
     7
 10
76.7286
 20
207.27099999999999
 30
0.0
 11
77.873099999999994
 21
205.28800000000001
 31
0.0
  0
LINE
  5
46
  8
_________1
 62
     7
 10
77.873099999999994
 20
205.28800000000001
 30
0.0
 11
78.711299999999994
 21
206.126
 31
0.0
  0
LINE
  5
47
  8
_________1
 62
     7
 10
71.493399999999994
 20
211.66900000000001
 30
0.0
 11
73.475700000000003
 21
210.524
 31
0.0
  0
LINE
  5
48
  8
_________1
 62
     7
 10
73.475700000000003
 20
210.524
 30
0.0
 11
72.331299999999999
 21
212.50700000000001
 31
0.0
  0
LINE
  5
49
  8
_________1
 62
     7
 10
72.331299999999999
 20
212.50700000000001
 30
0.0
 11
71.493399999999994
 21
211.66900000000001
 31
0.0
  0
LINE
  5
4A
  8
_________1
 62
     7
 10
78.792900000000003
 20
205.20699999999999
 30
0.0
 11
61.681699999999992
 21
222.31800000000001
 31
0.0
  0
LINE
  5
4B
  8
_________1
 62
     7
 10
61.681699999999992
 20
222.31800000000001
 30
0.0
 11
56.992899999999999
 21
222.31800000000001
 31
0.0
  0
ENDBLK
  5
4C
  8
_________1
  0
BLOCK
  8
_________1
  2
AIGNBL02010003
 70
     0
 10
0.0
 20
0.0
 30
0.0
  3
AIGNBL02010003
  1

  0
LINE
  5
4F
  8
_________1
 62
     7
 10
61.526299999999999
 20
183.62
 30
0.0
 11
59.314900000000002
 21
183.02699999999999
 31
0.0
  0
LINE
  5
50
  8
_________1
 62
     7
 10
59.314900000000002
 20
183.02699999999999
 30
0.0
 11
61.526299999999999
 21
182.435
 31
0.0
  0
LINE
  5
51
  8
_________1
 62
     7
 10
61.526299999999999
 20
182.435
 30
0.0
 11
61.526299999999999
 21
183.62
 31
0.0
  0
LINE
  5
52
  8
_________1
 62
     7
 10
57.103499999999997
 20
182.435
 30
0.0
 11
59.314900000000002
 21
183.02699999999999
 31
0.0
  0
LINE
  5
53
  8
_________1
 62
     7
 10
59.314900000000002
 20
183.02699999999999
 30
0.0
 11
57.103499999999997
 21
183.62
 31
0.0
  0
LINE
  5
54
  8
_________1
 62
     7
 10
57.103499999999997
 20
183.62
 30
0.0
 11
57.103499999999997
 21
182.435
 31
0.0
  0
LINE
  5
55
  8
_________1
 62
     7
 10
93.1267
 20
183.62
 30
0.0
 11
90.914900000000003
 21
183.02699999999999
 31
0.0
  0
LINE
  5
56
  8
_________1
 62
     7
 10
90.914900000000003
 20
183.02699999999999
 30
0.0
 11
93.1267
 21
182.435
 31
0.0
  0
LINE
  5
57
  8
_________1
 62
     7
 10
93.1267
 20
182.435
 30
0.0
 11
93.1267
 21
183.62
 31
0.0
  0
LINE
  5
58
  8
_________1
 62
     7
 10
88.703199999999995
 20
182.435
 30
0.0
 11
90.914900000000003
 21
183.02699999999999
 31
0.0
  0
LINE
  5
59
  8
_________1
 62
     7
 10
90.914900000000003
 20
183.02699999999999
 30
0.0
 11
88.703199999999995
 21
183.62
 31
0.0
  0
LINE
  5
5A
  8
_________1
 62
     7
 10
88.703199999999995
 20
183.62
 30
0.0
 11
88.703199999999995
 21
182.435
 31
0.0
  0
LINE
  5
5B
  8
_________1
 62
     7
 10
77.326999999999998
 20
189.542
 30
0.0
 11
75.115300000000005
 21
188.94999999999999
 31
0.0
  0
LINE
  5
5C
  8
_________1
 62
     7
 10
75.115300000000005
 20
188.94999999999999
 30
0.0
 11
77.326999999999998
 21
188.357
 31
0.0
  0
LINE
  5
5D
  8
_________1
 62
     7
 10
77.326999999999998
 20
188.357
 30
0.0
 11
77.326999999999998
 21
189.542
 31
0.0
  0
LINE
  5
5E
  8
_________1
 62
     7
 10
61.526299999999999
 20
189.542
 30
0.0
 11
59.314900000000002
 21
188.94999999999999
 31
0.0
  0
LINE
  5
5F
  8
_________1
 62
     7
 10
59.314900000000002
 20
188.94999999999999
 30
0.0
 11
61.526299999999999
 21
188.357
 31
0.0
  0
LINE
  5
60
  8
_________1
 62
     7
 10
61.526299999999999
 20
188.357
 30
0.0
 11
61.526299999999999
 21
189.542
 31
0.0
  0
LINE
  5
61
  8
_________1
 62
     7
 10
72.903499999999994
 20
188.357
 30
0.0
 11
75.115300000000005
 21
188.94999999999999
 31
0.0
  0
LINE
  5
62
  8
_________1
 62
     7
 10
75.115300000000005
 20
188.94999999999999
 30
0.0
 11
72.903499999999994
 21
189.542
 31
0.0
  0
LINE
  5
63
  8
_________1
 62
     7
 10
72.903499999999994
 20
189.542
 30
0.0
 11
72.903499999999994
 21
188.357
 31
0.0
  0
LINE
  5
64
  8
_________1
 62
     7
 10
88.703199999999995
 20
188.357
 30
0.0
 11
90.914900000000003
 21
188.94999999999999
 31
0.0
  0
LINE
  5
65
  8
_________1
 62
     7
 10
90.914900000000003
 20
188.94999999999999
 30
0.0
 11
88.703199999999995
 21
189.542
 31
0.0
  0
LINE
  5
66
  8
_________1
 62
     7
 10
88.703199999999995
 20
189.542
 30
0.0
 11
88.703199999999995
 21
188.357
 31
0.0
  0
LINE
  5
67
  8
_________1
 62
     7
 10
59.314900000000002
 20
188.94999999999999
 30
0.0
 11
90.914900000000003
 21
188.94999999999999
 31
0.0
  0
ENDBLK
  5
68
  8
_________1
  0
BLOCK
  8
_________1
  2
AIGNBL02010004
 70
     0
 10
0.0
 20
0.0
 30
0.0
  3
AIGNBL02010004
  1

  0
LINE
  5
6B
  8
_________1
 62
     7
 10
49.826399999999992
 20
183.62
 30
0.0
 11
47.615000000000002
 21
183.02699999999999
 31
0.0
  0
LINE
  5
6C
  8
_________1
 62
     7
 10
47.615000000000002
 20
183.02699999999999
 30
0.0
 11
49.826399999999992
 21
182.435
 31
0.0
  0
LINE
  5
6D
  8
_________1
 62
     7
 10
49.826399999999992
 20
182.435
 30
0.0
 11
49.826399999999992
 21
183.62
 31
0.0
  0
LINE
  5
6E
  8
_________1
 62
     7
 10
104.404
 20
182.435
 30
0.0
 11
106.61499999999999
 21
183.02699999999999
 31
0.0
  0
LINE
  5
6F
  8
_________1
 62
     7
 10
106.61499999999999
 20
183.02699999999999
 30
0.0
 11
104.404
 21
183.62
 31
0.0
  0
LINE
  5
70
  8
_________1
 62
     7
 10
104.404
 20
183.62
 30
0.0
 11
104.404
 21
182.435
 31
0.0
  0
LINE
  5
71
  8
_________1
 62
     7
 10
47.615000000000002
 20
183.02699999999999
 30
0.0
 11
106.61499999999999
 21
183.02699999999999
 31
0.0
  0
ENDBLK
  5
72
  8
_________1
  0
BLOCK
  8
_________1
  2
AIGNBL02010005
 70
     0
 10
0.0
 20
0.0
 30
0.0
  3
AIGNBL02010005
  1

  0
LINE
  5
75
  8
_________1
 62
     7
 10
49.826399999999992
 20
177.59100000000001
 30
0.0
 11
47.615000000000002
 21
176.999
 31
0.0
  0
LINE
  5
76
  8
_________1
 62
     7
 10
47.615000000000002
 20
176.999
 30
0.0
 11
49.826399999999992
 21
176.40599999999989
 31
0.0
  0
LINE
  5
77
  8
_________1
 62
     7
 10
49.826399999999992
 20
176.40599999999989
 30
0.0
 11
49.826399999999992
 21
177.59100000000001
 31
0.0
  0
LINE
  5
78
  8
_________1
 62
     7
 10
104.404
 20
176.40599999999989
 30
0.0
 11
106.61499999999999
 21
176.999
 31
0.0
  0
LINE
  5
79
  8
_________1
 62
     7
 10
106.61499999999999
 20
176.999
 30
0.0
 11
104.404
 21
177.59100000000001
 31
0.0
  0
LINE
  5
7A
  8
_________1
 62
     7
 10
104.404
 20
177.59100000000001
 30
0.0
 11
104.404
 21
176.40599999999989
 31
0.0
  0
LINE
  5
7B
  8
_________1
 62
     7
 10
47.615000000000002
 20
176.999
 30
0.0
 11
106.61499999999999
 21
176.999
 31
0.0
  0
ENDBLK
  5
7C
  8
_________1
  0
BLOCK
  8
_________1
  2
AIGNBL02010006
 70
     0
 10
0.0
 20
0.0
 30
0.0
  3
AIGNBL02010006
  1

  0
LINE
  5
7F
  8
_________1
 62
     7
 10
42.4283
 20
216.786
 30
0.0
 11
41.835799999999999
 21
218.99799999999999
 31
0.0
  0
LINE
  5
80
  8
_________1
 62
     7
 10
41.835799999999999
 20
218.99799999999999
 30
0.0
 11
41.243199999999987
 21
216.786
 31
0.0
  0
LINE
  5
81
  8
_________1
 62
     7
 10
41.243199999999987
 20
216.786
 30
0.0
 11
42.4283
 21
216.786
 31
0.0
  0
LINE
  5
82
  8
_________1
 62
     7
 10
41.243199999999987
 20
201.00899999999999
 30
0.0
 11
41.835799999999999
 21
198.798
 31
0.0
  0
LINE
  5
83
  8
_________1
 62
     7
 10
41.835799999999999
 20
198.798
 30
0.0
 11
42.4283
 21
201.00899999999999
 31
0.0
  0
LINE
  5
84
  8
_________1
 62
     7
 10
42.4283
 20
201.00899999999999
 30
0.0
 11
41.243199999999987
 21
201.00899999999999
 31
0.0
  0
LINE
  5
85
  8
_________1
 62
     7
 10
36.366700000000002
 20
219.18600000000001
 30
0.0
 11
35.774099999999997
 21
221.398
 31
0.0
  0
LINE
  5
86
  8
_________1
 62
     7
 10
35.774099999999997
 20
221.398
 30
0.0
 11
35.1815
 21
219.18600000000001
 31
0.0
  0
LINE
  5
87
  8
_________1
 62
     7
 10
35.1815
 20
219.18600000000001
 30
0.0
 11
36.366700000000002
 21
219.18600000000001
 31
0.0
  0
LINE
  5
88
  8
_________1
 62
     7
 10
35.1815
 20
198.60900000000001
 30
0.0
 11
35.774099999999997
 21
196.398
 31
0.0
  0
LINE
  5
89
  8
_________1
 62
     7
 10
35.774099999999997
 20
196.398
 30
0.0
 11
36.366700000000002
 21
198.60900000000001
 31
0.0
  0
LINE
  5
8A
  8
_________1
 62
     7
 10
36.366700000000002
 20
198.60900000000001
 30
0.0
 11
35.1815
 21
198.60900000000001
 31
0.0
  0
LINE
  5
8B
  8
_________1
 62
     7
 10
35.774099999999997
 20
221.398
 30
0.0
 11
35.774099999999997
 21
196.398
 31
0.0
  0
ENDBLK
  5
8C
  8
_________1
  0
BLOCK
  8
_________1
  2
AIGNBL02010007
 70
     0
 10
0.0
 20
0.0
 30
0.0
  3
AIGNBL02010007
  1

  0
LINE
  5
8F
  8
_________1
 62
     7
 10
114.2
 20
194.18600000000001
 30
0.0
 11
113.608
 21
196.398
 31
0.0
  0
LINE
  5
90
  8
_________1
 62
     7
 10
113.608
 20
196.398
 30
0.0
 11
113.015
 21
194.18600000000001
 31
0.0
  0
LINE
  5
91
  8
_________1
 62
     7
 10
113.015
 20
194.18600000000001
 30
0.0
 11
114.2
 21
194.18600000000001
 31
0.0
  0
LINE
  5
92
  8
_________1
 62
     7
 10
113.015
 20
200.40899999999999
 30
0.0
 11
113.608
 21
198.19800000000001
 31
0.0
  0
LINE
  5
93
  8
_________1
 62
     7
 10
113.608
 20
198.19800000000001
 30
0.0
 11
114.2
 21
200.40899999999999
 31
0.0
  0
LINE
  5
94
  8
_________1
 62
     7
 10
114.2
 20
200.40899999999999
 30
0.0
 11
113.015
 21
200.40899999999999
 31
0.0
  0
LINE
  5
95
  8
_________1
 62
     7
 10
113.608
 20
201.947
 30
0.0
 11
113.608
 21
190.93599999999989
 31
0.0
  0
ENDBLK
  5
96
  8
_________1
  0
BLOCK
  8
_________1
  2
AIGNBL02010008
 70
     0
 10
0.0
 20
0.0
 30
0.0
  3
AIGNBL02010008
  1

  0
LINE
  5
99
  8
_________1
 62
     7
 10
102.604
 20
228.17400000000001
 30
0.0
 11
104.815
 21
228.767
 31
0.0
  0
LINE
  5
9A
  8
_________1
 62
     7
 10
104.815
 20
228.767
 30
0.0
 11
102.604
 21
229.35900000000001
 31
0.0
  0
LINE
  5
9B
  8
_________1
 62
     7
 10
102.604
 20
229.35900000000001
 30
0.0
 11
102.604
 21
228.17400000000001
 31
0.0
  0
LINE
  5
9C
  8
_________1
 62
     7
 10
108.82599999999999
 20
229.291
 30
0.0
 11
106.61499999999999
 21
228.69900000000001
 31
0.0
  0
LINE
  5
9D
  8
_________1
 62
     7
 10
106.61499999999999
 20
228.69900000000001
 30
0.0
 11
108.82599999999999
 21
228.10599999999999
 31
0.0
  0
LINE
  5
9E
  8
_________1
 62
     7
 10
108.82599999999999
 20
228.10599999999999
 30
0.0
 11
108.82599999999999
 21
229.291
 31
0.0
  0
LINE
  5
9F
  8
_________1
 62
     7
 10
100.027
 20
229.35900000000001
 30
0.0
 11
97.815100000000001
 21
228.767
 31
0.0
  0
LINE
  5
A0
  8
_________1
 62
     7
 10
97.815100000000001
 20
228.767
 30
0.0
 11
100.027
 21
228.17400000000001
 31
0.0
  0
LINE
  5
A1
  8
_________1
 62
     7
 10
100.027
 20
228.17400000000001
 30
0.0
 11
100.027
 21
229.35900000000001
 31
0.0
  0
LINE
  5
A2
  8
_________1
 62
     7
 10
112.596
 20
228.767
 30
0.0
 11
97.815100000000001
 21
228.767
 31
0.0
  0
ENDBLK
  5
A3
  8
_________1
  0
BLOCK
  8
_________1
  2
AIGNBL02010009
 70
     0
 10
0.0
 20
0.0
 30
0.0
  3
AIGNBL02010009
  1

  0
LINE
  5
A6
  8
_________1
 62
     7
 10
51.626800000000003
 20
229.35900000000001
 30
0.0
 11
49.414999999999999
 21
228.767
 31
0.0
  0
LINE
  5
A7
  8
_________1
 62
     7
 10
49.414999999999999
 20
228.767
 30
0.0
 11
51.626800000000003
 21
228.17400000000001
 31
0.0
  0
LINE
  5
A8
  8
_________1
 62
     7
 10
51.626800000000003
 20
228.17400000000001
 30
0.0
 11
51.626800000000003
 21
229.35900000000001
 31
0.0
  0
LINE
  5
A9
  8
_________1
 62
     7
 10
54.203800000000001
 20
228.17400000000001
 30
0.0
 11
56.415199999999992
 21
228.767
 31
0.0
  0
LINE
  5
AA
  8
_________1
 62
     7
 10
56.415199999999992
 20
228.767
 30
0.0
 11
54.203800000000001
 21
229.35900000000001
 31
0.0
  0
LINE
  5
AB
  8
_________1
 62
     7
 10
54.203800000000001
 20
229.35900000000001
 30
0.0
 11
54.203800000000001
 21
228.17400000000001
 31
0.0
  0
LINE
  5
AC
  8
_________1
 62
     7
 10
45.403500000000001
 20
228.17400000000001
 30
0.0
 11
47.615000000000002
 21
228.767
 31
0.0
  0
LINE
  5
AD
  8
_________1
 62
     7
 10
47.615000000000002
 20
228.767
 30
0.0
 11
45.403500000000001
 21
229.35900000000001
 31
0.0
  0
LINE
  5
AE
  8
_________1
 62
     7
 10
45.403500000000001
 20
229.35900000000001
 30
0.0
 11
45.403500000000001
 21
228.17400000000001
 31
0.0
  0
LINE
  5
AF
  8
_________1
 62
     7
 10
41.176400000000001
 20
228.767
 30
0.0
 11
56.415199999999992
 21
228.767
 31
0.0
  0
ENDBLK
  5
B0
  8
_________1
  0
BLOCK
  8
_________1
  2
AIGNBL0201000A
 70
     0
 10
0.0
 20
0.0
 30
0.0
  3
AIGNBL0201000A
  1

  0
LINE
  5
B3
  8
_________1
 62
     7
 10
104.404
 20
241.44499999999999
 30
0.0
 11
106.61499999999999
 21
242.03800000000001
 31
0.0
  0
LINE
  5
B4
  8
_________1
 62
     7
 10
106.61499999999999
 20
242.03800000000001
 30
0.0
 11
104.404
 21
242.63
 31
0.0
  0
LINE
  5
B5
  8
_________1
 62
     7
 10
104.404
 20
242.63
 30
0.0
 11
104.404
 21
241.44499999999999
 31
0.0
  0
LINE
  5
B6
  8
_________1
 62
     7
 10
49.826399999999992
 20
242.63
 30
0.0
 11
47.615000000000002
 21
242.03800000000001
 31
0.0
  0
LINE
  5
B7
  8
_________1
 62
     7
 10
47.615000000000002
 20
242.03800000000001
 30
0.0
 11
49.826399999999992
 21
241.44499999999999
 31
0.0
  0
LINE
  5
B8
  8
_________1
 62
     7
 10
49.826399999999992
 20
241.44499999999999
 30
0.0
 11
49.826399999999992
 21
242.63
 31
0.0
  0
LINE
  5
B9
  8
_________1
 62
     7
 10
106.61499999999999
 20
242.03800000000001
 30
0.0
 11
47.615000000000002
 21
242.03800000000001
 31
0.0
  0
ENDBLK
  5
BA
  8
_________1
  0
BLOCK
  8
_________1
  2
AIGNBL0201000B
 70
     0
 10
0.0
 20
0.0
 30
0.0
  3
AIGNBL0201000B
  1

  0
LINE
  5
BD
  8
_________1
 62
     7
 10
72.904200000000003
 20
241.44499999999999
 30
0.0
 11
75.115300000000005
 21
242.03800000000001
 31
0.0
  0
LINE
  5
BE
  8
_________1
 62
     7
 10
75.115300000000005
 20
242.03800000000001
 30
0.0
 11
72.904200000000003
 21
242.63
 31
0.0
  0
LINE
  5
BF
  8
_________1
 62
     7
 10
72.904200000000003
 20
242.63
 30
0.0
 11
72.904200000000003
 21
241.44499999999999
 31
0.0
  0
LINE
  5
C0
  8
_________1
 62
     7
 10
77.326999999999998
 20
242.63
 30
0.0
 11
75.115300000000005
 21
242.03800000000001
 31
0.0
  0
LINE
  5
C1
  8
_________1
 62
     7
 10
75.115300000000005
 20
242.03800000000001
 30
0.0
 11
77.326999999999998
 21
241.44499999999999
 31
0.0
  0
LINE
  5
C2
  8
_________1
 62
     7
 10
77.326999999999998
 20
241.44499999999999
 30
0.0
 11
77.326999999999998
 21
242.63
 31
0.0
  0
LINE
  5
C3
  8
_________1
 62
     7
 10
88.704200000000014
 20
236.303
 30
0.0
 11
90.915300000000002
 21
236.89599999999999
 31
0.0
  0
LINE
  5
C4
  8
_________1
 62
     7
 10
90.915300000000002
 20
236.89599999999999
 30
0.0
 11
88.704200000000014
 21
237.488
 31
0.0
  0
LINE
  5
C5
  8
_________1
 62
     7
 10
88.704200000000014
 20
237.488
 30
0.0
 11
88.704200000000014
 21
236.303
 31
0.0
  0
LINE
  5
C6
  8
_________1
 62
     7
 10
104.404
 20
236.303
 30
0.0
 11
106.61499999999999
 21
236.89599999999999
 31
0.0
  0
LINE
  5
C7
  8
_________1
 62
     7
 10
106.61499999999999
 20
236.89599999999999
 30
0.0
 11
104.404
 21
237.488
 31
0.0
  0
LINE
  5
C8
  8
_________1
 62
     7
 10
104.404
 20
237.488
 30
0.0
 11
104.404
 21
236.303
 31
0.0
  0
LINE
  5
C9
  8
_________1
 62
     7
 10
96.826700000000017
 20
237.488
 30
0.0
 11
94.615300000000005
 21
236.89599999999999
 31
0.0
  0
LINE
  5
CA
  8
_________1
 62
     7
 10
94.615300000000005
 20
236.89599999999999
 30
0.0
 11
96.826700000000017
 21
236.303
 31
0.0
  0
LINE
  5
CB
  8
_________1
 62
     7
 10
96.826700000000017
 20
236.303
 30
0.0
 11
96.826700000000017
 21
237.488
 31
0.0
  0
LINE
  5
CC
  8
_________1
 62
     7
 10
106.61499999999999
 20
236.89599999999999
 30
0.0
 11
85.006500000000003
 21
236.89599999999999
 31
0.0
  0
ENDBLK
  5
CD
  8
_________1
  0
BLOCK
  8
_________1
  2
AIGNBL0201000C
 70
     0
 10
0.0
 20
0.0
 30
0.0
  3
AIGNBL0201000C
  1

  0
LINE
  5
D0
  8
_________1
 62
     7
 10
83.701899999999995
 20
147.744
 30
0.0
 11
83.701899999999995
 21
142.53
 31
0.0
  0
ENDBLK
  5
D1
  8
_________1
  0
BLOCK
  8
_________1
  2
AIGNBL0201000D
 70
     0
 10
0.0
 20
0.0
 30
0.0
  3
AIGNBL0201000D
  1

  0
LINE
  5
D4
  8
_________1
 62
     7
 10
83.191000000000003
 20
146.87200000000001
 30
0.0
 11
81.893900000000016
 21
142.88200000000001
 31
0.0
  0
ENDBLK
  5
D5
  8
_________1
  0
BLOCK
  8
_________1
  2
AIGNBL0201000E
 70
     0
 10
0.0
 20
0.0
 30
0.0
  3
AIGNBL0201000E
  1

  0
LINE
  5
D8
  8
_________1
 62
     7
 10
53.113700000000001
 20
108.82299999999999
 30
0.0
 11
50.902000000000001
 21
108.23
 31
0.0
  0
LINE
  5
D9
  8
_________1
 62
     7
 10
50.902000000000001
 20
108.23
 30
0.0
 11
53.113700000000001
 21
107.63800000000001
 31
0.0
  0
LINE
  5
DA
  8
_________1
 62
     7
 10
53.113700000000001
 20
107.63800000000001
 30
0.0
 11
53.113700000000001
 21
108.82299999999999
 31
0.0
  0
LINE
  5
DB
  8
_________1
 62
     7
 10
101.09099999999999
 20
107.63800000000001
 30
0.0
 11
103.30200000000001
 21
108.23
 31
0.0
  0
LINE
  5
DC
  8
_________1
 62
     7
 10
103.30200000000001
 20
108.23
 30
0.0
 11
101.09099999999999
 21
108.82299999999999
 31
0.0
  0
LINE
  5
DD
  8
_________1
 62
     7
 10
101.09099999999999
 20
108.82299999999999
 30
0.0
 11
101.09099999999999
 21
107.63800000000001
 31
0.0
  0
LINE
  5
DE
  8
_________1
 62
     7
 10
50.902000000000001
 20
108.23
 30
0.0
 11
103.30200000000001
 21
108.23
 31
0.0
  0
ENDBLK
  5
DF
  8
_________1
  0
BLOCK
  8
_________1
  2
AIGNBL0201000F
 70
     0
 10
0.0
 20
0.0
 30
0.0
  3
AIGNBL0201000F
  1

  0
INSERT
  5
E2
  8
_________1
 62
     7
  2
AIGNBL02020010
 10
0.0
 20
0.0
 30
0.0
  0
LINE
  5
E3
  8
_________1
 62
     7
 10
60.205100000000002
 20
119.033
 30
0.0
 11
70.265600000000006
 21
119.033
 31
0.0
  0
ENDBLK
  5
E4
  8
_________1
  0
BLOCK
  8
_________1
  2
AIGNBL02010011
 70
     0
 10
0.0
 20
0.0
 30
0.0
  3
AIGNBL02010011
  1

  0
INSERT
  5
E7
  8
_________1
 62
     7
  2
AIGNBL02020012
 10
0.0
 20
0.0
 30
0.0
  0
LINE
  5
E8
  8
_________1
 62
     7
 10
83.472399999999993
 20
82.483300000000014
 30
0.0
 11
89.915499999999994
 21
82.483300000000014
 31
0.0
  0
ENDBLK
  5
E9
  8
_________1
  0
BLOCK
  8
_________1
  2
AIGNBL02010013
 70
     0
 10
0.0
 20
0.0
 30
0.0
  3
AIGNBL02010013
  1

  0
LINE
  5
EC
  8
_________1
  6
AIGENLINE001
 62
     7
 10
100.80200000000001
 20
140.39599999999999
 30
0.0
 11
100.80200000000001
 21
143.27699999999999
 31
0.0
  0
ENDBLK
  5
ED
  8
_________1
  0
BLOCK
  8
_________1
  2
AIGNBL02010014
 70
     0
 10
0.0
 20
0.0
 30
0.0
  3
AIGNBL02010014
  1

  0
LINE
  5
F0
  8
_________1
 62
     7
 10
96.813700000000011
 20
159.88800000000001
 30
0.0
 11
94.602199999999996
 21
159.29499999999999
 31
0.0
  0
LINE
  5
F1
  8
_________1
 62
     7
 10
94.602199999999996
 20
159.29499999999999
 30
0.0
 11
96.813700000000011
 21
158.703
 31
0.0
  0
LINE
  5
F2
  8
_________1
 62
     7
 10
96.813700000000011
 20
158.703
 30
0.0
 11
96.813700000000011
 21
159.88800000000001
 31
0.0
  0
LINE
  5
F3
  8
_________1
 62
     7
 10
85.913300000000007
 20
159.88800000000001
 30
0.0
 11
83.701899999999995
 21
159.29499999999999
 31
0.0
  0
LINE
  5
F4
  8
_________1
 62
     7
 10
83.701899999999995
 20
159.29499999999999
 30
0.0
 11
85.913300000000007
 21
158.703
 31
0.0
  0
LINE
  5
F5
  8
_________1
 62
     7
 10
85.913300000000007
 20
158.703
 30
0.0
 11
85.913300000000007
 21
159.88800000000001
 31
0.0
  0
LINE
  5
F6
  8
_________1
 62
     7
 10
92.390799999999984
 20
158.703
 30
0.0
 11
94.602199999999996
 21
159.29499999999999
 31
0.0
  0
LINE
  5
F7
  8
_________1
 62
     7
 10
94.602199999999996
 20
159.29499999999999
 30
0.0
 11
92.390799999999984
 21
159.88800000000001
 31
0.0
  0
LINE
  5
F8
  8
_________1
 62
     7
 10
92.390799999999984
 20
159.88800000000001
 30
0.0
 11
92.390799999999984
 21
158.703
 31
0.0
  0
LINE
  5
F9
  8
_________1
 62
     7
 10
98.591000000000008
 20
158.703
 30
0.0
 11
100.80200000000001
 21
159.29499999999999
 31
0.0
  0
LINE
  5
FA
  8
_________1
 62
     7
 10
100.80200000000001
 20
159.29499999999999
 30
0.0
 11
98.591000000000008
 21
159.88800000000001
 31
0.0
  0
LINE
  5
FB
  8
_________1
 62
     7
 10
98.591000000000008
 20
159.88800000000001
 30
0.0
 11
98.591000000000008
 21
158.703
 31
0.0
  0
LINE
  5
FC
  8
_________1
 62
     7
 10
83.701899999999995
 20
159.29499999999999
 30
0.0
 11
100.80200000000001
 21
159.29499999999999
 31
0.0
  0
ENDBLK
  5
FD
  8
_________1
  0
BLOCK
  8
_________1
  2
AIGNBL02010015
 70
     0
 10
0.0
 20
0.0
 30
0.0
  3
AIGNBL02010015
  1

  0
INSERT
  5
100
  8
_________1
 62
     7
  2
AIGNBL02020016
 10
0.0
 20
0.0
 30
0.0
  0
ENDBLK
  5
101
  8
_________1
  0
BLOCK
  8
_________1
  2
AIGNBL02010017
 70
     0
 10
0.0
 20
0.0
 30
0.0
  3
AIGNBL02010017
  1

  0
LINE
  5
104
  8
_________1
 62
     7
 10
144.267
 20
81.438100000000006
 30
0.0
 11
142.05500000000001
 21
80.845500000000001
 31
0.0
  0
LINE
  5
105
  8
_________1
 62
     7
 10
142.05500000000001
 20
80.845500000000001
 30
0.0
 11
144.267
 21
80.252999999999986
 31
0.0
  0
LINE
  5
106
  8
_________1
 62
     7
 10
144.267
 20
80.252999999999986
 30
0.0
 11
144.267
 21
81.438100000000006
 31
0.0
  0
LINE
  5
107
  8
_________1
 62
     7
 10
152.34399999999999
 20
80.252999999999986
 30
0.0
 11
154.55500000000001
 21
80.845500000000001
 31
0.0
  0
LINE
  5
108
  8
_________1
 62
     7
 10
154.55500000000001
 20
80.845500000000001
 30
0.0
 11
152.34399999999999
 21
81.438100000000006
 31
0.0
  0
LINE
  5
109
  8
_________1
 62
     7
 10
152.34399999999999
 20
81.438100000000006
 30
0.0
 11
152.34399999999999
 21
80.252999999999986
 31
0.0
  0
LINE
  5
10A
  8
_________1
 62
     7
 10
142.05500000000001
 20
80.845500000000001
 30
0.0
 11
154.55500000000001
 21
80.845500000000001
 31
0.0
  0
ENDBLK
  5
10B
  8
_________1
  0
BLOCK
  8
_________1
  2
AIGNBL02010018
 70
     0
 10
0.0
 20
0.0
 30
0.0
  3
AIGNBL02010018
  1

  0
INSERT
  5
10E
  8
_________1
 62
     7
  2
AIGNBL02020019
 10
0.0
 20
0.0
 30
0.0
  0
ENDBLK
  5
10F
  8
_________1
  0
BLOCK
  8
_________1
  2
AIGNBL0201001A
 70
     0
 10
0.0
 20
0.0
 30
0.0
  3
AIGNBL0201001A
  1

  0
ARC
  5
112
  8
_________1
  6
AIGENLINE002
 62
     7
 10
137.06219400000001
 20
131.18896799999999
 30
0.0
 40
0.745084
 50
216.71044800000001
 51
302.41159900000002
  0
ARC
  5
113
  8
_________1
  6
AIGENLINE002
 62
     7
 10
137.07102900000001
 20
131.134106
 30
0.0
 40
0.69438
 50
304.22281900000002
 51
325.77719100000002
  0
LINE
  5
114
  8
_________1
  6
AIGENLINE002
 62
     7
 10
136.80500000000001
 20
131.24299999999999
 30
0.0
 11
136.80500000000001
 21
132.4429999999999
 31
0.0
  0
LINE
  5
115
  8
_________1
  6
AIGENLINE002
 62
     7
 10
137.30500000000001
 20
131.24299999999999
 30
0.0
 11
137.30500000000001
 21
132.4429999999999
 31
0.0
  0
LINE
  5
116
  8
_________1
  6
AIGENLINE002
 62
     7
 10
137.30500000000001
 20
132.4429999999999
 30
0.0
 11
137.05500000000001
 21
132.74299999999999
 31
0.0
  0
LINE
  5
117
  8
_________1
  6
AIGENLINE002
 62
     7
 10
136.80500000000001
 20
132.4429999999999
 30
0.0
 11
137.05500000000001
 21
132.74299999999999
 31
0.0
  0
ENDBLK
  5
118
  8
_________1
  0
BLOCK
  8
_________1
  2
AIGNBL0201001B
 70
     0
 10
0.0
 20
0.0
 30
0.0
  3
AIGNBL0201001B
  1

  0
ARC
  5
11B
  8
_________1
  6
AIGENLINE002
 62
     7
 10
145.562331
 20
131.18896799999999
 30
0.0
 40
0.745084
 50
216.71044800000001
 51
302.41159900000002
  0
ARC
  5
11C
  8
_________1
  6
AIGENLINE002
 62
     7
 10
145.57116600000001
 20
131.134106
 30
0.0
 40
0.69438
 50
304.22281900000002
 51
325.77719100000002
  0
LINE
  5
11D
  8
_________1
  6
AIGENLINE002
 62
     7
 10
145.30500000000001
 20
131.24299999999999
 30
0.0
 11
145.30500000000001
 21
132.4429999999999
 31
0.0
  0
LINE
  5
11E
  8
_________1
  6
AIGENLINE002
 62
     7
 10
145.80500000000001
 20
131.24299999999999
 30
0.0
 11
145.80500000000001
 21
132.4429999999999
 31
0.0
  0
LINE
  5
11F
  8
_________1
  6
AIGENLINE002
 62
     7
 10
145.80500000000001
 20
132.4429999999999
 30
0.0
 11
145.55600000000001
 21
132.74299999999999
 31
0.0
  0
LINE
  5
120
  8
_________1
  6
AIGENLINE002
 62
     7
 10
145.30500000000001
 20
132.4429999999999
 30
0.0
 11
145.55600000000001
 21
132.74299999999999
 31
0.0
  0
ENDBLK
  5
121
  8
_________1
  0
BLOCK
  8
_________1
  2
AIGNBL0201001C
 70
     0
 10
0.0
 20
0.0
 30
0.0
  3
AIGNBL0201001C
  1

  0
LINE
  5
124
  8
_________1
  6
AIGENLINE002
 62
     7
 10
141.55699999999999
 20
125.221
 30
0.0
 11
141.55699999999999
 21
125.044
 31
0.0
  0
LINE
  5
125
  8
_________1
  6
AIGENLINE002
 62
     7
 10
142.554
 20
125.221
 30
0.0
 11
142.554
 21
125.044
 31
0.0
  0
LINE
  5
126
  8
_________1
  6
AIGENLINE002
 62
     7
 10
142.05500000000001
 20
127.229
 30
0.0
 11
142.684
 21
127.229
 31
0.0
  0
LINE
  5
127
  8
_________1
  6
AIGENLINE002
 62
     7
 10
142.05500000000001
 20
126.869
 30
0.0
 11
142.25200000000001
 21
126.869
 31
0.0
  0
LINE
  5
128
  8
_________1
  6
AIGENLINE002
 62
     7
 10
142.40799999999999
 20
126.869
 30
0.0
 11
142.684
 21
126.869
 31
0.0
  0
ARC
  5
129
  8
_________1
  6
AIGENLINE002
 62
     7
 10
142.67036999999999
 20
127.03542
 30
0.0
 40
0.194274
 50
3.9167199999999989
 51
85.973822999999996
  0
ARC
  5
12A
  8
_________1
  6
AIGENLINE002
 62
     7
 10
142.67074500000001
 20
127.061955
 30
0.0
 40
0.193899
 50
273.92284300000011
 51
356.07716699999997
  0
LINE
  5
12B
  8
_________1
  6
AIGENLINE002
 62
     7
 10
142.05500000000001
 20
126.00700000000001
 30
0.0
 11
142.25200000000001
 21
126.00700000000001
 31
0.0
  0
LINE
  5
12C
  8
_________1
  6
AIGENLINE002
 62
     7
 10
142.40799999999999
 20
126.00700000000001
 30
0.0
 11
142.684
 21
126.00700000000001
 31
0.0
  0
LINE
  5
12D
  8
_________1
  6
AIGENLINE002
 62
     7
 10
142.40799999999999
 20
126.00700000000001
 30
0.0
 11
142.40799999999999
 21
126.869
 31
0.0
  0
LINE
  5
12E
  8
_________1
  6
AIGENLINE002
 62
     7
 10
142.25200000000001
 20
126.00700000000001
 30
0.0
 11
142.25200000000001
 21
126.869
 31
0.0
  0
LINE
  5
12F
  8
_________1
  6
AIGENLINE002
 62
     7
 10
142.684
 20
126.00700000000001
 30
0.0
 11
142.7939999999999
 21
125.89700000000001
 31
0.0
  0
LINE
  5
130
  8
_________1
  6
AIGENLINE002
 62
     7
 10
142.684
 20
126.00700000000001
 30
0.0
 11
142.684
 21
126.869
 31
0.0
  0
LINE
  5
131
  8
_________1
  6
AIGENLINE002
 62
     7
 10
142.7939999999999
 20
125.221
 30
0.0
 11
142.7939999999999
 21
125.89700000000001
 31
0.0
  0
LINE
  5
132
  8
_________1
  6
AIGENLINE002
 62
     7
 10
142.05500000000001
 20
127.229
 30
0.0
 11
141.42699999999999
 21
127.229
 31
0.0
  0
LINE
  5
133
  8
_________1
  6
AIGENLINE002
 62
     7
 10
142.05500000000001
 20
126.869
 30
0.0
 11
141.85900000000001
 21
126.869
 31
0.0
  0
LINE
  5
134
  8
_________1
  6
AIGENLINE002
 62
     7
 10
141.703
 20
126.869
 30
0.0
 11
141.42699999999999
 21
126.869
 31
0.0
  0
ARC
  5
135
  8
_________1
  6
AIGENLINE002
 62
     7
 10
141.440326
 20
127.062845
 30
0.0
 40
0.194823
 50
184.16659799999999
 51
265.942879
  0
ARC
  5
136
  8
_________1
  6
AIGENLINE002
 62
     7
 10
141.44070400000001
 20
127.03452799999999
 30
0.0
 40
0.195201
 50
94.160513999999978
 51
175.83945600000001
  0
LINE
  5
137
  8
_________1
  6
AIGENLINE002
 62
     7
 10
142.05500000000001
 20
126.00700000000001
 30
0.0
 11
141.85900000000001
 21
126.00700000000001
 31
0.0
  0
LINE
  5
138
  8
_________1
  6
AIGENLINE002
 62
     7
 10
141.703
 20
126.00700000000001
 30
0.0
 11
141.42699999999999
 21
126.00700000000001
 31
0.0
  0
LINE
  5
139
  8
_________1
  6
AIGENLINE002
 62
     7
 10
141.703
 20
126.00700000000001
 30
0.0
 11
141.703
 21
126.869
 31
0.0
  0
LINE
  5
13A
  8
_________1
  6
AIGENLINE002
 62
     7
 10
141.85900000000001
 20
126.00700000000001
 30
0.0
 11
141.85900000000001
 21
126.869
 31
0.0
  0
LINE
  5
13B
  8
_________1
  6
AIGENLINE002
 62
     7
 10
141.42699999999999
 20
126.00700000000001
 30
0.0
 11
141.31700000000001
 21
125.89700000000001
 31
0.0
  0
LINE
  5
13C
  8
_________1
  6
AIGENLINE002
 62
     7
 10
141.42699999999999
 20
126.00700000000001
 30
0.0
 11
141.42699999999999
 21
126.869
 31
0.0
  0
LINE
  5
13D
  8
_________1
  6
AIGENLINE002
 62
     7
 10
141.31700000000001
 20
125.221
 30
0.0
 11
141.31700000000001
 21
125.89700000000001
 31
0.0
  0
LINE
  5
13E
  8
_________1
  6
AIGENLINE002
 62
     7
 10
141.31700000000001
 20
125.221
 30
0.0
 11
142.05500000000001
 21
125.221
 31
0.0
  0
LINE
  5
13F
  8
_________1
  6
AIGENLINE002
 62
     7
 10
142.7939999999999
 20
125.221
 30
0.0
 11
142.05500000000001
 21
125.221
 31
0.0
  0
LINE
  5
140
  8
_________1
  6
AIGENLINE002
 62
     7
 10
142.55500000000001
 20
127.407
 30
0.0
 11
142.55500000000001
 21
127.229
 31
0.0
  0
LINE
  5
141
  8
_________1
  6
AIGENLINE002
 62
     7
 10
141.55500000000001
 20
127.407
 30
0.0
 11
141.55500000000001
 21
127.229
 31
0.0
  0
LINE
  5
142
  8
_________1
  6
AIGENLINE002
 62
     7
 10
140.65600000000001
 20
127.63200000000001
 30
0.0
 11
140.65600000000001
 21
128.63200000000001
 31
0.0
  0
LINE
  5
143
  8
_________1
  6
AIGENLINE002
 62
     7
 10
141.35599999999999
 20
127.63200000000001
 30
0.0
 11
141.35599999999999
 21
128.63200000000001
 31
0.0
  0
LINE
  5
144
  8
_________1
  6
AIGENLINE002
 62
     7
 10
143.10499999999999
 20
127.407
 30
0.0
 11
141.005
 21
127.407
 31
0.0
  0
LINE
  5
145
  8
_________1
  6
AIGENLINE002
 62
     7
 10
143.10499999999999
 20
128.858
 30
0.0
 11
141.005
 21
128.858
 31
0.0
  0
LINE
  5
146
  8
_________1
  6
AIGENLINE002
 62
     7
 10
142.755
 20
127.63200000000001
 30
0.0
 11
142.755
 21
128.63200000000001
 31
0.0
  0
LINE
  5
147
  8
_________1
  6
AIGENLINE002
 62
     7
 10
143.45500000000001
 20
127.63200000000001
 30
0.0
 11
143.45500000000001
 21
128.63200000000001
 31
0.0
  0
ARC
  5
148
  8
_________1
  6
AIGENLINE002
 62
     7
 10
140.995848
 20
128.348028
 30
0.0
 40
0.509779
 50
88.948343000000008
 51
108.227507
  0
ARC
  5
149
  8
_________1
  6
AIGENLINE002
 62
     7
 10
140.91150500000001
 20
128.582472
 30
0.0
 40
0.260805
 50
106.73798600000001
 51
168.96093300000001
  0
ARC
  5
14A
  8
_________1
  6
AIGENLINE002
 62
     7
 10
141.01191499999999
 20
128.33050600000001
 30
0.0
 40
0.527258
 50
72.094927999999996
 51
90.729182999999992
  0
ARC
  5
14B
  8
_________1
  6
AIGENLINE002
 62
     7
 10
141.099222
 20
128.58187699999999
 30
0.0
 40
0.261284
 50
11.151536
 51
73.366324000000006
  0
ARC
  5
14C
  8
_________1
  6
AIGENLINE002
 62
     7
 10
142.08154300000001
 20
126.35207200000001
 30
0.0
 40
2.5057869999999989
 50
84.265468999999996
 51
90.600594999999984
  0
ARC
  5
14D
  8
_________1
  6
AIGENLINE002
 62
     7
 10
142.21748500000001
 20
127.760384
 30
0.0
 40
1.0909530000000001
 50
77.633893999999998
 51
83.978924000000006
  0
ARC
  5
14E
  8
_________1
  6
AIGENLINE002
 62
     7
 10
142.29850200000001
 20
128.11452299999999
 30
0.0
 40
0.727687
 50
70.271834999999996
 51
77.893418999999994
  0
ARC
  5
14F
  8
_________1
  6
AIGENLINE002
 62
     7
 10
142.43427500000001
 20
128.443635
 30
0.0
 40
0.372436
 50
30.455283000000001
 51
72.843260000000001
  0
ARC
  5
150
  8
_________1
  6
AIGENLINE002
 62
     7
 10
142.029189
 20
126.34111799999999
 30
0.0
 40
2.5167389999999989
 50
89.406070999999983
 51
95.721448999999993
  0
ARC
  5
151
  8
_________1
  6
AIGENLINE002
 62
     7
 10
141.92328800000001
 20
127.571538
 30
0.0
 40
1.282006999999999
 50
96.49422899999999
 51
101.892914
  0
ARC
  5
152
  8
_________1
  6
AIGENLINE002
 62
     7
 10
141.79411200000001
 20
128.17621800000001
 30
0.0
 40
0.6636880000000001
 50
101.73846399999999
 51
110.096242
  0
ARC
  5
153
  8
_________1
  6
AIGENLINE002
 62
     7
 10
141.68033299999999
 20
128.439415
 30
0.0
 40
0.377778
 50
107.605475
 51
149.278232
  0
ARC
  5
154
  8
_________1
  6
AIGENLINE002
 62
     7
 10
143.09570400000001
 20
128.349807
 30
0.0
 40
0.507999
 50
88.951019999999986
 51
108.259428
  0
ARC
  5
155
  8
_________1
  6
AIGENLINE002
 62
     7
 10
143.011809
 20
128.581884
 30
0.0
 40
0.261414
 50
106.73465899999999
 51
168.85575700000001
  0
ARC
  5
156
  8
_________1
  6
AIGENLINE002
 62
     7
 10
143.11230900000001
 20
128.33444600000001
 30
0.0
 40
0.5233260000000001
 50
72.024295999999993
 51
90.799814999999981
  0
ARC
  5
157
  8
_________1
  6
AIGENLINE002
 62
     7
 10
143.19902099999999
 20
128.58187699999999
 30
0.0
 40
0.261284
 50
11.151536
 51
73.366324000000006
  0
ARC
  5
158
  8
_________1
  6
AIGENLINE002
 62
     7
 10
140.99693600000001
 20
127.924223
 30
0.0
 40
0.516962
 50
251.90768800000001
 51
270.91646200000002
  0
ARC
  5
159
  8
_________1
  6
AIGENLINE002
 62
     7
 10
140.91029
 20
127.681561
 30
0.0
 40
0.259485
 50
190.9452
 51
253.45427200000009
  0
ARC
  5
15A
  8
_________1
  6
AIGENLINE002
 62
     7
 10
141.01444699999999
 20
127.917776
 30
0.0
 40
0.5105330000000001
 50
268.9627220000001
 51
288.213167
  0
ARC
  5
15B
  8
_________1
  6
AIGENLINE002
 62
     7
 10
141.098568
 20
127.683854
 30
0.0
 40
0.262126
 50
286.72796399999999
 51
348.65574900000001
  0
ARC
  5
15C
  8
_________1
  6
AIGENLINE002
 62
     7
 10
142.08130700000001
 20
129.91823099999999
 30
0.0
 40
2.5110389999999989
 50
269.40603800000002
 51
275.72789899999998
  0
ARC
  5
15D
  8
_________1
  6
AIGENLINE002
 62
     7
 10
142.227925
 20
128.440157
 30
0.0
 40
1.025714
 50
275.81906600000002
 51
282.56811699999997
  0
ARC
  5
15E
  8
_________1
  6
AIGENLINE002
 62
     7
 10
142.31915900000001
 20
128.078092
 30
0.0
 40
0.6525520000000001
 50
281.66704199999998
 51
290.16770400000001
  0
ARC
  5
15F
  8
_________1
  6
AIGENLINE002
 62
     7
 10
142.43202299999999
 20
127.824654
 30
0.0
 40
0.3762
 50
287.338731
 51
329.24766799999998
  0
ARC
  5
160
  8
_________1
  6
AIGENLINE002
 62
     7
 10
142.01945799999999
 20
129.70661699999999
 30
0.0
 40
2.2995700000000001
 50
263.97999600000003
 51
270.89248400000002
  0
ARC
  5
161
  8
_________1
  6
AIGENLINE002
 62
     7
 10
141.875777
 20
128.399958
 30
0.0
 40
0.9850649999999999
 50
257.29248200000001
 51
264.32037600000001
  0
ARC
  5
162
  8
_________1
  6
AIGENLINE002
 62
     7
 10
141.80714900000001
 20
128.134545
 30
0.0
 40
0.711108
 50
250.182875
 51
257.98241899999999
  0
ARC
  5
163
  8
_________1
  6
AIGENLINE002
 62
     7
 10
141.67619300000001
 20
127.82080499999999
 30
0.0
 40
0.371933
 50
210.4539529999999
 51
252.77748600000001
  0
ARC
  5
164
  8
_________1
  6
AIGENLINE002
 62
     7
 10
143.09618699999999
 20
127.91843299999999
 30
0.0
 40
0.5111830000000001
 50
251.801275
 51
270.98827699999998
  0
ARC
  5
165
  8
_________1
  6
AIGENLINE002
 62
     7
 10
143.00993500000001
 20
127.681549
 30
0.0
 40
0.259332
 50
190.94898800000001
 51
253.5590040000001
  0
ARC
  5
166
  8
_________1
  6
AIGENLINE002
 62
     7
 10
143.11437100000001
 20
127.916949
 30
0.0
 40
0.5097080000000001
 50
268.947003
 51
288.22888599999999
  0
ARC
  5
167
  8
_________1
  6
AIGENLINE002
 62
     7
 10
143.198836
 20
127.68342699999999
 30
0.0
 40
0.261582
 50
286.656453
 51
348.72726
  0
ENDBLK
  5
168
  8
_________1
  0
BLOCK
  8
_________1
  2
AIGNBL0201001D
 70
     0
 10
0.0
 20
0.0
 30
0.0
  3
AIGNBL0201001D
  1

  0
LINE
  5
16B
  8
_________1
  6
AIGENLINE002
 62
     7
 10
95.047000000000011
 20
125.044
 30
0.0
 11
95.100399999999993
 21
125.10899999999999
 31
0.0
  0
LINE
  5
16C
  8
_________1
  6
AIGENLINE002
 62
     7
 10
94.103700000000003
 20
125.221
 30
0.0
 11
94.103700000000003
 21
125.044
 31
0.0
  0
LINE
  5
16D
  8
_________1
  6
AIGENLINE002
 62
     7
 10
94.156800000000004
 20
125.044
 30
0.0
 11
94.103700000000003
 21
125.10899999999999
 31
0.0
  0
LINE
  5
16E
  8
_________1
  6
AIGENLINE002
 62
     7
 10
95.100399999999993
 20
125.221
 30
0.0
 11
95.100399999999993
 21
125.044
 31
0.0
  0
LINE
  5
16F
  8
_________1
  6
AIGENLINE002
 62
     7
 10
94.601900000000001
 20
127.229
 30
0.0
 11
95.231000000000009
 21
127.229
 31
0.0
  0
LINE
  5
170
  8
_________1
  6
AIGENLINE002
 62
     7
 10
94.601900000000001
 20
126.869
 30
0.0
 11
94.798599999999993
 21
126.869
 31
0.0
  0
LINE
  5
171
  8
_________1
  6
AIGENLINE002
 62
     7
 10
94.954999999999984
 20
126.869
 30
0.0
 11
95.231000000000009
 21
126.869
 31
0.0
  0
ARC
  5
172
  8
_________1
  6
AIGENLINE002
 62
     7
 10
95.217327999999995
 20
127.035397
 30
0.0
 40
0.194272
 50
3.9234249999999991
 51
86.076565000000002
  0
ARC
  5
173
  8
_________1
  6
AIGENLINE002
 62
     7
 10
95.217349999999996
 20
127.06233
 30
0.0
 40
0.194274
 50
273.91672999999997
 51
355.97383300000001
  0
LINE
  5
174
  8
_________1
  6
AIGENLINE002
 62
     7
 10
94.601900000000001
 20
126.00700000000001
 30
0.0
 11
94.798599999999993
 21
126.00700000000001
 31
0.0
  0
LINE
  5
175
  8
_________1
  6
AIGENLINE002
 62
     7
 10
94.954999999999984
 20
126.00700000000001
 30
0.0
 11
95.231000000000009
 21
126.00700000000001
 31
0.0
  0
LINE
  5
176
  8
_________1
  6
AIGENLINE002
 62
     7
 10
94.954999999999984
 20
126.00700000000001
 30
0.0
 11
94.954999999999984
 21
126.869
 31
0.0
  0
LINE
  5
177
  8
_________1
  6
AIGENLINE002
 62
     7
 10
94.798599999999993
 20
126.00700000000001
 30
0.0
 11
94.798599999999993
 21
126.869
 31
0.0
  0
LINE
  5
178
  8
_________1
  6
AIGENLINE002
 62
     7
 10
95.231000000000009
 20
126.00700000000001
 30
0.0
 11
95.340500000000006
 21
125.89700000000001
 31
0.0
  0
LINE
  5
179
  8
_________1
  6
AIGENLINE002
 62
     7
 10
95.231000000000009
 20
126.00700000000001
 30
0.0
 11
95.231000000000009
 21
126.869
 31
0.0
  0
LINE
  5
17A
  8
_________1
  6
AIGENLINE002
 62
     7
 10
95.340500000000006
 20
125.221
 30
0.0
 11
95.340500000000006
 21
125.89700000000001
 31
0.0
  0
LINE
  5
17B
  8
_________1
  6
AIGENLINE002
 62
     7
 10
94.601900000000001
 20
127.229
 30
0.0
 11
93.973200000000006
 21
127.229
 31
0.0
  0
LINE
  5
17C
  8
_________1
  6
AIGENLINE002
 62
     7
 10
94.601900000000001
 20
126.869
 30
0.0
 11
94.405499999999989
 21
126.869
 31
0.0
  0
LINE
  5
17D
  8
_________1
  6
AIGENLINE002
 62
     7
 10
94.249499999999998
 20
126.869
 30
0.0
 11
93.973200000000006
 21
126.869
 31
0.0
  0
ARC
  5
17E
  8
_________1
  6
AIGENLINE002
 62
     7
 10
93.986418
 20
127.061955
 30
0.0
 40
0.193899
 50
183.922853
 51
266.07717700000001
  0
ARC
  5
17F
  8
_________1
  6
AIGENLINE002
 62
     7
 10
93.987307999999999
 20
127.03490600000001
 30
0.0
 40
0.194823
 50
94.16656900000001
 51
175.942849
  0
LINE
  5
180
  8
_________1
  6
AIGENLINE002
 62
     7
 10
94.601900000000001
 20
126.00700000000001
 30
0.0
 11
94.405499999999989
 21
126.00700000000001
 31
0.0
  0
LINE
  5
181
  8
_________1
  6
AIGENLINE002
 62
     7
 10
94.249499999999998
 20
126.00700000000001
 30
0.0
 11
93.973200000000006
 21
126.00700000000001
 31
0.0
  0
LINE
  5
182
  8
_________1
  6
AIGENLINE002
 62
     7
 10
94.249499999999998
 20
126.00700000000001
 30
0.0
 11
94.249499999999998
 21
126.869
 31
0.0
  0
LINE
  5
183
  8
_________1
  6
AIGENLINE002
 62
     7
 10
94.405499999999989
 20
126.00700000000001
 30
0.0
 11
94.405499999999989
 21
126.869
 31
0.0
  0
LINE
  5
184
  8
_________1
  6
AIGENLINE002
 62
     7
 10
93.973200000000006
 20
126.00700000000001
 30
0.0
 11
93.863900000000001
 21
125.89700000000001
 31
0.0
  0
LINE
  5
185
  8
_________1
  6
AIGENLINE002
 62
     7
 10
93.973200000000006
 20
126.00700000000001
 30
0.0
 11
93.973200000000006
 21
126.869
 31
0.0
  0
LINE
  5
186
  8
_________1
  6
AIGENLINE002
 62
     7
 10
93.863900000000001
 20
125.221
 30
0.0
 11
93.863900000000001
 21
125.89700000000001
 31
0.0
  0
LINE
  5
187
  8
_________1
  6
AIGENLINE002
 62
     7
 10
93.863900000000001
 20
125.221
 30
0.0
 11
94.601900000000001
 21
125.221
 31
0.0
  0
LINE
  5
188
  8
_________1
  6
AIGENLINE002
 62
     7
 10
95.340500000000006
 20
125.221
 30
0.0
 11
94.601900000000001
 21
125.221
 31
0.0
  0
LINE
  5
189
  8
_________1
  6
AIGENLINE002
 62
     7
 10
95.102099999999979
 20
127.407
 30
0.0
 11
95.102099999999979
 21
127.229
 31
0.0
  0
LINE
  5
18A
  8
_________1
  6
AIGENLINE002
 62
     7
 10
94.102000000000004
 20
127.407
 30
0.0
 11
94.102000000000004
 21
127.229
 31
0.0
  0
LINE
  5
18B
  8
_________1
  6
AIGENLINE002
 62
     7
 10
93.202100000000016
 20
127.63200000000001
 30
0.0
 11
93.202100000000016
 21
128.63200000000001
 31
0.0
  0
LINE
  5
18C
  8
_________1
  6
AIGENLINE002
 62
     7
 10
93.902199999999993
 20
127.63200000000001
 30
0.0
 11
93.902199999999993
 21
128.63200000000001
 31
0.0
  0
LINE
  5
18D
  8
_________1
  6
AIGENLINE002
 62
     7
 10
95.652299999999997
 20
127.407
 30
0.0
 11
93.552199999999999
 21
127.407
 31
0.0
  0
LINE
  5
18E
  8
_________1
  6
AIGENLINE002
 62
     7
 10
95.652299999999997
 20
128.858
 30
0.0
 11
93.552199999999999
 21
128.858
 31
0.0
  0
LINE
  5
18F
  8
_________1
  6
AIGENLINE002
 62
     7
 10
95.301900000000003
 20
127.63200000000001
 30
0.0
 11
95.301900000000003
 21
128.63200000000001
 31
0.0
  0
LINE
  5
190
  8
_________1
  6
AIGENLINE002
 62
     7
 10
96.002300000000005
 20
127.63200000000001
 30
0.0
 11
96.002300000000005
 21
128.63200000000001
 31
0.0
  0
ARC
  5
191
  8
_________1
  6
AIGENLINE002
 62
     7
 10
93.542858999999979
 20
128.349807
 30
0.0
 40
0.507999
 50
88.951019999999986
 51
108.259428
  0
ARC
  5
192
  8
_________1
  6
AIGENLINE002
 62
     7
 10
93.458656999999988
 20
128.58172099999999
 30
0.0
 40
0.261482
 50
106.65985499999999
 51
168.82224500000001
  0
ARC
  5
193
  8
_________1
  6
AIGENLINE002
 62
     7
 10
93.558868999999987
 20
128.33050600000001
 30
0.0
 40
0.527258
 50
72.094927999999996
 51
90.729182999999992
  0
ARC
  5
194
  8
_________1
  6
AIGENLINE002
 62
     7
 10
93.647293000000005
 20
128.58332999999999
 30
0.0
 40
0.259573
 50
10.899133000000001
 51
73.510411000000005
  0
ARC
  5
195
  8
_________1
  6
AIGENLINE002
 62
     7
 10
94.628437999999989
 20
126.351474
 30
0.0
 40
2.5063869999999988
 50
84.265477000000004
 51
90.606963000000007
  0
ARC
  5
196
  8
_________1
  6
AIGENLINE002
 62
     7
 10
94.759135000000001
 20
127.727608
 30
0.0
 40
1.124106
 50
77.727552000000003
 51
83.885266000000001
  0
ARC
  5
197
  8
_________1
  6
AIGENLINE002
 62
     7
 10
94.833735000000004
 20
128.07342199999999
 30
0.0
 40
0.770338
 50
70.483113000000003
 51
77.682141000000001
  0
ARC
  5
198
  8
_________1
  6
AIGENLINE002
 62
     7
 10
94.978549000000001
 20
128.440248
 30
0.0
 40
0.376467
 50
30.692941999999999
 51
72.605601000000007
  0
ARC
  5
199
  8
_________1
  6
AIGENLINE002
 62
     7
 10
94.575757999999979
 20
126.348996
 30
0.0
 40
2.508861
 50
89.403270999999989
 51
95.730626000000001
  0
ARC
  5
19A
  8
_________1
  6
AIGENLINE002
 62
     7
 10
94.470242999999996
 20
127.571538
 30
0.0
 40
1.282006999999999
 50
96.49422899999999
 51
101.892914
  0
ARC
  5
19B
  8
_________1
  6
AIGENLINE002
 62
     7
 10
94.341065999999984
 20
128.17621800000001
 30
0.0
 40
0.6636880000000001
 50
101.73846399999999
 51
110.096242
  0
ARC
  5
19C
  8
_________1
  6
AIGENLINE002
 62
     7
 10
94.227631000000002
 20
128.438312
 30
0.0
 40
0.378933
 50
107.60448599999999
 51
149.187985
  0
ARC
  5
19D
  8
_________1
  6
AIGENLINE002
 62
     7
 10
95.642657999999983
 20
128.349807
 30
0.0
 40
0.507999
 50
88.951019999999986
 51
108.259428
  0
ARC
  5
19E
  8
_________1
  6
AIGENLINE002
 62
     7
 10
95.558763999999996
 20
128.581884
 30
0.0
 40
0.261414
 50
106.73465899999999
 51
168.85575700000001
  0
ARC
  5
19F
  8
_________1
  6
AIGENLINE002
 62
     7
 10
95.658694999999994
 20
128.330591
 30
0.0
 40
0.527169
 50
72.094791000000001
 51
90.694721000000001
  0
ARC
  5
1A0
  8
_________1
  6
AIGENLINE002
 62
     7
 10
95.745975999999999
 20
128.58187699999999
 30
0.0
 40
0.261284
 50
11.151536
 51
73.366324000000006
  0
ARC
  5
1A1
  8
_________1
  6
AIGENLINE002
 62
     7
 10
93.543343000000007
 20
127.91843299999999
 30
0.0
 40
0.5111830000000001
 50
251.801275
 51
270.98827699999998
  0
ARC
  5
1A2
  8
_________1
  6
AIGENLINE002
 62
     7
 10
93.456594999999993
 20
127.68153700000001
 30
0.0
 40
0.259181
 50
190.95278300000001
 51
253.663544
  0
ARC
  5
1A3
  8
_________1
  6
AIGENLINE002
 62
     7
 10
93.561206999999996
 20
127.919066
 30
0.0
 40
0.511819
 50
268.98715199999998
 51
288.188737
  0
ARC
  5
1A4
  8
_________1
  6
AIGENLINE002
 62
     7
 10
93.645685
 20
127.683263
 30
0.0
 40
0.261514
 50
286.7312609999999
 51
348.760786
  0
ARC
  5
1A5
  8
_________1
  6
AIGENLINE002
 62
     7
 10
94.627876999999984
 20
129.926098
 30
0.0
 40
2.5189049999999988
 50
269.40881000000002
 51
275.71875
  0
ARC
  5
1A6
  8
_________1
  6
AIGENLINE002
 62
     7
 10
94.774010999999987
 20
128.445527
 30
0.0
 40
1.0311440000000001
 50
275.83685800000012
 51
282.5503240000001
  0
ARC
  5
1A7
  8
_________1
  6
AIGENLINE002
 62
     7
 10
94.865227000000004
 20
128.08120099999999
 30
0.0
 40
0.655776
 50
281.68797599999999
 51
290.14677
  0
ARC
  5
1A8
  8
_________1
  6
AIGENLINE002
 62
     7
 10
94.978977999999998
 20
127.824654
 30
0.0
 40
0.3762
 50
287.338731
 51
329.24766799999998
  0
ARC
  5
1A9
  8
_________1
  6
AIGENLINE002
 62
     7
 10
94.566334999999995
 20
129.70587699999999
 30
0.0
 40
2.298826
 50
263.979984
 51
270.88611900000001
  0
ARC
  5
1AA
  8
_________1
  6
AIGENLINE002
 62
     7
 10
94.422731999999996
 20
128.399958
 30
0.0
 40
0.9850649999999999
 50
257.29248200000001
 51
264.32037600000001
  0
ARC
  5
1AB
  8
_________1
  6
AIGENLINE002
 62
     7
 10
94.345404000000016
 20
128.104041
 30
0.0
 40
0.6794640000000002
 50
250.00095400000001
 51
258.16433899999998
  0
ARC
  5
1AC
  8
_________1
  6
AIGENLINE002
 62
     7
 10
94.222482999999997
 20
127.820627
 30
0.0
 40
0.371566
 50
210.45532499999999
 51
252.86730600000001
  0
ARC
  5
1AD
  8
_________1
  6
AIGENLINE002
 62
     7
 10
95.643141999999997
 20
127.91843299999999
 30
0.0
 40
0.5111830000000001
 50
251.801275
 51
270.98827699999998
  0
ARC
  5
1AE
  8
_________1
  6
AIGENLINE002
 62
     7
 10
95.556889999999996
 20
127.681549
 30
0.0
 40
0.259332
 50
190.94898800000001
 51
253.5590040000001
  0
ARC
  5
1AF
  8
_________1
  6
AIGENLINE002
 62
     7
 10
95.661162000000004
 20
127.91815
 30
0.0
 40
0.5109
 50
269.00639200000001
 51
288.20409599999999
  0
ARC
  5
1B0
  8
_________1
  6
AIGENLINE002
 62
     7
 10
95.745790999999997
 20
127.68342699999999
 30
0.0
 40
0.261582
 50
286.656453
 51
348.72726
  0
ENDBLK
  5
1B1
  8
_________1
  0
BLOCK
  8
_________1
  2
AIGNBL0201001E
 70
     0
 10
0.0
 20
0.0
 30
0.0
  3
AIGNBL0201001E
  1

  0
ARC
  5
1B4
  8
_________1
  6
AIGENLINE002
 62
     7
 10
138.776723
 20
135.82020700000001
 30
0.0
 40
4.5679059999999989
 50
217.44071500000001
 51
221.166191
  0
ARC
  5
1B5
  8
_________1
  6
AIGENLINE002
 62
     7
 10
144.76590200000001
 20
136.25161199999999
 30
0.0
 40
5.2780909999999999
 50
303.61233700000003
 51
322.56401699999998
  0
LINE
  5
1B6
  8
_________1
  6
AIGENLINE002
 62
     7
 10
144.35499999999999
 20
129.84299999999999
 30
0.0
 11
139.755
 21
129.84299999999999
 31
0.0
  0
LINE
  5
1B7
  8
_________1
  6
AIGENLINE002
 62
     7
 10
145.55500000000001
 20
131.09299999999999
 30
0.0
 11
138.55500000000001
 21
131.09299999999999
 31
0.0
  0
LINE
  5
1B8
  8
_________1
  6
AIGENLINE002
 62
     7
 10
144.35499999999999
 20
126.343
 30
0.0
 11
144.35499999999999
 21
129.64099999999999
 31
0.0
  0
LINE
  5
1B9
  8
_________1
  6
AIGENLINE002
 62
     7
 10
144.495
 20
129.988
 30
0.0
 11
145.44200000000001
 21
130.96899999999999
 31
0.0
  0
ARC
  5
1BA
  8
_________1
  6
AIGENLINE002
 62
     7
 10
144.63476299999999
 20
129.658827
 30
0.0
 40
0.280086
 50
174.58917700000001
 51
183.620476
  0
ARC
  5
1BB
  8
_________1
  6
AIGENLINE002
 62
     7
 10
144.889611
 20
129.62860000000001
 30
0.0
 40
0.5366830000000001
 50
145.453146
 51
173.94207599999999
  0
ARC
  5
1BC
  8
_________1
  6
AIGENLINE002
 62
     7
 10
144.71384900000001
 20
129.75145000000001
 30
0.0
 40
0.322251
 50
132.66567599999999
 51
145.72265899999999
  0
ARC
  5
1BD
  8
_________1
  6
AIGENLINE002
 62
     7
 10
145.062184
 20
135.755765
 30
0.0
 40
4.7012169999999989
 50
288.72607199999999
 51
303.950444
  0
ARC
  5
1BE
  8
_________1
  6
AIGENLINE002
 62
     7
 10
145.320573
 20
134.9419649999999
 30
0.0
 40
3.8475769999999989
 50
276.07513599999999
 51
288.97258799999997
  0
ARC
  5
1BF
  8
_________1
  6
AIGENLINE002
 62
     7
 10
145.682804
 20
130.76187999999999
 30
0.0
 40
0.317198
 50
131.283423
 51
139.342724
  0
ARC
  5
1C0
  8
_________1
  6
AIGENLINE002
 62
     7
 10
145.8238429999999
 20
130.57867100000001
 30
0.0
 40
0.548128
 50
107.70516600000001
 51
129.72640100000001
  0
ARC
  5
1C1
  8
_________1
  6
AIGENLINE002
 62
     7
 10
145.759715
 20
130.795064
 30
0.0
 40
0.322517
 50
95.684153000000009
 51
108.54351
  0
LINE
  5
1C2
  8
_________1
  6
AIGENLINE002
 62
     7
 10
139.755
 20
126.343
 30
0.0
 11
139.755
 21
129.64099999999999
 31
0.0
  0
LINE
  5
1C3
  8
_________1
  6
AIGENLINE002
 62
     7
 10
139.61500000000001
 20
129.988
 30
0.0
 11
138.66800000000001
 21
130.96899999999999
 31
0.0
  0
ARC
  5
1C4
  8
_________1
  6
AIGENLINE002
 62
     7
 10
139.36532800000001
 20
129.72749400000001
 30
0.0
 40
0.360958
 50
39.280957999999998
 51
46.289523000000003
  0
ARC
  5
1C5
  8
_________1
  6
AIGENLINE002
 62
     7
 10
139.22385499999999
 20
129.62716699999999
 30
0.0
 40
0.534117
 50
9.3755480000000002
 51
38.003031999999997
  0
ARC
  5
1C6
  8
_________1
  6
AIGENLINE002
 62
     7
 10
139.42717099999999
 20
129.659221
 30
0.0
 40
0.3282989999999999
 50
356.84294199999999
 51
9.6364579999999993
  0
ARC
  5
1C7
  8
_________1
  6
AIGENLINE002
 62
     7
 10
138.734228
 20
134.5093
 30
0.0
 40
3.4114559999999989
 50
259.76129600000002
 51
264.08693299999999
  0
ARC
  5
1C8
  8
_________1
  6
AIGENLINE002
 62
     7
 10
138.95019400000001
 20
135.53261499999999
 30
0.0
 40
4.4569689999999991
 50
244.718367
 51
259.36748999999998
  0
ARC
  5
1C9
  8
_________1
  6
AIGENLINE002
 62
     7
 10
139.35269500000001
 20
136.27759800000001
 30
0.0
 40
5.3026900000000001
 50
220.79012399999999
 51
244.223601
  0
ARC
  5
1CA
  8
_________1
  6
AIGENLINE002
 62
     7
 10
138.330816
 20
130.67036100000001
 30
0.0
 40
0.448654
 50
77.726546999999997
 51
83.348789999999994
  0
ARC
  5
1CB
  8
_________1
  6
AIGENLINE002
 62
     7
 10
138.284674
 20
130.57359
 30
0.0
 40
0.553566
 50
53.366669999999992
 51
75.188261999999995
  0
ARC
  5
1CC
  8
_________1
  6
AIGENLINE002
 62
     7
 10
138.43351999999999
 20
130.76918800000001
 30
0.0
 40
0.307801
 50
40.366911999999992
 51
53.875270999999991
  0
ENDBLK
  5
1CD
  8
_________1
  0
BLOCK
  8
_________1
  2
AIGNBL0201001F
 70
     0
 10
0.0
 20
0.0
 30
0.0
  3
AIGNBL0201001F
  1

  0
ARC
  5
1D0
  8
_________1
 62
     7
 10
154.500224
 20
119.73632000000001
 30
0.0
 40
0.744876
 50
126.70984199999999
 51
212.405125
  0
ARC
  5
1D1
  8
_________1
 62
     7
 10
154.46923799999999
 20
119.751413
 30
0.0
 40
0.7273960000000002
 50
214.71744899999999
 51
235.28258099999999
  0
ENDBLK
  5
1D2
  8
_________1
  0
BLOCK
  8
_________1
  2
AIGNBL02010020
 70
     0
 10
0.0
 20
0.0
 30
0.0
  3
AIGNBL02010020
  1

  0
LINE
  5
1D5
  8
_________1
 62
     7
 10
142.05500000000001
 20
89.671899999999994
 30
0.0
 11
141.42699999999999
 21
89.671899999999994
 31
0.0
  0
LINE
  5
1D6
  8
_________1
 62
     7
 10
141.55500000000001
 20
89.493799999999993
 30
0.0
 11
141.55500000000001
 21
89.671899999999994
 31
0.0
  0
LINE
  5
1D7
  8
_________1
 62
     7
 10
142.05500000000001
 20
90.032600000000002
 30
0.0
 11
141.85900000000001
 21
90.032600000000002
 31
0.0
  0
LINE
  5
1D8
  8
_________1
 62
     7
 10
141.702
 20
90.032600000000002
 30
0.0
 11
141.42699999999999
 21
90.032600000000002
 31
0.0
  0
ARC
  5
1D9
  8
_________1
 62
     7
 10
141.44068100000001
 20
89.866586999999996
 30
0.0
 40
0.195176
 50
184.15426400000001
 51
265.84576600000008
  0
ARC
  5
1DA
  8
_________1
 62
     7
 10
141.43981299999999
 20
89.838807999999986
 30
0.0
 40
0.194274
 50
93.916709999999995
 51
175.97381300000001
  0
LINE
  5
1DB
  8
_________1
 62
     7
 10
142.05500000000001
 20
90.894900000000007
 30
0.0
 11
141.85900000000001
 21
90.894900000000007
 31
0.0
  0
LINE
  5
1DC
  8
_________1
 62
     7
 10
141.702
 20
90.894900000000007
 30
0.0
 11
141.42699999999999
 21
90.894900000000007
 31
0.0
  0
LINE
  5
1DD
  8
_________1
 62
     7
 10
141.702
 20
90.894900000000007
 30
0.0
 11
141.702
 21
90.032600000000002
 31
0.0
  0
LINE
  5
1DE
  8
_________1
 62
     7
 10
141.85900000000001
 20
90.894900000000007
 30
0.0
 11
141.85900000000001
 21
90.032600000000002
 31
0.0
  0
LINE
  5
1DF
  8
_________1
 62
     7
 10
141.42699999999999
 20
90.894900000000007
 30
0.0
 11
141.31700000000001
 21
91.004499999999993
 31
0.0
  0
LINE
  5
1E0
  8
_________1
 62
     7
 10
141.42699999999999
 20
90.894900000000007
 30
0.0
 11
141.42699999999999
 21
90.032600000000002
 31
0.0
  0
LINE
  5
1E1
  8
_________1
 62
     7
 10
141.31700000000001
 20
91.680099999999996
 30
0.0
 11
142.05500000000001
 21
91.680099999999996
 31
0.0
  0
LINE
  5
1E2
  8
_________1
 62
     7
 10
141.31700000000001
 20
91.680099999999996
 30
0.0
 11
141.31700000000001
 21
91.004499999999993
 31
0.0
  0
LINE
  5
1E3
  8
_________1
 62
     7
 10
142.05500000000001
 20
89.671899999999994
 30
0.0
 11
142.684
 21
89.671899999999994
 31
0.0
  0
LINE
  5
1E4
  8
_________1
 62
     7
 10
142.55500000000001
 20
89.493799999999993
 30
0.0
 11
142.55500000000001
 21
89.671899999999994
 31
0.0
  0
LINE
  5
1E5
  8
_________1
 62
     7
 10
142.05500000000001
 20
90.032600000000002
 30
0.0
 11
142.25200000000001
 21
90.032600000000002
 31
0.0
  0
LINE
  5
1E6
  8
_________1
 62
     7
 10
142.40799999999999
 20
90.032600000000002
 30
0.0
 11
142.684
 21
90.032600000000002
 31
0.0
  0
ARC
  5
1E7
  8
_________1
 62
     7
 10
142.67076599999999
 20
89.839203999999995
 30
0.0
 40
0.193877
 50
3.9171099999999992
 51
86.082879999999989
  0
ARC
  5
1E8
  8
_________1
 62
     7
 10
142.67028999999999
 20
89.865797999999984
 30
0.0
 40
0.194359
 50
274.04804300000001
 51
356.06141400000001
  0
LINE
  5
1E9
  8
_________1
 62
     7
 10
142.05500000000001
 20
90.894900000000007
 30
0.0
 11
142.25200000000001
 21
90.894900000000007
 31
0.0
  0
LINE
  5
1EA
  8
_________1
 62
     7
 10
142.40799999999999
 20
90.894900000000007
 30
0.0
 11
142.684
 21
90.894900000000007
 31
0.0
  0
LINE
  5
1EB
  8
_________1
 62
     7
 10
142.40799999999999
 20
90.894900000000007
 30
0.0
 11
142.40799999999999
 21
90.032600000000002
 31
0.0
  0
LINE
  5
1EC
  8
_________1
 62
     7
 10
142.25200000000001
 20
90.894900000000007
 30
0.0
 11
142.25200000000001
 21
90.032600000000002
 31
0.0
  0
LINE
  5
1ED
  8
_________1
 62
     7
 10
142.684
 20
90.894900000000007
 30
0.0
 11
142.7939999999999
 21
91.004499999999993
 31
0.0
  0
LINE
  5
1EE
  8
_________1
 62
     7
 10
142.684
 20
90.894900000000007
 30
0.0
 11
142.684
 21
90.032600000000002
 31
0.0
  0
LINE
  5
1EF
  8
_________1
 62
     7
 10
142.7939999999999
 20
91.680099999999996
 30
0.0
 11
142.05500000000001
 21
91.680099999999996
 31
0.0
  0
LINE
  5
1F0
  8
_________1
 62
     7
 10
142.7939999999999
 20
91.680099999999996
 30
0.0
 11
142.7939999999999
 21
91.004499999999993
 31
0.0
  0
LINE
  5
1F1
  8
_________1
 62
     7
 10
142.7939999999999
 20
91.680099999999996
 30
0.0
 11
142.05500000000001
 21
91.680099999999996
 31
0.0
  0
LINE
  5
1F2
  8
_________1
 62
     7
 10
141.31700000000001
 20
91.680099999999996
 30
0.0
 11
142.05500000000001
 21
91.680099999999996
 31
0.0
  0
LINE
  5
1F3
  8
_________1
 62
     7
 10
141.55699999999999
 20
125.044
 30
0.0
 11
141.55699999999999
 21
91.680099999999996
 31
0.0
  0
LINE
  5
1F4
  8
_________1
 62
     7
 10
142.554
 20
125.044
 30
0.0
 11
142.554
 21
91.680099999999996
 31
0.0
  0
LINE
  5
1F5
  8
_________1
 62
     7
 10
140.655
 20
88.268699999999995
 30
0.0
 11
140.655
 21
89.268499999999989
 31
0.0
  0
LINE
  5
1F6
  8
_________1
 62
     7
 10
141.35499999999999
 20
88.268699999999995
 30
0.0
 11
141.35499999999999
 21
89.268499999999989
 31
0.0
  0
LINE
  5
1F7
  8
_________1
 62
     7
 10
143.10499999999999
 20
88.043400000000005
 30
0.0
 11
141.005
 21
88.043400000000005
 31
0.0
  0
LINE
  5
1F8
  8
_________1
 62
     7
 10
143.10499999999999
 20
89.493799999999993
 30
0.0
 11
141.005
 21
89.493799999999993
 31
0.0
  0
LINE
  5
1F9
  8
_________1
 62
     7
 10
142.755
 20
88.268699999999995
 30
0.0
 11
142.755
 21
89.268499999999989
 31
0.0
  0
LINE
  5
1FA
  8
_________1
 62
     7
 10
143.45500000000001
 20
88.268699999999995
 30
0.0
 11
143.45500000000001
 21
89.268499999999989
 31
0.0
  0
ARC
  5
1FB
  8
_________1
 62
     7
 10
140.99589800000001
 20
88.983789999999999
 30
0.0
 40
0.5101060000000001
 50
88.954573999999994
 51
108.22127500000001
  0
ARC
  5
1FC
  8
_________1
 62
     7
 10
140.91087200000001
 20
89.218693999999999
 30
0.0
 40
0.260497
 50
106.61309900000001
 51
168.977317
  0
ARC
  5
1FD
  8
_________1
 62
     7
 10
141.01739699999999
 20
89.005015
 30
0.0
 40
0.488949
 50
71.360592000000011
 51
91.428919999999977
  0
ARC
  5
1FE
  8
_________1
 62
     7
 10
141.10049000000001
 20
89.219431999999983
 30
0.0
 40
0.259421
 50
10.902926000000001
 51
73.614933999999991
  0
ARC
  5
1FF
  8
_________1
 62
     7
 10
142.08154300000001
 20
86.988162000000017
 30
0.0
 40
2.5057869999999989
 50
84.265468999999996
 51
90.600594999999984
  0
ARC
  5
200
  8
_________1
 62
     7
 10
142.19725500000001
 20
88.249836000000016
 30
0.0
 40
1.238912999999999
 50
78.175803999999999
 51
83.759895000000014
  0
ARC
  5
201
  8
_________1
 62
     7
 10
142.300228
 20
88.765711999999979
 30
0.0
 40
0.7129
 50
69.992789999999999
 51
77.780358000000007
  0
ARC
  5
202
  8
_________1
 62
     7
 10
142.42969099999999
 20
89.073931000000002
 30
0.0
 40
0.379334
 50
30.858712000000011
 51
72.439830000000001
  0
ARC
  5
203
  8
_________1
 62
     7
 10
142.029189
 20
86.97720799999999
 30
0.0
 40
2.5167389999999989
 50
89.406070999999983
 51
95.721448999999993
  0
ARC
  5
204
  8
_________1
 62
     7
 10
141.923767
 20
88.181804000000014
 30
0.0
 40
1.3077219999999989
 50
96.387101999999999
 51
101.677159
  0
ARC
  5
205
  8
_________1
 62
     7
 10
141.811217
 20
88.761431999999985
 30
0.0
 40
0.717345
 50
102.24378900000001
 51
109.983024
  0
ARC
  5
206
  8
_________1
 62
     7
 10
141.67766700000001
 20
89.078198999999984
 30
0.0
 40
0.374408
 50
107.34134400000001
 51
149.45112700000001
  0
ARC
  5
207
  8
_________1
 62
     7
 10
143.09570400000001
 20
88.985897999999992
 30
0.0
 40
0.507999
 50
88.951019999999986
 51
108.259428
  0
ARC
  5
208
  8
_________1
 62
     7
 10
143.01055500000001
 20
89.219111999999996
 30
0.0
 40
0.259965
 50
106.542163
 51
169.04825299999999
  0
ARC
  5
209
  8
_________1
 62
     7
 10
143.11749399999999
 20
89.004869999999997
 30
0.0
 40
0.4891
 50
71.360771
 51
91.463340000000017
  0
ARC
  5
20A
  8
_________1
 62
     7
 10
143.19902099999999
 20
89.217966999999987
 30
0.0
 40
0.261284
 50
11.151536
 51
73.366324000000006
  0
ARC
  5
20B
  8
_________1
 62
     7
 10
140.996793
 20
88.559363000000005
 30
0.0
 40
0.516015
 50
251.89007599999991
 51
270.93407400000001
  0
ARC
  5
20C
  8
_________1
 62
     7
 10
140.91007099999999
 20
88.317807999999999
 30
0.0
 40
0.259573
 50
190.89915300000001
 51
253.51043100000001
  0
ARC
  5
20D
  8
_________1
 62
     7
 10
141.01432700000001
 20
88.552505000000025
 30
0.0
 40
0.5091700000000001
 50
268.97346499999998
 51
288.23702400000002
  0
ARC
  5
20E
  8
_________1
 62
     7
 10
141.09949599999999
 20
88.318700000000007
 30
0.0
 40
0.260569
 50
286.53882900000002
 51
348.94331099999999
  0
ARC
  5
20F
  8
_________1
 62
     7
 10
142.08130700000001
 20
90.554321000000002
 30
0.0
 40
2.5110389999999989
 50
269.40603800000002
 51
275.72789899999998
  0
ARC
  5
210
  8
_________1
 62
     7
 10
142.200299
 20
89.246938
 30
0.0
 40
1.1983680000000001
 50
276.30569700000001
 51
282.08148499999999
  0
ARC
  5
211
  8
_________1
 62
     7
 10
142.31827200000001
 20
88.717291000000003
 30
0.0
 40
0.655776
 50
281.68797599999999
 51
290.14677
  0
ARC
  5
212
  8
_________1
 62
     7
 10
142.432209
 20
88.460113000000007
 30
0.0
 40
0.375542
 50
287.34034500000001
 51
329.36111199999999
  0
ARC
  5
213
  8
_________1
 62
     7
 10
142.02872500000001
 20
90.549662999999995
 30
0.0
 40
2.5063869999999988
 50
264.2654970000001
 51
270.60698300000001
  0
ARC
  5
214
  8
_________1
 62
     7
 10
141.89561699999999
 20
89.158629999999988
 30
0.0
 40
1.1090349999999991
 50
257.68569000000002
 51
263.927167
  0
ARC
  5
215
  8
_________1
 62
     7
 10
141.80714900000001
 20
88.770634999999999
 30
0.0
 40
0.711108
 50
250.182875
 51
257.98241899999999
  0
ARC
  5
216
  8
_________1
 62
     7
 10
141.67848599999999
 20
88.460061999999994
 30
0.0
 40
0.375639
 50
210.62111400000001
 51
252.58641499999999
  0
ARC
  5
217
  8
_________1
 62
     7
 10
143.09618699999999
 20
88.554524000000001
 30
0.0
 40
0.5111830000000001
 50
251.801275
 51
270.98827699999998
  0
ARC
  5
218
  8
_________1
 62
     7
 10
143.01021499999999
 20
88.317807999999999
 30
0.0
 40
0.259573
 50
190.89915300000001
 51
253.51043100000001
  0
ARC
  5
219
  8
_________1
 62
     7
 10
143.11431200000001
 20
88.553423999999993
 30
0.0
 40
0.5100920000000001
 50
268.95432799999998
 51
288.22156100000001
  0
ARC
  5
21A
  8
_________1
 62
     7
 10
143.19917699999999
 20
88.319118999999986
 30
0.0
 40
0.261103
 50
286.60978000000011
 51
348.87236000000001
  0
ENDBLK
  5
21B
  8
_________1
  0
BLOCK
  8
_________1
  2
AIGNBL02010021
 70
     0
 10
0.0
 20
0.0
 30
0.0
  3
AIGNBL02010021
  1

  0
LINE
  5
21E
  8
_________1
 62
     7
 10
94.601900000000001
 20
89.671899999999994
 30
0.0
 11
93.973200000000006
 21
89.671899999999994
 31
0.0
  0
LINE
  5
21F
  8
_________1
 62
     7
 10
94.102000000000004
 20
89.493799999999993
 30
0.0
 11
94.102000000000004
 21
89.671899999999994
 31
0.0
  0
LINE
  5
220
  8
_________1
 62
     7
 10
94.601900000000001
 20
90.032600000000002
 30
0.0
 11
94.405499999999989
 21
90.032600000000002
 31
0.0
  0
LINE
  5
221
  8
_________1
 62
     7
 10
94.249099999999999
 20
90.032600000000002
 30
0.0
 11
93.973200000000006
 21
90.032600000000002
 31
0.0
  0
ARC
  5
222
  8
_________1
 62
     7
 10
93.986771999999988
 20
89.865696999999997
 30
0.0
 40
0.194251
 50
183.9110159999999
 51
265.97956599999998
  0
ARC
  5
223
  8
_________1
 62
     7
 10
93.986418
 20
89.839182999999991
 30
0.0
 40
0.193899
 50
93.922822999999994
 51
176.077147
  0
LINE
  5
224
  8
_________1
 62
     7
 10
94.601900000000001
 20
90.894900000000007
 30
0.0
 11
94.405499999999989
 21
90.894900000000007
 31
0.0
  0
LINE
  5
225
  8
_________1
 62
     7
 10
94.249099999999999
 20
90.894900000000007
 30
0.0
 11
93.973200000000006
 21
90.894900000000007
 31
0.0
  0
LINE
  5
226
  8
_________1
 62
     7
 10
94.249099999999999
 20
90.894900000000007
 30
0.0
 11
94.249099999999999
 21
90.032600000000002
 31
0.0
  0
LINE
  5
227
  8
_________1
 62
     7
 10
94.405499999999989
 20
90.894900000000007
 30
0.0
 11
94.405499999999989
 21
90.032600000000002
 31
0.0
  0
LINE
  5
228
  8
_________1
 62
     7
 10
93.973200000000006
 20
90.894900000000007
 30
0.0
 11
93.863900000000001
 21
91.004499999999993
 31
0.0
  0
LINE
  5
229
  8
_________1
 62
     7
 10
93.973200000000006
 20
90.894900000000007
 30
0.0
 11
93.973200000000006
 21
90.032600000000002
 31
0.0
  0
LINE
  5
22A
  8
_________1
 62
     7
 10
93.863900000000001
 20
91.680099999999996
 30
0.0
 11
94.601900000000001
 21
91.680099999999996
 31
0.0
  0
LINE
  5
22B
  8
_________1
 62
     7
 10
93.863900000000001
 20
91.680099999999996
 30
0.0
 11
93.863900000000001
 21
91.004499999999993
 31
0.0
  0
LINE
  5
22C
  8
_________1
 62
     7
 10
94.601900000000001
 20
89.671899999999994
 30
0.0
 11
95.231000000000009
 21
89.671899999999994
 31
0.0
  0
LINE
  5
22D
  8
_________1
 62
     7
 10
95.102099999999979
 20
89.493799999999993
 30
0.0
 11
95.102099999999979
 21
89.671899999999994
 31
0.0
  0
LINE
  5
22E
  8
_________1
 62
     7
 10
94.601900000000001
 20
90.032600000000002
 30
0.0
 11
94.798599999999993
 21
90.032600000000002
 31
0.0
  0
LINE
  5
22F
  8
_________1
 62
     7
 10
94.954700000000003
 20
90.032600000000002
 30
0.0
 11
95.231000000000009
 21
90.032600000000002
 31
0.0
  0
ARC
  5
230
  8
_________1
 62
     7
 10
95.217723000000007
 20
89.839181000000025
 30
0.0
 40
0.193876
 50
3.9238339999999989
 51
86.185603999999984
  0
ARC
  5
231
  8
_________1
 62
     7
 10
95.216893999999996
 20
89.866174000000001
 30
0.0
 40
0.194735
 50
274.04195099999998
 51
355.95805899999999
  0
LINE
  5
232
  8
_________1
 62
     7
 10
94.601900000000001
 20
90.894900000000007
 30
0.0
 11
94.798599999999993
 21
90.894900000000007
 31
0.0
  0
LINE
  5
233
  8
_________1
 62
     7
 10
94.954700000000003
 20
90.894900000000007
 30
0.0
 11
95.231000000000009
 21
90.894900000000007
 31
0.0
  0
LINE
  5
234
  8
_________1
 62
     7
 10
94.954700000000003
 20
90.894900000000007
 30
0.0
 11
94.954700000000003
 21
90.032600000000002
 31
0.0
  0
LINE
  5
235
  8
_________1
 62
     7
 10
94.798599999999993
 20
90.894900000000007
 30
0.0
 11
94.798599999999993
 21
90.032600000000002
 31
0.0
  0
LINE
  5
236
  8
_________1
 62
     7
 10
95.231000000000009
 20
90.894900000000007
 30
0.0
 11
95.340500000000006
 21
91.004499999999993
 31
0.0
  0
LINE
  5
237
  8
_________1
 62
     7
 10
95.231000000000009
 20
90.894900000000007
 30
0.0
 11
95.231000000000009
 21
90.032600000000002
 31
0.0
  0
LINE
  5
238
  8
_________1
 62
     7
 10
95.340500000000006
 20
91.680099999999996
 30
0.0
 11
94.601900000000001
 21
91.680099999999996
 31
0.0
  0
LINE
  5
239
  8
_________1
 62
     7
 10
95.340500000000006
 20
91.680099999999996
 30
0.0
 11
95.340500000000006
 21
91.004499999999993
 31
0.0
  0
LINE
  5
23A
  8
_________1
 62
     7
 10
95.340500000000006
 20
91.680099999999996
 30
0.0
 11
94.601900000000001
 21
91.680099999999996
 31
0.0
  0
LINE
  5
23B
  8
_________1
 62
     7
 10
93.863900000000001
 20
91.680099999999996
 30
0.0
 11
94.601900000000001
 21
91.680099999999996
 31
0.0
  0
LINE
  5
23C
  8
_________1
 62
     7
 10
94.103700000000003
 20
125.044
 30
0.0
 11
94.103700000000003
 21
91.680099999999996
 31
0.0
  0
LINE
  5
23D
  8
_________1
 62
     7
 10
95.100399999999993
 20
125.044
 30
0.0
 11
95.100399999999993
 21
91.680099999999996
 31
0.0
  0
LINE
  5
23E
  8
_________1
 62
     7
 10
93.202100000000016
 20
88.268699999999995
 30
0.0
 11
93.202100000000016
 21
89.268499999999989
 31
0.0
  0
LINE
  5
23F
  8
_________1
 62
     7
 10
93.902199999999993
 20
88.268699999999995
 30
0.0
 11
93.902199999999993
 21
89.268499999999989
 31
0.0
  0
LINE
  5
240
  8
_________1
 62
     7
 10
95.652000000000001
 20
88.043400000000005
 30
0.0
 11
93.552199999999999
 21
88.043400000000005
 31
0.0
  0
LINE
  5
241
  8
_________1
 62
     7
 10
95.652000000000001
 20
89.493799999999993
 30
0.0
 11
93.552199999999999
 21
89.493799999999993
 31
0.0
  0
LINE
  5
242
  8
_________1
 62
     7
 10
95.301900000000003
 20
88.268699999999995
 30
0.0
 11
95.301900000000003
 21
89.268499999999989
 31
0.0
  0
LINE
  5
243
  8
_________1
 62
     7
 10
96.001999999999995
 20
88.268699999999995
 30
0.0
 11
96.001999999999995
 21
89.268499999999989
 31
0.0
  0
ARC
  5
244
  8
_________1
 62
     7
 10
93.542858999999979
 20
88.985897999999992
 30
0.0
 40
0.507999
 50
88.951019999999986
 51
108.259428
  0
ARC
  5
245
  8
_________1
 62
     7
 10
93.457868000000005
 20
89.218528000000006
 30
0.0
 40
0.260569
 50
106.538809
 51
168.94329099999999
  0
ARC
  5
246
  8
_________1
 62
     7
 10
93.564114000000004
 20
89.001324999999994
 30
0.0
 40
0.4926310000000001
 50
71.433553000000003
 51
91.390557999999984
  0
ARC
  5
247
  8
_________1
 62
     7
 10
93.647293000000005
 20
89.219419999999985
 30
0.0
 40
0.259573
 50
10.899133000000001
 51
73.510411000000005
  0
ARC
  5
248
  8
_________1
 62
     7
 10
94.628152999999998
 20
86.988162000000017
 30
0.0
 40
2.5057869999999989
 50
84.265468999999996
 51
90.600594999999984
  0
ARC
  5
249
  8
_________1
 62
     7
 10
94.739482999999993
 20
88.217568000000014
 30
0.0
 40
1.271466999999999
 50
78.265271999999996
 51
83.721630999999988
  0
ARC
  5
24A
  8
_________1
 62
     7
 10
94.847183000000001
 20
88.765711999999979
 30
0.0
 40
0.7129
 50
69.992789999999999
 51
77.780358000000007
  0
ARC
  5
24B
  8
_________1
 62
     7
 10
94.978677000000005
 20
89.077166000000005
 30
0.0
 40
0.375639
 50
30.621093999999999
 51
72.586394999999996
  0
ARC
  5
24C
  8
_________1
 62
     7
 10
94.575855999999987
 20
86.982906999999983
 30
0.0
 40
2.5110389999999989
 50
89.406018000000003
 51
95.727878999999987
  0
ARC
  5
24D
  8
_________1
 62
     7
 10
94.470721999999995
 20
88.181804000000014
 30
0.0
 40
1.3077219999999989
 50
96.387101999999999
 51
101.677159
  0
ARC
  5
24E
  8
_________1
 62
     7
 10
94.358170999999984
 20
88.761431999999985
 30
0.0
 40
0.717345
 50
102.24378900000001
 51
109.983024
  0
ARC
  5
24F
  8
_________1
 62
     7
 10
94.224621999999997
 20
89.078198999999984
 30
0.0
 40
0.374408
 50
107.34134400000001
 51
149.45112700000001
  0
ARC
  5
250
  8
_________1
 62
     7
 10
95.642657999999983
 20
88.985897999999992
 30
0.0
 40
0.507999
 50
88.951019999999986
 51
108.259428
  0
ARC
  5
251
  8
_________1
 62
     7
 10
95.557667000000009
 20
89.218528000000006
 30
0.0
 40
0.260569
 50
106.538809
 51
168.94329099999999
  0
ARC
  5
252
  8
_________1
 62
     7
 10
95.664151000000004
 20
89.005015
 30
0.0
 40
0.488949
 50
71.360592000000011
 51
91.428919999999977
  0
ARC
  5
253
  8
_________1
 62
     7
 10
95.745632000000001
 20
89.217966999999987
 30
0.0
 40
0.261284
 50
11.151536
 51
73.366324000000006
  0
ARC
  5
254
  8
_________1
 62
     7
 10
93.54249200000001
 20
88.548903999999993
 30
0.0
 40
0.5055800000000001
 50
251.69393700000001
 51
271.09561500000001
  0
ARC
  5
255
  8
_________1
 62
     7
 10
93.456872999999987
 20
88.317796000000001
 30
0.0
 40
0.259421
 50
190.90294599999999
 51
253.6149529999999
  0
ARC
  5
256
  8
_________1
 62
     7
 10
93.561148000000003
 20
88.555544999999995
 30
0.0
 40
0.512207
 50
268.99448699999999
 51
288.18140199999999
  0
ARC
  5
257
  8
_________1
 62
     7
 10
93.646491999999995
 20
88.318533999999985
 30
0.0
 40
0.260497
 50
286.61311899999998
 51
348.97733699999998
  0
ARC
  5
258
  8
_________1
 62
     7
 10
94.627820999999997
 20
90.556481000000005
 30
0.0
 40
2.513198
 50
269.40875599999998
 51
275.72518100000002
  0
ARC
  5
259
  8
_________1
 62
     7
 10
94.748159999999999
 20
89.243669999999995
 30
0.0
 40
1.194984
 50
276.26330200000001
 51
282.07179200000002
  0
ARC
  5
25A
  8
_________1
 62
     7
 10
94.865227000000004
 20
88.717291000000003
 30
0.0
 40
0.655776
 50
281.68797599999999
 51
290.14677
  0
ARC
  5
25B
  8
_________1
 62
     7
 10
94.979495999999997
 20
88.459029000000001
 30
0.0
 40
0.374408
 50
287.341363
 51
329.45114700000011
  0
ARC
  5
25C
  8
_________1
 62
     7
 10
94.575620000000015
 20
90.549065999999996
 30
0.0
 40
2.5057869999999989
 50
264.265488
 51
270.600615
  0
ARC
  5
25D
  8
_________1
 62
     7
 10
94.442570999999987
 20
89.158629999999988
 30
0.0
 40
1.1090349999999991
 50
257.68569000000002
 51
263.927167
  0
ARC
  5
25E
  8
_________1
 62
     7
 10
94.345404000000016
 20
88.740131000000005
 30
0.0
 40
0.6794640000000002
 50
250.00095400000001
 51
258.16433899999998
  0
ARC
  5
25F
  8
_________1
 62
     7
 10
94.222770999999995
 20
88.456693000000001
 30
0.0
 40
0.371628
 50
210.383802
 51
252.82372799999999
  0
ARC
  5
260
  8
_________1
 62
     7
 10
95.642291
 20
88.548903999999993
 30
0.0
 40
0.5055800000000001
 50
251.69393700000001
 51
271.09561500000001
  0
ARC
  5
261
  8
_________1
 62
     7
 10
95.558284999999998
 20
88.319260999999997
 30
0.0
 40
0.261284
 50
191.151556
 51
253.366344
  0
ARC
  5
262
  8
_________1
 62
     7
 10
95.661079999999984
 20
88.552505000000025
 30
0.0
 40
0.5091700000000001
 50
268.97346499999998
 51
288.23702400000002
  0
ARC
  5
263
  8
_________1
 62
     7
 10
95.746250000000003
 20
88.318700000000007
 30
0.0
 40
0.260569
 50
286.53882900000002
 51
348.94331099999999
  0
ENDBLK
  5
264
  8
_________1
  0
BLOCK
  8
_________2
  2
AIGNBL03010002
 70
     0
 10
0.0
 20
0.0
 30
0.0
  3
AIGNBL03010002
  1

  0
LINE
  5
267
  8
_________2
 62
     7
 10
81.679900000000004
 20
51.324300000000001
 30
0.0
 11
79.493700000000004
 21
51.324300000000001
 31
0.0
  0
LINE
  5
268
  8
_________2
 62
     7
 10
82.172600000000017
 20
51.324300000000001
 30
0.0
 11
81.920400000000001
 21
51.324300000000001
 31
0.0
  0
LINE
  5
269
  8
_________2
 62
     7
 10
82.665199999999984
 20
51.324300000000001
 30
0.0
 11
85.590100000000007
 21
51.324300000000001
 31
0.0
  0
LINE
  5
26A
  8
_________2
 62
     7
 10
82.172600000000017
 20
51.324300000000001
 30
0.0
 11
82.424800000000005
 21
51.324300000000001
 31
0.0
  0
LINE
  5
26B
  8
_________2
 62
     7
 10
75.776399999999995
 20
51.324300000000001
 30
0.0
 11
73.589399999999998
 21
51.324300000000001
 31
0.0
  0
LINE
  5
26C
  8
_________2
 62
     7
 10
76.2684
 20
51.324300000000001
 30
0.0
 11
76.016900000000007
 21
51.324300000000001
 31
0.0
  0
LINE
  5
26D
  8
_________2
 62
     7
 10
76.2684
 20
51.817
 30
0.0
 11
76.2684
 21
54.003900000000002
 31
0.0
  0
LINE
  5
26E
  8
_________2
 62
     7
 10
76.2684
 20
51.324300000000001
 30
0.0
 11
76.2684
 21
51.576500000000003
 31
0.0
  0
LINE
  5
26F
  8
_________2
 62
     7
 10
76.76100000000001
 20
51.324300000000001
 30
0.0
 11
78.947999999999993
 21
51.324300000000001
 31
0.0
  0
LINE
  5
270
  8
_________2
 62
     7
 10
76.2684
 20
51.324300000000001
 30
0.0
 11
76.520499999999998
 21
51.324300000000001
 31
0.0
  0
LINE
  5
271
  8
_________2
 62
     7
 10
76.2684
 20
50.832399999999993
 30
0.0
 11
76.2684
 21
48.645400000000002
 31
0.0
  0
LINE
  5
272
  8
_________2
 62
     7
 10
76.2684
 20
51.324300000000001
 30
0.0
 11
76.2684
 21
51.072800000000001
 31
0.0
  0
LINE
  5
273
  8
_________2
 62
     7
 10
79.979399999999984
 20
50.104799999999997
 30
0.0
 11
85.157399999999996
 21
49.240000000000002
 31
0.0
  0
LINE
  5
274
  8
_________2
 62
     7
 10
79.979399999999984
 20
52.543900000000001
 30
0.0
 11
85.157399999999996
 21
53.409300000000002
 31
0.0
  0
LINE
  5
275
  8
_________2
 62
     7
 10
85.157399999999996
 20
49.240000000000002
 30
0.0
 11
85.157399999999996
 21
53.409300000000002
 31
0.0
  0
LINE
  5
276
  8
_________2
 62
     7
 10
79.979399999999984
 20
50.104799999999997
 30
0.0
 11
79.979399999999984
 21
52.543900000000001
 31
0.0
  0
ARC
  5
277
  8
_________2
 62
     7
 10
76.222110000000001
 20
51.277366999999991
 30
0.0
 40
1.2673709999999989
 50
2.1232950000000002
 51
87.909056000000007
  0
ARC
  5
278
  8
_________2
 62
     7
 10
76.315273000000005
 20
51.277400999999998
 30
0.0
 40
1.267363
 50
92.121785999999986
 51
177.878185
  0
ARC
  5
279
  8
_________2
 62
     7
 10
76.315273000000005
 20
51.371245999999992
 30
0.0
 40
1.267363
 50
182.121815
 51
267.87821400000001
  0
ARC
  5
27A
  8
_________2
 62
     7
 10
76.221461000000005
 20
51.371928999999987
 30
0.0
 40
1.2680439999999991
 50
272.11916400000001
 51
357.84848499999998
  0
ARC
  5
27B
  8
_________2
 62
     7
 10
76.268349999999984
 20
51.324323
 30
0.0
 40
2.0849849999999992
 50
0.00001
 51
89.999980000000008
  0
ARC
  5
27C
  8
_________2
 62
     7
 10
76.348388
 20
51.245001999999992
 30
0.0
 40
2.1657860000000002
 50
92.117855000000034
 51
177.90105299999999
  0
ARC
  5
27D
  8
_________2
 62
     7
 10
76.348354
 20
51.404327000000002
 30
0.0
 40
2.1657779999999991
 50
182.11700400000001
 51
267.88302499999998
  0
ARC
  5
27E
  8
_________2
 62
     7
 10
76.188378999999983
 20
51.405009999999997
 30
0.0
 40
2.1664590000000001
 50
272.11546800000002
 51
357.86560400000002
  0
ENDBLK
  5
27F
  8
_________2
  0
ENDSEC
  0
SECTION
  2
ENTITIES
  0
TEXT
  5
280
  8
____
 62
     7
 10
56.992899999999999
 20
223.018
 30
0.0
 40
3.0923400000000001
  1
%%c46
 41
0.5
  0
TEXT
  5
281
  8
____
 62
     7
 10
81.211034999999995
 20
189.65000000000001
 30
0.0
 40
3.0923400000000001
  1
158
 41
0.5
 72
     1
 11
83.014899999999983
 21
189.65000000000001
 31
0.0
  0
TEXT
  5
282
  8
____
 62
     7
 10
65.411034999999998
 20
189.65000000000001
 30
0.0
 40
3.0923400000000001
  1
158
 41
0.5
 72
     1
 11
67.2149
 21
189.65000000000001
 31
0.0
  0
TEXT
  5
283
  8
____
 62
     7
 10
96.961134999999999
 20
183.727
 30
0.0
 40
3.0923400000000001
  1
157
 41
0.5
 72
     1
 11
98.765000000000001
 21
183.727
 31
0.0
  0
TEXT
  5
284
  8
____
 62
     7
 10
75.182487500000008
 20
177.69900000000001
 30
0.0
 40
3.0923400000000001
  1
590
 41
0.5
 72
     1
 11
77.115200000000002
 21
177.69900000000001
 31
0.0
  0
TEXT
  5
285
  8
____
 62
     7
 10
73.311035000000004
 20
183.727
 30
0.0
 40
3.0923400000000001
  1
316
 41
0.5
 72
     1
 11
75.114900000000006
 21
183.727
 31
0.0
  0
TEXT
  5
286
  8
____
 62
     7
 10
51.918629999999993
 20
183.727
 30
0.0
 40
3.0923400000000001
  1
117
 41
0.5
 72
     1
 11
53.46479999999999
 21
183.727
 31
0.0
  0
TEXT
  5
287
  8
____
 62
     7
 10
41.1357
 20
206.96528749999999
 30
0.0
 40
3.0923400000000001
  1
202
 50
90.0
 41
0.5
 72
     1
 11
41.1357
 21
208.898
 31
0.0
  0
TEXT
  5
288
  8
____
 62
     7
 10
35.073999999999998
 20
206.96528749999999
 30
0.0
 40
3.0923400000000001
  1
250
 50
90.0
 41
0.5
 72
     1
 11
35.073999999999998
 21
208.898
 31
0.0
  0
TEXT
  5
289
  8
____
 62
     7
 10
112.908
 20
190.93599999999989
 30
0.0
 40
3.0923400000000001
  1
18
 50
90.0
 41
0.5
  0
TEXT
  5
28A
  8
____
 62
     7
 10
59.303539999999998
 20
242.738
 30
0.0
 40
3.0923400000000001
  1
275
 41
0.5
 72
     1
 11
61.365099999999998
 21
242.738
 31
0.0
  0
TEXT
  5
28B
  8
____
 62
     7
 10
89.061134999999993
 20
242.738
 30
0.0
 40
3.0923400000000001
  1
315
 41
0.5
 72
     1
 11
90.864999999999995
 21
242.738
 31
0.0
  0
TEXT
  5
28C
  8
____
 62
     7
 10
85.006500000000003
 20
237.596
 30
0.0
 40
3.0923400000000001
  1
37
 41
0.5
  0
TEXT
  5
28D
  8
____
 62
     7
 10
98.939982499999999
 20
237.74700000000001
 30
0.0
 40
3.0923400000000001
  1
120
 41
0.5
 72
     1
 11
100.61499999999999
 21
237.74700000000001
 31
0.0
  0
TEXT
  5
28E
  8
____
 62
     7
 10
110.53444
 20
229.46700000000001
 30
0.0
 40
3.0923400000000001
  1
18
 41
0.5
 72
     2
 11
112.596
 21
229.46700000000001
 31
0.0
  0
TEXT
  5
28F
  8
____
 62
     7
 10
82.773925000000006
 20
232.238
 30
0.0
 40
3.0923400000000001
  1
70（ブラケット取付範囲）
 41
0.5
 72
     2
 11
104.678
 21
232.238
 31
0.0
  0
TEXT
  5
290
  8
____
 62
     7
 10
49.433962500000007
 20
233.13200000000001
 30
0.0
 40
3.0923400000000001
  1
70（ブラケット取付範囲）
 41
0.5
 72
     1
 11
60.386000000000003
 21
233.13200000000001
 31
0.0
  0
TEXT
  5
291
  8
____
 62
     7
 10
41.176400000000001
 20
229.46700000000001
 30
0.0
 40
3.0923400000000001
  1
18
 41
0.5
  0
TEXT
  5
292
  8
____
 62
     7
 10
53.843699999999998
 20
134.8813725
 30
0.0
 40
3.0923400000000001
  1
60
 50
90.0
 41
0.5
 72
     1
 11
53.843699999999998
 21
136.041
 31
0.0
  0
TEXT
  5
293
  8
____
 62
     7
 10
39.808999999999997
 20
135.55452500000001
 30
0.0
 40
3.0923400000000001
  1
76
 50
90.0
 41
0.5
 72
     1
 11
39.808999999999997
 21
136.84299999999999
 31
0.0
  0
TEXT
  5
294
  8
____
 62
     7
 10
39.808999999999997
 20
127.88337249999999
 30
0.0
 40
3.0923400000000001
  1
80
 50
90.0
 41
0.5
 72
     1
 11
39.808999999999997
 21
129.04300000000001
 31
0.0
  0
TEXT
  5
295
  8
____
 62
     7
 10
73.231499999999997
 20
139.93398250000001
 30
0.0
 40
3.0923400000000001
  1
150
 50
90.0
 41
0.5
 72
     1
 11
73.231499999999997
 21
141.60900000000001
 31
0.0
  0
TEXT
  5
296
  8
____
 62
     7
 10
68.071700000000007
 20
140.30713499999999
 30
0.0
 40
3.0923400000000001
  1
153
 50
90.0
 41
0.5
 72
     1
 11
68.071700000000007
 21
142.11099999999999
 31
0.0
  0
TEXT
  5
297
  8
____
 62
     7
 10
80.193200000000004
 20
139.72499999999999
 30
0.0
 40
3.0923400000000001
  1
18ﾟ
 41
0.5
  0
TEXT
  5
298
  8
____
 62
     7
 10
71.793582999999998
 20
108.93000000000001
 30
0.0
 40
3.0923400000000001
  1
444～524
 41
0.5
 72
     1
 11
77.102099999999993
 21
108.93000000000001
 31
0.0
  0
TEXT
  5
299
  8
____
 62
     7
 10
60.205100000000002
 20
119.733
 30
0.0
 40
3.0923400000000001
  1
G 1 1/4
 41
0.5
  0
TEXT
  5
29A
  8
____
 62
     7
 10
83.472399999999993
 20
83.183400000000006
 30
0.0
 40
3.0923400000000001
  1
G1/2
 41
0.5
  0
TEXT
  5
29B
  8
____
 62
     7
 10
102.154
 20
149.67400000000001
 30
0.0
 40
3.0923400000000001
  1
水栓
 41
0.5
  0
TEXT
  5
29C
  8
____
 62
     7
 10
102.154
 20
145.809
 30
0.0
 40
3.0923400000000001
  1
取付穴：%%c28
 41
0.5
  0
TEXT
  5
29D
  8
____
 62
     7
 10
96.413624999999996
 20
159.995
 30
0.0
 40
3.0923400000000001
  1
62
 41
0.5
 72
     1
 11
97.702100000000002
 21
159.995
 31
0.0
  0
TEXT
  5
29E
  8
____
 62
     7
 10
87.477082499999995
 20
159.995
 30
0.0
 40
3.0923400000000001
  1
109
 41
0.5
 72
     1
 11
89.152100000000004
 21
159.995
 31
0.0
  0
TEXT
  5
29F
  8
____
 62
     7
 10
111.31999999999999
 20
134.855525
 30
0.0
 40
3.0923400000000001
  1
62
 50
90.0
 41
0.5
 72
     1
 11
111.31999999999999
 21
136.14400000000001
 31
0.0
  0
TEXT
  5
2A0
  8
____
 62
     7
 10
119.464
 20
142.78913499999999
 30
0.0
 40
3.0923400000000001
  1
231
 50
90.0
 41
0.5
 72
     1
 11
119.464
 21
144.59299999999999
 31
0.0
  0
TEXT
  5
2A1
  8
____
 62
     7
 10
119.464
 20
108.6102875
 30
0.0
 40
3.0923400000000001
  1
450
 50
90.0
 41
0.5
 72
     1
 11
119.464
 21
110.54300000000001
 31
0.0
  0
TEXT
  5
2A2
  8
____
 62
     7
 10
134.60298599999999
 20
133.95599999999999
 30
0.0
 40
3.0923400000000001
  1
開
 41
0.5
 72
     2
 11
135.94300000000001
 21
133.95599999999999
 31
0.0
  0
TEXT
  5
2A3
  8
____
 62
     7
 10
138.848986
 20
146.352
 30
0.0
 40
3.0923400000000001
  1
閉
 41
0.5
 72
     2
 11
140.18899999999999
 21
146.352
 31
0.0
  0
TEXT
  5
2A4
  8
____
 62
     7
 10
132.88365300000001
 20
141.36600000000001
 30
0.0
 40
3.0923400000000001
  1
120ﾟ
 41
0.5
 72
     2
 11
136.64599999999999
 21
141.36600000000001
 31
0.0
  0
TEXT
  5
2A5
  8
____
 62
     7
 10
146.501135
 20
81.545599999999993
 30
0.0
 40
3.0923400000000001
  1
125
 41
0.5
 72
     1
 11
148.30500000000001
 21
81.545599999999993
 31
0.0
  0
TEXT
  5
2A6
  8
____
 62
     7
 10
157.57400000000001
 20
110.15300000000001
 30
0.0
 40
3.0923400000000001
  1
%%c5\U+00D735
 41
0.5
  0
TEXT
  5
2A7
  8
____
 62
     7
 10
157.57400000000001
 20
106.288
 30
0.0
 40
3.0923400000000001
  1
トラスタッピングネジ
 41
0.5
  0
TEXT
  5
2A8
  8
____
 62
     7
 10
163.69399999999999
 20
135.86143999999999
 30
0.0
 40
3.0923400000000001
  1
18
 50
90.0
 41
0.5
 72
     2
 11
163.69399999999999
 21
137.923
 31
0.0
  0
TEXT
  5
2A9
  8
____
 62
     7
 10
163.69399999999999
 20
128.5833725
 30
0.0
 40
3.0923400000000001
  1
30
 50
90.0
 41
0.5
 72
     1
 11
163.69399999999999
 21
129.74299999999999
 31
0.0
  0
TEXT
  5
2AA
  8
____
 62
     7
 10
163.69399999999999
 20
125.704525
 30
0.0
 40
3.0923400000000001
  1
25
 50
90.0
 41
0.5
 72
     1
 11
163.69399999999999
 21
126.99299999999999
 31
0.0
  0
TEXT
  5
2AB
  8
____
 62
     7
 10
163.69399999999999
 20
121.5303725
 30
0.0
 40
3.0923400000000001
  1
60
 50
90.0
 41
0.5
 72
     1
 11
163.69399999999999
 21
122.69
 31
0.0
  0
TEXT
  5
2AC
  8
____
 62
     7
 10
170.089
 20
129.354525
 30
0.0
 40
3.0923400000000001
  1
48
 50
90.0
 41
0.5
 72
     1
 11
170.089
 21
130.643
 31
0.0
  0
ARC
  5
2AD
  8
_________1
 62
     7
 10
83.741202999999985
 20
148.526588
 30
0.0
 40
5.2966730000000002
 50
219.54188999999991
 51
269.57463799999999
  0
ARC
  5
2AE
  8
_________1
 62
     7
 10
83.692410999999993
 20
148.47801100000001
 30
0.0
 40
5.2479589999999989
 50
270.10339099999999
 51
302.80952100000002
  0
INSERT
  5
2AF
  8
_________1
 62
     7
  2
AIGNBL02010002
 10
0.0
 20
0.0
 30
0.0
  0
INSERT
  5
2B0
  8
_________1
 62
     7
  2
AIGNBL02010003
 10
0.0
 20
0.0
 30
0.0
  0
LINE
  5
2B1
  8
_________1
 62
     7
 10
75.115300000000005
 20
203.613
 30
0.0
 11
75.115300000000005
 21
188.25
 31
0.0
  0
INSERT
  5
2B2
  8
_________1
 62
     7
  2
AIGNBL02010004
 10
0.0
 20
0.0
 30
0.0
  0
LINE
  5
2B3
  8
_________1
 62
     7
 10
47.615000000000002
 20
195.69800000000001
 30
0.0
 11
47.615000000000002
 21
176.29900000000001
 31
0.0
  0
LINE
  5
2B4
  8
_________1
 62
     7
 10
90.914900000000003
 20
206.68199999999999
 30
0.0
 11
90.914900000000003
 21
182.327
 31
0.0
  0
LINE
  5
2B5
  8
_________1
 62
     7
 10
59.314900000000002
 20
206.68199999999999
 30
0.0
 11
59.314900000000002
 21
182.327
 31
0.0
  0
INSERT
  5
2B6
  8
_________1
 62
     7
  2
AIGNBL02010005
 10
0.0
 20
0.0
 30
0.0
  0
LINE
  5
2B7
  8
_________1
 62
     7
 10
106.61499999999999
 20
195.69800000000001
 30
0.0
 11
106.61499999999999
 21
176.29900000000001
 31
0.0
  0
LINE
  5
2B8
  8
_________1
 62
     7
 10
41.835799999999999
 20
218.99799999999999
 30
0.0
 11
41.835799999999999
 21
198.798
 31
0.0
  0
LINE
  5
2B9
  8
_________1
 62
     7
 10
69.805999999999983
 20
198.798
 30
0.0
 11
41.1357
 21
198.798
 31
0.0
  0
LINE
  5
2BA
  8
_________1
 62
     7
 10
69.805999999999983
 20
218.99799999999999
 30
0.0
 11
41.1357
 21
218.99799999999999
 31
0.0
  0
INSERT
  5
2BB
  8
_________1
 62
     7
  2
AIGNBL02010006
 10
0.0
 20
0.0
 30
0.0
  0
LINE
  5
2BC
  8
_________1
 62
     7
 10
46.914900000000003
 20
196.398
 30
0.0
 11
35.073999999999998
 21
196.398
 31
0.0
  0
LINE
  5
2BD
  8
_________1
 62
     7
 10
46.914900000000003
 20
221.398
 30
0.0
 11
35.073999999999998
 21
221.398
 31
0.0
  0
INSERT
  5
2BE
  8
_________1
 62
     7
  2
AIGNBL02010007
 10
0.0
 20
0.0
 30
0.0
  0
LINE
  5
2BF
  8
_________1
 62
     7
 10
107.315
 20
196.398
 30
0.0
 11
114.30800000000001
 21
196.398
 31
0.0
  0
LINE
  5
2C0
  8
_________1
 62
     7
 10
105.515
 20
198.19800000000001
 30
0.0
 11
114.30800000000001
 21
198.19800000000001
 31
0.0
  0
INSERT
  5
2C1
  8
_________1
 62
     7
  2
AIGNBL02010008
 10
0.0
 20
0.0
 30
0.0
  0
LINE
  5
2C2
  8
_________1
 62
     7
 10
97.815100000000001
 20
222.09800000000001
 30
0.0
 11
97.815100000000001
 21
229.46700000000001
 31
0.0
  0
INSERT
  5
2C3
  8
_________1
 62
     7
  2
AIGNBL02010009
 10
0.0
 20
0.0
 30
0.0
  0
LINE
  5
2C4
  8
_________1
 62
     7
 10
56.415199999999992
 20
222.09800000000001
 30
0.0
 11
56.415199999999992
 21
229.46700000000001
 31
0.0
  0
INSERT
  5
2C5
  8
_________1
 62
     7
  2
AIGNBL0201000A
 10
0.0
 20
0.0
 30
0.0
  0
INSERT
  5
2C6
  8
_________1
 62
     7
  2
AIGNBL0201000B
 10
0.0
 20
0.0
 30
0.0
  0
LINE
  5
2C7
  8
_________1
 62
     7
 10
106.61499999999999
 20
222.09800000000001
 30
0.0
 11
106.61499999999999
 21
242.738
 31
0.0
  0
LINE
  5
2C8
  8
_________1
 62
     7
 10
90.915300000000002
 20
212.51300000000001
 30
0.0
 11
90.915300000000002
 21
231.0
 31
0.0
  0
LINE
  5
2C9
  8
_________1
 62
     7
 10
90.915300000000002
 20
235.61799999999999
 30
0.0
 11
90.915300000000002
 21
237.596
 31
0.0
  0
LINE
  5
2CA
  8
_________1
 62
     7
 10
94.615300000000005
 20
213.34800000000001
 30
0.0
 11
94.615300000000005
 21
231.05199999999999
 31
0.0
  0
LINE
  5
2CB
  8
_________1
 62
     7
 10
94.615300000000005
 20
235.773
 30
0.0
 11
94.615300000000005
 21
237.596
 31
0.0
  0
LINE
  5
2CC
  8
_________1
 62
     7
 10
104.815
 20
222.09800000000001
 30
0.0
 11
104.815
 21
229.46700000000001
 31
0.0
  0
LINE
  5
2CD
  8
_________1
 62
     7
 10
101.23399999999999
 20
228.767
 30
0.0
 11
100.218
 21
231.46700000000001
 31
0.0
  0
LINE
  5
2CE
  8
_________1
 62
     7
 10
53.068800000000003
 20
228.767
 30
0.0
 11
55.320099999999989
 21
232.56899999999999
 31
0.0
  0
LINE
  5
2CF
  8
_________1
 62
     7
 10
49.414999999999999
 20
222.09800000000001
 30
0.0
 11
49.414999999999999
 21
229.46700000000001
 31
0.0
  0
LINE
  5
2D0
  8
_________1
 62
     7
 10
75.115300000000005
 20
214.548
 30
0.0
 11
75.115300000000005
 21
242.738
 31
0.0
  0
LINE
  5
2D1
  8
_________1
 62
     7
 10
47.615000000000002
 20
222.09800000000001
 30
0.0
 11
47.615000000000002
 21
242.738
 31
0.0
  0
LINE
  5
2D2
  8
_________1
 62
     7
 10
55.136299999999999
 20
136.827
 30
0.0
 11
54.543799999999997
 21
139.03899999999999
 31
0.0
  0
LINE
  5
2D3
  8
_________1
 62
     7
 10
54.543799999999997
 20
139.03899999999999
 30
0.0
 11
53.9512
 21
136.827
 31
0.0
  0
LINE
  5
2D4
  8
_________1
 62
     7
 10
53.9512
 20
136.827
 30
0.0
 11
55.136299999999999
 21
136.827
 31
0.0
  0
LINE
  5
2D5
  8
_________1
 62
     7
 10
53.9512
 20
135.255
 30
0.0
 11
54.543799999999997
 21
133.04300000000001
 31
0.0
  0
LINE
  5
2D6
  8
_________1
 62
     7
 10
54.543799999999997
 20
133.04300000000001
 30
0.0
 11
55.136299999999999
 21
135.255
 31
0.0
  0
LINE
  5
2D7
  8
_________1
 62
     7
 10
55.136299999999999
 20
135.255
 30
0.0
 11
53.9512
 21
135.255
 31
0.0
  0
LINE
  5
2D8
  8
_________1
 62
     7
 10
67.997699999999995
 20
139.03899999999999
 30
0.0
 11
53.843699999999998
 21
139.03899999999999
 31
0.0
  0
LINE
  5
2D9
  8
_________1
 62
     7
 10
54.543799999999997
 20
139.03899999999999
 30
0.0
 11
54.543799999999997
 21
133.04300000000001
 31
0.0
  0
LINE
  5
2DA
  8
_________1
 62
     7
 10
41.101599999999991
 20
138.43199999999999
 30
0.0
 11
40.509099999999997
 21
140.643
 31
0.0
  0
LINE
  5
2DB
  8
_________1
 62
     7
 10
40.509099999999997
 20
140.643
 30
0.0
 11
39.916499999999999
 21
138.43199999999999
 31
0.0
  0
LINE
  5
2DC
  8
_________1
 62
     7
 10
39.916499999999999
 20
138.43199999999999
 30
0.0
 11
41.101599999999991
 21
138.43199999999999
 31
0.0
  0
LINE
  5
2DD
  8
_________1
 62
     7
 10
41.101599999999991
 20
130.83199999999999
 30
0.0
 11
40.509099999999997
 21
133.04300000000001
 31
0.0
  0
LINE
  5
2DE
  8
_________1
 62
     7
 10
40.509099999999997
 20
133.04300000000001
 30
0.0
 11
39.916499999999999
 21
130.83199999999999
 31
0.0
  0
LINE
  5
2DF
  8
_________1
 62
     7
 10
39.916499999999999
 20
130.83199999999999
 30
0.0
 11
41.101599999999991
 21
130.83199999999999
 31
0.0
  0
LINE
  5
2E0
  8
_________1
 62
     7
 10
39.916499999999999
 20
135.255
 30
0.0
 11
40.509099999999997
 21
133.04300000000001
 31
0.0
  0
LINE
  5
2E1
  8
_________1
 62
     7
 10
40.509099999999997
 20
133.04300000000001
 30
0.0
 11
41.101599999999991
 21
135.255
 31
0.0
  0
LINE
  5
2E2
  8
_________1
 62
     7
 10
41.101599999999991
 20
135.255
 30
0.0
 11
39.916499999999999
 21
135.255
 31
0.0
  0
LINE
  5
2E3
  8
_________1
 62
     7
 10
39.916499999999999
 20
127.255
 30
0.0
 11
40.509099999999997
 21
125.04300000000001
 31
0.0
  0
LINE
  5
2E4
  8
_________1
 62
     7
 10
40.509099999999997
 20
125.04300000000001
 30
0.0
 11
41.101599999999991
 21
127.255
 31
0.0
  0
LINE
  5
2E5
  8
_________1
 62
     7
 10
41.101599999999991
 20
127.255
 30
0.0
 11
39.916499999999999
 21
127.255
 31
0.0
  0
LINE
  5
2E6
  8
_________1
 62
     7
 10
58.905299999999997
 20
140.643
 30
0.0
 11
39.808999999999997
 21
140.643
 31
0.0
  0
LINE
  5
2E7
  8
_________1
 62
     7
 10
40.509099999999997
 20
140.643
 30
0.0
 11
40.509099999999997
 21
125.04300000000001
 31
0.0
  0
LINE
  5
2E8
  8
_________1
 62
     7
 10
46.914900000000003
 20
125.04300000000001
 30
0.0
 11
39.808999999999997
 21
125.04300000000001
 31
0.0
  0
LINE
  5
2E9
  8
_________1
 62
     7
 10
46.914900000000003
 20
133.04300000000001
 30
0.0
 11
39.808999999999997
 21
133.04300000000001
 31
0.0
  0
INSERT
  5
2EA
  8
_________1
 62
     7
  2
AIGNBL0201000C
 10
0.0
 20
0.0
 30
0.0
  0
INSERT
  5
2EB
  8
_________1
 62
     7
  2
AIGNBL0201000D
 10
0.0
 20
0.0
 30
0.0
  0
LINE
  5
2EC
  8
_________1
  6
AIGENLINE001
 62
     7
 10
84.805999999999997
 20
151.84
 30
0.0
 11
83.376700000000014
 21
147.44300000000001
 31
0.0
  0
LINE
  5
2ED
  8
_________1
 62
     7
 10
73.9315
 20
148.43299999999999
 30
0.0
 11
73.9315
 21
133.03200000000001
 31
0.0
  0
LINE
  5
2EE
  8
_________1
 62
     7
 10
82.817499999999995
 20
148.43299999999999
 30
0.0
 11
73.231499999999997
 21
148.43299999999999
 31
0.0
  0
LINE
  5
2EF
  8
_________1
 62
     7
 10
79.854699999999994
 20
143.97999999999999
 30
0.0
 11
82.090100000000007
 21
143.48500000000001
 31
0.0
  0
LINE
  5
2F0
  8
_________1
 62
     7
 10
82.090100000000007
 20
143.48500000000001
 30
0.0
 11
80.402000000000001
 21
145.03100000000001
 31
0.0
  0
LINE
  5
2F1
  8
_________1
 62
     7
 10
80.402000000000001
 20
145.03100000000001
 30
0.0
 11
79.854699999999994
 21
143.97999999999999
 31
0.0
  0
LINE
  5
2F2
  8
_________1
 62
     7
 10
85.740399999999994
 20
144.273
 30
0.0
 11
83.701899999999995
 21
143.22999999999999
 31
0.0
  0
LINE
  5
2F3
  8
_________1
 62
     7
 10
83.701899999999995
 20
143.22999999999999
 30
0.0
 11
85.987899999999996
 21
143.114
 31
0.0
  0
LINE
  5
2F4
  8
_________1
 62
     7
 10
85.987899999999996
 20
143.114
 30
0.0
 11
85.740399999999994
 21
144.273
 31
0.0
  0
LINE
  5
2F5
  8
_________1
 62
     7
 10
74.524100000000004
 20
146.221
 30
0.0
 11
73.9315
 21
148.43299999999999
 31
0.0
  0
LINE
  5
2F6
  8
_________1
 62
     7
 10
73.9315
 20
148.43299999999999
 30
0.0
 11
73.338999999999984
 21
146.221
 31
0.0
  0
LINE
  5
2F7
  8
_________1
 62
     7
 10
73.338999999999984
 20
146.221
 30
0.0
 11
74.524100000000004
 21
146.221
 31
0.0
  0
LINE
  5
2F8
  8
_________1
 62
     7
 10
73.338999999999984
 20
135.244
 30
0.0
 11
73.9315
 21
133.03200000000001
 31
0.0
  0
LINE
  5
2F9
  8
_________1
 62
     7
 10
73.9315
 20
133.03200000000001
 30
0.0
 11
74.524100000000004
 21
135.244
 31
0.0
  0
LINE
  5
2FA
  8
_________1
 62
     7
 10
74.524100000000004
 20
135.244
 30
0.0
 11
73.338999999999984
 21
135.244
 31
0.0
  0
LINE
  5
2FB
  8
_________1
 62
     7
 10
68.771799999999999
 20
148.726
 30
0.0
 11
68.771799999999999
 21
133.03200000000001
 31
0.0
  0
LINE
  5
2FC
  8
_________1
 62
     7
 10
82.050999999999988
 20
148.726
 30
0.0
 11
68.071700000000007
 21
148.726
 31
0.0
  0
LINE
  5
2FD
  8
_________1
 62
     7
 10
69.3643
 20
146.51499999999999
 30
0.0
 11
68.771799999999999
 21
148.726
 31
0.0
  0
LINE
  5
2FE
  8
_________1
 62
     7
 10
68.771799999999999
 20
148.726
 30
0.0
 11
68.179199999999994
 21
146.51499999999999
 31
0.0
  0
LINE
  5
2FF
  8
_________1
 62
     7
 10
68.179199999999994
 20
146.51499999999999
 30
0.0
 11
69.3643
 21
146.51499999999999
 31
0.0
  0
LINE
  5
300
  8
_________1
 62
     7
 10
68.179199999999994
 20
135.244
 30
0.0
 11
68.771799999999999
 21
133.03200000000001
 31
0.0
  0
LINE
  5
301
  8
_________1
 62
     7
 10
68.771799999999999
 20
133.03200000000001
 30
0.0
 11
69.3643
 21
135.244
 31
0.0
  0
LINE
  5
302
  8
_________1
 62
     7
 10
69.3643
 20
135.244
 30
0.0
 11
68.179199999999994
 21
135.244
 31
0.0
  0
INSERT
  5
303
  8
_________1
 62
     7
  2
AIGNBL0201000E
 10
0.0
 20
0.0
 30
0.0
  0
LINE
  5
304
  8
_________1
 62
     7
 10
103.30200000000001
 20
114.876
 30
0.0
 11
103.30200000000001
 21
107.53
 31
0.0
  0
LINE
  5
305
  8
_________1
 62
     7
 10
50.902000000000001
 20
114.876
 30
0.0
 11
50.902000000000001
 21
107.53
 31
0.0
  0
INSERT
  5
306
  8
_________1
 62
     7
  2
AIGNBL0201000F
 10
0.0
 20
0.0
 30
0.0
  0
INSERT
  5
307
  8
_________1
 62
     7
  2
AIGNBL02010011
 10
0.0
 20
0.0
 30
0.0
  0
INSERT
  5
308
  8
_________1
 62
     7
  2
AIGNBL02010013
 10
0.0
 20
0.0
 30
0.0
  0
LINE
  5
309
  8
_________1
  6
AIGENLINE001
 62
     7
 10
94.602199999999996
 20
139.244
 30
0.0
 11
103.899
 21
139.244
 31
0.0
  0
LINE
  5
30A
  8
_________1
 62
     7
 10
100.80200000000001
 20
143.977
 30
0.0
 11
100.80200000000001
 21
159.995
 31
0.0
  0
INSERT
  5
30B
  8
_________1
 62
     7
  2
AIGNBL02010014
 10
0.0
 20
0.0
 30
0.0
  0
LINE
  5
30C
  8
_________1
 62
     7
 10
94.602199999999996
 20
159.995
 30
0.0
 11
94.602199999999996
 21
152.05500000000001
 31
0.0
  0
LINE
  5
30D
  8
_________1
 62
     7
 10
83.701899999999995
 20
159.995
 30
0.0
 11
83.701899999999995
 21
149.227
 31
0.0
  0
INSERT
  5
30E
  8
_________1
 62
     7
  2
AIGNBL02010015
 10
0.0
 20
0.0
 30
0.0
  0
LINE
  5
30F
  8
_________1
 62
     7
 10
112.61199999999999
 20
137.03200000000001
 30
0.0
 11
112.02
 21
139.244
 31
0.0
  0
LINE
  5
310
  8
_________1
 62
     7
 10
112.02
 20
139.244
 30
0.0
 11
111.42700000000001
 21
137.03200000000001
 31
0.0
  0
LINE
  5
311
  8
_________1
 62
     7
 10
111.42700000000001
 20
137.03200000000001
 30
0.0
 11
112.61199999999999
 21
137.03200000000001
 31
0.0
  0
LINE
  5
312
  8
_________1
 62
     7
 10
111.42700000000001
 20
135.24000000000001
 30
0.0
 11
112.02
 21
133.029
 31
0.0
  0
LINE
  5
313
  8
_________1
 62
     7
 10
112.02
 20
133.029
 30
0.0
 11
112.61199999999999
 21
135.24000000000001
 31
0.0
  0
LINE
  5
314
  8
_________1
 62
     7
 10
112.61199999999999
 20
135.24000000000001
 30
0.0
 11
111.42700000000001
 21
135.24000000000001
 31
0.0
  0
LINE
  5
315
  8
_________1
 62
     7
 10
120.75700000000001
 20
130.83199999999999
 30
0.0
 11
120.164
 21
133.04300000000001
 31
0.0
  0
LINE
  5
316
  8
_________1
 62
     7
 10
120.164
 20
133.04300000000001
 30
0.0
 11
119.571
 21
130.83199999999999
 31
0.0
  0
LINE
  5
317
  8
_________1
 62
     7
 10
119.571
 20
130.83199999999999
 30
0.0
 11
120.75700000000001
 21
130.83199999999999
 31
0.0
  0
LINE
  5
318
  8
_________1
 62
     7
 10
119.571
 20
90.254799999999989
 30
0.0
 11
120.164
 21
88.043099999999995
 31
0.0
  0
LINE
  5
319
  8
_________1
 62
     7
 10
120.164
 20
88.043099999999995
 30
0.0
 11
120.75700000000001
 21
90.254799999999989
 31
0.0
  0
LINE
  5
31A
  8
_________1
 62
     7
 10
120.75700000000001
 20
90.254799999999989
 30
0.0
 11
119.571
 21
90.254799999999989
 31
0.0
  0
LINE
  5
31B
  8
_________1
 62
     7
 10
120.75700000000001
 20
153.93199999999999
 30
0.0
 11
120.164
 21
156.14400000000001
 31
0.0
  0
LINE
  5
31C
  8
_________1
 62
     7
 10
120.164
 20
156.14400000000001
 30
0.0
 11
119.571
 21
153.93199999999999
 31
0.0
  0
LINE
  5
31D
  8
_________1
 62
     7
 10
119.571
 20
153.93199999999999
 30
0.0
 11
120.75700000000001
 21
153.93199999999999
 31
0.0
  0
LINE
  5
31E
  8
_________1
 62
     7
 10
119.571
 20
135.255
 30
0.0
 11
120.164
 21
133.04300000000001
 31
0.0
  0
LINE
  5
31F
  8
_________1
 62
     7
 10
120.164
 20
133.04300000000001
 30
0.0
 11
120.75700000000001
 21
135.255
 31
0.0
  0
LINE
  5
320
  8
_________1
 62
     7
 10
120.75700000000001
 20
135.255
 30
0.0
 11
119.571
 21
135.255
 31
0.0
  0
LINE
  5
321
  8
_________1
 62
     7
 10
112.02
 20
139.244
 30
0.0
 11
112.02
 21
133.029
 31
0.0
  0
LINE
  5
322
  8
_________1
 62
     7
 10
120.164
 20
156.14400000000001
 30
0.0
 11
120.164
 21
88.043099999999995
 31
0.0
  0
LINE
  5
323
  8
_________1
 62
     7
 10
96.859499999999997
 20
88.043099999999995
 30
0.0
 11
120.864
 21
88.043099999999995
 31
0.0
  0
LINE
  5
324
  8
_________1
 62
     7
 10
104.599
 20
139.244
 30
0.0
 11
112.72
 21
139.244
 31
0.0
  0
LINE
  5
325
  8
_________1
 62
     7
 10
107.30200000000001
 20
133.04300000000001
 30
0.0
 11
120.864
 21
133.04300000000001
 31
0.0
  0
LINE
  5
326
  8
_________1
 62
     7
 10
92.603399999999993
 20
156.14400000000001
 30
0.0
 11
120.864
 21
156.14400000000001
 31
0.0
  0
ARC
  5
327
  8
_________1
 62
     7
 10
142.066362
 20
139.243753
 30
0.0
 40
6.0813829999999989
 50
180.003615
 51
209.928898
  0
ARC
  5
328
  8
_________1
 62
     7
 10
142.055105
 20
139.24319800000001
 30
0.0
 40
6.0701249999999991
 50
89.998373999999998
 51
179.998344
  0
LINE
  5
329
  8
_________1
 62
     7
 10
142.05500000000001
 20
139.24299999999999
 30
0.0
 11
136.32599999999999
 21
135.93600000000001
 31
0.0
  0
LINE
  5
32A
  8
_________1
 62
     7
 10
135.42699999999999
 20
138.04400000000001
 30
0.0
 11
136.79599999999999
 21
136.21000000000001
 31
0.0
  0
LINE
  5
32B
  8
_________1
 62
     7
 10
136.79599999999999
 20
136.21000000000001
 30
0.0
 11
136.52699999999999
 21
138.483
 31
0.0
  0
LINE
  5
32C
  8
_________1
 62
     7
 10
136.52699999999999
 20
138.483
 30
0.0
 11
135.42699999999999
 21
138.04400000000001
 31
0.0
  0
LINE
  5
32D
  8
_________1
 62
     7
 10
139.922
 20
144.482
 30
0.0
 11
142.05500000000001
 21
145.31399999999999
 31
0.0
  0
LINE
  5
32E
  8
_________1
 62
     7
 10
142.05500000000001
 20
145.31399999999999
 30
0.0
 11
139.792
 21
145.66
 31
0.0
  0
LINE
  5
32F
  8
_________1
 62
     7
 10
139.792
 20
145.66
 30
0.0
 11
139.922
 21
144.482
 31
0.0
  0
INSERT
  5
330
  8
_________1
 62
     7
  2
AIGNBL02010017
 10
0.0
 20
0.0
 30
0.0
  0
LINE
  5
331
  8
_________1
 62
     7
 10
154.55500000000001
 20
116.54300000000001
 30
0.0
 11
154.55500000000001
 21
80.145499999999984
 31
0.0
  0
LINE
  5
332
  8
_________1
 62
     7
 10
142.05500000000001
 20
86.481099999999998
 30
0.0
 11
142.05500000000001
 21
80.145499999999984
 31
0.0
  0
INSERT
  5
333
  8
_________1
 62
     7
  2
AIGNBL02010018
 10
0.0
 20
0.0
 30
0.0
  0
ARC
  5
334
  8
_________1
 62
     7
 10
164.40313
 20
131.25145599999999
 30
0.0
 40
0.228644
 50
182.175712
 51
267.82431800000001
  0
ARC
  5
335
  8
_________1
 62
     7
 10
164.38577000000001
 20
131.25145599999999
 30
0.0
 40
0.228644
 50
272.175702
 51
357.82430799999997
  0
ARC
  5
336
  8
_________1
 62
     7
 10
164.38577000000001
 20
131.23409599999999
 30
0.0
 40
0.228644
 50
2.1756919999999988
 51
87.824297999999999
  0
ARC
  5
337
  8
_________1
 62
     7
 10
164.40313
 20
131.23409599999999
 30
0.0
 40
0.228644
 50
92.175681999999995
 51
177.824288
  0
ARC
  5
338
  8
_________1
 62
     7
 10
164.40313
 20
128.25179199999999
 30
0.0
 40
0.228644
 50
182.175712
 51
267.82431800000001
  0
ARC
  5
339
  8
_________1
 62
     7
 10
164.38577000000001
 20
128.25179199999999
 30
0.0
 40
0.228644
 50
272.175702
 51
357.82430799999997
  0
ARC
  5
33A
  8
_________1
 62
     7
 10
164.38577000000001
 20
128.234432
 30
0.0
 40
0.228644
 50
2.1756919999999988
 51
87.824297999999999
  0
ARC
  5
33B
  8
_________1
 62
     7
 10
164.40313
 20
128.234432
 30
0.0
 40
0.228644
 50
92.175681999999995
 51
177.824288
  0
LINE
  5
33C
  8
_________1
 62
     7
 10
158.60499999999999
 20
119.74299999999999
 30
0.0
 11
165.09399999999999
 21
119.74299999999999
 31
0.0
  0
LINE
  5
33D
  8
_________1
 62
     7
 10
155.255
 20
131.24299999999999
 30
0.0
 11
165.09399999999999
 21
131.24299999999999
 31
0.0
  0
LINE
  5
33E
  8
_________1
 62
     7
 10
171.381
 20
130.83199999999999
 30
0.0
 11
170.78899999999999
 21
133.04300000000001
 31
0.0
  0
LINE
  5
33F
  8
_________1
 62
     7
 10
170.78899999999999
 20
133.04300000000001
 30
0.0
 11
170.196
 21
130.83199999999999
 31
0.0
  0
LINE
  5
340
  8
_________1
 62
     7
 10
170.196
 20
130.83199999999999
 30
0.0
 11
171.381
 21
130.83199999999999
 31
0.0
  0
LINE
  5
341
  8
_________1
 62
     7
 10
170.196
 20
130.45500000000001
 30
0.0
 11
170.78899999999999
 21
128.24299999999999
 31
0.0
  0
LINE
  5
342
  8
_________1
 62
     7
 10
170.78899999999999
 20
128.24299999999999
 30
0.0
 11
171.381
 21
130.45500000000001
 31
0.0
  0
LINE
  5
343
  8
_________1
 62
     7
 10
171.381
 20
130.45500000000001
 30
0.0
 11
170.196
 21
130.45500000000001
 31
0.0
  0
LINE
  5
344
  8
_________1
 62
     7
 10
170.78899999999999
 20
133.04300000000001
 30
0.0
 11
170.78899999999999
 21
128.24299999999999
 31
0.0
  0
LINE
  5
345
  8
_________1
 62
     7
 10
164.98699999999999
 20
123.532
 30
0.0
 11
164.39400000000001
 21
125.74299999999999
 31
0.0
  0
LINE
  5
346
  8
_________1
 62
     7
 10
164.39400000000001
 20
125.74299999999999
 30
0.0
 11
163.80199999999999
 21
123.532
 31
0.0
  0
LINE
  5
347
  8
_________1
 62
     7
 10
163.80199999999999
 20
123.532
 30
0.0
 11
164.98699999999999
 21
123.532
 31
0.0
  0
LINE
  5
348
  8
_________1
 62
     7
 10
163.80199999999999
 20
135.255
 30
0.0
 11
164.39400000000001
 21
133.04300000000001
 31
0.0
  0
LINE
  5
349
  8
_________1
 62
     7
 10
164.39400000000001
 20
133.04300000000001
 30
0.0
 11
164.98699999999999
 21
135.255
 31
0.0
  0
LINE
  5
34A
  8
_________1
 62
     7
 10
164.98699999999999
 20
135.255
 30
0.0
 11
163.80199999999999
 21
135.255
 31
0.0
  0
LINE
  5
34B
  8
_________1
 62
     7
 10
163.80199999999999
 20
121.95399999999999
 30
0.0
 11
164.39400000000001
 21
119.74299999999999
 31
0.0
  0
LINE
  5
34C
  8
_________1
 62
     7
 10
164.39400000000001
 20
119.74299999999999
 30
0.0
 11
164.98699999999999
 21
121.95399999999999
 31
0.0
  0
LINE
  5
34D
  8
_________1
 62
     7
 10
164.98699999999999
 20
121.95399999999999
 30
0.0
 11
163.80199999999999
 21
121.95399999999999
 31
0.0
  0
LINE
  5
34E
  8
_________1
 62
     7
 10
164.39400000000001
 20
137.923
 30
0.0
 11
164.39400000000001
 21
119.74299999999999
 31
0.0
  0
LINE
  5
34F
  8
_________1
 62
     7
 10
158.60499999999999
 20
125.74299999999999
 30
0.0
 11
165.09399999999999
 21
125.74299999999999
 31
0.0
  0
LINE
  5
350
  8
_________1
 62
     7
 10
158.60499999999999
 20
128.24299999999999
 30
0.0
 11
171.489
 21
128.24299999999999
 31
0.0
  0
LINE
  5
351
  8
_________1
 62
     7
 10
155.255
 20
133.04300000000001
 30
0.0
 11
171.489
 21
133.04300000000001
 31
0.0
  0
LINE
  5
352
  8
_________1
 62
     7
 10
154.55500000000001
 20
119.99299999999999
 30
0.0
 11
157.255
 21
119.99299999999999
 31
0.0
  0
LINE
  5
353
  8
_________1
 62
     7
 10
154.55500000000001
 20
119.494
 30
0.0
 11
157.255
 21
119.494
 31
0.0
  0
LINE
  5
354
  8
_________1
 62
     7
 10
156.36500000000001
 20
119.99299999999999
 30
0.0
 11
156.49299999999999
 21
119.494
 31
0.0
  0
LINE
  5
355
  8
_________1
 62
     7
 10
155.76499999999999
 20
119.99299999999999
 30
0.0
 11
155.893
 21
119.494
 31
0.0
  0
LINE
  5
356
  8
_________1
 62
     7
 10
155.166
 20
119.99299999999999
 30
0.0
 11
155.29300000000001
 21
119.494
 31
0.0
  0
LINE
  5
357
  8
_________1
 62
     7
 10
155.566
 20
119.99299999999999
 30
0.0
 11
155.69300000000001
 21
119.494
 31
0.0
  0
LINE
  5
358
  8
_________1
 62
     7
 10
154.76499999999999
 20
119.99299999999999
 30
0.0
 11
154.89400000000001
 21
119.494
 31
0.0
  0
LINE
  5
359
  8
_________1
 62
     7
 10
156.565
 20
119.99299999999999
 30
0.0
 11
156.69300000000001
 21
119.494
 31
0.0
  0
LINE
  5
35A
  8
_________1
 62
     7
 10
156.16499999999999
 20
119.99299999999999
 30
0.0
 11
156.29300000000001
 21
119.494
 31
0.0
  0
LINE
  5
35B
  8
_________1
 62
     7
 10
156.965
 20
119.99299999999999
 30
0.0
 11
157.09399999999999
 21
119.494
 31
0.0
  0
LINE
  5
35C
  8
_________1
 62
     7
 10
155.36500000000001
 20
119.99299999999999
 30
0.0
 11
155.49299999999999
 21
119.494
 31
0.0
  0
LINE
  5
35D
  8
_________1
 62
     7
 10
155.965
 20
119.99299999999999
 30
0.0
 11
156.09299999999999
 21
119.494
 31
0.0
  0
LINE
  5
35E
  8
_________1
 62
     7
 10
154.566
 20
119.99299999999999
 30
0.0
 11
154.69300000000001
 21
119.494
 31
0.0
  0
LINE
  5
35F
  8
_________1
 62
     7
 10
156.76599999999999
 20
119.99299999999999
 30
0.0
 11
156.893
 21
119.494
 31
0.0
  0
LINE
  5
360
  8
_________1
 62
     7
 10
154.965
 20
119.99299999999999
 30
0.0
 11
155.09399999999999
 21
119.494
 31
0.0
  0
LINE
  5
361
  8
_________1
 62
     7
 10
157.166
 20
119.99299999999999
 30
0.0
 11
157.286
 21
119.52
 31
0.0
  0
LINE
  5
362
  8
_________1
 62
     7
 10
157.255
 20
119.494
 30
0.0
 11
157.55500000000001
 21
119.74299999999999
 31
0.0
  0
LINE
  5
363
  8
_________1
 62
     7
 10
157.255
 20
119.99299999999999
 30
0.0
 11
157.55500000000001
 21
119.74299999999999
 31
0.0
  0
LINE
  5
364
  8
_________1
 62
     7
 10
154.55500000000001
 20
125.99299999999999
 30
0.0
 11
157.255
 21
125.99299999999999
 31
0.0
  0
LINE
  5
365
  8
_________1
 62
     7
 10
154.55500000000001
 20
125.494
 30
0.0
 11
157.255
 21
125.494
 31
0.0
  0
LINE
  5
366
  8
_________1
 62
     7
 10
156.36500000000001
 20
125.99299999999999
 30
0.0
 11
156.49299999999999
 21
125.494
 31
0.0
  0
LINE
  5
367
  8
_________1
 62
     7
 10
155.76499999999999
 20
125.99299999999999
 30
0.0
 11
155.893
 21
125.494
 31
0.0
  0
LINE
  5
368
  8
_________1
 62
     7
 10
155.166
 20
125.99299999999999
 30
0.0
 11
155.29300000000001
 21
125.494
 31
0.0
  0
LINE
  5
369
  8
_________1
 62
     7
 10
155.566
 20
125.99299999999999
 30
0.0
 11
155.69300000000001
 21
125.494
 31
0.0
  0
LINE
  5
36A
  8
_________1
 62
     7
 10
154.76499999999999
 20
125.99299999999999
 30
0.0
 11
154.89400000000001
 21
125.494
 31
0.0
  0
LINE
  5
36B
  8
_________1
 62
     7
 10
156.565
 20
125.99299999999999
 30
0.0
 11
156.69300000000001
 21
125.494
 31
0.0
  0
LINE
  5
36C
  8
_________1
 62
     7
 10
156.16499999999999
 20
125.99299999999999
 30
0.0
 11
156.29300000000001
 21
125.494
 31
0.0
  0
LINE
  5
36D
  8
_________1
 62
     7
 10
156.965
 20
125.99299999999999
 30
0.0
 11
157.09399999999999
 21
125.494
 31
0.0
  0
LINE
  5
36E
  8
_________1
 62
     7
 10
155.36500000000001
 20
125.99299999999999
 30
0.0
 11
155.49299999999999
 21
125.494
 31
0.0
  0
LINE
  5
36F
  8
_________1
 62
     7
 10
155.965
 20
125.99299999999999
 30
0.0
 11
156.09299999999999
 21
125.494
 31
0.0
  0
LINE
  5
370
  8
_________1
 62
     7
 10
154.566
 20
125.99299999999999
 30
0.0
 11
154.69300000000001
 21
125.494
 31
0.0
  0
LINE
  5
371
  8
_________1
 62
     7
 10
156.76599999999999
 20
125.99299999999999
 30
0.0
 11
156.893
 21
125.494
 31
0.0
  0
LINE
  5
372
  8
_________1
 62
     7
 10
154.965
 20
125.99299999999999
 30
0.0
 11
155.09399999999999
 21
125.494
 31
0.0
  0
LINE
  5
373
  8
_________1
 62
     7
 10
157.166
 20
125.99299999999999
 30
0.0
 11
157.286
 21
125.52
 31
0.0
  0
LINE
  5
374
  8
_________1
 62
     7
 10
157.255
 20
125.494
 30
0.0
 11
157.55500000000001
 21
125.744
 31
0.0
  0
LINE
  5
375
  8
_________1
 62
     7
 10
157.255
 20
125.99299999999999
 30
0.0
 11
157.55500000000001
 21
125.744
 31
0.0
  0
LINE
  5
376
  8
_________1
 62
     7
 10
154.55500000000001
 20
128.49299999999999
 30
0.0
 11
157.255
 21
128.49299999999999
 31
0.0
  0
LINE
  5
377
  8
_________1
 62
     7
 10
154.55500000000001
 20
127.994
 30
0.0
 11
157.255
 21
127.994
 31
0.0
  0
LINE
  5
378
  8
_________1
 62
     7
 10
156.36500000000001
 20
128.49299999999999
 30
0.0
 11
156.49299999999999
 21
127.994
 31
0.0
  0
LINE
  5
379
  8
_________1
 62
     7
 10
155.76499999999999
 20
128.49299999999999
 30
0.0
 11
155.893
 21
127.994
 31
0.0
  0
LINE
  5
37A
  8
_________1
 62
     7
 10
155.166
 20
128.49299999999999
 30
0.0
 11
155.29300000000001
 21
127.994
 31
0.0
  0
LINE
  5
37B
  8
_________1
 62
     7
 10
155.566
 20
128.49299999999999
 30
0.0
 11
155.69300000000001
 21
127.994
 31
0.0
  0
LINE
  5
37C
  8
_________1
 62
     7
 10
154.76499999999999
 20
128.49299999999999
 30
0.0
 11
154.89400000000001
 21
127.994
 31
0.0
  0
LINE
  5
37D
  8
_________1
 62
     7
 10
156.565
 20
128.49299999999999
 30
0.0
 11
156.69300000000001
 21
127.994
 31
0.0
  0
LINE
  5
37E
  8
_________1
 62
     7
 10
156.16499999999999
 20
128.49299999999999
 30
0.0
 11
156.29300000000001
 21
127.994
 31
0.0
  0
LINE
  5
37F
  8
_________1
 62
     7
 10
156.965
 20
128.49299999999999
 30
0.0
 11
157.09399999999999
 21
127.994
 31
0.0
  0
LINE
  5
380
  8
_________1
 62
     7
 10
155.36500000000001
 20
128.49299999999999
 30
0.0
 11
155.49299999999999
 21
127.994
 31
0.0
  0
LINE
  5
381
  8
_________1
 62
     7
 10
155.965
 20
128.49299999999999
 30
0.0
 11
156.09299999999999
 21
127.994
 31
0.0
  0
LINE
  5
382
  8
_________1
 62
     7
 10
154.566
 20
128.49299999999999
 30
0.0
 11
154.69300000000001
 21
127.994
 31
0.0
  0
LINE
  5
383
  8
_________1
 62
     7
 10
156.76599999999999
 20
128.49299999999999
 30
0.0
 11
156.893
 21
127.994
 31
0.0
  0
LINE
  5
384
  8
_________1
 62
     7
 10
154.965
 20
128.49299999999999
 30
0.0
 11
155.09399999999999
 21
127.994
 31
0.0
  0
LINE
  5
385
  8
_________1
 62
     7
 10
157.166
 20
128.49299999999999
 30
0.0
 11
157.286
 21
128.02000000000001
 31
0.0
  0
LINE
  5
386
  8
_________1
 62
     7
 10
157.255
 20
127.994
 30
0.0
 11
157.55500000000001
 21
128.24299999999999
 31
0.0
  0
LINE
  5
387
  8
_________1
 62
     7
 10
157.255
 20
128.49299999999999
 30
0.0
 11
157.55500000000001
 21
128.24299999999999
 31
0.0
  0
LINE
  5
388
  8
_________1
  6
AIGENLINE003
 62
     7
 10
56.40209999999999
 20
221.398
 30
0.0
 11
56.40209999999999
 21
198.19800000000001
 31
0.0
  0
LINE
  5
389
  8
_________1
  6
AIGENLINE003
 62
     7
 10
97.802099999999996
 20
221.398
 30
0.0
 11
97.802099999999996
 21
198.19800000000001
 31
0.0
  0
LINE
  5
38A
  8
_________1
 62
     7
 10
77.15100000000001
 20
125.044
 30
0.0
 11
77.15100000000001
 21
124.693
 31
0.0
  0
LINE
  5
38B
  8
_________1
 62
     7
 10
77.051100000000005
 20
125.044
 30
0.0
 11
77.051100000000005
 21
124.593
 31
0.0
  0
LINE
  5
38C
  8
_________1
 62
     7
 10
73.150899999999993
 20
125.044
 30
0.0
 11
73.150899999999993
 21
124.593
 31
0.0
  0
LINE
  5
38D
  8
_________1
 62
     7
 10
73.051000000000002
 20
125.044
 30
0.0
 11
73.051000000000002
 21
124.693
 31
0.0
  0
ARC
  5
38E
  8
_________1
 62
     7
 10
50.889006999999992
 20
119.730029
 30
0.0
 40
0.363557
 50
2.0948989999999998
 51
87.905091000000013
  0
ARC
  5
38F
  8
_________1
 62
     7
 10
50.915967999999999
 20
119.729647
 30
0.0
 40
0.363952
 50
92.152749999999983
 51
177.84721999999999
  0
ARC
  5
390
  8
_________1
 62
     7
 10
50.91558599999999
 20
119.756608
 30
0.0
 40
0.363557
 50
182.09490199999999
 51
267.90512799999999
  0
ARC
  5
391
  8
_________1
 62
     7
 10
50.888613999999997
 20
119.757001
 30
0.0
 40
0.363963
 50
272.15438599999999
 51
357.84562399999999
  0
LINE
  5
392
  8
_________1
 62
     7
 10
50.652200000000001
 20
125.044
 30
0.0
 11
50.652200000000001
 21
122.202
 31
0.0
  0
LINE
  5
393
  8
_________1
 62
     7
 10
51.152099999999997
 20
125.044
 30
0.0
 11
51.152099999999997
 21
122.202
 31
0.0
  0
LINE
  5
394
  8
_________1
 62
     7
 10
51.152099999999997
 20
122.202
 30
0.0
 11
50.652200000000001
 21
122.202
 31
0.0
  0
ARC
  5
395
  8
_________1
 62
     7
 10
50.902296999999997
 20
121.095108
 30
0.0
 40
3.8476589999999988
 50
247.054937
 51
292.94508300000001
  0
LINE
  5
396
  8
_________1
 62
     7
 10
49.40229999999999
 20
125.044
 30
0.0
 11
49.40229999999999
 21
117.55200000000001
 31
0.0
  0
LINE
  5
397
  8
_________1
 62
     7
 10
52.402299999999997
 20
125.044
 30
0.0
 11
52.402299999999997
 21
117.55200000000001
 31
0.0
  0
ARC
  5
398
  8
_________1
 62
     7
 10
103.288837
 20
119.729612
 30
0.0
 40
0.363975
 50
2.1581380000000001
 51
87.898218
  0
ARC
  5
399
  8
_________1
 62
     7
 10
103.315876
 20
119.729986
 30
0.0
 40
0.363615
 50
92.157797000000016
 51
177.898595
  0
ARC
  5
39A
  8
_________1
 62
     7
 10
103.316202
 20
119.75697700000001
 30
0.0
 40
0.363952
 50
182.15063499999999
 51
267.79297300000002
  0
ARC
  5
39B
  8
_________1
 62
     7
 10
103.288512
 20
119.75735
 30
0.0
 40
0.364312
 50
272.15094599999998
 51
357.79269799999997
  0
LINE
  5
39C
  8
_________1
 62
     7
 10
103.05200000000001
 20
125.044
 30
0.0
 11
103.05200000000001
 21
122.202
 31
0.0
  0
LINE
  5
39D
  8
_________1
 62
     7
 10
103.55200000000001
 20
125.044
 30
0.0
 11
103.55200000000001
 21
122.202
 31
0.0
  0
LINE
  5
39E
  8
_________1
 62
     7
 10
103.55200000000001
 20
122.202
 30
0.0
 11
103.05200000000001
 21
122.202
 31
0.0
  0
ARC
  5
39F
  8
_________1
 62
     7
 10
103.30218600000001
 20
121.095108
 30
0.0
 40
3.8476589999999988
 50
247.054937
 51
292.94508300000001
  0
LINE
  5
3A0
  8
_________1
 62
     7
 10
101.80200000000001
 20
125.044
 30
0.0
 11
101.80200000000001
 21
117.55200000000001
 31
0.0
  0
LINE
  5
3A1
  8
_________1
 62
     7
 10
104.80200000000001
 20
125.044
 30
0.0
 11
104.80200000000001
 21
117.55200000000001
 31
0.0
  0
LINE
  5
3A2
  8
_________1
 62
     7
 10
47.602200000000003
 20
133.04300000000001
 30
0.0
 11
106.602
 21
133.04300000000001
 31
0.0
  0
LINE
  5
3A3
  8
_________1
 62
     7
 10
47.602200000000003
 20
125.044
 30
0.0
 11
106.602
 21
125.044
 31
0.0
  0
LINE
  5
3A4
  8
_________1
 62
     7
 10
47.602200000000003
 20
196.398
 30
0.0
 11
106.602
 21
196.398
 31
0.0
  0
LINE
  5
3A5
  8
_________1
 62
     7
 10
106.602
 20
221.398
 30
0.0
 11
47.602200000000003
 21
221.398
 31
0.0
  0
LINE
  5
3A6
  8
_________1
 62
     7
 10
106.602
 20
133.04300000000001
 30
0.0
 11
106.602
 21
125.044
 31
0.0
  0
LINE
  5
3A7
  8
_________1
 62
     7
 10
47.602200000000003
 20
133.04300000000001
 30
0.0
 11
47.602200000000003
 21
125.044
 31
0.0
  0
LINE
  5
3A8
  8
_________1
 62
     7
 10
47.602200000000003
 20
221.398
 30
0.0
 11
47.602200000000003
 21
196.398
 31
0.0
  0
LINE
  5
3A9
  8
_________1
 62
     7
 10
106.602
 20
221.398
 30
0.0
 11
106.602
 21
196.398
 31
0.0
  0
ARC
  5
3AA
  8
_________1
  6
AIGENLINE002
 62
     7
 10
140.668398
 20
130.53536700000001
 30
0.0
 40
0.208367
 50
92.214104000000006
 51
177.785866
  0
ARC
  5
3AB
  8
_________1
  6
AIGENLINE002
 62
     7
 10
140.663759
 20
130.545277
 30
0.0
 40
0.203581
 50
180.52356900000001
 51
237.684102
  0
ARC
  5
3AC
  8
_________1
  6
AIGENLINE002
 62
     7
 10
143.43052900000001
 20
130.24151699999999
 30
0.0
 40
0.5020630000000002
 50
58.330841999999997
 51
89.877684000000016
  0
LINE
  5
3AD
  8
_________1
  6
AIGENLINE002
 62
     7
 10
140.55500000000001
 20
130.37299999999999
 30
0.0
 11
149.1929999999999
 21
125.044
 31
0.0
  0
LINE
  5
3AE
  8
_________1
  6
AIGENLINE002
 62
     7
 10
143.69399999999999
 20
130.66900000000001
 30
0.0
 11
152.81100000000001
 21
125.044
 31
0.0
  0
ARC
  5
3AF
  8
_________1
  6
AIGENLINE002
 62
     7
 10
154.49933300000001
 20
125.736501
 30
0.0
 40
0.7442130000000001
 50
126.66242699999999
 51
212.45254
  0
ARC
  5
3B0
  8
_________1
  6
AIGENLINE002
 62
     7
 10
154.46923799999999
 20
125.751429
 30
0.0
 40
0.7273960000000002
 50
214.71744899999999
 51
235.28258099999999
  0
ARC
  5
3B1
  8
_________1
  6
AIGENLINE002
 62
     7
 10
154.50035399999999
 20
128.23629600000001
 30
0.0
 40
0.745084
 50
126.710401
 51
212.41162600000001
  0
ARC
  5
3B2
  8
_________1
  6
AIGENLINE002
 62
     7
 10
154.474288
 20
128.25738899999999
 30
0.0
 40
0.7350710000000001
 50
214.88940099999999
 51
235.21822599999999
  0
LINE
  5
3B3
  8
_________1
  6
AIGENLINE002
 62
     7
 10
154.05500000000001
 20
125.044
 30
0.0
 11
154.05500000000001
 21
129.244
 31
0.0
  0
LINE
  5
3B4
  8
_________1
  6
AIGENLINE002
 62
     7
 10
134.55500000000001
 20
130.744
 30
0.0
 11
134.55500000000001
 21
131.24299999999999
 31
0.0
  0
INSERT
  5
3B5
  8
_________1
 62
     7
  2
AIGNBL0201001A
 10
0.0
 20
0.0
 30
0.0
  0
INSERT
  5
3B6
  8
_________1
 62
     7
  2
AIGNBL0201001B
 10
0.0
 20
0.0
 30
0.0
  0
LINE
  5
3B7
  8
_________1
  6
AIGENLINE002
 62
     7
 10
134.55500000000001
 20
130.744
 30
0.0
 11
152.55500000000001
 21
130.744
 31
0.0
  0
LINE
  5
3B8
  8
_________1
  6
AIGENLINE002
 62
     7
 10
150.30500000000001
 20
131.24299999999999
 30
0.0
 11
150.30500000000001
 21
132.4429999999999
 31
0.0
  0
LINE
  5
3B9
  8
_________1
  6
AIGENLINE002
 62
     7
 10
150.80500000000001
 20
131.24299999999999
 30
0.0
 11
150.80500000000001
 21
132.4429999999999
 31
0.0
  0
LINE
  5
3BA
  8
_________1
  6
AIGENLINE002
 62
     7
 10
150.80500000000001
 20
132.4429999999999
 30
0.0
 11
150.55500000000001
 21
132.74299999999999
 31
0.0
  0
LINE
  5
3BB
  8
_________1
  6
AIGENLINE002
 62
     7
 10
150.30500000000001
 20
132.4429999999999
 30
0.0
 11
150.55500000000001
 21
132.74299999999999
 31
0.0
  0
ARC
  5
3BC
  8
_________1
  6
AIGENLINE002
 62
     7
 10
150.56223
 20
131.18896799999999
 30
0.0
 40
0.745084
 50
216.71044800000001
 51
302.41159900000002
  0
ARC
  5
3BD
  8
_________1
  6
AIGENLINE002
 62
     7
 10
150.571065
 20
131.134106
 30
0.0
 40
0.69438
 50
304.22281900000002
 51
325.77719100000002
  0
ARC
  5
3BE
  8
_________1
  6
AIGENLINE002
 62
     7
 10
152.49778499999999
 20
129.18639899999999
 30
0.0
 40
1.5582290000000001
 50
2.102806999999999
 51
87.897182999999998
  0
ARC
  5
3BF
  8
_________1
  6
AIGENLINE002
 62
     7
 10
152.478803
 20
129.16705899999999
 30
0.0
 40
2.077801
 50
2.1103860000000001
 51
87.899472999999986
  0
LINE
  5
3C0
  8
_________1
  6
AIGENLINE002
 62
     7
 10
141.10499999999999
 20
130.34299999999999
 30
0.0
 11
141.10499999999999
 21
128.858
 31
0.0
  0
LINE
  5
3C1
  8
_________1
  6
AIGENLINE002
 62
     7
 10
143.10499999999999
 20
130.34299999999999
 30
0.0
 11
143.10499999999999
 21
128.858
 31
0.0
  0
LINE
  5
3C2
  8
_________1
  6
AIGENLINE002
 62
     7
 10
143.005
 20
130.34299999999999
 30
0.0
 11
143.005
 21
128.858
 31
0.0
  0
LINE
  5
3C3
  8
_________1
  6
AIGENLINE002
 62
     7
 10
141.005
 20
130.34299999999999
 30
0.0
 11
141.005
 21
128.858
 31
0.0
  0
LINE
  5
3C4
  8
_________1
  6
AIGENLINE002
 62
     7
 10
143.10499999999999
 20
133.04300000000001
 30
0.0
 11
143.10499999999999
 21
131.24299999999999
 31
0.0
  0
LINE
  5
3C5
  8
_________1
  6
AIGENLINE002
 62
     7
 10
141.005
 20
133.04300000000001
 30
0.0
 11
141.005
 21
131.24299999999999
 31
0.0
  0
LINE
  5
3C6
  8
_________1
  6
AIGENLINE002
 62
     7
 10
141.10499999999999
 20
133.04300000000001
 30
0.0
 11
141.10499999999999
 21
131.24299999999999
 31
0.0
  0
LINE
  5
3C7
  8
_________1
  6
AIGENLINE002
 62
     7
 10
143.005
 20
133.04300000000001
 30
0.0
 11
143.005
 21
131.24299999999999
 31
0.0
  0
INSERT
  5
3C8
  8
_________1
 62
     7
  2
AIGNBL0201001C
 10
0.0
 20
0.0
 30
0.0
  0
LINE
  5
3C9
  8
_________1
  6
AIGENLINE002
 62
     7
 10
140.05500000000001
 20
131.143
 30
0.0
 11
144.05500000000001
 21
131.143
 31
0.0
  0
LINE
  5
3CA
  8
_________1
  6
AIGENLINE002
 62
     7
 10
140.05500000000001
 20
131.143
 30
0.0
 11
140.05500000000001
 21
131.24299999999999
 31
0.0
  0
LINE
  5
3CB
  8
_________1
  6
AIGENLINE002
 62
     7
 10
144.05500000000001
 20
131.143
 30
0.0
 11
144.05500000000001
 21
131.24299999999999
 31
0.0
  0
LINE
  5
3CC
  8
_________1
  6
AIGENLINE002
 62
     7
 10
140.655
 20
130.34299999999999
 30
0.0
 11
143.45500000000001
 21
130.34299999999999
 31
0.0
  0
LINE
  5
3CD
  8
_________1
  6
AIGENLINE002
 62
     7
 10
140.655
 20
130.34299999999999
 30
0.0
 11
140.655
 21
131.143
 31
0.0
  0
LINE
  5
3CE
  8
_________1
  6
AIGENLINE002
 62
     7
 10
143.45500000000001
 20
130.34299999999999
 30
0.0
 11
143.45500000000001
 21
131.143
 31
0.0
  0
LINE
  5
3CF
  8
_________1
  6
AIGENLINE002
 62
     7
 10
142.655
 20
130.34299999999999
 30
0.0
 11
142.655
 21
131.143
 31
0.0
  0
LINE
  5
3D0
  8
_________1
  6
AIGENLINE002
 62
     7
 10
141.45500000000001
 20
130.34299999999999
 30
0.0
 11
141.45500000000001
 21
131.143
 31
0.0
  0
LINE
  5
3D1
  8
_________1
  6
AIGENLINE002
 62
     7
 10
146.05500000000001
 20
129.64400000000001
 30
0.0
 11
145.55500000000001
 21
126.343
 31
0.0
  0
LINE
  5
3D2
  8
_________1
  6
AIGENLINE002
 62
     7
 10
138.05500000000001
 20
129.64400000000001
 30
0.0
 11
138.55500000000001
 21
126.343
 31
0.0
  0
LINE
  5
3D3
  8
_________1
  6
AIGENLINE002
 62
     7
 10
138.05500000000001
 20
129.64400000000001
 30
0.0
 11
138.05500000000001
 21
130.059
 31
0.0
  0
LINE
  5
3D4
  8
_________1
  6
AIGENLINE002
 62
     7
 10
146.05500000000001
 20
129.64400000000001
 30
0.0
 11
146.05500000000001
 21
130.059
 31
0.0
  0
ARC
  5
3D5
  8
_________1
  6
AIGENLINE002
 62
     7
 10
138.58929599999999
 20
134.604859
 30
0.0
 40
4.0860900000000004
 50
245.79715400000001
 51
256.29793699999999
  0
ARC
  5
3D6
  8
_________1
  6
AIGENLINE002
 62
     7
 10
139.50552999999999
 20
136.46062599999999
 30
0.0
 40
6.1548169999999987
 50
224.54347100000001
 51
245.099975
  0
ARC
  5
3D7
  8
_________1
  6
AIGENLINE002
 62
     7
 10
138.34492399999999
 20
135.359365
 30
0.0
 40
4.5552460000000004
 50
216.889735
 51
224.91097099999999
  0
ARC
  5
3D8
  8
_________1
  6
AIGENLINE002
 62
     7
 10
137.35063
 20
134.648822
 30
0.0
 40
3.3336169999999989
 50
208.79306500000001
 51
217.38068999999999
  0
ARC
  5
3D9
  8
_________1
  6
AIGENLINE002
 62
     7
 10
146.167924
 20
135.03661600000001
 30
0.0
 40
4.0389749999999989
 50
319.80622499999998
 51
330.42605800000013
  0
ARC
  5
3DA
  8
_________1
  6
AIGENLINE002
 62
     7
 10
144.59316999999999
 20
136.45804200000001
 30
0.0
 40
6.1596209999999987
 50
298.61714699999999
 51
319.15998000000002
  0
ARC
  5
3DB
  8
_________1
  6
AIGENLINE002
 62
     7
 10
145.28798699999999
 20
135.14447200000001
 30
0.0
 40
4.6737710000000003
 50
291.03527400000002
 51
298.85255000000001
  0
ARC
  5
3DC
  8
_________1
  6
AIGENLINE002
 62
     7
 10
145.743751
 20
133.89792700000001
 30
0.0
 40
3.3467750000000001
 50
282.85671000000002
 51
291.41270600000001
  0
LINE
  5
3DD
  8
_________1
  6
AIGENLINE002
 62
     7
 10
138.55500000000001
 20
126.343
 30
0.0
 11
145.55500000000001
 21
126.343
 31
0.0
  0
ARC
  5
3DE
  8
_________1
  6
AIGENLINE002
 62
     7
 10
137.533827
 20
130.268878
 30
0.0
 40
0.376508
 50
70.142764999999997
 51
76.548606000000007
  0
ARC
  5
3DF
  8
_________1
  6
AIGENLINE002
 62
     7
 10
137.43327400000001
 20
130.03575000000001
 30
0.0
 40
0.6301180000000001
 50
26.341933000000012
 51
68.743585999999993
  0
ARC
  5
3E0
  8
_________1
  6
AIGENLINE002
 62
     7
 10
137.52284700000001
 20
130.07549800000001
 30
0.0
 40
0.532225
 50
358.19015200000001
 51
26.786017000000001
  0
ARC
  5
3E1
  8
_________1
  6
AIGENLINE002
 62
     7
 10
146.72482099999999
 20
130.06899199999989
 30
0.0
 40
0.6698420000000001
 50
177.25558599999999
 51
180.88130099999989
  0
ARC
  5
3E2
  8
_________1
  6
AIGENLINE002
 62
     7
 10
146.683785
 20
130.04417000000001
 30
0.0
 40
0.630611
 50
132.472408
 51
174.82373200000001
  0
ARC
  5
3E3
  8
_________1
  6
AIGENLINE002
 62
     7
 10
146.62062399999999
 20
130.11871199999999
 30
0.0
 40
0.5329930000000001
 50
104.357895
 51
132.874999
  0
LINE
  5
3E4
  8
_________1
  6
AIGENLINE002
 62
     7
 10
140.655
 20
133.04300000000001
 30
0.0
 11
140.655
 21
131.24299999999999
 31
0.0
  0
LINE
  5
3E5
  8
_________1
  6
AIGENLINE002
 62
     7
 10
143.45500000000001
 20
133.04300000000001
 30
0.0
 11
143.45500000000001
 21
131.24299999999999
 31
0.0
  0
LINE
  5
3E6
  8
_________1
  6
AIGENLINE002
 62
     7
 10
135.05500000000001
 20
133.04300000000001
 30
0.0
 11
135.05500000000001
 21
131.24299999999999
 31
0.0
  0
LINE
  5
3E7
  8
_________1
  6
AIGENLINE002
 62
     7
 10
149.05500000000001
 20
133.04300000000001
 30
0.0
 11
149.05500000000001
 21
131.24299999999999
 31
0.0
  0
LINE
  5
3E8
  8
_________1
  6
AIGENLINE002
 62
     7
 10
131.35499999999999
 20
131.24299999999999
 30
0.0
 11
131.35499999999999
 21
125.044
 31
0.0
  0
LINE
  5
3E9
  8
_________1
  6
AIGENLINE002
 62
     7
 10
129.55500000000001
 20
131.24299999999999
 30
0.0
 11
154.55500000000001
 21
131.24299999999999
 31
0.0
  0
INSERT
  5
3EA
  8
_________1
 62
     7
  2
AIGNBL0201001D
 10
0.0
 20
0.0
 30
0.0
  0
LINE
  5
3EB
  8
_________1
  6
AIGENLINE002
 62
     7
 10
71.975399999999993
 20
126.154
 30
0.0
 11
71.930899999999994
 21
126.04300000000001
 31
0.0
  0
LINE
  5
3EC
  8
_________1
  6
AIGENLINE002
 62
     7
 10
78.226200000000006
 20
126.154
 30
0.0
 11
78.270700000000005
 21
126.04300000000001
 31
0.0
  0
ARC
  5
3ED
  8
_________1
  6
AIGENLINE002
 62
     7
 10
72.263426999999993
 20
126.02866400000001
 30
0.0
 40
0.31426
 50
91.700777999999985
 51
156.42785799999999
  0
ARC
  5
3EE
  8
_________1
  6
AIGENLINE002
 62
     7
 10
77.937905000000001
 20
126.028284
 30
0.0
 40
0.314658
 50
23.615931
 51
88.189611999999997
  0
LINE
  5
3EF
  8
_________1
  6
AIGENLINE002
 62
     7
 10
71.850999999999999
 20
125.843
 30
0.0
 11
78.350899999999996
 21
125.843
 31
0.0
  0
LINE
  5
3F0
  8
_________1
  6
AIGENLINE002
 62
     7
 10
71.930899999999994
 20
126.04300000000001
 30
0.0
 11
71.850999999999999
 21
125.843
 31
0.0
  0
LINE
  5
3F1
  8
_________1
  6
AIGENLINE002
 62
     7
 10
78.270700000000005
 20
126.04300000000001
 30
0.0
 11
78.350899999999996
 21
125.843
 31
0.0
  0
ARC
  5
3F2
  8
_________1
  6
AIGENLINE002
 62
     7
 10
72.317791
 20
126.00626200000001
 30
0.0
 40
0.312972
 50
211.46476699999999
 51
268.62029799999999
  0
LINE
  5
3F3
  8
_________1
  6
AIGENLINE002
 62
     7
 10
72.310599999999994
 20
125.693
 30
0.0
 11
77.8917
 21
125.693
 31
0.0
  0
ARC
  5
3F4
  8
_________1
  6
AIGENLINE002
 62
     7
 10
77.884233999999992
 20
126.006123
 30
0.0
 40
0.312832
 50
271.36569600000001
 51
328.54927900000001
  0
LINE
  5
3F5
  8
_________1
  6
AIGENLINE002
 62
     7
 10
73.051000000000002
 20
125.044
 30
0.0
 11
73.051000000000002
 21
125.693
 31
0.0
  0
LINE
  5
3F6
  8
_________1
  6
AIGENLINE002
 62
     7
 10
77.15100000000001
 20
125.044
 30
0.0
 11
77.15100000000001
 21
125.693
 31
0.0
  0
LINE
  5
3F7
  8
_________1
  6
AIGENLINE002
 62
     7
 10
77.051100000000005
 20
125.044
 30
0.0
 11
77.051100000000005
 21
125.693
 31
0.0
  0
LINE
  5
3F8
  8
_________1
  6
AIGENLINE002
 62
     7
 10
73.150899999999993
 20
125.044
 30
0.0
 11
73.150899999999993
 21
125.693
 31
0.0
  0
LINE
  5
3F9
  8
_________1
  6
AIGENLINE002
 62
     7
 10
92.602299999999985
 20
131.143
 30
0.0
 11
96.602500000000006
 21
131.143
 31
0.0
  0
LINE
  5
3FA
  8
_________1
  6
AIGENLINE002
 62
     7
 10
92.602299999999985
 20
131.143
 30
0.0
 11
92.602299999999985
 21
131.24299999999999
 31
0.0
  0
LINE
  5
3FB
  8
_________1
  6
AIGENLINE002
 62
     7
 10
96.602500000000006
 20
131.143
 30
0.0
 11
96.602500000000006
 21
131.24299999999999
 31
0.0
  0
LINE
  5
3FC
  8
_________1
  6
AIGENLINE002
 62
     7
 10
93.202499999999986
 20
130.34399999999999
 30
0.0
 11
96.001999999999995
 21
130.34399999999999
 31
0.0
  0
LINE
  5
3FD
  8
_________1
  6
AIGENLINE002
 62
     7
 10
93.202499999999986
 20
130.34399999999999
 30
0.0
 11
93.202499999999986
 21
131.14400000000001
 31
0.0
  0
LINE
  5
3FE
  8
_________1
  6
AIGENLINE002
 62
     7
 10
96.001999999999995
 20
130.34399999999999
 30
0.0
 11
96.001999999999995
 21
131.14400000000001
 31
0.0
  0
LINE
  5
3FF
  8
_________1
  6
AIGENLINE002
 62
     7
 10
95.201999999999998
 20
130.34399999999999
 30
0.0
 11
95.201999999999998
 21
131.14400000000001
 31
0.0
  0
LINE
  5
400
  8
_________1
  6
AIGENLINE002
 62
     7
 10
94.002399999999994
 20
130.34399999999999
 30
0.0
 11
94.002399999999994
 21
131.143
 31
0.0
  0
LINE
  5
401
  8
_________1
  6
AIGENLINE002
 62
     7
 10
93.552199999999999
 20
133.04300000000001
 30
0.0
 11
93.552199999999999
 21
131.24299999999999
 31
0.0
  0
LINE
  5
402
  8
_________1
  6
AIGENLINE002
 62
     7
 10
95.652299999999997
 20
133.04300000000001
 30
0.0
 11
95.652299999999997
 21
131.24299999999999
 31
0.0
  0
LINE
  5
403
  8
_________1
  6
AIGENLINE002
 62
     7
 10
95.552000000000007
 20
133.04300000000001
 30
0.0
 11
95.552000000000007
 21
131.24299999999999
 31
0.0
  0
LINE
  5
404
  8
_________1
  6
AIGENLINE002
 62
     7
 10
93.6524
 20
133.04300000000001
 30
0.0
 11
93.6524
 21
131.24299999999999
 31
0.0
  0
LINE
  5
405
  8
_________1
  6
AIGENLINE002
 62
     7
 10
93.6524
 20
130.34399999999999
 30
0.0
 11
93.6524
 21
128.858
 31
0.0
  0
LINE
  5
406
  8
_________1
  6
AIGENLINE002
 62
     7
 10
95.552000000000007
 20
130.34399999999999
 30
0.0
 11
95.552000000000007
 21
128.858
 31
0.0
  0
LINE
  5
407
  8
_________1
  6
AIGENLINE002
 62
     7
 10
95.652299999999997
 20
130.34399999999999
 30
0.0
 11
95.652299999999997
 21
128.858
 31
0.0
  0
LINE
  5
408
  8
_________1
  6
AIGENLINE002
 62
     7
 10
93.552199999999999
 20
130.34399999999999
 30
0.0
 11
93.552199999999999
 21
128.858
 31
0.0
  0
LINE
  5
409
  8
_________1
  6
AIGENLINE002
 62
     7
 10
101.80200000000001
 20
221.398
 30
0.0
 11
101.80200000000001
 21
201.70599999999999
 31
0.0
  0
ARC
  5
40A
  8
_________1
  6
AIGENLINE002
 62
     7
 10
103.30218600000001
 20
205.253387
 30
0.0
 40
3.8512349999999991
 50
247.077459
 51
292.92256099999992
  0
ARC
  5
40B
  8
_________1
  6
AIGENLINE002
 62
     7
 10
103.288837
 20
203.88400899999999
 30
0.0
 40
0.363975
 50
2.1581380000000001
 51
87.898218
  0
ARC
  5
40C
  8
_________1
  6
AIGENLINE002
 62
     7
 10
103.315094
 20
203.885164
 30
0.0
 40
0.362804
 50
92.038886999999974
 51
178.017505
  0
ARC
  5
40D
  8
_________1
  6
AIGENLINE002
 62
     7
 10
103.316202
 20
203.911373
 30
0.0
 40
0.363952
 50
182.15063499999999
 51
267.79297300000002
  0
ARC
  5
40E
  8
_________1
  6
AIGENLINE002
 62
     7
 10
103.289297
 20
203.91096099999999
 30
0.0
 40
0.363499
 50
272.03199599999999
 51
357.91164900000001
  0
ARC
  5
40F
  8
_________1
  6
AIGENLINE002
 62
     7
 10
102.58878900000001
 20
217.38404499999999
 30
0.0
 40
0.363975
 50
2.1581380000000001
 51
87.898218
  0
ARC
  5
410
  8
_________1
  6
AIGENLINE002
 62
     7
 10
102.61504600000001
 20
217.385201
 30
0.0
 40
0.362804
 50
92.038886999999974
 51
178.017505
  0
ARC
  5
411
  8
_________1
  6
AIGENLINE002
 62
     7
 10
102.61615399999999
 20
217.41140899999999
 30
0.0
 40
0.363952
 50
182.15063499999999
 51
267.79297300000002
  0
ARC
  5
412
  8
_________1
  6
AIGENLINE002
 62
     7
 10
102.589249
 20
217.41099800000001
 30
0.0
 40
0.363499
 50
272.03199599999999
 51
357.91164900000001
  0
ARC
  5
413
  8
_________1
  6
AIGENLINE002
 62
     7
 10
103.988551
 20
212.38417100000001
 30
0.0
 40
0.363963
 50
2.1543759999999992
 51
87.845613999999983
  0
ARC
  5
414
  8
_________1
  6
AIGENLINE002
 62
     7
 10
104.015141
 20
212.385302
 30
0.0
 40
0.362804
 50
92.038886999999974
 51
178.017505
  0
ARC
  5
415
  8
_________1
  6
AIGENLINE002
 62
     7
 10
104.016249
 20
212.41151099999999
 30
0.0
 40
0.363952
 50
182.15063499999999
 51
267.79297300000002
  0
ARC
  5
416
  8
_________1
  6
AIGENLINE002
 62
     7
 10
103.989335
 20
212.410751
 30
0.0
 40
0.363151
 50
272.03545600000001
 51
357.96455400000002
  0
LINE
  5
417
  8
_________1
  6
AIGENLINE002
 62
     7
 10
52.402299999999997
 20
221.398
 30
0.0
 11
52.402299999999997
 21
201.70599999999999
 31
0.0
  0
ARC
  5
418
  8
_________1
  6
AIGENLINE002
 62
     7
 10
50.902296999999997
 20
205.253387
 30
0.0
 40
3.8512349999999991
 50
247.077459
 51
292.92256099999992
  0
ARC
  5
419
  8
_________1
  6
AIGENLINE002
 62
     7
 10
50.889006999999992
 20
203.88442499999999
 30
0.0
 40
0.363557
 50
2.0948989999999998
 51
87.905091000000013
  0
ARC
  5
41A
  8
_________1
  6
AIGENLINE002
 62
     7
 10
50.915185999999999
 20
203.884826
 30
0.0
 40
0.363142
 50
92.034085000000005
 51
177.96588499999999
  0
ARC
  5
41B
  8
_________1
  6
AIGENLINE002
 62
     7
 10
50.91558599999999
 20
203.91100499999999
 30
0.0
 40
0.363557
 50
182.09490199999999
 51
267.90512799999999
  0
ARC
  5
41C
  8
_________1
  6
AIGENLINE002
 62
     7
 10
50.889398
 20
203.91061300000001
 30
0.0
 40
0.363151
 50
272.03545600000001
 51
357.96455400000002
  0
ARC
  5
41D
  8
_________1
  6
AIGENLINE002
 62
     7
 10
50.188958999999997
 20
217.38446200000001
 30
0.0
 40
0.363557
 50
2.0948989999999998
 51
87.905091000000013
  0
ARC
  5
41E
  8
_________1
  6
AIGENLINE002
 62
     7
 10
50.215146999999988
 20
217.38485299999999
 30
0.0
 40
0.363151
 50
92.035419000000005
 51
177.964551
  0
ARC
  5
41F
  8
_________1
  6
AIGENLINE002
 62
     7
 10
50.215538000000002
 20
217.41104100000001
 30
0.0
 40
0.363557
 50
182.09490199999999
 51
267.90512799999999
  0
ARC
  5
420
  8
_________1
  6
AIGENLINE002
 62
     7
 10
50.18934999999999
 20
217.41065
 30
0.0
 40
0.363151
 50
272.03545600000001
 51
357.96455400000002
  0
ARC
  5
421
  8
_________1
  6
AIGENLINE002
 62
     7
 10
51.588709999999999
 20
212.38456300000001
 30
0.0
 40
0.363557
 50
2.0948989999999998
 51
87.905091000000013
  0
ARC
  5
422
  8
_________1
  6
AIGENLINE002
 62
     7
 10
51.614908
 20
212.385302
 30
0.0
 40
0.362804
 50
92.038886999999974
 51
178.017505
  0
ARC
  5
423
  8
_________1
  6
AIGENLINE002
 62
     7
 10
51.615622999999992
 20
212.41111799999999
 30
0.0
 40
0.363545
 50
182.0911309999999
 51
267.85247800000002
  0
ARC
  5
424
  8
_________1
  6
AIGENLINE002
 62
     7
 10
51.589109999999991
 20
212.410742
 30
0.0
 40
0.363142
 50
272.03412200000002
 51
357.96588800000001
  0
LINE
  5
425
  8
_________1
  6
AIGENLINE002
 62
     7
 10
50.652200000000001
 20
130.744
 30
0.0
 11
50.652200000000001
 21
125.044
 31
0.0
  0
LINE
  5
426
  8
_________1
  6
AIGENLINE002
 62
     7
 10
51.152099999999997
 20
130.744
 30
0.0
 11
51.152099999999997
 21
125.044
 31
0.0
  0
LINE
  5
427
  8
_________1
  6
AIGENLINE002
 62
     7
 10
49.40229999999999
 20
130.744
 30
0.0
 11
52.402299999999997
 21
130.744
 31
0.0
  0
LINE
  5
428
  8
_________1
  6
AIGENLINE002
 62
     7
 10
52.402299999999997
 20
131.24299999999999
 30
0.0
 11
52.402299999999997
 21
125.044
 31
0.0
  0
ARC
  5
429
  8
_________1
  6
AIGENLINE002
 62
     7
 10
51.589058000000001
 20
128.23015799999999
 30
0.0
 40
0.363209
 50
2.098357
 51
87.958054000000004
  0
ARC
  5
42A
  8
_________1
  6
AIGENLINE002
 62
     7
 10
51.615666999999988
 20
128.22979000000001
 30
0.0
 40
0.363603
 50
92.154049000000015
 51
177.845922
  0
ARC
  5
42B
  8
_________1
  6
AIGENLINE002
 62
     7
 10
51.615622999999992
 20
128.256722
 30
0.0
 40
0.363545
 50
182.0911309999999
 51
267.85247800000002
  0
ARC
  5
42C
  8
_________1
  6
AIGENLINE002
 62
     7
 10
51.588327999999997
 20
128.25712799999999
 30
0.0
 40
0.363952
 50
272.15276999999998
 51
357.84724
  0
ARC
  5
42D
  8
_________1
  6
AIGENLINE002
 62
     7
 10
50.189298000000001
 20
125.73037100000001
 30
0.0
 40
0.363219
 50
2.0998359999999998
 51
87.956575000000001
  0
ARC
  5
42E
  8
_________1
  6
AIGENLINE002
 62
     7
 10
50.215907000000001
 20
125.729664
 30
0.0
 40
0.363952
 50
92.150605000000013
 51
177.79294400000001
  0
ARC
  5
42F
  8
_________1
  6
AIGENLINE002
 62
     7
 10
50.215876999999999
 20
125.75695
 30
0.0
 40
0.363894
 50
182.089977
 51
267.85368699999998
  0
ARC
  5
430
  8
_________1
  6
AIGENLINE002
 62
     7
 10
50.188541999999991
 20
125.75702800000001
 30
0.0
 40
0.363975
 50
272.15814799999998
 51
357.8982279999999
  0
LINE
  5
431
  8
_________1
  6
AIGENLINE002
 62
     7
 10
103.05200000000001
 20
130.744
 30
0.0
 11
103.05200000000001
 21
125.044
 31
0.0
  0
LINE
  5
432
  8
_________1
  6
AIGENLINE002
 62
     7
 10
103.55200000000001
 20
130.744
 30
0.0
 11
103.55200000000001
 21
125.044
 31
0.0
  0
LINE
  5
433
  8
_________1
  6
AIGENLINE002
 62
     7
 10
101.80200000000001
 20
130.744
 30
0.0
 11
104.80200000000001
 21
130.744
 31
0.0
  0
LINE
  5
434
  8
_________1
  6
AIGENLINE002
 62
     7
 10
101.80200000000001
 20
131.24299999999999
 30
0.0
 11
101.80200000000001
 21
125.044
 31
0.0
  0
ARC
  5
435
  8
_________1
  6
AIGENLINE002
 62
     7
 10
103.9889
 20
128.22976600000001
 30
0.0
 40
0.363615
 50
2.1578240000000002
 51
87.898587000000006
  0
ARC
  5
436
  8
_________1
  6
AIGENLINE002
 62
     7
 10
104.0159
 20
128.22979000000001
 30
0.0
 40
0.363603
 50
92.154049000000015
 51
177.845922
  0
ARC
  5
437
  8
_________1
  6
AIGENLINE002
 62
     7
 10
104.016249
 20
128.257114
 30
0.0
 40
0.363952
 50
182.15063499999999
 51
267.79297300000002
  0
ARC
  5
438
  8
_________1
  6
AIGENLINE002
 62
     7
 10
103.988551
 20
128.257139
 30
0.0
 40
0.363963
 50
272.15438599999999
 51
357.84562399999999
  0
ARC
  5
439
  8
_________1
  6
AIGENLINE002
 62
     7
 10
102.589127
 20
125.72995400000001
 30
0.0
 40
0.363638
 50
2.163209999999999
 51
87.949567000000002
  0
ARC
  5
43A
  8
_________1
  6
AIGENLINE002
 62
     7
 10
102.615804
 20
125.730013
 30
0.0
 40
0.363603
 50
92.154049000000015
 51
177.845922
  0
ARC
  5
43B
  8
_________1
  6
AIGENLINE002
 62
     7
 10
102.61649300000001
 20
125.757318
 30
0.0
 40
0.36429
 50
182.14558400000001
 51
267.74165899999991
  0
ARC
  5
43C
  8
_________1
  6
AIGENLINE002
 62
     7
 10
102.58844000000001
 20
125.75737700000001
 30
0.0
 40
0.364324
 50
272.15470299999998
 51
357.84530599999999
  0
LINE
  5
43D
  8
_________1
  6
AIGENLINE002
 62
     7
 10
71.6023
 20
126.343
 30
0.0
 11
78.602099999999993
 21
126.343
 31
0.0
  0
LINE
  5
43E
  8
_________1
  6
AIGENLINE002
 62
     7
 10
79.102599999999995
 20
129.64400000000001
 30
0.0
 11
78.602099999999993
 21
126.343
 31
0.0
  0
ARC
  5
43F
  8
_________1
  6
AIGENLINE002
 62
     7
 10
71.651291999999984
 20
137.74249
 30
0.0
 40
7.216111999999999
 50
258.18911400000002
 51
261.71774799999997
  0
ARC
  5
440
  8
_________1
  6
AIGENLINE002
 62
     7
 10
72.568450999999996
 20
142.08919900000001
 30
0.0
 40
11.658523000000001
 50
254.72668899999999
 51
258.1495680000001
  0
ARC
  5
441
  8
_________1
  6
AIGENLINE002
 62
     7
 10
74.357043999999973
 20
148.424826
 30
0.0
 40
18.241622
 50
248.856414
 51
254.54933700000001
  0
ARC
  5
442
  8
_________1
  6
AIGENLINE002
 62
     7
 10
73.403936999999985
 20
146.10638900000001
 30
0.0
 40
15.735561000000001
 50
244.88575499999999
 51
249.04818599999999
  0
ARC
  5
443
  8
_________1
  6
AIGENLINE002
 62
     7
 10
70.879035000000002
 20
140.799128
 30
0.0
 40
9.8584570000000014
 50
241.115624
 51
245.08145699999989
  0
ARC
  5
444
  8
_________1
  6
AIGENLINE002
 62
     7
 10
69.418531999999999
 20
138.17220900000001
 30
0.0
 40
6.8528570000000011
 50
238.38159899999999
 51
241.19834599999999
  0
ARC
  5
445
  8
_________1
  6
AIGENLINE002
 62
     7
 10
68.234611000000001
 20
136.79472999999999
 30
0.0
 40
5.0672499999999987
 50
239.06653299999999
 51
241.61738700000001
  0
ARC
  5
446
  8
_________1
  6
AIGENLINE002
 62
     7
 10
71.792394999999999
 20
142.78438700000001
 30
0.0
 40
12.033849
 50
235.527537
 51
239.196021
  0
ARC
  5
447
  8
_________1
  6
AIGENLINE002
 62
     7
 10
68.449438000000001
 20
137.96458999999999
 30
0.0
 40
6.1683320000000004
 50
233.951247
 51
235.78644700000001
  0
ARC
  5
448
  8
_________1
  6
AIGENLINE002
 62
     7
 10
69.791948000000005
 20
139.76048700000001
 30
0.0
 40
8.410425
 50
233.00487000000001
 51
233.756384
  0
LINE
  5
449
  8
_________1
  6
AIGENLINE002
 62
     7
 10
71.102099999999993
 20
129.64400000000001
 30
0.0
 11
71.6023
 21
126.343
 31
0.0
  0
LINE
  5
44A
  8
_________1
  6
AIGENLINE002
 62
     7
 10
71.102099999999993
 20
129.64400000000001
 30
0.0
 11
71.102099999999993
 21
130.012
 31
0.0
  0
ARC
  5
44B
  8
_________1
  6
AIGENLINE002
 62
     7
 10
70.495135000000005
 20
129.99984699999999
 30
0.0
 40
0.612999
 50
40.763812000000001
 51
79.027405999999999
  0
ARC
  5
44C
  8
_________1
  6
AIGENLINE002
 62
     7
 10
70.522305000000003
 20
130.0191899999999
 30
0.0
 40
0.5797979999999999
 50
359.23918200000003
 51
41.069235999999997
  0
ARC
  5
44D
  8
_________1
  6
AIGENLINE002
 62
     7
 10
80.637904000000006
 20
138.40986899999999
 30
0.0
 40
7.1327869999999987
 50
298.05867999999998
 51
301.62940800000001
  0
ARC
  5
44E
  8
_________1
  6
AIGENLINE002
 62
     7
 10
78.197797999999992
 20
143.06216900000001
 30
0.0
 40
12.386101
 50
294.67554799999999
 51
297.896703
  0
ARC
  5
44F
  8
_________1
  6
AIGENLINE002
 62
     7
 10
75.841676000000007
 20
148.40567300000001
 30
0.0
 40
18.225524
 50
288.695741
 51
294.39316000000002
  0
ARC
  5
450
  8
_________1
  6
AIGENLINE002
 62
     7
 10
76.606695999999999
 20
145.95890399999999
 30
0.0
 40
15.662753
 50
284.73276900000002
 51
288.91391299999998
  0
ARC
  5
451
  8
_________1
  6
AIGENLINE002
 62
     7
 10
78.098442000000006
 20
140.12361799999999
 30
0.0
 40
9.6400380000000006
 50
280.92012799999998
 51
284.97809100000001
  0
ARC
  5
452
  8
_________1
  6
AIGENLINE002
 62
     7
 10
78.789893000000006
 20
136.32398699999999
 30
0.0
 40
5.7783660000000001
 50
277.98456599999997
 51
281.32540599999999
  0
ARC
  5
453
  8
_________1
  6
AIGENLINE002
 62
     7
 10
81.602276000000003
 20
138.17063899999999
 30
0.0
 40
6.424637999999999
 50
305.04155700000001
 51
307.05183199999999
  0
ARC
  5
454
  8
_________1
  6
AIGENLINE002
 62
     7
 10
78.377828000000008
 20
142.83742799999999
 30
0.0
 40
12.096952
 50
301.20430699999997
 51
304.85418099999998
  0
ARC
  5
455
  8
_________1
  6
AIGENLINE002
 62
     7
 10
81.092067999999998
 20
138.307379
 30
0.0
 40
6.816110000000001
 50
299.75610499999999
 51
301.41799099999997
  0
ARC
  5
456
  8
_________1
  6
AIGENLINE002
 62
     7
 10
81.473069999999993
 20
137.69895
 30
0.0
 40
6.0988790000000002
 50
298.44975599999998
 51
299.48557899999997
  0
LINE
  5
457
  8
_________1
  6
AIGENLINE002
 62
     7
 10
79.102599999999995
 20
129.64400000000001
 30
0.0
 11
79.102599999999995
 21
130.012
 31
0.0
  0
ARC
  5
458
  8
_________1
  6
AIGENLINE002
 62
     7
 10
79.714981999999992
 20
130.00721999999999
 30
0.0
 40
0.6126930000000002
 50
141.32308
 51
179.60058699999999
  0
ARC
  5
459
  8
_________1
  6
AIGENLINE002
 62
     7
 10
79.692534999999992
 20
130.02828
 30
0.0
 40
0.5820140000000001
 50
99.892600000000016
 51
141.56062700000001
  0
LINE
  5
45A
  8
_________1
  6
AIGENLINE002
 62
     7
 10
47.602200000000003
 20
131.24299999999999
 30
0.0
 11
106.602
 21
131.24299999999999
 31
0.0
  0
LINE
  5
45B
  8
_________1
  6
AIGENLINE002
 62
     7
 10
49.40229999999999
 20
198.19800000000001
 30
0.0
 11
104.80200000000001
 21
198.19800000000001
 31
0.0
  0
LINE
  5
45C
  8
_________1
  6
AIGENLINE002
 62
     7
 10
87.389200000000002
 20
133.04300000000001
 30
0.0
 11
87.389200000000002
 21
131.24299999999999
 31
0.0
  0
LINE
  5
45D
  8
_________1
  6
AIGENLINE002
 62
     7
 10
62.815199999999997
 20
133.04300000000001
 30
0.0
 11
62.815199999999997
 21
131.24299999999999
 31
0.0
  0
LINE
  5
45E
  8
_________1
  6
AIGENLINE002
 62
     7
 10
96.002300000000005
 20
133.04300000000001
 30
0.0
 11
96.002300000000005
 21
131.24299999999999
 31
0.0
  0
LINE
  5
45F
  8
_________1
  6
AIGENLINE002
 62
     7
 10
93.202100000000016
 20
133.04300000000001
 30
0.0
 11
93.202100000000016
 21
131.24299999999999
 31
0.0
  0
LINE
  5
460
  8
_________1
  6
AIGENLINE002
 62
     7
 10
104.80200000000001
 20
221.398
 30
0.0
 11
104.80200000000001
 21
196.398
 31
0.0
  0
LINE
  5
461
  8
_________1
  6
AIGENLINE002
 62
     7
 10
49.40229999999999
 20
221.398
 30
0.0
 11
49.40229999999999
 21
196.398
 31
0.0
  0
LINE
  5
462
  8
_________1
  6
AIGENLINE002
 62
     7
 10
104.80200000000001
 20
131.24299999999999
 30
0.0
 11
104.80200000000001
 21
125.044
 31
0.0
  0
LINE
  5
463
  8
_________1
  6
AIGENLINE002
 62
     7
 10
49.40229999999999
 20
131.24299999999999
 30
0.0
 11
49.40229999999999
 21
125.044
 31
0.0
  0
INSERT
  5
464
  8
_________1
 62
     7
  2
AIGNBL0201001E
 10
0.0
 20
0.0
 30
0.0
  0
LINE
  5
465
  8
_________1
 62
     7
 10
154.05500000000001
 20
125.044
 30
0.0
 11
154.05500000000001
 21
117.244
 31
0.0
  0
LINE
  5
466
  8
_________1
 62
     7
 10
154.55500000000001
 20
125.044
 30
0.0
 11
154.55500000000001
 21
117.244
 31
0.0
  0
ARC
  5
467
  8
_________1
 62
     7
 10
153.85302100000001
 20
122.411451
 30
0.0
 40
0.20695
 50
240.27780999999999
 51
326.37126899999998
  0
ARC
  5
468
  8
_________1
 62
     7
 10
153.85561300000001
 20
122.401411
 30
0.0
 40
0.199352
 50
328.36157200000002
 51
0.145008
  0
ARC
  5
469
  8
_________1
 62
     7
 10
153.54419999999999
 20
123.99100199999999
 30
0.0
 40
0.5108000000000001
 50
0.673419
 51
57.640409999999989
  0
LINE
  5
46A
  8
_________1
 62
     7
 10
152.81100000000001
 20
125.044
 30
0.0
 11
153.81800000000001
 21
124.422
 31
0.0
  0
LINE
  5
46B
  8
_________1
 62
     7
 10
149.1929999999999
 20
125.044
 30
0.0
 11
153.75
 21
122.232
 31
0.0
  0
INSERT
  5
46C
  8
_________1
 62
     7
  2
AIGNBL0201001F
 10
0.0
 20
0.0
 30
0.0
  0
LINE
  5
46D
  8
_________1
 62
     7
 10
154.05500000000001
 20
117.244
 30
0.0
 11
154.55500000000001
 21
117.244
 31
0.0
  0
INSERT
  5
46E
  8
_________1
 62
     7
  2
AIGNBL02010020
 10
0.0
 20
0.0
 30
0.0
  0
ARC
  5
46F
  8
_________1
 62
     7
 10
129.86634900000001
 20
125.354623
 30
0.0
 40
0.311195
 50
182.07476299999999
 51
267.92526600000002
  0
ARC
  5
470
  8
_________1
 62
     7
 10
129.86637300000001
 20
132.732191
 30
0.0
 40
0.311208
 50
92.079143000000002
 51
177.986647
  0
LINE
  5
471
  8
_________1
 62
     7
 10
129.85499999999999
 20
125.044
 30
0.0
 11
154.55500000000001
 21
125.044
 31
0.0
  0
LINE
  5
472
  8
_________1
 62
     7
 10
154.55500000000001
 20
133.04300000000001
 30
0.0
 11
154.55500000000001
 21
125.044
 31
0.0
  0
LINE
  5
473
  8
_________1
 62
     7
 10
129.85499999999999
 20
133.04300000000001
 30
0.0
 11
154.55500000000001
 21
133.04300000000001
 31
0.0
  0
LINE
  5
474
  8
_________1
 62
     7
 10
129.55500000000001
 20
132.74299999999999
 30
0.0
 11
129.55500000000001
 21
125.343
 31
0.0
  0
INSERT
  5
475
  8
_________1
 62
     7
  2
AIGNBL02010021
 10
0.0
 20
0.0
 30
0.0
  0
ARC
  5
476
  8
_________1
 62
     7
 10
141.937578
 20
103.45035
 30
0.0
 40
37.195692000000001
 50
85.169506000000013
 51
86.659242000000006
  0
ARC
  5
477
  8
_________1
 62
     7
 10
142.1102929999999
 20
104.92429799999999
 30
0.0
 40
35.719248999999998
 50
93.378821999999985
 51
97.559988000000018
  0
LINE
  5
478
  8
_________1
 62
     7
 10
140.005
 20
141.54300000000001
 30
0.0
 11
141.55500000000001
 21
141.54300000000001
 31
0.0
  0
LINE
  5
479
  8
_________1
 62
     7
 10
142.55500000000001
 20
141.54300000000001
 30
0.0
 11
144.10499999999999
 21
141.54300000000001
 31
0.0
  0
LINE
  5
47A
  8
_________1
 62
     7
 10
144.10499999999999
 20
143.14400000000001
 30
0.0
 11
144.10499999999999
 21
133.143
 31
0.0
  0
LINE
  5
47B
  8
_________1
 62
     7
 10
141.55500000000001
 20
142.44399999999999
 30
0.0
 11
142.55500000000001
 21
142.44399999999999
 31
0.0
  0
LINE
  5
47C
  8
_________1
 62
     7
 10
142.55500000000001
 20
141.024
 30
0.0
 11
142.55500000000001
 21
142.44399999999999
 31
0.0
  0
LINE
  5
47D
  8
_________1
 62
     7
 10
141.55500000000001
 20
141.024
 30
0.0
 11
141.55500000000001
 21
142.44399999999999
 31
0.0
  0
ARC
  5
47E
  8
_________1
 62
     7
 10
142.05527599999999
 20
139.243371
 30
0.0
 40
1.8500279999999989
 50
179.99996999999999
 51
270.00002000000001
  0
ARC
  5
47F
  8
_________1
 62
     7
 10
142.05527699999999
 20
139.243371
 30
0.0
 40
1.8500279999999989
 50
90.0
 51
179.99996999999999
  0
ARC
  5
480
  8
_________1
 62
     7
 10
141.984095
 20
139.172549
 30
0.0
 40
1.9221689999999989
 50
2.1115619999999988
 51
87.877758
  0
ARC
  5
481
  8
_________1
 62
     7
 10
141.98442
 20
139.31387000000001
 30
0.0
 40
1.9218329999999999
 50
272.11293799999999
 51
357.89774299999999
  0
LINE
  5
482
  8
_________1
 62
     7
 10
140.005
 20
143.14400000000001
 30
0.0
 11
140.005
 21
133.143
 31
0.0
  0
LINE
  5
483
  8
_________1
 62
     7
 10
140.005
 20
133.143
 30
0.0
 11
144.10499999999999
 21
133.143
 31
0.0
  0
LINE
  5
484
  8
_________1
 62
     7
 10
140.005
 20
143.14400000000001
 30
0.0
 11
144.10499999999999
 21
143.14400000000001
 31
0.0
  0
ARC
  5
485
  8
_________1
 62
     7
 10
142.09152
 20
155.257598
 30
0.0
 40
0.986715
 50
92.105016000000006
 51
177.91573299999999
  0
ARC
  5
486
  8
_________1
 62
     7
 10
142.018708
 20
155.257274
 30
0.0
 40
0.9870509999999999
 50
2.1023819999999991
 51
87.876829999999984
  0
LINE
  5
487
  8
_________1
 62
     7
 10
143.005
 20
143.14400000000001
 30
0.0
 11
143.005
 21
155.29300000000001
 31
0.0
  0
LINE
  5
488
  8
_________1
 62
     7
 10
141.10499999999999
 20
143.14400000000001
 30
0.0
 11
141.10499999999999
 21
155.29300000000001
 31
0.0
  0
LINE
  5
489
  8
_________1
 62
     7
 10
140.05500000000001
 20
133.04300000000001
 30
0.0
 11
140.05500000000001
 21
133.143
 31
0.0
  0
LINE
  5
48A
  8
_________1
 62
     7
 10
144.05500000000001
 20
133.143
 30
0.0
 11
144.05500000000001
 21
133.04300000000001
 31
0.0
  0
ARC
  5
48B
  8
_________1
 62
     7
 10
134.46012200000001
 20
137.92974899999999
 30
0.0
 40
2.506043
 50
178.26687899999999
 51
181.449479
  0
ARC
  5
48C
  8
_________1
 62
     7
 10
137.368798
 20
137.81831600000001
 30
0.0
 40
5.4168089999999989
 50
172.587568
 51
178.01923199999999
  0
ARC
  5
48D
  8
_________1
 62
     7
 10
135.89808400000001
 20
138.053551
 30
0.0
 40
3.9282779999999988
 50
168.995102
 51
173.22251
  0
ARC
  5
48E
  8
_________1
 62
     7
 10
133.80099000000001
 20
138.46466899999999
 30
0.0
 40
1.791272
 50
166.53943000000001
 51
169.09870100000001
  0
ARC
  5
48F
  8
_________1
 62
     7
 10
137.34225000000001
 20
135.98275100000001
 30
0.0
 40
4.7943530000000001
 50
213.611535
 51
217.81612000000001
  0
ARC
  5
490
  8
_________1
 62
     7
 10
139.13889900000001
 20
137.12821299999999
 30
0.0
 40
6.9248199999999986
 50
207.21787399999999
 51
213.27561800000001
  0
ARC
  5
491
  8
_________1
 62
     7
 10
141.926006
 20
138.50447199999999
 30
0.0
 40
10.032916999999999
 50
191.62494099999989
 51
206.92729199999999
  0
ARC
  5
492
  8
_________1
 62
     7
 10
139.20059800000001
 20
137.97088099999999
 30
0.0
 40
7.2559409999999991
 50
185.548495
 51
191.83447100000001
  0
ARC
  5
493
  8
_________1
 62
     7
 10
136.66291799999999
 20
137.75079600000001
 30
0.0
 40
4.708944999999999
 50
178.87466599999999
 51
185.86861200000001
  0
ARC
  5
494
  8
_________1
 62
     7
 10
132.264736
 20
138.83548300000001
 30
0.0
 40
0.210923
 50
133.10977800000001
 51
167.361007
  0
ARC
  5
495
  8
_________1
 62
     7
 10
132.23556499999989
 20
138.87442100000001
 30
0.0
 40
0.162648
 50
105.949111
 51
134.98195200000001
  0
LINE
  5
496
  8
_________1
 62
     7
 10
131.95500000000001
 20
137.84399999999999
 30
0.0
 11
131.95500000000001
 21
137.86600000000001
 31
0.0
  0
ARC
  5
497
  8
_________1
 62
     7
 10
149.81278900000001
 20
138.35276300000001
 30
0.0
 40
2.2997869999999989
 50
9.8252440000000014
 51
13.295014999999999
  0
ARC
  5
498
  8
_________1
 62
     7
 10
146.53619399999999
 20
137.80014700000001
 30
0.0
 40
5.6226430000000001
 50
4.449603999999999
 51
9.6762759999999997
  0
ARC
  5
499
  8
_________1
 62
     7
 10
148.48693900000001
 20
137.91296800000001
 30
0.0
 40
3.669230999999999
 50
0.5256380000000001
 51
5.056451
  0
ARC
  5
49A
  8
_________1
 62
     7
 10
149.64916600000001
 20
137.928009
 30
0.0
 40
2.5069180000000002
 50
358.59082799999999
 51
0.425578
  0
ARC
  5
49B
  8
_________1
 62
     7
 10
147.206793
 20
137.76453699999999
 30
0.0
 40
4.94916
 50
356.841812
 51
0.911583
  0
ARC
  5
49C
  8
_________1
 62
     7
 10
145.203417
 20
137.932624
 30
0.0
 40
6.9589910000000001
 50
350.337602
 51
356.36872299999999
  0
ARC
  5
49D
  8
_________1
 62
     7
 10
142.17115999999999
 20
138.499526
 30
0.0
 40
10.043506000000001
 50
334.76919700000002
 51
350.05282999999997
  0
ARC
  5
49E
  8
_________1
 62
     7
 10
144.75980899999999
 20
137.249359
 30
0.0
 40
7.1689679999999987
 50
328.62149699999998
 51
334.98855099999997
  0
ARC
  5
49F
  8
_________1
 62
     7
 10
146.792485
 20
135.97391999999999
 30
0.0
 40
4.7695689999999997
 50
322.08705400000002
 51
328.98798599999998
  0
ARC
  5
4A0
  8
_________1
 62
     7
 10
151.849503
 20
138.83399800000001
 30
0.0
 40
0.208717
 50
26.812215999999999
 51
70.553208999999995
  0
ARC
  5
4A1
  8
_________1
 62
     7
 10
151.90811599999989
 20
138.86080899999999
 30
0.0
 40
0.144334
 50
8.2958219999999994
 51
27.808437999999999
  0
LINE
  5
4A2
  8
_________1
 62
     7
 10
152.155
 20
137.84399999999999
 30
0.0
 11
152.155
 21
137.86600000000001
 31
0.0
  0
ARC
  5
4A3
  8
_________1
 62
     7
 10
137.988068
 20
124.603835
 30
0.0
 40
15.548152
 50
108.84574600000001
 51
111.89174800000001
  0
ARC
  5
4A4
  8
_________1
 62
     7
 10
139.77033700000001
 20
119.172026
 30
0.0
 40
21.264589999999998
 50
103.137934
 51
108.66288400000001
  0
ARC
  5
4A5
  8
_________1
 62
     7
 10
141.24130099999999
 20
112.43454
 30
0.0
 40
28.160245
 50
97.817657999999994
 51
102.93661899999989
  0
ARC
  5
4A6
  8
_________1
 62
     7
 10
142.69207700000001
 20
111.41738700000001
 30
0.0
 40
29.193531
 50
78.987145999999996
 51
85.328342000000006
  0
ARC
  5
4A7
  8
_________1
 62
     7
 10
144.133342
 20
118.363722
 30
0.0
 40
22.099966999999999
 50
73.726334000000008
 51
79.214698999999996
  0
ARC
  5
4A8
  8
_________1
 62
     7
 10
145.79682500000001
 20
123.809682
 30
0.0
 40
16.406206000000001
 50
68.089256999999989
 51
73.973376000000002
  0
ARC
  5
4A9
  8
_________1
 62
     7
 10
82.858418999999984
 20
208.87957499999999
 30
0.0
 40
8.0460659999999997
 50
6.9112839999999993
 51
36.354508000000003
  0
ARC
  5
4AA
  8
_________1
 62
     7
 10
82.858125000000001
 20
208.87982600000001
 30
0.0
 40
7.712974
 50
7.2094269999999998
 51
38.062121000000012
  0
ARC
  5
4AB
  8
_________1
 62
     7
 10
64.742478000000006
 20
205.66750400000001
 30
0.0
 40
3.8839059999999992
 50
233.8060560000001
 51
235.63645700000001
  0
ARC
  5
4AC
  8
_________1
 62
     7
 10
66.133786999999998
 20
207.44593900000001
 30
0.0
 40
6.1411689999999997
 50
229.85018400000001
 51
233.12855099999999
  0
ARC
  5
4AD
  8
_________1
 62
     7
 10
68.258544999999998
 20
209.866049
 30
0.0
 40
9.3612429999999982
 50
222.796919
 51
229.46078
  0
ARC
  5
4AE
  8
_________1
 62
     7
 10
66.210290000000001
 20
208.02073999999999
 30
0.0
 40
6.6047029999999989
 50
218.18520699999999
 51
223.122771
  0
ARC
  5
4AF
  8
_________1
 62
     7
 10
63.483128999999998
 20
205.90649300000001
 30
0.0
 40
3.154161999999999
 50
213.92555200000001
 51
218.62320099999999
  0
ARC
  5
4B0
  8
_________1
 62
     7
 10
67.301913999999996
 20
208.897786
 30
0.0
 40
8.0000289999999996
 50
126.438326
 51
216.43837600000001
  0
ARC
  5
4B1
  8
_________1
 62
     7
 10
65.459863999999996
 20
206.71922599999999
 30
0.0
 40
4.8170000000000002
 50
228.91546600000001
 51
233.056397
  0
ARC
  5
4B2
  8
_________1
 62
     7
 10
68.335391000000001
 20
209.94111599999999
 30
0.0
 40
9.1353229999999996
 50
223.173294
 51
228.60145600000001
  0
ARC
  5
4B3
  8
_________1
 62
     7
 10
66.466208999999992
 20
208.20966899999999
 30
0.0
 40
6.587502999999999
 50
220.00475900000001
 51
223.31405699999999
  0
ARC
  5
4B4
  8
_________1
 62
     7
 10
64.212315000000004
 20
206.33102700000001
 30
0.0
 40
3.6533669999999989
 50
216.45493300000001
 51
220.15994599999999
  0
ARC
  5
4B5
  8
_________1
 62
     7
 10
67.302430999999999
 20
208.89757299999999
 30
0.0
 40
7.6672359999999991
 50
128.164241
 51
218.16062500000001
  0
ARC
  5
4B6
  8
_________1
 62
     7
 10
73.206261999999995
 20
204.529402
 30
0.0
 40
14.372149
 50
98.088564000000034
 51
101.05419500000001
  0
ARC
  5
4B7
  8
_________1
 62
     7
 10
74.335218000000012
 20
195.64877899999999
 30
0.0
 40
23.323646
 50
94.478808000000001
 51
97.764756000000006
  0
ARC
  5
4B8
  8
_________1
 62
     7
 10
75.119529
 20
183.878603
 30
0.0
 40
35.119394
 50
87.552819999999997
 51
94.254932999999994
  0
ARC
  5
4B9
  8
_________1
 62
     7
 10
75.485392000000004
 20
191.14486599999989
 30
0.0
 40
27.844190999999999
 50
84.552549999999997
 51
87.666557999999995
  0
ARC
  5
4BA
  8
_________1
 62
     7
 10
76.181596999999996
 20
198.439673
 30
0.0
 40
20.516237
 50
82.046788000000006
 51
84.554071999999991
  0
ARC
  5
4BB
  8
_________1
 62
     7
 10
77.358642000000003
 20
206.66090800000001
 30
0.0
 40
12.21125
 50
78.686924000000005
 51
82.179097999999996
  0
ARC
  5
4BC
  8
_________1
 62
     7
 10
73.468052999999983
 20
205.99434400000001
 30
0.0
 40
12.796396
 50
95.924196000000009
 51
98.669286000000014
  0
ARC
  5
4BD
  8
_________1
 62
     7
 10
74.437983000000003
 20
196.60455200000001
 30
0.0
 40
22.236151
 50
93.411727999999997
 51
95.912867999999975
  0
ARC
  5
4BE
  8
_________1
 62
     7
 10
75.112707999999998
 20
183.54805099999999
 30
0.0
 40
35.309815999999998
 50
89.11533399999999
 51
93.243824000000018
  0
ARC
  5
4BF
  8
_________1
 62
     7
 10
75.330892000000006
 20
190.181588
 30
0.0
 40
28.673933999999999
 50
86.144034999999988
 51
89.346602000000004
  0
ARC
  5
4C0
  8
_________1
 62
     7
 10
76.013548
 20
199.49463299999999
 30
0.0
 40
19.336141999999999
 50
83.492863000000014
 51
86.306484999999995
  0
ARC
  5
4C1
  8
_________1
 62
     7
 10
77.041088999999999
 20
208.271773
 30
0.0
 40
10.499131
 50
81.101621999999992
 51
83.636042000000003
  0
ARC
  5
4C2
  8
_________1
 62
     7
 10
76.972294999999974
 20
213.48625100000001
 30
0.0
 40
14.593845
 50
277.80772000000002
 51
280.98876300000001
  0
ARC
  5
4C3
  8
_________1
 62
     7
 10
75.887743999999998
 20
221.992288
 30
0.0
 40
23.168503999999999
 50
274.46272900000008
 51
277.60730999999998
  0
ARC
  5
4C4
  8
_________1
 62
     7
 10
75.084693999999999
 20
233.925105
 30
0.0
 40
35.127861000000003
 50
267.55364900000001
 51
274.254144
  0
ARC
  5
4C5
  8
_________1
 62
     7
 10
74.749382999999995
 20
227.012404
 30
0.0
 40
28.207177000000001
 50
264.56011100000001
 51
267.63478199999997
  0
ARC
  5
4C6
  8
_________1
 62
     7
 10
73.732367999999994
 20
216.878298
 30
0.0
 40
18.022372000000001
 50
261.87127800000002
 51
264.72449
  0
ARC
  5
4C7
  8
_________1
 62
     7
 10
73.011348999999996
 20
212.18281300000001
 30
0.0
 40
13.272207
 50
258.87547499999999
 51
262.086454
  0
ARC
  5
4C8
  8
_________1
 62
     7
 10
67.545873
 20
209.26151100000001
 30
0.0
 40
7.8631320000000011
 50
127.35855100000001
 51
129.44399000000001
  0
ARC
  5
4C9
  8
_________1
 62
     7
 10
69.496030000000005
 20
206.654033
 30
0.0
 40
11.119099
 50
123.40748499999999
 51
127.192984
  0
ARC
  5
4CA
  8
_________1
 62
     7
 10
71.818388999999996
 20
202.99274500000001
 30
0.0
 40
15.454314
 50
119.16133499999999
 51
123.12119800000001
  0
ARC
  5
4CB
  8
_________1
 62
     7
 10
74.393822
 20
198.13816199999999
 30
0.0
 40
20.948841000000002
 50
110.11589499999999
 51
118.84271099999999
  0
ARC
  5
4CC
  8
_________1
 62
     7
 10
73.259846999999993
 20
201.415267
 30
0.0
 40
17.481756000000001
 50
104.76625
 51
110.31995499999999
  0
ARC
  5
4CD
  8
_________1
 62
     7
 10
71.936674999999994
 20
206.63600099999999
 30
0.0
 40
12.096308000000001
 50
100.115309
 51
105.008622
  0
ARC
  5
4CE
  8
_________1
 62
     7
 10
71.306460000000001
 20
210.31049100000001
 30
0.0
 40
8.3682859999999994
 50
95.870265999999987
 51
100.28601
  0
ARC
  5
4CF
  8
_________1
 62
     7
 10
71.591572999999997
 20
209.64407299999999
 30
0.0
 40
10.545987999999999
 50
262.23502200000001
 51
263.788904
  0
ARC
  5
4D0
  8
_________1
 62
     7
 10
71.762283999999994
 20
210.302007
 30
0.0
 40
11.221240999999999
 50
258.07473399999998
 51
261.82525099999998
  0
ARC
  5
4D1
  8
_________1
 62
     7
 10
72.692049999999995
 20
214.325447
 30
0.0
 40
15.350168999999999
 50
253.7954490000001
 51
257.78242299999999
  0
ARC
  5
4D2
  8
_________1
 62
     7
 10
74.398460999999998
 20
219.75859299999999
 30
0.0
 40
21.044024
 50
244.77491499999999
 51
253.46218500000001
  0
ARC
  5
4D3
  8
_________1
 62
     7
 10
72.728893999999997
 20
216.37403699999999
 30
0.0
 40
17.270823
 50
239.37842699999999
 51
245.000315
  0
ARC
  5
4D4
  8
_________1
 62
     7
 10
70.193511000000001
 20
212.18150700000001
 30
0.0
 40
12.371589999999999
 50
234.80813900000001
 51
239.592825
  0
ARC
  5
4D5
  8
_________1
 62
     7
 10
67.734298999999993
 20
208.74626699999999
 30
0.0
 40
8.1469919999999991
 50
230.48235600000001
 51
235.01875999999999
  0
ARC
  5
4D6
  8
_________1
 62
     7
 10
85.561528999999993
 20
212.26857599999991
 30
0.0
 40
3.7113900000000002
 50
53.763491000000002
 51
55.678981999999998
  0
ARC
  5
4D7
  8
_________1
 62
     7
 10
84.091892000000001
 20
210.36251100000001
 30
0.0
 40
6.1178039999999996
 50
49.922575000000002
 51
53.213985000000001
  0
ARC
  5
4D8
  8
_________1
 62
     7
 10
81.996593000000004
 20
207.98798099999999
 30
0.0
 40
9.2840340000000001
 50
42.743538999999998
 51
49.462823
  0
ARC
  5
4D9
  8
_________1
 62
     7
 10
83.819176999999996
 20
209.62002000000001
 30
0.0
 40
6.8379449999999986
 50
38.294812999999998
 51
43.065740999999989
  0
ARC
  5
4DA
  8
_________1
 62
     7
 10
86.652386000000007
 20
211.8424
 30
0.0
 40
3.2371439999999989
 50
33.925978000000001
 51
38.499533
  0
ARC
  5
4DB
  8
_________1
 62
     7
 10
82.805668999999995
 20
208.95390599999999
 30
0.0
 40
8.1030549999999995
 50
306.75170600000001
 51
352.86749800000001
  0
ARC
  5
4DC
  8
_________1
 62
     7
 10
78.818423999999993
 20
209.66074800000001
 30
0.0
 40
9.0227940000000011
 50
82.233985000000004
 51
84.047507999999993
  0
ARC
  5
4DD
  8
_________1
 62
     7
 10
78.408484000000001
 20
207.33398399999999
 30
0.0
 40
11.383982
 50
78.074916000000002
 51
81.772103000000001
  0
ARC
  5
4DE
  8
_________1
 62
     7
 10
77.481665000000007
 20
203.34311500000001
 30
0.0
 40
15.480451
 50
73.816130000000001
 51
77.770774000000003
  0
ARC
  5
4DF
  8
_________1
 62
     7
 10
75.888350000000003
 20
198.25456199999999
 30
0.0
 40
20.811745999999999
 50
64.724558999999985
 51
73.508087000000003
  0
ARC
  5
4E0
  8
_________1
 62
     7
 10
77.508628000000002
 20
201.47761299999999
 30
0.0
 40
17.205672
 50
59.378331000000003
 51
65.020987000000005
  0
ARC
  5
4E1
  8
_________1
 62
     7
 10
80.132902000000001
 20
205.80346299999999
 30
0.0
 40
12.146469
 50
54.763754000000013
 51
59.637171000000002
  0
ARC
  5
4E2
  8
_________1
 62
     7
 10
82.411698999999999
 20
208.97816800000001
 30
0.0
 40
8.2387370000000004
 50
50.482523999999998
 51
54.969836999999998
  0
ARC
  5
4E3
  8
_________1
 62
     7
 10
81.985763000000006
 20
209.37188900000001
 30
0.0
 40
8.9378109999999982
 50
307.52770800000002
 51
309.36064099999999
  0
ARC
  5
4E4
  8
_________1
 62
     7
 10
81.03383199999999
 20
210.68912399999999
 30
0.0
 40
10.562428000000001
 50
303.28631300000001
 51
307.27031799999997
  0
ARC
  5
4E5
  8
_________1
 62
     7
 10
78.549526999999998
 20
214.52905000000001
 30
0.0
 40
15.135845
 50
299.12504100000001
 51
303.17004900000001
  0
ARC
  5
4E6
  8
_________1
 62
     7
 10
75.801488000000006
 20
219.68207100000001
 30
0.0
 40
20.975109
 50
290.11595
 51
298.83142500000002
  0
ARC
  5
4E7
  8
_________1
 62
     7
 10
76.962130999999999
 20
216.31320400000001
 30
0.0
 40
17.412714000000001
 50
284.76618999999999
 51
290.34227600000003
  0
ARC
  5
4E8
  8
_________1
 62
     7
 10
78.265065000000007
 20
211.167709
 30
0.0
 40
12.105179
 50
280.12207799999999
 51
285.01020999999997
  0
ARC
  5
4E9
  8
_________1
 62
     7
 10
78.906565000000001
 20
207.39478
 30
0.0
 40
8.2782920000000004
 50
275.87641200000002
 51
280.34052000000003
  0
ARC
  5
4EA
  8
_________1
 62
     7
 10
69.867460999999992
 20
206.55464000000001
 30
0.0
 40
11.10891
 50
129.40062800000001
 51
131.100201
  0
ARC
  5
4EB
  8
_________1
 62
     7
 10
70.247911999999999
 20
205.88962599999999
 30
0.0
 40
11.864962
 50
123.64983700000001
 51
128.78189800000001
  0
ARC
  5
4EC
  8
_________1
 62
     7
 10
72.746492000000003
 20
202.01267200000001
 30
0.0
 40
16.476937
 50
119.12510899999999
 51
123.41210599999999
  0
ARC
  5
4ED
  8
_________1
 62
     7
 10
74.722758999999996
 20
198.28816399999999
 30
0.0
 40
20.69258
 50
107.944864
 51
118.88587099999999
  0
ARC
  5
4EE
  8
_________1
 62
     7
 10
73.379750999999999
 20
202.66618099999999
 30
0.0
 40
16.113913
 50
102.588849
 51
108.19802799999999
  0
ARC
  5
4EF
  8
_________1
 62
     7
 10
72.55851899999999
 20
206.51869099999999
 30
0.0
 40
12.175090000000001
 50
98.627907999999991
 51
102.76852100000001
  0
ARC
  5
4F0
  8
_________1
 62
     7
 10
72.116239000000007
 20
209.66043300000001
 30
0.0
 40
9.0026159999999997
 50
93.674745000000001
 51
98.844554000000002
  0
ARC
  5
4F1
  8
_________1
 62
     7
 10
84.914590000000004
 20
211.28056100000001
 30
0.0
 40
4.551296999999999
 50
48.839973000000001
 51
53.220033999999991
  0
ARC
  5
4F2
  8
_________1
 62
     7
 10
81.821710999999993
 20
207.809079
 30
0.0
 40
9.2006119999999996
 50
43.173414999999999
 51
48.567562000000002
  0
ARC
  5
4F3
  8
_________1
 62
     7
 10
82.920212000000006
 20
208.85225700000001
 30
0.0
 40
7.6857439999999997
 50
40.274275000000003
 51
43.105046000000002
  0
ARC
  5
4F4
  8
_________1
 62
     7
 10
86.008158999999978
 20
211.47585799999999
 30
0.0
 40
3.633753
 50
36.454839
 51
40.187490999999987
  0
ARC
  5
4F5
  8
_________1
 62
     7
 10
82.816755000000001
 20
208.94583
 30
0.0
 40
7.7578319999999996
 50
308.43897700000008
 51
352.60848299999998
  0
ARC
  5
4F6
  8
_________1
 62
     7
 10
78.070527999999996
 20
209.47790499999999
 30
0.0
 40
9.1858979999999981
 50
84.233735999999993
 51
86.288719
  0
ARC
  5
4F7
  8
_________1
 62
     7
 10
77.707498999999999
 20
206.841418
 30
0.0
 40
11.845909000000001
 50
78.626734000000013
 51
83.767936000000006
  0
ARC
  5
4F8
  8
_________1
 62
     7
 10
76.867618000000007
 20
202.87218200000001
 30
0.0
 40
15.902879
 50
74.037514999999999
 51
78.480253000000005
  0
ARC
  5
4F9
  8
_________1
 62
     7
 10
75.456820999999991
 20
198.18988200000001
 30
0.0
 40
20.792732999999998
 50
63.861495000000012
 51
73.848124999999996
  0
ARC
  5
4FA
  8
_________1
 62
     7
 10
77.168114000000003
 20
201.52436800000001
 30
0.0
 40
17.045494000000001
 50
58.715018000000001
 51
64.087711999999996
  0
ARC
  5
4FB
  8
_________1
 62
     7
 10
79.438232999999997
 20
205.142989
 30
0.0
 40
12.774323000000001
 50
53.668621999999992
 51
58.988171999999999
  0
ARC
  5
4FC
  8
_________1
 62
     7
 10
81.863951999999983
 20
208.377375
 30
0.0
 40
8.731643
 50
48.588115999999999
 51
53.917597999999998
  0
ARC
  5
4FD
  8
_________1
 62
     7
 10
76.739192000000003
 20
211.784156
 30
0.0
 40
12.779426000000001
 50
275.91753899999998
 51
278.66780699999998
  0
ARC
  5
4FE
  8
_________1
 62
     7
 10
75.753922000000003
 20
221.431285
 30
0.0
 40
22.476731000000001
 50
273.40698500000002
 51
275.88040300000011
  0
ARC
  5
4FF
  8
_________1
 62
     7
 10
75.08963
 20
234.11414400000001
 30
0.0
 40
35.176768000000003
 50
269.115296
 51
273.25941899999998
  0
ARC
  5
500
  8
_________1
 62
     7
 10
74.887811999999997
 20
227.810034
 30
0.0
 40
28.870483
 50
266.142492
 51
269.32259499999998
  0
ARC
  5
501
  8
_________1
 62
     7
 10
74.188714000000004
 20
218.28254100000001
 30
0.0
 40
19.317625
 50
263.49287299999997
 51
266.31020999999998
  0
ARC
  5
502
  8
_________1
 62
     7
 10
73.603767000000005
 20
212.888296
 30
0.0
 40
13.891874
 50
261.45338800000002
 51
263.368584
  0
ARC
  5
503
  8
_________1
 62
     7
 10
72.191238999999996
 20
208.88697999999999
 30
0.0
 40
9.7580990000000014
 50
264.2342220000001
 51
266.16886099999999
  0
ARC
  5
504
  8
_________1
 62
     7
 10
72.472076000000001
 20
210.813537
 30
0.0
 40
11.703438
 50
258.61192299999999
 51
263.813828
  0
ARC
  5
505
  8
_________1
 62
     7
 10
73.353173999999996
 20
214.9708
 30
0.0
 40
15.952887
 50
254.02880300000001
 51
258.45790199999999
  0
ARC
  5
506
  8
_________1
 62
     7
 10
74.702421999999999
 20
219.49061800000001
 30
0.0
 40
20.669561000000002
 50
242.92740800000001
 51
253.88044500000001
  0
ARC
  5
507
  8
_________1
 62
     7
 10
72.600009999999983
 20
215.524517
 30
0.0
 40
16.181314
 50
237.578485
 51
243.16465600000001
  0
ARC
  5
508
  8
_________1
 62
     7
 10
70.197514999999996
 20
211.83291399999999
 30
0.0
 40
11.777151999999999
 50
233.5346439999999
 51
237.81579400000001
  0
ARC
  5
509
  8
_________1
 62
     7
 10
68.297801000000007
 20
209.36951500000001
 30
0.0
 40
8.6672100000000007
 50
228.58799099999999
 51
233.95569499999999
  0
ARC
  5
50A
  8
_________1
 62
     7
 10
82.346539000000007
 20
208.876801
 30
0.0
 40
8.0066539999999993
 50
309.02639500000009
 51
311.382972
  0
ARC
  5
50B
  8
_________1
 62
     7
 10
79.993630999999993
 20
211.84977699999999
 30
0.0
 40
11.797886
 50
303.64975099999998
 51
308.81199800000002
  0
ARC
  5
50C
  8
_________1
 62
     7
 10
77.457864000000001
 20
215.782556
 30
0.0
 40
16.476937
 50
299.12512800000002
 51
303.412126
  0
ARC
  5
50D
  8
_________1
 62
     7
 10
75.484783999999991
 20
219.49830499999999
 30
0.0
 40
20.683371999999999
 50
287.94487000000009
 51
298.889882
  0
ARC
  5
50E
  8
_________1
 62
     7
 10
76.804526999999993
 20
215.21915100000001
 30
0.0
 40
16.205891000000001
 50
282.58898499999998
 51
288.16715499999998
  0
ARC
  5
50F
  8
_________1
 62
     7
 10
77.645837999999998
 20
211.276881
 30
0.0
 40
12.175090000000001
 50
278.627928
 51
282.76854100000003
  0
ARC
  5
510
  8
_________1
 62
     7
 10
78.093496999999999
 20
208.05146199999999
 30
0.0
 40
8.9191099999999999
 50
273.67458800000003
 51
278.89307500000001
  0
ARC
  5
511
  8
_________1
 62
     7
 10
75.102178000000009
 20
208.89761300000001
 30
0.0
 40
3.4998939999999998
 50
179.99996999999999
 51
270.00002000000001
  0
ARC
  5
512
  8
_________1
 62
     7
 10
75.102350999999999
 20
208.897785
 30
0.0
 40
3.500067
 50
90.002820000000014
 51
180.00282999999999
  0
ARC
  5
513
  8
_________1
 62
     7
 10
74.968183999999994
 20
208.76397700000001
 30
0.0
 40
3.6363460000000001
 50
2.1061149999999991
 51
87.888234999999995
  0
ARC
  5
514
  8
_________1
 62
     7
 10
74.968531999999996
 20
209.03126
 30
0.0
 40
3.6359979999999998
 50
272.10647
 51
357.89353999999997
  0
ARC
  5
515
  8
_________1
 62
     7
 10
75.102350000000001
 20
208.89744099999999
 30
0.0
 40
2.3001320000000001
 50
179.995679
 51
269.99572899999998
  0
ARC
  5
516
  8
_________1
 62
     7
 10
75.102179000000007
 20
208.89761300000001
 30
0.0
 40
2.2999610000000001
 50
90.0
 51
179.99996999999999
  0
ARC
  5
517
  8
_________1
 62
     7
 10
75.014034999999993
 20
208.80947
 30
0.0
 40
2.3897300000000001
 50
2.113801
 51
87.886189000000016
  0
ARC
  5
518
  8
_________1
 62
     7
 10
75.013618000000008
 20
208.985816
 30
0.0
 40
2.3901479999999991
 50
272.12342799999999
 51
357.88516399999997
  0
ARC
  5
519
  8
_________1
 62
     7
 10
84.339218999999986
 20
209.512652
 30
0.0
 40
4.3245569999999987
 50
31.376833000000008
 51
35.345149999999997
  0
ARC
  5
51A
  8
_________1
 62
     7
 10
83.676541000000014
 20
209.14949100000001
 30
0.0
 40
5.0795320000000004
 50
17.215962000000001
 51
30.982271000000011
  0
ARC
  5
51B
  8
_________1
 62
     7
 10
82.681087000000005
 20
208.893201
 30
0.0
 40
6.1064439999999998
 50
8.9935220000000005
 51
16.74849
  0
ARC
  5
51C
  8
_________1
 62
     7
 10
83.269998999999999
 20
208.785855
 30
0.0
 40
5.5096709999999991
 50
339.435562
 51
351.25093900000002
  0
ARC
  5
51D
  8
_________1
 62
     7
 10
84.159231999999989
 20
208.411551
 30
0.0
 40
4.5457830000000001
 50
324.644766
 51
339.91578500000003
  0
ARC
  5
51E
  8
_________1
 62
     7
 10
81.111818999999997
 20
210.00177400000001
 30
0.0
 40
7.9650339999999993
 50
320.56736899999999
 51
328.00179700000001
  0
ARC
  5
51F
  8
_________1
 62
     7
 10
78.868914000000004
 20
211.93996000000001
 30
0.0
 40
10.928709
 50
312.46857599999998
 51
320.18793299999999
  0
ARC
  5
520
  8
_________1
 62
     7
 10
76.954553000000004
 20
214.097117
 30
0.0
 40
13.812550999999999
 50
301.17472800000002
 51
312.28457900000001
  0
ARC
  5
521
  8
_________1
 62
     7
 10
77.651163999999994
 20
212.83518000000001
 30
0.0
 40
12.372377999999999
 50
293.28614499999998
 51
301.43973899999997
  0
ARC
  5
522
  8
_________1
 62
     7
 10
78.722312000000002
 20
210.2363
 30
0.0
 40
9.5618470000000002
 50
286.90995600000002
 51
293.54682300000002
  0
ARC
  5
523
  8
_________1
 62
     7
 10
79.385708999999991
 20
207.91382899999999
 30
0.0
 40
7.1469479999999992
 50
279.48722599999991
 51
287.23720500000002
  0
ARC
  5
524
  8
_________1
 62
     7
 10
79.228842
 20
209.23080100000001
 30
0.0
 40
7.814646999999999
 50
72.588123999999993
 51
80.164625000000015
  0
ARC
  5
525
  8
_________1
 62
     7
 10
78.232047999999992
 20
206.24469300000001
 30
0.0
 40
10.962357000000001
 50
64.593318000000025
 51
72.287269999999992
  0
ARC
  5
526
  8
_________1
 62
     7
 10
76.965452999999997
 20
203.69205299999999
 30
0.0
 40
13.811626
 50
53.279502000000001
 51
64.390418000000011
  0
ARC
  5
527
  8
_________1
 62
     7
 10
77.923073000000002
 20
204.87541999999999
 30
0.0
 40
12.290659
 50
45.349941999999999
 51
53.559404000000001
  0
ARC
  5
528
  8
_________1
 62
     7
 10
79.994073
 20
206.88970599999999
 30
0.0
 40
9.4024020000000004
 50
38.951070000000001
 51
45.701833000000001
  0
ARC
  5
529
  8
_________1
 62
     7
 10
81.834214999999986
 20
208.306342
 30
0.0
 40
7.0809920000000002
 50
31.578430999999998
 51
39.397103000000001
  0
ARC
  5
52A
  8
_________1
 62
     7
 10
66.501756
 20
208.70461900000001
 30
0.0
 40
5.087845999999999
 50
212.26484199999999
 51
215.07138699999999
  0
ARC
  5
52B
  8
_________1
 62
     7
 10
66.511917000000011
 20
208.64022299999999
 30
0.0
 40
5.0624169999999991
 50
197.79532299999991
 51
211.58714900000001
  0
ARC
  5
52C
  8
_________1
 62
     7
 10
67.55149200000001
 20
208.90875700000001
 30
0.0
 40
6.1346339999999993
 50
173.21208100000001
 51
197.21600099999989
  0
ARC
  5
52D
  8
_________1
 62
     7
 10
66.967636999999996
 20
208.99911599999999
 30
0.0
 40
5.5442299999999998
 50
159.45253
 51
173.426186
  0
ARC
  5
52E
  8
_________1
 62
     7
 10
66.077668000000003
 20
209.36830599999999
 30
0.0
 40
4.5814209999999989
 50
144.71996999999999
 51
159.86947499999999
  0
ARC
  5
52F
  8
_________1
 62
     7
 10
70.963874000000004
 20
208.52690699999999
 30
0.0
 40
7.7756919999999994
 50
252.58801600000001
 51
260.201931
  0
ARC
  5
530
  8
_________1
 62
     7
 10
72.003973000000002
 20
211.61762100000001
 30
0.0
 40
11.036229000000001
 50
244.59351100000001
 51
252.23720399999999
  0
ARC
  5
531
  8
_________1
 62
     7
 10
73.238903000000008
 20
214.10351800000001
 30
0.0
 40
13.811626
 50
233.27952199999999
 51
244.39043799999999
  0
ARC
  5
532
  8
_________1
 62
     7
 10
72.262197
 20
212.90046799999999
 30
0.0
 40
12.263487
 50
225.34990099999999
 51
233.576536
  0
ARC
  5
533
  8
_________1
 62
     7
 10
70.401606999999998
 20
211.07977399999999
 30
0.0
 40
9.6607479999999981
 50
219.04145399999999
 51
225.61148900000001
  0
ARC
  5
534
  8
_________1
 62
     7
 10
68.390366999999998
 20
209.50167500000001
 30
0.0
 40
7.1047390000000004
 50
211.57853900000001
 51
219.37330499999999
  0
ARC
  5
535
  8
_________1
 62
     7
 10
69.033993999999993
 20
207.831324
 30
0.0
 40
7.8955000000000002
 50
140.508174
 51
148.007598
  0
ARC
  5
536
  8
_________1
 62
     7
 10
71.315629000000001
 20
205.87689399999999
 30
0.0
 40
10.899378
 50
132.46848600000001
 51
140.20739399999999
  0
ARC
  5
537
  8
_________1
 62
     7
 10
73.272767000000002
 20
203.667337
 30
0.0
 40
13.850768
 50
121.190084
 51
132.269184
  0
ARC
  5
538
  8
_________1
 62
     7
 10
72.565703999999997
 20
204.93587099999999
 30
0.0
 40
12.399532000000001
 50
113.295068
 51
121.43077599999999
  0
ARC
  5
539
  8
_________1
 62
     7
 10
71.467615000000009
 20
207.595595
 30
0.0
 40
9.5224679999999982
 50
106.88906
 51
113.555352
  0
ARC
  5
53A
  8
_________1
 62
     7
 10
70.816788999999986
 20
209.89248799999999
 30
0.0
 40
7.1357039999999987
 50
99.487162999999995
 51
107.246675
  0
ARC
  5
53B
  8
_________1
 62
     7
 10
94.818081000000006
 20
208.46539799999999
 30
0.0
 40
1.566926
 50
295.198759
 51
297.93135799999999
  0
ARC
  5
53C
  8
_________1
 62
     7
 10
94.628672999999992
 20
208.85400000000001
 30
0.0
 40
2.0939040000000002
 50
90.563276999999985
 51
151.66636
  0
ARC
  5
53D
  8
_________1
 62
     7
 10
94.557236000000003
 20
208.92475899999999
 30
0.0
 40
2.0950159999999989
 50
298.34946100000002
 51
359.25757900000002
  0
ARC
  5
53E
  8
_________1
 62
     7
 10
94.603605000000002
 20
208.89249799999999
 30
0.0
 40
2.0447340000000001
 50
270.12562400000002
 51
295.54127899999997
  0
ARC
  5
53F
  8
_________1
 62
     7
 10
94.629327000000004
 20
208.942655
 30
0.0
 40
2.0949939999999989
 50
208.351224
 51
269.41913899999997
  0
ARC
  5
540
  8
_________1
 62
     7
 10
94.553927999999999
 20
208.86760599999999
 30
0.0
 40
2.098361999999999
 50
0.8193889999999999
 51
63.652389000000007
  0
ARC
  5
541
  8
_________1
 62
     7
 10
94.601713000000004
 20
208.89477099999999
 30
0.0
 40
2.053042
 50
64.511004
 51
89.822093000000024
  0
ARC
  5
542
  8
_________1
 62
     7
 10
94.565652999999983
 20
208.86139399999999
 30
0.0
 40
0.987061
 50
2.102933999999999
 51
87.876277999999999
  0
LINE
  5
543
  8
_________1
 62
     7
 10
94.602199999999996
 20
209.84800000000001
 30
0.0
 11
94.601500000000001
 21
209.84800000000001
 31
0.0
  0
ARC
  5
544
  8
_________1
 62
     7
 10
94.565228000000005
 20
208.934617
 30
0.0
 40
0.987516
 50
272.14744999999999
 51
357.85255899999999
  0
ARC
  5
545
  8
_________1
 62
     7
 10
83.709493000000009
 20
208.85489699999999
 30
0.0
 40
0.9071189999999999
 50
217.53031899999999
 51
269.64972899999998
  0
ARC
  5
546
  8
_________1
 62
     7
 10
83.833579
 20
208.90224699999999
 30
0.0
 40
1.0350669999999991
 50
183.67258100000001
 51
215.42407700000001
  0
ARC
  5
547
  8
_________1
 62
     7
 10
83.849591000000004
 20
208.899235
 30
0.0
 40
1.050861
 50
166.399191
 51
183.452811
  0
ARC
  5
548
  8
_________1
 62
     7
 10
83.745601000000008
 20
208.89712399999999
 30
0.0
 40
0.9506530000000001
 50
89.977288000000001
 51
164.801457
  0
ARC
  5
549
  8
_________1
 62
     7
 10
100.782777
 20
208.91761700000001
 30
0.0
 40
0.520247
 50
272.12458500000002
 51
357.79650499999991
  0
ARC
  5
54A
  8
_________1
 62
     7
 10
100.821713
 20
208.91690399999999
 30
0.0
 40
0.519549
 50
182.127871
 51
267.83265799999998
  0
ARC
  5
54B
  8
_________1
 62
     7
 10
100.821388
 20
208.878648
 30
0.0
 40
0.519212
 50
92.132875999999996
 51
177.90659500000001
  0
ARC
  5
54C
  8
_________1
 62
     7
 10
100.783416
 20
208.87825000000001
 30
0.0
 40
0.5195850000000001
 50
2.135761
 51
87.943147999999994
  0
LINE
  5
54D
  8
_________1
 62
     7
 10
92.785600000000002
 20
207.94800000000001
 30
0.0
 11
94.602199999999996
 21
207.94800000000001
 31
0.0
  0
LINE
  5
54E
  8
_________1
 62
     7
 10
92.785600000000002
 20
209.84800000000001
 30
0.0
 11
94.601500000000001
 21
209.84800000000001
 31
0.0
  0
LINE
  5
54F
  8
_________1
 62
     7
 10
95.552000000000007
 20
207.048
 30
0.0
 11
95.552000000000007
 21
207.08099999999999
 31
0.0
  0
LINE
  5
550
  8
_________1
 62
     7
 10
98.202000000000012
 20
210.24799999999999
 30
0.0
 11
98.202000000000012
 21
207.548
 31
0.0
  0
LINE
  5
551
  8
_________1
 62
     7
 10
98.202000000000012
 20
207.548
 30
0.0
 11
98.202000000000012
 21
207.048
 31
0.0
  0
LINE
  5
552
  8
_________1
 62
     7
 10
98.102500000000006
 20
210.24799999999999
 30
0.0
 11
98.102500000000006
 21
207.548
 31
0.0
  0
LINE
  5
553
  8
_________1
 62
     7
 10
98.102500000000006
 20
207.548
 30
0.0
 11
98.102500000000006
 21
207.048
 31
0.0
  0
LINE
  5
554
  8
_________1
 62
     7
 10
101.502
 20
207.048
 30
0.0
 11
102.30200000000001
 21
207.048
 31
0.0
  0
LINE
  5
555
  8
_________1
 62
     7
 10
101.502
 20
210.74799999999999
 30
0.0
 11
102.30200000000001
 21
210.74799999999999
 31
0.0
  0
LINE
  5
556
  8
_________1
 62
     7
 10
83.703900000000004
 20
207.94800000000001
 30
0.0
 11
92.785600000000002
 21
207.94800000000001
 31
0.0
  0
LINE
  5
557
  8
_________1
 62
     7
 10
83.745999999999995
 20
209.84800000000001
 30
0.0
 11
92.785600000000002
 21
209.84800000000001
 31
0.0
  0
LINE
  5
558
  8
_________1
 62
     7
 10
102.30200000000001
 20
210.74799999999999
 30
0.0
 11
102.30200000000001
 21
207.048
 31
0.0
  0
LINE
  5
559
  8
_________1
 62
     7
 10
101.502
 20
210.74799999999999
 30
0.0
 11
101.502
 21
207.048
 31
0.0
  0
LINE
  5
55A
  8
_________1
 62
     7
 10
95.485200000000006
 20
210.74799999999999
 30
0.0
 11
98.102500000000006
 21
210.74799999999999
 31
0.0
  0
LINE
  5
55B
  8
_________1
 62
     7
 10
98.202000000000012
 20
210.74799999999999
 30
0.0
 11
101.502
 21
210.74799999999999
 31
0.0
  0
LINE
  5
55C
  8
_________1
 62
     7
 10
95.552000000000007
 20
207.048
 30
0.0
 11
98.102500000000006
 21
207.048
 31
0.0
  0
LINE
  5
55D
  8
_________1
 62
     7
 10
98.202000000000012
 20
207.048
 30
0.0
 11
101.502
 21
207.048
 31
0.0
  0
LINE
  5
55E
  8
_________1
 62
     7
 10
98.102500000000006
 20
210.74799999999999
 30
0.0
 11
98.102500000000006
 21
210.24799999999999
 31
0.0
  0
LINE
  5
55F
  8
_________1
 62
     7
 10
98.202000000000012
 20
210.74799999999999
 30
0.0
 11
98.202000000000012
 21
210.24799999999999
 31
0.0
  0
LINE
  5
560
  8
_________1
 62
     7
 10
98.202000000000012
 20
210.24799999999999
 30
0.0
 11
98.102500000000006
 21
210.24799999999999
 31
0.0
  0
LINE
  5
561
  8
_________1
 62
     7
 10
98.202000000000012
 20
207.548
 30
0.0
 11
98.102500000000006
 21
207.548
 31
0.0
  0
LINE
  5
562
  8
_________1
 62
     7
 10
96.652799999999999
 20
143.143
 30
0.0
 11
96.652799999999999
 21
141.09299999999999
 31
0.0
  0
LINE
  5
563
  8
_________1
 62
     7
 10
96.652799999999999
 20
137.393
 30
0.0
 11
96.652799999999999
 21
133.143
 31
0.0
  0
ARC
  5
564
  8
_________1
 62
     7
 10
96.846671999999984
 20
139.257184
 30
0.0
 40
1.361183
 50
166.31269
 51
180.58141800000001
  0
ARC
  5
565
  8
_________1
 62
     7
 10
97.060141999999999
 20
139.185946
 30
0.0
 40
1.585556999999999
 50
151.107665
 51
165.63683800000001
  0
ARC
  5
566
  8
_________1
 62
     7
 10
97.904202999999995
 20
138.67464000000001
 30
0.0
 40
2.5719110000000001
 50
144.01144400000001
 51
150.220033
  0
ARC
  5
567
  8
_________1
 62
     7
 10
99.620501000000004
 20
137.33536799999999
 30
0.0
 40
4.7482089999999992
 50
138.46797000000001
 51
143.10502
  0
ARC
  5
568
  8
_________1
 62
     7
 10
103.640792
 20
133.67168899999999
 30
0.0
 40
10.187191
 50
135.85519600000001
 51
138.035067
  0
ARC
  5
569
  8
_________1
 62
     7
 10
108.233908
 20
129.29503500000001
 30
0.0
 40
16.531458000000001
 50
135.232575
 51
136.05752200000001
  0
ARC
  5
56A
  8
_________1
 62
     7
 10
96.912652000000008
 20
139.23646299999999
 30
0.0
 40
1.4271089999999991
 50
179.72261399999999
 51
193.35668100000001
  0
ARC
  5
56B
  8
_________1
 62
     7
 10
97.027968999999999
 20
139.288048
 30
0.0
 40
1.5514030000000001
 50
194.226461
 51
209.06535199999999
  0
ARC
  5
56C
  8
_________1
 62
     7
 10
97.800238000000022
 20
139.74241699999999
 30
0.0
 40
2.4472509999999992
 50
209.57984400000001
 51
216.11181099999999
  0
ARC
  5
56D
  8
_________1
 62
     7
 10
99.490959000000004
 20
141.044982
 30
0.0
 40
4.581154999999999
 50
216.810385
 51
221.616625
  0
ARC
  5
56E
  8
_________1
 62
     7
 10
103.63169600000001
 20
144.80586600000001
 30
0.0
 40
10.174744
 50
221.96359899999999
 51
224.14613700000001
  0
ARC
  5
56F
  8
_________1
 62
     7
 10
112.86122
 20
153.715294
 30
0.0
 40
23.002896
 50
224.05852100000001
 51
224.65138200000001
  0
LINE
  5
570
  8
_________1
 62
     7
 10
102.303
 20
141.09299999999999
 30
0.0
 11
102.303
 21
137.393
 31
0.0
  0
LINE
  5
571
  8
_________1
 62
     7
 10
101.503
 20
141.09299999999999
 30
0.0
 11
101.503
 21
137.393
 31
0.0
  0
LINE
  5
572
  8
_________1
 62
     7
 10
96.652799999999999
 20
141.09299999999999
 30
0.0
 11
98.102800000000002
 21
141.09299999999999
 31
0.0
  0
LINE
  5
573
  8
_________1
 62
     7
 10
98.202699999999993
 20
141.09299999999999
 30
0.0
 11
100.303
 21
141.09299999999999
 31
0.0
  0
LINE
  5
574
  8
_________1
 62
     7
 10
101.303
 20
141.09299999999999
 30
0.0
 11
102.303
 21
141.09299999999999
 31
0.0
  0
LINE
  5
575
  8
_________1
 62
     7
 10
96.652799999999999
 20
137.393
 30
0.0
 11
98.102800000000002
 21
137.393
 31
0.0
  0
LINE
  5
576
  8
_________1
 62
     7
 10
98.202699999999993
 20
137.393
 30
0.0
 11
102.303
 21
137.393
 31
0.0
  0
LINE
  5
577
  8
_________1
 62
     7
 10
98.102800000000002
 20
141.09299999999999
 30
0.0
 11
98.102800000000002
 21
137.393
 31
0.0
  0
LINE
  5
578
  8
_________1
 62
     7
 10
98.202699999999993
 20
141.09299999999999
 30
0.0
 11
98.202699999999993
 21
137.393
 31
0.0
  0
LINE
  5
579
  8
_________1
 62
     7
 10
98.202699999999993
 20
140.59299999999999
 30
0.0
 11
98.102800000000002
 21
140.59299999999999
 31
0.0
  0
LINE
  5
57A
  8
_________1
 62
     7
 10
98.202699999999993
 20
137.893
 30
0.0
 11
98.102800000000002
 21
137.893
 31
0.0
  0
LINE
  5
57B
  8
_________1
 62
     7
 10
100.303
 20
142.44300000000001
 30
0.0
 11
100.303
 21
141.09299999999999
 31
0.0
  0
LINE
  5
57C
  8
_________1
 62
     7
 10
101.303
 20
142.44300000000001
 30
0.0
 11
101.303
 21
141.09299999999999
 31
0.0
  0
LINE
  5
57D
  8
_________1
 62
     7
 10
101.303
 20
142.44300000000001
 30
0.0
 11
100.303
 21
142.44300000000001
 31
0.0
  0
LINE
  5
57E
  8
_________1
 62
     7
 10
100.672
 20
141.02799999999999
 30
0.0
 11
100.803
 21
141.024
 31
0.0
  0
ARC
  5
57F
  8
_________1
 62
     7
 10
100.74892199999999
 20
142.724535
 30
0.0
 40
1.6986869999999989
 50
261.66515399999997
 51
267.39913799999999
  0
ARC
  5
580
  8
_________1
 62
     7
 10
100.657596
 20
142.15288899999999
 30
0.0
 40
1.119864999999999
 50
255.103185
 51
262.04870299999999
  0
ARC
  5
581
  8
_________1
 62
     7
 10
100.48782300000001
 20
141.53521699999999
 30
0.0
 40
0.4793370000000001
 50
250.00018700000001
 51
255.733844
  0
ARC
  5
582
  8
_________1
 62
     7
 10
100.382375
 20
141.264297
 30
0.0
 40
0.188799
 50
245.09445500000001
 51
251.951987
  0
LINE
  5
583
  8
_________1
 62
     7
 10
100.80200000000001
 20
141.024
 30
0.0
 11
100.941
 21
141.02799999999999
 31
0.0
  0
ARC
  5
584
  8
_________1
 62
     7
 10
100.83369999999999
 20
142.96006
 30
0.0
 40
1.9350709999999991
 50
273.16557899999998
 51
278.13864799999999
  0
ARC
  5
585
  8
_________1
 62
     7
 10
100.935467
 20
142.21562900000001
 30
0.0
 40
1.183738999999999
 50
278.363542
 51
284.83566500000001
  0
ARC
  5
586
  8
_________1
 62
     7
 10
101.03292
 20
141.80232799999999
 30
0.0
 40
0.7593529999999999
 50
285.71248800000001
 51
289.33866399999999
  0
ARC
  5
587
  8
_________1
 62
     7
 10
101.220118
 20
141.278603
 30
0.0
 40
0.203212
 50
288.43538599999999
 51
294.06563999999997
  0
LINE
  5
588
  8
_________1
 62
     7
 10
92.552700000000016
 20
143.143
 30
0.0
 11
92.552700000000016
 21
133.143
 31
0.0
  0
LINE
  5
589
  8
_________1
 62
     7
 10
82.799300000000002
 20
148.73699999999999
 30
0.0
 11
84.605900000000005
 21
148.15000000000001
 31
0.0
  0
LINE
  5
58A
  8
_________1
 62
     7
 10
85.7042
 20
151.529
 30
0.0
 11
84.605900000000005
 21
148.15000000000001
 31
0.0
  0
LINE
  5
58B
  8
_________1
 62
     7
 10
93.6524
 20
150.27000000000001
 30
0.0
 11
93.6524
 21
143.143
 31
0.0
  0
LINE
  5
58C
  8
_________1
 62
     7
 10
92.552700000000016
 20
143.143
 30
0.0
 11
96.6524
 21
143.143
 31
0.0
  0
LINE
  5
58D
  8
_________1
 62
     7
 10
92.552700000000016
 20
141.54300000000001
 30
0.0
 11
96.652799999999999
 21
141.54300000000001
 31
0.0
  0
LINE
  5
58E
  8
_________1
 62
     7
 10
92.552700000000016
 20
133.143
 30
0.0
 11
96.652799999999999
 21
133.143
 31
0.0
  0
ARC
  5
58F
  8
_________1
 62
     7
 10
89.813112999999987
 20
149.945821
 30
0.0
 40
6.3018479999999997
 50
92.133006999999992
 51
159.852687
  0
ARC
  5
590
  8
_________1
 62
     7
 10
89.578248000000002
 20
150.26915600000001
 30
0.0
 40
5.9741460000000002
 50
0.003001
 51
89.996988999999999
  0
LINE
  5
591
  8
_________1
 62
     7
 10
83.896899999999988
 20
152.11600000000001
 30
0.0
 11
82.799300000000002
 21
148.73699999999999
 31
0.0
  0
LINE
  5
592
  8
_________1
 62
     7
 10
95.552400000000006
 20
150.27000000000001
 30
0.0
 11
95.552400000000006
 21
143.143
 31
0.0
  0
ARC
  5
593
  8
_________1
 62
     7
 10
89.738821000000002
 20
150.049722
 30
0.0
 40
4.2972769999999993
 50
92.137240000000006
 51
159.86475100000001
  0
ARC
  5
594
  8
_________1
 62
     7
 10
89.578075999999996
 20
150.269329
 30
0.0
 40
4.0746809999999991
 50
0.001973
 51
89.993172000000001
  0
LINE
  5
595
  8
_________1
 62
     7
 10
92.602299999999985
 20
133.04300000000001
 30
0.0
 11
92.602299999999985
 21
133.143
 31
0.0
  0
LINE
  5
596
  8
_________1
 62
     7
 10
96.602500000000006
 20
133.143
 30
0.0
 11
96.602500000000006
 21
133.04300000000001
 31
0.0
  0
ARC
  5
597
  8
_________1
 62
     7
 10
63.472352000000001
 20
137.988437
 30
0.0
 40
4.1723410000000003
 50
179.59478300000001
 51
181.69560799999999
  0
ARC
  5
598
  8
_________1
 62
     7
 10
67.99520600000001
 20
137.94628800000001
 30
0.0
 40
8.6953870000000002
 50
176.82028500000001
 51
179.527826
  0
ARC
  5
599
  8
_________1
 62
     7
 10
73.287207999999993
 20
137.61185800000001
 30
0.0
 40
13.99785
 50
171.15465599999999
 51
176.655001
  0
ARC
  5
59A
  8
_________1
 62
     7
 10
69.361027000000007
 20
138.224504
 30
0.0
 40
10.024158
 50
168.57738699999999
 51
171.16403
  0
ARC
  5
59B
  8
_________1
 62
     7
 10
64.824609999999993
 20
139.14483899999999
 30
0.0
 40
5.3953269999999991
 50
165.613866
 51
168.616648
  0
ARC
  5
59C
  8
_________1
 62
     7
 10
82.271259999999998
 20
138.40012300000001
 30
0.0
 40
8.5915219999999994
 50
13.025409
 51
14.046301
  0
ARC
  5
59D
  8
_________1
 62
     7
 10
82.999600000000001
 20
138.62599900000001
 30
0.0
 40
7.831213
 50
9.6080380000000005
 51
12.616358
  0
ARC
  5
59E
  8
_________1
 62
     7
 10
77.022818000000001
 20
137.62192400000001
 30
0.0
 40
13.891745999999999
 50
4.0352110000000003
 51
9.5767889999999998
  0
ARC
  5
59F
  8
_________1
 62
     7
 10
81.98519499999999
 20
137.93208200000001
 30
0.0
 40
8.9199339999999996
 50
1.385923
 51
4.2909309999999987
  0
ARC
  5
5A0
  8
_________1
 62
     7
 10
86.107958999999994
 20
138.00640200000001
 30
0.0
 40
4.7966459999999991
 50
358.310473
 51
1.689527
  0
ARC
  5
5A1
  8
_________1
 62
     7
 10
64.547473999999994
 20
136.10798700000001
 30
0.0
 40
4.762537
 50
217.92711600000001
 51
220.054903
  0
ARC
  5
5A2
  8
_________1
 62
     7
 10
65.355615999999998
 20
136.65201999999999
 30
0.0
 40
5.7347859999999988
 50
209.639498
 51
217.25170199999999
  0
ARC
  5
5A3
  8
_________1
 62
     7
 10
68.029544000000001
 20
138.09027900000001
 30
0.0
 40
8.7704179999999994
 50
189.74030200000001
 51
209.167181
  0
ARC
  5
5A4
  8
_________1
 62
     7
 10
65.697373999999996
 20
137.700706
 30
0.0
 40
6.4059669999999986
 50
183.77176
 51
189.83515399999999
  0
ARC
  5
5A5
  8
_________1
 62
     7
 10
63.713566
 20
137.598086
 30
0.0
 40
4.4197949999999988
 50
176.53801100000001
 51
184.13604900000001
  0
ARC
  5
5A6
  8
_________1
 62
     7
 10
86.431068999999994
 20
137.60215299999999
 30
0.0
 40
4.4791679999999987
 50
1.1013310000000001
 51
3.3639139999999998
  0
ARC
  5
5A7
  8
_________1
 62
     7
 10
85.057837000000006
 20
137.641234
 30
0.0
 40
5.851761999999999
 50
353.00167400000009
 51
0.4603100000000001
  0
ARC
  5
5A8
  8
_________1
 62
     7
 10
82.180381000000011
 20
138.07776699999999
 30
0.0
 40
8.7613570000000003
 50
333.01488999999998
 51
352.46089699999999
  0
ARC
  5
5A9
  8
_________1
 62
     7
 10
84.439518000000007
 20
136.904686
 30
0.0
 40
6.2159219999999991
 50
326.94759800000003
 51
333.201615
  0
ARC
  5
5AA
  8
_________1
 62
     7
 10
85.980339999999998
 20
135.85208499999999
 30
0.0
 40
4.3505549999999991
 50
319.78635000000003
 51
327.49926299999998
  0
ARC
  5
5AB
  8
_________1
 62
     7
 10
81.734998000000004
 20
173.71568199999999
 30
0.0
 40
34.187379
 50
281.89803799999999
 51
284.628805
  0
ARC
  5
5AC
  8
_________1
 62
     7
 10
79.192318999999983
 20
186.366657
 30
0.0
 40
47.090940000000003
 50
278.51899900000001
 51
281.75178199999999
  0
ARC
  5
5AD
  8
_________1
 62
     7
 10
76.673356000000013
 20
204.25021699999999
 30
0.0
 40
65.150531999999998
 50
274.987663
 51
278.38000399999999
  0
ARC
  5
5AE
  8
_________1
 62
     7
 10
75.161231999999998
 20
223.658604
 30
0.0
 40
84.617087999999995
 50
270.672461
 51
274.86511300000001
  0
ARC
  5
5AF
  8
_________1
 62
     7
 10
74.978564000000006
 20
221.42829499999999
 30
0.0
 40
82.389340999999988
 50
265.39694200000002
 51
270.81768799999998
  0
ARC
  5
5B0
  8
_________1
 62
     7
 10
73.175842000000003
 20
201.12893600000001
 30
0.0
 40
62.011009999999999
 50
261.95346699999999
 51
265.55201800000009
  0
ARC
  5
5B1
  8
_________1
 62
     7
 10
70.756543999999991
 20
184.912387
 30
0.0
 40
45.615642999999992
 50
258.72581000000002
 51
262.11113599999999
  0
ARC
  5
5B2
  8
_________1
 62
     7
 10
68.263317999999998
 20
172.77946299999999
 30
0.0
 40
33.22949400000001
 50
255.30726899999999
 51
258.8518029999999
  0
ARC
  5
5B3
  8
_________1
 62
     7
 10
90.400255999999985
 20
140.424341
 30
0.0
 40
0.214494
 50
16.521132000000001
 51
98.320870000000014
  0
ARC
  5
5B4
  8
_________1
 62
     7
 10
59.804040000000001
 20
140.42443599999999
 30
0.0
 40
0.214409
 50
81.659378000000004
 51
163.49858
  0
LINE
  5
5B5
  8
_________1
 62
     7
 10
75.400899999999993
 20
124.393
 30
0.0
 11
75.400899999999993
 21
124.593
 31
0.0
  0
LINE
  5
5B6
  8
_________1
 62
     7
 10
74.800700000000006
 20
124.393
 30
0.0
 11
74.800700000000006
 21
124.593
 31
0.0
  0
LINE
  5
5B7
  8
_________1
 62
     7
 10
75.301000000000002
 20
124.29300000000001
 30
0.0
 11
75.301000000000002
 21
124.593
 31
0.0
  0
LINE
  5
5B8
  8
_________1
 62
     7
 10
74.90100000000001
 20
124.29300000000001
 30
0.0
 11
74.90100000000001
 21
124.593
 31
0.0
  0
LINE
  5
5B9
  8
_________1
 62
     7
 10
73.150899999999993
 20
124.593
 30
0.0
 11
77.051100000000005
 21
124.593
 31
0.0
  0
LINE
  5
5BA
  8
_________1
 62
     7
 10
73.051000000000002
 20
124.693
 30
0.0
 11
77.15100000000001
 21
124.693
 31
0.0
  0
LINE
  5
5BB
  8
_________1
 62
     7
 10
73.150899999999993
 20
124.593
 30
0.0
 11
73.051000000000002
 21
124.693
 31
0.0
  0
LINE
  5
5BC
  8
_________1
 62
     7
 10
77.15100000000001
 20
124.693
 30
0.0
 11
77.051100000000005
 21
124.593
 31
0.0
  0
LINE
  5
5BD
  8
_________1
 62
     7
 10
75.400899999999993
 20
124.393
 30
0.0
 11
75.301000000000002
 21
124.29300000000001
 31
0.0
  0
LINE
  5
5BE
  8
_________1
 62
     7
 10
74.800700000000006
 20
124.393
 30
0.0
 11
74.90100000000001
 21
124.29300000000001
 31
0.0
  0
LINE
  5
5BF
  8
_________1
 62
     7
 10
75.301000000000002
 20
124.29300000000001
 30
0.0
 11
74.90100000000001
 21
124.29300000000001
 31
0.0
  0
LINE
  5
5C0
  8
_________1
 62
     7
 10
75.400899999999993
 20
124.393
 30
0.0
 11
74.800700000000006
 21
124.393
 31
0.0
  0
LINE
  5
5C1
  8
_________1
  6
AIGENLINE001
 62
     7
 10
153.55500000000001
 20
119.74299999999999
 30
0.0
 11
157.976
 21
119.74299999999999
 31
0.0
  0
LINE
  5
5C2
  8
_________1
  6
AIGENLINE001
 62
     7
 10
153.55500000000001
 20
125.744
 30
0.0
 11
158.06399999999999
 21
125.744
 31
0.0
  0
LINE
  5
5C3
  8
_________1
  6
AIGENLINE001
 62
     7
 10
153.55500000000001
 20
128.24299999999999
 30
0.0
 11
158.012
 21
128.24299999999999
 31
0.0
  0
LINE
  5
5C4
  8
_________1
  6
AIGENLINE001
 62
     7
 10
137.05500000000001
 20
130.24299999999999
 30
0.0
 11
137.05500000000001
 21
131.744
 31
0.0
  0
LINE
  5
5C5
  8
_________1
  6
AIGENLINE001
 62
     7
 10
145.55600000000001
 20
130.24299999999999
 30
0.0
 11
145.55600000000001
 21
131.744
 31
0.0
  0
LINE
  5
5C6
  8
_________1
  6
AIGENLINE001
 62
     7
 10
150.55500000000001
 20
130.24299999999999
 30
0.0
 11
150.55500000000001
 21
131.744
 31
0.0
  0
LINE
  5
5C7
  8
_________1
  6
AIGENLINE001
 62
     7
 10
142.05500000000001
 20
157.83799999999999
 30
0.0
 11
142.05500000000001
 21
87.181100000000015
 31
0.0
  0
ARC
  5
5C8
  8
_________1
  6
AIGENLINE001
 62
     7
 10
89.578559999999996
 20
150.26946799999999
 30
0.0
 40
5.0240150000000003
 50
0.00001
 51
89.999980000000008
  0
LINE
  5
5C9
  8
_________1
  6
AIGENLINE001
 62
     7
 10
89.578599999999994
 20
155.29300000000001
 30
0.0
 11
89.560000000000016
 21
155.29300000000001
 31
0.0
  0
ARC
  5
5CA
  8
_________1
  6
AIGENLINE001
 62
     7
 10
89.755364000000014
 20
150.02568299999999
 30
0.0
 40
5.2714239999999988
 50
92.124378000000007
 51
159.86711299999999
  0
LINE
  5
5CB
  8
_________1
  6
AIGENLINE001
 62
     7
 10
75.102199999999996
 20
140.21600000000001
 30
0.0
 11
75.102199999999996
 21
121.59999999999999
 31
0.0
  0
LINE
  5
5CC
  8
_________1
  6
AIGENLINE001
 62
     7
 10
75.102199999999996
 20
213.84800000000001
 30
0.0
 11
75.102199999999996
 21
203.947
 31
0.0
  0
LINE
  5
5CD
  8
_________1
  6
AIGENLINE001
 62
     7
 10
94.602199999999996
 20
212.648
 30
0.0
 11
94.602199999999996
 21
204.727
 31
0.0
  0
LINE
  5
5CE
  8
_________1
  6
AIGENLINE001
 62
     7
 10
94.602199999999996
 20
150.26900000000001
 30
0.0
 11
94.602199999999996
 21
127.968
 31
0.0
  0
LINE
  5
5CF
  8
_________1
  6
AIGENLINE001
 62
     7
 10
110.90000000000001
 20
208.898
 30
0.0
 11
43.303699999999999
 21
208.898
 31
0.0
  0
LINE
  5
5D0
  8
_________1
  6
AIGENLINE001
 62
     7
 10
103.30200000000001
 20
222.631
 30
0.0
 11
103.30200000000001
 21
199.93000000000001
 31
0.0
  0
LINE
  5
5D1
  8
_________1
  6
AIGENLINE001
 62
     7
 10
104.05200000000001
 20
203.898
 30
0.0
 11
102.553
 21
203.898
 31
0.0
  0
LINE
  5
5D2
  8
_________1
  6
AIGENLINE001
 62
     7
 10
102.602
 20
218.148
 30
0.0
 11
102.602
 21
216.648
 31
0.0
  0
LINE
  5
5D3
  8
_________1
  6
AIGENLINE001
 62
     7
 10
104.002
 20
213.148
 30
0.0
 11
104.002
 21
211.648
 31
0.0
  0
LINE
  5
5D4
  8
_________1
  6
AIGENLINE001
 62
     7
 10
104.752
 20
212.398
 30
0.0
 11
103.252
 21
212.398
 31
0.0
  0
LINE
  5
5D5
  8
_________1
  6
AIGENLINE001
 62
     7
 10
103.352
 20
217.398
 30
0.0
 11
101.852
 21
217.398
 31
0.0
  0
LINE
  5
5D6
  8
_________1
  6
AIGENLINE001
 62
     7
 10
50.902299999999997
 20
222.631
 30
0.0
 11
50.902299999999997
 21
199.93000000000001
 31
0.0
  0
LINE
  5
5D7
  8
_________1
  6
AIGENLINE001
 62
     7
 10
51.652299999999997
 20
203.898
 30
0.0
 11
50.15229999999999
 21
203.898
 31
0.0
  0
LINE
  5
5D8
  8
_________1
  6
AIGENLINE001
 62
     7
 10
50.202199999999998
 20
218.148
 30
0.0
 11
50.202199999999998
 21
216.648
 31
0.0
  0
LINE
  5
5D9
  8
_________1
  6
AIGENLINE001
 62
     7
 10
51.60199999999999
 20
213.148
 30
0.0
 11
51.60199999999999
 21
211.648
 31
0.0
  0
LINE
  5
5DA
  8
_________1
  6
AIGENLINE001
 62
     7
 10
52.3523
 20
212.398
 30
0.0
 11
50.851999999999997
 21
212.398
 31
0.0
  0
LINE
  5
5DB
  8
_________1
  6
AIGENLINE001
 62
     7
 10
50.952300000000001
 20
217.398
 30
0.0
 11
49.452199999999991
 21
217.398
 31
0.0
  0
LINE
  5
5DC
  8
_________1
  6
AIGENLINE001
 62
     7
 10
50.952300000000001
 20
125.744
 30
0.0
 11
49.40229999999999
 21
125.744
 31
0.0
  0
LINE
  5
5DD
  8
_________1
  6
AIGENLINE001
 62
     7
 10
50.202199999999998
 20
126.49299999999999
 30
0.0
 11
50.202199999999998
 21
124.99299999999999
 31
0.0
  0
LINE
  5
5DE
  8
_________1
  6
AIGENLINE001
 62
     7
 10
51.60199999999999
 20
128.99299999999999
 30
0.0
 11
51.60199999999999
 21
127.49299999999999
 31
0.0
  0
LINE
  5
5DF
  8
_________1
  6
AIGENLINE001
 62
     7
 10
52.3523
 20
128.24299999999999
 30
0.0
 11
50.851999999999997
 21
128.24299999999999
 31
0.0
  0
LINE
  5
5E0
  8
_________1
  6
AIGENLINE001
 62
     7
 10
51.652299999999997
 20
119.74299999999999
 30
0.0
 11
50.15229999999999
 21
119.74299999999999
 31
0.0
  0
LINE
  5
5E1
  8
_________1
  6
AIGENLINE001
 62
     7
 10
50.902299999999997
 20
132.08000000000001
 30
0.0
 11
50.902299999999997
 21
115.57599999999999
 31
0.0
  0
LINE
  5
5E2
  8
_________1
  6
AIGENLINE001
 62
     7
 10
103.352
 20
125.744
 30
0.0
 11
101.80200000000001
 21
125.744
 31
0.0
  0
LINE
  5
5E3
  8
_________1
  6
AIGENLINE001
 62
     7
 10
102.602
 20
126.49299999999999
 30
0.0
 11
102.602
 21
124.99299999999999
 31
0.0
  0
LINE
  5
5E4
  8
_________1
  6
AIGENLINE001
 62
     7
 10
104.002
 20
128.99299999999999
 30
0.0
 11
104.002
 21
127.49299999999999
 31
0.0
  0
LINE
  5
5E5
  8
_________1
  6
AIGENLINE001
 62
     7
 10
104.752
 20
128.24299999999999
 30
0.0
 11
103.252
 21
128.24299999999999
 31
0.0
  0
LINE
  5
5E6
  8
_________1
  6
AIGENLINE001
 62
     7
 10
104.05200000000001
 20
119.74299999999999
 30
0.0
 11
102.553
 21
119.74299999999999
 31
0.0
  0
LINE
  5
5E7
  8
_________1
  6
AIGENLINE001
 62
     7
 10
103.30200000000001
 20
132.08000000000001
 30
0.0
 11
103.30200000000001
 21
115.57599999999999
 31
0.0
  0
TEXT
  5
5E8
  8
_________2
 62
     7
 10
143.82900000000001
 20
179.82499999999999
 30
0.0
 40
3.0923400000000001
  1
手洗器：人工大理石
 41
0.5
  0
TEXT
  5
5E9
  8
_________2
 62
     7
 10
143.82900000000001
 20
247.89400000000001
 30
0.0
 40
3.0923400000000001
  1
カウンター
 41
0.5
  0
TEXT
  5
5EA
  8
_________2
 62
     7
 10
143.82900000000001
 20
244.029
 30
0.0
 40
3.0923400000000001
  1
基材：防水MDF
 41
0.5
  0
TEXT
  5
5EB
  8
_________2
 62
     7
 10
143.82900000000001
 20
240.16300000000001
 30
0.0
 40
3.0923400000000001
  1
表面：メラミン化粧板
 41
0.5
  0
TEXT
  5
5EC
  8
_________2
 62
     7
 10
28.151399999999999
 20
60.847000000000001
 30
0.0
 40
4.2168199999999993
  1
※壁取付部には厚さ20mm以上の補強木を入れてください。
 41
0.5
  0
LINE
  5
5ED
  8
_________2
 62
     7
 10
143.82900000000001
 20
233.36099999999999
 30
0.0
 11
143.82900000000001
 21
184.36099999999999
 31
0.0
  0
LINE
  5
5EE
  8
_________2
 62
     7
 10
181.62200000000001
 20
233.36099999999999
 30
0.0
 11
181.62200000000001
 21
184.36099999999999
 31
0.0
  0
TEXT
  5
5EF
  8
_________2
 62
     7
 10
184.77487833333331
 20
186.512
 30
0.0
 40
3.3734599999999988
  1
1
 41
0.5
 72
     1
 11
185.0559999999999
 21
186.512
 31
0.0
  0
TEXT
  5
5F0
  8
_________2
 62
     7
 10
145.96700000000001
 20
186.512
 30
0.0
 40
3.3734599999999988
  1
フレキ管（L＝397）
 41
0.5
  0
LINE
  5
5F1
  8
_________2
 62
     7
 10
143.82900000000001
 20
184.36099999999999
 30
0.0
 11
188.49000000000001
 21
184.36099999999999
 31
0.0
  0
TEXT
  5
5F2
  8
_________2
 62
     7
 10
184.77487833333331
 20
193.512
 30
0.0
 40
3.3734599999999988
  1
1
 41
0.5
 72
     1
 11
185.0559999999999
 21
193.512
 31
0.0
  0
TEXT
  5
5F3
  8
_________2
 62
     7
 10
145.96700000000001
 20
193.512
 30
0.0
 40
3.3734599999999988
  1
排水目皿
 41
0.5
  0
LINE
  5
5F4
  8
_________2
 62
     7
 10
143.82900000000001
 20
191.36099999999999
 30
0.0
 11
188.49000000000001
 21
191.36099999999999
 31
0.0
  0
TEXT
  5
5F5
  8
_________2
 62
     7
 10
184.77487833333331
 20
200.512
 30
0.0
 40
3.3734599999999988
  1
1
 41
0.5
 72
     1
 11
185.0559999999999
 21
200.512
 31
0.0
  0
TEXT
  5
5F6
  8
_________2
 62
     7
 10
145.96700000000001
 20
200.512
 30
0.0
 40
3.3734599999999988
  1
立水栓（JIS）
 41
0.5
  0
LINE
  5
5F7
  8
_________2
 62
     7
 10
143.82900000000001
 20
198.36099999999999
 30
0.0
 11
188.49000000000001
 21
198.36099999999999
 31
0.0
  0
TEXT
  5
5F8
  8
_________2
 62
     7
 10
184.77487833333331
 20
207.512
 30
0.0
 40
3.3734599999999988
  1
1
 41
0.5
 72
     1
 11
185.0559999999999
 21
207.512
 31
0.0
  0
TEXT
  5
5F9
  8
_________2
 62
     7
 10
145.96700000000001
 20
207.512
 30
0.0
 40
3.3734599999999988
  1
手洗器（オーバーフローなし）
 41
0.5
  0
LINE
  5
5FA
  8
_________2
 62
     7
 10
143.82900000000001
 20
205.36099999999999
 30
0.0
 11
188.49000000000001
 21
205.36099999999999
 31
0.0
  0
TEXT
  5
5FB
  8
_________2
 62
     7
 10
184.4937566666666
 20
214.512
 30
0.0
 40
3.3734599999999988
  1
2
 41
0.5
 72
     1
 11
185.0559999999999
 21
214.512
 31
0.0
  0
TEXT
  5
5FC
  8
_________2
 62
     7
 10
184.77487833333331
 20
221.512
 30
0.0
 40
3.3734599999999988
  1
1
 41
0.5
 72
     1
 11
185.0559999999999
 21
221.512
 31
0.0
  0
TEXT
  5
5FD
  8
_________2
 62
     7
 10
184.2688593333333
 20
228.512
 30
0.0
 40
3.3734599999999988
  1
数
 41
0.5
 72
     1
 11
185.0559999999999
 21
228.512
 31
0.0
  0
TEXT
  5
5FE
  8
_________2
 62
     7
 10
145.96700000000001
 20
214.512
 30
0.0
 40
3.3734599999999988
  1
ブラケット
 41
0.5
  0
TEXT
  5
5FF
  8
_________2
 62
     7
 10
145.96700000000001
 20
221.512
 30
0.0
 40
3.3734599999999988
  1
カウンター
 41
0.5
  0
TEXT
  5
600
  8
_________2
 62
     7
 10
157.7772586666666
 20
228.512
 30
0.0
 40
3.3734599999999988
  1
セット内容
 41
0.5
 72
     1
 11
162.72499999999999
 21
228.512
 31
0.0
  0
LINE
  5
601
  8
_________2
 62
     7
 10
143.82900000000001
 20
212.36099999999999
 30
0.0
 11
188.49000000000001
 21
212.36099999999999
 31
0.0
  0
LINE
  5
602
  8
_________2
 62
     7
 10
143.82900000000001
 20
219.36099999999999
 30
0.0
 11
188.49000000000001
 21
219.36099999999999
 31
0.0
  0
LINE
  5
603
  8
_________2
 62
     7
 10
143.82900000000001
 20
233.36099999999999
 30
0.0
 11
188.49000000000001
 21
233.36099999999999
 31
0.0
  0
LINE
  5
604
  8
_________2
 62
     7
 10
143.82900000000001
 20
226.36099999999999
 30
0.0
 11
188.49000000000001
 21
226.36099999999999
 31
0.0
  0
LINE
  5
605
  8
_________2
 62
     7
 10
143.82900000000001
 20
280.43000000000001
 30
0.0
 11
143.82900000000001
 21
252.43000000000001
 31
0.0
  0
LINE
  5
606
  8
_________2
 62
     7
 10
169.25299999999999
 20
280.43000000000001
 30
0.0
 11
169.25299999999999
 21
252.43000000000001
 31
0.0
  0
TEXT
  5
607
  8
_________2
 62
     7
 10
175.26196966666669
 20
254.58099999999999
 30
0.0
 40
3.3734599999999988
  1
ホワイト
 41
0.5
 72
     1
 11
179.029
 21
254.58099999999999
 31
0.0
  0
TEXT
  5
608
  8
_________2
 62
     7
 10
144.03108583333329
 20
254.58099999999999
 30
0.0
 40
3.3734599999999988
  1
CEK537SET02R-WH
 41
0.5
 72
     1
 11
156.541
 21
254.58099999999999
 31
0.0
  0
LINE
  5
609
  8
_________2
 62
     7
 10
143.82900000000001
 20
252.43000000000001
 30
0.0
 11
188.49000000000001
 21
252.43000000000001
 31
0.0
  0
TEXT
  5
60A
  8
_________2
 62
     7
 10
175.2057453333334
 20
261.58100000000002
 30
0.0
 40
3.3734599999999988
  1
ブラウン
 41
0.5
 72
     1
 11
179.029
 21
261.58100000000002
 31
0.0
  0
TEXT
  5
60B
  8
_________2
 62
     7
 10
174.19370733333329
 20
268.58100000000002
 30
0.0
 40
3.3734599999999988
  1
ナチュラル
 41
0.5
 72
     1
 11
179.029
 21
268.58100000000002
 31
0.0
  0
TEXT
  5
60C
  8
_________2
 62
     7
 10
173.06922066666669
 20
275.58100000000002
 30
0.0
 40
3.3734599999999988
  1
カウンター色
 41
0.5
 72
     1
 11
179.029
 21
275.58100000000002
 31
0.0
  0
TEXT
  5
60D
  8
_________2
 62
     7
 10
144.3122075
 20
261.58100000000002
 30
0.0
 40
3.3734599999999988
  1
CEK537SET02R-BR
 41
0.5
 72
     1
 11
156.541
 21
261.58100000000002
 31
0.0
  0
TEXT
  5
60E
  8
_________2
 62
     7
 10
144.3122075
 20
268.58100000000002
 30
0.0
 40
3.3734599999999988
  1
CEK537SET02R-NA
 41
0.5
 72
     1
 11
156.541
 21
268.58100000000002
 31
0.0
  0
TEXT
  5
60F
  8
_________2
 62
     7
 10
154.74182133333329
 20
275.58100000000002
 30
0.0
 40
3.3734599999999988
  1
品番
 41
0.5
 72
     1
 11
156.541
 21
275.58100000000002
 31
0.0
  0
LINE
  5
610
  8
_________2
 62
     7
 10
143.82900000000001
 20
259.43000000000001
 30
0.0
 11
188.49000000000001
 21
259.43000000000001
 31
0.0
  0
LINE
  5
611
  8
_________2
 62
     7
 10
143.82900000000001
 20
266.43000000000001
 30
0.0
 11
188.49000000000001
 21
266.43000000000001
 31
0.0
  0
LINE
  5
612
  8
_________2
 62
     7
 10
143.82900000000001
 20
273.43000000000001
 30
0.0
 11
188.49000000000001
 21
273.43000000000001
 31
0.0
  0
TEXT
  5
613
  8
_________2
 62
     7
 10
29.525700000000001
 20
22.226900000000001
 30
0.0
 40
3.9357000000000002
  1
セット重量：7.0kg
 41
0.5
  0
LINE
  5
614
  8
_________2
 62
     7
 10
210.24000000000001
 20
148.93100000000001
 30
0.0
 11
188.49000000000001
 21
148.93100000000001
 31
0.0
  0
LINE
  5
615
  8
_________2
 62
     7
 10
105.239
 20
17.4285
 30
0.0
 11
105.239
 21
0.4482100000000001
 31
0.0
  0
LINE
  5
616
  8
_________2
 62
     7
 10
105.239
 20
297.44999999999999
 30
0.0
 11
105.239
 21
280.43000000000001
 31
0.0
  0
LINE
  5
617
  8
_________2
 62
     7
 10
21.988499999999998
 20
148.93100000000001
 30
0.0
 11
0.238058
 21
148.93100000000001
 31
0.0
  0
INSERT
  5
618
  8
_________2
 62
     7
  2
AIGNBL03010002
 10
0.0
 20
0.0
 30
0.0
  0
TEXT
  5
619
  8
_________2
 62
     7
 10
109.544
 20
23.199100000000001
 30
0.0
 40
3.0923400000000001
  1
図番
 41
0.5
  0
LINE
  5
61A
  8
_________2
 62
     7
 10
108.489
 20
27.4283
 30
0.0
 11
188.49000000000001
 21
27.4283
 31
0.0
  0
TEXT
  5
61B
  8
_________2
 62
     7
 10
109.544
 20
33.198900000000002
 30
0.0
 40
3.0923400000000001
  1
品番
 41
0.5
  0
TEXT
  5
61C
  8
_________2
 62
     7
 10
109.544
 20
53.337699999999998
 30
0.0
 40
3.0923400000000001
  1
名称
 41
0.5
  0
TEXT
  5
61D
  8
_________2
 62
     7
 10
96.784058333333334
 20
48.341500000000011
 30
0.0
 40
3.6545800000000002
  1
mm
 41
0.5
 72
     1
 11
98.306799999999996
 21
48.341500000000011
 31
0.0
  0
TEXT
  5
61E
  8
_________2
 62
     7
 10
90.582099999999997
 20
53.337699999999998
 30
0.0
 40
3.0923400000000001
  1
単位
 41
0.5
  0
TEXT
  5
61F
  8
_________2
 62
     7
 10
90.582099999999997
 20
40.930399999999999
 30
0.0
 40
3.0923400000000001
  1
尺度
 41
0.5
  0
TEXT
  5
620
  8
_________2
 62
     7
 10
95.030836166666674
 20
34.737499999999997
 30
0.0
 40
3.6545800000000002
  1
1 ： 10
 41
0.5
 72
     1
 11
98.898600000000002
 21
34.737499999999997
 31
0.0
  0
TEXT
  5
621
  8
_________2
 62
     7
 10
141.60152500000001
 20
30.627400000000002
 30
0.0
 40
3.9357000000000002
  1
図中の表参照
 41
0.5
 72
     1
 11
148.489
 21
30.627400000000002
 31
0.0
  0
TEXT
  5
622
  8
_________2
 62
     7
 10
137.17386250000001
 20
20.626999999999999
 30
0.0
 40
3.9357000000000002
  1
CEK537SET02R
 41
0.5
 72
     1
 11
148.489
 21
20.626999999999999
 31
0.0
  0
TEXT
  5
623
  8
_________2
 62
     7
 10
114.11799999999999
 20
46.795400000000001
 30
0.0
 40
3.9357000000000002
  1
セラオリジナルコレクション
 41
0.5
  0
TEXT
  5
624
  8
_________2
 62
     7
 10
114.11799999999999
 20
41.875700000000002
 30
0.0
 40
3.9357000000000002
  1
カウンターセット
 41
0.5
  0
TEXT
  5
625
  8
_________2
 62
     7
 10
44.364200333333329
 20
35.122599999999998
 30
0.0
 40
3.6545800000000002
  1
土山
 41
0.5
 72
     1
 11
46.252400000000002
 21
35.122599999999998
 31
0.0
  0
TEXT
  5
626
  8
_________2
 62
     7
 10
25.729290666666671
 20
35.122599999999998
 30
0.0
 40
3.6545800000000002
  1
木場
 41
0.5
 72
     1
 11
27.6784
 21
35.122599999999998
 31
0.0
  0
TEXT
  5
627
  8
_________2
 62
     7
 10
72.724699999999999
 20
34.737499999999997
 30
0.0
 40
3.6545800000000002
  1
21.07.16
 41
0.5
  0
TEXT
  5
628
  8
_________2
 62
     7
 10
71.531999999999996
 20
40.930399999999999
 30
0.0
 40
3.0923400000000001
  1
日付
 41
0.5
  0
TEXT
  5
629
  8
_________2
 62
     7
 10
34.578299999999999
 20
40.930399999999999
 30
0.0
 40
3.0923400000000001
  1
検図
 41
0.5
  0
TEXT
  5
62A
  8
_________2
 62
     7
 10
22.960000000000001
 20
26.731000000000002
 30
0.0
 40
3.0923400000000001
  1
備考
 41
0.5
  0
TEXT
  5
62B
  8
_________2
 62
     7
 10
22.960000000000001
 20
40.930399999999999
 30
0.0
 40
3.0923400000000001
  1
製図
 41
0.5
  0
TEXT
  5
62C
  8
_________2
 62
     7
 10
28.727365333333339
 20
49.456400000000002
 30
0.0
 40
4.4979399999999989
  1
セラトレーディング株式会社
 41
0.5
 72
     1
 11
46.119399999999992
 21
49.456400000000002
 31
0.0
  0
LINE
  5
62D
  8
_________2
 62
     7
 10
188.49000000000001
 20
17.4285
 30
0.0
 11
21.988499999999998
 21
17.4285
 31
0.0
  0
LINE
  5
62E
  8
_________2
 62
     7
 10
21.988499999999998
 20
17.4285
 30
0.0
 11
21.988499999999998
 21
280.43000000000001
 31
0.0
  0
LINE
  5
62F
  8
_________2
 62
     7
 10
21.988499999999998
 20
280.43000000000001
 30
0.0
 11
188.49000000000001
 21
280.43000000000001
 31
0.0
  0
LINE
  5
630
  8
_________2
 62
     7
 10
188.49000000000001
 20
280.43000000000001
 30
0.0
 11
188.49000000000001
 21
17.4285
 31
0.0
  0
LINE
  5
631
  8
_________2
 62
     7
 10
70.488799999999998
 20
30.9285
 30
0.0
 11
70.488799999999998
 21
57.428400000000011
 31
0.0
  0
LINE
  5
632
  8
_________2
 62
     7
 10
89.488600000000005
 20
30.9285
 30
0.0
 11
89.488600000000005
 21
57.428400000000011
 31
0.0
  0
LINE
  5
633
  8
_________2
 62
     7
 10
108.489
 20
17.4285
 30
0.0
 11
108.489
 21
57.428400000000011
 31
0.0
  0
LINE
  5
634
  8
_________2
 62
     7
 10
33.488300000000002
 20
30.9285
 30
0.0
 11
33.488300000000002
 21
44.928800000000003
 31
0.0
  0
LINE
  5
635
  8
_________2
 62
     7
 10
21.988499999999998
 20
30.9285
 30
0.0
 11
108.489
 21
30.9285
 31
0.0
  0
LINE
  5
636
  8
_________2
 62
     7
 10
21.988499999999998
 20
44.928800000000003
 30
0.0
 11
108.489
 21
44.928800000000003
 31
0.0
  0
LINE
  5
637
  8
_________2
 62
     7
 10
108.489
 20
37.428100000000001
 30
0.0
 11
188.49000000000001
 21
37.428100000000001
 31
0.0
  0
LINE
  5
638
  8
_________2
 62
     7
 10
21.988499999999998
 20
57.428400000000011
 30
0.0
 11
188.49000000000001
 21
57.428400000000011
 31
0.0
  0
ENDSEC
  0
EOF
