  0
SECTION
  2
HEADER
  9
$ACADVER
  1
AC1009
  9
$INSBASE
 10
0.0
 20
0.0
 30
0.0
  9
$EXTMIN
 10
-4.70052
 20
-21.070699999999992
 30
0.0
  9
$EXTMAX
 10
205.30099999999999
 20
275.93099999999993
 30
0.0
  9
$LIMMIN
 10
0.0
 20
0.0
  9
$LIMMAX
 10
12.0
 20
9.0
  9
$ORTHOMODE
 70
     0
  9
$REGENMODE
 70
     1
  9
$FILLMODE
 70
     1
  9
$QTEXTMODE
 70
     0
  9
$MIRRTEXT
 70
     1
  9
$DRAGMODE
 70
     2
  9
$LTSCALE
 40
1.0
  9
$OSMODE
 70
    37
  9
$ATTMODE
 70
     1
  9
$TEXTSIZE
 40
0.0
  9
$TRACEWID
 40
0.05
  9
$TEXTSTYLE
  7
STANDARD
  9
$CLAYER
  8
0
  9
$CELTYPE
  6
CONTINUOUS
  9
$CECOLOR
 62
   256
  9
$DIMSCALE
 40
1.0
  9
$DIMASZ
 40
0.18
  9
$DIMEXO
 40
0.0625
  9
$DIMDLI
 40
0.38
  9
$DIMRND
 40
0.0
  9
$DIMDLE
 40
0.0
  9
$DIMEXE
 40
0.18
  9
$DIMTP
 40
0.0
  9
$DIMTM
 40
0.0
  9
$DIMTXT
 40
0.18
  9
$DIMCEN
 40
0.09
  9
$DIMTSZ
 40
0.0
  9
$DIMTOL
 70
     0
  9
$DIMLIM
 70
     0
  9
$DIMTIH
 70
     1
  9
$DIMTOH
 70
     1
  9
$DIMSE1
 70
     0
  9
$DIMSE2
 70
     0
  9
$DIMTAD
 70
     0
  9
$DIMZIN
 70
     0
  9
$DIMBLK
  1

  9
$DIMASO
 70
     1
  9
$DIMSHO
 70
     1
  9
$DIMPOST
  1

  9
$DIMAPOST
  1

  9
$DIMALT
 70
     0
  9
$DIMALTD
 70
     2
  9
$DIMALTF
 40
25.399999999999999
  9
$DIMLFAC
 40
1.0
  9
$DIMTOFL
 70
     0
  9
$DIMTVP
 40
0.0
  9
$DIMTIX
 70
     0
  9
$DIMSOXD
 70
     0
  9
$DIMSAH
 70
     0
  9
$DIMBLK1
  1

  9
$DIMBLK2
  1

  9
$DIMSTYLE
  2
STANDARD
  9
$DIMCLRD
 70
     0
  9
$DIMCLRE
 70
     0
  9
$DIMCLRT
 70
     0
  9
$DIMTFAC
 40
1.0
  9
$DIMGAP
 40
0.09
  9
$LUNITS
 70
     2
  9
$LUPREC
 70
     4
  9
$SKETCHINC
 40
0.1
  9
$FILLETRAD
 40
0.0
  9
$AUNITS
 70
     0
  9
$AUPREC
 70
     0
  9
$MENU
  1
.
  9
$ELEVATION
 40
0.0
  9
$PELEVATION
 40
0.0
  9
$THICKNESS
 40
0.0
  9
$LIMCHECK
 70
     0
  9
$BLIPMODE
 70
     0
  9
$CHAMFERA
 40
0.0
  9
$CHAMFERB
 40
0.0
  9
$SKPOLY
 70
     0
  9
$TDCREATE
 40
2444972.375
  9
$TDUPDATE
 40
2456309.4246747098
  9
$TDINDWG
 40
0.0000076968
  9
$TDUSRTIMER
 40
0.0000076968
  9
$USRTIMER
 70
     1
  9
$ANGBASE
 50
0.0
  9
$ANGDIR
 70
     0
  9
$PDMODE
 70
     0
  9
$PDSIZE
 40
0.0
  9
$PLINEWID
 40
0.0
  9
$COORDS
 70
     1
  9
$SPLFRAME
 70
     0
  9
$SPLINETYPE
 70
     6
  9
$SPLINESEGS
 70
     8
  9
$ATTDIA
 70
     0
  9
$ATTREQ
 70
     1
  9
$HANDLING
 70
     1
  9
$HANDSEED
  5
2A1
  9
$SURFTAB1
 70
     6
  9
$SURFTAB2
 70
     6
  9
$SURFTYPE
 70
     6
  9
$SURFU
 70
     6
  9
$SURFV
 70
     6
  9
$UCSNAME
  2

  9
$UCSORG
 10
0.0
 20
0.0
 30
0.0
  9
$UCSXDIR
 10
1.0
 20
0.0
 30
0.0
  9
$UCSYDIR
 10
0.0
 20
1.0
 30
0.0
  9
$PUCSNAME
  2

  9
$PUCSORG
 10
0.0
 20
0.0
 30
0.0
  9
$PUCSXDIR
 10
1.0
 20
0.0
 30
0.0
  9
$PUCSYDIR
 10
0.0
 20
1.0
 30
0.0
  9
$USERI1
 70
     0
  9
$USERI2
 70
     0
  9
$USERI3
 70
     0
  9
$USERI4
 70
     0
  9
$USERI5
 70
     0
  9
$USERR1
 40
0.0
  9
$USERR2
 40
0.0
  9
$USERR3
 40
0.0
  9
$USERR4
 40
0.0
  9
$USERR5
 40
0.0
  9
$WORLDVIEW
 70
     1
  9
$SHADEDGE
 70
     3
  9
$SHADEDIF
 70
    70
  9
$TILEMODE
 70
     1
  9
$MAXACTVP
 70
    48
  9
$PLIMCHECK
 70
     0
  9
$PEXTMIN
 10
1.0000000000000000E+020
 20
1.0000000000000000E+020
 30
1.0000000000000000E+020
  9
$PEXTMAX
 10
-1.0000000000000000E+020
 20
-1.0000000000000000E+020
 30
-1.0000000000000000E+020
  9
$PLIMMIN
 10
0.0
 20
0.0
  9
$PLIMMAX
 10
12.0
 20
9.0
  9
$UNITMODE
 70
     0
  9
$VISRETAIN
 70
     1
  9
$PLINEGEN
 70
     0
  9
$PSLTSCALE
 70
     1
  0
ENDSEC
  0
SECTION
  2
TABLES
  0
TABLE
  2
VPORT
 70
     2
  0
VPORT
  2
*ACTIVE
 70
     0
 10
0.0
 20
0.0
 11
1.0
 21
1.0
 12
205.3104379972244
 22
127.4301499999999
 13
0.0
 23
0.0
 14
1.0
 24
1.0
 15
0.0
 25
0.0
 16
0.0
 26
0.0
 36
1.0
 17
0.0
 27
0.0
 37
0.0
 40
299.24604534005027
 41
2.2894736842105261
 42
50.0
 43
0.0
 44
0.0
 50
0.0
 51
0.0
 71
     0
 72
   100
 73
     1
 74
     1
 75
     0
 76
     0
 77
     0
 78
     0
  0
ENDTAB
  0
TABLE
  2
LTYPE
 70
     4
  0
LTYPE
  2
CONTINUOUS
 70
     0
  3
Solid line
 72
    65
 73
     0
 40
0.0
  0
LTYPE
  2
AIGENLINE001
 70
     0
  3
generate AI->DXF Converter
 72
    65
 73
     2
 40
1.5522299999999991
 49
0.776115
 49
-0.776115
  0
LTYPE
  2
AIGENLINE002
 70
     0
  3
generate AI->DXF Converter
 72
    65
 73
     4
 40
5.8561449999999988
 49
3.5278
 49
-0.776115
 49
0.776115
 49
-0.776115
  0
LTYPE
  2
AIGENLINE003
 70
     0
  3
generate AI->DXF Converter
 72
    65
 73
     6
 40
7.4083750000000004
 49
3.5278
 49
-0.776115
 49
0.776115
 49
-0.776115
 49
0.776115
 49
-0.776115
  0
ENDTAB
  0
TABLE
  2
LAYER
 70
     2
  0
LAYER
  2
0
 70
     0
 62
     7
  6
CONTINUOUS
  0
LAYER
  2
_________2
 70
     0
 62
     7
  6
CONTINUOUS
  0
ENDTAB
  0
TABLE
  2
STYLE
 70
     1
  0
STYLE
  2
STANDARD
 70
     0
 40
0.0
 41
0.0
 50
0.0
 71
     0
 42
0.0
  3
TXT
  4
EXTFONT.SHX
  0
ENDTAB
  0
TABLE
  2
VIEW
 70
     0
  0
ENDTAB
  0
TABLE
  2
UCS
 70
     0
  0
ENDTAB
  0
TABLE
  2
APPID
 70
     1
  0
APPID
  2
ACAD
 70
     0
  0
ENDTAB
  0
TABLE
  2
DIMSTYLE
 70
     1
  0
DIMSTYLE
  2
STANDARD
 70
     0
  3

  4

  5

  6

  7

 40
1.0
 41
0.18
 42
0.0625
 43
0.38
 44
0.18
 45
0.0
 46
0.0
 47
0.0
 48
0.0
140
0.18
141
0.09
142
0.0
143
25.399999999999999
144
1.0
145
0.0
146
1.0
147
0.09
 71
     0
 72
     0
 73
     1
 74
     1
 75
     0
 76
     0
 77
     0
 78
     0
170
     0
171
     2
172
     0
173
     0
174
     0
175
     0
176
     0
177
     0
178
     0
  0
ENDTAB
  0
ENDSEC
  0
SECTION
  2
BLOCKS
  0
BLOCK
  8
0
  2
$MODEL_SPACE
 70
     0
 10
0.0
 20
0.0
 30
0.0
  3
$MODEL_SPACE
  1

  0
ENDBLK
  5
1A
  8
0
  0
BLOCK
 67
     1
  8
0
  2
$PAPER_SPACE
 70
     0
 10
0.0
 20
0.0
 30
0.0
  3
$PAPER_SPACE
  1

  0
ENDBLK
  5
17
 67
     1
  8
0
  0
ENDSEC
  0
SECTION
  2
ENTITIES
  0
TEXT
  5
24
  8
0
 62
     7
 10
158.33699999999999
 20
222.06399999999999
 30
0.0
 40
3.0923400000000001
  1
〈付属品〉
 50
90.0
 41
0.5
  0
TEXT
  5
25
  8
0
 62
     7
 10
162.202
 20
222.06399999999999
 30
0.0
 40
3.0923400000000001
  1
洗面器固定金具×4
 50
90.0
 41
0.5
  0
TEXT
  5
26
  8
0
 62
     7
 10
166.0679999999999
 20
222.06399999999999
 30
0.0
 40
3.0923400000000001
  1
%%c5×20SUSねじ付
 50
90.0
 41
0.5
  0
TEXT
  5
27
  8
0
 62
     7
 10
169.93299999999991
 20
222.06399999999999
 30
0.0
 40
3.0923400000000001
  1
（尺度 1：3）
 50
90.0
 41
0.5
  0
TEXT
  5
28
  8
0
 62
     7
 10
123.19499999999989
 20
231.09200000000001
 30
0.0
 40
3.0923400000000001
  1
12.5
 50
90.0
 41
0.5
  0
TEXT
  5
29
  8
0
 62
     7
 10
138.61799999999991
 20
234.16388799999999
 30
0.0
 40
3.0923400000000001
  1
両面テープ付
 50
90.0
 41
0.5
 72
     2
 11
138.61799999999991
 21
244.88399999999999
 31
0.0
  0
TEXT
  5
2A
  8
0
 62
     7
 10
128.0379999999999
 20
232.1323725
 30
0.0
 40
3.0923400000000001
  1
50
 50
90.0
 41
0.5
 72
     1
 11
128.0379999999999
 21
233.292
 31
0.0
  0
TEXT
  5
2B
  8
0
 62
     7
 10
144.60505000000001
 20
247.5079999999999
 30
0.0
 40
3.0923400000000001
  1
1.5
 41
0.5
 72
     2
 11
147.18199999999999
 21
247.5079999999999
 31
0.0
  0
TEXT
  5
2C
  8
0
 62
     7
 10
144.55421999999999
 20
220.24199999999999
 30
0.0
 40
3.0923400000000001
  1
19
 41
0.5
 72
     1
 11
145.58500000000001
 21
220.24199999999999
 31
0.0
  0
TEXT
  5
2D
  8
0
 62
     7
 10
112.6533724999999
 20
248.43599999999989
 30
0.0
 40
3.0923400000000001
  1
30
 41
0.5
 72
     1
 11
113.8129999999999
 21
248.43599999999989
 31
0.0
  0
TEXT
  5
2E
  8
0
 62
     7
 10
106.396
 20
179.30276000000001
 30
0.0
 40
3.0923400000000001
  1
カウンター切込寸法
 50
90.0
 41
0.5
 72
     1
 11
106.396
 21
187.54900000000001
 31
0.0
  0
TEXT
  5
2F
  8
0
 62
     7
 10
68.155479999999983
 20
95.722199999999987
 30
0.0
 40
3.0923400000000001
  1
%%c43
 41
0.5
 72
     2
 11
72.278599999999983
 21
95.722199999999987
 31
0.0
  0
TEXT
  5
30
  8
0
 62
     7
 10
96.665700000000001
 20
164.090282
 30
0.0
 40
3.0923400000000001
  1
洗面器固定用カウンター裏補強木（t30～40）
 50
90.0
 41
0.5
 72
     2
 11
96.665700000000001
 21
203.363
 31
0.0
  0
TEXT
  5
31
  8
0
 62
     7
 10
44.370899999999999
 20
146.7604294999999
 30
0.0
 40
3.0923400000000001
  1
50以上
 50
90.0
 41
0.5
 72
     1
 11
44.370899999999999
 21
149.82699999999991
 31
0.0
  0
TEXT
  5
32
  8
0
 62
     7
 10
48.853000000000002
 20
153.51052499999989
 30
0.0
 40
3.0923400000000001
  1
45
 50
90.0
 41
0.5
 72
     1
 11
48.853000000000002
 21
154.79900000000001
 31
0.0
  0
TEXT
  5
33
  8
0
 62
     7
 10
44.370899999999999
 20
221.89442949999989
 30
0.0
 40
3.0923400000000001
  1
50以上
 50
90.0
 41
0.5
 72
     1
 11
44.370899999999999
 21
224.96100000000001
 31
0.0
  0
TEXT
  5
34
  8
0
 62
     7
 10
48.853000000000002
 20
219.010525
 30
0.0
 40
3.0923400000000001
  1
45
 50
90.0
 41
0.5
 72
     1
 11
48.853000000000002
 21
220.29900000000001
 31
0.0
  0
TEXT
  5
35
  8
0
 62
     7
 10
44.7209
 20
200.8662875
 30
0.0
 40
3.0923400000000001
  1
305
 50
90.0
 41
0.5
 72
     1
 11
44.7209
 21
202.79899999999989
 31
0.0
  0
TEXT
  5
36
  8
0
 62
     7
 10
70.761799999999994
 20
163.73400000000001
 30
0.0
 40
3.0923400000000001
  1
R10
 41
0.5
  0
TEXT
  5
37
  8
0
 62
     7
 10
61.625765000000008
 20
163.73400000000001
 30
0.0
 40
3.0923400000000001
  1
R10
 41
0.5
 72
     2
 11
64.975800000000007
 21
163.73400000000001
 31
0.0
  0
TEXT
  5
38
  8
0
 62
     7
 10
44.7209
 20
170.3662875
 30
0.0
 40
3.0923400000000001
  1
305
 50
90.0
 41
0.5
 72
     1
 11
44.7209
 21
172.29900000000001
 31
0.0
  0
TEXT
  5
39
  8
0
 62
     7
 10
155.16800000000001
 20
197.36383000000001
 30
0.0
 40
3.0923400000000001
  1
115
 50
90.0
 41
0.5
 72
     1
 11
155.16800000000001
 21
198.91
 31
0.0
  0
TEXT
  5
3A
  8
0
 62
     7
 10
89.4392
 20
185.87398250000001
 30
0.0
 40
3.0923400000000001
  1
610
 50
90.0
 41
0.5
 72
     1
 11
89.4392
 21
187.54900000000001
 31
0.0
  0
TEXT
  5
3B
  8
0
 62
     7
 10
99.853300000000004
 20
98.663287499999996
 30
0.0
 40
3.0923400000000001
  1
680
 50
90.0
 41
0.5
 72
     1
 11
99.853300000000004
 21
100.5959999999999
 31
0.0
  0
TEXT
  5
3C
  8
0
 62
     7
 10
93.279300000000006
 20
138.0000499999999
 30
0.0
 40
3.0923400000000001
  1
25
 50
90.0
 41
0.5
 72
     2
 11
93.279300000000006
 21
140.57699999999991
 31
0.0
  0
TEXT
  5
3D
  8
0
 62
     7
 10
93.279300000000006
 20
61.098500000000001
 30
0.0
 40
3.0923400000000001
  1
25
 50
90.0
 41
0.5
  0
TEXT
  5
3E
  8
0
 62
     7
 10
93.279300000000006
 20
98.663287499999996
 30
0.0
 40
3.0923400000000001
  1
630
 50
90.0
 41
0.5
 72
     1
 11
93.279300000000006
 21
100.5959999999999
 31
0.0
  0
TEXT
  5
3F
  8
0
 62
     7
 10
55.362029999999997
 20
86.918899999999994
 30
0.0
 40
3.0923400000000001
  1
115
 41
0.5
 72
     1
 11
56.908200000000001
 21
86.918899999999994
 31
0.0
  0
TEXT
  5
40
  8
0
 62
     7
 10
138.47274499999989
 20
162.27600000000001
 30
0.0
 40
3.0923400000000001
  1
30
 41
0.5
 72
     2
 11
140.792
 21
162.27600000000001
 31
0.0
  0
TEXT
  5
41
  8
0
 62
     7
 10
65.435887500000007
 20
51.3185
 30
0.0
 40
3.0923400000000001
  1
370
 41
0.5
 72
     1
 11
67.368600000000001
 21
51.3185
 31
0.0
  0
TEXT
  5
42
  8
0
 62
     7
 10
88.959149999999994
 20
57.155500000000004
 30
0.0
 40
3.0923400000000001
  1
25
 41
0.5
 72
     2
 11
91.536100000000005
 21
57.155500000000004
 31
0.0
  0
TEXT
  5
43
  8
0
 62
     7
 10
43.012999999999998
 20
57.155500000000004
 30
0.0
 40
3.0923400000000001
  1
35
 41
0.5
  0
TEXT
  5
44
  8
0
 62
     7
 10
66.193782499999998
 20
57.155500000000004
 30
0.0
 40
3.0923400000000001
  1
310
 41
0.5
 72
     1
 11
67.868799999999993
 21
57.155500000000004
 31
0.0
  0
TEXT
  5
45
  8
0
 62
     7
 10
65.481887499999999
 20
202.87200000000001
 30
0.0
 40
3.0923400000000001
  1
290
 41
0.5
 72
     1
 11
67.414599999999993
 21
202.87200000000001
 31
0.0
  0
TEXT
  5
46
  8
0
 62
     7
 10
135.8419825
 20
193.13999999999999
 30
0.0
 40
3.0923400000000001
  1
130
 41
0.5
 72
     1
 11
137.517
 21
193.13999999999999
 31
0.0
  0
TEXT
  5
47
  8
0
 62
     7
 10
138.34098249999991
 20
61.2194
 30
0.0
 40
3.0923400000000001
  1
180
 41
0.5
 72
     1
 11
140.01599999999991
 21
61.2194
 31
0.0
  0
ARC
  5
48
  8
0
 62
     7
 10
113.81272199999989
 20
238.2879089999999
 30
0.0
 40
1.000289999999999
 50
89.990132999999986
 51
179.99010399999989
  0
ARC
  5
49
  8
0
 62
     7
 10
113.77424000000001
 20
238.249785
 30
0.0
 40
1.0391330000000001
 50
2.1120659999999991
 51
87.868183999999985
  0
ARC
  5
4A
  8
0
 62
     7
 10
113.7742639999999
 20
236.65996299999989
 30
0.0
 40
1.0391209999999991
 50
272.13049699999999
 51
357.86951299999993
  0
ARC
  5
4B
  8
0
 62
     7
 10
113.8514959999999
 20
236.66065099999989
 30
0.0
 40
1.039806999999999
 50
182.167022
 51
267.87248099999988
  0
LINE
  5
4C
  8
0
  6
AIGENLINE002
 62
     7
 10
113.8129999999999
 20
235.04400000000001
 30
0.0
 11
113.8129999999999
 21
239.86600000000001
 31
0.0
  0
LINE
  5
4D
  8
0
  6
AIGENLINE002
 62
     7
 10
115.19799999999999
 20
237.45500000000001
 30
0.0
 11
112.4109999999999
 21
237.45500000000001
 31
0.0
  0
LINE
  5
4E
  8
0
  6
AIGENLINE002
 62
     7
 10
112.25399999999991
 20
238.2879999999999
 30
0.0
 11
115.441
 21
238.2879999999999
 31
0.0
  0
LINE
  5
4F
  8
0
  6
AIGENLINE002
 62
     7
 10
112.25399999999991
 20
236.6209999999999
 30
0.0
 11
115.441
 21
236.6209999999999
 31
0.0
  0
LINE
  5
50
  8
0
 62
     7
 10
112.812
 20
238.2879999999999
 30
0.0
 11
112.812
 21
236.6209999999999
 31
0.0
  0
LINE
  5
51
  8
0
 62
     7
 10
114.8129999999999
 20
238.2879999999999
 30
0.0
 11
114.8129999999999
 21
236.6209999999999
 31
0.0
  0
LINE
  5
52
  8
0
  6
AIGENLINE002
 62
     7
 10
146.98699999999999
 20
237.45500000000001
 30
0.0
 11
149.869
 21
237.45500000000001
 31
0.0
  0
LINE
  5
53
  8
0
 62
     7
 10
118.812
 20
229.9549999999999
 30
0.0
 11
108.8129999999999
 21
229.9549999999999
 31
0.0
  0
LINE
  5
54
  8
0
 62
     7
 10
118.479
 20
226.62100000000001
 30
0.0
 11
109.146
 21
226.62100000000001
 31
0.0
  0
LINE
  5
55
  8
0
 62
     7
 10
148.648
 20
242.24999999999989
 30
0.0
 11
148.648
 21
247.2949999999999
 31
0.0
  0
LINE
  5
56
  8
0
 62
     7
 10
148.14799999999991
 20
242.24999999999989
 30
0.0
 11
148.14799999999991
 21
247.2949999999999
 31
0.0
  0
LINE
  5
57
  8
0
 62
     7
 10
108.8129999999999
 20
241.62200000000001
 30
0.0
 11
108.8129999999999
 21
224.95500000000001
 31
0.0
  0
LINE
  5
58
  8
0
 62
     7
 10
118.812
 20
224.95500000000001
 30
0.0
 11
108.8129999999999
 21
224.95500000000001
 31
0.0
  0
LINE
  5
59
  8
0
 62
     7
 10
118.812
 20
241.62200000000001
 30
0.0
 11
118.812
 21
224.95500000000001
 31
0.0
  0
LINE
  5
5A
  8
0
 62
     7
 10
118.812
 20
241.62200000000001
 30
0.0
 11
108.8129999999999
 21
241.62200000000001
 31
0.0
  0
LINE
  5
5B
  8
0
 62
     7
 10
148.648
 20
241.62200000000001
 30
0.0
 11
148.648
 21
230.05099999999999
 31
0.0
  0
LINE
  5
5C
  8
0
 62
     7
 10
148.315
 20
229.47399999999999
 30
0.0
 11
142.815
 21
226.298
 31
0.0
  0
ARC
  5
5D
  8
0
 62
     7
 10
147.96931699999999
 20
230.05763099999999
 30
0.0
 40
0.6785670000000001
 50
300.63128899999998
 51
359.45280200000002
  0
LINE
  5
5E
  8
0
 62
     7
 10
148.14799999999991
 20
229.98899999999989
 30
0.0
 11
142.64799999999991
 21
226.81399999999999
 31
0.0
  0
LINE
  5
5F
  8
0
 62
     7
 10
142.31499999999991
 20
226.23599999999999
 30
0.0
 11
142.31499999999991
 21
224.95500000000001
 31
0.0
  0
ARC
  5
60
  8
0
 62
     7
 10
142.99542600000001
 20
226.228824
 30
0.0
 40
0.68043
 50
120.71966
 51
179.3643909999999
  0
LINE
  5
61
  8
0
 62
     7
 10
142.815
 20
226.298
 30
0.0
 11
142.815
 21
224.95500000000001
 31
0.0
  0
LINE
  5
62
  8
0
 62
     7
 10
142.815
 20
224.95500000000001
 30
0.0
 11
142.31499999999991
 21
224.95500000000001
 31
0.0
  0
LINE
  5
63
  8
0
 62
     7
 10
148.14799999999991
 20
241.62200000000001
 30
0.0
 11
148.14799999999991
 21
229.98899999999989
 31
0.0
  0
LINE
  5
64
  8
0
 62
     7
 10
148.648
 20
241.62200000000001
 30
0.0
 11
148.14799999999991
 21
241.62200000000001
 31
0.0
  0
LINE
  5
65
  8
0
 62
     7
 10
115.43299999999989
 20
237.45500000000001
 30
0.0
 11
124.407
 21
237.45500000000001
 31
0.0
  0
LINE
  5
66
  8
0
 62
     7
 10
124.38200000000001
 20
240.14699999999999
 30
0.0
 11
123.9859999999999
 21
241.62200000000001
 31
0.0
  0
LINE
  5
67
  8
0
 62
     7
 10
123.9859999999999
 20
241.62200000000001
 30
0.0
 11
123.592
 21
240.14699999999999
 31
0.0
  0
LINE
  5
68
  8
0
 62
     7
 10
123.592
 20
240.14699999999999
 30
0.0
 11
124.38200000000001
 21
240.14699999999999
 31
0.0
  0
LINE
  5
69
  8
0
 62
     7
 10
123.601
 20
238.92899999999989
 30
0.0
 11
123.996
 21
237.45500000000001
 31
0.0
  0
LINE
  5
6A
  8
0
 62
     7
 10
123.996
 20
237.45500000000001
 30
0.0
 11
124.39100000000001
 21
238.92899999999989
 31
0.0
  0
LINE
  5
6B
  8
0
 62
     7
 10
124.39100000000001
 20
238.92899999999989
 30
0.0
 11
123.601
 21
238.92899999999989
 31
0.0
  0
LINE
  5
6C
  8
0
 62
     7
 10
123.996
 20
241.62200000000001
 30
0.0
 11
123.996
 21
230.98599999999999
 31
0.0
  0
LINE
  5
6D
  8
0
 62
     7
 10
119.455
 20
224.95500000000001
 30
0.0
 11
129.33699999999999
 21
224.95500000000001
 31
0.0
  0
LINE
  5
6E
  8
0
 62
     7
 10
119.455
 20
241.62200000000001
 30
0.0
 11
129.33699999999999
 21
241.62200000000001
 31
0.0
  0
LINE
  5
6F
  8
0
 62
     7
 10
141.0089999999999
 20
226.624
 30
0.0
 11
142.33199999999991
 21
225.86099999999999
 31
0.0
  0
LINE
  5
70
  8
0
 62
     7
 10
142.33199999999991
 20
225.86099999999999
 30
0.0
 11
141.5679999999999
 21
227.18299999999999
 31
0.0
  0
LINE
  5
71
  8
0
 62
     7
 10
141.5679999999999
 20
227.18299999999999
 30
0.0
 11
141.0089999999999
 21
226.624
 31
0.0
  0
LINE
  5
72
  8
0
 62
     7
 10
139.57599999999991
 20
228.6159999999999
 30
0.0
 11
142.33199999999991
 21
225.86099999999999
 31
0.0
  0
LINE
  5
73
  8
0
 62
     7
 10
139.57599999999991
 20
244.88900000000001
 30
0.0
 11
139.57599999999991
 21
228.6159999999999
 31
0.0
  0
LINE
  5
74
  8
0
 62
     7
 10
129.31200000000001
 20
240.14699999999999
 30
0.0
 11
128.916
 21
241.62200000000001
 31
0.0
  0
LINE
  5
75
  8
0
 62
     7
 10
128.916
 20
241.62200000000001
 30
0.0
 11
128.52099999999999
 21
240.14699999999999
 31
0.0
  0
LINE
  5
76
  8
0
 62
     7
 10
128.52099999999999
 20
240.14699999999999
 30
0.0
 11
129.31200000000001
 21
240.14699999999999
 31
0.0
  0
LINE
  5
77
  8
0
 62
     7
 10
128.53100000000001
 20
226.42899999999989
 30
0.0
 11
128.92599999999999
 21
224.95500000000001
 31
0.0
  0
LINE
  5
78
  8
0
 62
     7
 10
128.92599999999999
 20
224.95500000000001
 30
0.0
 11
129.32099999999991
 21
226.42899999999989
 31
0.0
  0
LINE
  5
79
  8
0
 62
     7
 10
129.32099999999991
 20
226.42899999999989
 30
0.0
 11
128.53100000000001
 21
226.42899999999989
 31
0.0
  0
LINE
  5
7A
  8
0
 62
     7
 10
128.92599999999999
 20
241.62200000000001
 30
0.0
 11
128.92599999999999
 21
224.95500000000001
 31
0.0
  0
LINE
  5
7B
  8
0
 62
     7
 10
148.648
 20
229.02000000000001
 30
0.0
 11
148.648
 21
219.19800000000001
 31
0.0
  0
LINE
  5
7C
  8
0
 62
     7
 10
142.31499999999991
 20
224.339
 30
0.0
 11
142.31499999999991
 21
219.19800000000001
 31
0.0
  0
LINE
  5
7D
  8
0
 62
     7
 10
143.7889999999999
 20
220.00200000000001
 30
0.0
 11
142.31399999999991
 21
219.608
 31
0.0
  0
LINE
  5
7E
  8
0
 62
     7
 10
142.31399999999991
 20
219.608
 30
0.0
 11
143.7889999999999
 21
219.21199999999999
 31
0.0
  0
LINE
  5
7F
  8
0
 62
     7
 10
143.7889999999999
 20
219.21199999999999
 30
0.0
 11
143.7889999999999
 21
220.00200000000001
 31
0.0
  0
LINE
  5
80
  8
0
 62
     7
 10
147.17400000000001
 20
219.22200000000001
 30
0.0
 11
148.649
 21
219.61699999999999
 31
0.0
  0
LINE
  5
81
  8
0
 62
     7
 10
148.649
 20
219.61699999999999
 30
0.0
 11
147.17400000000001
 21
220.012
 31
0.0
  0
LINE
  5
82
  8
0
 62
     7
 10
147.17400000000001
 20
220.012
 30
0.0
 11
147.17400000000001
 21
219.22200000000001
 31
0.0
  0
LINE
  5
83
  8
0
 62
     7
 10
142.31499999999991
 20
219.608
 30
0.0
 11
148.648
 21
219.608
 31
0.0
  0
LINE
  5
84
  8
0
 62
     7
 10
118.812
 20
242.24999999999989
 30
0.0
 11
118.812
 21
248.435
 31
0.0
  0
LINE
  5
85
  8
0
 62
     7
 10
108.8129999999999
 20
242.24999999999989
 30
0.0
 11
108.8129999999999
 21
248.435
 31
0.0
  0
LINE
  5
86
  8
0
 62
     7
 10
150.12200000000001
 20
247.279
 30
0.0
 11
148.648
 21
246.88399999999999
 31
0.0
  0
LINE
  5
87
  8
0
 62
     7
 10
148.648
 20
246.88399999999999
 30
0.0
 11
150.12200000000001
 21
246.489
 31
0.0
  0
LINE
  5
88
  8
0
 62
     7
 10
150.12200000000001
 20
246.489
 30
0.0
 11
150.12200000000001
 21
247.279
 31
0.0
  0
LINE
  5
89
  8
0
 62
     7
 10
146.67400000000001
 20
246.489
 30
0.0
 11
148.14799999999991
 21
246.88399999999999
 31
0.0
  0
LINE
  5
8A
  8
0
 62
     7
 10
148.14799999999991
 20
246.88399999999999
 30
0.0
 11
146.67400000000001
 21
247.279
 31
0.0
  0
LINE
  5
8B
  8
0
 62
     7
 10
146.67400000000001
 20
247.279
 30
0.0
 11
146.67400000000001
 21
246.489
 31
0.0
  0
LINE
  5
8C
  8
0
 62
     7
 10
142.80799999999999
 20
246.88399999999999
 30
0.0
 11
151.10099999999991
 21
246.88399999999999
 31
0.0
  0
LINE
  5
8D
  8
0
 62
     7
 10
110.28700000000001
 20
248.41900000000001
 30
0.0
 11
108.8129999999999
 21
248.024
 31
0.0
  0
LINE
  5
8E
  8
0
 62
     7
 10
108.8129999999999
 20
248.024
 30
0.0
 11
110.28700000000001
 21
247.62899999999999
 31
0.0
  0
LINE
  5
8F
  8
0
 62
     7
 10
110.28700000000001
 20
247.62899999999999
 30
0.0
 11
110.28700000000001
 21
248.41900000000001
 31
0.0
  0
LINE
  5
90
  8
0
 62
     7
 10
117.3389999999999
 20
247.63800000000001
 30
0.0
 11
118.8129999999999
 21
248.0329999999999
 31
0.0
  0
LINE
  5
91
  8
0
 62
     7
 10
118.8129999999999
 20
248.0329999999999
 30
0.0
 11
117.3389999999999
 21
248.428
 31
0.0
  0
LINE
  5
92
  8
0
 62
     7
 10
117.3389999999999
 20
248.428
 30
0.0
 11
117.3389999999999
 21
247.63800000000001
 31
0.0
  0
LINE
  5
93
  8
0
 62
     7
 10
108.8129999999999
 20
248.024
 30
0.0
 11
118.812
 21
248.024
 31
0.0
  0
ARC
  5
94
  8
0
 62
     7
 10
45.408704
 20
222.56164599999991
 30
0.0
 40
0.334925
 50
272.09413000000001
 51
357.90587999999991
  0
ARC
  5
95
  8
0
 62
     7
 10
45.408689999999993
 20
222.5371549999999
 30
0.0
 40
0.33494
 50
2.0964959999999988
 51
87.903494999999992
  0
ARC
  5
96
  8
0
 62
     7
 10
45.432969999999997
 20
222.5373799999999
 30
0.0
 40
0.334707
 50
92.059318000000005
 51
177.940652
  0
ARC
  5
97
  8
0
 62
     7
 10
45.433196000000002
 20
222.56165999999999
 30
0.0
 40
0.33494
 50
182.096498
 51
267.90353199999998
  0
ARC
  5
98
  8
0
 62
     7
 10
45.408704
 20
152.56168700000001
 30
0.0
 40
0.334925
 50
272.09413000000001
 51
357.90587999999991
  0
ARC
  5
99
  8
0
 62
     7
 10
45.40867999999999
 20
152.53718499999999
 30
0.0
 40
0.334951
 50
2.0981819999999991
 51
87.901807999999988
  0
ARC
  5
9A
  8
0
 62
     7
 10
45.433169999999997
 20
152.53722099999999
 30
0.0
 40
0.334914
 50
92.092257000000004
 51
177.907713
  0
ARC
  5
9B
  8
0
 62
     7
 10
45.433205999999998
 20
152.56171099999989
 30
0.0
 40
0.334951
 50
182.098185
 51
267.90184499999998
  0
ARC
  5
9C
  8
0
 62
     7
 10
81.330072999999999
 20
217.0103049999999
 30
0.0
 40
1.039806999999999
 50
2.1670020000000001
 51
87.872461000000001
  0
ARC
  5
9D
  8
0
 62
     7
 10
54.407226000000001
 20
217.01099799999989
 30
0.0
 40
1.039115999999999
 50
92.130204000000006
 51
177.86976599999991
  0
LINE
  5
9E
  8
0
  6
AIGENLINE002
 62
     7
 10
51.2804
 20
187.54900000000001
 30
0.0
 11
84.198499999999996
 21
187.54900000000001
 31
0.0
  0
LINE
  5
9F
  8
0
 62
     7
 10
54.368600000000001
 20
218.04900000000001
 30
0.0
 11
81.368700000000004
 21
218.04900000000001
 31
0.0
  0
ARC
  5
A0
  8
0
 62
     7
 10
81.368846000000005
 20
158.0497499999999
 30
0.0
 40
1.000289999999999
 50
269.99015299999991
 51
359.99012299999993
  0
ARC
  5
A1
  8
0
 62
     7
 10
54.407249999999998
 20
158.0878689999999
 30
0.0
 40
1.0391269999999999
 50
182.111795
 51
267.868495
  0
LINE
  5
A2
  8
0
  6
AIGENLINE003
 62
     7
 10
82.368799999999993
 20
222.54900000000001
 30
0.0
 11
53.3688
 21
227.55000000000001
 31
0.0
  0
LINE
  5
A3
  8
0
  6
AIGENLINE003
 62
     7
 10
82.368799999999993
 20
227.55000000000001
 30
0.0
 11
53.3688
 21
222.54900000000001
 31
0.0
  0
LINE
  5
A4
  8
0
  6
AIGENLINE003
 62
     7
 10
82.368799999999993
 20
222.54900000000001
 30
0.0
 11
82.368799999999993
 21
227.55000000000001
 31
0.0
  0
LINE
  5
A5
  8
0
  6
AIGENLINE003
 62
     7
 10
82.368799999999993
 20
227.55000000000001
 30
0.0
 11
53.3688
 21
227.55000000000001
 31
0.0
  0
LINE
  5
A6
  8
0
  6
AIGENLINE003
 62
     7
 10
53.3688
 20
227.55000000000001
 30
0.0
 11
53.3688
 21
222.54900000000001
 31
0.0
  0
LINE
  5
A7
  8
0
  6
AIGENLINE003
 62
     7
 10
53.3688
 20
222.54900000000001
 30
0.0
 11
82.368799999999993
 21
222.54900000000001
 31
0.0
  0
LINE
  5
A8
  8
0
 62
     7
 10
44.7209
 20
227.55000000000001
 30
0.0
 11
52.668799999999997
 21
227.55000000000001
 31
0.0
  0
LINE
  5
A9
  8
0
 62
     7
 10
83.101600000000005
 20
218.04900000000001
 30
0.0
 11
90.839299999999994
 21
218.04900000000001
 31
0.0
  0
LINE
  5
AA
  8
0
 62
     7
 10
44.7209
 20
222.54900000000001
 30
0.0
 11
52.668799999999997
 21
222.54900000000001
 31
0.0
  0
LINE
  5
AB
  8
0
  6
AIGENLINE003
 62
     7
 10
82.368799999999993
 20
152.54900000000001
 30
0.0
 11
53.3688
 21
147.54900000000001
 31
0.0
  0
LINE
  5
AC
  8
0
  6
AIGENLINE003
 62
     7
 10
82.368799999999993
 20
147.54900000000001
 30
0.0
 11
53.3688
 21
152.54900000000001
 31
0.0
  0
LINE
  5
AD
  8
0
  6
AIGENLINE003
 62
     7
 10
82.368799999999993
 20
152.54900000000001
 30
0.0
 11
82.368799999999993
 21
147.54900000000001
 31
0.0
  0
LINE
  5
AE
  8
0
  6
AIGENLINE003
 62
     7
 10
82.368799999999993
 20
147.54900000000001
 30
0.0
 11
53.3688
 21
147.54900000000001
 31
0.0
  0
LINE
  5
AF
  8
0
  6
AIGENLINE003
 62
     7
 10
53.3688
 20
147.54900000000001
 30
0.0
 11
53.3688
 21
152.54900000000001
 31
0.0
  0
LINE
  5
B0
  8
0
  6
AIGENLINE003
 62
     7
 10
53.3688
 20
152.54900000000001
 30
0.0
 11
82.368799999999993
 21
152.54900000000001
 31
0.0
  0
ARC
  5
B1
  8
0
 62
     7
 10
136.53185500000001
 20
202.12125399999999
 30
0.0
 40
0.516771
 50
181.64420399999989
 51
261.89852999999988
  0
ARC
  5
B2
  8
0
 62
     7
 10
141.91486399999991
 20
197.8696009999999
 30
0.0
 40
3.102479999999999
 50
1.6802790000000001
 51
82.435027000000005
  0
ARC
  5
B3
  8
0
  6
AIGENLINE001
 62
     7
 10
136.57960299999999
 20
196.313807
 30
0.0
 40
10.971325
 50
359.976608
 51
3.1452539999999991
  0
ARC
  5
B4
  8
0
  6
AIGENLINE001
 62
     7
 10
141.949659
 20
196.552527
 30
0.0
 40
5.5965429999999987
 50
3.7214510000000001
 51
21.671880999999999
  0
ARC
  5
B5
  8
0
  6
AIGENLINE001
 62
     7
 10
145.60123499999989
 20
195.7251489999999
 30
0.0
 40
0.4155180000000001
 50
272.05703199999988
 51
357.89364899999998
  0
ARC
  5
B6
  8
0
  6
AIGENLINE001
 62
     7
 10
145.60130799999999
 20
195.69467800000001
 30
0.0
 40
0.415443
 50
2.0966740000000001
 51
87.952646000000016
  0
LINE
  5
B7
  8
0
  6
AIGENLINE001
 62
     7
 10
147.55099999999999
 20
195.31
 30
0.0
 11
147.55099999999999
 21
196.309
 31
0.0
  0
LINE
  5
B8
  8
0
  6
AIGENLINE001
 62
     7
 10
145.35599999999991
 20
196.11000000000001
 30
0.0
 11
145.61600000000001
 21
196.11000000000001
 31
0.0
  0
LINE
  5
B9
  8
0
  6
AIGENLINE001
 62
     7
 10
145.01599999999991
 20
195.31
 30
0.0
 11
145.61600000000001
 21
195.31
 31
0.0
  0
LINE
  5
BA
  8
0
  6
AIGENLINE001
 62
     7
 10
147.55099999999999
 20
195.31
 30
0.0
 11
149.01599999999991
 21
195.31
 31
0.0
  0
ARC
  5
BB
  8
0
  6
AIGENLINE001
 62
     7
 10
145.60123499999989
 20
190.59445299999999
 30
0.0
 40
0.4155180000000001
 50
2.1063509999999992
 51
87.942968000000008
  0
ARC
  5
BC
  8
0
  6
AIGENLINE001
 62
     7
 10
145.60130799999999
 20
190.62492499999991
 30
0.0
 40
0.415443
 50
272.04735399999993
 51
357.90332599999999
  0
LINE
  5
BD
  8
0
  6
AIGENLINE001
 62
     7
 10
144.01599999999991
 20
189.94599999999991
 30
0.0
 11
145.01599999999991
 21
191.00999999999991
 31
0.0
  0
ARC
  5
BE
  8
0
  6
AIGENLINE001
 62
     7
 10
141.55297899999991
 20
173.794623
 30
0.0
 40
1.544006999999999
 50
282.49968899999988
 51
355.51457699999992
  0
ARC
  5
BF
  8
0
 62
     7
 10
141.40076499999989
 20
173.34567100000001
 30
0.0
 40
2.5749529999999989
 50
281.983135
 51
336.683739
  0
ARC
  5
C0
  8
0
 62
     7
 10
-358.87431900000001
 20
199.16702599999999
 30
0.0
 40
501.89078299999989
 50
359.514589
 51
359.99917699999992
  0
ARC
  5
C1
  8
0
 62
     7
 10
-745.05251499999997
 20
202.35143899999991
 30
0.0
 40
888.08210299999985
 50
358.05176799999998
 51
359.52022599999992
  0
ARC
  5
C2
  8
0
 62
     7
 10
133.80743799999991
 20
168.16347399999989
 30
0.0
 40
0.503745
 50
270.18259699999999
 51
314.819028
  0
ARC
  5
C3
  8
0
 62
     7
 10
135.509276
 20
169.869158
 30
0.0
 40
0.5067160000000001
 50
315.37456900000001
 51
359.71918999999991
  0
ARC
  5
C4
  8
0
 62
     7
 10
135.508925
 20
171.950065
 30
0.0
 40
0.5070680000000002
 50
0.296987
 51
44.609253999999993
  0
ARC
  5
C5
  8
0
 62
     7
 10
134.52265
 20
174.36924799999991
 30
0.0
 40
0.5069060000000001
 50
180.2895649999999
 51
224.616716
  0
ARC
  5
C6
  8
0
 62
     7
 10
135.70415700000001
 20
204.34881999999999
 30
0.0
 40
0.311336
 50
2.03532
 51
87.898851000000008
  0
ARC
  5
C7
  8
0
 62
     7
 10
134.52235400000001
 20
197.450323
 30
0.0
 40
0.506609
 50
135.36959899999999
 51
179.72412
  0
ARC
  5
C8
  8
0
 62
     7
 10
135.50869299999991
 20
199.869539
 30
0.0
 40
0.506609
 50
315.3696379999999
 51
359.72412099999991
  0
ARC
  5
C9
  8
0
 62
     7
 10
148.52883499999999
 20
197.6755939999999
 30
0.0
 40
0.51582
 50
193.39295300000001
 51
268.601876
  0
ARC
  5
CA
  8
0
 62
     7
 10
148.49753699999999
 20
196.64097100000001
 30
0.0
 40
0.5192930000000001
 50
2.1044800000000001
 51
87.934984
  0
ARC
  5
CB
  8
0
 62
     7
 10
148.50003000000001
 20
189.6063179999999
 30
0.0
 40
0.5166470000000001
 50
279.87068699999998
 51
358.41610200000002
  0
LINE
  5
CC
  8
0
 62
     7
 10
84.068799999999996
 20
132.096
 30
0.0
 11
94.679400000000001
 21
132.096
 31
0.0
  0
LINE
  5
CD
  8
0
 62
     7
 10
133.227
 20
61.104300000000002
 30
0.0
 11
131.0149999999999
 21
60.511800000000001
 31
0.0
  0
LINE
  5
CE
  8
0
 62
     7
 10
131.0149999999999
 20
60.511800000000001
 30
0.0
 11
133.227
 21
59.919199999999996
 31
0.0
  0
LINE
  5
CF
  8
0
 62
     7
 10
133.227
 20
59.919199999999996
 30
0.0
 11
133.227
 21
61.104300000000002
 31
0.0
  0
LINE
  5
D0
  8
0
 62
     7
 10
146.80500000000001
 20
59.933700000000002
 30
0.0
 11
149.01699999999991
 21
60.526200000000003
 31
0.0
  0
LINE
  5
D1
  8
0
 62
     7
 10
149.01699999999991
 20
60.526200000000003
 30
0.0
 11
146.80500000000001
 21
61.119100000000003
 31
0.0
  0
LINE
  5
D2
  8
0
 62
     7
 10
146.80500000000001
 20
61.119100000000003
 30
0.0
 11
146.80500000000001
 21
59.933700000000002
 31
0.0
  0
LINE
  5
D3
  8
0
 62
     7
 10
131.01599999999991
 20
60.519300000000001
 30
0.0
 11
149.01599999999991
 21
60.519300000000001
 31
0.0
  0
LINE
  5
D4
  8
0
 62
     7
 10
84.068799999999996
 20
69.095299999999995
 30
0.0
 11
94.679400000000001
 21
69.095299999999995
 31
0.0
  0
LINE
  5
D5
  8
0
 62
     7
 10
44.7209
 20
147.54900000000001
 30
0.0
 11
52.668799999999997
 21
147.54900000000001
 31
0.0
  0
LINE
  5
D6
  8
0
 62
     7
 10
44.7209
 20
218.04900000000001
 30
0.0
 11
52.668799999999997
 21
218.04900000000001
 31
0.0
  0
LINE
  5
D7
  8
0
 62
     7
 10
44.7209
 20
187.54900000000001
 30
0.0
 11
50.580399999999997
 21
187.54900000000001
 31
0.0
  0
LINE
  5
D8
  8
0
 62
     7
 10
83.101600000000005
 20
157.04900000000001
 30
0.0
 11
90.839299999999994
 21
157.04900000000001
 31
0.0
  0
LINE
  5
D9
  8
0
 62
     7
 10
55.5792
 20
202.75699999999989
 30
0.0
 11
53.3675
 21
202.16399999999999
 31
0.0
  0
LINE
  5
DA
  8
0
 62
     7
 10
53.3675
 20
202.16399999999999
 30
0.0
 11
55.5792
 21
201.57199999999989
 31
0.0
  0
LINE
  5
DB
  8
0
 62
     7
 10
55.5792
 20
201.57199999999989
 30
0.0
 11
55.5792
 21
202.75699999999989
 31
0.0
  0
LINE
  5
DC
  8
0
 62
     7
 10
80.158100000000005
 20
201.5859999999999
 30
0.0
 11
82.369799999999998
 21
202.179
 31
0.0
  0
LINE
  5
DD
  8
0
 62
     7
 10
82.369799999999998
 20
202.179
 30
0.0
 11
80.158100000000005
 21
202.7709999999999
 31
0.0
  0
LINE
  5
DE
  8
0
 62
     7
 10
80.158100000000005
 20
202.7709999999999
 30
0.0
 11
80.158100000000005
 21
201.5859999999999
 31
0.0
  0
LINE
  5
DF
  8
0
 62
     7
 10
53.3688
 20
202.172
 30
0.0
 11
82.369099999999989
 21
202.172
 31
0.0
  0
LINE
  5
E0
  8
0
 62
     7
 10
44.7209
 20
157.04900000000001
 30
0.0
 11
52.668799999999997
 21
157.04900000000001
 31
0.0
  0
LINE
  5
E1
  8
0
 62
     7
 10
44.7209
 20
152.54900000000001
 30
0.0
 11
52.668799999999997
 21
152.54900000000001
 31
0.0
  0
LINE
  5
E2
  8
0
 62
     7
 10
54.368600000000001
 20
157.04900000000001
 30
0.0
 11
81.368700000000004
 21
157.04900000000001
 31
0.0
  0
LINE
  5
E3
  8
0
 62
     7
 10
86.340199999999996
 20
134.596
 30
0.0
 11
101.2529999999999
 21
134.596
 31
0.0
  0
LINE
  5
E4
  8
0
 62
     7
 10
86.340199999999996
 20
66.595500000000001
 30
0.0
 11
101.2529999999999
 21
66.595500000000001
 31
0.0
  0
LINE
  5
E5
  8
0
 62
     7
 10
80.134600000000006
 20
158.53200000000001
 30
0.0
 11
82.117599999999996
 21
157.387
 31
0.0
  0
LINE
  5
E6
  8
0
 62
     7
 10
82.117599999999996
 20
157.387
 30
0.0
 11
80.973200000000006
 21
159.37
 31
0.0
  0
LINE
  5
E7
  8
0
 62
     7
 10
80.973200000000006
 20
159.37
 30
0.0
 11
80.134600000000006
 21
158.53200000000001
 31
0.0
  0
LINE
  5
E8
  8
0
 62
     7
 10
76.471100000000007
 20
163.03399999999991
 30
0.0
 11
82.117599999999996
 21
157.387
 31
0.0
  0
LINE
  5
E9
  8
0
 62
     7
 10
84.261899999999997
 20
151.34399999999991
 30
0.0
 11
82.368799999999993
 21
150.05600000000001
 31
0.0
  0
LINE
  5
EA
  8
0
 62
     7
 10
82.368799999999993
 20
150.05600000000001
 30
0.0
 11
84.652600000000007
 21
150.22499999999999
 31
0.0
  0
LINE
  5
EB
  8
0
 62
     7
 10
84.652600000000007
 20
150.22499999999999
 30
0.0
 11
84.261899999999997
 21
151.34399999999991
 31
0.0
  0
LINE
  5
EC
  8
0
 62
     7
 10
97.645499999999984
 20
155.386
 30
0.0
 11
82.368799999999993
 21
150.05600000000001
 31
0.0
  0
LINE
  5
ED
  8
0
 62
     7
 10
97.645499999999984
 20
155.386
 30
0.0
 11
97.645499999999984
 21
203.363
 31
0.0
  0
LINE
  5
EE
  8
0
 62
     7
 10
54.764800000000001
 20
159.37
 30
0.0
 11
53.619599999999991
 21
157.387
 31
0.0
  0
LINE
  5
EF
  8
0
 62
     7
 10
53.619599999999991
 20
157.387
 30
0.0
 11
55.602600000000002
 21
158.53200000000001
 31
0.0
  0
LINE
  5
F0
  8
0
 62
     7
 10
55.602600000000002
 20
158.53200000000001
 30
0.0
 11
54.764800000000001
 21
159.37
 31
0.0
  0
LINE
  5
F1
  8
0
 62
     7
 10
59.266500000000001
 20
163.03399999999991
 30
0.0
 11
53.619599999999991
 21
157.387
 31
0.0
  0
LINE
  5
F2
  8
0
 62
     7
 10
70.761799999999994
 20
163.03399999999991
 30
0.0
 11
76.471100000000007
 21
163.03399999999991
 31
0.0
  0
LINE
  5
F3
  8
0
 62
     7
 10
59.266500000000001
 20
163.03399999999991
 30
0.0
 11
64.975800000000007
 21
163.03399999999991
 31
0.0
  0
LINE
  5
F4
  8
0
 62
     7
 10
56.865499999999997
 20
103.261
 30
0.0
 11
58.848500000000001
 21
102.116
 31
0.0
  0
LINE
  5
F5
  8
0
 62
     7
 10
58.848500000000001
 20
102.116
 30
0.0
 11
57.703600000000002
 21
104.0989999999999
 31
0.0
  0
LINE
  5
F6
  8
0
 62
     7
 10
57.703600000000002
 20
104.0989999999999
 30
0.0
 11
56.865499999999997
 21
103.261
 31
0.0
  0
LINE
  5
F7
  8
0
 62
     7
 10
63.8718
 20
97.930199999999999
 30
0.0
 11
61.88880000000001
 21
99.075400000000002
 31
0.0
  0
LINE
  5
F8
  8
0
 62
     7
 10
61.88880000000001
 20
99.075400000000002
 30
0.0
 11
63.033900000000003
 21
97.092400000000012
 31
0.0
  0
LINE
  5
F9
  8
0
 62
     7
 10
63.033900000000003
 20
97.092400000000012
 30
0.0
 11
63.8718
 21
97.930199999999999
 31
0.0
  0
LINE
  5
FA
  8
0
 62
     7
 10
66.501800000000003
 20
94.462400000000017
 30
0.0
 11
56.247100000000003
 21
104.717
 31
0.0
  0
LINE
  5
FB
  8
0
 62
     7
 10
51.0794
 20
86.804199999999994
 30
0.0
 11
48.867600000000003
 21
86.211600000000004
 31
0.0
  0
LINE
  5
FC
  8
0
 62
     7
 10
48.867600000000003
 20
86.211600000000004
 30
0.0
 11
51.0794
 21
85.618700000000004
 31
0.0
  0
LINE
  5
FD
  8
0
 62
     7
 10
51.0794
 20
85.618700000000004
 30
0.0
 11
51.0794
 21
86.804199999999994
 31
0.0
  0
LINE
  5
FE
  8
0
 62
     7
 10
58.157699999999998
 20
85.633600000000015
 30
0.0
 11
60.369500000000002
 21
86.226099999999988
 31
0.0
  0
LINE
  5
FF
  8
0
 62
     7
 10
60.369500000000002
 20
86.226099999999988
 30
0.0
 11
58.157699999999998
 21
86.819000000000003
 31
0.0
  0
LINE
  5
100
  8
0
 62
     7
 10
58.157699999999998
 20
86.819000000000003
 30
0.0
 11
58.157699999999998
 21
85.633600000000015
 31
0.0
  0
LINE
  5
101
  8
0
 62
     7
 10
48.868600000000001
 20
86.218900000000005
 30
0.0
 11
60.3688
 21
86.218900000000005
 31
0.0
  0
LINE
  5
102
  8
0
 62
     7
 10
88.080600000000004
 20
57.041200000000003
 30
0.0
 11
85.868899999999996
 21
56.448599999999999
 31
0.0
  0
LINE
  5
103
  8
0
 62
     7
 10
85.868899999999996
 20
56.448599999999999
 30
0.0
 11
88.080600000000004
 21
55.855699999999999
 31
0.0
  0
LINE
  5
104
  8
0
 62
     7
 10
88.080600000000004
 20
55.855699999999999
 30
0.0
 11
88.080600000000004
 21
57.041200000000003
 31
0.0
  0
LINE
  5
105
  8
0
 62
     7
 10
54.580300000000001
 20
57.041200000000003
 30
0.0
 11
52.368499999999997
 21
56.448599999999999
 31
0.0
  0
LINE
  5
106
  8
0
 62
     7
 10
52.368499999999997
 20
56.448599999999999
 30
0.0
 11
54.580300000000001
 21
55.855699999999999
 31
0.0
  0
LINE
  5
107
  8
0
 62
     7
 10
54.580300000000001
 20
55.855699999999999
 30
0.0
 11
54.580300000000001
 21
57.041200000000003
 31
0.0
  0
LINE
  5
108
  8
0
 62
     7
 10
46.6569
 20
55.8705
 30
0.0
 11
48.868600000000001
 21
56.46309999999999
 31
0.0
  0
LINE
  5
109
  8
0
 62
     7
 10
48.868600000000001
 20
56.46309999999999
 30
0.0
 11
46.6569
 21
57.055599999999998
 31
0.0
  0
LINE
  5
10A
  8
0
 62
     7
 10
46.6569
 20
57.055599999999998
 30
0.0
 11
46.6569
 21
55.8705
 31
0.0
  0
LINE
  5
10B
  8
0
 62
     7
 10
81.156999999999996
 20
55.8705
 30
0.0
 11
83.368700000000004
 21
56.46309999999999
 31
0.0
  0
LINE
  5
10C
  8
0
 62
     7
 10
83.368700000000004
 20
56.46309999999999
 30
0.0
 11
81.156999999999996
 21
57.055599999999998
 31
0.0
  0
LINE
  5
10D
  8
0
 62
     7
 10
81.156999999999996
 20
57.055599999999998
 30
0.0
 11
81.156999999999996
 21
55.8705
 31
0.0
  0
LINE
  5
10E
  8
0
 62
     7
 10
43.012999999999998
 20
56.455500000000001
 30
0.0
 11
91.536100000000005
 21
56.455500000000001
 31
0.0
  0
LINE
  5
10F
  8
0
 62
     7
 10
136.22799999999989
 20
162.1689999999999
 30
0.0
 11
134.01599999999999
 21
161.57599999999991
 31
0.0
  0
LINE
  5
110
  8
0
 62
     7
 10
134.01599999999999
 20
161.57599999999991
 30
0.0
 11
136.22799999999989
 21
160.983
 31
0.0
  0
LINE
  5
111
  8
0
 62
     7
 10
136.22799999999989
 20
160.983
 30
0.0
 11
136.22799999999989
 21
162.1689999999999
 31
0.0
  0
LINE
  5
112
  8
0
 62
     7
 10
128.80500000000001
 20
160.983
 30
0.0
 11
131.01599999999991
 21
161.57599999999991
 31
0.0
  0
LINE
  5
113
  8
0
 62
     7
 10
131.01599999999991
 20
161.57599999999991
 30
0.0
 11
128.80500000000001
 21
162.1689999999999
 31
0.0
  0
LINE
  5
114
  8
0
 62
     7
 10
128.80500000000001
 20
162.1689999999999
 30
0.0
 11
128.80500000000001
 21
160.983
 31
0.0
  0
LINE
  5
115
  8
0
 62
     7
 10
127.1789999999999
 20
161.57599999999991
 30
0.0
 11
140.792
 21
161.57599999999991
 31
0.0
  0
LINE
  5
116
  8
0
 62
     7
 10
134.01599999999999
 20
173.48500000000001
 30
0.0
 11
134.01599999999999
 21
160.8769999999999
 31
0.0
  0
LINE
  5
117
  8
0
 62
     7
 10
131.01599999999991
 20
166.96000000000001
 30
0.0
 11
131.01599999999991
 21
160.8769999999999
 31
0.0
  0
LINE
  5
118
  8
0
 62
     7
 10
51.0794
 20
51.203699999999998
 30
0.0
 11
48.867600000000003
 21
50.61119999999999
 31
0.0
  0
LINE
  5
119
  8
0
 62
     7
 10
48.867600000000003
 20
50.61119999999999
 30
0.0
 11
51.0794
 21
50.018599999999999
 31
0.0
  0
LINE
  5
11A
  8
0
 62
     7
 10
51.0794
 20
50.018599999999999
 30
0.0
 11
51.0794
 21
51.203699999999998
 31
0.0
  0
LINE
  5
11B
  8
0
 62
     7
 10
83.658100000000005
 20
50.03309999999999
 30
0.0
 11
85.870199999999997
 21
50.625700000000002
 31
0.0
  0
LINE
  5
11C
  8
0
 62
     7
 10
85.870199999999997
 20
50.625700000000002
 30
0.0
 11
83.658100000000005
 21
51.218200000000003
 31
0.0
  0
LINE
  5
11D
  8
0
 62
     7
 10
83.658100000000005
 20
51.218200000000003
 30
0.0
 11
83.658100000000005
 21
50.03309999999999
 31
0.0
  0
LINE
  5
11E
  8
0
 62
     7
 10
48.868600000000001
 20
50.618400000000001
 30
0.0
 11
85.868899999999996
 21
50.618400000000001
 31
0.0
  0
ARC
  5
11F
  8
0
 62
     7
 10
49.36853
 20
70.095733999999993
 30
0.0
 40
0.5002310000000002
 50
270.00002000000001
 51
359.99998999999991
  0
ARC
  5
120
  8
0
 62
     7
 10
49.387903000000001
 20
69.076256999999998
 30
0.0
 40
0.5196069999999999
 50
92.136687999999978
 51
177.90275500000001
  0
ARC
  5
121
  8
0
 62
     7
 10
60.368617000000008
 20
100.59553
 30
0.0
 40
2.1499259999999989
 50
270.00461000000001
 51
0.004581
  0
ARC
  5
122
  8
0
 62
     7
 10
60.368617000000008
 20
100.5958729999999
 30
0.0
 40
2.1499259999999989
 50
359.99541899999991
 51
89.99539
  0
ARC
  5
123
  8
0
 62
     7
 10
60.368789999999997
 20
100.59570100000001
 30
0.0
 40
2.150097999999999
 50
90.0
 51
179.99996999999991
  0
ARC
  5
124
  8
0
 62
     7
 10
60.368789
 20
100.59570100000001
 30
0.0
 40
2.1500970000000001
 50
179.99996999999991
 51
270.00002000000001
  0
ARC
  5
125
  8
0
 62
     7
 10
60.368789
 20
100.595702
 30
0.0
 40
3.1498710000000001
 50
270.00002000000001
 51
359.99998999999991
  0
ARC
  5
126
  8
0
 62
     7
 10
60.368789
 20
100.59570100000001
 30
0.0
 40
3.1498710000000001
 50
0.00001
 51
89.999980000000008
  0
ARC
  5
127
  8
0
 62
     7
 10
60.368617999999998
 20
100.5955289999999
 30
0.0
 40
3.150043999999999
 50
89.996867000000009
 51
179.996837
  0
ARC
  5
128
  8
0
 62
     7
 10
60.368617000000008
 20
100.5958729999999
 30
0.0
 40
3.150042
 50
180.00314299999999
 51
270.00315299999988
  0
LINE
  5
129
  8
0
 62
     7
 10
131.01599999999991
 20
134.58699999999999
 30
0.0
 11
131.01599999999991
 21
66.586899999999986
 31
0.0
  0
LINE
  5
12A
  8
0
 62
     7
 10
134.01599999999999
 20
66.586899999999986
 30
0.0
 11
134.01599999999999
 21
134.58699999999999
 31
0.0
  0
LINE
  5
12B
  8
0
  6
AIGENLINE002
 62
     7
 10
129.27699999999999
 20
100.59099999999999
 30
0.0
 11
150.69200000000001
 21
100.59099999999999
 31
0.0
  0
LINE
  5
12C
  8
0
 62
     7
 10
131.01599999999991
 20
66.586899999999986
 30
0.0
 11
134.01599999999999
 21
66.586899999999986
 31
0.0
  0
LINE
  5
12D
  8
0
 62
     7
 10
149.01599999999991
 20
97.40100000000001
 30
0.0
 11
149.01599999999991
 21
100.5949999999999
 31
0.0
  0
ARC
  5
12E
  8
0
 62
     7
 10
147.94503999999989
 20
97.495668999999992
 30
0.0
 40
1.0756110000000001
 50
330.90570200000002
 51
354.95300499999991
  0
ARC
  5
12F
  8
0
 62
     7
 10
148.195684
 20
97.411274000000006
 30
0.0
 40
0.816975
 50
279.52690599999988
 51
327.52837799999992
  0
ARC
  5
130
  8
0
 62
     7
 10
145.42571699999991
 20
95.246408000000002
 30
0.0
 40
1.059633
 50
150.79768200000001
 51
174.82968600000001
  0
ARC
  5
131
  8
0
 62
     7
 10
145.1574249999999
 20
95.34070899999999
 30
0.0
 40
0.780944
 50
97.872365999999985
 51
147.23103999999989
  0
LINE
  5
132
  8
0
 62
     7
 10
148.33099999999999
 20
96.605599999999995
 30
0.0
 11
145.05000000000001
 21
96.1143
 31
0.0
  0
LINE
  5
133
  8
0
 62
     7
 10
143.48400000000001
 20
72.943799999999996
 30
0.0
 11
144.816
 21
73.127799999999993
 31
0.0
  0
LINE
  5
134
  8
0
 62
     7
 10
144.816
 20
73.127799999999993
 30
0.0
 11
144.816
 21
75.277500000000003
 31
0.0
  0
LINE
  5
135
  8
0
 62
     7
 10
144.01599999999991
 20
73.017499999999998
 30
0.0
 11
144.01599999999991
 21
100.59699999999999
 31
0.0
  0
LINE
  5
136
  8
0
 62
     7
 10
144.816
 20
75.277500000000003
 30
0.0
 11
144.816
 21
89.614699999999999
 31
0.0
  0
LINE
  5
137
  8
0
 62
     7
 10
144.30199999999999
 20
90.570800000000006
 30
0.0
 11
144.816
 21
89.614699999999999
 31
0.0
  0
LINE
  5
138
  8
0
 62
     7
 10
144.405
 20
96.473600000000005
 30
0.0
 11
144.45400000000001
 21
100.5859999999999
 31
0.0
  0
LINE
  5
139
  8
0
 62
     7
 10
144.14400000000001
 20
81.437399999999997
 30
0.0
 11
144.405
 21
96.473600000000005
 31
0.0
  0
LINE
  5
13A
  8
0
 62
     7
 10
143.47200000000001
 20
72.793899999999994
 30
0.0
 11
144.14400000000001
 21
81.437399999999997
 31
0.0
  0
ARC
  5
13B
  8
0
 62
     7
 10
139.8924669999999
 20
73.624168999999995
 30
0.0
 40
3.8406889999999989
 50
284.79008399999992
 51
312.79298299999988
  0
ARC
  5
13C
  8
0
 62
     7
 10
140.11161699999991
 20
73.203044999999975
 30
0.0
 40
3.3851019999999989
 50
314.91387700000001
 51
353.05873999999989
  0
LINE
  5
13D
  8
0
 62
     7
 10
136.01699999999991
 20
68.879599999999996
 30
0.0
 11
140.87299999999999
 21
69.910700000000006
 31
0.0
  0
LINE
  5
13E
  8
0
 62
     7
 10
149.01599999999991
 20
103.7889999999999
 30
0.0
 11
149.01599999999991
 21
100.5949999999999
 31
0.0
  0
ARC
  5
13F
  8
0
 62
     7
 10
147.94503999999989
 20
103.694356
 30
0.0
 40
1.0756110000000001
 50
5.046994999999999
 51
29.094297999999998
  0
ARC
  5
140
  8
0
 62
     7
 10
148.195684
 20
103.7787519999999
 30
0.0
 40
0.816975
 50
32.471621999999989
 51
80.473093999999989
  0
ARC
  5
141
  8
0
 62
     7
 10
145.42571699999991
 20
105.9436179999999
 30
0.0
 40
1.059633
 50
185.17031399999999
 51
209.20231799999991
  0
ARC
  5
142
  8
0
 62
     7
 10
145.1574249999999
 20
105.8493159999999
 30
0.0
 40
0.780944
 50
212.76895999999999
 51
262.127634
  0
LINE
  5
143
  8
0
 62
     7
 10
148.33099999999999
 20
104.584
 30
0.0
 11
145.05000000000001
 21
105.07599999999999
 31
0.0
  0
LINE
  5
144
  8
0
 62
     7
 10
131.01599999999991
 20
134.58699999999999
 30
0.0
 11
134.01599999999999
 21
134.58699999999999
 31
0.0
  0
LINE
  5
145
  8
0
 62
     7
 10
85.868899999999996
 20
100.583
 30
0.0
 11
85.868899999999996
 21
81.582400000000007
 31
0.0
  0
LINE
  5
146
  8
0
 62
     7
 10
84.163499999999985
 20
100.583
 30
0.0
 11
84.163499999999985
 21
81.582400000000007
 31
0.0
  0
LINE
  5
147
  8
0
 62
     7
 10
84.312399999999997
 20
100.583
 30
0.0
 11
84.312399999999997
 21
81.582400000000007
 31
0.0
  0
LINE
  5
148
  8
0
 62
     7
 10
84.9221
 20
100.583
 30
0.0
 11
84.9221
 21
81.582400000000007
 31
0.0
  0
LINE
  5
149
  8
0
 62
     7
 10
85.072299999999984
 20
100.583
 30
0.0
 11
85.072299999999984
 21
81.582400000000007
 31
0.0
  0
LINE
  5
14A
  8
0
 62
     7
 10
48.868600000000001
 20
100.583
 30
0.0
 11
48.868600000000001
 21
81.582400000000007
 31
0.0
  0
ARC
  5
14B
  8
0
 62
     7
 10
50.003478999999999
 20
133.14260300000001
 30
0.0
 40
1.460054999999999
 50
95.511394000000024
 51
116.08626699999991
  0
ARC
  5
14C
  8
0
 62
     7
 10
49.799021999999987
 20
133.6593729999999
 30
0.0
 40
0.907071
 50
118.841792
 51
166.6973989999999
  0
ARC
  5
14D
  8
0
 62
     7
 10
50.411349000000001
 20
133.46913499999999
 30
0.0
 40
1.547374
 50
165.05903499999999
 51
175.54809900000001
  0
LINE
  5
14E
  8
0
  6
AIGENLINE002
 62
     7
 10
87.873199999999997
 20
100.5959999999999
 30
0.0
 11
47.334499999999998
 21
100.5959999999999
 31
0.0
  0
LINE
  5
14F
  8
0
  6
AIGENLINE002
 62
     7
 10
60.3688
 20
95.647099999999995
 30
0.0
 11
60.3688
 21
105.352
 31
0.0
  0
LINE
  5
150
  8
0
 62
     7
 10
48.868600000000001
 20
100.583
 30
0.0
 11
48.868600000000001
 21
133.589
 31
0.0
  0
LINE
  5
151
  8
0
 62
     7
 10
85.072299999999984
 20
100.583
 30
0.0
 11
85.072299999999984
 21
119.596
 31
0.0
  0
LINE
  5
152
  8
0
 62
     7
 10
84.9221
 20
100.583
 30
0.0
 11
84.9221
 21
119.596
 31
0.0
  0
LINE
  5
153
  8
0
 62
     7
 10
84.312399999999997
 20
100.583
 30
0.0
 11
84.312399999999997
 21
119.596
 31
0.0
  0
LINE
  5
154
  8
0
 62
     7
 10
84.163499999999985
 20
100.583
 30
0.0
 11
84.163499999999985
 21
119.596
 31
0.0
  0
LINE
  5
155
  8
0
 62
     7
 10
85.868899999999996
 20
100.583
 30
0.0
 11
85.868899999999996
 21
119.596
 31
0.0
  0
LINE
  5
156
  8
0
 62
     7
 10
84.312399999999997
 20
81.582400000000007
 30
0.0
 11
84.312399999999997
 21
69.142799999999994
 31
0.0
  0
LINE
  5
157
  8
0
 62
     7
 10
50.810000000000002
 20
68.534400000000005
 30
0.0
 11
50.810000000000002
 21
100.583
 31
0.0
  0
ARC
  5
158
  8
0
 62
     7
 10
51.966858999999999
 20
69.002945999999994
 30
0.0
 40
1.471074999999999
 50
243.89005800000001
 51
264.17911499999991
  0
ARC
  5
159
  8
0
 62
     7
 10
51.769120000000001
 20
68.504026999999994
 30
0.0
 40
0.9369879999999998
 50
194.32301599999991
 51
241.32025899999999
  0
ARC
  5
15A
  8
0
 62
     7
 10
52.368845
 20
68.703259000000003
 30
0.0
 40
1.5679959999999991
 50
186.18199000000001
 51
195.955645
  0
LINE
  5
15B
  8
0
 62
     7
 10
83.915499999999994
 20
67.539500000000004
 30
0.0
 11
51.817700000000002
 21
67.539500000000004
 31
0.0
  0
ARC
  5
15C
  8
0
 62
     7
 10
83.470354000000015
 20
68.698166000000001
 30
0.0
 40
1.460993
 50
333.20273300000002
 51
353.56431499999991
  0
ARC
  5
15D
  8
0
 62
     7
 10
83.957233999999985
 20
68.499518000000009
 30
0.0
 40
0.9377929999999999
 50
283.66188899999997
 51
330.62433900000002
  0
ARC
  5
15E
  8
0
 62
     7
 10
83.760018000000002
 20
69.112502000000006
 30
0.0
 40
1.580708
 50
275.64406200000002
 51
285.36047200000002
  0
LINE
  5
15F
  8
0
 62
     7
 10
84.9221
 20
81.582400000000007
 30
0.0
 11
84.9221
 21
68.534400000000005
 31
0.0
  0
LINE
  5
160
  8
0
 62
     7
 10
84.872500000000016
 20
66.595500000000001
 30
0.0
 11
49.863199999999999
 21
66.595500000000001
 31
0.0
  0
ARC
  5
161
  8
0
 62
     7
 10
84.415513999999988
 20
67.732934
 30
0.0
 40
1.460313
 50
333.96336400000001
 51
354.40046599999999
  0
ARC
  5
162
  8
0
 62
     7
 10
84.929008999999994
 20
67.529232999999991
 30
0.0
 40
0.910504
 50
283.93032799999992
 51
331.29628300000002
  0
ARC
  5
163
  8
0
 62
     7
 10
84.736778999999999
 20
68.128523999999999
 30
0.0
 40
1.5390280000000001
 50
275.06043399999987
 51
285.50536299999999
  0
LINE
  5
164
  8
0
 62
     7
 10
85.868899999999996
 20
81.582400000000007
 30
0.0
 11
85.868899999999996
 21
67.590400000000002
 31
0.0
  0
LINE
  5
165
  8
0
 62
     7
 10
85.072299999999984
 20
68.384900000000002
 30
0.0
 11
85.072299999999984
 21
81.582400000000007
 31
0.0
  0
ARC
  5
166
  8
0
 62
     7
 10
83.941907999999998
 20
68.841975000000005
 30
0.0
 40
1.456470999999999
 50
274.80709000000002
 51
295.40902399999999
  0
ARC
  5
167
  8
0
 62
     7
 10
84.137252000000004
 20
68.329334000000003
 30
0.0
 40
0.910641
 50
298.1479359999999
 51
345.84681
  0
ARC
  5
168
  8
0
 62
     7
 10
83.523690000000016
 20
68.530886999999993
 30
0.0
 40
1.555525
 50
344.17398500000002
 51
354.614417
  0
LINE
  5
169
  8
0
 62
     7
 10
51.668500000000002
 20
67.390600000000006
 30
0.0
 11
84.063999999999993
 21
67.390600000000006
 31
0.0
  0
ARC
  5
16A
  8
0
 62
     7
 10
52.108414000000003
 20
68.525672999999998
 30
0.0
 40
1.4547920000000001
 50
185.55340000000001
 51
206.1989669999999
  0
ARC
  5
16B
  8
0
 62
     7
 10
51.598453999999997
 20
68.323115999999999
 30
0.0
 40
0.9088319999999999
 50
208.93569600000001
 51
256.71464800000001
  0
ARC
  5
16C
  8
0
 62
     7
 10
51.791936
 20
68.942723000000001
 30
0.0
 40
1.5569969999999991
 50
255.024687
 51
265.45259399999992
  0
LINE
  5
16D
  8
0
 62
     7
 10
50.660400000000003
 20
100.583
 30
0.0
 11
50.660400000000003
 21
68.384900000000002
 31
0.0
  0
ARC
  5
16E
  8
0
 62
     7
 10
50.310303000000012
 20
67.703524000000002
 30
0.0
 40
1.4460869999999999
 50
184.48495500000001
 51
204.77048500000001
  0
ARC
  5
16F
  8
0
 62
     7
 10
49.783110999999991
 20
67.506169
 30
0.0
 40
0.885693
 50
207.468266
 51
256.19730199999992
  0
ARC
  5
170
  8
0
 62
     7
 10
49.977466999999997
 20
68.119253
 30
0.0
 40
1.5280329999999991
 50
254.60446400000001
 51
265.71325200000001
  0
LINE
  5
171
  8
0
 62
     7
 10
149.01599999999991
 20
95.953400000000002
 30
0.0
 11
149.01599999999991
 21
59.819299999999998
 31
0.0
  0
LINE
  5
172
  8
0
 62
     7
 10
131.01599999999991
 20
65.886799999999994
 30
0.0
 11
131.01599999999991
 21
59.819299999999998
 31
0.0
  0
LINE
  5
173
  8
0
 62
     7
 10
85.868899999999996
 20
68.397300000000001
 30
0.0
 11
85.868899999999996
 21
49.918399999999991
 31
0.0
  0
LINE
  5
174
  8
0
 62
     7
 10
46.013500000000001
 20
145.33699999999999
 30
0.0
 11
45.420900000000003
 21
147.54900000000001
 31
0.0
  0
LINE
  5
175
  8
0
 62
     7
 10
45.420900000000003
 20
147.54900000000001
 30
0.0
 11
44.828000000000003
 21
145.33699999999999
 31
0.0
  0
LINE
  5
176
  8
0
 62
     7
 10
44.828000000000003
 20
145.33699999999999
 30
0.0
 11
46.013500000000001
 21
145.33699999999999
 31
0.0
  0
LINE
  5
177
  8
0
 62
     7
 10
46.013500000000001
 20
185.33799999999991
 30
0.0
 11
45.420900000000003
 21
187.54900000000001
 31
0.0
  0
LINE
  5
178
  8
0
 62
     7
 10
45.420900000000003
 20
187.54900000000001
 30
0.0
 11
44.828000000000003
 21
185.33799999999991
 31
0.0
  0
LINE
  5
179
  8
0
 62
     7
 10
44.828000000000003
 20
185.33799999999991
 30
0.0
 11
46.013500000000001
 21
185.33799999999991
 31
0.0
  0
LINE
  5
17A
  8
0
 62
     7
 10
46.013500000000001
 20
215.83799999999999
 30
0.0
 11
45.420900000000003
 21
218.04900000000001
 31
0.0
  0
LINE
  5
17B
  8
0
 62
     7
 10
45.420900000000003
 20
218.04900000000001
 30
0.0
 11
44.828000000000003
 21
215.83799999999999
 31
0.0
  0
LINE
  5
17C
  8
0
 62
     7
 10
44.828000000000003
 20
215.83799999999999
 30
0.0
 11
46.013500000000001
 21
215.83799999999999
 31
0.0
  0
LINE
  5
17D
  8
0
 62
     7
 10
44.802199999999999
 20
229.87
 30
0.0
 11
45.39439999999999
 21
227.65799999999999
 31
0.0
  0
LINE
  5
17E
  8
0
 62
     7
 10
45.39439999999999
 20
227.65799999999999
 30
0.0
 11
45.987299999999991
 21
229.87
 31
0.0
  0
LINE
  5
17F
  8
0
 62
     7
 10
45.987299999999991
 20
229.87
 30
0.0
 11
44.802199999999999
 21
229.87
 31
0.0
  0
LINE
  5
180
  8
0
 62
     7
 10
44.828400000000002
 20
189.761
 30
0.0
 11
45.420900000000003
 21
187.54900000000001
 31
0.0
  0
LINE
  5
181
  8
0
 62
     7
 10
45.420900000000003
 20
187.54900000000001
 30
0.0
 11
46.013500000000001
 21
189.761
 31
0.0
  0
LINE
  5
182
  8
0
 62
     7
 10
46.013500000000001
 20
189.761
 30
0.0
 11
44.828400000000002
 21
189.761
 31
0.0
  0
LINE
  5
183
  8
0
 62
     7
 10
44.828400000000002
 20
159.261
 30
0.0
 11
45.420900000000003
 21
157.04900000000001
 31
0.0
  0
LINE
  5
184
  8
0
 62
     7
 10
45.420900000000003
 20
157.04900000000001
 30
0.0
 11
46.013500000000001
 21
159.261
 31
0.0
  0
LINE
  5
185
  8
0
 62
     7
 10
46.013500000000001
 20
159.261
 30
0.0
 11
44.828400000000002
 21
159.261
 31
0.0
  0
LINE
  5
186
  8
0
 62
     7
 10
45.420900000000003
 20
231.42099999999999
 30
0.0
 11
45.420900000000003
 21
144.10199999999989
 31
0.0
  0
LINE
  5
187
  8
0
 62
     7
 10
90.724199999999996
 20
215.839
 30
0.0
 11
90.131699999999995
 21
218.0509999999999
 31
0.0
  0
LINE
  5
188
  8
0
 62
     7
 10
90.131699999999995
 20
218.0509999999999
 30
0.0
 11
89.539100000000005
 21
215.839
 31
0.0
  0
LINE
  5
189
  8
0
 62
     7
 10
89.539100000000005
 20
215.839
 30
0.0
 11
90.724199999999996
 21
215.839
 31
0.0
  0
LINE
  5
18A
  8
0
 62
     7
 10
89.553600000000003
 20
159.25999999999999
 30
0.0
 11
90.146100000000004
 21
157.048
 31
0.0
  0
LINE
  5
18B
  8
0
 62
     7
 10
90.146100000000004
 20
157.048
 30
0.0
 11
90.738699999999994
 21
159.25999999999999
 31
0.0
  0
LINE
  5
18C
  8
0
 62
     7
 10
90.738699999999994
 20
159.25999999999999
 30
0.0
 11
89.553600000000003
 21
159.25999999999999
 31
0.0
  0
LINE
  5
18D
  8
0
 62
     7
 10
90.139300000000006
 20
218.04900000000001
 30
0.0
 11
90.139300000000006
 21
157.04900000000001
 31
0.0
  0
LINE
  5
18E
  8
0
 62
     7
 10
156.45400000000001
 20
202.44900000000001
 30
0.0
 11
155.8609999999999
 21
204.66099999999989
 31
0.0
  0
LINE
  5
18F
  8
0
 62
     7
 10
155.8609999999999
 20
204.66099999999989
 30
0.0
 11
155.26900000000001
 21
202.44900000000001
 31
0.0
  0
LINE
  5
190
  8
0
 62
     7
 10
155.26900000000001
 20
202.44900000000001
 30
0.0
 11
156.45400000000001
 21
202.44900000000001
 31
0.0
  0
LINE
  5
191
  8
0
 62
     7
 10
155.2829999999999
 20
195.36999999999989
 30
0.0
 11
155.876
 21
193.1579999999999
 31
0.0
  0
LINE
  5
192
  8
0
 62
     7
 10
155.876
 20
193.1579999999999
 30
0.0
 11
156.4679999999999
 21
195.36999999999989
 31
0.0
  0
LINE
  5
193
  8
0
 62
     7
 10
156.4679999999999
 20
195.36999999999989
 30
0.0
 11
155.2829999999999
 21
195.36999999999989
 31
0.0
  0
LINE
  5
194
  8
0
 62
     7
 10
155.86799999999999
 20
204.66
 30
0.0
 11
155.86799999999999
 21
193.15999999999991
 31
0.0
  0
LINE
  5
195
  8
0
 62
     7
 10
144.01599999999991
 20
193.13999999999999
 30
0.0
 11
144.01599999999991
 21
190.6459999999999
 31
0.0
  0
LINE
  5
196
  8
0
 62
     7
 10
94.571899999999999
 20
64.376800000000003
 30
0.0
 11
93.979399999999998
 21
66.5886
 31
0.0
  0
LINE
  5
197
  8
0
 62
     7
 10
93.979399999999998
 20
66.5886
 30
0.0
 11
93.386799999999994
 21
64.376800000000003
 31
0.0
  0
LINE
  5
198
  8
0
 62
     7
 10
93.386799999999994
 20
64.376800000000003
 30
0.0
 11
94.571899999999999
 21
64.376800000000003
 31
0.0
  0
LINE
  5
199
  8
0
 62
     7
 10
94.571899999999999
 20
129.88399999999999
 30
0.0
 11
93.979399999999998
 21
132.096
 31
0.0
  0
LINE
  5
19A
  8
0
 62
     7
 10
93.979399999999998
 20
132.096
 30
0.0
 11
93.386799999999994
 21
129.88399999999999
 31
0.0
  0
LINE
  5
19B
  8
0
 62
     7
 10
93.386799999999994
 20
129.88399999999999
 30
0.0
 11
94.571899999999999
 21
129.88399999999999
 31
0.0
  0
LINE
  5
19C
  8
0
 62
     7
 10
93.386799999999994
 20
136.80799999999991
 30
0.0
 11
93.979399999999998
 21
134.596
 31
0.0
  0
LINE
  5
19D
  8
0
 62
     7
 10
93.979399999999998
 20
134.596
 30
0.0
 11
94.571899999999999
 21
136.80799999999991
 31
0.0
  0
LINE
  5
19E
  8
0
 62
     7
 10
94.571899999999999
 20
136.80799999999991
 30
0.0
 11
93.386799999999994
 21
136.80799999999991
 31
0.0
  0
LINE
  5
19F
  8
0
 62
     7
 10
93.386799999999994
 20
71.307000000000002
 30
0.0
 11
93.979399999999998
 21
69.095299999999995
 31
0.0
  0
LINE
  5
1A0
  8
0
 62
     7
 10
93.979399999999998
 20
69.095299999999995
 30
0.0
 11
94.571899999999999
 21
71.307000000000002
 31
0.0
  0
LINE
  5
1A1
  8
0
 62
     7
 10
94.571899999999999
 20
71.307000000000002
 30
0.0
 11
93.386799999999994
 21
71.307000000000002
 31
0.0
  0
LINE
  5
1A2
  8
0
 62
     7
 10
93.979399999999998
 20
140.57699999999991
 30
0.0
 11
93.979399999999998
 21
61.098500000000001
 31
0.0
  0
LINE
  5
1A3
  8
0
 62
     7
 10
101.13799999999991
 20
132.386
 30
0.0
 11
100.54600000000001
 21
134.59700000000001
 31
0.0
  0
LINE
  5
1A4
  8
0
 62
     7
 10
100.54600000000001
 20
134.59700000000001
 30
0.0
 11
99.953199999999995
 21
132.386
 31
0.0
  0
LINE
  5
1A5
  8
0
 62
     7
 10
99.953199999999995
 20
132.386
 30
0.0
 11
101.13799999999991
 21
132.386
 31
0.0
  0
LINE
  5
1A6
  8
0
 62
     7
 10
99.967699999999994
 20
68.805899999999994
 30
0.0
 11
100.56
 21
66.594099999999997
 31
0.0
  0
LINE
  5
1A7
  8
0
 62
     7
 10
100.56
 20
66.594099999999997
 30
0.0
 11
101.15300000000001
 21
68.805899999999994
 31
0.0
  0
LINE
  5
1A8
  8
0
 62
     7
 10
101.15300000000001
 20
68.805899999999994
 30
0.0
 11
99.967699999999994
 21
68.805899999999994
 31
0.0
  0
LINE
  5
1A9
  8
0
 62
     7
 10
100.553
 20
134.596
 30
0.0
 11
100.553
 21
66.595500000000001
 31
0.0
  0
LINE
  5
1AA
  8
0
 62
     7
 10
83.368700000000004
 20
68.397300000000001
 30
0.0
 11
83.368700000000004
 21
55.755400000000002
 31
0.0
  0
LINE
  5
1AB
  8
0
 62
     7
 10
72.278599999999983
 20
94.462400000000017
 30
0.0
 11
66.501800000000003
 21
94.462400000000017
 31
0.0
  0
LINE
  5
1AC
  8
0
 62
     7
 10
60.3688
 20
94.947100000000006
 30
0.0
 11
60.3688
 21
85.518799999999999
 31
0.0
  0
LINE
  5
1AD
  8
0
 62
     7
 10
52.368499999999997
 20
68.397300000000001
 30
0.0
 11
52.368499999999997
 21
55.755400000000002
 31
0.0
  0
LINE
  5
1AE
  8
0
 62
     7
 10
48.868600000000001
 20
66.031199999999998
 30
0.0
 11
48.868600000000001
 21
49.918399999999991
 31
0.0
  0
LINE
  5
1AF
  8
0
 62
     7
 10
48.868600000000001
 20
81.582400000000007
 30
0.0
 11
48.868600000000001
 21
67.590400000000002
 31
0.0
  0
ARC
  5
1B0
  8
0
 62
     7
 10
51.317289999999993
 20
133.46575100000001
 30
0.0
 40
1.453783
 50
154.49632700000001
 51
175.12702899999991
  0
ARC
  5
1B1
  8
0
 62
     7
 10
50.807462000000001
 20
133.66072199999991
 30
0.0
 40
0.910727
 50
104.06519
 51
151.7558689999999
  0
ARC
  5
1B2
  8
0
 62
     7
 10
51.008749000000002
 20
133.0460709999999
 30
0.0
 40
1.5565450000000001
 50
95.321043999999986
 51
105.75411200000001
  0
LINE
  5
1B3
  8
0
 62
     7
 10
49.8688
 20
70.095699999999994
 30
0.0
 11
49.8688
 21
133.589
 31
0.0
  0
LINE
  5
1B4
  8
0
 62
     7
 10
50.810000000000002
 20
132.64500000000001
 30
0.0
 11
50.810000000000002
 21
100.583
 31
0.0
  0
ARC
  5
1B5
  8
0
 62
     7
 10
51.937668999999993
 20
132.19223099999991
 30
0.0
 40
1.4515929999999999
 50
94.742119999999986
 51
115.410009
  0
ARC
  5
1B6
  8
0
 62
     7
 10
51.744031999999997
 20
132.7014189999999
 30
0.0
 40
0.909619
 50
118.156362
 51
165.909966
  0
ARC
  5
1B7
  8
0
 62
     7
 10
52.357337999999999
 20
132.5004439999999
 30
0.0
 40
1.5540700000000001
 50
164.22772199999989
 51
174.67778000000001
  0
LINE
  5
1B8
  8
0
 62
     7
 10
83.915499999999994
 20
133.63900000000001
 30
0.0
 11
51.817700000000002
 21
133.63900000000001
 31
0.0
  0
ARC
  5
1B9
  8
0
 62
     7
 10
83.473985999999996
 20
132.5036739999999
 30
0.0
 40
1.454995
 50
5.557942999999999
 51
26.193852
  0
ARC
  5
1BA
  8
0
 62
     7
 10
83.983626999999984
 20
132.706523
 30
0.0
 40
0.909166
 50
28.901126000000001
 51
76.634321
  0
ARC
  5
1BB
  8
0
 62
     7
 10
83.794596999999996
 20
132.1005649999999
 30
0.0
 40
1.543032
 50
75.006473
 51
85.506857999999994
  0
LINE
  5
1BC
  8
0
 62
     7
 10
84.9221
 20
119.596
 30
0.0
 11
84.9221
 21
132.64500000000001
 31
0.0
  0
LINE
  5
1BD
  8
0
 62
     7
 10
50.660400000000003
 20
132.7939999999999
 30
0.0
 11
50.660400000000003
 21
100.583
 31
0.0
  0
ARC
  5
1BE
  8
0
 62
     7
 10
51.788575000000002
 20
132.33620500000001
 30
0.0
 40
1.457125
 50
94.727208999999974
 51
115.34693300000001
  0
ARC
  5
1BF
  8
0
 62
     7
 10
51.592336000000003
 20
132.85297
 30
0.0
 40
0.90716
 50
118.119387
 51
165.98787400000001
  0
ARC
  5
1C0
  8
0
 62
     7
 10
52.215045000000003
 20
132.64947100000001
 30
0.0
 40
1.5613099999999991
 50
164.275001
 51
174.68443300000001
  0
LINE
  5
1C1
  8
0
 62
     7
 10
84.063999999999993
 20
133.7879999999999
 30
0.0
 11
51.668500000000002
 21
133.7879999999999
 31
0.0
  0
ARC
  5
1C2
  8
0
 62
     7
 10
83.622450999999998
 20
132.65137799999991
 30
0.0
 40
1.456906
 50
5.622336999999999
 51
26.236433999999999
  0
ARC
  5
1C3
  8
0
 62
     7
 10
84.132768999999996
 20
132.85493399999999
 30
0.0
 40
0.910191
 50
28.945132000000001
 51
76.664317000000011
  0
ARC
  5
1C4
  8
0
 62
     7
 10
83.942990000000009
 20
132.2459519999999
 30
0.0
 40
1.547158
 50
75.027383999999998
 51
85.515476000000007
  0
LINE
  5
1C5
  8
0
 62
     7
 10
85.072299999999984
 20
119.596
 30
0.0
 11
85.072299999999984
 21
132.7939999999999
 31
0.0
  0
LINE
  5
1C6
  8
0
 62
     7
 10
84.872500000000016
 20
134.596
 30
0.0
 11
49.863199999999999
 21
134.596
 31
0.0
  0
ARC
  5
1C7
  8
0
 62
     7
 10
84.402889999999985
 20
133.43985000000001
 30
0.0
 40
1.4735609999999999
 50
5.8188529999999998
 51
26.079617999999989
  0
ARC
  5
1C8
  8
0
 62
     7
 10
84.906875999999997
 20
133.63950399999999
 30
0.0
 40
0.9340729999999998
 50
28.671267
 51
75.832920999999999
  0
ARC
  5
1C9
  8
0
 62
     7
 10
84.707903000000002
 20
133.03596899999991
 30
0.0
 40
1.5686020000000001
 50
74.181475000000006
 51
83.975595999999996
  0
LINE
  5
1CA
  8
0
 62
     7
 10
85.868899999999996
 20
119.596
 30
0.0
 11
85.868899999999996
 21
133.589
 31
0.0
  0
LINE
  5
1CB
  8
0
 62
     7
 10
136.01699999999991
 20
67.323400000000007
 30
0.0
 11
136.01699999999991
 21
133.73400000000001
 31
0.0
  0
LINE
  5
1CC
  8
0
 62
     7
 10
134.01599999999999
 20
66.586899999999986
 30
0.0
 11
136.01699999999991
 21
67.323400000000007
 31
0.0
  0
LINE
  5
1CD
  8
0
 62
     7
 10
143.48400000000001
 20
128.24600000000001
 30
0.0
 11
144.816
 21
128.06200000000001
 31
0.0
  0
LINE
  5
1CE
  8
0
 62
     7
 10
144.816
 20
128.06200000000001
 30
0.0
 11
144.816
 21
125.91200000000001
 31
0.0
  0
LINE
  5
1CF
  8
0
 62
     7
 10
144.01599999999991
 20
128.17199999999991
 30
0.0
 11
144.01599999999991
 21
100.5929999999999
 31
0.0
  0
LINE
  5
1D0
  8
0
 62
     7
 10
144.816
 20
125.91200000000001
 30
0.0
 11
144.816
 21
111.575
 31
0.0
  0
LINE
  5
1D1
  8
0
 62
     7
 10
144.30199999999999
 20
110.619
 30
0.0
 11
144.816
 21
111.575
 31
0.0
  0
LINE
  5
1D2
  8
0
 62
     7
 10
136.01699999999991
 20
132.3239999999999
 30
0.0
 11
136.01699999999991
 21
134.08999999999989
 31
0.0
  0
LINE
  5
1D3
  8
0
 62
     7
 10
136.01699999999991
 20
134.08999999999989
 30
0.0
 11
134.01599999999999
 21
134.58699999999999
 31
0.0
  0
LINE
  5
1D4
  8
0
 62
     7
 10
84.163499999999985
 20
69.291600000000003
 30
0.0
 11
84.163499999999985
 21
81.582400000000007
 31
0.0
  0
ARC
  5
1D5
  8
0
 62
     7
 10
83.026347999999984
 20
69.741111000000004
 30
0.0
 40
1.4623079999999991
 50
275.55445500000002
 51
296.10162300000002
  0
ARC
  5
1D6
  8
0
 62
     7
 10
83.231731000000011
 20
69.223894000000001
 30
0.0
 40
0.908501
 50
298.82202699999988
 51
346.586569
  0
ARC
  5
1D7
  8
0
 62
     7
 10
82.621184
 20
69.414488000000006
 30
0.0
 40
1.547226
 50
344.96577400000001
 51
355.44612499999999
  0
LINE
  5
1D8
  8
0
 62
     7
 10
52.5642
 20
68.285700000000006
 30
0.0
 11
83.167900000000003
 21
68.285700000000006
 31
0.0
  0
ARC
  5
1D9
  8
0
 62
     7
 10
53.017136999999998
 20
69.414593000000011
 30
0.0
 40
1.453762999999999
 50
184.851507
 51
205.472992
  0
ARC
  5
1DA
  8
0
 62
     7
 10
52.505148999999989
 20
69.21879100000001
 30
0.0
 40
0.908374
 50
208.21341200000001
 51
256.00555299999991
  0
ARC
  5
1DB
  8
0
 62
     7
 10
52.708984999999998
 20
69.843176999999997
 30
0.0
 40
1.564220999999999
 50
254.2913779999999
 51
264.68987399999997
  0
LINE
  5
1DC
  8
0
 62
     7
 10
51.568600000000004
 20
100.583
 30
0.0
 11
51.568600000000004
 21
69.291600000000003
 31
0.0
  0
ARC
  5
1DD
  8
0
 62
     7
 10
82.257297999999992
 20
70.544229000000001
 30
0.0
 40
1.453495999999999
 50
274.52874400000002
 51
294.71714700000001
  0
ARC
  5
1DE
  8
0
 62
     7
 10
82.456648000000001
 20
70.011355000000009
 30
0.0
 40
0.887068
 50
297.41346800000002
 51
346.084045
  0
ARC
  5
1DF
  8
0
 62
     7
 10
81.845278000000008
 20
70.206130000000002
 30
0.0
 40
1.527914999999999
 50
344.50792899999988
 51
355.62341400000003
  0
ARC
  5
1E0
  8
0
 62
     7
 10
83.175881000000004
 20
69.592130000000012
 30
0.0
 40
1.462154999999999
 50
275.55443100000002
 51
296.10293699999988
  0
ARC
  5
1E1
  8
0
 62
     7
 10
83.381708999999987
 20
69.074122000000003
 30
0.0
 40
0.9074429999999999
 50
298.82412299999987
 51
346.6318490000001
  0
ARC
  5
1E2
  8
0
 62
     7
 10
82.773499000000001
 20
69.263530000000003
 30
0.0
 40
1.5435840000000001
 50
345.011281
 51
355.5146299999999
  0
LINE
  5
1E3
  8
0
 62
     7
 10
52.414700000000003
 20
68.136799999999994
 30
0.0
 11
83.317400000000006
 21
68.136799999999994
 31
0.0
  0
ARC
  5
1E4
  8
0
 62
     7
 10
52.862569999999991
 20
69.291721999999993
 30
0.0
 40
1.464189
 50
185.83707799999999
 51
206.35479699999991
  0
ARC
  5
1E5
  8
0
 62
     7
 10
52.367115000000013
 20
69.093529000000004
 30
0.0
 40
0.9332080000000002
 50
208.95600400000001
 51
255.71799799999991
  0
ARC
  5
1E6
  8
0
 62
     7
 10
52.564158999999997
 20
69.694029999999984
 30
0.0
 40
1.564346
 50
254.14973299999991
 51
264.51768399999992
  0
LINE
  5
1E7
  8
0
 62
     7
 10
51.405999999999999
 20
100.583
 30
0.0
 11
51.405999999999999
 21
69.142799999999994
 31
0.0
  0
LINE
  5
1E8
  8
0
 62
     7
 10
51.405999999999999
 20
132.03499999999991
 30
0.0
 11
51.405999999999999
 21
100.583
 31
0.0
  0
ARC
  5
1E9
  8
0
 62
     7
 10
52.563278000000011
 20
131.57719900000001
 30
0.0
 40
1.4731620000000001
 50
95.788360999999981
 51
116.19720700000001
  0
ARC
  5
1EA
  8
0
 62
     7
 10
52.362796000000003
 20
132.081445
 30
0.0
 40
0.9331850000000002
 50
118.820859
 51
165.60204499999989
  0
ARC
  5
1EB
  8
0
 62
     7
 10
52.965139000000001
 20
131.88256699999999
 30
0.0
 40
1.5666479999999989
 50
164.034524
 51
174.398067
  0
LINE
  5
1EC
  8
0
 62
     7
 10
83.317400000000006
 20
133.04300000000001
 30
0.0
 11
52.414700000000003
 21
133.04300000000001
 31
0.0
  0
ARC
  5
1ED
  8
0
 62
     7
 10
82.864886999999996
 20
131.91546899999989
 30
0.0
 40
1.4524360000000001
 50
4.7403000000000004
 51
25.404412000000001
  0
ARC
  5
1EE
  8
0
 62
     7
 10
83.375803000000005
 20
132.1097879999999
 30
0.0
 40
0.90861
 50
28.158409999999989
 51
75.978048999999984
  0
ARC
  5
1EF
  8
0
 62
     7
 10
83.174913999999987
 20
131.4938689999999
 30
0.0
 40
1.55552
 50
74.295583999999991
 51
84.744124999999997
  0
LINE
  5
1F0
  8
0
 62
     7
 10
84.312399999999997
 20
119.596
 30
0.0
 11
84.312399999999997
 21
132.03499999999991
 31
0.0
  0
LINE
  5
1F1
  8
0
 62
     7
 10
51.568600000000004
 20
131.88699999999989
 30
0.0
 11
51.568600000000004
 21
100.583
 31
0.0
  0
ARC
  5
1F2
  8
0
 62
     7
 10
52.704370999999988
 20
131.44081899999989
 30
0.0
 40
1.4592579999999991
 50
95.511267000000004
 51
116.09315700000001
  0
ARC
  5
1F3
  8
0
 62
     7
 10
52.501125999999999
 20
131.955299
 30
0.0
 40
0.9088739999999999
 50
118.85252199999989
 51
166.627285
  0
ARC
  5
1F4
  8
0
 62
     7
 10
53.119708000000003
 20
131.7615209999999
 30
0.0
 40
1.5561659999999991
 50
164.95344299999991
 51
175.3872659999999
  0
LINE
  5
1F5
  8
0
 62
     7
 10
83.167900000000003
 20
132.89299999999989
 30
0.0
 11
52.5642
 21
132.89299999999989
 31
0.0
  0
ARC
  5
1F6
  8
0
 62
     7
 10
82.714969999999994
 20
131.76490999999999
 30
0.0
 40
1.453663999999999
 50
4.8047040000000001
 51
25.449857000000002
  0
ARC
  5
1F7
  8
0
 62
     7
 10
83.226669999999999
 20
131.95999
 30
0.0
 40
0.9088409999999999
 50
28.208310000000001
 51
76.006373999999994
  0
ARC
  5
1F8
  8
0
 62
     7
 10
83.025105000000025
 20
131.3411669999999
 30
0.0
 40
1.558718
 50
74.317319000000012
 51
84.744198999999995
  0
LINE
  5
1F9
  8
0
 62
     7
 10
84.163499999999985
 20
119.596
 30
0.0
 11
84.163499999999985
 21
131.88699999999989
 31
0.0
  0
LINE
  5
1FA
  8
0
 62
     7
 10
53.364199999999997
 20
69.095299999999995
 30
0.0
 11
82.372100000000003
 21
69.095299999999995
 31
0.0
  0
ARC
  5
1FB
  8
0
 62
     7
 10
53.813296999999999
 20
70.203951000000004
 30
0.0
 40
1.449282
 50
184.528131
 51
204.76954599999991
  0
ARC
  5
1FC
  8
0
 62
     7
 10
53.282290000000003
 20
70.005033999999995
 30
0.0
 40
0.884778
 50
207.48119399999999
 51
256.27136100000001
  0
ARC
  5
1FD
  8
0
 62
     7
 10
53.476483999999999
 20
70.620000000000005
 30
0.0
 40
1.5288580000000001
 50
254.67095
 51
265.78740099999999
  0
LINE
  5
1FE
  8
0
 62
     7
 10
52.368499999999997
 20
131.102
 30
0.0
 11
52.368499999999997
 21
70.089500000000001
 31
0.0
  0
ARC
  5
1FF
  8
0
 62
     7
 10
53.480808999999986
 20
130.642662
 30
0.0
 40
1.458140999999999
 50
94.587773999999982
 51
114.73169900000001
  0
ARC
  5
200
  8
0
 62
     7
 10
53.278581999999993
 20
131.181082
 30
0.0
 40
0.8854790000000001
 50
117.42320599999999
 51
166.14716000000001
  0
ARC
  5
201
  8
0
 62
     7
 10
53.883343999999987
 20
130.99008299999991
 30
0.0
 40
1.5189250000000001
 50
164.61376200000001
 51
175.7793979999999
  0
LINE
  5
202
  8
0
 62
     7
 10
82.372100000000003
 20
132.096
 30
0.0
 11
53.364199999999997
 21
132.096
 31
0.0
  0
ARC
  5
203
  8
0
 62
     7
 10
81.922056999999995
 20
130.9833449999999
 30
0.0
 40
1.451527
 50
4.6837299999999997
 51
24.887803000000002
  0
ARC
  5
204
  8
0
 62
     7
 10
82.451568000000009
 20
131.1832269999999
 30
0.0
 40
0.888043
 50
27.567717999999999
 51
76.183402000000001
  0
ARC
  5
205
  8
0
 62
     7
 10
82.257997000000003
 20
130.57216099999999
 30
0.0
 40
1.5282329999999991
 50
74.60713100000001
 51
85.719453000000016
  0
LINE
  5
206
  8
0
 62
     7
 10
83.368700000000004
 20
70.089500000000001
 30
0.0
 11
83.368700000000004
 21
131.102
 31
0.0
  0
ARC
  5
207
  8
0
 62
     7
 10
55.964618999999992
 20
72.797691999999998
 30
0.0
 40
1.9687419999999991
 50
186.19689099999991
 51
214.05833899999999
  0
ARC
  5
208
  8
0
 62
     7
 10
55.489664000000012
 20
72.572393000000005
 30
0.0
 40
1.451252
 50
217.192241
 51
254.05629400000001
  0
ARC
  5
209
  8
0
 62
     7
 10
55.704723999999992
 20
73.185963999999998
 30
0.0
 40
2.1006429999999989
 50
253.01313200000001
 51
264.75112300000001
  0
LINE
  5
20A
  8
0
 62
     7
 10
54.00739999999999
 20
128.59499999999991
 30
0.0
 11
54.00739999999999
 21
72.5852
 31
0.0
  0
ARC
  5
20B
  8
0
 62
     7
 10
55.732362999999999
 20
128.13519700000001
 30
0.0
 40
1.975720999999999
 50
96.387706999999978
 51
124.65777199999989
  0
ARC
  5
20C
  8
0
 62
     7
 10
55.520543999999987
 20
128.58248499999999
 30
0.0
 40
1.489498999999999
 50
127.7414389999999
 51
164.56345300000001
  0
ARC
  5
20D
  8
0
 62
     7
 10
56.138764999999992
 20
128.3654149999999
 30
0.0
 40
2.1436609999999998
 50
163.368967
 51
173.86490599999999
  0
LINE
  5
20E
  8
0
 62
     7
 10
79.871600000000001
 20
130.0989999999999
 30
0.0
 11
55.512599999999999
 21
130.0989999999999
 31
0.0
  0
ARC
  5
20F
  8
0
 62
     7
 10
79.409518000000006
 20
128.40072499999991
 30
0.0
 40
1.9640889999999991
 50
5.6623720000000004
 51
33.056238
  0
ARC
  5
210
  8
0
 62
     7
 10
79.880844999999994
 20
128.616525
 30
0.0
 40
1.4533430000000001
 50
36.06251799999999
 51
72.825580000000002
  0
ARC
  5
211
  8
0
 62
     7
 10
79.654415999999998
 20
128.0077639999999
 30
0.0
 40
2.102136999999999
 50
71.828608000000003
 51
84.069896000000014
  0
LINE
  5
212
  8
0
 62
     7
 10
81.364000000000004
 20
72.5852
 30
0.0
 11
81.364000000000004
 21
128.59499999999991
 31
0.0
  0
ARC
  5
213
  8
0
 62
     7
 10
79.685518999999999
 20
73.039956000000004
 30
0.0
 40
1.9547039999999991
 50
275.46259199999992
 51
302.97283099999993
  0
ARC
  5
214
  8
0
 62
     7
 10
79.909388000000007
 20
72.551082999999991
 30
0.0
 40
1.424887
 50
306.12109600000002
 51
343.475526
  0
ARC
  5
215
  8
0
 62
     7
 10
79.287150999999994
 20
72.775363999999996
 30
0.0
 40
2.085561999999999
 50
342.43046499999991
 51
354.76775800000001
  0
LINE
  5
216
  8
0
 62
     7
 10
55.512599999999999
 20
71.094099999999997
 30
0.0
 11
79.871600000000001
 21
71.094099999999997
 31
0.0
  0
ARC
  5
217
  8
0
  6
AIGENLINE001
 62
     7
 10
135.248458
 20
100.485069
 30
0.0
 40
1.0391209999999991
 50
92.130477999999997
 51
177.86949300000001
  0
ARC
  5
218
  8
0
  6
AIGENLINE001
 62
     7
 10
135.24880699999991
 20
100.5623189999999
 30
0.0
 40
1.0394699999999999
 50
182.12930099999991
 51
267.85098900000003
  0
ARC
  5
219
  8
0
  6
AIGENLINE001
 62
     7
 10
135.21000000000001
 20
100.5238709999999
 30
0.0
 40
1.000289999999999
 50
269.99015299999991
 51
359.99012299999993
  0
ARC
  5
21A
  8
0
  6
AIGENLINE001
 62
     7
 10
135.171865
 20
100.48501999999991
 30
0.0
 40
1.0391449999999991
 50
2.133124
 51
87.906339000000017
  0
LINE
  5
21B
  8
0
 62
     7
 10
144.405
 20
104.71599999999999
 30
0.0
 11
144.45400000000001
 21
100.604
 31
0.0
  0
LINE
  5
21C
  8
0
 62
     7
 10
144.14400000000001
 20
119.7529999999999
 30
0.0
 11
144.405
 21
104.71599999999999
 31
0.0
  0
LINE
  5
21D
  8
0
 62
     7
 10
143.47200000000001
 20
128.39599999999999
 30
0.0
 11
144.14400000000001
 21
119.7529999999999
 31
0.0
  0
ARC
  5
21E
  8
0
 62
     7
 10
139.891322
 20
127.563755
 30
0.0
 40
3.8430129999999991
 50
47.215819000000003
 51
75.201405000000008
  0
ARC
  5
21F
  8
0
 62
     7
 10
140.11161899999991
 20
127.986987
 30
0.0
 40
3.385098999999999
 50
6.9411369999999986
 51
45.086123000000001
  0
LINE
  5
220
  8
0
 62
     7
 10
136.01699999999991
 20
132.30999999999989
 30
0.0
 11
140.87299999999999
 21
131.27899999999991
 31
0.0
  0
LINE
  5
221
  8
0
  6
AIGENLINE001
 62
     7
 10
145.01599999999991
 20
195.31
 30
0.0
 11
144.00999999999991
 21
196.339
 31
0.0
  0
LINE
  5
222
  8
0
  6
AIGENLINE001
 62
     7
 10
144.00999999999991
 20
196.339
 30
0.0
 11
143.66099999999989
 21
197.99000000000001
 31
0.0
  0
ARC
  5
223
  8
0
  6
AIGENLINE001
 62
     7
 10
141.346147
 20
197.288566
 30
0.0
 40
2.4192230000000001
 50
16.859432999999989
 51
42.027177000000002
  0
ARC
  5
224
  8
0
  6
AIGENLINE001
 62
     7
 10
141.69348400000001
 20
197.48190299999999
 30
0.0
 40
2.033720999999999
 50
44.533116
 51
81.503805
  0
LINE
  5
225
  8
0
  6
AIGENLINE001
 62
     7
 10
141.99399999999989
 20
199.49299999999999
 30
0.0
 11
131.0149999999999
 21
201.16
 31
0.0
  0
LINE
  5
226
  8
0
 62
     7
 10
142.51599999999991
 20
172.16
 30
0.0
 11
144.01599999999991
 21
172.36000000000001
 31
0.0
  0
LINE
  5
227
  8
0
 62
     7
 10
144.01599999999991
 20
172.36000000000001
 30
0.0
 11
144.816
 21
199.16
 31
0.0
  0
LINE
  5
228
  8
0
 62
     7
 10
131.01599999999991
 20
203.62899999999999
 30
0.0
 11
131.5149999999999
 21
203.72799999999989
 31
0.0
  0
LINE
  5
229
  8
0
 62
     7
 10
131.5149999999999
 20
203.72799999999989
 30
0.0
 11
131.5149999999999
 21
204.66
 31
0.0
  0
LINE
  5
22A
  8
0
 62
     7
 10
136.0149999999999
 20
204.36000000000001
 30
0.0
 11
136.0149999999999
 21
199.86699999999999
 31
0.0
  0
LINE
  5
22B
  8
0
  6
AIGENLINE001
 62
     7
 10
143.09200000000001
 20
173.67400000000001
 30
0.0
 11
144.01599999999991
 21
189.94599999999991
 31
0.0
  0
ARC
  5
22C
  8
0
 62
     7
 10
139.91745299999999
 20
196.38901699999991
 30
0.0
 40
8.1931410000000007
 50
8.1895399999999992
 51
26.740037000000001
  0
ARC
  5
22D
  8
0
 62
     7
 10
142.104241
 20
197.31260900000001
 30
0.0
 40
5.8268230000000001
 50
28.304770999999999
 51
78.935241000000019
  0
ARC
  5
22E
  8
0
 62
     7
 10
141.68947
 20
195.6283949999999
 30
0.0
 40
7.5597960000000004
 50
78.299886000000001
 51
83.274632999999994
  0
LINE
  5
22F
  8
0
 62
     7
 10
142.5749999999999
 20
203.13599999999991
 30
0.0
 11
136.0149999999999
 21
203.44499999999999
 31
0.0
  0
ARC
  5
230
  8
0
 62
     7
 10
145.34284600000001
 20
187.61834899999999
 30
0.0
 40
0.976876
 50
101.157439
 51
126.71127199999989
  0
ARC
  5
231
  8
0
 62
     7
 10
145.27285299999991
 20
187.7835639999999
 30
0.0
 40
0.8037229999999999
 50
129.75326100000001
 51
170.292284
  0
LINE
  5
232
  8
0
  6
AIGENLINE001
 62
     7
 10
148.01599999999991
 20
190.01099999999991
 30
0.0
 11
147.202
 21
189.887
 31
0.0
  0
LINE
  5
233
  8
0
 62
     7
 10
148.58899999999991
 20
189.09700000000001
 30
0.0
 11
145.154
 21
188.57699999999991
 31
0.0
  0
LINE
  5
234
  8
0
 62
     7
 10
149.01599999999991
 20
189.59200000000001
 30
0.0
 11
149.01599999999991
 21
196.65999999999991
 31
0.0
  0
LINE
  5
235
  8
0
 62
     7
 10
143.01599999999991
 20
199.16
 30
0.0
 11
144.816
 21
199.16
 31
0.0
  0
LINE
  5
236
  8
0
 62
     7
 10
134.16200000000001
 20
174.01300000000001
 30
0.0
 11
135.87
 21
172.3059999999999
 31
0.0
  0
LINE
  5
237
  8
0
 62
     7
 10
131.01599999999991
 20
204.66
 30
0.0
 11
131.01599999999991
 21
167.66
 31
0.0
  0
LINE
  5
238
  8
0
 62
     7
 10
82.369099999999989
 20
217.05000000000001
 30
0.0
 11
82.369099999999989
 21
158.05000000000001
 31
0.0
  0
LINE
  5
239
  8
0
 62
     7
 10
53.3688
 20
217.05000000000001
 30
0.0
 11
53.3688
 21
158.05000000000001
 31
0.0
  0
LINE
  5
23A
  8
0
 62
     7
 10
134.01599999999999
 20
197.453
 30
0.0
 11
134.01599999999999
 21
174.36699999999999
 31
0.0
  0
LINE
  5
23B
  8
0
  6
AIGENLINE001
 62
     7
 10
148.01599999999991
 20
191.00999999999991
 30
0.0
 11
148.01599999999991
 21
190.01099999999991
 31
0.0
  0
LINE
  5
23C
  8
0
 62
     7
 10
136.01599999999999
 20
171.95299999999989
 30
0.0
 11
136.01599999999999
 21
169.86699999999999
 31
0.0
  0
LINE
  5
23D
  8
0
 62
     7
 10
135.87
 20
169.51299999999989
 30
0.0
 11
134.1629999999999
 21
167.8059999999999
 31
0.0
  0
LINE
  5
23E
  8
0
  6
AIGENLINE001
 62
     7
 10
131.01599999999991
 20
170.16
 30
0.0
 11
141.887
 21
172.28700000000001
 31
0.0
  0
LINE
  5
23F
  8
0
 62
     7
 10
135.97099999999989
 20
169.66
 30
0.0
 11
141.935
 21
170.82699999999991
 31
0.0
  0
LINE
  5
240
  8
0
 62
     7
 10
131.01599999999991
 20
167.66
 30
0.0
 11
133.809
 21
167.66
 31
0.0
  0
LINE
  5
241
  8
0
  6
AIGENLINE001
 62
     7
 10
145.35599999999991
 20
190.21000000000001
 30
0.0
 11
145.61600000000001
 21
190.21000000000001
 31
0.0
  0
LINE
  5
242
  8
0
  6
AIGENLINE001
 62
     7
 10
145.01599999999991
 20
191.00999999999991
 30
0.0
 11
145.61600000000001
 21
191.00999999999991
 31
0.0
  0
LINE
  5
243
  8
0
  6
AIGENLINE001
 62
     7
 10
148.01599999999991
 20
191.00999999999991
 30
0.0
 11
149.01599999999991
 21
191.00999999999991
 31
0.0
  0
LINE
  5
244
  8
0
  6
AIGENLINE002
 62
     7
 10
142.501
 20
193.15999999999991
 30
0.0
 11
149.852
 21
193.15999999999991
 31
0.0
  0
LINE
  5
245
  8
0
 62
     7
 10
134.16200000000001
 20
197.8059999999999
 30
0.0
 11
135.86899999999989
 21
199.51400000000001
 31
0.0
  0
LINE
  5
246
  8
0
 62
     7
 10
142.32299999999989
 20
200.94499999999999
 30
0.0
 11
136.45899999999989
 21
201.61000000000001
 31
0.0
  0
LINE
  5
247
  8
0
 62
     7
 10
133.227
 20
193.02500000000001
 30
0.0
 11
131.0149999999999
 21
192.43299999999991
 31
0.0
  0
LINE
  5
248
  8
0
 62
     7
 10
131.0149999999999
 20
192.43299999999991
 30
0.0
 11
133.227
 21
191.84
 31
0.0
  0
LINE
  5
249
  8
0
 62
     7
 10
133.227
 20
191.84
 30
0.0
 11
133.227
 21
193.02500000000001
 31
0.0
  0
LINE
  5
24A
  8
0
 62
     7
 10
141.80600000000001
 20
191.85400000000001
 30
0.0
 11
144.01799999999989
 21
192.447
 31
0.0
  0
LINE
  5
24B
  8
0
 62
     7
 10
144.01799999999989
 20
192.447
 30
0.0
 11
141.80600000000001
 21
193.03999999999991
 31
0.0
  0
LINE
  5
24C
  8
0
 62
     7
 10
141.80600000000001
 20
193.03999999999991
 30
0.0
 11
141.80600000000001
 21
191.85400000000001
 31
0.0
  0
LINE
  5
24D
  8
0
 62
     7
 10
131.01599999999991
 20
192.44
 30
0.0
 11
144.01599999999991
 21
192.44
 31
0.0
  0
LINE
  5
24E
  8
0
 62
     7
 10
136.77299999999991
 20
204.66
 30
0.0
 11
156.5679999999999
 21
204.66
 31
0.0
  0
LINE
  5
24F
  8
0
 62
     7
 10
150.55199999999999
 20
193.15999999999991
 30
0.0
 11
156.5679999999999
 21
193.15999999999991
 31
0.0
  0
LINE
  5
250
  8
0
 62
     7
 10
131.01599999999991
 20
204.66
 30
0.0
 11
135.71600000000001
 21
204.66
 31
0.0
  0
TEXT
  5
251
  8
_________2
 62
     7
 10
90.092336166666669
 20
13.218199999999991
 30
0.0
 40
3.6545800000000002
  1
1 ： 10
 41
0.5
 72
     1
 11
93.960099999999997
 21
13.218199999999991
 31
0.0
  0
LINE
  5
252
  8
_________2
 62
     7
 10
205.30099999999999
 20
127.41200000000001
 30
0.0
 11
183.55000000000001
 21
127.41200000000001
 31
0.0
  0
LINE
  5
253
  8
_________2
 62
     7
 10
100.2999999999999
 20
-4.0903900000000002
 30
0.0
 11
100.2999999999999
 21
-21.070699999999992
 31
0.0
  0
LINE
  5
254
  8
_________2
 62
     7
 10
100.2999999999999
 20
275.93099999999993
 30
0.0
 11
100.2999999999999
 21
258.911
 31
0.0
  0
LINE
  5
255
  8
_________2
 62
     7
 10
17.049499999999998
 20
127.41200000000001
 30
0.0
 11
-4.70052
 21
127.41200000000001
 31
0.0
  0
LINE
  5
256
  8
_________2
 62
     7
 10
76.741399999999999
 20
29.805099999999999
 30
0.0
 11
74.554699999999997
 21
29.805099999999999
 31
0.0
  0
LINE
  5
257
  8
_________2
 62
     7
 10
77.233999999999995
 20
29.805099999999999
 30
0.0
 11
76.981800000000007
 21
29.805099999999999
 31
0.0
  0
LINE
  5
258
  8
_________2
 62
     7
 10
77.726299999999995
 20
29.805099999999999
 30
0.0
 11
80.651600000000002
 21
29.805099999999999
 31
0.0
  0
LINE
  5
259
  8
_________2
 62
     7
 10
77.233999999999995
 20
29.805099999999999
 30
0.0
 11
77.485900000000001
 21
29.805099999999999
 31
0.0
  0
LINE
  5
25A
  8
_________2
 62
     7
 10
70.837500000000006
 20
29.805099999999999
 30
0.0
 11
68.650499999999994
 21
29.805099999999999
 31
0.0
  0
LINE
  5
25B
  8
_________2
 62
     7
 10
71.329800000000006
 20
29.805099999999999
 30
0.0
 11
71.0779
 21
29.805099999999999
 31
0.0
  0
LINE
  5
25C
  8
_________2
 62
     7
 10
71.329800000000006
 20
30.2974
 30
0.0
 11
71.329800000000006
 21
32.484400000000001
 31
0.0
  0
LINE
  5
25D
  8
_________2
 62
     7
 10
71.329800000000006
 20
29.805099999999999
 30
0.0
 11
71.329800000000006
 21
30.057600000000001
 31
0.0
  0
LINE
  5
25E
  8
_________2
 62
     7
 10
71.822400000000002
 20
29.805099999999999
 30
0.0
 11
74.009
 21
29.805099999999999
 31
0.0
  0
LINE
  5
25F
  8
_________2
 62
     7
 10
71.329800000000006
 20
29.805099999999999
 30
0.0
 11
71.581999999999994
 21
29.805099999999999
 31
0.0
  0
LINE
  5
260
  8
_________2
 62
     7
 10
71.329800000000006
 20
29.312799999999999
 30
0.0
 11
71.329800000000006
 21
27.126200000000001
 31
0.0
  0
LINE
  5
261
  8
_________2
 62
     7
 10
71.329800000000006
 20
29.805099999999999
 30
0.0
 11
71.329800000000006
 21
29.5532
 31
0.0
  0
LINE
  5
262
  8
_________2
 62
     7
 10
75.040899999999993
 20
28.585899999999992
 30
0.0
 11
80.218500000000006
 21
27.720400000000001
 31
0.0
  0
LINE
  5
263
  8
_________2
 62
     7
 10
75.040899999999993
 20
31.024699999999999
 30
0.0
 11
80.218500000000006
 21
31.8901
 31
0.0
  0
LINE
  5
264
  8
_________2
 62
     7
 10
80.218500000000006
 20
27.720400000000001
 30
0.0
 11
80.218500000000006
 21
31.8901
 31
0.0
  0
LINE
  5
265
  8
_________2
 62
     7
 10
75.040899999999993
 20
28.585899999999992
 30
0.0
 11
75.040899999999993
 21
31.024699999999999
 31
0.0
  0
ARC
  5
266
  8
_________2
 62
     7
 10
71.283201000000005
 20
29.758156
 30
0.0
 40
1.2673589999999999
 50
2.122214
 51
87.893958999999995
  0
ARC
  5
267
  8
_________2
 62
     7
 10
71.376300000000001
 20
29.758562000000001
 30
0.0
 40
1.2669509999999991
 50
92.104485999999994
 51
177.89548500000001
  0
ARC
  5
268
  8
_________2
 62
     7
 10
71.376343999999989
 20
29.852014
 30
0.0
 40
1.2670099999999991
 50
182.1225849999999
 51
267.89363300000002
  0
ARC
  5
269
  8
_________2
 62
     7
 10
71.282900999999995
 20
29.852677
 30
0.0
 40
1.267684
 50
272.11907200000002
 51
357.848567
  0
ARC
  5
26A
  8
_________2
 62
     7
 10
71.249426999999997
 20
29.725096999999991
 30
0.0
 40
2.1664659999999989
 50
2.1159629999999998
 51
87.874558999999991
  0
ARC
  5
26B
  8
_________2
 62
     7
 10
71.409410999999992
 20
29.725809000000002
 30
0.0
 40
2.1657280000000001
 50
92.107296999999988
 51
177.902142
  0
ARC
  5
26C
  8
_________2
 62
     7
 10
71.409789000000004
 20
29.885100999999999
 30
0.0
 40
2.1661329999999999
 50
182.116929
 51
267.88310000000001
  0
ARC
  5
26D
  8
_________2
 62
     7
 10
71.249769999999998
 20
29.88509199999999
 30
0.0
 40
2.1661229999999989
 50
272.11667999999992
 51
357.88332999999989
  0
TEXT
  5
26E
  8
_________2
 62
     7
 10
104.605
 20
1.6794899999999999
 30
0.0
 40
3.0923400000000001
  1
図番
 41
0.5
  0
LINE
  5
26F
  8
_________2
 62
     7
 10
103.55
 20
5.9087199999999989
 30
0.0
 11
183.55099999999999
 21
5.9087199999999989
 31
0.0
  0
TEXT
  5
270
  8
_________2
 62
     7
 10
104.605
 20
11.679600000000001
 30
0.0
 40
3.0923400000000001
  1
品番
 41
0.5
  0
TEXT
  5
271
  8
_________2
 62
     7
 10
104.605
 20
31.8184
 30
0.0
 40
3.0923400000000001
  1
名称
 41
0.5
  0
TEXT
  5
272
  8
_________2
 62
     7
 10
91.84545833333334
 20
26.822299999999998
 30
0.0
 40
3.6545800000000002
  1
mm
 41
0.5
 72
     1
 11
93.368200000000016
 21
26.822299999999998
 31
0.0
  0
TEXT
  5
273
  8
_________2
 62
     7
 10
85.643199999999993
 20
31.8184
 30
0.0
 40
3.0923400000000001
  1
単位
 41
0.5
  0
TEXT
  5
274
  8
_________2
 62
     7
 10
85.643199999999993
 20
19.411200000000001
 30
0.0
 40
3.0923400000000001
  1
尺度
 41
0.5
  0
TEXT
  5
275
  8
_________2
 62
     7
 10
137.31847500000001
 20
9.1082000000000001
 30
0.0
 40
3.9357000000000002
  1
CEL1595
 41
0.5
 72
     1
 11
143.55000000000001
 21
9.1082000000000001
 31
0.0
  0
TEXT
  5
276
  8
_________2
 62
     7
 10
137.31847500000001
 20
-0.8919409999999999
 30
0.0
 40
3.9357000000000002
  1
CEL1595
 41
0.5
 72
     1
 11
143.55000000000001
 21
-0.8919409999999999
 31
0.0
  0
TEXT
  5
277
  8
_________2
 62
     7
 10
24.587099999999989
 20
0.707627
 30
0.0
 40
3.9357000000000002
  1
実容量：11L、重量12kg、オーバーフロー付
 41
0.5
  0
TEXT
  5
278
  8
_________2
 62
     7
 10
109.179
 20
24.226400000000002
 30
0.0
 40
3.9357000000000002
  1
アンダーカウンター式洗面器
 41
0.5
  0
TEXT
  5
279
  8
_________2
 62
     7
 10
39.425300333333333
 20
13.603400000000001
 30
0.0
 40
3.6545800000000002
  1
早川
 41
0.5
 72
     1
 11
41.313499999999998
 21
13.603400000000001
 31
0.0
  0
TEXT
  5
27A
  8
_________2
 62
     7
 10
20.79039066666666
 20
13.603400000000001
 30
0.0
 40
3.6545800000000002
  1
石原
 41
0.5
 72
     1
 11
22.7395
 21
13.603400000000001
 31
0.0
  0
TEXT
  5
27B
  8
_________2
 62
     7
 10
67.785799999999995
 20
13.218199999999991
 30
0.0
 40
3.6545800000000002
  1
12.10.25
 41
0.5
  0
TEXT
  5
27C
  8
_________2
 62
     7
 10
66.593100000000007
 20
19.411200000000001
 30
0.0
 40
3.0923400000000001
  1
日付
 41
0.5
  0
TEXT
  5
27D
  8
_________2
 62
     7
 10
29.639399999999998
 20
19.411200000000001
 30
0.0
 40
3.0923400000000001
  1
検図
 41
0.5
  0
TEXT
  5
27E
  8
_________2
 62
     7
 10
18.021399999999989
 20
5.2117699999999987
 30
0.0
 40
3.0923400000000001
  1
備考
 41
0.5
  0
TEXT
  5
27F
  8
_________2
 62
     7
 10
18.021399999999989
 20
19.411200000000001
 30
0.0
 40
3.0923400000000001
  1
製図
 41
0.5
  0
TEXT
  5
280
  8
_________2
 62
     7
 10
23.78886533333333
 20
27.936800000000002
 30
0.0
 40
4.4979399999999989
  1
セラトレーディング株式会社
 41
0.5
 72
     1
 11
41.180900000000001
 21
27.936800000000002
 31
0.0
  0
LINE
  5
281
  8
_________2
 62
     7
 10
183.55099999999999
 20
-4.0910799999999998
 30
0.0
 11
17.049499999999998
 21
-4.0910799999999998
 31
0.0
  0
LINE
  5
282
  8
_________2
 62
     7
 10
17.049499999999998
 20
-4.0910799999999998
 30
0.0
 11
17.049499999999998
 21
258.911
 31
0.0
  0
LINE
  5
283
  8
_________2
 62
     7
 10
17.049499999999998
 20
258.911
 30
0.0
 11
183.55099999999999
 21
258.911
 31
0.0
  0
LINE
  5
284
  8
_________2
 62
     7
 10
183.55099999999999
 20
258.911
 30
0.0
 11
183.55099999999999
 21
-4.0910799999999998
 31
0.0
  0
LINE
  5
285
  8
_________2
 62
     7
 10
65.549899999999994
 20
9.4096499999999992
 30
0.0
 11
65.549899999999994
 21
35.909500000000001
 31
0.0
  0
LINE
  5
286
  8
_________2
 62
     7
 10
84.550099999999986
 20
9.4096499999999992
 30
0.0
 11
84.550099999999986
 21
35.909500000000001
 31
0.0
  0
LINE
  5
287
  8
_________2
 62
     7
 10
103.55
 20
-4.0910799999999998
 30
0.0
 11
103.55
 21
35.909500000000001
 31
0.0
  0
LINE
  5
288
  8
_________2
 62
     7
 10
28.549700000000001
 20
9.4096499999999992
 30
0.0
 11
28.549700000000001
 21
23.409199999999998
 31
0.0
  0
LINE
  5
289
  8
_________2
 62
     7
 10
17.049499999999998
 20
9.4096499999999992
 30
0.0
 11
103.55
 21
9.4096499999999992
 31
0.0
  0
LINE
  5
28A
  8
_________2
 62
     7
 10
17.049499999999998
 20
23.409199999999998
 30
0.0
 11
103.55
 21
23.409199999999998
 31
0.0
  0
LINE
  5
28B
  8
_________2
 62
     7
 10
103.55
 20
15.9092
 30
0.0
 11
183.55099999999999
 21
15.9092
 31
0.0
  0
LINE
  5
28C
  8
_________2
 62
     7
 10
17.049499999999998
 20
35.909500000000001
 30
0.0
 11
183.55099999999999
 21
35.909500000000001
 31
0.0
  0
ENDSEC
  0
EOF
