  0
SECTION
  2
HEADER
  9
$ACADVER
  1
AC1009
  9
$INSBASE
 10
0.0
 20
0.0
 30
0.0
  9
$EXTMIN
 10
0.238402
 20
0.4485540000000001
 30
0.0
  9
$EXTMAX
 10
210.24000000000001
 20
297.45099999999991
 30
0.0
  9
$LIMMIN
 10
0.0
 20
0.0
  9
$LIMMAX
 10
12.0
 20
9.0
  9
$ORTHOMODE
 70
     0
  9
$REGENMODE
 70
     1
  9
$FILLMODE
 70
     1
  9
$QTEXTMODE
 70
     0
  9
$MIRRTEXT
 70
     1
  9
$DRAGMODE
 70
     2
  9
$LTSCALE
 40
1.0
  9
$OSMODE
 70
    37
  9
$ATTMODE
 70
     1
  9
$TEXTSIZE
 40
0.0
  9
$TRACEWID
 40
0.05
  9
$TEXTSTYLE
  7
STANDARD
  9
$CLAYER
  8
0
  9
$CELTYPE
  6
CONTINUOUS
  9
$CECOLOR
 62
   256
  9
$DIMSCALE
 40
1.0
  9
$DIMASZ
 40
0.18
  9
$DIMEXO
 40
0.0625
  9
$DIMDLI
 40
0.38
  9
$DIMRND
 40
0.0
  9
$DIMDLE
 40
0.0
  9
$DIMEXE
 40
0.18
  9
$DIMTP
 40
0.0
  9
$DIMTM
 40
0.0
  9
$DIMTXT
 40
0.18
  9
$DIMCEN
 40
0.09
  9
$DIMTSZ
 40
0.0
  9
$DIMTOL
 70
     0
  9
$DIMLIM
 70
     0
  9
$DIMTIH
 70
     1
  9
$DIMTOH
 70
     1
  9
$DIMSE1
 70
     0
  9
$DIMSE2
 70
     0
  9
$DIMTAD
 70
     0
  9
$DIMZIN
 70
     0
  9
$DIMBLK
  1

  9
$DIMASO
 70
     1
  9
$DIMSHO
 70
     1
  9
$DIMPOST
  1

  9
$DIMAPOST
  1

  9
$DIMALT
 70
     0
  9
$DIMALTD
 70
     2
  9
$DIMALTF
 40
25.399999999999999
  9
$DIMLFAC
 40
1.0
  9
$DIMTOFL
 70
     0
  9
$DIMTVP
 40
0.0
  9
$DIMTIX
 70
     0
  9
$DIMSOXD
 70
     0
  9
$DIMSAH
 70
     0
  9
$DIMBLK1
  1

  9
$DIMBLK2
  1

  9
$DIMSTYLE
  2
STANDARD
  9
$DIMCLRD
 70
     0
  9
$DIMCLRE
 70
     0
  9
$DIMCLRT
 70
     0
  9
$DIMTFAC
 40
1.0
  9
$DIMGAP
 40
0.09
  9
$LUNITS
 70
     2
  9
$LUPREC
 70
     4
  9
$SKETCHINC
 40
0.1
  9
$FILLETRAD
 40
0.0
  9
$AUNITS
 70
     0
  9
$AUPREC
 70
     0
  9
$MENU
  1
.
  9
$ELEVATION
 40
0.0
  9
$PELEVATION
 40
0.0
  9
$THICKNESS
 40
0.0
  9
$LIMCHECK
 70
     0
  9
$BLIPMODE
 70
     0
  9
$CHAMFERA
 40
0.0
  9
$CHAMFERB
 40
0.0
  9
$SKPOLY
 70
     0
  9
$TDCREATE
 40
2444972.375
  9
$TDUPDATE
 40
2456309.427588888
  9
$TDINDWG
 40
0.0000074653
  9
$TDUSRTIMER
 40
0.0000074653
  9
$USRTIMER
 70
     1
  9
$ANGBASE
 50
0.0
  9
$ANGDIR
 70
     0
  9
$PDMODE
 70
     0
  9
$PDSIZE
 40
0.0
  9
$PLINEWID
 40
0.0
  9
$COORDS
 70
     1
  9
$SPLFRAME
 70
     0
  9
$SPLINETYPE
 70
     6
  9
$SPLINESEGS
 70
     8
  9
$ATTDIA
 70
     0
  9
$ATTREQ
 70
     1
  9
$HANDLING
 70
     1
  9
$HANDSEED
  5
2A0
  9
$SURFTAB1
 70
     6
  9
$SURFTAB2
 70
     6
  9
$SURFTYPE
 70
     6
  9
$SURFU
 70
     6
  9
$SURFV
 70
     6
  9
$UCSNAME
  2

  9
$UCSORG
 10
0.0
 20
0.0
 30
0.0
  9
$UCSXDIR
 10
1.0
 20
0.0
 30
0.0
  9
$UCSYDIR
 10
0.0
 20
1.0
 30
0.0
  9
$PUCSNAME
  2

  9
$PUCSORG
 10
0.0
 20
0.0
 30
0.0
  9
$PUCSXDIR
 10
1.0
 20
0.0
 30
0.0
  9
$PUCSYDIR
 10
0.0
 20
1.0
 30
0.0
  9
$USERI1
 70
     0
  9
$USERI2
 70
     0
  9
$USERI3
 70
     0
  9
$USERI4
 70
     0
  9
$USERI5
 70
     0
  9
$USERR1
 40
0.0
  9
$USERR2
 40
0.0
  9
$USERR3
 40
0.0
  9
$USERR4
 40
0.0
  9
$USERR5
 40
0.0
  9
$WORLDVIEW
 70
     1
  9
$SHADEDGE
 70
     3
  9
$SHADEDIF
 70
    70
  9
$TILEMODE
 70
     1
  9
$MAXACTVP
 70
    48
  9
$PLIMCHECK
 70
     0
  9
$PEXTMIN
 10
1.0000000000000000E+020
 20
1.0000000000000000E+020
 30
1.0000000000000000E+020
  9
$PEXTMAX
 10
-1.0000000000000000E+020
 20
-1.0000000000000000E+020
 30
-1.0000000000000000E+020
  9
$PLIMMIN
 10
0.0
 20
0.0
  9
$PLIMMAX
 10
12.0
 20
9.0
  9
$UNITMODE
 70
     0
  9
$VISRETAIN
 70
     1
  9
$PLINEGEN
 70
     0
  9
$PSLTSCALE
 70
     1
  0
ENDSEC
  0
SECTION
  2
TABLES
  0
TABLE
  2
VPORT
 70
     2
  0
VPORT
  2
*ACTIVE
 70
     0
 10
0.0
 20
0.0
 11
1.0
 21
1.0
 12
210.2890559497551
 22
148.7254999999999
 13
0.0
 23
0.0
 14
1.0
 24
1.0
 15
0.0
 25
0.0
 16
0.0
 26
0.0
 36
1.0
 17
0.0
 27
0.0
 37
0.0
 40
299.69874055415607
 41
2.2894736842105261
 42
50.0
 43
0.0
 44
0.0
 50
0.0
 51
0.0
 71
     0
 72
   100
 73
     1
 74
     1
 75
     0
 76
     0
 77
     0
 78
     0
  0
ENDTAB
  0
TABLE
  2
LTYPE
 70
     4
  0
LTYPE
  2
CONTINUOUS
 70
     0
  3
Solid line
 72
    65
 73
     0
 40
0.0
  0
LTYPE
  2
AIGENLINE001
 70
     0
  3
generate AI->DXF Converter
 72
    65
 73
     2
 40
1.5522299999999991
 49
0.776115
 49
-0.776115
  0
LTYPE
  2
AIGENLINE002
 70
     0
  3
generate AI->DXF Converter
 72
    65
 73
     4
 40
5.8561449999999988
 49
3.5278
 49
-0.776115
 49
0.776115
 49
-0.776115
  0
LTYPE
  2
AIGENLINE003
 70
     0
  3
generate AI->DXF Converter
 72
    65
 73
     6
 40
7.4083750000000004
 49
3.5278
 49
-0.776115
 49
0.776115
 49
-0.776115
 49
0.776115
 49
-0.776115
  0
ENDTAB
  0
TABLE
  2
LAYER
 70
     2
  0
LAYER
  2
0
 70
     0
 62
     7
  6
CONTINUOUS
  0
LAYER
  2
_________2
 70
     0
 62
     7
  6
CONTINUOUS
  0
ENDTAB
  0
TABLE
  2
STYLE
 70
     1
  0
STYLE
  2
STANDARD
 70
     0
 40
0.0
 41
0.0
 50
0.0
 71
     0
 42
0.0
  3
TXT
  4
EXTFONT.SHX
  0
ENDTAB
  0
TABLE
  2
VIEW
 70
     0
  0
ENDTAB
  0
TABLE
  2
UCS
 70
     0
  0
ENDTAB
  0
TABLE
  2
APPID
 70
     1
  0
APPID
  2
ACAD
 70
     0
  0
ENDTAB
  0
TABLE
  2
DIMSTYLE
 70
     1
  0
DIMSTYLE
  2
STANDARD
 70
     0
  3

  4

  5

  6

  7

 40
1.0
 41
0.18
 42
0.0625
 43
0.38
 44
0.18
 45
0.0
 46
0.0
 47
0.0
 48
0.0
140
0.18
141
0.09
142
0.0
143
25.399999999999999
144
1.0
145
0.0
146
1.0
147
0.09
 71
     0
 72
     0
 73
     1
 74
     1
 75
     0
 76
     0
 77
     0
 78
     0
170
     0
171
     2
172
     0
173
     0
174
     0
175
     0
176
     0
177
     0
178
     0
  0
ENDTAB
  0
ENDSEC
  0
SECTION
  2
BLOCKS
  0
BLOCK
  8
0
  2
$MODEL_SPACE
 70
     0
 10
0.0
 20
0.0
 30
0.0
  3
$MODEL_SPACE
  1

  0
ENDBLK
  5
1A
  8
0
  0
BLOCK
 67
     1
  8
0
  2
$PAPER_SPACE
 70
     0
 10
0.0
 20
0.0
 30
0.0
  3
$PAPER_SPACE
  1

  0
ENDBLK
  5
17
 67
     1
  8
0
  0
ENDSEC
  0
SECTION
  2
ENTITIES
  0
TEXT
  5
24
  8
0
 62
     7
 10
134.67999999999989
 20
83.862099999999998
 30
0.0
 40
3.0923400000000001
  1
〈付属品〉
 41
0.5
  0
TEXT
  5
25
  8
0
 62
     7
 10
134.67999999999989
 20
79.996700000000004
 30
0.0
 40
3.0923400000000001
  1
洗面器固定金具×4
 41
0.5
  0
TEXT
  5
26
  8
0
 62
     7
 10
134.67999999999989
 20
76.131200000000007
 30
0.0
 40
3.0923400000000001
  1
%%c5×20SUSねじ付
 41
0.5
  0
TEXT
  5
27
  8
0
 62
     7
 10
134.67999999999989
 20
72.265799999999999
 30
0.0
 40
3.0923400000000001
  1
（尺度 1：3）
 41
0.5
  0
TEXT
  5
28
  8
0
 62
     7
 10
143.70699999999999
 20
119.00399999999991
 30
0.0
 40
3.0923400000000001
  1
12.5
 41
0.5
  0
TEXT
  5
29
  8
0
 62
     7
 10
146.77888799999999
 20
103.581
 30
0.0
 40
3.0923400000000001
  1
両面テープ付
 41
0.5
 72
     2
 11
157.49899999999991
 21
103.581
 31
0.0
  0
TEXT
  5
2A
  8
0
 62
     7
 10
144.7483724999999
 20
114.161
 30
0.0
 40
3.0923400000000001
  1
50
 41
0.5
 72
     1
 11
145.9079999999999
 21
114.161
 31
0.0
  0
TEXT
  5
2B
  8
0
 62
     7
 10
158.7239999999999
 20
96.755050000000011
 30
0.0
 40
3.0923400000000001
  1
1.5
 50
90.0
 41
0.5
 72
     2
 11
158.7239999999999
 21
99.332000000000008
 31
0.0
  0
TEXT
  5
2C
  8
0
 62
     7
 10
132.68199999999999
 20
95.583020000000005
 30
0.0
 40
3.0923400000000001
  1
19
 50
90.0
 41
0.5
 72
     1
 11
132.68199999999999
 21
96.613800000000012
 31
0.0
  0
TEXT
  5
2D
  8
0
 62
     7
 10
159.65100000000001
 20
127.2263724999999
 30
0.0
 40
3.0923400000000001
  1
30
 50
90.0
 41
0.5
 72
     1
 11
159.65100000000001
 21
128.38599999999991
 31
0.0
  0
TEXT
  5
2E
  8
0
 62
     7
 10
136.7687599999999
 20
190.44900000000001
 30
0.0
 40
3.0923400000000001
  1
カウンター切込寸法
 41
0.5
 72
     1
 11
145.0149999999999
 21
190.44900000000001
 31
0.0
  0
TEXT
  5
2F
  8
0
 62
     7
 10
59.621400000000001
 20
232.76400000000001
 30
0.0
 40
3.0923400000000001
  1
%%c43
 41
0.5
  0
TEXT
  5
30
  8
0
 62
     7
 10
128.05528200000001
 20
200.179
 30
0.0
 40
3.0923400000000001
  1
洗面器固定用カウンター裏補強木（t30～40）
 41
0.5
 72
     2
 11
167.328
 21
200.179
 31
0.0
  0
TEXT
  5
31
  8
0
 62
     7
 10
110.72642949999999
 20
252.47399999999999
 30
0.0
 40
3.0923400000000001
  1
50以上
 41
0.5
 72
     1
 11
113.79299999999991
 21
252.47399999999999
 31
0.0
  0
TEXT
  5
32
  8
0
 62
     7
 10
117.4765249999999
 20
247.9909999999999
 30
0.0
 40
3.0923400000000001
  1
45
 41
0.5
 72
     1
 11
118.765
 21
247.9909999999999
 31
0.0
  0
TEXT
  5
33
  8
0
 62
     7
 10
172.86042950000001
 20
252.47399999999999
 30
0.0
 40
3.0923400000000001
  1
50以上
 41
0.5
 72
     1
 11
175.92699999999999
 21
252.47399999999999
 31
0.0
  0
TEXT
  5
34
  8
0
 62
     7
 10
169.9765249999999
 20
247.9909999999999
 30
0.0
 40
3.0923400000000001
  1
45
 41
0.5
 72
     1
 11
171.26499999999999
 21
247.9909999999999
 31
0.0
  0
TEXT
  5
35
  8
0
 62
     7
 10
155.08228749999989
 20
252.124
 30
0.0
 40
3.0923400000000001
  1
240
 41
0.5
 72
     1
 11
157.0149999999999
 21
252.124
 31
0.0
  0
TEXT
  5
36
  8
0
 62
     7
 10
129.35896500000001
 20
221.07400000000001
 30
0.0
 40
3.0923400000000001
  1
R10
 41
0.5
 72
     2
 11
132.709
 21
221.07400000000001
 31
0.0
  0
TEXT
  5
37
  8
0
 62
     7
 10
129.35896500000001
 20
238.27799999999991
 30
0.0
 40
3.0923400000000001
  1
R10
 41
0.5
 72
     2
 11
132.709
 21
238.27799999999991
 31
0.0
  0
TEXT
  5
38
  8
0
 62
     7
 10
131.08228749999989
 20
252.124
 30
0.0
 40
3.0923400000000001
  1
240
 41
0.5
 72
     1
 11
133.0149999999999
 21
252.124
 31
0.0
  0
TEXT
  5
39
  8
0
 62
     7
 10
157.84683000000001
 20
148.06999999999991
 30
0.0
 40
3.0923400000000001
  1
115
 41
0.5
 72
     1
 11
159.393
 21
148.06999999999991
 31
0.0
  0
TEXT
  5
3A
  8
0
 62
     7
 10
143.08228749999989
 20
207.40599999999989
 30
0.0
 40
3.0923400000000001
  1
480
 41
0.5
 72
     1
 11
145.0149999999999
 21
207.40599999999989
 31
0.0
  0
TEXT
  5
3B
  8
0
 62
     7
 10
68.437287500000011
 20
196.99199999999999
 30
0.0
 40
3.0923400000000001
  1
550
 41
0.5
 72
     1
 11
70.370000000000005
 21
196.99199999999999
 31
0.0
  0
TEXT
  5
3C
  8
0
 62
     7
 10
101.27405
 20
203.56499999999991
 30
0.0
 40
3.0923400000000001
  1
25
 41
0.5
 72
     2
 11
103.851
 21
203.56499999999991
 31
0.0
  0
TEXT
  5
3D
  8
0
 62
     7
 10
37.372999999999998
 20
203.56499999999991
 30
0.0
 40
3.0923400000000001
  1
25
 41
0.5
  0
TEXT
  5
3E
  8
0
 62
     7
 10
68.566135000000003
 20
203.56499999999991
 30
0.0
 40
3.0923400000000001
  1
500
 41
0.5
 72
     1
 11
70.370000000000005
 21
203.56499999999991
 31
0.0
  0
TEXT
  5
3F
  8
0
 62
     7
 10
56.343200000000003
 20
238.3898299999999
 30
0.0
 40
3.0923400000000001
  1
115
 50
90.0
 41
0.5
 72
     1
 11
56.343200000000003
 21
239.93599999999989
 31
0.0
  0
TEXT
  5
40
  8
0
 62
     7
 10
122.15899999999991
 20
169.61137249999999
 30
0.0
 40
3.0923400000000001
  1
30
 50
90.0
 41
0.5
 72
     1
 11
122.15899999999991
 21
170.7709999999999
 31
0.0
  0
TEXT
  5
41
  8
0
 62
     7
 10
29.258500000000002
 20
227.54328749999991
 30
0.0
 40
3.0923400000000001
  1
370
 50
90.0
 41
0.5
 72
     1
 11
29.258500000000002
 21
229.476
 31
0.0
  0
TEXT
  5
42
  8
0
 62
     7
 10
35.09579999999999
 20
205.309
 30
0.0
 40
3.0923400000000001
  1
25
 50
90.0
 41
0.5
  0
TEXT
  5
43
  8
0
 62
     7
 10
35.09579999999999
 20
251.2550499999999
 30
0.0
 40
3.0923400000000001
  1
35
 50
90.0
 41
0.5
 72
     2
 11
35.09579999999999
 21
253.83199999999999
 31
0.0
  0
TEXT
  5
44
  8
0
 62
     7
 10
35.09579999999999
 20
227.30098249999989
 30
0.0
 40
3.0923400000000001
  1
310
 50
90.0
 41
0.5
 72
     1
 11
35.09579999999999
 21
228.976
 31
0.0
  0
TEXT
  5
45
  8
0
 62
     7
 10
158.93700000000001
 20
227.4972875
 30
0.0
 40
3.0923400000000001
  1
290
 50
90.0
 41
0.5
 72
     1
 11
158.93700000000001
 21
229.43000000000001
 31
0.0
  0
TEXT
  5
46
  8
0
 62
     7
 10
152.2229999999999
 20
164.04698250000001
 30
0.0
 40
3.0923400000000001
  1
130
 50
90.0
 41
0.5
 72
     1
 11
152.2229999999999
 21
165.72200000000001
 31
0.0
  0
TEXT
  5
47
  8
0
 62
     7
 10
36.098300000000002
 20
161.54698250000001
 30
0.0
 40
3.0923400000000001
  1
180
 50
90.0
 41
0.5
 72
     1
 11
36.098300000000002
 21
163.22200000000001
 31
0.0
  0
ARC
  5
48
  8
0
 62
     7
 10
150.9035429999999
 20
128.38625699999989
 30
0.0
 40
1.000289999999999
 50
359.99014299999999
 51
89.990113000000008
  0
ARC
  5
49
  8
0
 62
     7
 10
150.865419
 20
128.4247389999999
 30
0.0
 40
1.0391330000000001
 50
272.112076
 51
357.86819400000002
  0
ARC
  5
4A
  8
0
 62
     7
 10
149.275598
 20
128.42471399999991
 30
0.0
 40
1.0391209999999991
 50
182.13050699999999
 51
267.86952200000002
  0
ARC
  5
4B
  8
0
 62
     7
 10
149.276285
 20
128.34748300000001
 30
0.0
 40
1.039806999999999
 50
92.166991999999993
 51
177.87245100000001
  0
LINE
  5
4C
  8
0
  6
AIGENLINE002
 62
     7
 10
147.65999999999991
 20
128.38599999999991
 30
0.0
 11
152.48099999999991
 21
128.38599999999991
 31
0.0
  0
LINE
  5
4D
  8
0
  6
AIGENLINE002
 62
     7
 10
150.07099999999991
 20
127.001
 30
0.0
 11
150.07099999999991
 21
129.7879999999999
 31
0.0
  0
LINE
  5
4E
  8
0
  6
AIGENLINE002
 62
     7
 10
150.90399999999991
 20
129.94499999999999
 30
0.0
 11
150.90399999999991
 21
126.7579999999999
 31
0.0
  0
LINE
  5
4F
  8
0
  6
AIGENLINE002
 62
     7
 10
149.23699999999999
 20
129.94499999999999
 30
0.0
 11
149.23699999999999
 21
126.7579999999999
 31
0.0
  0
LINE
  5
50
  8
0
 62
     7
 10
150.90399999999991
 20
129.387
 30
0.0
 11
149.23699999999999
 21
129.387
 31
0.0
  0
LINE
  5
51
  8
0
 62
     7
 10
150.90399999999991
 20
127.386
 30
0.0
 11
149.23699999999999
 21
127.386
 31
0.0
  0
LINE
  5
52
  8
0
  6
AIGENLINE002
 62
     7
 10
150.07099999999991
 20
95.212400000000002
 30
0.0
 11
150.07099999999991
 21
92.330200000000005
 31
0.0
  0
LINE
  5
53
  8
0
 62
     7
 10
142.56999999999991
 20
123.387
 30
0.0
 11
142.56999999999991
 21
133.386
 31
0.0
  0
LINE
  5
54
  8
0
 62
     7
 10
139.23699999999991
 20
123.72
 30
0.0
 11
139.23699999999991
 21
133.05299999999991
 31
0.0
  0
LINE
  5
55
  8
0
 62
     7
 10
154.86500000000001
 20
93.551100000000005
 30
0.0
 11
159.911
 21
93.551100000000005
 31
0.0
  0
LINE
  5
56
  8
0
 62
     7
 10
154.86500000000001
 20
94.050700000000006
 30
0.0
 11
159.911
 21
94.050700000000006
 31
0.0
  0
LINE
  5
57
  8
0
 62
     7
 10
154.23699999999999
 20
133.386
 30
0.0
 11
137.56999999999991
 21
133.386
 31
0.0
  0
LINE
  5
58
  8
0
 62
     7
 10
137.56999999999991
 20
123.387
 30
0.0
 11
137.56999999999991
 21
133.386
 31
0.0
  0
LINE
  5
59
  8
0
 62
     7
 10
154.23699999999999
 20
123.387
 30
0.0
 11
137.56999999999991
 21
123.387
 31
0.0
  0
LINE
  5
5A
  8
0
 62
     7
 10
154.23699999999999
 20
123.387
 30
0.0
 11
154.23699999999999
 21
133.386
 31
0.0
  0
LINE
  5
5B
  8
0
 62
     7
 10
154.23699999999999
 20
93.551100000000005
 30
0.0
 11
142.667
 21
93.551100000000005
 31
0.0
  0
LINE
  5
5C
  8
0
 62
     7
 10
142.08899999999991
 20
93.883899999999997
 30
0.0
 11
138.9139999999999
 21
99.384399999999985
 31
0.0
  0
ARC
  5
5D
  8
0
 62
     7
 10
142.67360400000001
 20
94.230249999999998
 30
0.0
 40
0.6791580000000002
 50
210.659425
 51
269.42468600000001
  0
LINE
  5
5E
  8
0
 62
     7
 10
142.6049999999999
 20
94.050700000000006
 30
0.0
 11
139.429
 21
99.551100000000005
 31
0.0
  0
LINE
  5
5F
  8
0
 62
     7
 10
138.85199999999989
 20
99.883899999999997
 30
0.0
 11
137.56999999999991
 21
99.883899999999997
 31
0.0
  0
ARC
  5
60
  8
0
 62
     7
 10
138.844458
 20
99.203552000000016
 30
0.0
 40
0.68043
 50
30.719688999999999
 51
89.364381999999992
  0
LINE
  5
61
  8
0
 62
     7
 10
138.9139999999999
 20
99.384399999999985
 30
0.0
 11
137.56999999999991
 21
99.384399999999985
 31
0.0
  0
LINE
  5
62
  8
0
 62
     7
 10
137.56999999999991
 20
99.384399999999985
 30
0.0
 11
137.56999999999991
 21
99.883899999999997
 31
0.0
  0
LINE
  5
63
  8
0
 62
     7
 10
154.23699999999999
 20
94.050700000000006
 30
0.0
 11
142.6049999999999
 21
94.050700000000006
 31
0.0
  0
LINE
  5
64
  8
0
 62
     7
 10
154.23699999999999
 20
93.551100000000005
 30
0.0
 11
154.23699999999999
 21
94.050700000000006
 31
0.0
  0
LINE
  5
65
  8
0
 62
     7
 10
150.07099999999991
 20
126.76600000000001
 30
0.0
 11
150.06999999999991
 21
117.792
 31
0.0
  0
LINE
  5
66
  8
0
 62
     7
 10
152.76300000000001
 20
117.81699999999999
 30
0.0
 11
154.23699999999999
 21
118.21299999999989
 31
0.0
  0
LINE
  5
67
  8
0
 62
     7
 10
154.23699999999999
 20
118.21299999999989
 30
0.0
 11
152.76300000000001
 21
118.607
 31
0.0
  0
LINE
  5
68
  8
0
 62
     7
 10
152.76300000000001
 20
118.607
 30
0.0
 11
152.76300000000001
 21
117.81699999999999
 31
0.0
  0
LINE
  5
69
  8
0
 62
     7
 10
151.5449999999999
 20
118.598
 30
0.0
 11
150.06999999999991
 21
118.2029999999999
 31
0.0
  0
LINE
  5
6A
  8
0
 62
     7
 10
150.06999999999991
 20
118.2029999999999
 30
0.0
 11
151.5449999999999
 21
117.80800000000001
 31
0.0
  0
LINE
  5
6B
  8
0
 62
     7
 10
151.5449999999999
 20
117.80800000000001
 30
0.0
 11
151.5449999999999
 21
118.598
 31
0.0
  0
LINE
  5
6C
  8
0
 62
     7
 10
154.23699999999999
 20
118.2029999999999
 30
0.0
 11
143.602
 21
118.2029999999999
 31
0.0
  0
LINE
  5
6D
  8
0
 62
     7
 10
137.56999999999991
 20
122.744
 30
0.0
 11
137.56999999999991
 21
112.86199999999999
 31
0.0
  0
LINE
  5
6E
  8
0
 62
     7
 10
154.23699999999999
 20
122.744
 30
0.0
 11
154.23699999999999
 21
112.86199999999999
 31
0.0
  0
LINE
  5
6F
  8
0
 62
     7
 10
139.24000000000001
 20
101.19
 30
0.0
 11
138.47599999999991
 21
99.867400000000004
 31
0.0
  0
LINE
  5
70
  8
0
 62
     7
 10
138.47599999999991
 20
99.867400000000004
 30
0.0
 11
139.798
 21
100.631
 31
0.0
  0
LINE
  5
71
  8
0
 62
     7
 10
139.798
 20
100.631
 30
0.0
 11
139.24000000000001
 21
101.19
 31
0.0
  0
LINE
  5
72
  8
0
 62
     7
 10
141.232
 20
102.62299999999991
 30
0.0
 11
138.47599999999991
 21
99.867400000000004
 31
0.0
  0
LINE
  5
73
  8
0
 62
     7
 10
157.505
 20
102.62299999999991
 30
0.0
 11
141.232
 21
102.62299999999991
 31
0.0
  0
LINE
  5
74
  8
0
 62
     7
 10
152.76300000000001
 20
112.887
 30
0.0
 11
154.238
 21
113.283
 31
0.0
  0
LINE
  5
75
  8
0
 62
     7
 10
154.238
 20
113.283
 30
0.0
 11
152.76300000000001
 21
113.6779999999999
 31
0.0
  0
LINE
  5
76
  8
0
 62
     7
 10
152.76300000000001
 20
113.6779999999999
 30
0.0
 11
152.76300000000001
 21
112.887
 31
0.0
  0
LINE
  5
77
  8
0
 62
     7
 10
139.0449999999999
 20
113.66799999999991
 30
0.0
 11
137.56999999999991
 21
113.273
 31
0.0
  0
LINE
  5
78
  8
0
 62
     7
 10
137.56999999999991
 20
113.273
 30
0.0
 11
139.0449999999999
 21
112.8779999999999
 31
0.0
  0
LINE
  5
79
  8
0
 62
     7
 10
139.0449999999999
 20
112.8779999999999
 30
0.0
 11
139.0449999999999
 21
113.66799999999991
 31
0.0
  0
LINE
  5
7A
  8
0
 62
     7
 10
154.23699999999999
 20
113.273
 30
0.0
 11
137.56999999999991
 21
113.273
 31
0.0
  0
LINE
  5
7B
  8
0
 62
     7
 10
141.636
 20
93.551100000000005
 30
0.0
 11
133.387
 21
93.551100000000005
 31
0.0
  0
LINE
  5
7C
  8
0
 62
     7
 10
136.95400000000001
 20
99.883899999999997
 30
0.0
 11
133.387
 21
99.883899999999997
 31
0.0
  0
LINE
  5
7D
  8
0
 62
     7
 10
134.19200000000001
 20
98.4101
 30
0.0
 11
133.797
 21
99.884600000000006
 31
0.0
  0
LINE
  5
7E
  8
0
 62
     7
 10
133.797
 20
99.884600000000006
 30
0.0
 11
133.40199999999999
 21
98.4101
 31
0.0
  0
LINE
  5
7F
  8
0
 62
     7
 10
133.40199999999999
 20
98.4101
 30
0.0
 11
134.19200000000001
 21
98.4101
 31
0.0
  0
LINE
  5
80
  8
0
 62
     7
 10
133.41200000000001
 20
95.024899999999988
 30
0.0
 11
133.80699999999999
 21
93.550399999999996
 31
0.0
  0
LINE
  5
81
  8
0
 62
     7
 10
133.80699999999999
 20
93.550399999999996
 30
0.0
 11
134.20199999999991
 21
95.024899999999988
 31
0.0
  0
LINE
  5
82
  8
0
 62
     7
 10
134.20199999999991
 20
95.024899999999988
 30
0.0
 11
133.41200000000001
 21
95.024899999999988
 31
0.0
  0
LINE
  5
83
  8
0
 62
     7
 10
133.797
 20
99.883899999999997
 30
0.0
 11
133.797
 21
93.551100000000005
 31
0.0
  0
LINE
  5
84
  8
0
 62
     7
 10
154.86500000000001
 20
123.387
 30
0.0
 11
161.05099999999999
 21
123.387
 31
0.0
  0
LINE
  5
85
  8
0
 62
     7
 10
154.86500000000001
 20
133.386
 30
0.0
 11
161.05099999999999
 21
133.386
 31
0.0
  0
LINE
  5
86
  8
0
 62
     7
 10
159.89500000000001
 20
92.076599999999999
 30
0.0
 11
159.49999999999989
 21
93.551100000000005
 31
0.0
  0
LINE
  5
87
  8
0
 62
     7
 10
159.49999999999989
 20
93.551100000000005
 30
0.0
 11
159.1049999999999
 21
92.076599999999999
 31
0.0
  0
LINE
  5
88
  8
0
 62
     7
 10
159.1049999999999
 20
92.076599999999999
 30
0.0
 11
159.89500000000001
 21
92.076599999999999
 31
0.0
  0
LINE
  5
89
  8
0
 62
     7
 10
159.1049999999999
 20
95.525199999999984
 30
0.0
 11
159.49999999999989
 21
94.050700000000006
 31
0.0
  0
LINE
  5
8A
  8
0
 62
     7
 10
159.49999999999989
 20
94.050700000000006
 30
0.0
 11
159.89500000000001
 21
95.525199999999984
 31
0.0
  0
LINE
  5
8B
  8
0
 62
     7
 10
159.89500000000001
 20
95.525199999999984
 30
0.0
 11
159.1049999999999
 21
95.525199999999984
 31
0.0
  0
LINE
  5
8C
  8
0
 62
     7
 10
159.49999999999989
 20
99.390600000000006
 30
0.0
 11
159.49999999999989
 21
91.097499999999997
 31
0.0
  0
LINE
  5
8D
  8
0
 62
     7
 10
161.03399999999991
 20
131.91200000000001
 30
0.0
 11
160.63900000000001
 21
133.386
 31
0.0
  0
LINE
  5
8E
  8
0
 62
     7
 10
160.63900000000001
 20
133.386
 30
0.0
 11
160.244
 21
131.91200000000001
 31
0.0
  0
LINE
  5
8F
  8
0
 62
     7
 10
160.244
 20
131.91200000000001
 30
0.0
 11
161.03399999999991
 21
131.91200000000001
 31
0.0
  0
LINE
  5
90
  8
0
 62
     7
 10
160.25399999999991
 20
124.8599999999999
 30
0.0
 11
160.64899999999989
 21
123.386
 31
0.0
  0
LINE
  5
91
  8
0
 62
     7
 10
160.64899999999989
 20
123.386
 30
0.0
 11
161.0439999999999
 21
124.8599999999999
 31
0.0
  0
LINE
  5
92
  8
0
 62
     7
 10
161.0439999999999
 20
124.8599999999999
 30
0.0
 11
160.25399999999991
 21
124.8599999999999
 31
0.0
  0
LINE
  5
93
  8
0
 62
     7
 10
160.63900000000001
 20
133.386
 30
0.0
 11
160.63900000000001
 21
123.387
 31
0.0
  0
ARC
  5
94
  8
0
 62
     7
 10
173.51539799999989
 20
251.42379699999989
 30
0.0
 40
0.322463
 50
179.99996999999991
 51
270.00002000000001
  0
ARC
  5
95
  8
0
 62
     7
 10
173.51539799999989
 20
251.42379699999989
 30
0.0
 40
0.322463
 50
270.00002000000001
 51
359.99998999999991
  0
ARC
  5
96
  8
0
 62
     7
 10
173.51539799999989
 20
251.42379699999989
 30
0.0
 40
0.322463
 50
0.00001
 51
89.999980000000008
  0
ARC
  5
97
  8
0
 62
     7
 10
173.51539799999989
 20
251.42379699999989
 30
0.0
 40
0.322463
 50
90.0
 51
179.99996999999991
  0
ARC
  5
98
  8
0
 62
     7
 10
116.5152439999999
 20
251.42379699999989
 30
0.0
 40
0.322463
 50
179.99996999999991
 51
270.00002000000001
  0
ARC
  5
99
  8
0
 62
     7
 10
116.5152439999999
 20
251.42379699999989
 30
0.0
 40
0.322463
 50
270.00002000000001
 51
359.99998999999991
  0
ARC
  5
9A
  8
0
 62
     7
 10
116.5152439999999
 20
251.42379699999989
 30
0.0
 40
0.322463
 50
0.00001
 51
89.999980000000008
  0
ARC
  5
9B
  8
0
 62
     7
 10
116.5152439999999
 20
251.42379699999989
 30
0.0
 40
0.322463
 50
90.0
 51
179.99996999999991
  0
ARC
  5
9C
  8
0
 62
     7
 10
167.97663399999999
 20
215.51434099999989
 30
0.0
 40
1.0394699999999999
 50
272.14903099999992
 51
357.87071900000001
  0
ARC
  5
9D
  8
0
 62
     7
 10
167.97663399999999
 20
242.437173
 30
0.0
 40
1.0394699999999999
 50
2.1292810000000002
 51
87.850968999999992
  0
LINE
  5
9E
  8
0
  6
AIGENLINE002
 62
     7
 10
145.0149999999999
 20
245.56399999999999
 30
0.0
 11
145.0149999999999
 21
212.6459999999999
 31
0.0
  0
LINE
  5
9F
  8
0
 62
     7
 10
169.0149999999999
 20
242.476
 30
0.0
 11
169.0149999999999
 21
215.476
 31
0.0
  0
ARC
  5
A0
  8
0
 62
     7
 10
122.015373
 20
215.47572
 30
0.0
 40
1.000116999999999
 50
179.99996999999991
 51
270.00002000000001
  0
ARC
  5
A1
  8
0
 62
     7
 10
122.01537399999989
 20
242.47579300000001
 30
0.0
 40
1.0001180000000001
 50
90.0
 51
179.99996999999991
  0
LINE
  5
A2
  8
0
  6
AIGENLINE003
 62
     7
 10
173.5149999999999
 20
214.476
 30
0.0
 11
178.51599999999991
 21
243.476
 31
0.0
  0
LINE
  5
A3
  8
0
  6
AIGENLINE003
 62
     7
 10
178.51599999999991
 20
214.476
 30
0.0
 11
173.5149999999999
 21
243.476
 31
0.0
  0
LINE
  5
A4
  8
0
  6
AIGENLINE003
 62
     7
 10
173.5149999999999
 20
214.476
 30
0.0
 11
178.51599999999991
 21
214.476
 31
0.0
  0
LINE
  5
A5
  8
0
  6
AIGENLINE003
 62
     7
 10
178.51599999999991
 20
214.476
 30
0.0
 11
178.51599999999991
 21
243.476
 31
0.0
  0
LINE
  5
A6
  8
0
  6
AIGENLINE003
 62
     7
 10
178.51599999999991
 20
243.476
 30
0.0
 11
173.5149999999999
 21
243.476
 31
0.0
  0
LINE
  5
A7
  8
0
  6
AIGENLINE003
 62
     7
 10
173.5149999999999
 20
243.476
 30
0.0
 11
173.5149999999999
 21
214.476
 31
0.0
  0
LINE
  5
A8
  8
0
 62
     7
 10
178.51599999999991
 20
252.124
 30
0.0
 11
178.51599999999991
 21
244.1759999999999
 31
0.0
  0
LINE
  5
A9
  8
0
 62
     7
 10
169.0149999999999
 20
213.74299999999999
 30
0.0
 11
169.0149999999999
 21
206.00599999999989
 31
0.0
  0
LINE
  5
AA
  8
0
 62
     7
 10
173.5149999999999
 20
252.124
 30
0.0
 11
173.5149999999999
 21
244.1759999999999
 31
0.0
  0
LINE
  5
AB
  8
0
  6
AIGENLINE003
 62
     7
 10
116.515
 20
214.476
 30
0.0
 11
111.515
 21
243.476
 31
0.0
  0
LINE
  5
AC
  8
0
  6
AIGENLINE003
 62
     7
 10
111.515
 20
214.476
 30
0.0
 11
116.515
 21
243.476
 31
0.0
  0
LINE
  5
AD
  8
0
  6
AIGENLINE003
 62
     7
 10
116.515
 20
214.476
 30
0.0
 11
111.515
 21
214.476
 31
0.0
  0
LINE
  5
AE
  8
0
  6
AIGENLINE003
 62
     7
 10
111.515
 20
214.476
 30
0.0
 11
111.515
 21
243.476
 31
0.0
  0
LINE
  5
AF
  8
0
  6
AIGENLINE003
 62
     7
 10
111.515
 20
243.476
 30
0.0
 11
116.515
 21
243.476
 31
0.0
  0
LINE
  5
B0
  8
0
  6
AIGENLINE003
 62
     7
 10
116.515
 20
243.476
 30
0.0
 11
116.515
 21
214.476
 31
0.0
  0
ARC
  5
B1
  8
0
 62
     7
 10
162.604725
 20
166.70616100000001
 30
0.0
 40
0.516771
 50
91.644192000000018
 51
171.898483
  0
ARC
  5
B2
  8
0
 62
     7
 10
158.35278500000001
 20
161.323418
 30
0.0
 40
3.102754
 50
271.68544900000001
 51
352.43716899999993
  0
ARC
  5
B3
  8
0
  6
AIGENLINE001
 62
     7
 10
156.797282
 20
166.57707500000001
 30
0.0
 40
10.889642
 50
269.97642399999989
 51
273.25827599999991
  0
ARC
  5
B4
  8
0
  6
AIGENLINE001
 62
     7
 10
157.04130699999999
 20
161.2691989999999
 30
0.0
 40
5.5767800000000003
 50
273.85471000000001
 51
291.69388700000002
  0
ARC
  5
B5
  8
0
  6
AIGENLINE001
 62
     7
 10
156.208856
 20
157.6370159999999
 30
0.0
 40
0.415762
 50
182.088234
 51
267.86246699999998
  0
ARC
  5
B6
  8
0
  6
AIGENLINE001
 62
     7
 10
156.17828899999989
 20
157.63656900000001
 30
0.0
 40
0.415298
 50
272.07817699999993
 51
357.97116199999988
  0
LINE
  5
B7
  8
0
  6
AIGENLINE001
 62
     7
 10
155.79299999999989
 20
155.68700000000001
 30
0.0
 11
156.79300000000001
 21
155.68700000000001
 31
0.0
  0
LINE
  5
B8
  8
0
  6
AIGENLINE001
 62
     7
 10
156.5929999999999
 20
157.88200000000001
 30
0.0
 11
156.5929999999999
 21
157.62200000000001
 31
0.0
  0
LINE
  5
B9
  8
0
  6
AIGENLINE001
 62
     7
 10
155.79299999999989
 20
158.22200000000001
 30
0.0
 11
155.79299999999989
 21
157.62200000000001
 31
0.0
  0
LINE
  5
BA
  8
0
  6
AIGENLINE001
 62
     7
 10
155.79299999999989
 20
155.68700000000001
 30
0.0
 11
155.79299999999989
 21
154.22200000000001
 31
0.0
  0
ARC
  5
BB
  8
0
  6
AIGENLINE001
 62
     7
 10
151.07768899999991
 20
157.6370159999999
 30
0.0
 40
0.415762
 50
272.13756999999998
 51
357.91176899999999
  0
ARC
  5
BC
  8
0
  6
AIGENLINE001
 62
     7
 10
151.108396
 20
157.63670799999991
 30
0.0
 40
0.415442
 50
182.047347
 51
267.90335399999998
  0
LINE
  5
BD
  8
0
  6
AIGENLINE001
 62
     7
 10
150.429
 20
159.22200000000001
 30
0.0
 11
151.49299999999991
 21
158.22200000000001
 31
0.0
  0
ARC
  5
BE
  8
0
  6
AIGENLINE001
 62
     7
 10
134.27809500000001
 20
161.68503699999999
 30
0.0
 40
1.544006999999999
 50
192.49969899999991
 51
265.51458700000001
  0
ARC
  5
BF
  8
0
 62
     7
 10
133.8271949999999
 20
161.8360999999999
 30
0.0
 40
2.57281
 50
191.9670789999999
 51
246.71039200000001
  0
ARC
  5
C0
  8
0
 62
     7
 10
159.65068600000001
 20
663.05860700000005
 30
0.0
 40
502.83671099999998
 50
269.51548999999989
 51
269.999167
  0
ARC
  5
C1
  8
0
 62
     7
 10
162.8218169999999
 20
1048.248
 30
0.0
 40
888.03875399999993
 50
268.05252799999988
 51
269.52105699999993
  0
ARC
  5
C2
  8
0
 62
     7
 10
128.64694499999999
 20
169.43057699999989
 30
0.0
 40
0.5037440000000001
 50
180.1825879999999
 51
224.81905699999999
  0
ARC
  5
C3
  8
0
 62
     7
 10
130.35262900000001
 20
167.7287399999999
 30
0.0
 40
0.5067160000000001
 50
225.3745789999999
 51
269.7192
  0
ARC
  5
C4
  8
0
 62
     7
 10
132.43360299999989
 20
167.72892999999991
 30
0.0
 40
0.5069060000000001
 50
270.28955599999989
 51
314.61670600000002
  0
ARC
  5
C5
  8
0
 62
     7
 10
134.85345000000001
 20
168.71479500000001
 30
0.0
 40
0.5078260000000001
 50
90.371459999999985
 51
134.63012499999999
  0
ARC
  5
C6
  8
0
 62
     7
 10
164.8323199999999
 20
167.53383099999991
 30
0.0
 40
0.311307
 50
272.03032400000001
 51
357.90386699999999
  0
ARC
  5
C7
  8
0
 62
     7
 10
157.93424899999991
 20
168.71795399999991
 30
0.0
 40
0.50466
 50
45.223619999999997
 51
89.774754999999999
  0
ARC
  5
C8
  8
0
 62
     7
 10
160.35301100000001
 20
167.72932299999999
 30
0.0
 40
0.506609
 50
225.36964699999999
 51
269.72413099999989
  0
ARC
  5
C9
  8
0
 62
     7
 10
158.159065
 20
154.70918099999989
 30
0.0
 40
0.51582
 50
103.392906
 51
178.60186399999989
  0
ARC
  5
CA
  8
0
 62
     7
 10
157.124134
 20
154.74078700000001
 30
0.0
 40
0.5196130000000001
 50
272.13725799999997
 51
357.90222499999987
  0
ARC
  5
CB
  8
0
 62
     7
 10
150.08978999999999
 20
154.73798500000001
 30
0.0
 40
0.5166470000000001
 50
189.87069699999989
 51
268.416111
  0
LINE
  5
CC
  8
0
 62
     7
 10
95.370099999999994
 20
212.7759999999999
 30
0.0
 11
95.370099999999994
 21
202.16499999999999
 31
0.0
  0
LINE
  5
CD
  8
0
 62
     7
 10
37.38369999999999
 20
170.012
 30
0.0
 11
36.7911
 21
172.2229999999999
 31
0.0
  0
LINE
  5
CE
  8
0
 62
     7
 10
36.7911
 20
172.2229999999999
 30
0.0
 11
36.198399999999992
 21
170.012
 31
0.0
  0
LINE
  5
CF
  8
0
 62
     7
 10
36.198399999999992
 20
170.012
 30
0.0
 11
37.38369999999999
 21
170.012
 31
0.0
  0
LINE
  5
D0
  8
0
 62
     7
 10
36.213000000000001
 20
156.43199999999999
 30
0.0
 11
36.805599999999991
 21
154.221
 31
0.0
  0
LINE
  5
D1
  8
0
 62
     7
 10
36.805599999999991
 20
154.221
 30
0.0
 11
37.398299999999992
 21
156.43199999999999
 31
0.0
  0
LINE
  5
D2
  8
0
 62
     7
 10
37.398299999999992
 20
156.43199999999999
 30
0.0
 11
36.213000000000001
 21
156.43199999999999
 31
0.0
  0
LINE
  5
D3
  8
0
 62
     7
 10
36.79829999999999
 20
172.22200000000001
 30
0.0
 11
36.79829999999999
 21
154.22200000000001
 31
0.0
  0
LINE
  5
D4
  8
0
 62
     7
 10
45.369799999999991
 20
212.7759999999999
 30
0.0
 11
45.369799999999991
 21
202.16499999999999
 31
0.0
  0
LINE
  5
D5
  8
0
 62
     7
 10
111.515
 20
252.124
 30
0.0
 11
111.515
 21
244.1759999999999
 31
0.0
  0
LINE
  5
D6
  8
0
 62
     7
 10
169.0149999999999
 20
252.124
 30
0.0
 11
169.0149999999999
 21
244.1759999999999
 31
0.0
  0
LINE
  5
D7
  8
0
 62
     7
 10
145.0149999999999
 20
252.124
 30
0.0
 11
145.0149999999999
 21
246.2639999999999
 31
0.0
  0
LINE
  5
D8
  8
0
 62
     7
 10
121.015
 20
213.74299999999999
 30
0.0
 11
121.015
 21
206.00599999999989
 31
0.0
  0
LINE
  5
D9
  8
0
 62
     7
 10
160.2229999999999
 20
241.2649999999999
 30
0.0
 11
159.63
 21
243.47699999999989
 31
0.0
  0
LINE
  5
DA
  8
0
 62
     7
 10
159.63
 20
243.47699999999989
 30
0.0
 11
159.0379999999999
 21
241.2649999999999
 31
0.0
  0
LINE
  5
DB
  8
0
 62
     7
 10
159.0379999999999
 20
241.2649999999999
 30
0.0
 11
160.2229999999999
 21
241.2649999999999
 31
0.0
  0
LINE
  5
DC
  8
0
 62
     7
 10
159.05199999999999
 20
216.68599999999989
 30
0.0
 11
159.64500000000001
 21
214.47499999999999
 31
0.0
  0
LINE
  5
DD
  8
0
 62
     7
 10
159.64500000000001
 20
214.47499999999999
 30
0.0
 11
160.23699999999999
 21
216.68599999999989
 31
0.0
  0
LINE
  5
DE
  8
0
 62
     7
 10
160.23699999999999
 20
216.68599999999989
 30
0.0
 11
159.05199999999999
 21
216.68599999999989
 31
0.0
  0
LINE
  5
DF
  8
0
 62
     7
 10
159.637
 20
243.476
 30
0.0
 11
159.637
 21
214.476
 31
0.0
  0
LINE
  5
E0
  8
0
 62
     7
 10
121.015
 20
252.124
 30
0.0
 11
121.015
 21
244.1759999999999
 31
0.0
  0
LINE
  5
E1
  8
0
 62
     7
 10
116.515
 20
252.124
 30
0.0
 11
116.515
 21
244.1759999999999
 31
0.0
  0
LINE
  5
E2
  8
0
 62
     7
 10
121.015
 20
242.476
 30
0.0
 11
121.015
 21
215.476
 31
0.0
  0
LINE
  5
E3
  8
0
 62
     7
 10
97.870300000000015
 20
210.50499999999991
 30
0.0
 11
97.870300000000015
 21
195.59200000000001
 31
0.0
  0
LINE
  5
E4
  8
0
 62
     7
 10
42.869700000000002
 20
210.50499999999991
 30
0.0
 11
42.869700000000002
 21
195.59200000000001
 31
0.0
  0
LINE
  5
E5
  8
0
 62
     7
 10
122.49799999999991
 20
216.71000000000001
 30
0.0
 11
121.35299999999989
 21
214.727
 31
0.0
  0
LINE
  5
E6
  8
0
 62
     7
 10
121.35299999999989
 20
214.727
 30
0.0
 11
123.336
 21
215.87200000000001
 31
0.0
  0
LINE
  5
E7
  8
0
 62
     7
 10
123.336
 20
215.87200000000001
 30
0.0
 11
122.49799999999991
 21
216.71000000000001
 31
0.0
  0
LINE
  5
E8
  8
0
 62
     7
 10
127.0
 20
220.374
 30
0.0
 11
121.35299999999989
 21
214.727
 31
0.0
  0
LINE
  5
E9
  8
0
 62
     7
 10
127.0
 20
220.374
 30
0.0
 11
132.709
 21
220.374
 31
0.0
  0
LINE
  5
EA
  8
0
 62
     7
 10
115.31
 20
212.583
 30
0.0
 11
114.02200000000001
 21
214.476
 31
0.0
  0
LINE
  5
EB
  8
0
 62
     7
 10
114.02200000000001
 20
214.476
 30
0.0
 11
114.1899999999999
 21
212.19200000000001
 31
0.0
  0
LINE
  5
EC
  8
0
 62
     7
 10
114.1899999999999
 20
212.19200000000001
 30
0.0
 11
115.31
 21
212.583
 31
0.0
  0
LINE
  5
ED
  8
0
 62
     7
 10
119.352
 20
199.19900000000001
 30
0.0
 11
114.02200000000001
 21
214.476
 31
0.0
  0
LINE
  5
EE
  8
0
 62
     7
 10
119.352
 20
199.19900000000001
 30
0.0
 11
167.328
 21
199.19900000000001
 31
0.0
  0
LINE
  5
EF
  8
0
 62
     7
 10
123.336
 20
242.08000000000001
 30
0.0
 11
121.35299999999989
 21
243.22499999999991
 31
0.0
  0
LINE
  5
F0
  8
0
 62
     7
 10
121.35299999999989
 20
243.22499999999991
 30
0.0
 11
122.49799999999991
 21
241.24199999999999
 31
0.0
  0
LINE
  5
F1
  8
0
 62
     7
 10
122.49799999999991
 20
241.24199999999999
 30
0.0
 11
123.336
 21
242.08000000000001
 31
0.0
  0
LINE
  5
F2
  8
0
 62
     7
 10
127.0
 20
237.578
 30
0.0
 11
121.35299999999989
 21
243.22499999999991
 31
0.0
  0
LINE
  5
F3
  8
0
 62
     7
 10
127.0
 20
237.578
 30
0.0
 11
132.709
 21
237.578
 31
0.0
  0
LINE
  5
F4
  8
0
 62
     7
 10
73.035499999999999
 20
239.97900000000001
 30
0.0
 11
71.890299999999996
 21
237.99600000000001
 31
0.0
  0
LINE
  5
F5
  8
0
 62
     7
 10
71.890299999999996
 20
237.99600000000001
 30
0.0
 11
73.873500000000007
 21
239.14099999999999
 31
0.0
  0
LINE
  5
F6
  8
0
 62
     7
 10
73.873500000000007
 20
239.14099999999999
 30
0.0
 11
73.035499999999999
 21
239.97900000000001
 31
0.0
  0
LINE
  5
F7
  8
0
 62
     7
 10
67.704499999999996
 20
232.97300000000001
 30
0.0
 11
68.849599999999995
 21
234.9559999999999
 31
0.0
  0
LINE
  5
F8
  8
0
 62
     7
 10
68.849599999999995
 20
234.9559999999999
 30
0.0
 11
66.866500000000002
 21
233.81099999999989
 31
0.0
  0
LINE
  5
F9
  8
0
 62
     7
 10
66.866500000000002
 20
233.81099999999989
 30
0.0
 11
67.704499999999996
 21
232.97300000000001
 31
0.0
  0
LINE
  5
FA
  8
0
 62
     7
 10
65.398499999999999
 20
231.50399999999999
 30
0.0
 11
74.491699999999994
 21
240.59800000000001
 31
0.0
  0
LINE
  5
FB
  8
0
 62
     7
 10
57.628500000000003
 20
245.76499999999999
 30
0.0
 11
57.036000000000001
 21
247.977
 31
0.0
  0
LINE
  5
FC
  8
0
 62
     7
 10
57.036000000000001
 20
247.977
 30
0.0
 11
56.443300000000001
 21
245.76499999999999
 31
0.0
  0
LINE
  5
FD
  8
0
 62
     7
 10
56.443300000000001
 20
245.76499999999999
 30
0.0
 11
57.628500000000003
 21
245.76499999999999
 31
0.0
  0
LINE
  5
FE
  8
0
 62
     7
 10
56.457900000000002
 20
238.68700000000001
 30
0.0
 11
57.050499999999992
 21
236.47499999999991
 31
0.0
  0
LINE
  5
FF
  8
0
 62
     7
 10
57.050499999999992
 20
236.47499999999991
 30
0.0
 11
57.6432
 21
238.68700000000001
 31
0.0
  0
LINE
  5
100
  8
0
 62
     7
 10
57.6432
 20
238.68700000000001
 30
0.0
 11
56.457900000000002
 21
238.68700000000001
 31
0.0
  0
LINE
  5
101
  8
0
 62
     7
 10
57.043199999999999
 20
247.976
 30
0.0
 11
57.043199999999999
 21
236.47599999999991
 31
0.0
  0
LINE
  5
102
  8
0
 62
     7
 10
36.381100000000004
 20
208.7639999999999
 30
0.0
 11
35.788600000000002
 21
210.976
 31
0.0
  0
LINE
  5
103
  8
0
 62
     7
 10
35.788600000000002
 20
210.976
 30
0.0
 11
35.195799999999991
 21
208.7639999999999
 31
0.0
  0
LINE
  5
104
  8
0
 62
     7
 10
35.195799999999991
 20
208.7639999999999
 30
0.0
 11
36.381100000000004
 21
208.7639999999999
 31
0.0
  0
LINE
  5
105
  8
0
 62
     7
 10
36.381100000000004
 20
242.26400000000001
 30
0.0
 11
35.788600000000002
 21
244.476
 31
0.0
  0
LINE
  5
106
  8
0
 62
     7
 10
35.788600000000002
 20
244.476
 30
0.0
 11
35.195799999999991
 21
242.26400000000001
 31
0.0
  0
LINE
  5
107
  8
0
 62
     7
 10
35.195799999999991
 20
242.26400000000001
 30
0.0
 11
36.381100000000004
 21
242.26400000000001
 31
0.0
  0
LINE
  5
108
  8
0
 62
     7
 10
35.210500000000003
 20
250.1879999999999
 30
0.0
 11
35.802999999999997
 21
247.976
 31
0.0
  0
LINE
  5
109
  8
0
 62
     7
 10
35.802999999999997
 20
247.976
 30
0.0
 11
36.395800000000001
 21
250.1879999999999
 31
0.0
  0
LINE
  5
10A
  8
0
 62
     7
 10
36.395800000000001
 20
250.1879999999999
 30
0.0
 11
35.210500000000003
 21
250.1879999999999
 31
0.0
  0
LINE
  5
10B
  8
0
 62
     7
 10
35.210500000000003
 20
215.68799999999999
 30
0.0
 11
35.802999999999997
 21
213.47599999999991
 31
0.0
  0
LINE
  5
10C
  8
0
 62
     7
 10
35.802999999999997
 20
213.47599999999991
 30
0.0
 11
36.395800000000001
 21
215.68799999999999
 31
0.0
  0
LINE
  5
10D
  8
0
 62
     7
 10
36.395800000000001
 20
215.68799999999999
 30
0.0
 11
35.210500000000003
 21
215.68799999999999
 31
0.0
  0
LINE
  5
10E
  8
0
 62
     7
 10
35.795799999999993
 20
253.83199999999999
 30
0.0
 11
35.795799999999993
 21
205.309
 31
0.0
  0
LINE
  5
10F
  8
0
 62
     7
 10
123.801
 20
167.00999999999991
 30
0.0
 11
123.209
 21
169.22200000000001
 31
0.0
  0
LINE
  5
110
  8
0
 62
     7
 10
123.209
 20
169.22200000000001
 30
0.0
 11
122.6159999999999
 21
167.00999999999991
 31
0.0
  0
LINE
  5
111
  8
0
 62
     7
 10
122.6159999999999
 20
167.00999999999991
 30
0.0
 11
123.801
 21
167.00999999999991
 31
0.0
  0
LINE
  5
112
  8
0
 62
     7
 10
122.6159999999999
 20
174.434
 30
0.0
 11
123.209
 21
172.22200000000001
 31
0.0
  0
LINE
  5
113
  8
0
 62
     7
 10
123.209
 20
172.22200000000001
 30
0.0
 11
123.801
 21
174.434
 31
0.0
  0
LINE
  5
114
  8
0
 62
     7
 10
123.801
 20
174.434
 30
0.0
 11
122.6159999999999
 21
174.434
 31
0.0
  0
LINE
  5
115
  8
0
 62
     7
 10
123.209
 20
176.059
 30
0.0
 11
123.209
 21
164.94699999999989
 31
0.0
  0
LINE
  5
116
  8
0
 62
     7
 10
133.9679999999999
 20
169.22200000000001
 30
0.0
 11
122.509
 21
169.22200000000001
 31
0.0
  0
LINE
  5
117
  8
0
 62
     7
 10
127.4429999999999
 20
172.22200000000001
 30
0.0
 11
122.509
 21
172.22200000000001
 31
0.0
  0
LINE
  5
118
  8
0
 62
     7
 10
30.543900000000001
 20
245.76499999999999
 30
0.0
 11
29.951299999999989
 21
247.977
 31
0.0
  0
LINE
  5
119
  8
0
 62
     7
 10
29.951299999999989
 20
247.977
 30
0.0
 11
29.358599999999988
 21
245.76499999999999
 31
0.0
  0
LINE
  5
11A
  8
0
 62
     7
 10
29.358599999999988
 20
245.76499999999999
 30
0.0
 11
30.543900000000001
 21
245.76499999999999
 31
0.0
  0
LINE
  5
11B
  8
0
 62
     7
 10
29.373200000000001
 20
213.18599999999989
 30
0.0
 11
29.965800000000002
 21
210.97499999999999
 31
0.0
  0
LINE
  5
11C
  8
0
 62
     7
 10
29.965800000000002
 20
210.97499999999999
 30
0.0
 11
30.558499999999992
 21
213.18599999999989
 31
0.0
  0
LINE
  5
11D
  8
0
 62
     7
 10
30.558499999999992
 20
213.18599999999989
 30
0.0
 11
29.373200000000001
 21
213.18599999999989
 31
0.0
  0
LINE
  5
11E
  8
0
 62
     7
 10
29.958600000000001
 20
247.976
 30
0.0
 11
29.958600000000001
 21
210.976
 31
0.0
  0
ARC
  5
11F
  8
0
 62
     7
 10
46.38932299999999
 20
247.49563800000001
 30
0.0
 40
0.520023
 50
182.16022899999999
 51
267.859534
  0
ARC
  5
120
  8
0
 62
     7
 10
45.351170999999987
 20
247.45742499999989
 30
0.0
 40
0.518832
 50
2.0557629999999998
 51
87.944226999999998
  0
ARC
  5
121
  8
0
 62
     7
 10
70.369964999999993
 20
236.47594900000001
 30
0.0
 40
2.1500970000000001
 50
179.99996999999991
 51
270.00002000000001
  0
ARC
  5
122
  8
0
 62
     7
 10
70.369964999999993
 20
236.47595000000001
 30
0.0
 40
2.150097999999999
 50
270.00002000000001
 51
359.99998999999991
  0
ARC
  5
123
  8
0
 62
     7
 10
70.370051000000004
 20
236.47586299999989
 30
0.0
 40
2.1500119999999989
 50
0.002305
 51
90.002274999999983
  0
ARC
  5
124
  8
0
 62
     7
 10
70.369878999999983
 20
236.47586299999989
 30
0.0
 40
2.1500119999999989
 50
89.997705000000025
 51
179.9976749999999
  0
ARC
  5
125
  8
0
 62
     7
 10
70.370051000000004
 20
236.47586299999989
 30
0.0
 40
3.1499559999999991
 50
179.99840399999999
 51
269.99845299999998
  0
ARC
  5
126
  8
0
 62
     7
 10
70.369878999999983
 20
236.475864
 30
0.0
 40
3.1499570000000001
 50
270.00158599999992
 51
0.001557
  0
ARC
  5
127
  8
0
 62
     7
 10
70.369878999999983
 20
236.476035
 30
0.0
 40
3.1499570000000001
 50
359.99844300000001
 51
89.998413999999997
  0
ARC
  5
128
  8
0
 62
     7
 10
70.370052000000001
 20
236.476035
 30
0.0
 40
3.1499570000000001
 50
90.001567000000009
 51
180.00157699999991
  0
LINE
  5
129
  8
0
 62
     7
 10
97.866100000000003
 20
172.22200000000001
 30
0.0
 11
42.865900000000003
 21
172.22200000000001
 31
0.0
  0
LINE
  5
12A
  8
0
 62
     7
 10
42.866199999999999
 20
169.22200000000001
 30
0.0
 11
97.866100000000003
 21
169.22200000000001
 31
0.0
  0
LINE
  5
12B
  8
0
  6
AIGENLINE002
 62
     7
 10
70.3703
 20
173.9609999999999
 30
0.0
 11
70.3703
 21
152.54599999999991
 31
0.0
  0
LINE
  5
12C
  8
0
 62
     7
 10
42.865900000000003
 20
172.22200000000001
 30
0.0
 11
42.865900000000003
 21
169.22200000000001
 31
0.0
  0
LINE
  5
12D
  8
0
 62
     7
 10
67.180099999999996
 20
154.22200000000001
 30
0.0
 11
70.374099999999999
 21
154.22200000000001
 31
0.0
  0
ARC
  5
12E
  8
0
 62
     7
 10
67.274676999999997
 20
155.292891
 30
0.0
 40
1.0753469999999989
 50
240.90272499999989
 51
264.95600200000001
  0
ARC
  5
12F
  8
0
 62
     7
 10
67.189425
 20
155.04188400000001
 30
0.0
 40
0.81595
 50
189.49487099999999
 51
237.56043299999999
  0
ARC
  5
130
  8
0
 62
     7
 10
65.024107999999984
 20
157.80990299999991
 30
0.0
 40
1.0623169999999991
 50
60.792917000000003
 51
84.767697999999996
  0
ARC
  5
131
  8
0
 62
     7
 10
65.119425000000007
 20
158.08027200000001
 30
0.0
 40
0.781332
 50
7.8793320000000007
 51
57.216969999999989
  0
LINE
  5
132
  8
0
 62
     7
 10
66.384699999999995
 20
154.90700000000001
 30
0.0
 11
65.893399999999986
 21
158.18700000000001
 31
0.0
  0
LINE
  5
133
  8
0
 62
     7
 10
49.222799999999999
 20
159.75399999999991
 30
0.0
 11
49.4071
 21
158.422
 31
0.0
  0
LINE
  5
134
  8
0
 62
     7
 10
49.4071
 20
158.422
 30
0.0
 11
51.556899999999992
 21
158.422
 31
0.0
  0
LINE
  5
135
  8
0
 62
     7
 10
49.296500000000002
 20
159.22200000000001
 30
0.0
 11
70.376199999999997
 21
159.22200000000001
 31
0.0
  0
LINE
  5
136
  8
0
 62
     7
 10
51.556899999999992
 20
158.422
 30
0.0
 11
59.384500000000003
 21
158.422
 31
0.0
  0
LINE
  5
137
  8
0
 62
     7
 10
60.478299999999997
 20
159.00999999999991
 30
0.0
 11
59.384500000000003
 21
158.422
 31
0.0
  0
LINE
  5
138
  8
0
 62
     7
 10
66.252700000000004
 20
158.833
 30
0.0
 11
70.364800000000002
 21
158.78399999999991
 31
0.0
  0
LINE
  5
139
  8
0
 62
     7
 10
57.7164
 20
159.09399999999991
 30
0.0
 11
66.252700000000004
 21
158.833
 31
0.0
  0
LINE
  5
13A
  8
0
 62
     7
 10
49.07309999999999
 20
159.76599999999991
 30
0.0
 11
57.7164
 21
159.09399999999991
 31
0.0
  0
ARC
  5
13B
  8
0
 62
     7
 10
49.903178999999987
 20
163.34553299999999
 30
0.0
 40
3.8404500000000001
 50
194.78548599999999
 51
222.792486
  0
ARC
  5
13C
  8
0
 62
     7
 10
49.482802
 20
163.12719399999989
 30
0.0
 40
3.3859629999999989
 50
224.91423900000001
 51
263.0503799999999
  0
LINE
  5
13D
  8
0
 62
     7
 10
45.158799999999999
 20
167.22099999999989
 30
0.0
 11
46.189900000000002
 21
162.36500000000001
 31
0.0
  0
LINE
  5
13E
  8
0
 62
     7
 10
73.568100000000001
 20
154.22200000000001
 30
0.0
 11
70.374099999999999
 21
154.22200000000001
 31
0.0
  0
ARC
  5
13F
  8
0
 62
     7
 10
73.473522000000003
 20
155.292891
 30
0.0
 40
1.0753469999999989
 50
275.044017
 51
299.09729499999997
  0
ARC
  5
140
  8
0
 62
     7
 10
73.558774
 20
155.04188400000001
 30
0.0
 40
0.81595
 50
302.43958599999991
 51
350.50514900000002
  0
ARC
  5
141
  8
0
 62
     7
 10
75.724091000000001
 20
157.80990299999991
 30
0.0
 40
1.0623169999999991
 50
95.232281999999998
 51
119.20706300000001
  0
ARC
  5
142
  8
0
 62
     7
 10
75.628773999999993
 20
158.08027200000001
 30
0.0
 40
0.781332
 50
122.78301
 51
172.1206489999999
  0
LINE
  5
143
  8
0
 62
     7
 10
74.363500000000002
 20
154.90700000000001
 30
0.0
 11
74.854799999999983
 21
158.18700000000001
 31
0.0
  0
LINE
  5
144
  8
0
 62
     7
 10
97.866100000000003
 20
172.22200000000001
 30
0.0
 11
97.866100000000003
 21
169.22200000000001
 31
0.0
  0
LINE
  5
145
  8
0
 62
     7
 10
70.356899999999996
 20
210.976
 30
0.0
 11
51.356699999999996
 21
210.976
 31
0.0
  0
LINE
  5
146
  8
0
 62
     7
 10
70.356899999999996
 20
212.6809999999999
 30
0.0
 11
51.356699999999996
 21
212.6809999999999
 31
0.0
  0
LINE
  5
147
  8
0
 62
     7
 10
70.356899999999996
 20
212.53200000000001
 30
0.0
 11
51.356699999999996
 21
212.53200000000001
 31
0.0
  0
LINE
  5
148
  8
0
 62
     7
 10
70.356899999999996
 20
211.92199999999991
 30
0.0
 11
51.356699999999996
 21
211.92199999999991
 31
0.0
  0
LINE
  5
149
  8
0
 62
     7
 10
70.356899999999996
 20
211.77199999999999
 30
0.0
 11
51.356699999999996
 21
211.77199999999999
 31
0.0
  0
LINE
  5
14A
  8
0
 62
     7
 10
70.356899999999996
 20
247.976
 30
0.0
 11
51.356699999999996
 21
247.976
 31
0.0
  0
ARC
  5
14B
  8
0
 62
     7
 10
96.420232999999996
 20
246.8412999999999
 30
0.0
 40
1.456780999999999
 50
5.5154839999999998
 51
26.136783999999992
  0
ARC
  5
14C
  8
0
 62
     7
 10
96.933123999999992
 20
247.04506799999999
 30
0.0
 40
0.907592
 50
28.852689000000002
 51
76.687988000000004
  0
ARC
  5
14D
  8
0
 62
     7
 10
96.743217000000001
 20
246.433772
 30
0.0
 40
1.5468159999999991
 50
75.056056000000012
 51
85.548947000000013
  0
LINE
  5
14E
  8
0
  6
AIGENLINE002
 62
     7
 10
70.370000000000005
 20
208.97200000000001
 30
0.0
 11
70.370000000000005
 21
249.50999999999991
 31
0.0
  0
LINE
  5
14F
  8
0
  6
AIGENLINE002
 62
     7
 10
65.421400000000006
 20
236.47599999999991
 30
0.0
 11
75.125900000000001
 21
236.47599999999991
 31
0.0
  0
LINE
  5
150
  8
0
 62
     7
 10
70.356899999999996
 20
247.976
 30
0.0
 11
96.863299999999995
 21
247.976
 31
0.0
  0
LINE
  5
151
  8
0
 62
     7
 10
70.356899999999996
 20
211.77199999999999
 30
0.0
 11
89.370500000000007
 21
211.77199999999999
 31
0.0
  0
LINE
  5
152
  8
0
 62
     7
 10
70.356899999999996
 20
211.92199999999991
 30
0.0
 11
89.370500000000007
 21
211.92199999999991
 31
0.0
  0
LINE
  5
153
  8
0
 62
     7
 10
70.356899999999996
 20
212.53200000000001
 30
0.0
 11
89.370500000000007
 21
212.53200000000001
 31
0.0
  0
LINE
  5
154
  8
0
 62
     7
 10
70.356899999999996
 20
212.6809999999999
 30
0.0
 11
89.370500000000007
 21
212.6809999999999
 31
0.0
  0
LINE
  5
155
  8
0
 62
     7
 10
70.356899999999996
 20
210.976
 30
0.0
 11
89.370500000000007
 21
210.976
 31
0.0
  0
LINE
  5
156
  8
0
 62
     7
 10
51.356699999999996
 20
212.53200000000001
 30
0.0
 11
45.417000000000002
 21
212.53200000000001
 31
0.0
  0
LINE
  5
157
  8
0
 62
     7
 10
44.808599999999991
 20
246.03399999999999
 30
0.0
 11
70.356899999999996
 21
246.03399999999999
 31
0.0
  0
ARC
  5
158
  8
0
 62
     7
 10
45.275123000000001
 20
244.87798000000001
 30
0.0
 40
1.469066999999999
 50
153.86673999999999
 51
174.1817639999999
  0
ARC
  5
159
  8
0
 62
     7
 10
44.778472999999991
 20
245.07502699999989
 30
0.0
 40
0.9373319999999999
 50
104.328085
 51
151.30767399999991
  0
ARC
  5
15A
  8
0
 62
     7
 10
44.977363999999987
 20
244.47491099999999
 30
0.0
 40
1.5686239999999989
 50
96.177234999999996
 51
105.942448
  0
LINE
  5
15B
  8
0
 62
     7
 10
43.813599999999987
 20
212.929
 30
0.0
 11
43.813599999999987
 21
245.02699999999999
 31
0.0
  0
ARC
  5
15C
  8
0
 62
     7
 10
44.974040000000002
 20
213.37814
 30
0.0
 40
1.4650879999999991
 50
243.2156479999999
 51
263.51518399999992
  0
ARC
  5
15D
  8
0
 62
     7
 10
44.774090999999999
 20
212.88783199999989
 30
0.0
 40
0.9382419999999999
 50
193.675411
 51
240.62229999999991
  0
ARC
  5
15E
  8
0
 62
     7
 10
45.383808000000002
 20
213.08432500000001
 30
0.0
 40
1.5778229999999991
 50
185.63993400000001
 51
195.37410199999999
  0
LINE
  5
15F
  8
0
 62
     7
 10
51.356699999999996
 20
211.92199999999991
 30
0.0
 11
44.808599999999991
 21
211.92199999999991
 31
0.0
  0
LINE
  5
160
  8
0
 62
     7
 10
42.869700000000002
 20
211.97200000000001
 30
0.0
 11
42.869700000000002
 21
246.98099999999991
 31
0.0
  0
ARC
  5
161
  8
0
 62
     7
 10
44.008887999999992
 20
212.434583
 30
0.0
 40
1.4659919999999991
 50
244.00389200000001
 51
264.35205200000001
  0
ARC
  5
162
  8
0
 62
     7
 10
43.803874
 20
211.91582799999989
 30
0.0
 40
0.9108819999999999
 50
193.9390709999999
 51
241.29155700000001
  0
ARC
  5
163
  8
0
 62
     7
 10
44.404567
 20
212.10886199999999
 30
0.0
 40
1.5409769999999989
 50
185.08766
 51
195.52502200000001
  0
LINE
  5
164
  8
0
 62
     7
 10
51.356699999999996
 20
210.976
 30
0.0
 11
43.864600000000003
 21
210.976
 31
0.0
  0
LINE
  5
165
  8
0
 62
     7
 10
44.659100000000002
 20
211.77199999999999
 30
0.0
 11
51.356699999999996
 21
211.77199999999999
 31
0.0
  0
ARC
  5
166
  8
0
 62
     7
 10
45.117178999999993
 20
212.90277099999989
 30
0.0
 40
1.4571700000000001
 50
184.80920599999999
 51
205.40248199999999
  0
ARC
  5
167
  8
0
 62
     7
 10
44.603982000000002
 20
212.7073419999999
 30
0.0
 40
0.910801
 50
208.14715200000001
 51
255.82757899999999
  0
ARC
  5
168
  8
0
 62
     7
 10
44.806463000000001
 20
213.3236389999999
 30
0.0
 40
1.5585789999999999
 50
254.1574959999999
 51
264.57294799999988
  0
LINE
  5
169
  8
0
 62
     7
 10
43.665100000000002
 20
245.1759999999999
 30
0.0
 11
43.665100000000002
 21
212.78099999999989
 31
0.0
  0
ARC
  5
16A
  8
0
 62
     7
 10
44.801580999999992
 20
244.73013700000001
 30
0.0
 40
1.4607779999999999
 50
95.599156999999991
 51
116.149182
  0
ARC
  5
16B
  8
0
 62
     7
 10
44.597144999999998
 20
245.24639099999999
 30
0.0
 40
0.9083319999999998
 50
118.9261029999999
 51
166.71575899999999
  0
ARC
  5
16C
  8
0
 62
     7
 10
45.21669099999999
 20
245.05285799999999
 30
0.0
 40
1.556451
 50
165.02238899999989
 51
175.45298500000001
  0
LINE
  5
16D
  8
0
 62
     7
 10
70.356899999999996
 20
246.184
 30
0.0
 11
44.659100000000002
 21
246.184
 31
0.0
  0
ARC
  5
16E
  8
0
 62
     7
 10
43.976793000000001
 20
246.53920400000001
 30
0.0
 40
1.441092
 50
94.464701999999974
 51
114.81596
  0
ARC
  5
16F
  8
0
 62
     7
 10
43.780683000000003
 20
247.061013
 30
0.0
 40
0.8861079999999999
 50
117.46825200000001
 51
166.17507099999989
  0
ARC
  5
170
  8
0
 62
     7
 10
44.392218
 20
246.86715799999999
 30
0.0
 40
1.526831
 50
164.5946679999999
 51
175.71200300000001
  0
LINE
  5
171
  8
0
 62
     7
 10
65.732500000000002
 20
154.22200000000001
 30
0.0
 11
36.098300000000002
 21
154.22200000000001
 31
0.0
  0
LINE
  5
172
  8
0
 62
     7
 10
42.16579999999999
 20
172.22200000000001
 30
0.0
 11
36.098300000000002
 21
172.22200000000001
 31
0.0
  0
LINE
  5
173
  8
0
 62
     7
 10
44.67179999999999
 20
210.976
 30
0.0
 11
29.258500000000002
 21
210.976
 31
0.0
  0
LINE
  5
174
  8
0
 62
     7
 10
109.3029999999999
 20
250.8309999999999
 30
0.0
 11
111.515
 21
251.42400000000001
 31
0.0
  0
LINE
  5
175
  8
0
 62
     7
 10
111.515
 20
251.42400000000001
 30
0.0
 11
109.3029999999999
 21
252.01699999999991
 31
0.0
  0
LINE
  5
176
  8
0
 62
     7
 10
109.3029999999999
 20
252.01699999999991
 30
0.0
 11
109.3029999999999
 21
250.8309999999999
 31
0.0
  0
LINE
  5
177
  8
0
 62
     7
 10
142.804
 20
250.8309999999999
 30
0.0
 11
145.0149999999999
 21
251.42400000000001
 31
0.0
  0
LINE
  5
178
  8
0
 62
     7
 10
145.0149999999999
 20
251.42400000000001
 30
0.0
 11
142.804
 21
252.01699999999991
 31
0.0
  0
LINE
  5
179
  8
0
 62
     7
 10
142.804
 20
252.01699999999991
 30
0.0
 11
142.804
 21
250.8309999999999
 31
0.0
  0
LINE
  5
17A
  8
0
 62
     7
 10
166.80399999999989
 20
250.8309999999999
 30
0.0
 11
169.0149999999999
 21
251.42400000000001
 31
0.0
  0
LINE
  5
17B
  8
0
 62
     7
 10
169.0149999999999
 20
251.42400000000001
 30
0.0
 11
166.80399999999989
 21
252.01699999999991
 31
0.0
  0
LINE
  5
17C
  8
0
 62
     7
 10
166.80399999999989
 20
252.01699999999991
 30
0.0
 11
166.80399999999989
 21
250.8309999999999
 31
0.0
  0
LINE
  5
17D
  8
0
 62
     7
 10
180.83600000000001
 20
252.04300000000001
 30
0.0
 11
178.624
 21
251.4499999999999
 31
0.0
  0
LINE
  5
17E
  8
0
 62
     7
 10
178.624
 20
251.4499999999999
 30
0.0
 11
180.83600000000001
 21
250.857
 31
0.0
  0
LINE
  5
17F
  8
0
 62
     7
 10
180.83600000000001
 20
250.857
 30
0.0
 11
180.83600000000001
 21
252.04300000000001
 31
0.0
  0
LINE
  5
180
  8
0
 62
     7
 10
147.22699999999989
 20
252.01599999999999
 30
0.0
 11
145.0149999999999
 21
251.42400000000001
 31
0.0
  0
LINE
  5
181
  8
0
 62
     7
 10
145.0149999999999
 20
251.42400000000001
 30
0.0
 11
147.22699999999989
 21
250.8309999999999
 31
0.0
  0
LINE
  5
182
  8
0
 62
     7
 10
147.22699999999989
 20
250.8309999999999
 30
0.0
 11
147.22699999999989
 21
252.01599999999999
 31
0.0
  0
LINE
  5
183
  8
0
 62
     7
 10
123.2269999999999
 20
252.01599999999999
 30
0.0
 11
121.015
 21
251.42400000000001
 31
0.0
  0
LINE
  5
184
  8
0
 62
     7
 10
121.015
 20
251.42400000000001
 30
0.0
 11
123.2269999999999
 21
250.8309999999999
 31
0.0
  0
LINE
  5
185
  8
0
 62
     7
 10
123.2269999999999
 20
250.8309999999999
 30
0.0
 11
123.2269999999999
 21
252.01599999999999
 31
0.0
  0
LINE
  5
186
  8
0
 62
     7
 10
182.387
 20
251.42400000000001
 30
0.0
 11
108.068
 21
251.42400000000001
 31
0.0
  0
LINE
  5
187
  8
0
 62
     7
 10
166.80500000000001
 20
206.11999999999989
 30
0.0
 11
169.01699999999991
 21
206.71299999999999
 31
0.0
  0
LINE
  5
188
  8
0
 62
     7
 10
169.01699999999991
 20
206.71299999999999
 30
0.0
 11
166.80500000000001
 21
207.3059999999999
 31
0.0
  0
LINE
  5
189
  8
0
 62
     7
 10
166.80500000000001
 20
207.3059999999999
 30
0.0
 11
166.80500000000001
 21
206.11999999999989
 31
0.0
  0
LINE
  5
18A
  8
0
 62
     7
 10
123.2259999999999
 20
207.29099999999991
 30
0.0
 11
121.0139999999999
 21
206.69800000000001
 31
0.0
  0
LINE
  5
18B
  8
0
 62
     7
 10
121.0139999999999
 20
206.69800000000001
 30
0.0
 11
123.2259999999999
 21
206.10599999999991
 31
0.0
  0
LINE
  5
18C
  8
0
 62
     7
 10
123.2259999999999
 20
206.10599999999991
 30
0.0
 11
123.2259999999999
 21
207.29099999999991
 31
0.0
  0
LINE
  5
18D
  8
0
 62
     7
 10
169.0149999999999
 20
206.70599999999999
 30
0.0
 11
121.015
 21
206.70599999999999
 31
0.0
  0
LINE
  5
18E
  8
0
 62
     7
 10
162.93299999999991
 20
146.78399999999991
 30
0.0
 11
165.14400000000001
 21
147.37700000000001
 31
0.0
  0
LINE
  5
18F
  8
0
 62
     7
 10
165.14400000000001
 20
147.37700000000001
 30
0.0
 11
162.93299999999991
 21
147.96899999999991
 31
0.0
  0
LINE
  5
190
  8
0
 62
     7
 10
162.93299999999991
 20
147.96899999999991
 30
0.0
 11
162.93299999999991
 21
146.78399999999991
 31
0.0
  0
LINE
  5
191
  8
0
 62
     7
 10
155.8539999999999
 20
147.95500000000001
 30
0.0
 11
153.64199999999991
 21
147.36199999999991
 31
0.0
  0
LINE
  5
192
  8
0
 62
     7
 10
153.64199999999991
 20
147.36199999999991
 30
0.0
 11
155.8539999999999
 21
146.77000000000001
 31
0.0
  0
LINE
  5
193
  8
0
 62
     7
 10
155.8539999999999
 20
146.77000000000001
 30
0.0
 11
155.8539999999999
 21
147.95500000000001
 31
0.0
  0
LINE
  5
194
  8
0
 62
     7
 10
165.14299999999989
 20
147.37
 30
0.0
 11
153.643
 21
147.37
 31
0.0
  0
LINE
  5
195
  8
0
 62
     7
 10
153.62299999999991
 20
159.22200000000001
 30
0.0
 11
151.12899999999991
 21
159.22200000000001
 31
0.0
  0
LINE
  5
196
  8
0
 62
     7
 10
40.651200000000003
 20
202.273
 30
0.0
 11
42.862900000000003
 21
202.86500000000001
 31
0.0
  0
LINE
  5
197
  8
0
 62
     7
 10
42.862900000000003
 20
202.86500000000001
 30
0.0
 11
40.651200000000003
 21
203.458
 31
0.0
  0
LINE
  5
198
  8
0
 62
     7
 10
40.651200000000003
 20
203.458
 30
0.0
 11
40.651200000000003
 21
202.273
 31
0.0
  0
LINE
  5
199
  8
0
 62
     7
 10
93.158399999999986
 20
202.273
 30
0.0
 11
95.370099999999994
 21
202.86500000000001
 31
0.0
  0
LINE
  5
19A
  8
0
 62
     7
 10
95.370099999999994
 20
202.86500000000001
 30
0.0
 11
93.158399999999986
 21
203.458
 31
0.0
  0
LINE
  5
19B
  8
0
 62
     7
 10
93.158399999999986
 20
203.458
 30
0.0
 11
93.158399999999986
 21
202.273
 31
0.0
  0
LINE
  5
19C
  8
0
 62
     7
 10
100.08199999999999
 20
203.458
 30
0.0
 11
97.870300000000015
 21
202.86500000000001
 31
0.0
  0
LINE
  5
19D
  8
0
 62
     7
 10
97.870300000000015
 20
202.86500000000001
 30
0.0
 11
100.08199999999999
 21
202.27199999999999
 31
0.0
  0
LINE
  5
19E
  8
0
 62
     7
 10
100.08199999999999
 20
202.27199999999999
 30
0.0
 11
100.08199999999999
 21
203.458
 31
0.0
  0
LINE
  5
19F
  8
0
 62
     7
 10
47.581499999999991
 20
203.458
 30
0.0
 11
45.369799999999991
 21
202.86500000000001
 31
0.0
  0
LINE
  5
1A0
  8
0
 62
     7
 10
45.369799999999991
 20
202.86500000000001
 30
0.0
 11
47.581499999999991
 21
202.27199999999999
 31
0.0
  0
LINE
  5
1A1
  8
0
 62
     7
 10
47.581499999999991
 20
202.27199999999999
 30
0.0
 11
47.581499999999991
 21
203.458
 31
0.0
  0
LINE
  5
1A2
  8
0
 62
     7
 10
103.851
 20
202.86500000000001
 30
0.0
 11
37.372999999999998
 21
202.86500000000001
 31
0.0
  0
LINE
  5
1A3
  8
0
 62
     7
 10
95.659499999999994
 20
195.70599999999999
 30
0.0
 11
97.871300000000005
 21
196.29899999999989
 31
0.0
  0
LINE
  5
1A4
  8
0
 62
     7
 10
97.871300000000005
 20
196.29899999999989
 30
0.0
 11
95.659499999999994
 21
196.89199999999991
 31
0.0
  0
LINE
  5
1A5
  8
0
 62
     7
 10
95.659499999999994
 20
196.89199999999991
 30
0.0
 11
95.659499999999994
 21
195.70599999999999
 31
0.0
  0
LINE
  5
1A6
  8
0
 62
     7
 10
45.080399999999997
 20
196.87700000000001
 30
0.0
 11
42.868599999999986
 21
196.28399999999999
 31
0.0
  0
LINE
  5
1A7
  8
0
 62
     7
 10
42.868599999999986
 20
196.28399999999999
 30
0.0
 11
45.080399999999997
 21
195.69200000000001
 31
0.0
  0
LINE
  5
1A8
  8
0
 62
     7
 10
45.080399999999997
 20
195.69200000000001
 30
0.0
 11
45.080399999999997
 21
196.87700000000001
 31
0.0
  0
LINE
  5
1A9
  8
0
 62
     7
 10
97.870300000000015
 20
196.292
 30
0.0
 11
42.869700000000002
 21
196.292
 31
0.0
  0
LINE
  5
1AA
  8
0
 62
     7
 10
44.67179999999999
 20
213.47599999999991
 30
0.0
 11
35.09579999999999
 21
213.47599999999991
 31
0.0
  0
LINE
  5
1AB
  8
0
 62
     7
 10
65.398499999999999
 20
231.50399999999999
 30
0.0
 11
59.621400000000001
 21
231.50399999999999
 31
0.0
  0
LINE
  5
1AC
  8
0
 62
     7
 10
64.721400000000003
 20
236.47599999999991
 30
0.0
 11
56.343200000000003
 21
236.47599999999991
 31
0.0
  0
LINE
  5
1AD
  8
0
 62
     7
 10
44.67179999999999
 20
244.476
 30
0.0
 11
35.09579999999999
 21
244.476
 31
0.0
  0
LINE
  5
1AE
  8
0
 62
     7
 10
42.305399999999999
 20
247.976
 30
0.0
 11
29.258500000000002
 21
247.976
 31
0.0
  0
LINE
  5
1AF
  8
0
 62
     7
 10
51.356699999999996
 20
247.976
 30
0.0
 11
43.864600000000003
 21
247.976
 31
0.0
  0
ARC
  5
1B0
  8
0
 62
     7
 10
96.738425000000007
 20
245.523493
 30
0.0
 40
1.45784
 50
64.503633999999991
 51
85.087681000000003
  0
ARC
  5
1B1
  8
0
 62
     7
 10
96.934636999999995
 20
246.03660600000001
 30
0.0
 40
0.9112899999999999
 50
14.090806000000001
 51
61.750696999999988
  0
ARC
  5
1B2
  8
0
 62
     7
 10
96.321842000000004
 20
245.83604
 30
0.0
 40
1.5551360000000001
 50
5.3240449999999999
 51
15.761498
  0
LINE
  5
1B3
  8
0
 62
     7
 10
46.369899999999987
 20
246.97599999999991
 30
0.0
 11
96.863299999999995
 21
246.97599999999991
 31
0.0
  0
LINE
  5
1B4
  8
0
 62
     7
 10
95.918999999999997
 20
246.03399999999999
 30
0.0
 11
70.356899999999996
 21
246.03399999999999
 31
0.0
  0
ARC
  5
1B5
  8
0
 62
     7
 10
95.462237000000002
 20
244.90537699999999
 30
0.0
 40
1.4560589999999991
 50
4.7875959999999989
 51
25.394414999999999
  0
ARC
  5
1B6
  8
0
 62
     7
 10
95.975949999999997
 20
245.100686
 30
0.0
 40
0.9092839999999998
 50
28.159662000000001
 51
75.917805000000001
  0
ARC
  5
1B7
  8
0
 62
     7
 10
95.775031000000013
 20
244.48775699999999
 30
0.0
 40
1.5533529999999991
 50
74.230151000000006
 51
84.683689999999999
  0
LINE
  5
1B8
  8
0
 62
     7
 10
96.913200000000003
 20
212.929
 30
0.0
 11
96.913200000000003
 21
245.02699999999999
 31
0.0
  0
ARC
  5
1B9
  8
0
 62
     7
 10
95.776461999999995
 20
213.37532599999989
 30
0.0
 40
1.45987
 50
275.6013529999999
 51
296.16524099999998
  0
ARC
  5
1BA
  8
0
 62
     7
 10
95.980648000000016
 20
212.861042
 30
0.0
 40
0.9092909999999999
 50
298.90837499999992
 51
346.63344699999999
  0
ARC
  5
1BB
  8
0
 62
     7
 10
95.370868000000002
 20
213.05131299999991
 30
0.0
 40
1.547169
 50
344.99832400000003
 51
355.47544499999998
  0
LINE
  5
1BC
  8
0
 62
     7
 10
89.370500000000007
 20
211.92199999999991
 30
0.0
 11
95.918999999999997
 21
211.92199999999991
 31
0.0
  0
LINE
  5
1BD
  8
0
 62
     7
 10
96.068500000000014
 20
246.184
 30
0.0
 11
70.356899999999996
 21
246.184
 31
0.0
  0
ARC
  5
1BE
  8
0
 62
     7
 10
95.608005000000006
 20
245.05480099999991
 30
0.0
 40
1.4597889999999989
 50
4.772259
 51
25.346786999999999
  0
ARC
  5
1BF
  8
0
 62
     7
 10
96.127086000000006
 20
245.2518839999999
 30
0.0
 40
0.9073809999999999
 50
28.132926000000001
 51
75.97755699999999
  0
ARC
  5
1C0
  8
0
 62
     7
 10
95.923637999999997
 20
244.62857099999999
 30
0.0
 40
1.5621039999999999
 50
74.277056000000002
 51
84.680012000000005
  0
LINE
  5
1C1
  8
0
 62
     7
 10
97.062700000000007
 20
212.78099999999989
 30
0.0
 11
97.062700000000007
 21
245.1759999999999
 31
0.0
  0
ARC
  5
1C2
  8
0
 62
     7
 10
95.923476000000008
 20
213.22800099999989
 30
0.0
 40
1.463155999999999
 50
275.68729200000001
 51
296.21131700000001
  0
ARC
  5
1C3
  8
0
 62
     7
 10
96.129037999999994
 20
212.71188100000001
 30
0.0
 40
0.9103569999999999
 50
298.95246099999991
 51
346.65829500000001
  0
ARC
  5
1C4
  8
0
 62
     7
 10
95.516807999999983
 20
212.90274500000001
 30
0.0
 40
1.5507429999999991
 50
345.01631099999992
 51
355.48260199999999
  0
LINE
  5
1C5
  8
0
 62
     7
 10
89.370500000000007
 20
211.77199999999999
 30
0.0
 11
96.068500000000014
 21
211.77199999999999
 31
0.0
  0
LINE
  5
1C6
  8
0
 62
     7
 10
97.870300000000015
 20
211.97200000000001
 30
0.0
 11
97.870300000000015
 21
246.98099999999991
 31
0.0
  0
ARC
  5
1C7
  8
0
 62
     7
 10
96.712964000000014
 20
212.44493499999999
 30
0.0
 40
1.4768939999999999
 50
275.84089
 51
296.05580200000003
  0
ARC
  5
1C8
  8
0
 62
     7
 10
96.912712999999997
 20
211.93853499999989
 30
0.0
 40
0.9352109999999999
 50
298.69028600000001
 51
345.81013400000001
  0
ARC
  5
1C9
  8
0
 62
     7
 10
96.307762999999994
 20
212.13818900000001
 30
0.0
 40
1.5712969999999991
 50
344.15928999999988
 51
353.93638099999993
  0
LINE
  5
1CA
  8
0
 62
     7
 10
89.370500000000007
 20
210.976
 30
0.0
 11
96.863299999999995
 21
210.976
 31
0.0
  0
LINE
  5
1CB
  8
0
 62
     7
 10
43.602400000000003
 20
167.22099999999989
 30
0.0
 11
97.012799999999999
 21
167.22099999999989
 31
0.0
  0
LINE
  5
1CC
  8
0
 62
     7
 10
42.865900000000003
 20
169.22200000000001
 30
0.0
 11
43.602400000000003
 21
167.22099999999989
 31
0.0
  0
LINE
  5
1CD
  8
0
 62
     7
 10
91.525400000000005
 20
159.75399999999991
 30
0.0
 11
91.341099999999983
 21
158.422
 31
0.0
  0
LINE
  5
1CE
  8
0
 62
     7
 10
91.341099999999983
 20
158.422
 30
0.0
 11
89.191299999999998
 21
158.422
 31
0.0
  0
LINE
  5
1CF
  8
0
 62
     7
 10
91.451700000000002
 20
159.22200000000001
 30
0.0
 11
70.372
 21
159.22200000000001
 31
0.0
  0
LINE
  5
1D0
  8
0
 62
     7
 10
89.191299999999998
 20
158.422
 30
0.0
 11
81.363699999999994
 21
158.422
 31
0.0
  0
LINE
  5
1D1
  8
0
 62
     7
 10
80.269900000000007
 20
159.00999999999991
 30
0.0
 11
81.363699999999994
 21
158.422
 31
0.0
  0
LINE
  5
1D2
  8
0
 62
     7
 10
95.602999999999994
 20
167.22099999999989
 30
0.0
 11
97.369
 21
167.22099999999989
 31
0.0
  0
LINE
  5
1D3
  8
0
 62
     7
 10
97.369
 20
167.22099999999989
 30
0.0
 11
97.866100000000003
 21
169.22200000000001
 31
0.0
  0
LINE
  5
1D4
  8
0
 62
     7
 10
45.566200000000002
 20
212.6809999999999
 30
0.0
 11
51.356699999999996
 21
212.6809999999999
 31
0.0
  0
ARC
  5
1D5
  8
0
 62
     7
 10
46.017406000000001
 20
213.81886499999999
 30
0.0
 40
1.464488999999999
 50
185.57154899999989
 51
206.087962
  0
ARC
  5
1D6
  8
0
 62
     7
 10
45.498034999999987
 20
213.61287799999991
 30
0.0
 40
0.9084849999999999
 50
208.825647
 51
256.600908
  0
ARC
  5
1D7
  8
0
 62
     7
 10
45.688555999999998
 20
214.22186400000001
 30
0.0
 40
1.5456769999999991
 50
254.961769
 51
265.45801999999998
  0
LINE
  5
1D8
  8
0
 62
     7
 10
44.559800000000003
 20
244.28
 30
0.0
 11
44.559800000000003
 21
213.67699999999999
 31
0.0
  0
ARC
  5
1D9
  8
0
 62
     7
 10
45.691572999999991
 20
243.817566
 30
0.0
 40
1.463802
 50
94.915110999999996
 51
115.4028659999999
  0
ARC
  5
1DA
  8
0
 62
     7
 10
45.492939
 20
244.33929199999989
 30
0.0
 40
0.908394
 50
118.203281
 51
165.99415799999991
  0
ARC
  5
1DB
  8
0
 62
     7
 10
46.117240999999993
 20
244.13565399999999
 30
0.0
 40
1.5641119999999999
 50
164.290908
 51
174.69211399999989
  0
LINE
  5
1DC
  8
0
 62
     7
 10
70.356899999999996
 20
245.27600000000001
 30
0.0
 11
45.566200000000002
 21
245.27600000000001
 31
0.0
  0
ARC
  5
1DD
  8
0
 62
     7
 10
46.818370000000002
 20
214.58721
 30
0.0
 40
1.4531350000000001
 50
184.53436499999989
 51
204.72020900000001
  0
ARC
  5
1DE
  8
0
 62
     7
 10
46.285959999999989
 20
214.38797700000001
 30
0.0
 40
0.8871769999999999
 50
207.41244699999999
 51
256.06666000000001
  0
ARC
  5
1DF
  8
0
 62
     7
 10
46.480465999999993
 20
214.99858399999991
 30
0.0
 40
1.527223999999999
 50
254.500046
 51
265.61508199999992
  0
ARC
  5
1E0
  8
0
 62
     7
 10
45.870161999999993
 20
213.66947200000001
 30
0.0
 40
1.4657359999999999
 50
185.57171199999999
 51
206.06860900000001
  0
ARC
  5
1E1
  8
0
 62
     7
 10
45.348041999999992
 20
213.462267
 30
0.0
 40
0.906712
 50
208.80691200000001
 51
256.6382319999999
  0
ARC
  5
1E2
  8
0
 62
     7
 10
45.53772
 20
214.07355299999989
 30
0.0
 40
1.545890999999999
 50
255.03410600000001
 51
265.52047299999992
  0
LINE
  5
1E3
  8
0
 62
     7
 10
44.411399999999993
 20
244.43000000000001
 30
0.0
 11
44.411399999999993
 21
213.52699999999999
 31
0.0
  0
ARC
  5
1E4
  8
0
 62
     7
 10
45.567576000000003
 20
243.97631699999991
 30
0.0
 40
1.46984
 50
95.88064300000002
 51
116.31528299999999
  0
ARC
  5
1E5
  8
0
 62
     7
 10
45.367739999999998
 20
244.477643
 30
0.0
 40
0.9328749999999999
 50
118.96435700000001
 51
165.72893099999999
  0
ARC
  5
1E6
  8
0
 62
     7
 10
45.968961
 20
244.28034700000001
 30
0.0
 40
1.56477
 50
164.1542169999999
 51
174.516873
  0
LINE
  5
1E7
  8
0
 62
     7
 10
70.356899999999996
 20
245.43799999999999
 30
0.0
 11
45.417000000000002
 21
245.43799999999999
 31
0.0
  0
LINE
  5
1E8
  8
0
 62
     7
 10
95.309899999999999
 20
245.43799999999999
 30
0.0
 11
70.356899999999996
 21
245.43799999999999
 31
0.0
  0
ARC
  5
1E9
  8
0
 62
     7
 10
94.852936999999983
 20
244.28155599999999
 30
0.0
 40
1.4717649999999991
 50
5.7834519999999987
 51
26.213812999999998
  0
ARC
  5
1EA
  8
0
 62
     7
 10
95.355791999999994
 20
244.48147700000001
 30
0.0
 40
0.9332979999999999
 50
28.839930999999989
 51
75.610466000000002
  0
ARC
  5
1EB
  8
0
 62
     7
 10
95.157313000000002
 20
243.88162999999989
 30
0.0
 40
1.564247999999999
 50
74.028570000000002
 51
84.403632999999985
  0
LINE
  5
1EC
  8
0
 62
     7
 10
96.317200000000014
 20
213.52699999999999
 30
0.0
 11
96.317200000000014
 21
244.43000000000001
 31
0.0
  0
ARC
  5
1ED
  8
0
 62
     7
 10
95.189740999999984
 20
213.98087599999991
 30
0.0
 40
1.4534629999999991
 50
274.74043499999999
 51
295.38573899999989
  0
ARC
  5
1EE
  8
0
 62
     7
 10
95.384197999999984
 20
213.468695
 30
0.0
 40
0.9084330000000001
 50
298.15547900000001
 51
345.97907700000002
  0
ARC
  5
1EF
  8
0
 62
     7
 10
94.767239000000004
 20
213.67045799999991
 30
0.0
 40
1.5565809999999991
 50
344.27541600000001
 51
354.7180029999999
  0
LINE
  5
1F0
  8
0
 62
     7
 10
89.370500000000007
 20
212.53200000000001
 30
0.0
 11
95.309899999999999
 21
212.53200000000001
 31
0.0
  0
LINE
  5
1F1
  8
0
 62
     7
 10
95.160999999999987
 20
245.27600000000001
 30
0.0
 11
70.356899999999996
 21
245.27600000000001
 31
0.0
  0
ARC
  5
1F2
  8
0
 62
     7
 10
94.717639000000005
 20
244.14032700000001
 30
0.0
 40
1.456798
 50
5.51546
 51
26.129906999999999
  0
ARC
  5
1F3
  8
0
 62
     7
 10
95.229386000000005
 20
244.3433269999999
 30
0.0
 40
0.908974
 50
28.849201999999991
 51
76.613111000000004
  0
ARC
  5
1F4
  8
0
 62
     7
 10
95.035326999999995
 20
243.72410300000001
 30
0.0
 40
1.5569639999999989
 50
74.941424999999995
 51
85.369148999999993
  0
LINE
  5
1F5
  8
0
 62
     7
 10
96.167699999999996
 20
213.67699999999999
 30
0.0
 11
96.167699999999996
 21
244.28
 31
0.0
  0
ARC
  5
1F6
  8
0
 62
     7
 10
95.038507999999993
 20
214.13207199999999
 30
0.0
 40
1.4561939999999991
 50
274.82646
 51
295.43244700000002
  0
ARC
  5
1F7
  8
0
 62
     7
 10
95.234217000000001
 20
213.61787899999999
 30
0.0
 40
0.908853
 50
298.21211199999999
 51
346.00736499999999
  0
ARC
  5
1F8
  8
0
 62
     7
 10
94.614689999999996
 20
213.82024699999999
 30
0.0
 40
1.559623999999999
 50
344.296515
 51
354.71831299999991
  0
LINE
  5
1F9
  8
0
 62
     7
 10
89.370500000000007
 20
212.6809999999999
 30
0.0
 11
95.160999999999987
 21
212.6809999999999
 31
0.0
  0
LINE
  5
1FA
  8
0
 62
     7
 10
45.369799999999991
 20
243.47999999999999
 30
0.0
 11
45.369799999999991
 21
214.47199999999989
 31
0.0
  0
ARC
  5
1FB
  8
0
 62
     7
 10
46.478802000000002
 20
243.03012899999999
 30
0.0
 40
1.4504739999999989
 50
94.551497999999995
 51
114.7675
  0
ARC
  5
1FC
  8
0
 62
     7
 10
46.279738999999992
 20
243.56220799999991
 30
0.0
 40
0.8849479999999999
 50
117.497896
 51
166.279484
  0
ARC
  5
1FD
  8
0
 62
     7
 10
46.894894000000001
 20
243.36787499999991
 30
0.0
 40
1.5292429999999999
 50
164.672631
 51
175.7870749999999
  0
LINE
  5
1FE
  8
0
 62
     7
 10
94.376199999999997
 20
244.476
 30
0.0
 11
46.363700000000001
 21
244.476
 31
0.0
  0
ARC
  5
1FF
  8
0
 62
     7
 10
93.919510000000002
 20
243.36500799999999
 30
0.0
 40
1.4552059999999989
 50
4.5409090000000001
 51
24.724954999999991
  0
ARC
  5
200
  8
0
 62
     7
 10
94.455483999999984
 20
243.56630499999989
 30
0.0
 40
0.8851359999999999
 50
27.401520999999999
 51
76.144485000000003
  0
ARC
  5
201
  8
0
 62
     7
 10
94.264880000000005
 20
242.96437399999999
 30
0.0
 40
1.515749999999999
 50
74.597858999999985
 51
85.787093999999996
  0
LINE
  5
202
  8
0
 62
     7
 10
95.370099999999994
 20
214.47199999999989
 30
0.0
 11
95.370099999999994
 21
243.47999999999999
 31
0.0
  0
ARC
  5
203
  8
0
 62
     7
 10
94.256146999999999
 20
214.92798300000001
 30
0.0
 40
1.4571099999999999
 50
274.72726899999992
 51
294.85310099999992
  0
ARC
  5
204
  8
0
 62
     7
 10
94.457696999999996
 20
214.3926919999999
 30
0.0
 40
0.887682
 50
297.57116200000002
 51
346.19629700000002
  0
ARC
  5
205
  8
0
 62
     7
 10
93.849062000000004
 20
214.585339
 30
0.0
 40
1.5252779999999999
 50
344.62348899999989
 51
355.75103200000001
  0
LINE
  5
206
  8
0
 62
     7
 10
46.363700000000001
 20
213.47599999999991
 30
0.0
 11
94.376199999999997
 21
213.47599999999991
 31
0.0
  0
ARC
  5
207
  8
0
 62
     7
 10
49.071098999999997
 20
240.88217900000001
 30
0.0
 40
1.9664419999999989
 50
96.181903000000005
 51
124.076933
  0
ARC
  5
208
  8
0
 62
     7
 10
48.846969000000001
 20
241.3545529999999
 30
0.0
 40
1.4517519999999999
 50
127.19752799999991
 51
164.0460139999999
  0
ARC
  5
209
  8
0
 62
     7
 10
49.459476000000002
 20
241.139948
 30
0.0
 40
2.0999979999999989
 50
163.0096419999999
 51
174.74762999999999
  0
LINE
  5
20A
  8
0
 62
     7
 10
91.868499999999983
 20
242.83699999999999
 30
0.0
 11
48.859299999999998
 21
242.83699999999999
 31
0.0
  0
ARC
  5
20B
  8
0
 62
     7
 10
91.408663000000004
 20
241.11218999999991
 30
0.0
 40
1.9762889999999991
 50
6.3913160000000007
 51
34.648035
  0
ARC
  5
20C
  8
0
 62
     7
 10
91.856549000000015
 20
241.32391499999989
 30
0.0
 40
1.4896320000000001
 50
37.744303999999993
 51
74.562056000000013
  0
ARC
  5
20D
  8
0
 62
     7
 10
91.638981000000001
 20
240.702337
 30
0.0
 40
2.1471559999999998
 50
73.380969999999991
 51
83.862833999999992
  0
LINE
  5
20E
  8
0
 62
     7
 10
93.372699999999995
 20
216.9729999999999
 30
0.0
 11
93.372699999999995
 21
241.33199999999999
 31
0.0
  0
ARC
  5
20F
  8
0
 62
     7
 10
91.675383999999994
 20
217.43502899999999
 30
0.0
 40
1.9638349999999991
 50
275.64428599999991
 51
303.04734300000001
  0
ARC
  5
210
  8
0
 62
     7
 10
91.891672999999983
 20
216.96300199999999
 30
0.0
 40
1.4522189999999999
 50
306.051695
 51
342.83806099999998
  0
ARC
  5
211
  8
0
 62
     7
 10
91.284495000000007
 20
217.18884199999999
 30
0.0
 40
2.0993200000000001
 50
341.83850499999988
 51
354.09311099999991
  0
LINE
  5
212
  8
0
 62
     7
 10
48.859299999999998
 20
215.48099999999991
 30
0.0
 11
91.868499999999983
 21
215.48099999999991
 31
0.0
  0
ARC
  5
213
  8
0
 62
     7
 10
49.313198
 20
217.158839
 30
0.0
 40
1.953781
 50
185.4641049999999
 51
212.98611299999999
  0
ARC
  5
214
  8
0
 62
     7
 10
48.825503000000012
 20
216.93562799999989
 30
0.0
 40
1.4253290000000001
 50
216.13479599999991
 51
253.475393
  0
ARC
  5
215
  8
0
 62
     7
 10
49.049005999999999
 20
217.55737099999999
 30
0.0
 40
2.085297999999999
 50
252.44685399999989
 51
264.78156699999988
  0
LINE
  5
216
  8
0
 62
     7
 10
47.368299999999998
 20
241.33199999999999
 30
0.0
 11
47.368299999999998
 21
216.9729999999999
 31
0.0
  0
ARC
  5
217
  8
0
  6
AIGENLINE001
 62
     7
 10
70.264548000000005
 20
167.98994999999991
 30
0.0
 40
1.0387150000000001
 50
2.1096710000000001
 51
87.890318999999991
  0
ARC
  5
218
  8
0
  6
AIGENLINE001
 62
     7
 10
70.341401000000005
 20
167.98921399999989
 30
0.0
 40
1.0394639999999991
 50
92.128997999999996
 51
177.85123200000001
  0
ARC
  5
219
  8
0
  6
AIGENLINE001
 62
     7
 10
70.30295799999999
 20
168.0280149999999
 30
0.0
 40
1.000289999999999
 50
179.99010399999989
 51
269.99015299999991
  0
ARC
  5
21A
  8
0
  6
AIGENLINE001
 62
     7
 10
70.264111999999997
 20
168.06614500000001
 30
0.0
 40
1.0391399999999991
 50
272.13286099999999
 51
357.90662200000003
  0
LINE
  5
21B
  8
0
 62
     7
 10
74.495500000000007
 20
158.833
 30
0.0
 11
70.383399999999995
 21
158.78399999999991
 31
0.0
  0
LINE
  5
21C
  8
0
 62
     7
 10
83.031800000000004
 20
159.09399999999991
 30
0.0
 11
74.495500000000007
 21
158.833
 31
0.0
  0
LINE
  5
21D
  8
0
 62
     7
 10
91.6751
 20
159.76599999999991
 30
0.0
 11
83.031800000000004
 21
159.09399999999991
 31
0.0
  0
ARC
  5
21E
  8
0
 62
     7
 10
90.842919999999992
 20
163.346678
 30
0.0
 40
3.8427720000000001
 50
317.2163339999999
 51
345.20602500000001
  0
ARC
  5
21F
  8
0
 62
     7
 10
91.265404000000004
 20
163.1271909999999
 30
0.0
 40
3.385959999999999
 50
276.94951800000001
 51
315.08578
  0
LINE
  5
220
  8
0
 62
     7
 10
95.589399999999983
 20
167.22099999999989
 30
0.0
 11
94.558300000000003
 21
162.36500000000001
 31
0.0
  0
LINE
  5
221
  8
0
  6
AIGENLINE001
 62
     7
 10
155.79299999999989
 20
158.22200000000001
 30
0.0
 11
156.822
 21
159.22799999999989
 31
0.0
  0
LINE
  5
222
  8
0
  6
AIGENLINE001
 62
     7
 10
156.822
 20
159.22799999999989
 30
0.0
 11
158.47399999999999
 21
159.57699999999991
 31
0.0
  0
ARC
  5
223
  8
0
  6
AIGENLINE001
 62
     7
 10
157.77117599999991
 20
161.89339499999991
 30
0.0
 40
2.4209329999999998
 50
286.86847799999993
 51
312.01815199999999
  0
ARC
  5
224
  8
0
  6
AIGENLINE001
 62
     7
 10
157.9650759999999
 20
161.54468399999999
 30
0.0
 40
2.0340379999999998
 50
314.53611399999988
 51
351.50082700000002
  0
LINE
  5
225
  8
0
  6
AIGENLINE001
 62
     7
 10
159.977
 20
161.244
 30
0.0
 11
161.64400000000001
 21
172.2229999999999
 31
0.0
  0
LINE
  5
226
  8
0
 62
     7
 10
132.64299999999989
 20
160.72200000000001
 30
0.0
 11
132.8429999999999
 21
159.22200000000001
 31
0.0
  0
LINE
  5
227
  8
0
 62
     7
 10
132.8429999999999
 20
159.22200000000001
 30
0.0
 11
159.64299999999989
 21
158.422
 31
0.0
  0
LINE
  5
228
  8
0
 62
     7
 10
164.11299999999989
 20
172.22200000000001
 30
0.0
 11
164.21199999999999
 21
171.7229999999999
 31
0.0
  0
LINE
  5
229
  8
0
 62
     7
 10
164.21199999999999
 20
171.7229999999999
 30
0.0
 11
165.14299999999989
 21
171.7229999999999
 31
0.0
  0
LINE
  5
22A
  8
0
 62
     7
 10
164.8429999999999
 20
167.2229999999999
 30
0.0
 11
160.35099999999991
 21
167.2229999999999
 31
0.0
  0
LINE
  5
22B
  8
0
  6
AIGENLINE001
 62
     7
 10
134.15700000000001
 20
160.14599999999999
 30
0.0
 11
150.429
 21
159.22200000000001
 31
0.0
  0
ARC
  5
22C
  8
0
 62
     7
 10
156.87300300000001
 20
163.318332
 30
0.0
 40
8.1908600000000007
 50
278.18821099999991
 51
296.74405899999988
  0
ARC
  5
22D
  8
0
 62
     7
 10
157.79574700000001
 20
161.1341009999999
 30
0.0
 40
5.8272120000000003
 50
298.30645299999992
 51
348.93338
  0
ARC
  5
22E
  8
0
 62
     7
 10
156.11900900000001
 20
161.54741699999991
 30
0.0
 40
7.5525710000000004
 50
348.29778799999991
 51
353.27679999999992
  0
LINE
  5
22F
  8
0
 62
     7
 10
163.62
 20
160.6629999999999
 30
0.0
 11
163.929
 21
167.2229999999999
 31
0.0
  0
ARC
  5
230
  8
0
 62
     7
 10
148.201548
 20
157.90304900000001
 30
0.0
 40
0.8776569999999999
 50
11.934673
 51
76.759825000000006
  0
LINE
  5
231
  8
0
  6
AIGENLINE001
 62
     7
 10
150.49399999999989
 20
155.22200000000001
 30
0.0
 11
150.37100000000001
 21
156.036
 31
0.0
  0
LINE
  5
232
  8
0
 62
     7
 10
149.58099999999999
 20
154.649
 30
0.0
 11
149.06
 21
158.08500000000001
 31
0.0
  0
LINE
  5
233
  8
0
 62
     7
 10
150.07599999999991
 20
154.22200000000001
 30
0.0
 11
157.14400000000001
 21
154.22200000000001
 31
0.0
  0
LINE
  5
234
  8
0
 62
     7
 10
159.64299999999989
 20
160.22200000000001
 30
0.0
 11
159.64299999999989
 21
158.422
 31
0.0
  0
LINE
  5
235
  8
0
 62
     7
 10
134.49700000000001
 20
169.07599999999999
 30
0.0
 11
132.78999999999991
 21
167.36799999999999
 31
0.0
  0
LINE
  5
236
  8
0
 62
     7
 10
165.14299999999989
 20
172.22200000000001
 30
0.0
 11
128.143
 21
172.22200000000001
 31
0.0
  0
LINE
  5
237
  8
0
 62
     7
 10
168.01599999999991
 20
214.476
 30
0.0
 11
122.015
 21
214.476
 31
0.0
  0
LINE
  5
238
  8
0
 62
     7
 10
168.01599999999991
 20
243.476
 30
0.0
 11
122.015
 21
243.476
 31
0.0
  0
LINE
  5
239
  8
0
 62
     7
 10
157.93600000000001
 20
169.2229999999999
 30
0.0
 11
134.84999999999999
 21
169.2229999999999
 31
0.0
  0
LINE
  5
23A
  8
0
  6
AIGENLINE001
 62
     7
 10
151.49299999999991
 20
155.22200000000001
 30
0.0
 11
150.49399999999989
 21
155.22200000000001
 31
0.0
  0
LINE
  5
23B
  8
0
 62
     7
 10
132.43600000000001
 20
167.22200000000001
 30
0.0
 11
130.34999999999991
 21
167.22200000000001
 31
0.0
  0
LINE
  5
23C
  8
0
 62
     7
 10
129.99700000000001
 20
167.36799999999999
 30
0.0
 11
128.28999999999991
 21
169.07599999999999
 31
0.0
  0
LINE
  5
23D
  8
0
  6
AIGENLINE001
 62
     7
 10
130.64299999999989
 20
172.22200000000001
 30
0.0
 11
132.77099999999999
 21
161.35099999999991
 31
0.0
  0
LINE
  5
23E
  8
0
 62
     7
 10
130.143
 20
167.267
 30
0.0
 11
131.31
 21
161.303
 31
0.0
  0
LINE
  5
23F
  8
0
 62
     7
 10
128.143
 20
172.22200000000001
 30
0.0
 11
128.143
 21
169.429
 31
0.0
  0
LINE
  5
240
  8
0
  6
AIGENLINE001
 62
     7
 10
150.6929999999999
 20
157.88200000000001
 30
0.0
 11
150.6929999999999
 21
157.62200000000001
 31
0.0
  0
LINE
  5
241
  8
0
  6
AIGENLINE001
 62
     7
 10
151.49299999999991
 20
158.22200000000001
 30
0.0
 11
151.49299999999991
 21
157.62200000000001
 31
0.0
  0
LINE
  5
242
  8
0
  6
AIGENLINE001
 62
     7
 10
151.49299999999991
 20
155.22200000000001
 30
0.0
 11
151.49299999999991
 21
154.22200000000001
 31
0.0
  0
LINE
  5
243
  8
0
  6
AIGENLINE002
 62
     7
 10
153.643
 20
160.73699999999991
 30
0.0
 11
153.643
 21
153.38599999999991
 31
0.0
  0
LINE
  5
244
  8
0
 62
     7
 10
158.28999999999991
 20
169.07599999999999
 30
0.0
 11
159.99700000000001
 21
167.369
 31
0.0
  0
LINE
  5
245
  8
0
 62
     7
 10
161.429
 20
160.91499999999991
 30
0.0
 11
162.0929999999999
 21
166.779
 31
0.0
  0
LINE
  5
246
  8
0
 62
     7
 10
153.5089999999999
 20
170.012
 30
0.0
 11
152.916
 21
172.2229999999999
 31
0.0
  0
LINE
  5
247
  8
0
 62
     7
 10
152.916
 20
172.2229999999999
 30
0.0
 11
152.32299999999989
 21
170.012
 31
0.0
  0
LINE
  5
248
  8
0
 62
     7
 10
152.32299999999989
 20
170.012
 30
0.0
 11
153.5089999999999
 21
170.012
 31
0.0
  0
LINE
  5
249
  8
0
 62
     7
 10
152.33799999999991
 20
161.43299999999991
 30
0.0
 11
152.93000000000001
 21
159.221
 31
0.0
  0
LINE
  5
24A
  8
0
 62
     7
 10
152.93000000000001
 20
159.221
 30
0.0
 11
153.523
 21
161.43299999999991
 31
0.0
  0
LINE
  5
24B
  8
0
 62
     7
 10
153.523
 20
161.43299999999991
 30
0.0
 11
152.33799999999991
 21
161.43299999999991
 31
0.0
  0
LINE
  5
24C
  8
0
 62
     7
 10
152.923
 20
172.22200000000001
 30
0.0
 11
152.923
 21
159.22200000000001
 31
0.0
  0
LINE
  5
24D
  8
0
 62
     7
 10
165.14299999999989
 20
166.46499999999989
 30
0.0
 11
165.14299999999989
 21
146.6699999999999
 31
0.0
  0
LINE
  5
24E
  8
0
 62
     7
 10
153.643
 20
152.68600000000001
 30
0.0
 11
153.643
 21
146.6699999999999
 31
0.0
  0
LINE
  5
24F
  8
0
 62
     7
 10
165.14299999999989
 20
172.22200000000001
 30
0.0
 11
165.14299999999989
 21
167.52199999999999
 31
0.0
  0
TEXT
  5
250
  8
_________2
 62
     7
 10
29.525700000000001
 20
22.2272
 30
0.0
 40
3.9357000000000002
  1
実容量：8L、重量10kg、オーバーフロー付
 41
0.5
  0
LINE
  5
251
  8
_________2
 62
     7
 10
105.2389999999999
 20
17.428499999999989
 30
0.0
 11
105.2389999999999
 21
0.4485540000000001
 31
0.0
  0
LINE
  5
252
  8
_________2
 62
     7
 10
81.679900000000004
 20
51.324300000000001
 30
0.0
 11
79.493700000000004
 21
51.324300000000001
 31
0.0
  0
LINE
  5
253
  8
_________2
 62
     7
 10
82.172600000000017
 20
51.324300000000001
 30
0.0
 11
81.920400000000001
 21
51.324300000000001
 31
0.0
  0
LINE
  5
254
  8
_________2
 62
     7
 10
82.665199999999984
 20
51.324300000000001
 30
0.0
 11
85.590100000000007
 21
51.324300000000001
 31
0.0
  0
LINE
  5
255
  8
_________2
 62
     7
 10
82.172600000000017
 20
51.324300000000001
 30
0.0
 11
82.424800000000005
 21
51.324300000000001
 31
0.0
  0
LINE
  5
256
  8
_________2
 62
     7
 10
75.776399999999995
 20
51.324300000000001
 30
0.0
 11
73.589399999999998
 21
51.324300000000001
 31
0.0
  0
LINE
  5
257
  8
_________2
 62
     7
 10
76.2684
 20
51.324300000000001
 30
0.0
 11
76.016900000000007
 21
51.324300000000001
 31
0.0
  0
LINE
  5
258
  8
_________2
 62
     7
 10
76.2684
 20
51.817
 30
0.0
 11
76.2684
 21
54.003900000000002
 31
0.0
  0
LINE
  5
259
  8
_________2
 62
     7
 10
76.2684
 20
51.324300000000001
 30
0.0
 11
76.2684
 21
51.576900000000002
 31
0.0
  0
LINE
  5
25A
  8
_________2
 62
     7
 10
76.76100000000001
 20
51.324300000000001
 30
0.0
 11
78.947999999999993
 21
51.324300000000001
 31
0.0
  0
LINE
  5
25B
  8
_________2
 62
     7
 10
76.2684
 20
51.324300000000001
 30
0.0
 11
76.520499999999998
 21
51.324300000000001
 31
0.0
  0
LINE
  5
25C
  8
_________2
 62
     7
 10
76.2684
 20
50.832399999999993
 30
0.0
 11
76.2684
 21
48.645699999999998
 31
0.0
  0
LINE
  5
25D
  8
_________2
 62
     7
 10
76.2684
 20
51.324300000000001
 30
0.0
 11
76.2684
 21
51.072800000000001
 31
0.0
  0
LINE
  5
25E
  8
_________2
 62
     7
 10
79.979399999999984
 20
50.104799999999997
 30
0.0
 11
85.157399999999996
 21
49.240000000000002
 31
0.0
  0
LINE
  5
25F
  8
_________2
 62
     7
 10
79.979399999999984
 20
52.544199999999989
 30
0.0
 11
85.157399999999996
 21
53.409700000000001
 31
0.0
  0
LINE
  5
260
  8
_________2
 62
     7
 10
85.157399999999996
 20
49.240000000000002
 30
0.0
 11
85.157399999999996
 21
53.409700000000001
 31
0.0
  0
LINE
  5
261
  8
_________2
 62
     7
 10
79.979399999999984
 20
50.104799999999997
 30
0.0
 11
79.979399999999984
 21
52.544199999999989
 31
0.0
  0
ARC
  5
262
  8
_________2
 62
     7
 10
76.221766000000002
 20
51.277380999999998
 30
0.0
 40
1.267714
 50
2.1220840000000001
 51
87.894083999999992
  0
ARC
  5
263
  8
_________2
 62
     7
 10
76.315297000000001
 20
51.277734999999993
 30
0.0
 40
1.267374999999999
 50
92.122849999999985
 51
177.893304
  0
ARC
  5
264
  8
_________2
 62
     7
 10
76.315273000000005
 20
51.371245999999992
 30
0.0
 40
1.267363
 50
182.12181499999991
 51
267.87821400000001
  0
ARC
  5
265
  8
_________2
 62
     7
 10
76.221461000000005
 20
51.371928999999987
 30
0.0
 40
1.2680439999999991
 50
272.11916400000001
 51
357.84848499999993
  0
ARC
  5
266
  8
_________2
 62
     7
 10
76.187981999999991
 20
51.244312999999998
 30
0.0
 40
2.1668310000000002
 50
2.1161439999999989
 51
87.874379000000005
  0
ARC
  5
267
  8
_________2
 62
     7
 10
76.348411999999996
 20
51.245334999999997
 30
0.0
 40
2.1657980000000001
 50
92.118487999999999
 51
177.90988599999989
  0
ARC
  5
268
  8
_________2
 62
     7
 10
76.348354
 20
51.404327000000002
 30
0.0
 40
2.1657779999999991
 50
182.11700400000001
 51
267.88302499999992
  0
ARC
  5
269
  8
_________2
 62
     7
 10
76.188378999999983
 20
51.405009999999997
 30
0.0
 40
2.1664590000000001
 50
272.11546800000002
 51
357.86560400000002
  0
TEXT
  5
26A
  8
_________2
 62
     7
 10
109.5439999999999
 20
23.199100000000001
 30
0.0
 40
3.0923400000000001
  1
図番
 41
0.5
  0
LINE
  5
26B
  8
_________2
 62
     7
 10
108.4889999999999
 20
27.4283
 30
0.0
 11
188.49000000000001
 21
27.4283
 31
0.0
  0
TEXT
  5
26C
  8
_________2
 62
     7
 10
109.5439999999999
 20
33.198900000000002
 30
0.0
 40
3.0923400000000001
  1
品番
 41
0.5
  0
TEXT
  5
26D
  8
_________2
 62
     7
 10
109.5439999999999
 20
53.338000000000001
 30
0.0
 40
3.0923400000000001
  1
名称
 41
0.5
  0
TEXT
  5
26E
  8
_________2
 62
     7
 10
96.784058333333334
 20
48.341900000000003
 30
0.0
 40
3.6545800000000002
  1
mm
 41
0.5
 72
     1
 11
98.306799999999996
 21
48.341900000000003
 31
0.0
  0
TEXT
  5
26F
  8
_________2
 62
     7
 10
90.582099999999997
 20
53.338000000000001
 30
0.0
 40
3.0923400000000001
  1
単位
 41
0.5
  0
TEXT
  5
270
  8
_________2
 62
     7
 10
90.582099999999997
 20
40.930399999999999
 30
0.0
 40
3.0923400000000001
  1
尺度
 41
0.5
  0
TEXT
  5
271
  8
_________2
 62
     7
 10
95.030836166666674
 20
34.7378
 30
0.0
 40
3.6545800000000002
  1
1 ： 10
 41
0.5
 72
     1
 11
98.898600000000002
 21
34.7378
 31
0.0
  0
TEXT
  5
272
  8
_________2
 62
     7
 10
142.257475
 20
30.627800000000001
 30
0.0
 40
3.9357000000000002
  1
CEL1596
 41
0.5
 72
     1
 11
148.489
 21
30.627800000000001
 31
0.0
  0
TEXT
  5
273
  8
_________2
 62
     7
 10
142.257475
 20
20.626999999999988
 30
0.0
 40
3.9357000000000002
  1
CEL1596
 41
0.5
 72
     1
 11
148.489
 21
20.626999999999988
 31
0.0
  0
TEXT
  5
274
  8
_________2
 62
     7
 10
114.11799999999999
 20
45.745600000000003
 30
0.0
 40
3.9357000000000002
  1
アンダーカウンター式洗面器
 41
0.5
  0
TEXT
  5
275
  8
_________2
 62
     7
 10
44.364200333333329
 20
35.122999999999998
 30
0.0
 40
3.6545800000000002
  1
早川
 41
0.5
 72
     1
 11
46.252400000000002
 21
35.122999999999998
 31
0.0
  0
TEXT
  5
276
  8
_________2
 62
     7
 10
25.72929066666666
 20
35.122999999999998
 30
0.0
 40
3.6545800000000002
  1
石原
 41
0.5
 72
     1
 11
27.6784
 21
35.122999999999998
 31
0.0
  0
TEXT
  5
277
  8
_________2
 62
     7
 10
72.724699999999999
 20
34.7378
 30
0.0
 40
3.6545800000000002
  1
12.10.24
 41
0.5
  0
TEXT
  5
278
  8
_________2
 62
     7
 10
71.531999999999996
 20
40.930399999999999
 30
0.0
 40
3.0923400000000001
  1
日付
 41
0.5
  0
TEXT
  5
279
  8
_________2
 62
     7
 10
34.578299999999992
 20
40.930399999999999
 30
0.0
 40
3.0923400000000001
  1
検図
 41
0.5
  0
TEXT
  5
27A
  8
_________2
 62
     7
 10
22.96019999999999
 20
26.730999999999991
 30
0.0
 40
3.0923400000000001
  1
備考
 41
0.5
  0
TEXT
  5
27B
  8
_________2
 62
     7
 10
22.96019999999999
 20
40.930399999999999
 30
0.0
 40
3.0923400000000001
  1
製図
 41
0.5
  0
TEXT
  5
27C
  8
_________2
 62
     7
 10
28.727365333333339
 20
49.456400000000002
 30
0.0
 40
4.4979399999999989
  1
セラトレーディング株式会社
 41
0.5
 72
     1
 11
46.119399999999992
 21
49.456400000000002
 31
0.0
  0
LINE
  5
27D
  8
_________2
 62
     7
 10
188.49000000000001
 20
17.428499999999989
 30
0.0
 11
21.988499999999991
 21
17.428499999999989
 31
0.0
  0
LINE
  5
27E
  8
_________2
 62
     7
 10
21.988499999999991
 20
17.428499999999989
 30
0.0
 11
21.988499999999991
 21
280.42999999999989
 31
0.0
  0
LINE
  5
27F
  8
_________2
 62
     7
 10
21.988499999999991
 20
280.42999999999989
 30
0.0
 11
188.49000000000001
 21
280.42999999999989
 31
0.0
  0
LINE
  5
280
  8
_________2
 62
     7
 10
188.49000000000001
 20
280.42999999999989
 30
0.0
 11
188.49000000000001
 21
17.428499999999989
 31
0.0
  0
LINE
  5
281
  8
_________2
 62
     7
 10
70.488799999999998
 20
30.928899999999999
 30
0.0
 11
70.488799999999998
 21
57.428699999999992
 31
0.0
  0
LINE
  5
282
  8
_________2
 62
     7
 10
89.488600000000005
 20
30.928899999999999
 30
0.0
 11
89.488600000000005
 21
57.428699999999992
 31
0.0
  0
LINE
  5
283
  8
_________2
 62
     7
 10
108.4889999999999
 20
17.428499999999989
 30
0.0
 11
108.4889999999999
 21
57.428699999999992
 31
0.0
  0
LINE
  5
284
  8
_________2
 62
     7
 10
33.488300000000002
 20
30.928899999999999
 30
0.0
 11
33.488300000000002
 21
44.928800000000003
 31
0.0
  0
LINE
  5
285
  8
_________2
 62
     7
 10
21.988499999999991
 20
30.928899999999999
 30
0.0
 11
108.4889999999999
 21
30.928899999999999
 31
0.0
  0
LINE
  5
286
  8
_________2
 62
     7
 10
21.988499999999991
 20
44.928800000000003
 30
0.0
 11
108.4889999999999
 21
44.928800000000003
 31
0.0
  0
LINE
  5
287
  8
_________2
 62
     7
 10
108.4889999999999
 20
37.428100000000001
 30
0.0
 11
188.49000000000001
 21
37.428100000000001
 31
0.0
  0
LINE
  5
288
  8
_________2
 62
     7
 10
21.988499999999991
 20
57.428699999999992
 30
0.0
 11
188.49000000000001
 21
57.428699999999992
 31
0.0
  0
LINE
  5
289
  8
_________2
 62
     7
 10
210.24000000000001
 20
148.93100000000001
 30
0.0
 11
188.489
 21
148.93100000000001
 31
0.0
  0
LINE
  5
28A
  8
_________2
 62
     7
 10
105.2389999999999
 20
297.45099999999991
 30
0.0
 11
105.2389999999999
 21
280.42999999999989
 31
0.0
  0
LINE
  5
28B
  8
_________2
 62
     7
 10
21.988499999999991
 20
148.93100000000001
 30
0.0
 11
0.238402
 21
148.93100000000001
 31
0.0
  0
ENDSEC
  0
EOF
