  0
SECTION
  2
HEADER
  9
$ACADVER
  1
AC1009
  9
$INSBASE
 10
0.0
 20
0.0
 30
0.0
  9
$EXTMIN
 10
-4.70052
 20
-21.070699999999999
 30
0.0
  9
$EXTMAX
 10
205.30099999999999
 20
275.93099999999998
 30
0.0
  9
$LIMMIN
 10
0.0
 20
0.0
  9
$LIMMAX
 10
12.0
 20
9.0
  9
$ORTHOMODE
 70
     0
  9
$REGENMODE
 70
     1
  9
$FILLMODE
 70
     1
  9
$QTEXTMODE
 70
     0
  9
$MIRRTEXT
 70
     1
  9
$DRAGMODE
 70
     2
  9
$LTSCALE
 40
1.0
  9
$OSMODE
 70
    37
  9
$ATTMODE
 70
     1
  9
$TEXTSIZE
 40
0.0
  9
$TRACEWID
 40
0.05
  9
$TEXTSTYLE
  7
STANDARD
  9
$CLAYER
  8
0
  9
$CELTYPE
  6
CONTINUOUS
  9
$CECOLOR
 62
   256
  9
$DIMSCALE
 40
1.0
  9
$DIMASZ
 40
0.18
  9
$DIMEXO
 40
0.0625
  9
$DIMDLI
 40
0.38
  9
$DIMRND
 40
0.0
  9
$DIMDLE
 40
0.0
  9
$DIMEXE
 40
0.18
  9
$DIMTP
 40
0.0
  9
$DIMTM
 40
0.0
  9
$DIMTXT
 40
0.18
  9
$DIMCEN
 40
0.09
  9
$DIMTSZ
 40
0.0
  9
$DIMTOL
 70
     0
  9
$DIMLIM
 70
     0
  9
$DIMTIH
 70
     1
  9
$DIMTOH
 70
     1
  9
$DIMSE1
 70
     0
  9
$DIMSE2
 70
     0
  9
$DIMTAD
 70
     0
  9
$DIMZIN
 70
     0
  9
$DIMBLK
  1

  9
$DIMASO
 70
     1
  9
$DIMSHO
 70
     1
  9
$DIMPOST
  1

  9
$DIMAPOST
  1

  9
$DIMALT
 70
     0
  9
$DIMALTD
 70
     2
  9
$DIMALTF
 40
25.399999999999999
  9
$DIMLFAC
 40
1.0
  9
$DIMTOFL
 70
     0
  9
$DIMTVP
 40
0.0
  9
$DIMTIX
 70
     0
  9
$DIMSOXD
 70
     0
  9
$DIMSAH
 70
     0
  9
$DIMBLK1
  1

  9
$DIMBLK2
  1

  9
$DIMSTYLE
  2
STANDARD
  9
$DIMCLRD
 70
     0
  9
$DIMCLRE
 70
     0
  9
$DIMCLRT
 70
     0
  9
$DIMTFAC
 40
1.0
  9
$DIMGAP
 40
0.09
  9
$LUNITS
 70
     2
  9
$LUPREC
 70
     4
  9
$SKETCHINC
 40
0.1
  9
$FILLETRAD
 40
0.0
  9
$AUNITS
 70
     0
  9
$AUPREC
 70
     0
  9
$MENU
  1
.
  9
$ELEVATION
 40
0.0
  9
$PELEVATION
 40
0.0
  9
$THICKNESS
 40
0.0
  9
$LIMCHECK
 70
     0
  9
$BLIPMODE
 70
     0
  9
$CHAMFERA
 40
0.0
  9
$CHAMFERB
 40
0.0
  9
$SKPOLY
 70
     0
  9
$TDCREATE
 40
2444972.375
  9
$TDUPDATE
 40
2458291.2494758102
  9
$TDINDWG
 40
0.0000320255
  9
$TDUSRTIMER
 40
0.0000320255
  9
$USRTIMER
 70
     1
  9
$ANGBASE
 50
0.0
  9
$ANGDIR
 70
     0
  9
$PDMODE
 70
     0
  9
$PDSIZE
 40
0.0
  9
$PLINEWID
 40
0.0
  9
$COORDS
 70
     1
  9
$SPLFRAME
 70
     0
  9
$SPLINETYPE
 70
     6
  9
$SPLINESEGS
 70
     8
  9
$ATTDIA
 70
     1
  9
$ATTREQ
 70
     1
  9
$HANDLING
 70
     1
  9
$HANDSEED
  5
59F
  9
$SURFTAB1
 70
     6
  9
$SURFTAB2
 70
     6
  9
$SURFTYPE
 70
     6
  9
$SURFU
 70
     6
  9
$SURFV
 70
     6
  9
$UCSNAME
  2

  9
$UCSORG
 10
0.0
 20
0.0
 30
0.0
  9
$UCSXDIR
 10
1.0
 20
0.0
 30
0.0
  9
$UCSYDIR
 10
0.0
 20
1.0
 30
0.0
  9
$PUCSNAME
  2

  9
$PUCSORG
 10
0.0
 20
0.0
 30
0.0
  9
$PUCSXDIR
 10
1.0
 20
0.0
 30
0.0
  9
$PUCSYDIR
 10
0.0
 20
1.0
 30
0.0
  9
$USERI1
 70
     0
  9
$USERI2
 70
     0
  9
$USERI3
 70
     0
  9
$USERI4
 70
     0
  9
$USERI5
 70
     0
  9
$USERR1
 40
0.0
  9
$USERR2
 40
0.0
  9
$USERR3
 40
0.0
  9
$USERR4
 40
0.0
  9
$USERR5
 40
0.0
  9
$WORLDVIEW
 70
     1
  9
$SHADEDGE
 70
     3
  9
$SHADEDIF
 70
    70
  9
$TILEMODE
 70
     1
  9
$MAXACTVP
 70
    48
  9
$PLIMCHECK
 70
     0
  9
$PEXTMIN
 10
1.0000000000000000E+020
 20
1.0000000000000000E+020
 30
1.0000000000000000E+020
  9
$PEXTMAX
 10
-1.0000000000000000E+020
 20
-1.0000000000000000E+020
 30
-1.0000000000000000E+020
  9
$PLIMMIN
 10
0.0
 20
0.0
  9
$PLIMMAX
 10
12.0
 20
9.0
  9
$UNITMODE
 70
     0
  9
$VISRETAIN
 70
     1
  9
$PLINEGEN
 70
     0
  9
$PSLTSCALE
 70
     1
  0
ENDSEC
  0
SECTION
  2
TABLES
  0
TABLE
  2
VPORT
 70
     1
  0
VPORT
  2
*ACTIVE
 70
     0
 10
0.0
 20
0.0
 11
1.0
 21
1.0
 12
190.88168206760091
 22
127.4301499999999
 13
0.0
 23
0.0
 14
1.0
 24
1.0
 15
0.0
 25
0.0
 16
0.0
 26
0.0
 36
1.0
 17
0.0
 27
0.0
 37
0.0
 40
280.94862533030818
 41
2.298642533936651
 42
50.0
 43
0.0
 44
0.0
 50
0.0
 51
0.0
 71
     0
 72
   100
 73
     1
 74
     1
 75
     0
 76
     0
 77
     0
 78
     0
  0
ENDTAB
  0
TABLE
  2
LTYPE
 70
     4
  0
LTYPE
  2
CONTINUOUS
 70
     0
  3
Solid line
 72
    65
 73
     0
 40
0.0
  0
LTYPE
  2
AIGENLINE001
 70
     0
  3
generate AI->DXF Converter
 72
    65
 73
     4
 40
5.8561449999999988
 49
3.5278
 49
-0.776115
 49
0.776115
 49
-0.776115
  0
LTYPE
  2
AIGENLINE002
 70
     0
  3
generate AI->DXF Converter
 72
    65
 73
     2
 40
1.5522299999999991
 49
0.776115
 49
-0.776115
  0
LTYPE
  2
AIGENLINE003
 70
     0
  3
generate AI->DXF Converter
 72
    65
 73
     6
 40
7.4083750000000004
 49
3.5278
 49
-0.776115
 49
0.776115
 49
-0.776115
 49
0.776115
 49
-0.776115
  0
ENDTAB
  0
TABLE
  2
LAYER
 70
     2
  0
LAYER
  2
0
 70
     0
 62
     7
  6
CONTINUOUS
  0
LAYER
  2
_________2
 70
     0
 62
     7
  6
CONTINUOUS
  0
ENDTAB
  0
TABLE
  2
STYLE
 70
     1
  0
STYLE
  2
STANDARD
 70
     0
 40
0.0
 41
0.0
 50
0.0
 71
     0
 42
0.0
  3
TXT
  4
EXTFONT.SHX
  0
ENDTAB
  0
TABLE
  2
VIEW
 70
     0
  0
ENDTAB
  0
TABLE
  2
UCS
 70
     0
  0
ENDTAB
  0
TABLE
  2
APPID
 70
     3
  0
APPID
  2
ACAD
 70
     0
  0
APPID
  2
ACAD_NAV_VCDISPLAY
 70
     0
  0
APPID
  2
ACAD_MLEADERVER
 70
     0
  0
ENDTAB
  0
TABLE
  2
DIMSTYLE
 70
     1
  0
DIMSTYLE
  2
STANDARD
 70
     0
  3

  4

  5

  6

  7

 40
1.0
 41
0.18
 42
0.0625
 43
0.38
 44
0.18
 45
0.0
 46
0.0
 47
0.0
 48
0.0
140
0.18
141
0.09
142
0.0
143
25.399999999999999
144
1.0
145
0.0
146
1.0
147
0.09
 71
     0
 72
     0
 73
     1
 74
     1
 75
     0
 76
     0
 77
     0
 78
     0
170
     0
171
     2
172
     0
173
     0
174
     0
175
     0
176
     0
177
     0
178
     0
  0
ENDTAB
  0
ENDSEC
  0
SECTION
  2
BLOCKS
  0
BLOCK
  8
0
  2
$MODEL_SPACE
 70
     0
 10
0.0
 20
0.0
 30
0.0
  3
$MODEL_SPACE
  1

  0
ENDBLK
  5
1A
  8
0
  0
BLOCK
 67
     1
  8
0
  2
$PAPER_SPACE
 70
     0
 10
0.0
 20
0.0
 30
0.0
  3
$PAPER_SPACE
  1

  0
ENDBLK
  5
17
 67
     1
  8
0
  0
ENDSEC
  0
SECTION
  2
ENTITIES
  0
TEXT
  5
24
  8
0
 62
     7
 10
95.936850000000007
 20
59.372799999999998
 30
0.0
 40
3.0923400000000001
  1
25
 41
0.5
 72
     2
 11
98.513800000000003
 21
59.372799999999998
 31
0.0
  0
TEXT
  5
25
  8
0
 62
     7
 10
38.104399999999998
 20
59.372799999999998
 30
0.0
 40
3.0923400000000001
  1
25
 41
0.5
  0
TEXT
  5
26
  8
0
 62
     7
 10
66.250587499999995
 20
52.964199999999998
 30
0.0
 40
3.0923400000000001
  1
490
 41
0.5
 72
     1
 11
68.183300000000003
 21
52.964199999999998
 31
0.0
  0
TEXT
  5
27
  8
0
 62
     7
 10
48.145125
 20
59.478200000000001
 30
0.0
 40
3.0923400000000001
  1
65
 41
0.5
 72
     1
 11
49.433599999999998
 21
59.478200000000001
 31
0.0
  0
TEXT
  5
28
  8
0
 62
     7
 10
54.524172499999992
 20
59.478200000000001
 30
0.0
 40
3.0923400000000001
  1
60
 41
0.5
 72
     1
 11
55.683799999999998
 21
59.478200000000001
 31
0.0
  0
TEXT
  5
29
  8
0
 62
     7
 10
72.629634999999993
 20
59.372799999999998
 30
0.0
 40
3.0923400000000001
  1
315
 41
0.5
 72
     1
 11
74.433499999999995
 21
59.372799999999998
 31
0.0
  0
TEXT
  5
2A
  8
0
 62
     7
 10
64.244879999999995
 20
90.401600000000002
 30
0.0
 40
3.0923400000000001
  1
%%c35
 41
0.5
 72
     2
 11
68.367999999999995
 21
90.401600000000002
 31
0.0
  0
TEXT
  5
2B
  8
0
 62
     7
 10
74.542680000000004
 20
94.562299999999993
 30
0.0
 40
3.0923400000000001
  1
%%c44
 41
0.5
 72
     2
 11
78.665800000000004
 21
94.562299999999993
 31
0.0
  0
TEXT
  5
2C
  8
0
 62
     7
 10
36.9313
 20
93.220730000000003
 30
0.0
 40
3.0923400000000001
  1
100
 50
90.0
 41
0.5
 72
     1
 11
36.9313
 21
94.766900000000007
 31
0.0
  0
TEXT
  5
2D
  8
0
 62
     7
 10
36.9313
 20
103.22083000000001
 30
0.0
 40
3.0923400000000001
  1
100
 50
90.0
 41
0.5
 72
     1
 11
36.9313
 21
104.767
 31
0.0
  0
TEXT
  5
2E
  8
0
 62
     7
 10
180.209
 20
45.920699999999989
 30
0.0
 40
4.2168199999999993
  1
※オーバーフロー能力：10L/min
 50
90.0
 41
0.5
  0
TEXT
  5
2F
  8
0
 62
     7
 10
158.33699999999999
 20
220.66399999999999
 30
0.0
 40
3.0923400000000001
  1
〈付属品〉
 50
90.0
 41
0.5
  0
TEXT
  5
30
  8
0
 62
     7
 10
162.202
 20
220.66399999999999
 30
0.0
 40
3.0923400000000001
  1
洗面器固定金具\U+00D74
 50
90.0
 41
0.5
  0
TEXT
  5
31
  8
0
 62
     7
 10
166.06800000000001
 20
220.66399999999999
 30
0.0
 40
3.0923400000000001
  1
%%c5\U+00D720SUSねじ付
 50
90.0
 41
0.5
  0
TEXT
  5
32
  8
0
 62
     7
 10
169.93299999999999
 20
220.66399999999999
 30
0.0
 40
3.0923400000000001
  1
（尺度 1：3）
 50
90.0
 41
0.5
  0
TEXT
  5
33
  8
0
 62
     7
 10
123.19499999999999
 20
229.691
 30
0.0
 40
3.0923400000000001
  1
12.5
 50
90.0
 41
0.5
  0
TEXT
  5
34
  8
0
 62
     7
 10
138.61799999999999
 20
232.76388800000001
 30
0.0
 40
3.0923400000000001
  1
両面テープ付
 50
90.0
 41
0.5
 72
     2
 11
138.61799999999999
 21
243.48400000000001
 31
0.0
  0
TEXT
  5
35
  8
0
 62
     7
 10
128.03800000000001
 20
230.7323725
 30
0.0
 40
3.0923400000000001
  1
50
 50
90.0
 41
0.5
 72
     1
 11
128.03800000000001
 21
231.892
 31
0.0
  0
TEXT
  5
36
  8
0
 62
     7
 10
144.60505000000001
 20
246.108
 30
0.0
 40
3.0923400000000001
  1
1.5
 41
0.5
 72
     2
 11
147.18199999999999
 21
246.108
 31
0.0
  0
TEXT
  5
37
  8
0
 62
     7
 10
144.55421999999999
 20
218.84200000000001
 30
0.0
 40
3.0923400000000001
  1
19
 41
0.5
 72
     1
 11
145.58500000000001
 21
218.84200000000001
 31
0.0
  0
TEXT
  5
38
  8
0
 62
     7
 10
112.6533725
 20
247.036
 30
0.0
 40
3.0923400000000001
  1
30
 41
0.5
 72
     1
 11
113.813
 21
247.036
 31
0.0
  0
TEXT
  5
39
  8
0
 62
     7
 10
114.84399999999999
 20
175.35476
 30
0.0
 40
3.0923400000000001
  1
カウンター切込寸法
 50
90.0
 41
0.5
 72
     1
 11
114.84399999999999
 21
183.601
 31
0.0
  0
TEXT
  5
3A
  8
0
 62
     7
 10
106.268
 20
168.888282
 30
0.0
 40
3.0923400000000001
  1
洗面器固定用カウンター裏補強木（t30～40）
 50
90.0
 41
0.5
 72
     2
 11
106.268
 21
208.161
 31
0.0
  0
TEXT
  5
3B
  8
0
 62
     7
 10
35.374600000000001
 20
146.42842949999999
 30
0.0
 40
3.0923400000000001
  1
50以上
 50
90.0
 41
0.5
 72
     1
 11
35.374600000000001
 21
149.495
 31
0.0
  0
TEXT
  5
3C
  8
0
 62
     7
 10
39.856699999999996
 20
153.06252499999999
 30
0.0
 40
3.0923400000000001
  1
45
 50
90.0
 41
0.5
 72
     1
 11
39.856699999999996
 21
154.351
 31
0.0
  0
TEXT
  5
3D
  8
0
 62
     7
 10
35.374600000000001
 20
214.6314295
 30
0.0
 40
3.0923400000000001
  1
50以上
 50
90.0
 41
0.5
 72
     1
 11
35.374600000000001
 21
217.69800000000001
 31
0.0
  0
TEXT
  5
3E
  8
0
 62
     7
 10
39.856699999999996
 20
211.56252499999999
 30
0.0
 40
3.0923400000000001
  1
45
 50
90.0
 41
0.5
 72
     1
 11
39.856699999999996
 21
212.851
 31
0.0
  0
TEXT
  5
3F
  8
0
 62
     7
 10
35.724699999999999
 20
195.16828749999999
 30
0.0
 40
3.0923400000000001
  1
270
 50
90.0
 41
0.5
 72
     1
 11
35.724699999999999
 21
197.101
 31
0.0
  0
TEXT
  5
40
  8
0
 62
     7
 10
76.116100000000003
 20
164.845
 30
0.0
 40
3.0923400000000001
  1
R10
 41
0.5
  0
TEXT
  5
41
  8
0
 62
     7
 10
57.250765000000001
 20
164.845
 30
0.0
 40
3.0923400000000001
  1
R10
 41
0.5
 72
     2
 11
60.6008
 21
164.845
 31
0.0
  0
TEXT
  5
42
  8
0
 62
     7
 10
97.377300000000005
 20
181.66828749999999
 30
0.0
 40
3.0923400000000001
  1
540
 50
90.0
 41
0.5
 72
     1
 11
97.377300000000005
 21
183.601
 31
0.0
  0
TEXT
  5
43
  8
0
 62
     7
 10
35.724699999999999
 20
168.16828749999999
 30
0.0
 40
3.0923400000000001
  1
270
 50
90.0
 41
0.5
 72
     1
 11
35.724699999999999
 21
170.101
 31
0.0
  0
TEXT
  5
44
  8
0
 62
     7
 10
55.379435000000001
 20
194.13200000000001
 30
0.0
 40
3.0923400000000001
  1
200
 41
0.5
 72
     1
 11
57.183300000000003
 21
194.13200000000001
 31
0.0
  0
TEXT
  5
45
  8
0
 62
     7
 10
66.250787500000001
 20
202.06800000000001
 30
0.0
 40
3.0923400000000001
  1
420
 41
0.5
 72
     1
 11
68.183499999999995
 21
202.06800000000001
 31
0.0
  0
TEXT
  5
46
  8
0
 62
     7
 10
142.84628749999999
 20
61.890799999999999
 30
0.0
 40
3.0923400000000001
  1
202
 41
0.5
 72
     1
 11
144.779
 21
61.890799999999999
 31
0.0
  0
TEXT
  5
47
  8
0
 62
     7
 10
128.983
 20
198.38
 30
0.0
 40
3.0923400000000001
  1
15
 41
0.5
  0
TEXT
  5
48
  8
0
 62
     7
 10
140.625135
 20
178.62100000000001
 30
0.0
 40
3.0923400000000001
  1
155
 41
0.5
 72
     1
 11
142.429
 21
178.62100000000001
 31
0.0
  0
TEXT
  5
49
  8
0
 62
     7
 10
160.56100000000001
 20
189.07344000000001
 30
0.0
 40
3.0923400000000001
  1
235
 50
90.0
 41
0.5
 72
     1
 11
160.56100000000001
 21
191.13499999999999
 31
0.0
  0
TEXT
  5
4A
  8
0
 62
     7
 10
128.827
 20
165.98099999999999
 30
0.0
 40
3.0923400000000001
  1
26
 41
0.5
  0
TEXT
  5
4B
  8
0
 62
     7
 10
101.63200000000001
 20
133.39205000000001
 30
0.0
 40
3.0923400000000001
  1
25
 50
90.0
 41
0.5
 72
     2
 11
101.63200000000001
 21
135.96899999999999
 31
0.0
  0
TEXT
  5
4C
  8
0
 62
     7
 10
101.63200000000001
 20
63.059100000000001
 30
0.0
 40
3.0923400000000001
  1
25
 50
90.0
 41
0.5
  0
TEXT
  5
4D
  8
0
 62
     7
 10
108.453
 20
97.841982500000015
 30
0.0
 40
3.0923400000000001
  1
610
 50
90.0
 41
0.5
 72
     1
 11
108.453
 21
99.517000000000024
 31
0.0
  0
TEXT
  5
4E
  8
0
 62
     7
 10
101.63200000000001
 20
97.584287500000016
 30
0.0
 40
3.0923400000000001
  1
560
 50
90.0
 41
0.5
 72
     1
 11
101.63200000000001
 21
99.517000000000024
 31
0.0
  0
ARC
  5
4F
  8
0
  6
AIGENLINE002
 62
     7
 10
138.868887
 20
99.341335000000015
 30
0.0
 40
1.3249919999999991
 50
270.00002000000001
 51
359.99999000000003
  0
ARC
  5
50
  8
0
  6
AIGENLINE002
 62
     7
 10
138.868887
 20
99.341334000000003
 30
0.0
 40
1.3249919999999991
 50
179.99996999999999
 51
270.00002000000001
  0
ARC
  5
51
  8
0
  6
AIGENLINE002
 62
     7
 10
138.868888
 20
99.341334000000003
 30
0.0
 40
1.3249919999999991
 50
90.0
 51
179.99996999999999
  0
ARC
  5
52
  8
0
  6
AIGENLINE002
 62
     7
 10
138.868887
 20
99.341334000000003
 30
0.0
 40
1.3249919999999991
 50
0.00001
 51
89.999980000000008
  0
ARC
  5
53
  8
0
 62
     7
 10
46.427948999999998
 20
127.272797
 30
0.0
 40
1.195068
 50
92.122834999999995
 51
177.87713600000001
  0
ARC
  5
54
  8
0
 62
     7
 10
46.422315999999988
 20
127.27843
 30
0.0
 40
1.0394709999999989
 50
92.130042000000003
 51
177.86992799999999
  0
ARC
  5
55
  8
0
 62
     7
 10
45.677611999999989
 20
128.02278899999999
 30
0.0
 40
1.1950789999999989
 50
92.123304000000005
 51
177.876666
  0
ARC
  5
56
  8
0
 62
     7
 10
45.671993000000001
 20
128.02876499999999
 30
0.0
 40
1.039137999999999
 50
92.132052000000002
 51
177.88765799999999
  0
ARC
  5
57
  8
0
 62
     7
 10
46.427565999999999
 20
71.760547000000003
 30
0.0
 40
1.1946719999999991
 50
182.1052169999999
 51
267.894813
  0
ARC
  5
58
  8
0
 62
     7
 10
46.421928000000001
 20
71.754908999999984
 30
0.0
 40
1.039069
 50
182.10952
 51
267.89050900000001
  0
ARC
  5
59
  8
0
 62
     7
 10
45.677611999999989
 20
71.010937999999996
 30
0.0
 40
1.1950789999999989
 50
182.123334
 51
267.87669599999998
  0
ARC
  5
5A
  8
0
 62
     7
 10
45.671914999999998
 20
71.004882999999992
 30
0.0
 40
1.039056999999999
 50
182.10820100000001
 51
267.87208800000002
  0
LINE
  5
5B
  8
0
 62
     7
 10
44.633600000000001
 20
128.06700000000001
 30
0.0
 11
44.633600000000001
 21
70.966700000000003
 31
0.0
  0
ARC
  5
5C
  8
0
 62
     7
 10
89.939783000000006
 20
127.272797
 30
0.0
 40
1.195068
 50
2.122844999999999
 51
87.877145999999996
  0
ARC
  5
5D
  8
0
 62
     7
 10
89.945072999999994
 20
127.27844399999999
 30
0.0
 40
1.0394699999999999
 50
2.1292810000000002
 51
87.850968999999992
  0
ARC
  5
5E
  8
0
 62
     7
 10
90.689785000000001
 20
128.02279899999999
 30
0.0
 40
1.195068
 50
2.122844999999999
 51
87.877145999999996
  0
ARC
  5
5F
  8
0
 62
     7
 10
90.734053000000003
 20
128.06706600000001
 30
0.0
 40
1.0001180000000001
 50
0.00001
 51
89.999980000000008
  0
ARC
  5
60
  8
0
 62
     7
 10
62.647759000000001
 20
75.074297000000001
 30
0.0
 40
1.558624
 50
182.11633
 51
267.88369999999998
  0
ARC
  5
61
  8
0
 62
     7
 10
86.683972999999995
 20
75.016739999999999
 30
0.0
 40
1.5000039999999999
 50
270.00002000000001
 51
359.99999000000003
  0
LINE
  5
62
  8
0
 62
     7
 10
86.683999999999997
 20
73.5167
 30
0.0
 11
62.590200000000003
 21
73.5167
 31
0.0
  0
ARC
  5
63
  8
0
 62
     7
 10
86.683972999999995
 20
124.016987
 30
0.0
 40
1.5000039999999999
 50
0.00001
 51
89.999980000000008
  0
LINE
  5
64
  8
0
 62
     7
 10
88.183999999999997
 20
124.017
 30
0.0
 11
88.183999999999997
 21
75.0167
 31
0.0
  0
ARC
  5
65
  8
0
 62
     7
 10
62.647356999999992
 20
123.95983099999999
 30
0.0
 40
1.558208
 50
92.102082999999993
 51
177.89788799999999
  0
LINE
  5
66
  8
0
 62
     7
 10
62.590200000000003
 20
125.517
 30
0.0
 11
86.683999999999997
 21
125.517
 31
0.0
  0
LINE
  5
67
  8
0
 62
     7
 10
61.09020000000001
 20
75.0167
 30
0.0
 11
61.09020000000001
 21
124.017
 31
0.0
  0
ARC
  5
68
  8
0
 62
     7
 10
89.940164999999993
 20
71.760547000000003
 30
0.0
 40
1.1946719999999991
 50
272.10522400000002
 51
357.89478600000001
  0
ARC
  5
69
  8
0
 62
     7
 10
89.945793999999992
 20
71.754560999999995
 30
0.0
 40
1.038721999999999
 50
272.11073599999997
 51
357.90901400000001
  0
LINE
  5
6A
  8
0
 62
     7
 10
89.984099999999984
 20
70.716499999999996
 30
0.0
 11
46.383699999999997
 21
70.716499999999996
 31
0.0
  0
LINE
  5
6B
  8
0
 62
     7
 10
90.983800000000002
 20
127.31699999999999
 30
0.0
 11
90.983800000000002
 21
71.716700000000003
 31
0.0
  0
LINE
  5
6C
  8
0
 62
     7
 10
46.383699999999997
 20
128.31700000000001
 30
0.0
 11
89.984099999999984
 21
128.31700000000001
 31
0.0
  0
LINE
  5
6D
  8
0
 62
     7
 10
45.383599999999987
 20
71.716700000000003
 30
0.0
 11
45.383599999999987
 21
127.31699999999999
 31
0.0
  0
LINE
  5
6E
  8
0
 62
     7
 10
90.734099999999998
 20
69.816699999999997
 30
0.0
 11
45.633299999999991
 21
69.816699999999997
 31
0.0
  0
LINE
  5
6F
  8
0
 62
     7
 10
91.883999999999986
 20
128.06700000000001
 30
0.0
 11
91.883999999999986
 21
70.966700000000003
 31
0.0
  0
LINE
  5
70
  8
0
 62
     7
 10
45.633299999999991
 20
129.21700000000001
 30
0.0
 11
90.734099999999998
 21
129.21700000000001
 31
0.0
  0
LINE
  5
71
  8
0
 62
     7
 10
44.483400000000003
 20
70.966700000000003
 30
0.0
 11
44.483400000000003
 21
128.06700000000001
 31
0.0
  0
LINE
  5
72
  8
0
 62
     7
 10
89.984099999999984
 20
70.566699999999997
 30
0.0
 11
46.383699999999997
 21
70.566699999999997
 31
0.0
  0
LINE
  5
73
  8
0
 62
     7
 10
91.134
 20
127.31699999999999
 30
0.0
 11
91.134
 21
71.716700000000003
 31
0.0
  0
LINE
  5
74
  8
0
 62
     7
 10
46.383699999999997
 20
128.46700000000001
 30
0.0
 11
89.984099999999984
 21
128.46700000000001
 31
0.0
  0
LINE
  5
75
  8
0
 62
     7
 10
45.233699999999992
 20
71.716700000000003
 30
0.0
 11
45.233699999999992
 21
127.31699999999999
 31
0.0
  0
LINE
  5
76
  8
0
 62
     7
 10
90.734099999999998
 20
69.966499999999996
 30
0.0
 11
45.633299999999991
 21
69.966499999999996
 31
0.0
  0
ARC
  5
77
  8
0
 62
     7
 10
90.690167999999986
 20
71.010544999999993
 30
0.0
 40
1.1946719999999991
 50
272.10522400000002
 51
357.89478600000001
  0
ARC
  5
78
  8
0
 62
     7
 10
90.734053000000003
 20
70.966660000000005
 30
0.0
 40
1.0001180000000001
 50
270.00002000000001
 51
359.99999000000003
  0
LINE
  5
79
  8
0
 62
     7
 10
91.734200000000001
 20
128.06700000000001
 30
0.0
 11
91.734200000000001
 21
70.966700000000003
 31
0.0
  0
LINE
  5
7A
  8
0
 62
     7
 10
45.633299999999991
 20
129.06700000000001
 30
0.0
 11
90.734099999999998
 21
129.06700000000001
 31
0.0
  0
LINE
  5
7B
  8
0
 62
     7
 10
44.633600000000001
 20
70.966700000000003
 30
0.0
 11
44.633600000000001
 21
128.06700000000001
 31
0.0
  0
LINE
  5
7C
  8
0
 62
     7
 10
87.972099999999983
 20
58.080199999999991
 30
0.0
 11
90.183499999999995
 21
58.672800000000002
 31
0.0
  0
LINE
  5
7D
  8
0
 62
     7
 10
90.183499999999995
 20
58.672800000000002
 30
0.0
 11
87.972099999999983
 21
59.265300000000003
 31
0.0
  0
LINE
  5
7E
  8
0
 62
     7
 10
87.972099999999983
 20
59.265300000000003
 30
0.0
 11
87.972099999999983
 21
58.080199999999991
 31
0.0
  0
LINE
  5
7F
  8
0
 62
     7
 10
50.472000000000001
 20
58.080199999999991
 30
0.0
 11
52.683799999999998
 21
58.672800000000002
 31
0.0
  0
LINE
  5
80
  8
0
 62
     7
 10
52.683799999999998
 20
58.672800000000002
 30
0.0
 11
50.472000000000001
 21
59.265300000000003
 31
0.0
  0
LINE
  5
81
  8
0
 62
     7
 10
50.472000000000001
 20
59.265300000000003
 30
0.0
 11
50.472000000000001
 21
58.080199999999991
 31
0.0
  0
LINE
  5
82
  8
0
 62
     7
 10
54.895200000000003
 20
59.265300000000003
 30
0.0
 11
52.683799999999998
 21
58.672800000000002
 31
0.0
  0
LINE
  5
83
  8
0
 62
     7
 10
52.683799999999998
 20
58.672800000000002
 30
0.0
 11
54.895200000000003
 21
58.080199999999991
 31
0.0
  0
LINE
  5
84
  8
0
 62
     7
 10
54.895200000000003
 20
58.080199999999991
 30
0.0
 11
54.895200000000003
 21
59.265300000000003
 31
0.0
  0
LINE
  5
85
  8
0
 62
     7
 10
56.472000000000001
 20
58.080199999999991
 30
0.0
 11
58.683799999999998
 21
58.672800000000002
 31
0.0
  0
LINE
  5
86
  8
0
 62
     7
 10
58.683799999999998
 20
58.672800000000002
 30
0.0
 11
56.472000000000001
 21
59.265300000000003
 31
0.0
  0
LINE
  5
87
  8
0
 62
     7
 10
56.472000000000001
 20
59.265300000000003
 30
0.0
 11
56.472000000000001
 21
58.080199999999991
 31
0.0
  0
LINE
  5
88
  8
0
 62
     7
 10
41.472000000000001
 20
58.080199999999991
 30
0.0
 11
43.683399999999992
 21
58.672800000000002
 31
0.0
  0
LINE
  5
89
  8
0
 62
     7
 10
43.683399999999992
 20
58.672800000000002
 30
0.0
 11
41.472000000000001
 21
59.265300000000003
 31
0.0
  0
LINE
  5
8A
  8
0
 62
     7
 10
41.472000000000001
 20
59.265300000000003
 30
0.0
 11
41.472000000000001
 21
58.080199999999991
 31
0.0
  0
LINE
  5
8B
  8
0
 62
     7
 10
60.895200000000003
 20
59.265300000000003
 30
0.0
 11
58.683799999999998
 21
58.672800000000002
 31
0.0
  0
LINE
  5
8C
  8
0
 62
     7
 10
58.683799999999998
 20
58.672800000000002
 30
0.0
 11
60.895200000000003
 21
58.080199999999991
 31
0.0
  0
LINE
  5
8D
  8
0
 62
     7
 10
60.895200000000003
 20
58.080199999999991
 30
0.0
 11
60.895200000000003
 21
59.265300000000003
 31
0.0
  0
LINE
  5
8E
  8
0
 62
     7
 10
48.395299999999992
 20
59.265300000000003
 30
0.0
 11
46.183500000000002
 21
58.672800000000002
 31
0.0
  0
LINE
  5
8F
  8
0
 62
     7
 10
46.183500000000002
 20
58.672800000000002
 30
0.0
 11
48.395299999999992
 21
58.080199999999991
 31
0.0
  0
LINE
  5
90
  8
0
 62
     7
 10
48.395299999999992
 20
58.080199999999991
 30
0.0
 11
48.395299999999992
 21
59.265300000000003
 31
0.0
  0
LINE
  5
91
  8
0
 62
     7
 10
98.513800000000003
 20
58.672800000000002
 30
0.0
 11
38.104399999999998
 21
58.672800000000002
 31
0.0
  0
LINE
  5
92
  8
0
 62
     7
 10
90.472899999999996
 20
51.6785
 30
0.0
 11
92.684299999999993
 21
52.271000000000001
 31
0.0
  0
LINE
  5
93
  8
0
 62
     7
 10
92.684299999999993
 20
52.271000000000001
 30
0.0
 11
90.472899999999996
 21
52.863599999999998
 31
0.0
  0
LINE
  5
94
  8
0
 62
     7
 10
90.472899999999996
 20
52.863599999999998
 30
0.0
 11
90.472899999999996
 21
51.6785
 31
0.0
  0
LINE
  5
95
  8
0
 62
     7
 10
94.895099999999999
 20
59.265300000000003
 30
0.0
 11
92.683599999999984
 21
58.672800000000002
 31
0.0
  0
LINE
  5
96
  8
0
 62
     7
 10
92.683599999999984
 20
58.672800000000002
 30
0.0
 11
94.895099999999999
 21
58.080199999999991
 31
0.0
  0
LINE
  5
97
  8
0
 62
     7
 10
94.895099999999999
 20
58.080199999999991
 30
0.0
 11
94.895099999999999
 21
59.265300000000003
 31
0.0
  0
LINE
  5
98
  8
0
 62
     7
 10
45.894099999999987
 20
52.849099999999993
 30
0.0
 11
43.682400000000001
 21
52.256599999999999
 31
0.0
  0
LINE
  5
99
  8
0
 62
     7
 10
43.682400000000001
 20
52.256599999999999
 30
0.0
 11
45.894099999999987
 21
51.663999999999987
 31
0.0
  0
LINE
  5
9A
  8
0
 62
     7
 10
45.894099999999987
 20
51.663999999999987
 30
0.0
 11
45.894099999999987
 21
52.849099999999993
 31
0.0
  0
LINE
  5
9B
  8
0
 62
     7
 10
92.683599999999984
 20
52.264200000000002
 30
0.0
 11
43.683399999999992
 21
52.264200000000002
 31
0.0
  0
LINE
  5
9C
  8
0
 62
     7
 10
43.683399999999992
 20
68.132000000000005
 30
0.0
 11
43.683399999999992
 21
51.56410000000001
 31
0.0
  0
LINE
  5
9D
  8
0
 62
     7
 10
52.683799999999998
 20
86.494100000000003
 30
0.0
 11
52.683799999999998
 21
57.97270000000001
 31
0.0
  0
LINE
  5
9E
  8
0
 62
     7
 10
58.683799999999998
 20
70.751699999999985
 30
0.0
 11
58.683799999999998
 21
57.97270000000001
 31
0.0
  0
LINE
  5
9F
  8
0
 62
     7
 10
46.183500000000002
 20
70.126699999999985
 30
0.0
 11
46.183500000000002
 21
57.97270000000001
 31
0.0
  0
LINE
  5
A0
  8
0
 62
     7
 10
90.183499999999995
 20
70.126699999999985
 30
0.0
 11
90.183499999999995
 21
57.97270000000001
 31
0.0
  0
LINE
  5
A1
  8
0
 62
     7
 10
92.683599999999984
 20
68.132000000000005
 30
0.0
 11
92.683599999999984
 21
51.56410000000001
 31
0.0
  0
LINE
  5
A2
  8
0
 62
     7
 10
68.367999999999995
 20
89.701599999999985
 30
0.0
 11
62.498899999999999
 21
89.701599999999985
 31
0.0
  0
LINE
  5
A3
  8
0
 62
     7
 10
78.665800000000004
 20
93.862199999999987
 30
0.0
 11
72.838000000000008
 21
93.862199999999987
 31
0.0
  0
LINE
  5
A4
  8
0
 62
     7
 10
49.463999999999999
 20
101.899
 30
0.0
 11
51.446599999999997
 21
100.755
 31
0.0
  0
LINE
  5
A5
  8
0
 62
     7
 10
51.446599999999997
 20
100.755
 30
0.0
 11
50.302199999999992
 21
102.738
 31
0.0
  0
LINE
  5
A6
  8
0
 62
     7
 10
50.302199999999992
 20
102.738
 30
0.0
 11
49.463999999999999
 21
101.899
 31
0.0
  0
LINE
  5
A7
  8
0
 62
     7
 10
55.905299999999997
 20
97.132999999999996
 30
0.0
 11
53.923000000000002
 21
98.278199999999998
 31
0.0
  0
LINE
  5
A8
  8
0
 62
     7
 10
53.923000000000002
 20
98.278199999999998
 30
0.0
 11
55.067399999999999
 21
96.295199999999994
 31
0.0
  0
LINE
  5
A9
  8
0
 62
     7
 10
55.067399999999999
 20
96.295199999999994
 30
0.0
 11
55.905299999999997
 21
97.132999999999996
 31
0.0
  0
LINE
  5
AA
  8
0
 62
     7
 10
62.498899999999999
 20
89.701599999999985
 30
0.0
 11
48.773200000000003
 21
103.428
 31
0.0
  0
LINE
  5
AB
  8
0
 62
     7
 10
63.645400000000002
 20
102.217
 30
0.0
 11
65.628100000000003
 21
101.07299999999999
 31
0.0
  0
LINE
  5
AC
  8
0
 62
     7
 10
65.628100000000003
 20
101.07299999999999
 30
0.0
 11
64.483599999999996
 21
103.056
 31
0.0
  0
LINE
  5
AD
  8
0
 62
     7
 10
64.483599999999996
 20
103.056
 30
0.0
 11
63.645400000000002
 21
102.217
 31
0.0
  0
LINE
  5
AE
  8
0
 62
     7
 10
70.721400000000003
 20
96.816100000000006
 30
0.0
 11
68.73899999999999
 21
97.961200000000005
 31
0.0
  0
LINE
  5
AF
  8
0
 62
     7
 10
68.73899999999999
 20
97.961200000000005
 30
0.0
 11
69.883499999999998
 21
95.978200000000001
 31
0.0
  0
LINE
  5
B0
  8
0
 62
     7
 10
69.883499999999998
 20
95.978200000000001
 30
0.0
 11
70.721400000000003
 21
96.816100000000006
 31
0.0
  0
LINE
  5
B1
  8
0
 62
     7
 10
72.838000000000008
 20
93.862199999999987
 30
0.0
 11
63.198599999999999
 21
103.502
 31
0.0
  0
LINE
  5
B2
  8
0
 62
     7
 10
38.2239
 20
97.305300000000017
 30
0.0
 11
37.631399999999999
 21
99.517000000000024
 31
0.0
  0
LINE
  5
B3
  8
0
 62
     7
 10
37.631399999999999
 20
99.517000000000024
 30
0.0
 11
37.038800000000002
 21
97.305300000000017
 31
0.0
  0
LINE
  5
B4
  8
0
 62
     7
 10
37.038800000000002
 20
97.305300000000017
 30
0.0
 11
38.2239
 21
97.305300000000017
 31
0.0
  0
LINE
  5
B5
  8
0
 62
     7
 10
38.2239
 20
107.30500000000001
 30
0.0
 11
37.631399999999999
 21
109.517
 31
0.0
  0
LINE
  5
B6
  8
0
 62
     7
 10
37.631399999999999
 20
109.517
 30
0.0
 11
37.038800000000002
 21
107.30500000000001
 31
0.0
  0
LINE
  5
B7
  8
0
 62
     7
 10
37.038800000000002
 20
107.30500000000001
 30
0.0
 11
38.2239
 21
107.30500000000001
 31
0.0
  0
LINE
  5
B8
  8
0
 62
     7
 10
36.9313
 20
109.517
 30
0.0
 11
49.733400000000003
 21
109.517
 31
0.0
  0
LINE
  5
B9
  8
0
 62
     7
 10
37.038800000000002
 20
101.729
 30
0.0
 11
37.631399999999999
 21
99.517000000000024
 31
0.0
  0
LINE
  5
BA
  8
0
 62
     7
 10
37.631399999999999
 20
99.517000000000024
 30
0.0
 11
38.2239
 21
101.729
 31
0.0
  0
LINE
  5
BB
  8
0
 62
     7
 10
38.2239
 20
101.729
 30
0.0
 11
37.038800000000002
 21
101.729
 31
0.0
  0
LINE
  5
BC
  8
0
 62
     7
 10
36.9313
 20
99.517000000000024
 30
0.0
 11
41.022699999999993
 21
99.517000000000024
 31
0.0
  0
LINE
  5
BD
  8
0
 62
     7
 10
37.038800000000002
 20
91.728700000000003
 30
0.0
 11
37.631399999999999
 21
89.516900000000007
 31
0.0
  0
LINE
  5
BE
  8
0
 62
     7
 10
37.631399999999999
 20
89.516900000000007
 30
0.0
 11
38.2239
 21
91.728700000000003
 31
0.0
  0
LINE
  5
BF
  8
0
 62
     7
 10
38.2239
 20
91.728700000000003
 30
0.0
 11
37.038800000000002
 21
91.728700000000003
 31
0.0
  0
LINE
  5
C0
  8
0
 62
     7
 10
37.631399999999999
 20
109.517
 30
0.0
 11
37.631399999999999
 21
89.516900000000007
 31
0.0
  0
LINE
  5
C1
  8
0
 62
     7
 10
36.9313
 20
89.516900000000007
 30
0.0
 11
49.733400000000003
 21
89.516900000000007
 31
0.0
  0
LINE
  5
C2
  8
0
  6
AIGENLINE001
 62
     7
 10
138.637
 20
158.566
 30
0.0
 11
139.09800000000001
 21
155.46000000000001
 31
0.0
  0
LINE
  5
C3
  8
0
  6
AIGENLINE002
 62
     7
 10
154.87899999999999
 20
177.185
 30
0.0
 11
151.47900000000001
 21
177.185
 31
0.0
  0
ARC
  5
C4
  8
0
  6
AIGENLINE002
 62
     7
 10
146.60400100000001
 20
159.91988799999999
 30
0.0
 40
1.750154999999999
 50
279.67325699999998
 51
352.32606099999998
  0
LINE
  5
C5
  8
0
  6
AIGENLINE002
 62
     7
 10
134.84999999999999
 20
156.41
 30
0.0
 11
146.898
 21
158.19499999999999
 31
0.0
  0
LINE
  5
C6
  8
0
  6
AIGENLINE002
 62
     7
 10
148.33799999999999
 20
159.68600000000001
 30
0.0
 11
150.179
 21
175.785
 31
0.0
  0
LINE
  5
C7
  8
0
  6
AIGENLINE002
 62
     7
 10
151.47900000000001
 20
181.58500000000001
 30
0.0
 11
150.179
 21
182.98500000000001
 31
0.0
  0
LINE
  5
C8
  8
0
  6
AIGENLINE002
 62
     7
 10
151.47900000000001
 20
177.185
 30
0.0
 11
150.179
 21
175.785
 31
0.0
  0
LINE
  5
C9
  8
0
  6
AIGENLINE002
 62
     7
 10
150.00399999999999
 20
184.554
 30
0.0
 11
150.179
 21
182.98500000000001
 31
0.0
  0
ARC
  5
CA
  8
0
  6
AIGENLINE002
 62
     7
 10
148.2644379999999
 20
184.350696
 30
0.0
 40
1.7516249999999991
 50
6.6731059999999989
 51
80.377022999999994
  0
LINE
  5
CB
  8
0
  6
AIGENLINE002
 62
     7
 10
136.6929999999999
 20
187.81
 30
0.0
 11
148.55699999999999
 21
186.078
 31
0.0
  0
LINE
  5
CC
  8
0
  6
AIGENLINE002
 62
     7
 10
154.87899999999999
 20
181.58500000000001
 30
0.0
 11
151.47900000000001
 21
181.58500000000001
 31
0.0
  0
LINE
  5
CD
  8
0
  6
AIGENLINE002
 62
     7
 10
150.179
 20
182.98500000000001
 30
0.0
 11
150.179
 21
175.785
 31
0.0
  0
LINE
  5
CE
  8
0
  6
AIGENLINE002
 62
     7
 10
151.47900000000001
 20
181.58500000000001
 30
0.0
 11
151.47900000000001
 21
177.185
 31
0.0
  0
ARC
  5
CF
  8
0
  6
AIGENLINE002
 62
     7
 10
136.79974000000001
 20
188.421097
 30
0.0
 40
0.6207060000000002
 50
181.62714500000001
 51
260.06101799999999
  0
LINE
  5
D0
  8
0
  6
AIGENLINE002
 62
     7
 10
136.179
 20
199.38499999999999
 30
0.0
 11
136.179
 21
188.40299999999999
 31
0.0
  0
ARC
  5
D1
  8
0
  6
AIGENLINE002
 62
     7
 10
134.88597899999999
 20
156.20627899999999
 30
0.0
 40
0.206782
 50
100.07277499999999
 51
178.38024100000001
  0
LINE
  5
D2
  8
0
  6
AIGENLINE002
 62
     7
 10
135.179
 20
200.38499999999999
 30
0.0
 11
134.87899999999999
 21
200.38499999999999
 31
0.0
  0
ARC
  5
D3
  8
0
  6
AIGENLINE002
 62
     7
 10
134.887317
 20
200.592772
 30
0.0
 40
0.208192
 50
182.217139
 51
267.83221900000001
  0
ARC
  5
D4
  8
0
  6
AIGENLINE002
 62
     7
 10
135.14069599999999
 20
199.34613400000001
 30
0.0
 40
1.0393069999999991
 50
2.131202
 51
87.87865699999999
  0
LINE
  5
D5
  8
0
 62
     7
 10
139.499
 20
197.73500000000001
 30
0.0
 11
137.83500000000001
 21
196.34800000000001
 31
0.0
  0
LINE
  5
D6
  8
0
 62
     7
 10
137.83500000000001
 20
196.34800000000001
 30
0.0
 11
137.459
 21
196.035
 31
0.0
  0
LINE
  5
D7
  8
0
 62
     7
 10
137.459
 20
160.73500000000001
 30
0.0
 11
137.83500000000001
 21
160.42099999999999
 31
0.0
  0
LINE
  5
D8
  8
0
 62
     7
 10
137.83500000000001
 20
160.42099999999999
 30
0.0
 11
139.499
 21
159.03399999999999
 31
0.0
  0
LINE
  5
D9
  8
0
 62
     7
 10
136.97900000000001
 20
202.88499999999999
 30
0.0
 11
139.179
 21
202.88499999999999
 31
0.0
  0
LINE
  5
DA
  8
0
 62
     7
 10
139.179
 20
153.88499999999999
 30
0.0
 11
136.97900000000001
 21
153.88499999999999
 31
0.0
  0
LINE
  5
DB
  8
0
 62
     7
 10
139.679
 20
158.65000000000001
 30
0.0
 11
139.679
 21
157.65000000000001
 31
0.0
  0
LINE
  5
DC
  8
0
 62
     7
 10
139.679
 20
157.65000000000001
 30
0.0
 11
139.679
 21
154.88399999999999
 31
0.0
  0
ARC
  5
DD
  8
0
 62
     7
 10
139.17391000000001
 20
158.64784800000001
 30
0.0
 40
0.505274
 50
0.27057
 51
49.903787000000001
  0
LINE
  5
DE
  8
0
 62
     7
 10
139.679
 20
201.88499999999999
 30
0.0
 11
139.679
 21
199.119
 31
0.0
  0
LINE
  5
DF
  8
0
 62
     7
 10
139.679
 20
199.119
 30
0.0
 11
139.679
 21
197.96599999999989
 31
0.0
  0
LINE
  5
E0
  8
0
 62
     7
 10
139.679
 20
202.38499999999999
 30
0.0
 11
139.679
 21
202.346
 31
0.0
  0
LINE
  5
E1
  8
0
 62
     7
 10
139.679
 20
202.346
 30
0.0
 11
139.679
 21
202.23699999999999
 31
0.0
  0
LINE
  5
E2
  8
0
 62
     7
 10
139.679
 20
202.23699999999999
 30
0.0
 11
139.679
 21
202.07499999999999
 31
0.0
  0
LINE
  5
E3
  8
0
 62
     7
 10
139.679
 20
202.07499999999999
 30
0.0
 11
139.679
 21
201.88499999999999
 31
0.0
  0
LINE
  5
E4
  8
0
 62
     7
 10
139.679
 20
202.38499999999999
 30
0.0
 11
139.679
 21
202.39699999999999
 31
0.0
  0
ARC
  5
E5
  8
0
 62
     7
 10
139.50357500000001
 20
202.39819499999999
 30
0.0
 40
0.175608
 50
359.61716799999999
 51
3.6099100000000002
  0
ARC
  5
E6
  8
0
 62
     7
 10
139.413454
 20
202.39298400000001
 30
0.0
 40
0.265878
 50
3.5078269999999989
 51
6.1530120000000004
  0
LINE
  5
E7
  8
0
 62
     7
 10
139.678
 20
202.42099999999999
 30
0.0
 11
139.67699999999999
 21
202.434
 31
0.0
  0
ARC
  5
E8
  8
0
 62
     7
 10
139.80676
 20
202.45451299999999
 30
0.0
 40
0.131306
 50
183.742571
 51
189.11496299999999
  0
ARC
  5
E9
  8
0
 62
     7
 10
139.85600199999999
 20
202.47756899999999
 30
0.0
 40
0.183021
 50
186.08349100000001
 51
189.95073300000001
  0
LINE
  5
EA
  8
0
 62
     7
 10
139.67400000000001
 20
202.458
 30
0.0
 11
139.672
 21
202.47
 31
0.0
  0
ARC
  5
EB
  8
0
 62
     7
 10
139.50002499999999
 20
202.442117
 30
0.0
 40
0.174203
 50
9.2873000000000001
 51
13.332561999999999
  0
ARC
  5
EC
  8
0
 62
     7
 10
139.497613
 20
202.45417499999999
 30
0.0
 40
0.174203
 50
9.2873000000000001
 51
13.332561999999999
  0
LINE
  5
ED
  8
0
 62
     7
 10
139.667
 20
202.494
 30
0.0
 11
139.66399999999999
 21
202.506
 31
0.0
  0
LINE
  5
EE
  8
0
 62
     7
 10
139.66399999999999
 20
202.506
 30
0.0
 11
139.661
 21
202.518
 31
0.0
  0
ARC
  5
EF
  8
0
 62
     7
 10
139.95270600000001
 20
202.61019899999999
 30
0.0
 40
0.305642
 50
195.245082
 51
197.53403499999999
  0
ARC
  5
F0
  8
0
 62
     7
 10
140.49747099999999
 20
202.807953
 30
0.0
 40
0.8845150000000001
 50
197.52919700000001
 51
198.32667799999999
  0
ARC
  5
F1
  8
0
 62
     7
 10
139.53034
 20
202.50799699999999
 30
0.0
 40
0.128158
 50
15.174871
 51
20.680965
  0
ARC
  5
F2
  8
0
 62
     7
 10
139.48196799999999
 20
202.49353600000001
 30
0.0
 40
0.178556
 50
19.540566999999999
 51
23.462297
  0
ARC
  5
F3
  8
0
 62
     7
 10
139.33676600000001
 20
202.451358
 30
0.0
 40
0.329101
 50
20.131523999999999
 51
22.286923000000002
  0
ARC
  5
F4
  8
0
 62
     7
 10
139.48043000000001
 20
202.51351500000001
 30
0.0
 40
0.172624
 50
21.28126
 51
25.328516000000011
  0
LINE
  5
F5
  8
0
 62
     7
 10
139.636
 20
202.58699999999999
 30
0.0
 11
139.631
 21
202.59899999999999
 31
0.0
  0
LINE
  5
F6
  8
0
 62
     7
 10
139.631
 20
202.59899999999999
 30
0.0
 11
139.626
 21
202.61000000000001
 31
0.0
  0
ARC
  5
F7
  8
0
 62
     7
 10
139.80933300000001
 20
202.71546699999999
 30
0.0
 40
0.211604
 50
206.68523300000001
 51
210.02472399999999
  0
ARC
  5
F8
  8
0
 62
     7
 10
139.50922600000001
 20
202.56648999999999
 30
0.0
 40
0.123453
 50
25.912130000000001
 51
31.567454000000001
  0
ARC
  5
F9
  8
0
 62
     7
 10
139.114127
 20
202.34777099999999
 30
0.0
 40
0.574951
 50
29.526026999999999
 51
30.756737000000001
  0
ARC
  5
FA
  8
0
 62
     7
 10
139.371769
 20
202.50179900000001
 30
0.0
 40
0.274779
 50
30.630085000000001
 51
33.211660999999999
  0
ARC
  5
FB
  8
0
 62
     7
 10
139.36671799999999
 20
202.508174
 30
0.0
 40
0.275632
 50
31.527743000000001
 51
34.040811000000012
  0
ARC
  5
FC
  8
0
 62
     7
 10
139.63109900000001
 20
202.69018800000001
 30
0.0
 40
0.04542
 50
209.76969299999999
 51
217.61047400000001
  0
ARC
  5
FD
  8
0
 62
     7
 10
139.62481600000001
 20
202.69417899999999
 30
0.0
 40
0.042462
 50
210.49474000000001
 51
218.68986899999999
  0
ARC
  5
FE
  8
0
 62
     7
 10
139.62137100000001
 20
202.699174
 30
0.0
 40
0.042462
 50
210.49474000000001
 51
218.68986899999999
  0
ARC
  5
FF
  8
0
 62
     7
 10
139.619404
 20
202.70782600000001
 30
0.0
 40
0.045941
 50
213.271739
 51
221.09770499999999
  0
LINE
  5
100
  8
0
 62
     7
 10
139.58099999999999
 20
202.68299999999999
 30
0.0
 11
139.577
 21
202.68700000000001
 31
0.0
  0
ARC
  5
101
  8
0
 62
     7
 10
139.500359
 20
202.630968
 30
0.0
 40
0.095366
 50
36.314306999999999
 51
40.000138
  0
ARC
  5
102
  8
0
 62
     7
 10
139.33906300000001
 20
202.51593700000001
 30
0.0
 40
0.29328
 50
36.958812000000002
 51
39.355632999999997
  0
ARC
  5
103
  8
0
 62
     7
 10
139.67119
 20
202.78859499999999
 30
0.0
 40
0.136431
 50
216.86913799999999
 51
219.445347
  0
LINE
  5
104
  8
0
 62
     7
 10
139.56200000000001
 20
202.70699999999999
 30
0.0
 11
139.55799999999999
 21
202.71100000000001
 31
0.0
  0
ARC
  5
105
  8
0
 62
     7
 10
139.47951399999999
 20
202.64317
 30
0.0
 40
0.103922
 50
41.028948
 51
44.389821999999988
  0
LINE
  5
106
  8
0
 62
     7
 10
139.554
 20
202.71600000000001
 30
0.0
 11
139.55000000000001
 21
202.721
 31
0.0
  0
ARC
  5
107
  8
0
 62
     7
 10
139.47124600000001
 20
202.6523
 30
0.0
 40
0.103922
 50
41.028948
 51
44.389821999999988
  0
LINE
  5
108
  8
0
 62
     7
 10
139.54599999999999
 20
202.72499999999999
 30
0.0
 11
139.54300000000001
 21
202.727
 31
0.0
  0
LINE
  5
109
  8
0
 62
     7
 10
139.54300000000001
 20
202.727
 30
0.0
 11
139.541
 21
202.72900000000001
 31
0.0
  0
LINE
  5
10A
  8
0
 62
     7
 10
139.541
 20
202.72900000000001
 30
0.0
 11
139.535
 21
202.73599999999999
 31
0.0
  0
LINE
  5
10B
  8
0
 62
     7
 10
139.535
 20
202.73599999999999
 30
0.0
 11
139.53299999999999
 21
202.738
 31
0.0
  0
LINE
  5
10D
  8
0
 62
     7
 10
139.53299999999999
 20
202.738
 30
0.0
 11
139.53200000000001
 21
202.739
 31
0.0
  0
LINE
  5
10E
  8
0
 62
     7
 10
139.53200000000001
 20
202.739
 30
0.0
 11
139.53100000000001
 21
202.74100000000001
 31
0.0
  0
LINE
  5
10F
  8
0
 62
     7
 10
139.53100000000001
 20
202.74100000000001
 30
0.0
 11
139.524
 21
202.74700000000001
 31
0.0
  0
LINE
  5
110
  8
0
 62
     7
 10
139.524
 20
202.74700000000001
 30
0.0
 11
139.52199999999999
 21
202.749
 31
0.0
  0
LINE
  5
111
  8
0
 62
     7
 10
139.52199999999999
 20
202.749
 30
0.0
 11
139.52000000000001
 21
202.751
 31
0.0
  0
ARC
  5
112
  8
0
 62
     7
 10
139.5557
 20
202.794533
 30
0.0
 40
0.056503
 50
224.198868
 51
230.38238200000001
  0
ARC
  5
113
  8
0
 62
     7
 10
139.47059999999999
 20
202.708
 30
0.0
 40
0.06489
 50
46.593076000000003
 51
52.204323999999993
  0
ARC
  5
114
  8
0
 62
     7
 10
139.473083
 20
202.723377
 30
0.0
 40
0.051759
 50
43.915110999999989
 51
50.666097999999998
  0
ARC
  5
115
  8
0
 62
     7
 10
139.52747099999999
 20
202.79231899999999
 30
0.0
 40
0.036076
 50
223.749762
 51
233.25732999999991
  0
ARC
  5
116
  8
0
 62
     7
 10
139.53601900000001
 20
202.816383
 30
0.0
 40
0.059999
 50
228.912747
 51
234.772828
  0
LINE
  5
117
  8
0
 62
     7
 10
139.49700000000001
 20
202.77099999999999
 30
0.0
 11
139.48699999999999
 21
202.779
 31
0.0
  0
ARC
  5
118
  8
0
 62
     7
 10
139.53196600000001
 20
202.84118100000001
 30
0.0
 40
0.076841
 50
229.55534800000001
 51
234.13022699999999
  0
ARC
  5
119
  8
0
 62
     7
 10
139.51056
 20
202.825649
 30
0.0
 40
0.051511
 50
229.77517599999999
 51
236.48505700000001
  0
ARC
  5
11A
  8
0
 62
     7
 10
139.50573700000001
 20
202.82926699999999
 30
0.0
 40
0.051511
 50
229.77517599999999
 51
236.48505700000001
  0
ARC
  5
11B
  8
0
 62
     7
 10
139.515503
 20
202.856911
 30
0.0
 40
0.079606
 50
232.73735199999999
 51
237.27863600000001
  0
LINE
  5
11C
  8
0
 62
     7
 10
139.46700000000001
 20
202.79400000000001
 30
0.0
 11
139.46199999999999
 21
202.797
 31
0.0
  0
ARC
  5
11D
  8
0
 62
     7
 10
139.48905500000001
 20
202.83978500000001
 30
0.0
 40
0.050548
 50
231.10122100000001
 51
237.82345100000001
  0
LINE
  5
11E
  8
0
 62
     7
 10
139.45699999999999
 20
202.80000000000001
 30
0.0
 11
139.447
 21
202.80699999999999
 31
0.0
  0
ARC
  5
11F
  8
0
 62
     7
 10
139.357947
 20
202.67011099999999
 30
0.0
 40
0.163431
 50
56.991703999999999
 51
61.352957999999987
  0
ARC
  5
120
  8
0
 62
     7
 10
139.24906999999999
 20
202.50338500000001
 30
0.0
 40
0.362282
 50
58.881996000000001
 51
60.83522
  0
ARC
  5
121
  8
0
 62
     7
 10
139.30695399999999
 20
202.622007
 30
0.0
 40
0.230605
 50
59.030825
 51
62.078304000000003
  0
ARC
  5
122
  8
0
 62
     7
 10
139.278457
 20
202.57443599999999
 30
0.0
 40
0.285998
 50
61.496462999999999
 51
63.904379000000013
  0
LINE
  5
123
  8
0
 62
     7
 10
139.404
 20
202.83099999999999
 30
0.0
 11
139.393
 21
202.83699999999999
 31
0.0
  0
ARC
  5
124
  8
0
 62
     7
 10
139.20532299999999
 20
202.424567
 30
0.0
 40
0.453034
 50
65.494315
 51
67.064880000000002
  0
ARC
  5
125
  8
0
 62
     7
 10
139.30171200000001
 20
202.66866400000001
 30
0.0
 40
0.190777
 50
65.156475
 51
68.866077000000004
  0
ARC
  5
126
  8
0
 62
     7
 10
139.30560299999999
 20
202.70818
 30
0.0
 40
0.152886
 50
64.883689000000004
 51
69.368965000000003
  0
ARC
  5
127
  8
0
 62
     7
 10
139.456357
 20
203.13287
 30
0.0
 40
0.297809
 50
248.613609
 51
251.0148089999999
  0
ARC
  5
128
  8
0
 62
     7
 10
139.23371800000001
 20
202.5377
 30
0.0
 40
0.337705
 50
70.263621999999998
 51
72.361659000000017
  0
ARC
  5
129
  8
0
 62
     7
 10
139.20545000000001
 20
202.45742300000001
 30
0.0
 40
0.422782
 50
72.007351999999997
 51
73.668793999999991
  0
ARC
  5
12A
  8
0
 62
     7
 10
139.24965399999999
 20
202.630878
 30
0.0
 40
0.243978
 50
72.176661999999993
 51
75.044241
  0
ARC
  5
12B
  8
0
 62
     7
 10
139.17802399999999
 20
202.381799
 30
0.0
 40
0.50313
 50
74.483570999999984
 51
75.863453000000007
  0
LINE
  5
12C
  8
0
 62
     7
 10
139.30099999999999
 20
202.87
 30
0.0
 11
139.28899999999999
 21
202.87299999999999
 31
0.0
  0
ARC
  5
12D
  8
0
 62
     7
 10
139.23231100000001
 20
202.62128799999999
 30
0.0
 40
0.257612
 50
77.322469999999996
 51
80.057647999999986
  0
ARC
  5
12E
  8
0
 62
     7
 10
139.21731299999999
 20
202.588356
 30
0.0
 40
0.29278
 50
78.279106999999996
 51
80.679307000000009
  0
ARC
  5
12F
  8
0
 62
     7
 10
139.23147499999999
 20
202.71947800000001
 30
0.0
 40
0.161259
 50
78.098543999999976
 51
82.446280999999985
  0
ARC
  5
130
  8
0
 62
     7
 10
139.17331899999999
 20
202.30980700000001
 30
0.0
 40
0.575033
 50
82.067908000000003
 51
83.279259999999994
  0
ARC
  5
131
  8
0
 62
     7
 10
139.182559
 20
202.42633900000001
 30
0.0
 40
0.458242
 50
82.721436999999995
 51
84.238940999999997
  0
ARC
  5
132
  8
0
 62
     7
 10
139.208876
 20
202.72101499999999
 30
0.0
 40
0.162449
 50
83.041060000000002
 51
87.431638000000007
  0
ARC
  5
133
  8
0
 62
     7
 10
139.18115
 20
202.46895699999999
 30
0.0
 40
0.415819
 50
85.170939000000004
 51
86.884050000000016
  0
ARC
  5
134
  8
0
 62
     7
 10
139.177773
 20
202.233598
 30
0.0
 40
0.6510819999999999
 50
87.713127000000014
 51
89.866264999999984
  0
LINE
  5
135
  8
0
 62
     7
 10
139.679
 20
154.88399999999999
 30
0.0
 11
139.679
 21
154.69
 31
0.0
  0
LINE
  5
136
  8
0
 62
     7
 10
139.679
 20
154.69
 30
0.0
 11
139.679
 21
154.53100000000001
 31
0.0
  0
LINE
  5
137
  8
0
 62
     7
 10
139.679
 20
154.53100000000001
 30
0.0
 11
139.679
 21
154.42400000000001
 31
0.0
  0
LINE
  5
138
  8
0
 62
     7
 10
139.679
 20
154.42400000000001
 30
0.0
 11
139.679
 21
154.38399999999999
 31
0.0
  0
LINE
  5
139
  8
0
 62
     7
 10
139.179
 20
153.88499999999999
 30
0.0
 11
139.20400000000001
 21
153.88499999999999
 31
0.0
  0
LINE
  5
13A
  8
0
 62
     7
 10
139.20400000000001
 20
153.88499999999999
 30
0.0
 11
139.21600000000001
 21
153.886
 31
0.0
  0
LINE
  5
13B
  8
0
 62
     7
 10
139.21600000000001
 20
153.886
 30
0.0
 11
139.22900000000001
 21
153.887
 31
0.0
  0
LINE
  5
13C
  8
0
 62
     7
 10
139.22900000000001
 20
153.887
 30
0.0
 11
139.24100000000001
 21
153.88800000000001
 31
0.0
  0
LINE
  5
13D
  8
0
 62
     7
 10
139.24100000000001
 20
153.88800000000001
 30
0.0
 11
139.25299999999999
 21
153.88999999999999
 31
0.0
  0
LINE
  5
13E
  8
0
 62
     7
 10
139.25299999999999
 20
153.88999999999999
 30
0.0
 11
139.26499999999999
 21
153.892
 31
0.0
  0
LINE
  5
13F
  8
0
 62
     7
 10
139.26499999999999
 20
153.892
 30
0.0
 11
139.27699999999999
 21
153.89400000000001
 31
0.0
  0
LINE
  5
140
  8
0
 62
     7
 10
139.27699999999999
 20
153.89400000000001
 30
0.0
 11
139.28899999999999
 21
153.89699999999999
 31
0.0
  0
LINE
  5
141
  8
0
 62
     7
 10
139.28899999999999
 20
153.89699999999999
 30
0.0
 11
139.30099999999999
 21
153.899
 31
0.0
  0
LINE
  5
142
  8
0
 62
     7
 10
139.30099999999999
 20
153.899
 30
0.0
 11
139.31299999999999
 21
153.90299999999999
 31
0.0
  0
LINE
  5
143
  8
0
 62
     7
 10
139.31299999999999
 20
153.90299999999999
 30
0.0
 11
139.32400000000001
 21
153.90600000000001
 31
0.0
  0
ARC
  5
144
  8
0
 62
     7
 10
139.25492499999999
 20
154.14049
 30
0.0
 40
0.244582
 50
286.48576600000001
 51
289.37009
  0
ARC
  5
145
  8
0
 62
     7
 10
139.29038899999989
 20
154.07086899999999
 30
0.0
 40
0.167461
 50
285.82135499999998
 51
290.03450099999998
  0
ARC
  5
146
  8
0
 62
     7
 10
139.27628999999999
 20
154.11801600000001
 30
0.0
 40
0.216604
 50
289.265694
 51
292.583324
  0
LINE
  5
147
  8
0
 62
     7
 10
139.35900000000001
 20
153.91800000000001
 30
0.0
 11
139.37
 21
153.922
 31
0.0
  0
ARC
  5
148
  8
0
 62
     7
 10
139.31716299999999
 20
154.06402499999999
 30
0.0
 40
0.151242
 50
290.64882699999998
 51
295.328622
  0
LINE
  5
149
  8
0
 62
     7
 10
139.38200000000001
 20
153.92699999999999
 30
0.0
 11
139.393
 21
153.93199999999999
 31
0.0
  0
ARC
  5
14A
  8
0
 62
     7
 10
139.54620800000001
 20
153.62048999999999
 30
0.0
 40
0.347484
 50
114.11098
 51
116.118664
  0
ARC
  5
14B
  8
0
 62
     7
 10
139.48820499999999
 20
153.79724400000001
 30
0.0
 40
0.163594
 50
116.606324
 51
120.87324099999999
  0
ARC
  5
14C
  8
0
 62
     7
 10
139.363415
 20
154.05013600000001
 30
0.0
 40
0.118418
 50
295.791808
 51
301.68779599999999
  0
ARC
  5
14D
  8
0
 62
     7
 10
139.278886
 20
154.21437499999999
 30
0.0
 40
0.3029139999999999
 50
298.97334999999998
 51
301.30943400000001
  0
ARC
  5
14E
  8
0
 62
     7
 10
139.382205
 20
154.055815
 30
0.0
 40
0.113906
 50
298.35227700000002
 51
304.65626900000001
  0
LINE
  5
14F
  8
0
 62
     7
 10
139.447
 20
153.96199999999999
 30
0.0
 11
139.45699999999999
 21
153.96899999999999
 31
0.0
  0
ARC
  5
150
  8
0
 62
     7
 10
139.480582
 20
153.94118599999999
 30
0.0
 40
0.036007
 50
120.816503
 51
130.258825
  0
ARC
  5
151
  8
0
 62
     7
 10
139.54385400000001
 20
153.855131
 30
0.0
 40
0.142694
 50
122.443055
 51
124.93705300000001
  0
ARC
  5
152
  8
0
 62
     7
 10
139.4876919999999
 20
153.950571
 30
0.0
 40
0.032246
 50
118.16370999999999
 51
129.216398
  0
ARC
  5
153
  8
0
 62
     7
 10
139.490816
 20
153.96061599999999
 30
0.0
 40
0.02597
 50
121.375052
 51
134.93937299999999
  0
ARC
  5
154
  8
0
 62
     7
 10
139.32842600000001
 20
154.177223
 30
0.0
 40
0.24488
 50
307.43963000000002
 51
308.87483399999991
  0
LINE
  5
155
  8
0
 62
     7
 10
139.482
 20
153.98699999999999
 30
0.0
 11
139.48699999999999
 21
153.99000000000001
 31
0.0
  0
LINE
  5
156
  8
0
 62
     7
 10
139.48699999999999
 20
153.99000000000001
 30
0.0
 11
139.49700000000001
 21
153.99799999999999
 31
0.0
  0
LINE
  5
157
  8
0
 62
     7
 10
139.49700000000001
 20
153.99799999999999
 30
0.0
 11
139.501
 21
154.00200000000001
 31
0.0
  0
ARC
  5
158
  8
0
 62
     7
 10
139.53595100000001
 20
153.96881200000001
 30
0.0
 40
0.047719
 50
129.047775
 51
136.37097499999999
  0
ARC
  5
159
  8
0
 62
     7
 10
139.46690799999999
 20
154.052594
 30
0.0
 40
0.060849
 50
309.83864299999999
 51
315.58014700000001
  0
ARC
  5
15A
  8
0
 62
     7
 10
139.48054200000001
 20
154.04968299999999
 30
0.0
 40
0.049637
 50
306.93249500000002
 51
314.270105
  0
ARC
  5
15B
  8
0
 62
     7
 10
139.54973200000001
 20
153.98121399999999
 30
0.0
 40
0.047719
 50
129.047775
 51
136.37097499999999
  0
LINE
  5
15C
  8
0
 62
     7
 10
139.52000000000001
 20
154.018
 30
0.0
 11
139.52199999999999
 21
154.02000000000001
 31
0.0
  0
LINE
  5
15D
  8
0
 62
     7
 10
139.52199999999999
 20
154.02000000000001
 30
0.0
 11
139.524
 21
154.02199999999999
 31
0.0
  0
LINE
  5
15E
  8
0
 62
     7
 10
139.524
 20
154.02199999999999
 30
0.0
 11
139.53100000000001
 21
154.029
 31
0.0
  0
LINE
  5
15F
  8
0
 62
     7
 10
139.53100000000001
 20
154.029
 30
0.0
 11
139.53200000000001
 21
154.03
 31
0.0
  0
LINE
  5
160
  8
0
 62
     7
 10
139.53200000000001
 20
154.03
 30
0.0
 11
139.53299999999999
 21
154.03100000000001
 31
0.0
  0
LINE
  5
162
  8
0
 62
     7
 10
139.53299999999999
 20
154.03100000000001
 30
0.0
 11
139.535
 21
154.03299999999999
 31
0.0
  0
ARC
  5
163
  8
0
 62
     7
 10
139.62114199999999
 20
153.957854
 30
0.0
 40
0.11424
 50
134.28643500000001
 51
138.80985000000001
  0
LINE
  5
164
  8
0
 62
     7
 10
139.541
 20
154.03999999999999
 30
0.0
 11
139.54300000000001
 21
154.042
 31
0.0
  0
LINE
  5
165
  8
0
 62
     7
 10
139.54300000000001
 20
154.042
 30
0.0
 11
139.54599999999999
 21
154.04400000000001
 31
0.0
  0
ARC
  5
166
  8
0
 62
     7
 10
139.59183999999999
 20
154.00549100000001
 30
0.0
 40
0.060318
 50
134.394519
 51
140.18667099999999
  0
ARC
  5
167
  8
0
 62
     7
 10
139.50064
 20
154.094776
 30
0.0
 40
0.067337
 50
316.69511499999999
 51
322.102305
  0
ARC
  5
168
  8
0
 62
     7
 10
139.52144999999999
 20
154.087401
 30
0.0
 40
0.046906
 50
313.56541399999998
 51
321.01581599999997
  0
ARC
  5
169
  8
0
 62
     7
 10
139.604243
 20
154.019272
 30
0.0
 40
0.060318
 50
134.394519
 51
140.18667099999999
  0
ARC
  5
16A
  8
0
 62
     7
 10
139.59916799999999
 20
154.037103
 30
0.0
 40
0.044907
 50
137.926671
 51
145.75884400000001
  0
LINE
  5
16B
  8
0
 62
     7
 10
139.566
 20
154.06700000000001
 30
0.0
 11
139.57300000000001
 21
154.077
 31
0.0
  0
LINE
  5
16C
  8
0
 62
     7
 10
139.57300000000001
 20
154.077
 30
0.0
 11
139.577
 21
154.08199999999999
 31
0.0
  0
ARC
  5
16D
  8
0
 62
     7
 10
139.614327
 20
154.05639600000001
 30
0.0
 40
0.044907
 50
137.926671
 51
145.75884400000001
  0
ARC
  5
16E
  8
0
 62
     7
 10
139.603285
 20
154.07287199999999
 30
0.0
 40
0.026121
 50
135.099943
 51
148.58557300000001
  0
ARC
  5
16F
  8
0
 62
     7
 10
139.609128
 20
154.078812
 30
0.0
 40
0.027366
 50
139.79428899999999
 51
152.82554400000001
  0
ARC
  5
170
  8
0
 62
     7
 10
139.62623400000001
 20
154.074873
 30
0.0
 40
0.043718
 50
142.23665299999999
 51
150.38318000000001
  0
ARC
  5
171
  8
0
 62
     7
 10
139.61886100000001
 20
154.085868
 30
0.0
 40
0.031434
 50
139.05247199999999
 51
149.87214
  0
LINE
  5
172
  8
0
 62
     7
 10
139.595
 20
154.10599999999999
 30
0.0
 11
139.602
 21
154.11699999999999
 31
0.0
  0
ARC
  5
173
  8
0
 62
     7
 10
139.51413299999999
 20
154.177798
 30
0.0
 40
0.106686
 50
325.13020699999998
 51
331.861267
  0
ARC
  5
174
  8
0
 62
     7
 10
139.298058
 20
154.31471199999999
 30
0.0
 40
0.362282
 50
328.88200599999999
 51
330.83523000000002
  0
ARC
  5
175
  8
0
 62
     7
 10
139.45688699999999
 20
154.23425399999999
 30
0.0
 40
0.184518
 50
328.61653100000001
 51
332.30591099999998
  0
ARC
  5
176
  8
0
 62
     7
 10
139.71939699999999
 20
154.102904
 30
0.0
 40
0.109113
 50
148.74113700000001
 51
155.299881
  0
ARC
  5
177
  8
0
 62
     7
 10
140.00490099999999
 20
153.98869500000001
 30
0.0
 40
0.415517
 50
154.04568
 51
155.724616
  0
ARC
  5
178
  8
0
 62
     7
 10
140.01006899999999
 20
153.999719
 30
0.0
 40
0.415517
 50
154.04568
 51
155.724616
  0
ARC
  5
179
  8
0
 62
     7
 10
139.37143
 20
154.297552
 30
0.0
 40
0.289295
 50
336.36534499999999
 51
338.87439000000001
  0
LINE
  5
17A
  8
0
 62
     7
 10
139.64099999999999
 20
154.1929999999999
 30
0.0
 11
139.64599999999999
 21
154.20400000000001
 31
0.0
  0
ARC
  5
17B
  8
0
 62
     7
 10
139.47110799999999
 20
154.27780200000001
 30
0.0
 40
0.189485
 50
337.17919599999999
 51
340.9718049999999
  0
ARC
  5
17C
  8
0
 62
     7
 10
139.521985
 20
154.26398699999999
 30
0.0
 40
0.13693
 50
339.49553300000002
 51
344.64863100000002
  0
ARC
  5
17D
  8
0
 62
     7
 10
139.417958
 20
154.31058300000001
 30
0.0
 40
0.250186
 50
340.66223400000001
 51
343.48192999999998
  0
ARC
  5
17E
  8
0
 62
     7
 10
139.48387199999999
 20
154.29697400000001
 30
0.0
 40
0.183212
 50
341.70096999999998
 51
345.51995299999999
  0
ARC
  5
17F
  8
0
 62
     7
 10
139.17647199999999
 20
154.38575800000001
 30
0.0
 40
0.50313
 50
344.48358100000002
 51
345.86346200000003
  0
ARC
  5
180
  8
0
 62
     7
 10
138.498279
 20
154.53575499999999
 30
0.0
 40
1.197589
 50
346.82911899999999
 51
347.42088100000001
  0
ARC
  5
181
  8
0
 62
     7
 10
139.564064
 20
154.301817
 30
0.0
 40
0.106506
 50
345.38065999999998
 51
351.99947700000001
  0
ARC
  5
182
  8
0
 62
     7
 10
139.51326700000001
 20
154.32526999999999
 30
0.0
 40
0.160885
 50
346.23639500000002
 51
350.49633999999998
  0
LINE
  5
183
  8
0
 62
     7
 10
139.672
 20
154.29900000000001
 30
0.0
 11
139.67400000000001
 21
154.31100000000001
 31
0.0
  0
ARC
  5
184
  8
0
 62
     7
 10
139.790919
 20
154.30055999999999
 30
0.0
 40
0.117382
 50
168.89586199999999
 51
174.843896
  0
ARC
  5
185
  8
0
 62
     7
 10
139.833586
 20
154.31123400000001
 30
0.0
 40
0.158303
 50
171.283331
 51
175.67702700000001
  0
LINE
  5
186
  8
0
 62
     7
 10
139.67699999999999
 20
154.33500000000001
 30
0.0
 11
139.678
 21
154.34800000000001
 31
0.0
  0
ARC
  5
187
  8
0
 62
     7
 10
139.57426899999999
 20
154.36249900000001
 30
0.0
 40
0.104595
 50
351.82561400000009
 51
358.64710400000001
  0
ARC
  5
188
  8
0
 62
     7
 10
139.55021199999999
 20
154.36973800000001
 30
0.0
 40
0.128988
 50
355.68332600000002
 51
1.04352
  0
LINE
  5
189
  8
0
 62
     7
 10
139.679
 20
154.37200000000001
 30
0.0
 11
139.679
 21
154.38399999999999
 31
0.0
  0
ARC
  5
18A
  8
0
 62
     7
 10
149.58314200000001
 20
140.41713200000001
 30
0.0
 40
16.980187000000001
 50
98.93588699999998
 51
99.143056000000001
  0
LINE
  5
18B
  8
0
 62
     7
 10
146.946
 20
157.191
 30
0.0
 11
146.97499999999999
 21
157.197
 31
0.0
  0
ARC
  5
18C
  8
0
 62
     7
 10
147.22098399999999
 20
155.93131700000001
 30
0.0
 40
1.289061
 50
99.620012000000017
 51
100.989659
  0
ARC
  5
18D
  8
0
 62
     7
 10
146.475009
 20
159.885017
 30
0.0
 40
2.7347250000000001
 50
281.18672900000001
 51
283.729781
  0
ARC
  5
18E
  8
0
 62
     7
 10
146.520825
 20
159.748402
 30
0.0
 40
2.5911689999999989
 50
283.46262899999999
 51
288.809551
  0
ARC
  5
18F
  8
0
 62
     7
 10
146.52006299999999
 20
159.777276
 30
0.0
 40
2.6187599999999991
 50
288.621645
 51
293.92158799999999
  0
LINE
  5
190
  8
0
 62
     7
 10
147.58199999999999
 20
157.38300000000001
 30
0.0
 11
147.60900000000001
 21
157.39599999999999
 31
0.0
  0
ARC
  5
191
  8
0
 62
     7
 10
147.31829999999999
 20
158.070592
 30
0.0
 40
0.73488
 50
293.34381200000001
 51
295.70588800000002
  0
ARC
  5
192
  8
0
 62
     7
 10
145.86298199999999
 20
161.16583399999999
 30
0.0
 40
4.1551569999999991
 50
295.27459900000002
 51
296.11281400000001
  0
ARC
  5
193
  8
0
 62
     7
 10
146.277871
 20
160.26206099999999
 30
0.0
 40
3.1611250000000002
 50
296.57039600000002
 51
298.75609500000007
  0
ARC
  5
194
  8
0
 62
     7
 10
146.50534999999999
 20
159.83289400000001
 30
0.0
 40
2.6754579999999999
 50
298.90684800000002
 51
304.03823799999998
  0
ARC
  5
195
  8
0
 62
     7
 10
146.52750599999999
 20
159.80778799999999
 30
0.0
 40
2.642255
 50
303.94483600000001
 51
309.13498399999997
  0
ARC
  5
196
  8
0
 62
     7
 10
146.16981999999999
 20
160.23496499999999
 30
0.0
 40
3.1993640000000001
 50
309.27522399999998
 51
311.42884500000002
  0
ARC
  5
197
  8
0
 62
     7
 10
146.275643
 20
160.092735
 30
0.0
 40
3.0227369999999989
 50
311.708777
 51
313.98005699999999
  0
ARC
  5
198
  8
0
 62
     7
 10
146.367842
 20
159.97550899999999
 30
0.0
 40
2.8743979999999989
 50
314.280213
 51
319.013103
  0
ARC
  5
199
  8
0
 62
     7
 10
146.38654500000001
 20
159.94465
 30
0.0
 40
2.8400609999999999
 50
319.23555599999997
 51
323.99392999999998
  0
ARC
  5
19A
  8
0
 62
     7
 10
146.35998699999999
 20
159.94814600000001
 30
0.0
 40
2.8636300000000001
 50
324.24973899999998
 51
328.97324099999997
  0
ARC
  5
19B
  8
0
 62
     7
 10
146.69896
 20
159.74080499999999
 30
0.0
 40
2.4662850000000001
 50
329.04192799999998
 51
331.79849100000001
  0
ARC
  5
19C
  8
0
 62
     7
 10
147.784886
 20
159.17892900000001
 30
0.0
 40
1.24387
 50
330.96911499999999
 51
332.33950399999998
  0
ARC
  5
19D
  8
0
 62
     7
 10
149.933967
 20
158.07062199999999
 30
0.0
 40
1.1742209999999991
 50
151.67039500000001
 51
153.121611
  0
ARC
  5
19E
  8
0
 62
     7
 10
146.25232700000001
 20
159.96349599999999
 30
0.0
 40
2.9658319999999989
 50
333.234013
 51
334.3799810000001
  0
ARC
  5
19F
  8
0
 62
     7
 10
146.461015
 20
159.87508299999999
 30
0.0
 40
2.7394519999999991
 50
334.16001499999999
 51
339.102711
  0
ARC
  5
1A0
  8
0
 62
     7
 10
146.415458
 20
159.89198999999999
 30
0.0
 40
2.788043
 50
339.11208199999999
 51
343.96514400000001
  0
ARC
  5
1A1
  8
0
 62
     7
 10
149.77590499999999
 20
158.94736599999999
 30
0.0
 40
0.7028830000000002
 50
163.21946800000001
 51
165.624844
  0
ARC
  5
1A2
  8
0
 62
     7
 10
148.49050800000001
 20
159.32792900000001
 30
0.0
 40
0.637686
 50
343.82547
 51
346.48362900000001
  0
LINE
  5
1A3
  8
0
 62
     7
 10
149.11099999999999
 20
159.179
 30
0.0
 11
149.125
 21
159.23599999999999
 31
0.0
  0
ARC
  5
1A4
  8
0
 62
     7
 10
145.610906
 20
160.05293499999999
 30
0.0
 40
3.607748
 50
346.91654
 51
348.78868899999998
  0
ARC
  5
1A5
  8
0
 62
     7
 10
145.90106499999999
 20
159.95187999999999
 30
0.0
 40
3.3037540000000001
 50
349.52944100000002
 51
353.604309
  0
ARC
  5
1A6
  8
0
 62
     7
 10
146.15702300000001
 20
159.883195
 30
0.0
 40
3.0419969999999998
 50
354.35292399999997
 51
356.566216
  0
ARC
  5
1A7
  8
0
 62
     7
 10
117.461271
 20
161.40065200000001
 30
0.0
 40
31.777774999999998
 50
356.93403000000001
 51
357.0403950000001
  0
ARC
  5
1A8
  8
0
 62
     7
 10
146.42522199999999
 20
159.854207
 30
0.0
 40
2.7730410000000001
 50
358.05120800000009
 51
359.268776
  0
ARC
  5
1A9
  8
0
 62
     7
 10
-716.62622999999985
 20
171.358802
 30
0.0
 40
865.90116899999987
 50
359.23638900000009
 51
359.33908100000002
  0
ARC
  5
1AA
  8
0
 62
     7
 10
-1580.2550000000001
 20
182.879638
 30
0.0
 40
1729.606
 50
359.287465
 51
359.33887600000003
  0
LINE
  5
1AB
  8
0
 62
     7
 10
149.23599999999999
 20
162.923
 30
0.0
 11
149.25399999999999
 21
164.47499999999999
 31
0.0
  0
ARC
  5
1AC
  8
0
 62
     7
 10
-1004.913
 20
177.80560199999999
 30
0.0
 40
1154.2429999999999
 50
359.33824200000009
 51
359.415279
  0
ARC
  5
1AD
  8
0
 62
     7
 10
-4454.3739999999998
 20
213.055419
 30
0.0
 40
4603.8850000000002
 50
359.41470900000002
 51
359.45333900000003
  0
ARC
  5
1AE
  8
0
 62
     7
 10
-3291.6940000000009
 20
199.69521599999999
 30
0.0
 40
3441.1309999999999
 50
359.49107900000001
 51
359.51692100000002
  0
ARC
  5
1AF
  8
0
 62
     7
 10
-543.33022000000005
 20
176.83962500000001
 30
0.0
 40
692.672414
 50
359.490678
 51
359.61906099999999
  0
ARC
  5
1B0
  8
0
 62
     7
 10
-715.64270599999986
 20
179.15385499999999
 30
0.0
 40
864.99726799999985
 50
359.54165899999998
 51
359.644476
  0
ARC
  5
1B1
  8
0
 62
     7
 10
-1578.037
 20
184.530857
 30
0.0
 40
1727.4079999999999
 50
359.6436230000001
 51
359.695108
  0
ARC
  5
1B2
  8
0
 62
     7
 10
-1004.37
 20
181.49228299999999
 30
0.0
 40
1153.7329999999999
 50
359.69440600000001
 51
359.77148999999997
  0
LINE
  5
1B3
  8
0
 62
     7
 10
149.35400000000001
 20
176.89099999999999
 30
0.0
 11
149.357
 21
177.667
 31
0.0
  0
ARC
  5
1B4
  8
0
 62
     7
 10
1018.7859999999999
 20
176.12553799999989
 30
0.0
 40
869.43088599999987
 50
179.84725
 51
179.89840100000001
  0
ARC
  5
1B5
  8
0
 62
     7
 10
-716.98391100000003
 20
179.98480000000001
 30
0.0
 40
866.34386400000005
 50
359.89804099999998
 51
359.94937399999998
  0
ARC
  5
1B6
  8
0
 62
     7
 10
-718.52091199999995
 20
179.22218799999999
 30
0.0
 40
867.88052600000003
 50
359.99981000000002
 51
0.051052
  0
ARC
  5
1B7
  8
0
 62
     7
 10
-67.548551000000003
 20
179.99848499999999
 30
0.0
 40
216.90781999999999
 50
359.99920900000001
 51
0.204237
  0
ARC
  5
1B8
  8
0
 62
     7
 10
-283.34428200000002
 20
180.00743600000001
 30
0.0
 40
432.70284800000002
 50
0.101196
 51
0.203974
  0
ARC
  5
1B9
  8
0
 62
     7
 10
1026.568
 20
184.661428
 30
0.0
 40
877.21776399999999
 50
180.15268699999999
 51
180.203384
  0
ARC
  5
1BA
  8
0
 62
     7
 10
-709.38957800000003
 20
179.281747
 30
0.0
 40
858.74838000000011
 50
0.202983
 51
0.25477
  0
ARC
  5
1BB
  8
0
 62
     7
 10
-282.212379
 20
181.57282900000001
 30
0.0
 40
431.56539400000003
 50
0.202782
 51
0.305832
  0
ARC
  5
1BC
  8
0
 62
     7
 10
-282.215824
 20
182.34901400000001
 30
0.0
 40
431.56539400000003
 50
0.202782
 51
0.305832
  0
ARC
  5
1BD
  8
0
 62
     7
 10
149.18530999999999
 20
184.65141700000001
 30
0.0
 40
0.158116
 50
0.429085
 51
5.3680680000000001
  0
ARC
  5
1BE
  8
0
 62
     7
 10
149.11489800000001
 20
184.66725
 30
0.0
 40
0.227837
 50
359.73833500000001
 51
3.1620970000000002
  0
ARC
  5
1BF
  8
0
 62
     7
 10
148.80237299999999
 20
184.658998
 30
0.0
 40
0.540416
 50
2.207800999999999
 51
5.0811769999999994
  0
ARC
  5
1C0
  8
0
 62
     7
 10
148.19820799999999
 20
184.661564
 30
0.0
 40
1.143354999999999
 50
2.2705319999999989
 51
4.9953690000000002
  0
ARC
  5
1C1
  8
0
 62
     7
 10
146.94278299999999
 20
184.57980499999999
 30
0.0
 40
2.401292999999999
 50
4.330411999999999
 51
6.9284109999999988
  0
ARC
  5
1C2
  8
0
 62
     7
 10
145.212763
 20
184.36023900000001
 30
0.0
 40
4.1451760000000002
 50
7.0565729999999993
 51
8.5634610000000002
  0
LINE
  5
1C3
  8
0
 62
     7
 10
149.31200000000001
 20
184.977
 30
0.0
 11
149.303
 21
185.03100000000001
 31
0.0
  0
ARC
  5
1C4
  8
0
 62
     7
 10
107.177536
 20
176.93194700000001
 30
0.0
 40
42.896777999999998
 50
10.883251
 51
10.956124000000001
  0
ARC
  5
1C5
  8
0
 62
     7
 10
146.41447199999999
 20
184.510921
 30
0.0
 40
2.9346189999999992
 50
11.276953000000001
 51
15.516463
  0
ARC
  5
1C6
  8
0
 62
     7
 10
146.269814
 20
184.4513
 30
0.0
 40
3.0900119999999989
 50
15.864136999999999
 51
19.882062999999999
  0
ARC
  5
1C7
  8
0
 62
     7
 10
146.07127600000001
 20
184.35031900000001
 30
0.0
 40
3.311172
 50
20.356915000000001
 51
24.122040999999999
  0
ARC
  5
1C8
  8
0
 62
     7
 10
146.79490300000001
 20
184.659246
 30
0.0
 40
2.5245189999999988
 50
24.434846000000011
 51
26.925015999999999
  0
ARC
  5
1C9
  8
0
 62
     7
 10
144.92721
 20
183.716049
 30
0.0
 40
4.6168589999999989
 50
26.865670000000009
 51
27.548311999999999
  0
LINE
  5
1CA
  8
0
 62
     7
 10
149.02099999999999
 20
185.851
 30
0.0
 11
149.00800000000001
 21
185.876
 31
0.0
  0
ARC
  5
1CB
  8
0
 62
     7
 10
147.163622
 20
184.86427399999999
 30
0.0
 40
2.103124999999999
 50
28.748009
 51
29.500091999999999
  0
ARC
  5
1CC
  8
0
 62
     7
 10
146.60940099999999
 20
184.59113300000001
 30
0.0
 40
2.7202229999999989
 50
28.759025999999999
 51
33.399046000000013
  0
ARC
  5
1CD
  8
0
 62
     7
 10
146.392338
 20
184.444334
 30
0.0
 40
2.9822489999999999
 50
33.45803200000001
 51
37.669665000000002
  0
ARC
  5
1CE
  8
0
 62
     7
 10
146.624236
 20
184.621757
 30
0.0
 40
2.6902669999999991
 50
37.696840999999999
 51
42.374682
  0
ARC
  5
1CF
  8
0
 62
     7
 10
146.60047299999999
 20
184.622018
 30
0.0
 40
2.707694
 50
42.031702000000003
 51
46.703532000000003
  0
ARC
  5
1D0
  8
0
 62
     7
 10
141.66674399999999
 20
179.25412499999999
 30
0.0
 40
9.9983559999999994
 50
47.221094000000001
 51
47.540353999999986
  0
ARC
  5
1D1
  8
0
 62
     7
 10
147.93034299999999
 20
186.107631
 30
0.0
 40
0.713811
 50
47.089950000000002
 51
49.352119999999992
  0
ARC
  5
1D2
  8
0
 62
     7
 10
149.24732700000001
 20
187.625541
 30
0.0
 40
1.295806
 50
227.665401
 51
228.88997999999989
  0
ARC
  5
1D3
  8
0
 62
     7
 10
145.95749499999999
 20
183.86550800000001
 30
0.0
 40
3.7006299999999999
 50
49.218564999999998
 51
50.943412999999993
  0
ARC
  5
1D4
  8
0
 62
     7
 10
146.507824
 20
184.51956300000001
 30
0.0
 40
2.8460259999999988
 50
51.250062999999997
 51
55.721316999999992
  0
ARC
  5
1D5
  8
0
 62
     7
 10
146.54696300000001
 20
184.580716
 30
0.0
 40
2.7734509999999988
 50
55.677893000000012
 51
60.254645999999987
  0
ARC
  5
1D6
  8
0
 62
     7
 10
146.54396499999999
 20
184.570291
 30
0.0
 40
2.783990999999999
 50
60.307512000000003
 51
64.900593999999984
  0
ARC
  5
1D7
  8
0
 62
     7
 10
146.560385
 20
184.614541
 30
0.0
 40
2.736956999999999
 50
64.818937000000005
 51
69.492288000000002
  0
ARC
  5
1D8
  8
0
 62
     7
 10
146.591284
 20
184.700334
 30
0.0
 40
2.6457769999999989
 50
69.468139000000008
 51
74.304928000000004
  0
ARC
  5
1DA
  8
0
 62
     7
 10
146.557751
 20
184.59801200000001
 30
0.0
 40
2.7533590000000001
 50
74.209143000000012
 51
77.881163999999984
  0
ARC
  5
1DB
  8
0
 62
     7
 10
146.44099
 20
183.98236
 30
0.0
 40
3.3798370000000002
 50
78.136996999999994
 51
79.636904999999999
  0
ARC
  5
1DC
  8
0
 62
     7
 10
146.56126900000001
 20
184.57355799999999
 30
0.0
 40
2.7766730000000002
 50
79.883882999999997
 51
81.705973999999998
  0
ARC
  5
1DD
  8
0
 62
     7
 10
148.68624199999999
 20
186.9830419999999
 30
0.0
 40
0.08546
 50
79.649315000000016
 51
83.618894999999995
  0
ARC
  5
1DE
  8
0
 62
     7
 10
148.453092
 20
185.545457
 30
0.0
 40
1.5417299999999989
 50
80.944750999999997
 51
81.708882999999986
  0
ARC
  5
1DF
  8
0
 62
     7
 10
149.60930400000001
 20
193.71275900000001
 30
0.0
 40
6.7070220000000003
 50
261.36553199999997
 51
261.99609600000002
  0
ARC
  5
1E0
  8
0
 62
     7
 10
160.41320300000001
 20
269.14588900000001
 30
0.0
 40
82.909697999999992
 50
261.629932
 51
261.81013200000001
  0
ARC
  5
1E1
  8
0
 62
     7
 10
120.75614299999999
 20
-1.391006999999999
 30
0.0
 40
190.518362
 50
81.673947999999996
 51
81.731743999999978
  0
ARC
  5
1E2
  8
0
 62
     7
 10
143.47904
 20
156.05844300000001
 30
0.0
 40
31.438154999999998
 50
81.447888000000006
 51
81.874325999999996
  0
LINE
  5
1E3
  8
0
 62
     7
 10
147.923
 20
187.18100000000001
 30
0.0
 11
147.333
 21
187.267
 31
0.0
  0
ARC
  5
1E4
  8
0
 62
     7
 10
148.528006
 20
184.43897999999999
 30
0.0
 40
2.4793919999999989
 50
8.2208640000000006
 51
13.193194999999999
  0
ARC
  5
1E5
  8
0
 62
     7
 10
148.26769300000001
 20
184.38199399999999
 30
0.0
 40
2.7458419999999988
 50
13.111162
 51
17.592583999999999
  0
ARC
  5
1E6
  8
0
 62
     7
 10
148.152996
 20
184.33679799999999
 30
0.0
 40
2.868847999999999
 50
17.760657999999999
 51
22.064658999999999
  0
ARC
  5
1E7
  8
0
 62
     7
 10
148.58144300000001
 20
184.51649499999999
 30
0.0
 40
2.4042829999999999
 50
21.931471999999999
 51
24.513549999999999
  0
ARC
  5
1E8
  8
0
 62
     7
 10
146.692835
 20
183.64768000000001
 30
0.0
 40
4.4831409999999998
 50
24.601776000000001
 51
24.948499999999999
  0
LINE
  5
1E9
  8
0
 62
     7
 10
150.75800000000001
 20
185.53899999999999
 30
0.0
 11
150.74600000000001
 21
185.56299999999999
 31
0.0
  0
LINE
  5
1EA
  8
0
 62
     7
 10
150.74600000000001
 20
185.56299999999999
 30
0.0
 11
150.72200000000001
 21
185.61199999999999
 31
0.0
  0
ARC
  5
1EB
  8
0
 62
     7
 10
148.39487099999999
 20
184.441811
 30
0.0
 40
2.6048719999999999
 50
26.691741
 51
31.43524600000001
  0
ARC
  5
1EC
  8
0
 62
     7
 10
148.365555
 20
184.430847
 30
0.0
 40
2.6356099999999989
 50
31.306235000000001
 51
35.971829
  0
ARC
  5
1ED
  8
0
 62
     7
 10
148.319964
 20
184.39894200000001
 30
0.0
 40
2.6912470000000002
 50
35.951411999999998
 51
40.538044999999997
  0
ARC
  5
1EE
  8
0
 62
     7
 10
148.71686
 20
184.758195
 30
0.0
 40
2.1561720000000002
 50
40.137873999999996
 51
43.007758000000003
  0
LINE
  5
1EF
  8
0
 62
     7
 10
150.29400000000001
 20
186.22900000000001
 30
0.0
 11
150.256
 21
186.26900000000001
 31
0.0
  0
LINE
  5
1F0
  8
0
 62
     7
 10
150.256
 20
186.26900000000001
 30
0.0
 11
150.23699999999999
 21
186.28800000000001
 31
0.0
  0
LINE
  5
1F1
  8
0
 62
     7
 10
150.23699999999999
 20
186.28800000000001
 30
0.0
 11
150.21799999999999
 21
186.30699999999999
 31
0.0
  0
ARC
  5
1F2
  8
0
 62
     7
 10
148.17892900000001
 20
184.252105
 30
0.0
 40
2.895195999999999
 50
45.223582
 51
49.497159000000011
  0
ARC
  5
1F3
  8
0
 62
     7
 10
148.39264399999999
 20
184.500643
 30
0.0
 40
2.5674090000000001
 50
49.521296999999997
 51
54.308976999999999
  0
ARC
  5
1F4
  8
0
 62
     7
 10
148.24398600000001
 20
184.29080200000001
 30
0.0
 40
2.8245669999999992
 50
54.343204
 51
58.709163000000011
  0
ARC
  5
1F5
  8
0
 62
     7
 10
148.37217000000001
 20
184.50113200000001
 30
0.0
 40
2.5782539999999998
 50
58.715757000000011
 51
61.113732999999989
  0
ARC
  5
1F6
  8
0
 62
     7
 10
145.299262
 20
178.81629899999999
 30
0.0
 40
9.0403909999999996
 50
61.466166999999999
 51
61.808585000000001
  0
ARC
  5
1F7
  8
0
 62
     7
 10
145.27412799999999
 20
178.490263
 30
0.0
 40
9.3405550000000002
 50
62.617536000000001
 51
62.950227000000012
  0
ARC
  5
1F8
  8
0
 62
     7
 10
148.30133000000001
 20
184.37176299999999
 30
0.0
 40
2.7258419999999992
 50
63.399320000000003
 51
67.954065
  0
ARC
  5
1F9
  8
0
 62
     7
 10
148.36983000000001
 20
184.55657099999999
 30
0.0
 40
2.528842
 50
67.820942000000002
 51
72.698650000000001
  0
ARC
  5
1FA
  8
0
 62
     7
 10
148.354176
 20
184.55081200000001
 30
0.0
 40
2.539029999999999
 50
72.400027000000009
 51
77.258626000000007
  0
ARC
  5
1FB
  8
0
 62
     7
 10
148.341555
 20
184.55612300000001
 30
0.0
 40
2.5366699999999991
 50
76.954128999999995
 51
81.840185999999989
  0
LINE
  5
1FC
  8
0
 62
     7
 10
146.96199999999999
 20
187.321
 30
0.0
 11
147.333
 21
187.267
 31
0.0
  0
ARC
  5
1FD
  8
0
 62
     7
 10
146.84540100000001
 20
159.8452659999999
 30
0.0
 40
2.4974880000000002
 50
351.35014799999999
 51
353.37174800000003
  0
ARC
  5
1FE
  8
0
 62
     7
 10
145.86427900000001
 20
164.10073399999999
 30
0.0
 40
6.9959709999999999
 50
279.84391599999998
 51
281.07193599999999
  0
ARC
  5
1FF
  8
0
 62
     7
 10
146.789492
 20
159.27967899999999
 30
0.0
 40
2.0870479999999989
 50
281.56196999999997
 51
285.97422799999998
  0
ARC
  5
200
  8
0
 62
     7
 10
146.59917799999999
 20
160.03968499999999
 30
0.0
 40
2.870201999999999
 50
285.45135900000002
 51
288.85623199999998
  0
ARC
  5
201
  8
0
 62
     7
 10
146.54747800000001
 20
160.126071
 30
0.0
 40
2.9687349999999988
 50
289.26164799999998
 51
292.76656000000003
  0
ARC
  5
202
  8
0
 62
     7
 10
146.60177100000001
 20
159.968143
 30
0.0
 40
2.802122999999999
 50
292.992527
 51
296.91698900000011
  0
ARC
  5
203
  8
0
 62
     7
 10
146.60457500000001
 20
159.94643300000001
 30
0.0
 40
2.7815050000000001
 50
297.06793500000009
 51
301.52837899999997
  0
ARC
  5
204
  8
0
 62
     7
 10
146.688458
 20
159.81308100000001
 30
0.0
 40
2.623975999999999
 50
301.48977500000001
 51
307.42246999999998
  0
ARC
  5
205
  8
0
 62
     7
 10
146.572712
 20
159.95904300000001
 30
0.0
 40
2.810233999999999
 50
307.48820000000001
 51
314.96473800000001
  0
ARC
  5
206
  8
0
 62
     7
 10
146.665887
 20
159.85798
 30
0.0
 40
2.6728900000000002
 50
315.08248200000003
 51
325.1882930000001
  0
ARC
  5
207
  8
0
 62
     7
 10
146.65782200000001
 20
159.869822
 30
0.0
 40
2.686277
 50
325.07912099999999
 51
333.25842599999999
  0
ARC
  5
208
  8
0
 62
     7
 10
146.54280900000001
 20
159.919341
 30
0.0
 40
2.81128
 50
333.41187500000001
 51
339.49604199999999
  0
ARC
  5
209
  8
0
 62
     7
 10
146.72758200000001
 20
159.84916999999999
 30
0.0
 40
2.6136339999999998
 50
339.51808199999999
 51
345.74483900000001
  0
ARC
  5
20A
  8
0
 62
     7
 10
146.1489629999999
 20
159.976406
 30
0.0
 40
3.205824999999999
 50
346.08728600000001
 51
350.904991
  0
LINE
  5
20B
  8
0
 62
     7
 10
147.041
 20
157.20500000000001
 30
0.0
 11
147.06
 21
157.208
 31
0.0
  0
ARC
  5
20C
  8
0
 62
     7
 10
147.035687
 20
157.225514
 30
0.0
 40
0.021197
 50
269.59558900000002
 51
284.65446200000002
  0
ARC
  5
20D
  8
0
 62
     7
 10
147.02355
 20
157.25163599999999
 30
0.0
 40
0.048813
 50
273.96434199999999
 51
284.216229
  0
ARC
  5
20E
  8
0
 62
     7
 10
146.97322299999999
 20
157.50056000000001
 30
0.0
 40
0.302426
 50
277.717061
 51
280.2282100000001
  0
ARC
  5
20F
  8
0
 62
     7
 10
147.09104500000001
 20
156.639398
 30
0.0
 40
0.5667590000000001
 50
97.829932000000014
 51
99.662370999999993
  0
ARC
  5
210
  8
0
 62
     7
 10
147.04681400000001
 20
156.756248
 30
0.0
 40
0.4447910000000001
 50
96.570490000000021
 51
99.438946000000001
  0
ARC
  5
211
  8
0
 62
     7
 10
147.074218
 20
156.409358
 30
0.0
 40
0.7920410000000001
 50
97.278668999999994
 51
99.192548000000002
  0
ARC
  5
212
  8
0
 62
     7
 10
147.07528300000001
 20
156.30277100000001
 30
0.0
 40
0.8975709999999999
 50
98.172640000000015
 51
100.110619
  0
ARC
  5
213
  8
0
 62
     7
 10
146.92084700000001
 20
157.127758
 30
0.0
 40
0.058729
 50
93.056953000000007
 51
101.19305799999999
  0
ARC
  5
214
  8
0
 62
     7
 10
149.79357999999999
 20
184.78381099999999
 30
0.0
 40
0.041137
 50
81.647913000000003
 51
111.444647
  0
ARC
  5
215
  8
0
 62
     7
 10
149.79940099999999
 20
184.77350000000001
 30
0.0
 40
0.052889
 50
113.230464
 51
138.82425499999999
  0
ARC
  5
216
  8
0
 62
     7
 10
149.84457599999999
 20
184.733036
 30
0.0
 40
0.113534
 50
138.46339399999999
 51
153.79495199999999
  0
ARC
  5
217
  8
0
 62
     7
 10
150.00476599999999
 20
184.65126900000001
 30
0.0
 40
0.293378
 50
153.28227999999999
 51
161.098263
  0
ARC
  5
218
  8
0
 62
     7
 10
149.82207399999999
 20
184.70753400000001
 30
0.0
 40
0.102484
 50
157.769136
 51
164.29001299999999
  0
ARC
  5
219
  8
0
 62
     7
 10
149.55407600000001
 20
184.783601
 30
0.0
 40
0.1761
 50
340.06889899999999
 51
344.07526600000011
  0
ARC
  5
21A
  8
0
 62
     7
 10
150.207189
 20
184.57811899999999
 30
0.0
 40
0.508794
 50
163.38886099999999
 51
166.36308799999989
  0
ARC
  5
21B
  8
0
 62
     7
 10
151.01718399999999
 20
184.347307
 30
0.0
 40
1.3507849999999999
 50
164.94899000000001
 51
167.529403
  0
ARC
  5
21C
  8
0
 62
     7
 10
164.910168
 20
181.43205699999999
 30
0.0
 40
15.546263
 50
168.09534400000001
 51
168.35668699999999
  0
ARC
  5
21D
  8
0
 62
     7
 10
157.35679500000001
 20
183.07294899999999
 30
0.0
 40
7.8175919999999994
 50
168.96296699999999
 51
169.559201
  0
ARC
  5
21E
  8
0
 62
     7
 10
137.34785400000001
 20
161.04447500000001
 30
0.0
 40
12.070347999999999
 50
352.92117200000001
 51
353.359309
  0
ARC
  5
21F
  8
0
 62
     7
 10
148.756023
 20
159.732823
 30
0.0
 40
0.5872640000000001
 50
351.75728900000013
 51
354.58422400000001
  0
LINE
  5
220
  8
0
 62
     7
 10
149.327
 20
159.63
 30
0.0
 11
149.327
 21
159.62899999999999
 31
0.0
  0
LINE
  5
221
  8
0
 62
     7
 10
149.327
 20
159.62899999999999
 30
0.0
 11
149.327
 21
159.62799999999999
 31
0.0
  0
LINE
  5
222
  8
0
 62
     7
 10
149.327
 20
159.62799999999999
 30
0.0
 11
149.327
 21
159.626
 31
0.0
  0
LINE
  5
223
  8
0
 62
     7
 10
149.327
 20
159.626
 30
0.0
 11
149.32599999999999
 21
159.624
 31
0.0
  0
ARC
  5
224
  8
0
 62
     7
 10
151.17698100000001
 20
184.807602
 30
0.0
 40
0.18444
 50
251.91449600000001
 51
261.81748199999998
  0
ARC
  5
225
  8
0
 62
     7
 10
151.17805899999999
 20
184.82205400000001
 30
0.0
 40
0.198542
 50
248.27442199999999
 51
252.91365999999999
  0
ARC
  5
226
  8
0
 62
     7
 10
152.434349
 20
187.72752399999999
 30
0.0
 40
3.3639059999999992
 50
246.57414
 51
246.71475499999991
  0
ARC
  5
227
  8
0
 62
     7
 10
151.16191000000001
 20
184.779346
 30
0.0
 40
0.152924
 50
241.99168
 51
244.878243
  0
ARC
  5
228
  8
0
 62
     7
 10
151.17525800000001
 20
184.81515999999999
 30
0.0
 40
0.190879
 50
233.93215499999999
 51
243.50256400000001
  0
ARC
  5
229
  8
0
 62
     7
 10
151.15644800000001
 20
184.79552699999999
 30
0.0
 40
0.163975
 50
229.58182300000001
 51
235.206222
  0
ARC
  5
22A
  8
0
 62
     7
 10
151.16519
 20
184.802761
 30
0.0
 40
0.175161
 50
226.34619499999999
 51
228.93892500000001
  0
ARC
  5
22B
  8
0
 62
     7
 10
151.14134100000001
 20
184.78502700000001
 30
0.0
 40
0.145954
 50
225.15689
 51
228.314548
  0
ARC
  5
22C
  8
0
 62
     7
 10
151.18051199999999
 20
184.82425000000001
 30
0.0
 40
0.201387
 50
216.07830899999999
 51
225.12431100000001
  0
ARC
  5
22D
  8
0
 62
     7
 10
176.81268700000001
 20
201.46504400000001
 30
0.0
 40
30.761272999999999
 50
212.98299299999999
 51
213.01245
  0
LINE
  5
22E
  8
0
 62
     7
 10
151.00899999999999
 20
184.71899999999999
 30
0.0
 11
151.005
 21
184.726
 31
0.0
  0
ARC
  5
22F
  8
0
 62
     7
 10
150.95318700000001
 20
184.70255399999999
 30
0.0
 40
0.056794
 50
24.171123999999999
 51
32.263581000000009
  0
ARC
  5
230
  8
0
 62
     7
 10
151.167956
 20
184.816236
 30
0.0
 40
0.186422
 50
196.80860000000001
 51
206.56298899999999
  0
ARC
  5
231
  8
0
 62
     7
 10
151.160214
 20
184.82033799999999
 30
0.0
 40
0.180302
 50
188.55836599999989
 51
198.76812899999999
  0
ARC
  5
232
  8
0
 62
     7
 10
151.77526900000001
 20
190.563692
 30
0.0
 40
11.037694999999999
 50
268.14550500000001
 51
270.23996699999998
  0
ARC
  5
233
  8
0
 62
     7
 10
151.79534899999999
 20
183.332132
 30
0.0
 40
0.532018
 50
263.93704200000002
 51
267.36082299999998
  0
ARC
  5
234
  8
0
 62
     7
 10
151.7919179999999
 20
183.33931799999999
 30
0.0
 40
0.5388180000000001
 50
261.056174
 51
264.38051000000002
  0
ARC
  5
235
  8
0
 62
     7
 10
151.79971499999999
 20
183.44382300000001
 30
0.0
 40
0.6433210000000001
 50
256.31510500000002
 51
261.81728299999997
  0
ARC
  5
236
  8
0
 62
     7
 10
151.80228600000001
 20
183.47235499999999
 30
0.0
 40
0.671665
 50
251.38771199999999
 51
256.67778199999998
  0
ARC
  5
237
  8
0
 62
     7
 10
151.78689
 20
183.436082
 30
0.0
 40
0.632382
 50
246.03582299999999
 51
251.660819
  0
ARC
  5
238
  8
0
 62
     7
 10
151.84615199999999
 20
183.57737800000001
 30
0.0
 40
0.7855750000000001
 50
244.00079500000001
 51
246.271837
  0
ARC
  5
239
  8
0
 62
     7
 10
151.636177
 20
183.15773799999999
 30
0.0
 40
0.316395
 50
242.00491099999999
 51
244.86501200000001
  0
ARC
  5
23A
  8
0
 62
     7
 10
160.83679599999999
 20
200.288625
 30
0.0
 40
19.761666000000002
 50
241.719303
 51
241.76466300000001
  0
ARC
  5
23B
  8
0
 62
     7
 10
151.85207700000001
 20
183.56847999999999
 30
0.0
 40
0.780462
 50
236.45740000000001
 51
241.015164
  0
LINE
  5
23C
  8
0
 62
     7
 10
151.42099999999999
 20
182.91800000000001
 30
0.0
 11
151.41900000000001
 21
182.91900000000001
 31
0.0
  0
ARC
  5
23D
  8
0
 62
     7
 10
147.637034
 20
176.06157099999999
 30
0.0
 40
6.3248749999999987
 50
32.306193999999998
 51
33.211711000000001
  0
ARC
  5
23E
  8
0
 62
     7
 10
150.75506899999999
 20
175.89336
 30
0.0
 40
3.533669999999999
 50
16.225974999999998
 51
18.579429999999999
  0
ARC
  5
23F
  8
0
 62
     7
 10
147.769195
 20
174.874908
 30
0.0
 40
6.6884410000000001
 50
18.699506
 51
20.008597000000002
  0
ARC
  5
240
  8
0
 62
     7
 10
139.59379999999999
 20
171.83763999999999
 30
0.0
 40
15.409719000000001
 50
20.219193000000001
 51
20.513645
  0
LINE
  5
241
  8
0
 62
     7
 10
154.02600000000001
 20
177.238
 30
0.0
 11
154.01900000000001
 21
177.25599999999989
 31
0.0
  0
LINE
  5
242
  8
0
 62
     7
 10
154.01900000000001
 20
177.25599999999989
 30
0.0
 11
154.012
 21
177.27500000000001
 31
0.0
  0
LINE
  5
243
  8
0
 62
     7
 10
154.012
 20
177.27500000000001
 30
0.0
 11
153.99700000000001
 21
177.31299999999999
 31
0.0
  0
ARC
  5
244
  8
0
 62
     7
 10
145.98897700000001
 20
174.18373600000001
 30
0.0
 40
8.5981000000000005
 50
21.342518999999999
 51
22.438579000000001
  0
ARC
  5
245
  8
0
 62
     7
 10
145.78363300000001
 20
174.118638
 30
0.0
 40
8.8127630000000003
 50
22.320193
 51
23.415323000000001
  0
ARC
  5
246
  8
0
 62
     7
 10
141.73200299999999
 20
172.38174599999999
 30
0.0
 40
13.220974
 50
23.34497
 51
24.091044
  0
ARC
  5
247
  8
0
 62
     7
 10
142.12828200000001
 20
172.60308900000001
 30
0.0
 40
12.768926
 50
23.91017699999999
 51
24.698916000000001
  0
ARC
  5
248
  8
0
 62
     7
 10
132.374706
 20
168.08425399999999
 30
0.0
 40
23.518421
 50
24.771768000000002
 51
25.208839000000012
  0
ARC
  5
249
  8
0
 62
     7
 10
142.138127
 20
172.69569000000001
 30
0.0
 40
12.720764000000001
 50
25.146574999999999
 51
25.556098000000009
  0
LINE
  5
24A
  8
0
 62
     7
 10
153.614
 20
178.18299999999999
 30
0.0
 11
153.595
 21
178.22499999999999
 31
0.0
  0
ARC
  5
24B
  8
0
 62
     7
 10
150.315504
 20
176.67189999999999
 30
0.0
 40
3.6282640000000002
 50
25.339024999999999
 51
26.066579999999998
  0
ARC
  5
24C
  8
0
 62
     7
 10
125.856212
 20
164.92612099999999
 30
0.0
 40
30.761558999999998
 50
25.70013100000001
 51
26.044231
  0
ARC
  5
24D
  8
0
 62
     7
 10
354.53510699999998
 20
277.293025
 30
0.0
 40
224.03326000000001
 50
206.13780299999999
 51
206.18536399999999
  0
ARC
  5
24E
  8
0
 62
     7
 10
181.87347399999999
 20
192.94927899999999
 30
0.0
 40
31.874279999999999
 50
206.420557
 51
206.756775
  0
ARC
  5
24F
  8
0
 62
     7
 10
112.320042
 20
158.17969400000001
 30
0.0
 40
45.885793
 50
26.657467
 51
27.12823400000001
  0
ARC
  5
250
  8
0
 62
     7
 10
45.263688000000002
 20
123.61607600000001
 30
0.0
 40
121.325739
 50
27.215418
 51
27.395585000000001
  0
ARC
  5
251
  8
0
 62
     7
 10
152.532432
 20
176.27249399999999
 30
0.0
 40
1.719449999999999
 50
7.4900160000000007
 51
10.500672
  0
ARC
  5
252
  8
0
 62
     7
 10
152.752591
 20
176.31996000000001
 30
0.0
 40
1.4943420000000001
 50
10.249625
 51
13.911008000000001
  0
ARC
  5
253
  8
0
 62
     7
 10
151.562161
 20
176.05381399999999
 30
0.0
 40
2.7139849999999992
 50
13.322908
 51
15.459258
  0
ARC
  5
254
  8
0
 62
     7
 10
150.01437200000001
 20
175.62790699999999
 30
0.0
 40
4.3193029999999988
 50
15.431798000000001
 51
16.861505999999999
  0
LINE
  5
255
  8
0
 62
     7
 10
151.42500000000001
 20
171.761
 30
0.0
 11
151.517
 21
172.232
 31
0.0
  0
LINE
  5
256
  8
0
 62
     7
 10
151.517
 20
172.232
 30
0.0
 11
151.71899999999999
 21
173.274
 31
0.0
  0
ARC
  5
257
  8
0
 62
     7
 10
-2806.8539999999998
 20
748.56026299999985
 30
0.0
 40
3013.9859999999999
 50
348.99631299999999
 51
349.03666800000002
  0
ARC
  5
258
  8
0
 62
     7
 10
-621.52992800000004
 20
325.79491300000001
 30
0.0
 40
788.144046
 50
348.99616900000001
 51
349.07332599999989
  0
LINE
  5
259
  8
0
 62
     7
 10
152.32599999999999
 20
176.40000000000001
 30
0.0
 11
152.52699999999999
 21
177.44200000000001
 31
0.0
  0
ARC
  5
25A
  8
0
 62
     7
 10
-1326.922
 20
463.15963799999992
 30
0.0
 40
1506.7860000000001
 50
349.06935800000002
 51
349.10970800000001
  0
LINE
  5
25B
  8
0
 62
     7
 10
152.72800000000001
 20
178.48400000000001
 30
0.0
 11
152.82900000000001
 21
179.005
 31
0.0
  0
LINE
  5
25C
  8
0
 62
     7
 10
152.82900000000001
 20
179.005
 30
0.0
 11
152.929
 21
179.52600000000001
 31
0.0
  0
LINE
  5
25D
  8
0
 62
     7
 10
152.929
 20
179.52600000000001
 30
0.0
 11
151.821
 21
179.52600000000001
 31
0.0
  0
LINE
  5
25E
  8
0
 62
     7
 10
152.983
 20
179.44200000000001
 30
0.0
 11
152.99299999999999
 21
179.44800000000001
 31
0.0
  0
ARC
  5
25F
  8
0
 62
     7
 10
146.98096699999999
 20
159.809764
 30
0.0
 40
4.3648730000000002
 50
347.37496700000003
 51
349.77195899999998
  0
ARC
  5
260
  8
0
 62
     7
 10
155.84149300000001
 20
157.80192700000001
 30
0.0
 40
4.7203239999999989
 50
167.100042
 51
167.654989
  0
LINE
  5
261
  8
0
 62
     7
 10
151.22999999999999
 20
158.81100000000001
 30
0.0
 11
151.22
 21
158.767
 31
0.0
  0
ARC
  5
262
  8
0
 62
     7
 10
149.603779
 20
159.143922
 30
0.0
 40
1.6593059999999999
 50
345.27774199999999
 51
346.85888299999999
  0
ARC
  5
263
  8
0
 62
     7
 10
145.98761099999999
 20
160.05920499999999
 30
0.0
 40
5.3894609999999989
 50
343.20874099999997
 51
345.63661999999999
  0
ARC
  5
264
  8
0
 62
     7
 10
146.58297999999999
 20
159.88991799999999
 30
0.0
 40
4.7705830000000002
 50
340.89443299999999
 51
343.08954299999999
  0
ARC
  5
265
  8
0
 62
     7
 10
146.421007
 20
159.966723
 30
0.0
 40
4.9488110000000001
 50
337.49489399999999
 51
340.66798
  0
ARC
  5
266
  8
0
 62
     7
 10
146.16415699999999
 20
160.09207599999999
 30
0.0
 40
5.2341110000000004
 50
334.30351000000002
 51
337.30341099999998
  0
ARC
  5
267
  8
0
 62
     7
 10
145.96373500000001
 20
160.238088
 30
0.0
 40
5.4782060000000001
 50
331.92341600000009
 51
333.83632599999999
  0
ARC
  5
268
  8
0
 62
     7
 10
146.48253799999989
 20
159.97618299999999
 30
0.0
 40
4.897206999999999
 50
328.56143399999991
 51
331.77024899999998
  0
ARC
  5
269
  8
0
 62
     7
 10
146.416856
 20
160.03231299999999
 30
0.0
 40
4.9825419999999987
 50
325.254547
 51
328.40467599999999
  0
ARC
  5
26A
  8
0
 62
     7
 10
145.63805199999999
 20
160.60415699999999
 30
0.0
 40
5.9484479999999991
 50
323.24292400000002
 51
325.00397700000002
  0
ARC
  5
26B
  8
0
 62
     7
 10
146.55224000000001
 20
159.96839399999999
 30
0.0
 40
4.835710999999999
 50
319.54699399999998
 51
322.79610000000002
  0
ARC
  5
26C
  8
0
 62
     7
 10
146.50003899999999
 20
160.01763500000001
 30
0.0
 40
4.9073830000000003
 50
316.30637999999999
 51
319.504955
  0
ARC
  5
26D
  8
0
 62
     7
 10
146.994989
 20
159.535819
 30
0.0
 40
4.2166769999999989
 50
313.911404
 51
316.394183
  0
ARC
  5
26E
  8
0
 62
     7
 10
146.597533
 20
159.93881500000001
 30
0.0
 40
4.782659999999999
 50
310.70909
 51
313.99330900000012
  0
ARC
  5
26F
  8
0
 62
     7
 10
146.3581669999999
 20
160.23886999999999
 30
0.0
 40
5.1662489999999988
 50
307.510966
 51
310.5509990000001
  0
ARC
  5
270
  8
0
 62
     7
 10
145.911585
 20
160.89834400000001
 30
0.0
 40
5.961485999999999
 50
305.300454
 51
307.056195
  0
ARC
  5
271
  8
0
 62
     7
 10
146.50188199999999
 20
160.102069
 30
0.0
 40
4.9705550000000001
 50
301.88973499999997
 51
305.0512129999999
  0
ARC
  5
272
  8
0
 62
     7
 10
146.552751
 20
160.048767
 30
0.0
 40
4.8984480000000001
 50
298.50859100000002
 51
301.71390300000002
  0
ARC
  5
273
  8
0
 62
     7
 10
146.350763
 20
160.45835500000001
 30
0.0
 40
5.3548089999999986
 50
296.35730699999999
 51
298.31603699999999
  0
ARC
  5
274
  8
0
 62
     7
 10
146.760088
 20
159.64354599999999
 30
0.0
 40
4.4429809999999987
 50
293.93716799999999
 51
296.29251600000009
  0
ARC
  5
275
  8
0
 62
     7
 10
146.67823300000001
 20
159.81445500000001
 30
0.0
 40
4.6324050000000003
 50
290.61442899999997
 51
294.00483000000003
  0
ARC
  5
276
  8
0
 62
     7
 10
146.613474
 20
159.98143099999999
 30
0.0
 40
4.81149
 50
287.37279799999999
 51
290.63615899999991
  0
ARC
  5
277
  8
0
 62
     7
 10
145.931197
 20
162.31179
 30
0.0
 40
7.2394009999999991
 50
286.296402
 51
287.01930499999997
  0
ARC
  5
278
  8
0
 62
     7
 10
146.52793
 20
160.34169600000001
 30
0.0
 40
5.181049999999999
 50
283.04464100000001
 51
286.07592699999998
  0
ARC
  5
279
  8
0
 62
     7
 10
146.36230699999999
 20
161.272424
 30
0.0
 40
6.125337
 50
280.87732399999999
 51
282.58886200000001
  0
ARC
  5
27A
  8
0
 62
     7
 10
148.91444999999999
 20
147.568679
 30
0.0
 40
7.8142129999999996
 50
100.29293
 51
100.62686600000001
  0
ARC
  5
27B
  8
0
 62
     7
 10
147.82394300000001
 20
153.02346
 30
0.0
 40
2.252847
 50
98.951274999999995
 51
100.11516899999999
  0
LINE
  5
27C
  8
0
 62
     7
 10
147.428
 20
155.24100000000001
 30
0.0
 11
147.33799999999999
 21
155.227
 31
0.0
  0
LINE
  5
27D
  8
0
 62
     7
 10
154.346
 20
175.93100000000001
 30
0.0
 11
154.345
 21
175.934
 31
0.0
  0
ARC
  5
27E
  8
0
 62
     7
 10
154.294388
 20
175.92645200000001
 30
0.0
 40
0.051171
 50
8.1410359999999997
 51
15.636278000000001
  0
ARC
  5
27F
  8
0
 62
     7
 10
160.40691000000001
 20
177.39953
 30
0.0
 40
6.236381999999999
 50
193.28678099999999
 51
193.53244699999999
  0
ARC
  5
280
  8
0
 62
     7
 10
155.99680799999999
 20
176.35503399999999
 30
0.0
 40
1.7042799999999989
 50
191.68010899999999
 51
193.186398
  0
ARC
  5
281
  8
0
 62
     7
 10
156.34629100000001
 20
176.48208399999999
 30
0.0
 40
2.0729429999999991
 50
191.4190989999999
 51
193.163635
  0
ARC
  5
282
  8
0
 62
     7
 10
154.393338
 20
176.09129999999999
 30
0.0
 40
0.081359
 50
187.41174699999991
 51
193.95811499999999
  0
ARC
  5
283
  8
0
 62
     7
 10
154.627556
 20
176.15566200000001
 30
0.0
 40
0.323672
 50
191.685418
 51
193.37223399999999
  0
ARC
  5
284
  8
0
 62
     7
 10
155.66134400000001
 20
176.38964300000001
 30
0.0
 40
1.383564999999999
 50
191.68623299999999
 51
192.50331799999989
  0
ARC
  5
285
  8
0
 62
     7
 10
161.47921199999999
 20
177.59520699999999
 30
0.0
 40
7.3250279999999988
 50
191.366184
 51
191.70309499999999
  0
ARC
  5
286
  8
0
 62
     7
 10
152.18878000000001
 20
175.74798999999999
 30
0.0
 40
2.1473369999999989
 50
10.833710999999999
 51
11.452066
  0
ARC
  5
287
  8
0
 62
     7
 10
153.709844
 20
176.069253
 30
0.0
 40
0.5929100000000001
 50
10.208964
 51
12.569392000000001
  0
ARC
  5
288
  8
0
 62
     7
 10
152.948983
 20
175.971259
 30
0.0
 40
1.3586609999999999
 50
9.6188880000000001
 51
11.807354999999999
  0
ARC
  5
289
  8
0
 62
     7
 10
162.25275400000001
 20
177.71715499999999
 30
0.0
 40
8.1078410000000005
 50
189.60491400000001
 51
190.430655
  0
ARC
  5
28A
  8
0
 62
     7
 10
159.263542
 20
177.24030300000001
 30
0.0
 40
5.081048
 50
188.416177
 51
189.92731900000001
  0
LINE
  5
28B
  8
0
 62
     7
 10
139.179
 20
153.88499999999999
 30
0.0
 11
139.185
 21
153.88499999999999
 31
0.0
  0
LINE
  5
28C
  8
0
 62
     7
 10
139.185
 20
153.88499999999999
 30
0.0
 11
139.19
 21
153.88499999999999
 31
0.0
  0
LINE
  5
28D
  8
0
 62
     7
 10
139.19
 20
153.88499999999999
 30
0.0
 11
139.19499999999999
 21
153.88499999999999
 31
0.0
  0
LINE
  5
28E
  8
0
 62
     7
 10
139.19499999999999
 20
153.88499999999999
 30
0.0
 11
139.19999999999999
 21
153.88499999999999
 31
0.0
  0
LINE
  5
28F
  8
0
 62
     7
 10
139.19999999999999
 20
153.88499999999999
 30
0.0
 11
139.20400000000001
 21
153.88499999999999
 31
0.0
  0
LINE
  5
290
  8
0
 62
     7
 10
139.20400000000001
 20
153.88499999999999
 30
0.0
 11
139.208
 21
153.886
 31
0.0
  0
LINE
  5
291
  8
0
 62
     7
 10
139.208
 20
153.886
 30
0.0
 11
139.21100000000001
 21
153.886
 31
0.0
  0
LINE
  5
292
  8
0
 62
     7
 10
139.21100000000001
 20
153.886
 30
0.0
 11
139.215
 21
153.887
 31
0.0
  0
LINE
  5
293
  8
0
 62
     7
 10
139.215
 20
153.887
 30
0.0
 11
139.21799999999999
 21
153.887
 31
0.0
  0
LINE
  5
294
  8
0
 62
     7
 10
139.21799999999999
 20
153.887
 30
0.0
 11
139.238
 21
153.88999999999999
 31
0.0
  0
ARC
  5
295
  8
0
 62
     7
 10
139.211195
 20
154.04654400000001
 30
0.0
 40
0.158685
 50
279.67359700000009
 51
286.315653
  0
ARC
  5
296
  8
0
 62
     7
 10
139.20143300000001
 20
154.125573
 30
0.0
 40
0.237621
 50
283.21979099999999
 51
288.139274
  0
LINE
  5
297
  8
0
 62
     7
 10
139.27500000000001
 20
153.90000000000001
 30
0.0
 11
139.286
 21
153.90299999999999
 31
0.0
  0
ARC
  5
298
  8
0
 62
     7
 10
154.63377199999999
 20
175.88457700000001
 30
0.0
 40
0.290755
 50
156.01396800000001
 51
170.78978699999999
  0
ARC
  5
299
  8
0
 62
     7
 10
154.64463000000001
 20
175.875092
 30
0.0
 40
0.304561
 50
134.861906
 51
155.21412699999999
  0
ARC
  5
29A
  8
0
 62
     7
 10
154.457189
 20
176.05890400000001
 30
0.0
 40
0.042174
 50
102.2431
 51
130.51197099999999
  0
ARC
  5
29B
  8
0
 62
     7
 10
154.60056599999999
 20
175.58570900000001
 30
0.0
 40
0.5364870000000001
 50
98.463537000000017
 51
106.494321
  0
ARC
  5
29C
  8
0
 62
     7
 10
152.933255
 20
186.72121000000001
 30
0.0
 40
10.723144
 50
278.51821100000001
 51
279.51443499999999
  0
LINE
  5
29D
  8
0
 62
     7
 10
154.70599999999999
 20
176.14599999999999
 30
0.0
 11
154.71100000000001
 21
176.14699999999999
 31
0.0
  0
ARC
  5
29E
  8
0
 62
     7
 10
146.02503999999999
 20
187.969269
 30
0.0
 40
0.506143
 50
210.50009499999999
 51
261.27463
  0
ARC
  5
29F
  8
0
 62
     7
 10
146.022447
 20
187.97048000000001
 30
0.0
 40
0.5067330000000001
 50
245.996408
 51
261.62076400000001
  0
ARC
  5
2A0
  8
0
 62
     7
 10
149.527387
 20
159.59888599999999
 30
0.0
 40
0.203296
 50
98.968145000000007
 51
150.57731200000001
  0
ARC
  5
2A1
  8
0
 62
     7
 10
149.51773299999999
 20
159.60338400000001
 30
0.0
 40
0.19268
 50
150.33188200000001
 51
173.755752
  0
ARC
  5
2A2
  8
0
 62
     7
 10
134.88714200000001
 20
154.092478
 30
0.0
 40
0.208018
 50
182.22015099999999
 51
267.87858
  0
ARC
  5
2A3
  8
0
 62
     7
 10
134.88747900000001
 20
202.67647199999999
 30
0.0
 40
0.208361
 50
92.210825000000014
 51
177.73981599999999
  0
ARC
  5
2A4
  8
0
 62
     7
 10
137.788265
 20
195.64633699999999
 30
0.0
 40
0.508972
 50
130.28851
 51
179.537093
  0
ARC
  5
2A5
  8
0
 62
     7
 10
137.78645299999999
 20
161.12192400000001
 30
0.0
 40
0.507153
 50
180.36872
 51
229.805677
  0
ARC
  5
2A6
  8
0
 62
     7
 10
139.17022399999999
 20
198.12298699999999
 30
0.0
 40
0.508972
 50
310.28852999999998
 51
359.53711299999998
  0
ARC
  5
2A7
  8
0
 62
     7
 10
140.19611499999999
 20
155.668441
 30
0.0
 40
0.5171390000000001
 50
100.03209200000001
 51
178.39175
  0
ARC
  5
2A8
  8
0
 62
     7
 10
139.98084800000001
 20
197.96608800000001
 30
0.0
 40
0.30167
 50
180.0988549999999
 51
210.08981299999999
  0
ARC
  5
2A9
  8
0
 62
     7
 10
151.217523
 20
160.263285
 30
0.0
 40
0.207188
 50
280.066982
 51
358.271681
  0
ARC
  5
2AA
  8
0
 62
     7
 10
151.218108
 20
184.40639300000001
 30
0.0
 40
0.206584
 50
1.543912999999999
 51
80.068066999999999
  0
ARC
  5
2AB
  8
0
 62
     7
 10
154.5730439999999
 20
176.42174299999999
 30
0.0
 40
0.30636
 50
296.601158
 51
359.28303700000009
  0
ARC
  5
2AC
  8
0
 62
     7
 10
154.56848299999999
 20
182.341049
 30
0.0
 40
0.311066
 50
1.8816689999999989
 51
84.761907999999991
  0
LINE
  5
2AD
  8
0
 62
     7
 10
136.97900000000001
 20
201.88499999999999
 30
0.0
 11
136.97900000000001
 21
202.88499999999999
 31
0.0
  0
LINE
  5
2AE
  8
0
 62
     7
 10
136.97900000000001
 20
153.88499999999999
 30
0.0
 11
136.97900000000001
 21
154.88399999999999
 31
0.0
  0
LINE
  5
2AF
  8
0
 62
     7
 10
134.87899999999999
 20
153.88499999999999
 30
0.0
 11
136.97900000000001
 21
153.88499999999999
 31
0.0
  0
LINE
  5
2B0
  8
0
 62
     7
 10
137.279
 20
161.119
 30
0.0
 11
137.279
 21
195.65000000000001
 31
0.0
  0
LINE
  5
2B1
  8
0
 62
     7
 10
136.97900000000001
 20
154.88399999999999
 30
0.0
 11
136.97900000000001
 21
201.88499999999999
 31
0.0
  0
LINE
  5
2B2
  8
0
 62
     7
 10
136.97900000000001
 20
202.88499999999999
 30
0.0
 11
134.87899999999999
 21
202.88499999999999
 31
0.0
  0
LINE
  5
2B3
  8
0
 62
     7
 10
134.679
 20
154.084
 30
0.0
 11
134.679
 21
154.88399999999999
 31
0.0
  0
LINE
  5
2B4
  8
0
 62
     7
 10
134.679
 20
154.88399999999999
 30
0.0
 11
134.679
 21
201.88499999999999
 31
0.0
  0
LINE
  5
2B5
  8
0
 62
     7
 10
134.679
 20
201.88499999999999
 30
0.0
 11
134.679
 21
202.685
 31
0.0
  0
LINE
  5
2B6
  8
0
 62
     7
 10
139.929
 20
197.45500000000001
 30
0.0
 11
139.72
 21
197.815
 31
0.0
  0
LINE
  5
2B7
  8
0
 62
     7
 10
145.953
 20
187.08600000000001
 30
0.0
 11
139.929
 21
197.45500000000001
 31
0.0
  0
LINE
  5
2B8
  8
0
 62
     7
 10
140.10599999999999
 20
156.178
 30
0.0
 11
146.88499999999999
 21
157.18199999999999
 31
0.0
  0
LINE
  5
2B9
  8
0
 62
     7
 10
145.94800000000001
 20
187.46899999999999
 30
0.0
 11
145.94900000000001
 21
187.46899999999999
 31
0.0
  0
LINE
  5
2BA
  8
0
 62
     7
 10
145.94900000000001
 20
187.46899999999999
 30
0.0
 11
146.96199999999999
 21
187.321
 31
0.0
  0
LINE
  5
2BB
  8
0
 62
     7
 10
151.25399999999999
 20
160.059
 30
0.0
 11
149.3829999999999
 21
159.78299999999999
 31
0.0
  0
LINE
  5
2BC
  8
0
 62
     7
 10
149.80000000000001
 20
184.82499999999999
 30
0.0
 11
151.25399999999999
 21
184.61000000000001
 31
0.0
  0
LINE
  5
2BD
  8
0
 62
     7
 10
151.42500000000001
 20
161.93899999999999
 30
0.0
 11
151.42500000000001
 21
182.72999999999999
 31
0.0
  0
LINE
  5
2BE
  8
0
 62
     7
 10
151.42500000000001
 20
160.25700000000001
 30
0.0
 11
151.42500000000001
 21
161.93899999999999
 31
0.0
  0
LINE
  5
2BF
  8
0
 62
     7
 10
151.42500000000001
 20
182.72999999999999
 30
0.0
 11
151.42500000000001
 21
184.41200000000001
 31
0.0
  0
LINE
  5
2C0
  8
0
 62
     7
 10
154.87899999999999
 20
182.351
 30
0.0
 11
154.87899999999999
 21
176.41800000000001
 31
0.0
  0
LINE
  5
2C1
  8
0
 62
     7
 10
154.59700000000001
 20
182.65100000000001
 30
0.0
 11
151.77099999999999
 21
182.80099999999999
 31
0.0
  0
LINE
  5
2C2
  8
0
 62
     7
 10
139.56299999999999
 20
154.07499999999999
 30
0.0
 11
147.345
 21
155.22800000000001
 31
0.0
  0
LINE
  5
2C3
  8
0
 62
     7
 10
151.27500000000001
 20
159.02699999999999
 30
0.0
 11
154.346
 21
175.93100000000001
 31
0.0
  0
LINE
  5
2C4
  8
0
 62
     7
 10
151.42500000000001
 20
103.31699999999999
 30
0.0
 11
151.42500000000001
 21
123.34399999999999
 31
0.0
  0
ARC
  5
2C5
  8
0
 62
     7
 10
139.16247799999999
 20
129.08857399999999
 30
0.0
 40
0.516875
 50
1.486170999999999
 51
77.887761999999995
  0
LINE
  5
2C6
  8
0
 62
     7
 10
139.27099999999999
 20
129.59399999999999
 30
0.0
 11
137.01599999999999
 21
130.01400000000001
 31
0.0
  0
LINE
  5
2C7
  8
0
 62
     7
 10
149.589
 20
107.542
 30
0.0
 11
149.58099999999999
 21
107.539
 31
0.0
  0
ARC
  5
2C8
  8
0
 62
     7
 10
149.62415799999999
 20
107.44622099999999
 30
0.0
 40
0.101948
 50
114.961704
 51
144.15760399999999
  0
ARC
  5
2C9
  8
0
 62
     7
 10
149.706118
 20
107.358233
 30
0.0
 40
0.221144
 50
138.10072299999999
 51
147.734251
  0
ARC
  5
2CA
  8
0
 62
     7
 10
149.724625
 20
107.35793
 30
0.0
 40
0.23715
 50
150.060102
 51
155.12471300000001
  0
ARC
  5
2CB
  8
0
 62
     7
 10
149.69702599999999
 20
107.38041
 30
0.0
 40
0.202846
 50
157.606965
 51
160.31797800000001
  0
LINE
  5
2CC
  8
0
 62
     7
 10
149.506
 20
107.449
 30
0.0
 11
149.505
 21
107.446
 31
0.0
  0
ARC
  5
2CD
  8
0
 62
     7
 10
137.788265
 20
122.278947
 30
0.0
 40
0.508972
 50
130.28851
 51
179.537093
  0
ARC
  5
2CE
  8
0
 62
     7
 10
150.40439699999999
 20
109.130734
 30
0.0
 40
1.0202919999999991
 50
298.636934
 51
359.31733000000003
  0
LINE
  5
2CF
  8
0
 62
     7
 10
139.571
 20
124.42700000000001
 30
0.0
 11
137.459
 21
122.667
 31
0.0
  0
ARC
  5
2D0
  8
0
 62
     7
 10
140.19551799999999
 20
128.23300499999999
 30
0.0
 40
0.5165390000000001
 50
181.59232399999999
 51
260.02332000000001
  0
ARC
  5
2D1
  8
0
 62
     7
 10
139.37765899999999
 20
124.658384
 30
0.0
 40
0.30152
 50
309.96875299999999
 51
359.88499200000001
  0
LINE
  5
2D2
  8
0
 62
     7
 10
139.679
 20
129.102
 30
0.0
 11
139.679
 21
124.658
 31
0.0
  0
LINE
  5
2D3
  8
0
 62
     7
 10
149.476
 20
107.483
 30
0.0
 11
150.89400000000001
 21
108.235
 31
0.0
  0
LINE
  5
2D4
  8
0
 62
     7
 10
149.30699999999999
 20
107.491
 30
0.0
 11
149.19800000000001
 21
124.08199999999999
 31
0.0
  0
LINE
  5
2D5
  8
0
 62
     7
 10
137.279
 20
104.07299999999999
 30
0.0
 11
147.06999999999999
 21
103.982
 31
0.0
  0
ARC
  5
2D6
  8
0
 62
     7
 10
152.78321199999999
 20
101.357846
 30
0.0
 40
1.5390360000000001
 50
4.6705319999999997
 51
73.249938000000014
  0
ARC
  5
2D7
  8
0
 62
     7
 10
146.92564299999989
 20
88.946328000000008
 30
0.0
 40
15.036275
 50
76.16058000000001
 51
89.448637000000005
  0
ARC
  5
2D8
  8
0
 62
     7
 10
123.59150699999999
 20
99.524633999999992
 30
0.0
 40
30.787987999999999
 50
359.985859
 51
3.6472440000000002
  0
ARC
  5
2D9
  8
0
 62
     7
 10
151.873255
 20
103.63133999999999
 30
0.0
 40
0.7114120000000002
 50
181.53795400000001
 51
201.42852500000001
  0
ARC
  5
2DA
  8
0
 62
     7
 10
-17.45101
 20
99.508261000000005
 30
0.0
 40
168.66304700000001
 50
1.3942840000000001
 51
2.984329999999999
  0
LINE
  5
2DB
  8
0
 62
     7
 10
153.14500000000001
 20
102.855
 30
0.0
 11
154.59700000000001
 21
102.783
 31
0.0
  0
ARC
  5
2DC
  8
0
 62
     7
 10
154.568298
 20
102.473416
 30
0.0
 40
0.31125
 50
1.879802999999999
 51
84.730893999999992
  0
LINE
  5
2DD
  8
0
 62
     7
 10
151.25399999999999
 20
123.54300000000001
 30
0.0
 11
149.596
 21
123.78700000000001
 31
0.0
  0
ARC
  5
2DE
  8
0
 62
     7
 10
151.217907
 20
123.338937
 30
0.0
 40
0.206785
 50
1.5414289999999999
 51
80.021243999999996
  0
ARC
  5
2DF
  8
0
 62
     7
 10
149.63047
 20
123.990185
 30
0.0
 40
0.205844
 50
189.55717999999999
 51
260.44284900000002
  0
ARC
  5
2E0
  8
0
 62
     7
 10
-8.3024050000000003
 20
100.955552
 30
0.0
 40
159.39805000000001
 50
8.2964970000000005
 51
8.4647279999999991
  0
LINE
  5
2E1
  8
0
 62
     7
 10
140.10599999999999
 20
127.724
 30
0.0
 11
147.084
 21
126.69
 31
0.0
  0
ARC
  5
2E2
  8
0
 62
     7
 10
146.621343
 20
123.95176600000001
 30
0.0
 40
2.777512999999999
 50
9.6850210000000008
 51
80.401806999999977
  0
LINE
  5
2E3
  8
0
 62
     7
 10
149.19800000000001
 20
124.08199999999999
 30
0.0
 11
149.196
 21
124.158
 31
0.0
  0
LINE
  5
2E4
  8
0
 62
     7
 10
149.196
 20
124.158
 30
0.0
 11
149.191
 21
124.23399999999999
 31
0.0
  0
LINE
  5
2E5
  8
0
 62
     7
 10
149.191
 20
124.23399999999999
 30
0.0
 11
149.185
 21
124.309
 31
0.0
  0
LINE
  5
2E6
  8
0
 62
     7
 10
149.185
 20
124.309
 30
0.0
 11
149.17599999999999
 21
124.384
 31
0.0
  0
LINE
  5
2E7
  8
0
 62
     7
 10
149.17599999999999
 20
124.384
 30
0.0
 11
149.166
 21
124.459
 31
0.0
  0
LINE
  5
2E8
  8
0
 62
     7
 10
149.166
 20
124.459
 30
0.0
 11
149.15299999999999
 21
124.533
 31
0.0
  0
LINE
  5
2E9
  8
0
 62
     7
 10
149.15299999999999
 20
124.533
 30
0.0
 11
149.13800000000001
 21
124.607
 31
0.0
  0
LINE
  5
2EA
  8
0
 62
     7
 10
149.13800000000001
 20
124.607
 30
0.0
 11
149.12100000000001
 21
124.68000000000001
 31
0.0
  0
LINE
  5
2EB
  8
0
 62
     7
 10
149.12100000000001
 20
124.68000000000001
 30
0.0
 11
149.102
 21
124.753
 31
0.0
  0
LINE
  5
2EC
  8
0
 62
     7
 10
149.102
 20
124.753
 30
0.0
 11
149.08199999999999
 21
124.825
 31
0.0
  0
LINE
  5
2ED
  8
0
 62
     7
 10
149.08199999999999
 20
124.825
 30
0.0
 11
149.059
 21
124.896
 31
0.0
  0
LINE
  5
2EE
  8
0
 62
     7
 10
149.059
 20
124.896
 30
0.0
 11
149.03399999999999
 21
124.967
 31
0.0
  0
LINE
  5
2EF
  8
0
 62
     7
 10
149.03399999999999
 20
124.967
 30
0.0
 11
149.00800000000001
 21
125.03700000000001
 31
0.0
  0
LINE
  5
2F0
  8
0
 62
     7
 10
149.00800000000001
 20
125.03700000000001
 30
0.0
 11
148.97900000000001
 21
125.10599999999999
 31
0.0
  0
LINE
  5
2F1
  8
0
 62
     7
 10
148.97900000000001
 20
125.10599999999999
 30
0.0
 11
148.94800000000001
 21
125.176
 31
0.0
  0
LINE
  5
2F2
  8
0
 62
     7
 10
148.94800000000001
 20
125.176
 30
0.0
 11
148.916
 21
125.244
 31
0.0
  0
LINE
  5
2F3
  8
0
 62
     7
 10
148.916
 20
125.244
 30
0.0
 11
148.88
 21
125.31100000000001
 31
0.0
  0
LINE
  5
2F4
  8
0
 62
     7
 10
148.88
 20
125.31100000000001
 30
0.0
 11
148.84399999999999
 21
125.378
 31
0.0
  0
LINE
  5
2F5
  8
0
 62
     7
 10
148.84399999999999
 20
125.378
 30
0.0
 11
148.80500000000001
 21
125.444
 31
0.0
  0
LINE
  5
2F6
  8
0
 62
     7
 10
148.80500000000001
 20
125.444
 30
0.0
 11
148.76499999999999
 21
125.508
 31
0.0
  0
LINE
  5
2F7
  8
0
 62
     7
 10
148.76499999999999
 20
125.508
 30
0.0
 11
148.72300000000001
 21
125.571
 31
0.0
  0
LINE
  5
2F8
  8
0
 62
     7
 10
148.72300000000001
 20
125.571
 30
0.0
 11
148.68000000000001
 21
125.63200000000001
 31
0.0
  0
LINE
  5
2F9
  8
0
 62
     7
 10
148.68000000000001
 20
125.63200000000001
 30
0.0
 11
148.63399999999999
 21
125.693
 31
0.0
  0
LINE
  5
2FA
  8
0
 62
     7
 10
148.63399999999999
 20
125.693
 30
0.0
 11
148.58799999999999
 21
125.752
 31
0.0
  0
LINE
  5
2FB
  8
0
 62
     7
 10
148.58799999999999
 20
125.752
 30
0.0
 11
148.53899999999999
 21
125.81
 31
0.0
  0
LINE
  5
2FC
  8
0
 62
     7
 10
148.53899999999999
 20
125.81
 30
0.0
 11
148.489
 21
125.866
 31
0.0
  0
LINE
  5
2FD
  8
0
 62
     7
 10
148.489
 20
125.866
 30
0.0
 11
148.43700000000001
 21
125.922
 31
0.0
  0
LINE
  5
2FE
  8
0
 62
     7
 10
148.43700000000001
 20
125.922
 30
0.0
 11
148.38300000000001
 21
125.976
 31
0.0
  0
LINE
  5
2FF
  8
0
 62
     7
 10
148.38300000000001
 20
125.976
 30
0.0
 11
148.327
 21
126.029
 31
0.0
  0
LINE
  5
300
  8
0
 62
     7
 10
148.327
 20
126.029
 30
0.0
 11
148.27000000000001
 21
126.08
 31
0.0
  0
LINE
  5
301
  8
0
 62
     7
 10
148.27000000000001
 20
126.08
 30
0.0
 11
148.21100000000001
 21
126.13
 31
0.0
  0
LINE
  5
302
  8
0
 62
     7
 10
148.21100000000001
 20
126.13
 30
0.0
 11
148.15100000000001
 21
126.178
 31
0.0
  0
LINE
  5
303
  8
0
 62
     7
 10
148.15100000000001
 20
126.178
 30
0.0
 11
148.09
 21
126.224
 31
0.0
  0
LINE
  5
304
  8
0
 62
     7
 10
148.09
 20
126.224
 30
0.0
 11
148.02799999999999
 21
126.26900000000001
 31
0.0
  0
LINE
  5
305
  8
0
 62
     7
 10
148.02799999999999
 20
126.26900000000001
 30
0.0
 11
147.964
 21
126.31100000000001
 31
0.0
  0
LINE
  5
306
  8
0
 62
     7
 10
147.964
 20
126.31100000000001
 30
0.0
 11
147.899
 21
126.352
 31
0.0
  0
LINE
  5
307
  8
0
 62
     7
 10
147.899
 20
126.352
 30
0.0
 11
147.833
 21
126.39100000000001
 31
0.0
  0
LINE
  5
308
  8
0
 62
     7
 10
147.833
 20
126.39100000000001
 30
0.0
 11
147.76599999999999
 21
126.429
 31
0.0
  0
LINE
  5
309
  8
0
 62
     7
 10
147.76599999999999
 20
126.429
 30
0.0
 11
147.697
 21
126.464
 31
0.0
  0
LINE
  5
30A
  8
0
 62
     7
 10
147.697
 20
126.464
 30
0.0
 11
147.62700000000001
 21
126.498
 31
0.0
  0
LINE
  5
30B
  8
0
 62
     7
 10
147.62700000000001
 20
126.498
 30
0.0
 11
147.55600000000001
 21
126.53
 31
0.0
  0
LINE
  5
30C
  8
0
 62
     7
 10
147.55600000000001
 20
126.53
 30
0.0
 11
147.48400000000001
 21
126.559
 31
0.0
  0
LINE
  5
30D
  8
0
 62
     7
 10
147.48400000000001
 20
126.559
 30
0.0
 11
147.41200000000001
 21
126.587
 31
0.0
  0
LINE
  5
30E
  8
0
 62
     7
 10
147.41200000000001
 20
126.587
 30
0.0
 11
147.339
 21
126.61199999999999
 31
0.0
  0
LINE
  5
30F
  8
0
 62
     7
 10
147.339
 20
126.61199999999999
 30
0.0
 11
147.2649999999999
 21
126.63500000000001
 31
0.0
  0
LINE
  5
310
  8
0
 62
     7
 10
147.2649999999999
 20
126.63500000000001
 30
0.0
 11
147.19
 21
126.657
 31
0.0
  0
LINE
  5
311
  8
0
 62
     7
 10
147.19
 20
126.657
 30
0.0
 11
147.11500000000001
 21
126.676
 31
0.0
  0
LINE
  5
312
  8
0
 62
     7
 10
147.11500000000001
 20
126.676
 30
0.0
 11
147.03899999999999
 21
126.69199999999999
 31
0.0
  0
LINE
  5
313
  8
0
 62
     7
 10
147.03899999999999
 20
126.69199999999999
 30
0.0
 11
146.96299999999999
 21
126.70699999999999
 31
0.0
  0
LINE
  5
314
  8
0
 62
     7
 10
146.96299999999999
 20
126.70699999999999
 30
0.0
 11
146.88499999999999
 21
126.72
 31
0.0
  0
ARC
  5
315
  8
0
 62
     7
 10
140.58385000000001
 20
99.573137000000003
 30
0.0
 40
10.090921
 50
359.68145500000003
 51
24.297194000000001
  0
ARC
  5
316
  8
0
 62
     7
 10
134.88749200000001
 20
129.809136
 30
0.0
 40
0.208367
 50
92.214104000000006
 51
177.785866
  0
LINE
  5
317
  8
0
 62
     7
 10
134.87899999999999
 20
130.017
 30
0.0
 11
136.97900000000001
 21
130.017
 31
0.0
  0
ARC
  5
318
  8
0
 62
     7
 10
136.98034999999999
 20
129.83027899999999
 30
0.0
 40
0.187072
 50
78.981746999999999
 51
90.339760999999996
  0
ARC
  5
319
  8
0
 62
     7
 10
139.16301999999999
 20
69.945400000000006
 30
0.0
 40
0.5163300000000001
 50
282.063672
 51
358.522943
  0
LINE
  5
31A
  8
0
 62
     7
 10
139.27099999999999
 20
69.4405
 30
0.0
 11
137.01599999999999
 21
69.020200000000003
 31
0.0
  0
ARC
  5
31B
  8
0
 62
     7
 10
149.60611599999999
 20
91.552323999999999
 30
0.0
 40
0.062142
 50
246.29637199999999
 51
253.73743899999999
  0
ARC
  5
31C
  8
0
 62
     7
 10
149.62415799999999
 20
91.587849000000006
 30
0.0
 40
0.101948
 50
215.84239600000001
 51
245.038296
  0
ARC
  5
31D
  8
0
 62
     7
 10
149.730886
 20
91.692987999999986
 30
0.0
 40
0.251061
 50
212.49122700000001
 51
221.037566
  0
ARC
  5
31E
  8
0
 62
     7
 10
149.657962
 20
91.641919000000001
 30
0.0
 40
0.162165
 50
203.70298299999999
 51
211.112202
  0
ARC
  5
31F
  8
0
 62
     7
 10
149.652671
 20
91.636944999999997
 30
0.0
 40
0.15534
 50
199.26736600000001
 51
202.80769100000001
  0
LINE
  5
320
  8
0
 62
     7
 10
149.506
 20
91.585700000000003
 30
0.0
 11
149.505
 21
91.587800000000001
 31
0.0
  0
ARC
  5
321
  8
0
 62
     7
 10
137.786464
 20
76.754280000000008
 30
0.0
 40
0.5071640000000001
 50
180.369281
 51
229.805116
  0
ARC
  5
322
  8
0
 62
     7
 10
150.40407400000001
 20
89.903142999999986
 30
0.0
 40
1.020618
 50
0.6933590000000002
 51
61.352378000000002
  0
LINE
  5
323
  8
0
 62
     7
 10
139.571
 20
74.606800000000007
 30
0.0
 11
137.459
 21
76.366900000000001
 31
0.0
  0
ARC
  5
324
  8
0
 62
     7
 10
140.19662299999999
 20
70.800466999999998
 30
0.0
 40
0.5176600000000001
 50
100.079052
 51
178.34478899999999
  0
ARC
  5
325
  8
0
 62
     7
 10
139.37346299999999
 20
74.373723999999996
 30
0.0
 40
0.305727
 50
0.4813750000000001
 51
49.664878999999992
  0
LINE
  5
326
  8
0
 62
     7
 10
139.679
 20
69.932100000000005
 30
0.0
 11
139.679
 21
74.376300000000001
 31
0.0
  0
LINE
  5
327
  8
0
 62
     7
 10
149.476
 20
91.551199999999994
 30
0.0
 11
150.89400000000001
 21
90.798800000000014
 31
0.0
  0
ARC
  5
328
  8
0
 62
     7
 10
89.563175000000001
 20
100.810817
 30
0.0
 40
0.03121
 50
90.215201000000008
 51
118.81783
  0
ARC
  5
329
  8
0
 62
     7
 10
89.581624000000005
 20
100.779449
 30
0.0
 40
0.067595
 50
119.702511
 51
144.89550399999999
  0
ARC
  5
32A
  8
0
 62
     7
 10
89.702377999999996
 20
100.69041900000001
 30
0.0
 40
0.217609
 50
144.00181599999999
 51
157.86727300000001
  0
ARC
  5
32B
  8
0
 62
     7
 10
90.092200000000005
 20
100.524525
 30
0.0
 40
0.641244
 50
157.259443
 51
165.07622499999999
  0
ARC
  5
32C
  8
0
 62
     7
 10
91.024299999999997
 20
100.270219
 30
0.0
 40
1.607405999999999
 50
164.873706
 51
169.99409499999999
  0
ARC
  5
32D
  8
0
 62
     7
 10
92.688123999999988
 20
99.969925000000003
 30
0.0
 40
3.2981050000000001
 50
169.87878000000001
 51
173.425985
  0
ARC
  5
32E
  8
0
 62
     7
 10
96.076169999999991
 20
99.586489
 30
0.0
 40
6.7077759999999991
 50
173.48551399999999
 51
180.593279
  0
ARC
  5
32F
  8
0
 62
     7
 10
97.367801
 20
99.516106999999991
 30
0.0
 40
7.9990479999999993
 50
179.99333200000001
 51
186.04142300000001
  0
ARC
  5
330
  8
0
 62
     7
 10
92.501541000000003
 20
99.036814000000007
 30
0.0
 40
3.1095730000000001
 50
186.69607300000001
 51
190.59827999999999
  0
ARC
  5
331
  8
0
 62
     7
 10
90.812515999999988
 20
98.71561899999999
 30
0.0
 40
1.3902950000000001
 50
190.38942599999999
 51
196.41593700000001
  0
ARC
  5
332
  8
0
 62
     7
 10
89.950170999999997
 20
98.458394999999996
 30
0.0
 40
0.49042
 50
196.06159
 51
206.142968
  0
ARC
  5
333
  8
0
 62
     7
 10
89.635681000000005
 20
98.301967000000005
 30
0.0
 40
0.139191
 50
205.37871899999999
 51
224.21713500000001
  0
ARC
  5
334
  8
0
 62
     7
 10
89.565731999999997
 20
98.232756999999992
 30
0.0
 40
0.040801
 50
223.062657
 51
266.24208499999997
  0
ARC
  5
335
  8
0
 62
     7
 10
89.562939
 20
98.223428000000013
 30
0.0
 40
0.031385
 50
270.217356
 51
298.73570999999998
  0
ARC
  5
336
  8
0
 62
     7
 10
89.544596999999996
 20
98.254703000000006
 30
0.0
 40
0.067635
 50
299.62256200000002
 51
324.83487400000001
  0
ARC
  5
337
  8
0
 62
     7
 10
89.423865000000006
 20
98.343800999999999
 30
0.0
 40
0.2176719999999999
 50
323.96551299999999
 51
337.83179699999999
  0
ARC
  5
338
  8
0
 62
     7
 10
89.035564000000008
 20
98.509150000000005
 30
0.0
 40
0.6396950000000001
 50
337.239733
 51
345.07594
  0
ARC
  5
339
  8
0
 62
     7
 10
88.104379000000009
 20
98.763253000000006
 30
0.0
 40
1.6049209999999989
 50
344.87187599999999
 51
350.000158
  0
ARC
  5
33A
  8
0
 62
     7
 10
86.436494999999994
 20
99.063862
 30
0.0
 40
3.2996729999999999
 50
349.88865199999998
 51
353.43409000000003
  0
ARC
  5
33B
  8
0
 62
     7
 10
83.041060000000002
 20
99.447132999999994
 30
0.0
 40
6.7166670000000002
 50
353.4980470000001
 51
0.5963020000000001
  0
ARC
  5
33C
  8
0
 62
     7
 10
81.737608999999992
 20
99.517942000000005
 30
0.0
 40
8.0197539999999972
 50
359.99352400000009
 51
6.0259039999999988
  0
ARC
  5
33D
  8
0
 62
     7
 10
86.625889000000015
 20
99.997989000000004
 30
0.0
 40
3.108295
 50
6.6852219999999987
 51
10.58893
  0
ARC
  5
33E
  8
0
 62
     7
 10
88.317482999999996
 20
100.31934099999999
 30
0.0
 40
1.386463999999999
 50
10.381073000000001
 51
16.424251000000002
  0
ARC
  5
33F
  8
0
 62
     7
 10
89.177565000000016
 20
100.57606699999999
 30
0.0
 40
0.4889000000000001
 50
16.065203
 51
26.179375
  0
ARC
  5
340
  8
0
 62
     7
 10
89.490677000000005
 20
100.73207499999999
 30
0.0
 40
0.139092
 50
25.411234
 51
44.273477999999997
  0
ARC
  5
341
  8
0
 62
     7
 10
89.560395999999997
 20
100.801164
 30
0.0
 40
0.04095
 50
43.155177999999999
 51
86.272373999999999
  0
LINE
  5
342
  8
0
 62
     7
 10
149.30699999999999
 20
91.542599999999979
 30
0.0
 11
149.19800000000001
 21
74.951599999999999
 31
0.0
  0
LINE
  5
343
  8
0
 62
     7
 10
137.279
 20
94.961200000000005
 30
0.0
 11
147.06999999999999
 21
95.052499999999995
 31
0.0
  0
ARC
  5
344
  8
0
 62
     7
 10
152.781836
 20
97.677305000000004
 30
0.0
 40
1.5404679999999991
 50
286.78750200000002
 51
355.30633999999998
  0
ARC
  5
345
  8
0
 62
     7
 10
146.92774399999999
 20
110.082976
 30
0.0
 40
15.031143999999999
 50
270.54353900000001
 51
283.83598699999999
  0
ARC
  5
346
  8
0
 62
     7
 10
130.456266
 20
22.121569000000001
 30
0.0
 40
83.860607999999999
 50
74.244788
 51
76.156006999999988
  0
ARC
  5
347
  8
0
 62
     7
 10
130.456266
 20
176.91250199999999
 30
0.0
 40
83.860607999999999
 50
283.84399300000013
 51
285.75521199999997
  0
ARC
  5
348
  8
0
 62
     7
 10
123.30592
 20
99.518839
 30
0.0
 40
31.073574000000001
 50
356.36958600000003
 51
359.9966740000001
  0
ARC
  5
349
  8
0
 62
     7
 10
151.86030700000001
 20
95.405337000000003
 30
0.0
 40
0.6984110000000001
 50
158.38246100000001
 51
178.619032
  0
ARC
  5
34A
  8
0
 62
     7
 10
-14.005356000000001
 20
99.390457999999995
 30
0.0
 40
165.21500700000001
 50
357.00045299999999
 51
358.620338
  0
LINE
  5
34B
  8
0
 62
     7
 10
153.14500000000001
 20
96.179400000000001
 30
0.0
 11
154.59700000000001
 21
96.251099999999994
 31
0.0
  0
ARC
  5
34C
  8
0
 62
     7
 10
154.568636
 20
96.560692000000003
 30
0.0
 40
0.310914
 50
275.21227699999997
 51
358.111245
  0
LINE
  5
34D
  8
0
 62
     7
 10
151.25399999999999
 20
75.491799999999984
 30
0.0
 11
149.596
 21
75.247200000000007
 31
0.0
  0
ARC
  5
34E
  8
0
 62
     7
 10
151.218031
 20
75.695381000000012
 30
0.0
 40
0.206668
 50
279.94966299999999
 51
358.38900000000001
  0
LINE
  5
34F
  8
0
 62
     7
 10
151.42500000000001
 20
95.717399999999998
 30
0.0
 11
151.42500000000001
 21
75.689599999999999
 31
0.0
  0
ARC
  5
350
  8
0
 62
     7
 10
149.63125299999999
 20
75.043447
 30
0.0
 40
0.206747
 50
99.735085000000012
 51
170.26488499999999
  0
ARC
  5
351
  8
0
 62
     7
 10
2.339942999999999
 20
96.494737999999998
 30
0.0
 40
148.63849999999999
 50
351.53525999999999
 51
351.7158
  0
LINE
  5
352
  8
0
 62
     7
 10
140.10599999999999
 20
71.310100000000006
 30
0.0
 11
147.084
 21
72.343999999999994
 31
0.0
  0
ARC
  5
353
  8
0
 62
     7
 10
146.621984
 20
75.082077999999996
 30
0.0
 40
2.7768429999999991
 50
279.58711199999999
 51
350.31736899999999
  0
LINE
  5
354
  8
0
 62
     7
 10
153.14500000000001
 20
102.855
 30
0.0
 11
154.59700000000001
 21
102.783
 31
0.0
  0
LINE
  5
355
  8
0
 62
     7
 10
137.279
 20
122.283
 30
0.0
 11
137.279
 21
76.751000000000005
 31
0.0
  0
LINE
  5
356
  8
0
 62
     7
 10
134.679
 20
129.81700000000001
 30
0.0
 11
134.679
 21
69.216899999999995
 31
0.0
  0
ARC
  5
357
  8
0
 62
     7
 10
151.87265600000001
 20
103.631548
 30
0.0
 40
0.710819
 50
181.556029
 51
201.28638100000001
  0
LINE
  5
358
  8
0
 62
     7
 10
149.19800000000001
 20
74.951599999999999
 30
0.0
 11
149.196
 21
74.876199999999983
 31
0.0
  0
LINE
  5
359
  8
0
 62
     7
 10
149.196
 20
74.876199999999983
 30
0.0
 11
149.191
 21
74.800700000000006
 31
0.0
  0
LINE
  5
35A
  8
0
 62
     7
 10
149.191
 20
74.800700000000006
 30
0.0
 11
149.185
 21
74.725300000000004
 31
0.0
  0
LINE
  5
35B
  8
0
 62
     7
 10
149.185
 20
74.725300000000004
 30
0.0
 11
149.17599999999999
 21
74.650199999999984
 31
0.0
  0
LINE
  5
35C
  8
0
 62
     7
 10
149.17599999999999
 20
74.650199999999984
 30
0.0
 11
149.166
 21
74.575400000000002
 31
0.0
  0
LINE
  5
35D
  8
0
 62
     7
 10
149.166
 20
74.575400000000002
 30
0.0
 11
149.15299999999999
 21
74.501000000000005
 31
0.0
  0
LINE
  5
35E
  8
0
 62
     7
 10
149.15299999999999
 20
74.501000000000005
 30
0.0
 11
149.13800000000001
 21
74.427300000000002
 31
0.0
  0
LINE
  5
35F
  8
0
 62
     7
 10
149.13800000000001
 20
74.427300000000002
 30
0.0
 11
149.12100000000001
 21
74.353899999999996
 31
0.0
  0
LINE
  5
360
  8
0
 62
     7
 10
149.12100000000001
 20
74.353899999999996
 30
0.0
 11
149.102
 21
74.281599999999997
 31
0.0
  0
LINE
  5
361
  8
0
 62
     7
 10
149.102
 20
74.281599999999997
 30
0.0
 11
149.08199999999999
 21
74.209500000000006
 31
0.0
  0
LINE
  5
362
  8
0
 62
     7
 10
149.08199999999999
 20
74.209500000000006
 30
0.0
 11
149.059
 21
74.138199999999998
 31
0.0
  0
LINE
  5
363
  8
0
 62
     7
 10
149.059
 20
74.138199999999998
 30
0.0
 11
149.03399999999999
 21
74.067300000000003
 31
0.0
  0
LINE
  5
364
  8
0
 62
     7
 10
149.03399999999999
 20
74.067300000000003
 30
0.0
 11
149.00800000000001
 21
73.997299999999996
 31
0.0
  0
LINE
  5
365
  8
0
 62
     7
 10
149.00800000000001
 20
73.997299999999996
 30
0.0
 11
148.97900000000001
 21
73.927700000000002
 31
0.0
  0
LINE
  5
366
  8
0
 62
     7
 10
148.97900000000001
 20
73.927700000000002
 30
0.0
 11
148.94800000000001
 21
73.858800000000002
 31
0.0
  0
LINE
  5
367
  8
0
 62
     7
 10
148.94800000000001
 20
73.858800000000002
 30
0.0
 11
148.916
 21
73.790599999999984
 31
0.0
  0
LINE
  5
368
  8
0
 62
     7
 10
148.916
 20
73.790599999999984
 30
0.0
 11
148.88
 21
73.722800000000007
 31
0.0
  0
LINE
  5
369
  8
0
 62
     7
 10
148.88
 20
73.722800000000007
 30
0.0
 11
148.84399999999999
 21
73.656300000000002
 31
0.0
  0
LINE
  5
36A
  8
0
 62
     7
 10
148.84399999999999
 20
73.656300000000002
 30
0.0
 11
148.80500000000001
 21
73.590800000000002
 31
0.0
  0
LINE
  5
36B
  8
0
 62
     7
 10
148.80500000000001
 20
73.590800000000002
 30
0.0
 11
148.76499999999999
 21
73.526399999999995
 31
0.0
  0
LINE
  5
36C
  8
0
 62
     7
 10
148.76499999999999
 20
73.526399999999995
 30
0.0
 11
148.72300000000001
 21
73.463700000000003
 31
0.0
  0
LINE
  5
36D
  8
0
 62
     7
 10
148.72300000000001
 20
73.463700000000003
 30
0.0
 11
148.68000000000001
 21
73.402000000000001
 31
0.0
  0
LINE
  5
36E
  8
0
 62
     7
 10
148.68000000000001
 20
73.402000000000001
 30
0.0
 11
148.63399999999999
 21
73.341399999999993
 31
0.0
  0
LINE
  5
36F
  8
0
 62
     7
 10
148.63399999999999
 20
73.341399999999993
 30
0.0
 11
148.58799999999999
 21
73.282499999999999
 31
0.0
  0
LINE
  5
370
  8
0
 62
     7
 10
148.58799999999999
 20
73.282499999999999
 30
0.0
 11
148.53899999999999
 21
73.224199999999996
 31
0.0
  0
LINE
  5
371
  8
0
 62
     7
 10
148.53899999999999
 20
73.224199999999996
 30
0.0
 11
148.489
 21
73.167699999999996
 31
0.0
  0
LINE
  5
372
  8
0
 62
     7
 10
148.489
 20
73.167699999999996
 30
0.0
 11
148.43700000000001
 21
73.112300000000005
 31
0.0
  0
LINE
  5
373
  8
0
 62
     7
 10
148.43700000000001
 20
73.112300000000005
 30
0.0
 11
148.38300000000001
 21
73.058199999999999
 31
0.0
  0
LINE
  5
374
  8
0
 62
     7
 10
148.38300000000001
 20
73.058199999999999
 30
0.0
 11
148.327
 21
73.005499999999998
 31
0.0
  0
LINE
  5
375
  8
0
 62
     7
 10
148.327
 20
73.005499999999998
 30
0.0
 11
148.27000000000001
 21
72.953800000000001
 31
0.0
  0
LINE
  5
376
  8
0
 62
     7
 10
148.27000000000001
 20
72.953800000000001
 30
0.0
 11
148.21100000000001
 21
72.904200000000003
 31
0.0
  0
LINE
  5
377
  8
0
 62
     7
 10
148.21100000000001
 20
72.904200000000003
 30
0.0
 11
148.15100000000001
 21
72.856000000000009
 31
0.0
  0
LINE
  5
378
  8
0
 62
     7
 10
148.15100000000001
 20
72.856000000000009
 30
0.0
 11
148.09
 21
72.809799999999996
 31
0.0
  0
LINE
  5
379
  8
0
 62
     7
 10
148.09
 20
72.809799999999996
 30
0.0
 11
148.02799999999999
 21
72.7654
 31
0.0
  0
LINE
  5
37A
  8
0
 62
     7
 10
148.02799999999999
 20
72.7654
 30
0.0
 11
147.964
 21
72.7226
 31
0.0
  0
LINE
  5
37B
  8
0
 62
     7
 10
147.964
 20
72.7226
 30
0.0
 11
147.899
 21
72.681600000000003
 31
0.0
  0
LINE
  5
37C
  8
0
 62
     7
 10
147.899
 20
72.681600000000003
 30
0.0
 11
147.833
 21
72.642700000000005
 31
0.0
  0
LINE
  5
37D
  8
0
 62
     7
 10
147.833
 20
72.642700000000005
 30
0.0
 11
147.76599999999999
 21
72.605500000000006
 31
0.0
  0
LINE
  5
37E
  8
0
 62
     7
 10
147.76599999999999
 20
72.605500000000006
 30
0.0
 11
147.697
 21
72.569999999999993
 31
0.0
  0
LINE
  5
37F
  8
0
 62
     7
 10
147.697
 20
72.569999999999993
 30
0.0
 11
147.62700000000001
 21
72.536299999999997
 31
0.0
  0
LINE
  5
380
  8
0
 62
     7
 10
147.62700000000001
 20
72.536299999999997
 30
0.0
 11
147.55600000000001
 21
72.504599999999996
 31
0.0
  0
LINE
  5
381
  8
0
 62
     7
 10
147.55600000000001
 20
72.504599999999996
 30
0.0
 11
147.48400000000001
 21
72.474900000000005
 31
0.0
  0
LINE
  5
382
  8
0
 62
     7
 10
147.48400000000001
 20
72.474900000000005
 30
0.0
 11
147.41200000000001
 21
72.447400000000002
 31
0.0
  0
LINE
  5
383
  8
0
 62
     7
 10
147.41200000000001
 20
72.447400000000002
 30
0.0
 11
147.339
 21
72.422200000000004
 31
0.0
  0
LINE
  5
384
  8
0
 62
     7
 10
147.339
 20
72.422200000000004
 30
0.0
 11
147.2649999999999
 21
72.398799999999994
 31
0.0
  0
LINE
  5
385
  8
0
 62
     7
 10
147.2649999999999
 20
72.398799999999994
 30
0.0
 11
147.19
 21
72.377799999999993
 31
0.0
  0
LINE
  5
386
  8
0
 62
     7
 10
147.19
 20
72.377799999999993
 30
0.0
 11
147.11500000000001
 21
72.358500000000006
 31
0.0
  0
LINE
  5
387
  8
0
 62
     7
 10
147.11500000000001
 20
72.358500000000006
 30
0.0
 11
147.03899999999999
 21
72.3416
 31
0.0
  0
LINE
  5
388
  8
0
 62
     7
 10
147.03899999999999
 20
72.3416
 30
0.0
 11
146.96299999999999
 21
72.326800000000006
 31
0.0
  0
LINE
  5
389
  8
0
 62
     7
 10
146.96299999999999
 20
72.326800000000006
 30
0.0
 11
146.88499999999999
 21
72.314400000000006
 31
0.0
  0
ARC
  5
38A
  8
0
 62
     7
 10
140.589966
 20
99.459975
 30
0.0
 40
10.084811
 50
335.69525900000002
 51
0.324186
  0
ARC
  5
38B
  8
0
 62
     7
 10
134.887136
 20
69.224936999999997
 30
0.0
 40
0.208012
 50
182.218613
 51
267.88011799999998
  0
LINE
  5
38C
  8
0
 62
     7
 10
134.87899999999999
 20
69.017099999999999
 30
0.0
 11
136.97900000000001
 21
69.017099999999999
 31
0.0
  0
ARC
  5
38D
  8
0
 62
     7
 10
154.568298
 20
102.473416
 30
0.0
 40
0.31125
 50
1.879802999999999
 51
84.730893999999992
  0
LINE
  5
38E
  8
0
 62
     7
 10
154.87899999999999
 20
102.48399999999999
 30
0.0
 11
154.87899999999999
 21
96.550399999999996
 31
0.0
  0
LINE
  5
38F
  8
0
 62
     7
 10
136.97900000000001
 20
69.017099999999999
 30
0.0
 11
137.01599999999999
 21
69.020200000000003
 31
0.0
  0
ARC
  5
390
  8
0
  6
AIGENLINE002
 62
     7
 10
52.68376700000001
 20
89.51689300000001
 30
0.0
 40
1.7501199999999999
 50
90.0
 51
179.99996999999999
  0
ARC
  5
391
  8
0
  6
AIGENLINE002
 62
     7
 10
52.683593999999992
 20
89.517065000000002
 30
0.0
 40
1.7499469999999999
 50
180.00565
 51
270.00565999999998
  0
ARC
  5
392
  8
0
  6
AIGENLINE002
 62
     7
 10
52.616548999999992
 20
89.584110999999993
 30
0.0
 40
1.8182349999999989
 50
272.11863399999999
 51
357.88137599999999
  0
ARC
  5
393
  8
0
  6
AIGENLINE002
 62
     7
 10
52.616216000000001
 20
89.449700000000007
 30
0.0
 40
1.8185679999999991
 50
2.1174740000000001
 51
87.871235999999996
  0
ARC
  5
394
  8
0
  6
AIGENLINE002
 62
     7
 10
52.750592000000012
 20
109.450352
 30
0.0
 40
1.8181729999999989
 50
92.106315000000023
 51
177.89365599999999
  0
ARC
  5
395
  8
0
  6
AIGENLINE002
 62
     7
 10
52.683765999999999
 20
109.517177
 30
0.0
 40
1.7501189999999991
 50
179.99996999999999
 51
270.00002000000001
  0
ARC
  5
396
  8
0
  6
AIGENLINE002
 62
     7
 10
52.616917000000001
 20
109.583669
 30
0.0
 40
1.8178409999999989
 50
272.10749299999998
 51
357.903796
  0
ARC
  5
397
  8
0
  6
AIGENLINE002
 62
     7
 10
52.616211
 20
109.449979
 30
0.0
 40
1.8185729999999991
 50
2.1176270000000001
 51
87.871082999999985
  0
ARC
  5
398
  8
0
 62
     7
 10
52.68376700000001
 20
99.517035000000007
 30
0.0
 40
1.7501199999999999
 50
90.0
 51
179.99996999999999
  0
ARC
  5
399
  8
0
 62
     7
 10
52.683593999999992
 20
99.517206999999999
 30
0.0
 40
1.7499469999999999
 50
180.00565
 51
270.00565999999998
  0
ARC
  5
39A
  8
0
 62
     7
 10
52.616940999999997
 20
99.583860999999999
 30
0.0
 40
1.8178289999999999
 50
272.106739
 51
357.89327100000003
  0
ARC
  5
39B
  8
0
 62
     7
 10
52.616211
 20
99.449837000000016
 30
0.0
 40
1.8185729999999991
 50
2.1176270000000001
 51
87.871082999999985
  0
ARC
  5
39C
  8
0
 62
     7
 10
59.722205000000002
 20
126.47881700000001
 30
0.0
 40
1.0391269999999999
 50
92.131505000000004
 51
177.888205
  0
ARC
  5
39D
  8
0
 62
     7
 10
59.722136999999996
 20
72.555185999999992
 30
0.0
 40
1.039056999999999
 50
182.10820100000001
 51
267.87208800000002
  0
ARC
  5
39E
  8
0
 62
     7
 10
67.183662999999996
 20
99.517121000000003
 30
0.0
 40
3.6000619999999999
 50
90.001370999999992
 51
180.00138100000001
  0
ARC
  5
39F
  8
0
 62
     7
 10
67.183490000000006
 20
99.517121000000003
 30
0.0
 40
3.5998890000000001
 50
180.00138100000001
 51
270.00139100000001
  0
ARC
  5
3A0
  8
0
 62
     7
 10
67.183661999999998
 20
99.517122000000015
 30
0.0
 40
3.5998899999999998
 50
269.998649
 51
359.99861900000002
  0
ARC
  5
3A1
  8
0
 62
     7
 10
67.183490000000006
 20
99.517121000000003
 30
0.0
 40
3.6000619999999999
 50
359.99863900000003
 51
89.998608999999988
  0
ARC
  5
3A2
  8
0
 62
     7
 10
67.268109999999993
 20
99.432502000000014
 30
0.0
 40
2.2861489999999991
 50
92.119063999999995
 51
177.88090600000001
  0
ARC
  5
3A3
  8
0
 62
     7
 10
67.267713000000001
 20
99.601171999999991
 30
0.0
 40
2.2857369999999988
 50
182.10951399999999
 51
267.89051599999999
  0
ARC
  5
3A4
  8
0
 62
     7
 10
67.183576000000002
 20
99.517036000000004
 30
0.0
 40
2.200051999999999
 50
270.00002000000001
 51
359.99999000000003
  0
ARC
  5
3A5
  8
0
 62
     7
 10
67.183576000000002
 20
99.517035000000007
 30
0.0
 40
2.200051999999999
 50
0.00001
 51
89.999980000000008
  0
ARC
  5
3A6
  8
0
 62
     7
 10
89.183750000000003
 20
72.516962000000007
 30
0.0
 40
1.0001180000000001
 50
270.00002000000001
 51
359.99999000000003
  0
ARC
  5
3A7
  8
0
 62
     7
 10
47.221872999999988
 20
72.555185999999992
 30
0.0
 40
1.039056999999999
 50
182.10820100000001
 51
267.87208800000002
  0
LINE
  5
3A8
  8
0
 62
     7
 10
89.183800000000005
 20
71.516800000000003
 30
0.0
 11
47.183300000000003
 21
71.516800000000003
 31
0.0
  0
ARC
  5
3A9
  8
0
 62
     7
 10
89.145507999999978
 20
126.478865
 30
0.0
 40
1.0390639999999991
 50
2.1092529999999989
 51
87.890737000000016
  0
LINE
  5
3AA
  8
0
 62
     7
 10
90.183899999999994
 20
126.517
 30
0.0
 11
90.183899999999994
 21
72.516999999999996
 31
0.0
  0
ARC
  5
3AB
  8
0
 62
     7
 10
47.221950999999997
 20
126.478807
 30
0.0
 40
1.039137999999999
 50
92.132052000000002
 51
177.88765799999999
  0
LINE
  5
3AC
  8
0
 62
     7
 10
47.183300000000003
 20
127.517
 30
0.0
 11
89.183800000000005
 21
127.517
 31
0.0
  0
LINE
  5
3AD
  8
0
 62
     7
 10
58.683799999999998
 20
72.516999999999996
 30
0.0
 11
58.683799999999998
 21
126.517
 31
0.0
  0
LINE
  5
3AE
  8
0
 62
     7
 10
46.183500000000002
 20
72.516999999999996
 30
0.0
 11
46.183500000000002
 21
126.517
 31
0.0
  0
ARC
  5
3AF
  8
0
 62
     7
 10
44.721414000000003
 20
70.055097000000004
 30
0.0
 40
1.038721
 50
182.11072899999999
 51
267.909041
  0
LINE
  5
3B0
  8
0
 62
     7
 10
91.683899999999994
 20
69.017099999999999
 30
0.0
 11
44.683500000000002
 21
69.017099999999999
 31
0.0
  0
ARC
  5
3B1
  8
0
 62
     7
 10
91.645634999999984
 20
70.055078000000009
 30
0.0
 40
1.0387150000000001
 50
272.10968100000002
 51
357.89032900000001
  0
ARC
  5
3B2
  8
0
 62
     7
 10
91.64489300000001
 20
128.97860900000001
 30
0.0
 40
1.0394699999999999
 50
2.1292810000000002
 51
87.850968999999992
  0
LINE
  5
3B3
  8
0
 62
     7
 10
44.683500000000002
 20
130.017
 30
0.0
 11
91.683899999999994
 21
130.017
 31
0.0
  0
ARC
  5
3B4
  8
0
 62
     7
 10
44.722149999999999
 20
128.97859500000001
 30
0.0
 40
1.0394709999999989
 50
92.130042000000003
 51
177.86992799999999
  0
LINE
  5
3B5
  8
0
 62
     7
 10
92.683599999999984
 20
70.016800000000003
 30
0.0
 11
92.683599999999984
 21
129.017
 31
0.0
  0
LINE
  5
3B6
  8
0
 62
     7
 10
43.683399999999992
 20
70.016800000000003
 30
0.0
 11
43.683399999999992
 21
129.017
 31
0.0
  0
LINE
  5
3B7
  8
0
  6
AIGENLINE001
 62
     7
 10
149.68600000000001
 20
179.38499999999999
 30
0.0
 11
156.03
 21
179.38499999999999
 31
0.0
  0
LINE
  5
3B8
  8
0
  6
AIGENLINE001
 62
     7
 10
133.03899999999999
 20
193.88499999999999
 30
0.0
 11
139.59
 21
193.88499999999999
 31
0.0
  0
LINE
  5
3B9
  8
0
  6
AIGENLINE001
 62
     7
 10
132.791
 20
99.517000000000024
 30
0.0
 11
156.74799999999999
 21
99.517000000000024
 31
0.0
  0
LINE
  5
3BA
  8
0
  6
AIGENLINE001
 62
     7
 10
50.433399999999999
 20
89.516900000000007
 30
0.0
 11
54.933399999999992
 21
89.516900000000007
 31
0.0
  0
LINE
  5
3BB
  8
0
  6
AIGENLINE001
 62
     7
 10
50.433399999999999
 20
109.517
 30
0.0
 11
54.933399999999992
 21
109.517
 31
0.0
  0
LINE
  5
3BC
  8
0
  6
AIGENLINE001
 62
     7
 10
138.869
 20
95.954800000000006
 30
0.0
 11
138.869
 21
102.745
 31
0.0
  0
LINE
  5
3BD
  8
0
  6
AIGENLINE001
 62
     7
 10
52.683799999999998
 20
87.194199999999995
 30
0.0
 11
52.683799999999998
 21
111.767
 31
0.0
  0
LINE
  5
3BE
  8
0
  6
AIGENLINE001
 62
     7
 10
67.183599999999998
 20
94.370000000000005
 30
0.0
 11
67.183599999999998
 21
104.58799999999999
 31
0.0
  0
LINE
  5
3BF
  8
0
  6
AIGENLINE001
 62
     7
 10
41.722799999999992
 20
99.517000000000024
 30
0.0
 11
93.683800000000005
 21
99.517000000000024
 31
0.0
  0
LINE
  5
3C0
  8
0
 62
     7
 10
49.395099999999999
 20
194.017
 30
0.0
 11
47.183300000000003
 21
193.42500000000001
 31
0.0
  0
LINE
  5
3C1
  8
0
 62
     7
 10
47.183300000000003
 20
193.42500000000001
 30
0.0
 11
49.395099999999999
 21
192.83199999999999
 31
0.0
  0
LINE
  5
3C2
  8
0
 62
     7
 10
49.395099999999999
 20
192.83199999999999
 30
0.0
 11
49.395099999999999
 21
194.017
 31
0.0
  0
LINE
  5
3C3
  8
0
 62
     7
 10
64.972499999999997
 20
192.84700000000001
 30
0.0
 11
67.184299999999993
 21
193.43899999999999
 31
0.0
  0
LINE
  5
3C4
  8
0
 62
     7
 10
67.184299999999993
 20
193.43899999999999
 30
0.0
 11
64.972499999999997
 21
194.03200000000001
 31
0.0
  0
LINE
  5
3C5
  8
0
 62
     7
 10
64.972499999999997
 20
194.03200000000001
 30
0.0
 11
64.972499999999997
 21
192.84700000000001
 31
0.0
  0
LINE
  5
3C6
  8
0
 62
     7
 10
47.1843
 20
193.43199999999999
 30
0.0
 11
67.183199999999999
 21
193.43199999999999
 31
0.0
  0
ARC
  5
3C7
  8
0
  6
AIGENLINE002
 62
     7
 10
67.18340400000001
 20
183.60115099999999
 30
0.0
 40
2.1499259999999989
 50
0.004601
 51
90.004570999999984
  0
ARC
  5
3C8
  8
0
  6
AIGENLINE002
 62
     7
 10
67.100371999999993
 20
183.68382500000001
 30
0.0
 40
2.2344810000000002
 50
272.12515100000002
 51
357.88403899999997
  0
ARC
  5
3C9
  8
0
  6
AIGENLINE002
 62
     7
 10
67.265388999999999
 20
183.68294399999999
 30
0.0
 40
2.2335739999999991
 50
182.094221
 51
267.89203900000001
  0
ARC
  5
3CA
  8
0
  6
AIGENLINE002
 62
     7
 10
67.183145999999994
 20
183.601237
 30
0.0
 40
2.1498400000000002
 50
89.997705000000025
 51
179.99767499999999
  0
ARC
  5
3CB
  8
0
  6
AIGENLINE002
 62
     7
 10
67.049602000000007
 20
183.46733599999999
 30
0.0
 40
3.6361659999999998
 50
2.111739
 51
87.893890999999996
  0
ARC
  5
3CC
  8
0
  6
AIGENLINE002
 62
     7
 10
67.183059
 20
183.60115200000001
 30
0.0
 40
3.5002399999999998
 50
270.00283999999999
 51
0.00281
  0
ARC
  5
3CD
  8
0
  6
AIGENLINE002
 62
     7
 10
67.183402999999998
 20
183.60115099999999
 30
0.0
 40
3.5002390000000001
 50
179.997151
 51
269.99720000000002
  0
ARC
  5
3CE
  8
0
  6
AIGENLINE002
 62
     7
 10
67.316928000000004
 20
183.46727000000001
 30
0.0
 40
3.6362349999999992
 50
92.107098999999991
 51
177.88723200000001
  0
LINE
  5
3CF
  8
0
  6
AIGENLINE001
 62
     7
 10
67.183199999999999
 20
188.55000000000001
 30
0.0
 11
67.183199999999999
 21
178.845
 31
0.0
  0
LINE
  5
3D0
  8
0
 62
     7
 10
67.183199999999999
 20
189.25
 30
0.0
 11
67.183199999999999
 21
194.13200000000001
 31
0.0
  0
LINE
  5
3D1
  8
0
 62
     7
 10
161.84700000000001
 20
200.67400000000001
 30
0.0
 11
161.25399999999999
 21
202.886
 31
0.0
  0
LINE
  5
3D2
  8
0
 62
     7
 10
161.25399999999999
 20
202.886
 30
0.0
 11
160.66200000000001
 21
200.67400000000001
 31
0.0
  0
LINE
  5
3D3
  8
0
 62
     7
 10
160.66200000000001
 20
200.67400000000001
 30
0.0
 11
161.84700000000001
 21
200.67400000000001
 31
0.0
  0
LINE
  5
3D4
  8
0
 62
     7
 10
160.67599999999999
 20
181.596
 30
0.0
 11
161.26900000000001
 21
179.38499999999999
 31
0.0
  0
LINE
  5
3D5
  8
0
 62
     7
 10
161.26900000000001
 20
179.38499999999999
 30
0.0
 11
161.86099999999999
 21
181.596
 31
0.0
  0
LINE
  5
3D6
  8
0
 62
     7
 10
161.86099999999999
 20
181.596
 30
0.0
 11
160.67599999999999
 21
181.596
 31
0.0
  0
LINE
  5
3D7
  8
0
 62
     7
 10
161.261
 20
202.88499999999999
 30
0.0
 11
161.261
 21
179.386
 31
0.0
  0
LINE
  5
3D8
  8
0
 62
     7
 10
140.387
 20
202.88499999999999
 30
0.0
 11
161.96100000000001
 21
202.88499999999999
 31
0.0
  0
LINE
  5
3D9
  8
0
 62
     7
 10
156.72999999999999
 20
179.38499999999999
 30
0.0
 11
161.96100000000001
 21
179.38499999999999
 31
0.0
  0
LINE
  5
3DA
  8
0
 62
     7
 10
139.49100000000001
 20
165.87299999999999
 30
0.0
 11
137.279
 21
165.28100000000001
 31
0.0
  0
LINE
  5
3DB
  8
0
 62
     7
 10
137.279
 20
165.28100000000001
 30
0.0
 11
139.49100000000001
 21
164.68799999999999
 31
0.0
  0
LINE
  5
3DC
  8
0
 62
     7
 10
139.49100000000001
 20
164.68799999999999
 30
0.0
 11
139.49100000000001
 21
165.87299999999999
 31
0.0
  0
LINE
  5
3DD
  8
0
 62
     7
 10
132.46799999999999
 20
164.68799999999999
 30
0.0
 11
134.679
 21
165.28100000000001
 31
0.0
  0
LINE
  5
3DE
  8
0
 62
     7
 10
134.679
 20
165.28100000000001
 30
0.0
 11
132.46799999999999
 21
165.87299999999999
 31
0.0
  0
LINE
  5
3DF
  8
0
 62
     7
 10
132.46799999999999
 20
165.87299999999999
 30
0.0
 11
132.46799999999999
 21
164.68799999999999
 31
0.0
  0
LINE
  5
3E0
  8
0
 62
     7
 10
128.827
 20
165.28100000000001
 30
0.0
 11
140.86699999999999
 21
165.28100000000001
 31
0.0
  0
LINE
  5
3E1
  8
0
 62
     7
 10
138.392
 20
198.273
 30
0.0
 11
136.179
 21
197.68000000000001
 31
0.0
  0
LINE
  5
3E2
  8
0
 62
     7
 10
136.179
 20
197.68000000000001
 30
0.0
 11
138.392
 21
197.08799999999999
 31
0.0
  0
LINE
  5
3E3
  8
0
 62
     7
 10
138.392
 20
197.08799999999999
 30
0.0
 11
138.392
 21
198.273
 31
0.0
  0
LINE
  5
3E4
  8
0
 62
     7
 10
132.46799999999999
 20
197.08799999999999
 30
0.0
 11
134.679
 21
197.68000000000001
 31
0.0
  0
LINE
  5
3E5
  8
0
 62
     7
 10
134.679
 20
197.68000000000001
 30
0.0
 11
132.46799999999999
 21
198.273
 31
0.0
  0
LINE
  5
3E6
  8
0
 62
     7
 10
132.46799999999999
 20
198.273
 30
0.0
 11
132.46799999999999
 21
197.08799999999999
 31
0.0
  0
LINE
  5
3E7
  8
0
 62
     7
 10
128.983
 20
197.68000000000001
 30
0.0
 11
138.99199999999999
 21
197.68000000000001
 31
0.0
  0
LINE
  5
3E8
  8
0
 62
     7
 10
136.892
 20
178.50700000000001
 30
0.0
 11
134.679
 21
177.91399999999999
 31
0.0
  0
LINE
  5
3E9
  8
0
 62
     7
 10
134.679
 20
177.91399999999999
 30
0.0
 11
136.892
 21
177.322
 31
0.0
  0
LINE
  5
3EA
  8
0
 62
     7
 10
136.892
 20
177.322
 30
0.0
 11
136.892
 21
178.50700000000001
 31
0.0
  0
LINE
  5
3EB
  8
0
 62
     7
 10
147.96700000000001
 20
177.33600000000001
 30
0.0
 11
150.179
 21
177.929
 31
0.0
  0
LINE
  5
3EC
  8
0
 62
     7
 10
150.179
 20
177.929
 30
0.0
 11
147.96700000000001
 21
178.52099999999999
 31
0.0
  0
LINE
  5
3ED
  8
0
 62
     7
 10
147.96700000000001
 20
178.52099999999999
 30
0.0
 11
147.96700000000001
 21
177.33600000000001
 31
0.0
  0
LINE
  5
3EE
  8
0
 62
     7
 10
134.68100000000001
 20
177.92099999999999
 30
0.0
 11
150.178
 21
177.92099999999999
 31
0.0
  0
ARC
  5
3EF
  8
0
 62
     7
 10
36.424708000000003
 20
215.10106400000001
 30
0.0
 40
0.5296870000000001
 50
179.99996999999999
 51
270.00002000000001
  0
ARC
  5
3F0
  8
0
 62
     7
 10
36.424708000000003
 20
215.10106400000001
 30
0.0
 40
0.5296870000000001
 50
270.00002000000001
 51
359.99999000000003
  0
ARC
  5
3F1
  8
0
 62
     7
 10
36.424708000000003
 20
215.10106400000001
 30
0.0
 40
0.5296870000000001
 50
0.00001
 51
89.999980000000008
  0
ARC
  5
3F2
  8
0
 62
     7
 10
36.424708000000003
 20
215.10106400000001
 30
0.0
 40
0.5296870000000001
 50
90.0
 51
179.99996999999999
  0
LINE
  5
3F3
  8
0
 62
     7
 10
37.017299999999999
 20
208.38900000000001
 30
0.0
 11
36.424700000000001
 21
210.601
 31
0.0
  0
LINE
  5
3F4
  8
0
 62
     7
 10
36.424700000000001
 20
210.601
 30
0.0
 11
35.832099999999997
 21
208.38900000000001
 31
0.0
  0
LINE
  5
3F5
  8
0
 62
     7
 10
35.832099999999997
 20
208.38900000000001
 30
0.0
 11
37.017299999999999
 21
208.38900000000001
 31
0.0
  0
LINE
  5
3F6
  8
0
 62
     7
 10
35.832099999999997
 20
185.81299999999999
 30
0.0
 11
36.424700000000001
 21
183.601
 31
0.0
  0
LINE
  5
3F7
  8
0
 62
     7
 10
36.424700000000001
 20
183.601
 30
0.0
 11
37.017299999999999
 21
185.81299999999999
 31
0.0
  0
LINE
  5
3F8
  8
0
 62
     7
 10
37.017299999999999
 20
185.81299999999999
 30
0.0
 11
35.832099999999997
 21
185.81299999999999
 31
0.0
  0
LINE
  5
3F9
  8
0
 62
     7
 10
35.832099999999997
 20
222.31299999999999
 30
0.0
 11
36.424700000000001
 21
220.101
 31
0.0
  0
LINE
  5
3FA
  8
0
 62
     7
 10
36.424700000000001
 20
220.101
 30
0.0
 11
37.017299999999999
 21
222.31299999999999
 31
0.0
  0
LINE
  5
3FB
  8
0
 62
     7
 10
37.017299999999999
 20
222.31299999999999
 30
0.0
 11
35.832099999999997
 21
222.31299999999999
 31
0.0
  0
ARC
  5
3FC
  8
0
 62
     7
 10
36.424708000000003
 20
152.10072099999999
 30
0.0
 40
0.5296870000000001
 50
179.99996999999999
 51
270.00002000000001
  0
ARC
  5
3FD
  8
0
 62
     7
 10
36.424708000000003
 20
152.10072199999999
 30
0.0
 40
0.5296870000000001
 50
270.00002000000001
 51
359.99999000000003
  0
ARC
  5
3FE
  8
0
 62
     7
 10
36.424708000000003
 20
152.10072099999999
 30
0.0
 40
0.5296870000000001
 50
0.00001
 51
89.999980000000008
  0
ARC
  5
3FF
  8
0
 62
     7
 10
36.424708000000003
 20
152.10072099999999
 30
0.0
 40
0.5296870000000001
 50
90.0
 51
179.99996999999999
  0
LINE
  5
400
  8
0
 62
     7
 10
37.017299999999999
 20
144.88900000000001
 30
0.0
 11
36.424700000000001
 21
147.101
 31
0.0
  0
LINE
  5
401
  8
0
 62
     7
 10
36.424700000000001
 20
147.101
 30
0.0
 11
35.832099999999997
 21
144.88900000000001
 31
0.0
  0
LINE
  5
402
  8
0
 62
     7
 10
35.832099999999997
 20
144.88900000000001
 30
0.0
 11
37.017299999999999
 21
144.88900000000001
 31
0.0
  0
LINE
  5
403
  8
0
 62
     7
 10
37.017299999999999
 20
181.38900000000001
 30
0.0
 11
36.424700000000001
 21
183.601
 31
0.0
  0
LINE
  5
404
  8
0
 62
     7
 10
36.424700000000001
 20
183.601
 30
0.0
 11
35.832099999999997
 21
181.38900000000001
 31
0.0
  0
LINE
  5
405
  8
0
 62
     7
 10
35.832099999999997
 20
181.38900000000001
 30
0.0
 11
37.017299999999999
 21
181.38900000000001
 31
0.0
  0
LINE
  5
406
  8
0
 62
     7
 10
101.739
 20
132.22900000000001
 30
0.0
 11
102.33199999999999
 21
130.018
 31
0.0
  0
LINE
  5
407
  8
0
 62
     7
 10
102.33199999999999
 20
130.018
 30
0.0
 11
102.925
 21
132.22900000000001
 31
0.0
  0
LINE
  5
408
  8
0
 62
     7
 10
102.925
 20
132.22900000000001
 30
0.0
 11
101.739
 21
132.22900000000001
 31
0.0
  0
LINE
  5
409
  8
0
 62
     7
 10
102.925
 20
66.805300000000003
 30
0.0
 11
102.33199999999999
 21
69.017099999999999
 31
0.0
  0
LINE
  5
40A
  8
0
 62
     7
 10
102.33199999999999
 20
69.017099999999999
 30
0.0
 11
101.739
 21
66.805300000000003
 31
0.0
  0
LINE
  5
40B
  8
0
 62
     7
 10
101.739
 20
66.805300000000003
 30
0.0
 11
102.925
 21
66.805300000000003
 31
0.0
  0
LINE
  5
40C
  8
0
 62
     7
 10
109.738
 20
127.807
 30
0.0
 11
109.146
 21
130.018
 31
0.0
  0
LINE
  5
40D
  8
0
 62
     7
 10
109.146
 20
130.018
 30
0.0
 11
108.553
 21
127.807
 31
0.0
  0
LINE
  5
40E
  8
0
 62
     7
 10
108.553
 20
127.807
 30
0.0
 11
109.738
 21
127.807
 31
0.0
  0
LINE
  5
40F
  8
0
 62
     7
 10
101.739
 20
73.7286
 30
0.0
 11
102.33199999999999
 21
71.516800000000003
 31
0.0
  0
LINE
  5
410
  8
0
 62
     7
 10
102.33199999999999
 20
71.516800000000003
 30
0.0
 11
102.925
 21
73.7286
 31
0.0
  0
LINE
  5
411
  8
0
 62
     7
 10
102.925
 20
73.7286
 30
0.0
 11
101.739
 21
73.7286
 31
0.0
  0
LINE
  5
412
  8
0
 62
     7
 10
108.568
 20
71.227500000000006
 30
0.0
 11
109.16
 21
69.015699999999995
 31
0.0
  0
LINE
  5
413
  8
0
 62
     7
 10
109.16
 20
69.015699999999995
 30
0.0
 11
109.753
 21
71.227500000000006
 31
0.0
  0
LINE
  5
414
  8
0
 62
     7
 10
109.753
 20
71.227500000000006
 30
0.0
 11
108.568
 21
71.227500000000006
 31
0.0
  0
LINE
  5
415
  8
0
 62
     7
 10
109.15300000000001
 20
130.018
 30
0.0
 11
109.15300000000001
 21
69.017099999999999
 31
0.0
  0
LINE
  5
416
  8
0
 62
     7
 10
102.925
 20
125.306
 30
0.0
 11
102.33199999999999
 21
127.517
 31
0.0
  0
LINE
  5
417
  8
0
 62
     7
 10
102.33199999999999
 20
127.517
 30
0.0
 11
101.739
 21
125.306
 31
0.0
  0
LINE
  5
418
  8
0
 62
     7
 10
101.739
 20
125.306
 30
0.0
 11
102.925
 21
125.306
 31
0.0
  0
LINE
  5
419
  8
0
 62
     7
 10
102.33199999999999
 20
135.96899999999999
 30
0.0
 11
102.33199999999999
 21
63.059100000000001
 31
0.0
  0
LINE
  5
41A
  8
0
 62
     7
 10
103.032
 20
71.516800000000003
 30
0.0
 11
90.312700000000007
 21
71.516800000000003
 31
0.0
  0
LINE
  5
41B
  8
0
 62
     7
 10
103.032
 20
127.517
 30
0.0
 11
90.312700000000007
 21
127.517
 31
0.0
  0
LINE
  5
41C
  8
0
 62
     7
 10
109.85299999999999
 20
130.018
 30
0.0
 11
92.615099999999984
 21
130.018
 31
0.0
  0
LINE
  5
41D
  8
0
 62
     7
 10
109.85299999999999
 20
69.017099999999999
 30
0.0
 11
92.615099999999984
 21
69.017099999999999
 31
0.0
  0
LINE
  5
41E
  8
0
 62
     7
 10
106.968
 20
158.178
 30
0.0
 11
106.968
 21
208.161
 31
0.0
  0
LINE
  5
41F
  8
0
 62
     7
 10
90.918400000000005
 20
151.095
 30
0.0
 11
89.183800000000005
 21
149.601
 31
0.0
  0
LINE
  5
420
  8
0
 62
     7
 10
89.183800000000005
 20
149.601
 30
0.0
 11
91.433099999999996
 21
150.02799999999999
 31
0.0
  0
LINE
  5
421
  8
0
 62
     7
 10
91.433099999999996
 20
150.02799999999999
 30
0.0
 11
90.918400000000005
 21
151.095
 31
0.0
  0
LINE
  5
422
  8
0
 62
     7
 10
106.968
 20
158.178
 30
0.0
 11
89.183800000000005
 21
149.601
 31
0.0
  0
LINE
  5
423
  8
0
 62
     7
 10
48.62149999999999
 20
158.876
 30
0.0
 11
47.476500000000001
 21
156.89400000000001
 31
0.0
  0
LINE
  5
424
  8
0
 62
     7
 10
47.476500000000001
 20
156.89400000000001
 30
0.0
 11
49.459499999999991
 21
158.03800000000001
 31
0.0
  0
LINE
  5
425
  8
0
 62
     7
 10
49.459499999999991
 20
158.03800000000001
 30
0.0
 11
48.62149999999999
 21
158.876
 31
0.0
  0
LINE
  5
426
  8
0
 62
     7
 10
47.476500000000001
 20
156.89400000000001
 30
0.0
 11
54.727800000000002
 21
164.14500000000001
 31
0.0
  0
LINE
  5
427
  8
0
 62
     7
 10
86.908100000000005
 20
158.03899999999999
 30
0.0
 11
88.890900000000016
 21
156.89400000000001
 31
0.0
  0
LINE
  5
428
  8
0
 62
     7
 10
88.890900000000016
 20
156.89400000000001
 30
0.0
 11
87.746099999999998
 21
158.87700000000001
 31
0.0
  0
LINE
  5
429
  8
0
 62
     7
 10
87.746099999999998
 20
158.87700000000001
 30
0.0
 11
86.908100000000005
 21
158.03899999999999
 31
0.0
  0
LINE
  5
42A
  8
0
 62
     7
 10
88.890900000000016
 20
156.89400000000001
 30
0.0
 11
81.639300000000006
 21
164.14500000000001
 31
0.0
  0
LINE
  5
42B
  8
0
 62
     7
 10
97.492000000000004
 20
158.81100000000001
 30
0.0
 11
98.084599999999995
 21
156.59999999999999
 31
0.0
  0
LINE
  5
42C
  8
0
 62
     7
 10
98.084599999999995
 20
156.59999999999999
 30
0.0
 11
98.677099999999996
 21
158.81100000000001
 31
0.0
  0
LINE
  5
42D
  8
0
 62
     7
 10
98.677099999999996
 20
158.81100000000001
 30
0.0
 11
97.492000000000004
 21
158.81100000000001
 31
0.0
  0
LINE
  5
42E
  8
0
 62
     7
 10
98.662599999999998
 20
208.38999999999999
 30
0.0
 11
98.070099999999996
 21
210.602
 31
0.0
  0
LINE
  5
42F
  8
0
 62
     7
 10
98.070099999999996
 20
210.602
 30
0.0
 11
97.477500000000006
 21
208.38999999999999
 31
0.0
  0
LINE
  5
430
  8
0
 62
     7
 10
97.477500000000006
 20
208.38999999999999
 30
0.0
 11
98.662599999999998
 21
208.38999999999999
 31
0.0
  0
LINE
  5
431
  8
0
 62
     7
 10
98.077299999999994
 20
156.601
 30
0.0
 11
98.077299999999994
 21
210.601
 31
0.0
  0
LINE
  5
432
  8
0
 62
     7
 10
98.777400000000014
 20
156.601
 30
0.0
 11
89.916899999999998
 21
156.601
 31
0.0
  0
LINE
  5
433
  8
0
 62
     7
 10
98.777400000000014
 20
210.601
 30
0.0
 11
89.916899999999998
 21
210.601
 31
0.0
  0
LINE
  5
434
  8
0
 62
     7
 10
49.394399999999997
 20
201.953
 30
0.0
 11
47.1828
 21
201.36000000000001
 31
0.0
  0
LINE
  5
435
  8
0
 62
     7
 10
47.1828
 20
201.36000000000001
 30
0.0
 11
49.394399999999997
 21
200.768
 31
0.0
  0
LINE
  5
436
  8
0
 62
     7
 10
49.394399999999997
 20
200.768
 30
0.0
 11
49.394399999999997
 21
201.953
 31
0.0
  0
LINE
  5
437
  8
0
 62
     7
 10
86.972999999999999
 20
200.78200000000001
 30
0.0
 11
89.184600000000003
 21
201.375
 31
0.0
  0
LINE
  5
438
  8
0
 62
     7
 10
89.184600000000003
 20
201.375
 30
0.0
 11
86.972999999999999
 21
201.96700000000001
 31
0.0
  0
LINE
  5
439
  8
0
 62
     7
 10
86.972999999999999
 20
201.96700000000001
 30
0.0
 11
86.972999999999999
 21
200.78200000000001
 31
0.0
  0
LINE
  5
43A
  8
0
 62
     7
 10
47.183599999999991
 20
201.36799999999999
 30
0.0
 11
89.183800000000005
 21
201.36799999999999
 31
0.0
  0
LINE
  5
43B
  8
0
 62
     7
 10
35.832099999999997
 20
158.81200000000001
 30
0.0
 11
36.424700000000001
 21
156.601
 31
0.0
  0
LINE
  5
43C
  8
0
 62
     7
 10
36.424700000000001
 20
156.601
 30
0.0
 11
37.017299999999999
 21
158.81200000000001
 31
0.0
  0
LINE
  5
43D
  8
0
 62
     7
 10
37.017299999999999
 20
158.81200000000001
 30
0.0
 11
35.832099999999997
 21
158.81200000000001
 31
0.0
  0
LINE
  5
43E
  8
0
 62
     7
 10
36.424700000000001
 20
224.06
 30
0.0
 11
36.424700000000001
 21
143.43899999999999
 31
0.0
  0
LINE
  5
43F
  8
0
 62
     7
 10
35.724699999999999
 20
220.101
 30
0.0
 11
46.483199999999997
 21
220.101
 31
0.0
  0
LINE
  5
440
  8
0
 62
     7
 10
35.724699999999999
 20
215.101
 30
0.0
 11
46.483199999999997
 21
215.101
 31
0.0
  0
LINE
  5
441
  8
0
 62
     7
 10
35.724699999999999
 20
210.601
 30
0.0
 11
46.483199999999997
 21
210.601
 31
0.0
  0
LINE
  5
442
  8
0
 62
     7
 10
35.724699999999999
 20
183.601
 30
0.0
 11
43.313000000000002
 21
183.601
 31
0.0
  0
LINE
  5
443
  8
0
 62
     7
 10
35.724699999999999
 20
156.601
 30
0.0
 11
46.483199999999997
 21
156.601
 31
0.0
  0
LINE
  5
444
  8
0
 62
     7
 10
76.116100000000003
 20
164.14500000000001
 30
0.0
 11
81.639300000000006
 21
164.14500000000001
 31
0.0
  0
LINE
  5
445
  8
0
 62
     7
 10
54.727800000000002
 20
164.14500000000001
 30
0.0
 11
60.6008
 21
164.14500000000001
 31
0.0
  0
LINE
  5
446
  8
0
 62
     7
 10
35.724699999999999
 20
152.101
 30
0.0
 11
46.483199999999997
 21
152.101
 31
0.0
  0
LINE
  5
447
  8
0
 62
     7
 10
35.724699999999999
 20
147.101
 30
0.0
 11
46.483199999999997
 21
147.101
 31
0.0
  0
LINE
  5
448
  8
0
 62
     7
 10
48.183399999999999
 20
210.601
 30
0.0
 11
88.183599999999998
 21
210.601
 31
0.0
  0
ARC
  5
449
  8
0
 62
     7
 10
88.183718999999996
 20
209.60102000000001
 30
0.0
 40
1.000032
 50
0.004945
 51
90.004914999999997
  0
ARC
  5
44A
  8
0
 62
     7
 10
48.183323999999999
 20
209.60102000000001
 30
0.0
 40
1.000032
 50
89.995064999999997
 51
179.995036
  0
LINE
  5
44B
  8
0
  6
AIGENLINE003
 62
     7
 10
89.183800000000005
 20
215.101
 30
0.0
 11
47.183300000000003
 21
220.101
 31
0.0
  0
LINE
  5
44C
  8
0
  6
AIGENLINE003
 62
     7
 10
47.183300000000003
 20
215.101
 30
0.0
 11
89.183800000000005
 21
220.101
 31
0.0
  0
LINE
  5
44D
  8
0
  6
AIGENLINE003
 62
     7
 10
89.183800000000005
 20
215.101
 30
0.0
 11
89.183800000000005
 21
220.101
 31
0.0
  0
LINE
  5
44E
  8
0
  6
AIGENLINE003
 62
     7
 10
47.183300000000003
 20
215.101
 30
0.0
 11
47.183300000000003
 21
220.101
 31
0.0
  0
LINE
  5
44F
  8
0
  6
AIGENLINE003
 62
     7
 10
47.183300000000003
 20
215.101
 30
0.0
 11
89.183800000000005
 21
215.101
 31
0.0
  0
LINE
  5
450
  8
0
  6
AIGENLINE003
 62
     7
 10
47.183300000000003
 20
220.101
 30
0.0
 11
89.183800000000005
 21
220.101
 31
0.0
  0
LINE
  5
451
  8
0
  6
AIGENLINE001
 62
     7
 10
44.013100000000001
 20
183.601
 30
0.0
 11
91.937799999999996
 21
183.601
 31
0.0
  0
LINE
  5
452
  8
0
 62
     7
 10
89.183800000000005
 20
209.601
 30
0.0
 11
89.183800000000005
 21
157.601
 31
0.0
  0
LINE
  5
453
  8
0
 62
     7
 10
48.183399999999999
 20
156.601
 30
0.0
 11
88.183599999999998
 21
156.601
 31
0.0
  0
ARC
  5
454
  8
0
 62
     7
 10
88.183718999999996
 20
157.60093699999999
 30
0.0
 40
1.000032
 50
269.99508500000002
 51
359.99505499999998
  0
LINE
  5
455
  8
0
 62
     7
 10
47.183300000000003
 20
209.601
 30
0.0
 11
47.183300000000003
 21
157.601
 31
0.0
  0
ARC
  5
456
  8
0
 62
     7
 10
48.183323999999999
 20
157.60093699999999
 30
0.0
 40
1.000030999999999
 50
180.00494499999999
 51
270.004954
  0
LINE
  5
457
  8
0
  6
AIGENLINE003
 62
     7
 10
89.183800000000005
 20
152.101
 30
0.0
 11
47.183300000000003
 21
147.101
 31
0.0
  0
LINE
  5
458
  8
0
  6
AIGENLINE003
 62
     7
 10
47.183300000000003
 20
152.101
 30
0.0
 11
89.183800000000005
 21
147.101
 31
0.0
  0
LINE
  5
459
  8
0
  6
AIGENLINE003
 62
     7
 10
89.183800000000005
 20
152.101
 30
0.0
 11
89.183800000000005
 21
147.101
 31
0.0
  0
LINE
  5
45A
  8
0
  6
AIGENLINE003
 62
     7
 10
47.183300000000003
 20
152.101
 30
0.0
 11
47.183300000000003
 21
147.101
 31
0.0
  0
LINE
  5
45B
  8
0
  6
AIGENLINE003
 62
     7
 10
47.183300000000003
 20
152.101
 30
0.0
 11
89.183800000000005
 21
152.101
 31
0.0
  0
LINE
  5
45C
  8
0
  6
AIGENLINE003
 62
     7
 10
47.183300000000003
 20
147.101
 30
0.0
 11
89.183800000000005
 21
147.101
 31
0.0
  0
ARC
  5
45D
  8
0
 62
     7
 10
113.81272199999999
 20
236.88781299999999
 30
0.0
 40
1.000289999999999
 50
89.990132999999986
 51
179.990104
  0
ARC
  5
45E
  8
0
 62
     7
 10
113.77424000000001
 20
236.84968900000001
 30
0.0
 40
1.0391330000000001
 50
2.1120659999999991
 51
87.868183999999985
  0
ARC
  5
45F
  8
0
 62
     7
 10
113.774264
 20
235.25986800000001
 30
0.0
 40
1.0391209999999991
 50
272.1304970000001
 51
357.86951299999998
  0
ARC
  5
460
  8
0
 62
     7
 10
113.851496
 20
235.26055500000001
 30
0.0
 40
1.039806999999999
 50
182.167022
 51
267.87248099999999
  0
LINE
  5
461
  8
0
  6
AIGENLINE001
 62
     7
 10
113.813
 20
233.64400000000001
 30
0.0
 11
113.813
 21
238.46600000000001
 31
0.0
  0
LINE
  5
462
  8
0
  6
AIGENLINE001
 62
     7
 10
115.19799999999999
 20
236.05500000000001
 30
0.0
 11
112.411
 21
236.05500000000001
 31
0.0
  0
LINE
  5
463
  8
0
  6
AIGENLINE001
 62
     7
 10
112.254
 20
236.88800000000001
 30
0.0
 11
115.441
 21
236.88800000000001
 31
0.0
  0
LINE
  5
464
  8
0
  6
AIGENLINE001
 62
     7
 10
112.254
 20
235.221
 30
0.0
 11
115.441
 21
235.221
 31
0.0
  0
LINE
  5
465
  8
0
 62
     7
 10
112.812
 20
236.88800000000001
 30
0.0
 11
112.812
 21
235.221
 31
0.0
  0
LINE
  5
466
  8
0
 62
     7
 10
114.813
 20
236.88800000000001
 30
0.0
 11
114.813
 21
235.221
 31
0.0
  0
LINE
  5
467
  8
0
  6
AIGENLINE001
 62
     7
 10
146.98699999999999
 20
236.05500000000001
 30
0.0
 11
149.869
 21
236.05500000000001
 31
0.0
  0
LINE
  5
468
  8
0
 62
     7
 10
118.812
 20
228.55500000000001
 30
0.0
 11
108.813
 21
228.55500000000001
 31
0.0
  0
LINE
  5
469
  8
0
 62
     7
 10
118.479
 20
225.221
 30
0.0
 11
109.146
 21
225.221
 31
0.0
  0
LINE
  5
46A
  8
0
 62
     7
 10
148.648
 20
240.84999999999999
 30
0.0
 11
148.648
 21
245.89500000000001
 31
0.0
  0
LINE
  5
46B
  8
0
 62
     7
 10
148.148
 20
240.84999999999999
 30
0.0
 11
148.148
 21
245.89500000000001
 31
0.0
  0
LINE
  5
46C
  8
0
 62
     7
 10
108.813
 20
240.221
 30
0.0
 11
108.813
 21
223.55500000000001
 31
0.0
  0
LINE
  5
46D
  8
0
 62
     7
 10
118.812
 20
223.55500000000001
 30
0.0
 11
108.813
 21
223.55500000000001
 31
0.0
  0
LINE
  5
46E
  8
0
 62
     7
 10
118.812
 20
240.221
 30
0.0
 11
118.812
 21
223.55500000000001
 31
0.0
  0
LINE
  5
46F
  8
0
 62
     7
 10
118.812
 20
240.221
 30
0.0
 11
108.813
 21
240.221
 31
0.0
  0
LINE
  5
470
  8
0
 62
     7
 10
148.648
 20
240.221
 30
0.0
 11
148.648
 21
228.65100000000001
 31
0.0
  0
LINE
  5
471
  8
0
 62
     7
 10
148.315
 20
228.07400000000001
 30
0.0
 11
142.815
 21
224.898
 31
0.0
  0
ARC
  5
472
  8
0
 62
     7
 10
147.969773
 20
228.65727200000009
 30
0.0
 40
0.6781080000000002
 50
300.60943400000002
 51
359.47465699999998
  0
LINE
  5
473
  8
0
 62
     7
 10
148.148
 20
228.589
 30
0.0
 11
142.648
 21
225.41399999999999
 31
0.0
  0
LINE
  5
474
  8
0
 62
     7
 10
142.315
 20
224.83600000000001
 30
0.0
 11
142.315
 21
223.55500000000001
 31
0.0
  0
ARC
  5
475
  8
0
 62
     7
 10
142.99688999999989
 20
224.82788500000001
 30
0.0
 40
0.681903
 50
120.78919399999999
 51
179.29485700000001
  0
LINE
  5
476
  8
0
 62
     7
 10
142.815
 20
224.898
 30
0.0
 11
142.815
 21
223.55500000000001
 31
0.0
  0
LINE
  5
477
  8
0
 62
     7
 10
142.815
 20
223.55500000000001
 30
0.0
 11
142.315
 21
223.55500000000001
 31
0.0
  0
LINE
  5
478
  8
0
 62
     7
 10
148.148
 20
240.221
 30
0.0
 11
148.148
 21
228.589
 31
0.0
  0
LINE
  5
479
  8
0
 62
     7
 10
148.648
 20
240.221
 30
0.0
 11
148.148
 21
240.221
 31
0.0
  0
LINE
  5
47A
  8
0
 62
     7
 10
115.43300000000001
 20
236.05500000000001
 30
0.0
 11
124.407
 21
236.05500000000001
 31
0.0
  0
LINE
  5
47B
  8
0
 62
     7
 10
124.38200000000001
 20
238.74700000000001
 30
0.0
 11
123.986
 21
240.221
 31
0.0
  0
LINE
  5
47C
  8
0
 62
     7
 10
123.986
 20
240.221
 30
0.0
 11
123.592
 21
238.74700000000001
 31
0.0
  0
LINE
  5
47D
  8
0
 62
     7
 10
123.592
 20
238.74700000000001
 30
0.0
 11
124.38200000000001
 21
238.74700000000001
 31
0.0
  0
LINE
  5
47E
  8
0
 62
     7
 10
123.601
 20
237.529
 30
0.0
 11
123.996
 21
236.05500000000001
 31
0.0
  0
LINE
  5
47F
  8
0
 62
     7
 10
123.996
 20
236.05500000000001
 30
0.0
 11
124.39100000000001
 21
237.529
 31
0.0
  0
LINE
  5
480
  8
0
 62
     7
 10
124.39100000000001
 20
237.529
 30
0.0
 11
123.601
 21
237.529
 31
0.0
  0
LINE
  5
481
  8
0
 62
     7
 10
123.996
 20
240.221
 30
0.0
 11
123.996
 21
229.58600000000001
 31
0.0
  0
LINE
  5
482
  8
0
 62
     7
 10
119.455
 20
223.55500000000001
 30
0.0
 11
129.33699999999999
 21
223.55500000000001
 31
0.0
  0
LINE
  5
483
  8
0
 62
     7
 10
119.455
 20
240.221
 30
0.0
 11
129.33699999999999
 21
240.221
 31
0.0
  0
LINE
  5
484
  8
0
 62
     7
 10
141.00899999999999
 20
225.22399999999999
 30
0.0
 11
142.33199999999999
 21
224.46100000000001
 31
0.0
  0
LINE
  5
485
  8
0
 62
     7
 10
142.33199999999999
 20
224.46100000000001
 30
0.0
 11
141.56800000000001
 21
225.78299999999999
 31
0.0
  0
LINE
  5
486
  8
0
 62
     7
 10
141.56800000000001
 20
225.78299999999999
 30
0.0
 11
141.00899999999999
 21
225.22399999999999
 31
0.0
  0
LINE
  5
487
  8
0
 62
     7
 10
139.57599999999999
 20
227.21600000000001
 30
0.0
 11
142.33199999999999
 21
224.46100000000001
 31
0.0
  0
LINE
  5
488
  8
0
 62
     7
 10
139.57599999999999
 20
243.489
 30
0.0
 11
139.57599999999999
 21
227.21600000000001
 31
0.0
  0
LINE
  5
489
  8
0
 62
     7
 10
129.31200000000001
 20
238.74700000000001
 30
0.0
 11
128.916
 21
240.22200000000001
 31
0.0
  0
LINE
  5
48A
  8
0
 62
     7
 10
128.916
 20
240.22200000000001
 30
0.0
 11
128.52099999999999
 21
238.74700000000001
 31
0.0
  0
LINE
  5
48B
  8
0
 62
     7
 10
128.52099999999999
 20
238.74700000000001
 30
0.0
 11
129.31200000000001
 21
238.74700000000001
 31
0.0
  0
LINE
  5
48C
  8
0
 62
     7
 10
128.53100000000001
 20
225.029
 30
0.0
 11
128.92599999999999
 21
223.55500000000001
 31
0.0
  0
LINE
  5
48D
  8
0
 62
     7
 10
128.92599999999999
 20
223.55500000000001
 30
0.0
 11
129.321
 21
225.029
 31
0.0
  0
LINE
  5
48E
  8
0
 62
     7
 10
129.321
 20
225.029
 30
0.0
 11
128.53100000000001
 21
225.029
 31
0.0
  0
LINE
  5
48F
  8
0
 62
     7
 10
128.92599999999999
 20
240.221
 30
0.0
 11
128.92599999999999
 21
223.55500000000001
 31
0.0
  0
LINE
  5
490
  8
0
 62
     7
 10
148.648
 20
227.62
 30
0.0
 11
148.648
 21
217.798
 31
0.0
  0
LINE
  5
491
  8
0
 62
     7
 10
142.315
 20
222.93899999999999
 30
0.0
 11
142.315
 21
217.798
 31
0.0
  0
LINE
  5
492
  8
0
 62
     7
 10
143.78899999999999
 20
218.602
 30
0.0
 11
142.31399999999999
 21
218.208
 31
0.0
  0
LINE
  5
493
  8
0
 62
     7
 10
142.31399999999999
 20
218.208
 30
0.0
 11
143.78899999999999
 21
217.81200000000001
 31
0.0
  0
LINE
  5
494
  8
0
 62
     7
 10
143.78899999999999
 20
217.81200000000001
 30
0.0
 11
143.78899999999999
 21
218.602
 31
0.0
  0
LINE
  5
495
  8
0
 62
     7
 10
147.17400000000001
 20
217.822
 30
0.0
 11
148.649
 21
218.21700000000001
 31
0.0
  0
LINE
  5
496
  8
0
 62
     7
 10
148.649
 20
218.21700000000001
 30
0.0
 11
147.17400000000001
 21
218.61199999999999
 31
0.0
  0
LINE
  5
497
  8
0
 62
     7
 10
147.17400000000001
 20
218.61199999999999
 30
0.0
 11
147.17400000000001
 21
217.822
 31
0.0
  0
LINE
  5
498
  8
0
 62
     7
 10
142.315
 20
218.208
 30
0.0
 11
148.648
 21
218.208
 31
0.0
  0
LINE
  5
499
  8
0
 62
     7
 10
118.812
 20
240.84999999999999
 30
0.0
 11
118.812
 21
247.035
 31
0.0
  0
LINE
  5
49A
  8
0
 62
     7
 10
108.813
 20
240.84999999999999
 30
0.0
 11
108.813
 21
247.035
 31
0.0
  0
LINE
  5
49B
  8
0
 62
     7
 10
150.12200000000001
 20
245.87899999999999
 30
0.0
 11
148.648
 21
245.48400000000001
 31
0.0
  0
LINE
  5
49C
  8
0
 62
     7
 10
148.648
 20
245.48400000000001
 30
0.0
 11
150.12200000000001
 21
245.089
 31
0.0
  0
LINE
  5
49D
  8
0
 62
     7
 10
150.12200000000001
 20
245.089
 30
0.0
 11
150.12200000000001
 21
245.87899999999999
 31
0.0
  0
LINE
  5
49E
  8
0
 62
     7
 10
146.67400000000001
 20
245.089
 30
0.0
 11
148.148
 21
245.48400000000001
 31
0.0
  0
LINE
  5
49F
  8
0
 62
     7
 10
148.148
 20
245.48400000000001
 30
0.0
 11
146.67400000000001
 21
245.87899999999999
 31
0.0
  0
LINE
  5
4A0
  8
0
 62
     7
 10
146.67400000000001
 20
245.87899999999999
 30
0.0
 11
146.67400000000001
 21
245.089
 31
0.0
  0
LINE
  5
4A1
  8
0
 62
     7
 10
142.80799999999999
 20
245.48400000000001
 30
0.0
 11
151.101
 21
245.48400000000001
 31
0.0
  0
LINE
  5
4A2
  8
0
 62
     7
 10
110.28700000000001
 20
247.01900000000001
 30
0.0
 11
108.813
 21
246.624
 31
0.0
  0
LINE
  5
4A3
  8
0
 62
     7
 10
108.813
 20
246.624
 30
0.0
 11
110.28700000000001
 21
246.22900000000001
 31
0.0
  0
LINE
  5
4A4
  8
0
 62
     7
 10
110.28700000000001
 20
246.22900000000001
 30
0.0
 11
110.28700000000001
 21
247.01900000000001
 31
0.0
  0
LINE
  5
4A5
  8
0
 62
     7
 10
117.339
 20
246.238
 30
0.0
 11
118.813
 21
246.63300000000001
 31
0.0
  0
LINE
  5
4A6
  8
0
 62
     7
 10
118.813
 20
246.63300000000001
 30
0.0
 11
117.339
 21
247.02799999999999
 31
0.0
  0
LINE
  5
4A7
  8
0
 62
     7
 10
117.339
 20
247.02799999999999
 30
0.0
 11
117.339
 21
246.238
 31
0.0
  0
LINE
  5
4A8
  8
0
 62
     7
 10
108.813
 20
246.624
 30
0.0
 11
118.812
 21
246.624
 31
0.0
  0
LINE
  5
4A9
  8
0
 62
     7
 10
136.88999999999999
 20
61.776499999999992
 30
0.0
 11
134.678
 21
61.183900000000001
 31
0.0
  0
LINE
  5
4AA
  8
0
 62
     7
 10
134.678
 20
61.183900000000001
 30
0.0
 11
136.88999999999999
 21
60.59129999999999
 31
0.0
  0
LINE
  5
4AB
  8
0
 62
     7
 10
136.88999999999999
 20
60.59129999999999
 30
0.0
 11
136.88999999999999
 21
61.776499999999992
 31
0.0
  0
LINE
  5
4AC
  8
0
 62
     7
 10
152.66800000000001
 20
60.605800000000002
 30
0.0
 11
154.87899999999999
 21
61.198399999999992
 31
0.0
  0
LINE
  5
4AD
  8
0
 62
     7
 10
154.87899999999999
 20
61.198399999999992
 30
0.0
 11
152.66800000000001
 21
61.790900000000001
 31
0.0
  0
LINE
  5
4AE
  8
0
 62
     7
 10
152.66800000000001
 20
61.790900000000001
 30
0.0
 11
152.66800000000001
 21
60.605800000000002
 31
0.0
  0
LINE
  5
4AF
  8
0
 62
     7
 10
134.679
 20
61.190800000000003
 30
0.0
 11
154.87799999999999
 21
61.190800000000003
 31
0.0
  0
LINE
  5
4B0
  8
0
 62
     7
 10
134.679
 20
60.483899999999998
 30
0.0
 11
134.679
 21
68.165099999999995
 31
0.0
  0
LINE
  5
4B1
  8
0
 62
     7
 10
154.87899999999999
 20
60.4983
 30
0.0
 11
154.87899999999999
 21
95.406300000000002
 31
0.0
  0
TEXT
  5
4B2
  8
_________2
 62
     7
 10
90.092336166666669
 20
13.2182
 30
0.0
 40
3.6545800000000002
  1
1 ： 10
 41
0.5
 72
     1
 11
93.960099999999997
 21
13.2182
 31
0.0
  0
LINE
  5
4B3
  8
_________2
 62
     7
 10
205.30099999999999
 20
127.41200000000001
 30
0.0
 11
183.55000000000001
 21
127.41200000000001
 31
0.0
  0
LINE
  5
4B4
  8
_________2
 62
     7
 10
100.3
 20
-4.0903900000000002
 30
0.0
 11
100.3
 21
-21.070699999999999
 31
0.0
  0
LINE
  5
4B5
  8
_________2
 62
     7
 10
100.3
 20
275.93099999999998
 30
0.0
 11
100.3
 21
258.911
 31
0.0
  0
LINE
  5
4B6
  8
_________2
 62
     7
 10
17.049499999999998
 20
127.41200000000001
 30
0.0
 11
-4.70052
 21
127.41200000000001
 31
0.0
  0
LINE
  5
4B7
  8
_________2
 62
     7
 10
76.741399999999999
 20
29.805099999999999
 30
0.0
 11
74.554699999999997
 21
29.805099999999999
 31
0.0
  0
LINE
  5
4B8
  8
_________2
 62
     7
 10
77.233999999999995
 20
29.805099999999999
 30
0.0
 11
76.981800000000007
 21
29.805099999999999
 31
0.0
  0
LINE
  5
4B9
  8
_________2
 62
     7
 10
77.726299999999995
 20
29.805099999999999
 30
0.0
 11
80.651600000000002
 21
29.805099999999999
 31
0.0
  0
LINE
  5
4BA
  8
_________2
 62
     7
 10
77.233999999999995
 20
29.805099999999999
 30
0.0
 11
77.485900000000001
 21
29.805099999999999
 31
0.0
  0
LINE
  5
4BB
  8
_________2
 62
     7
 10
70.837500000000006
 20
29.805099999999999
 30
0.0
 11
68.650499999999994
 21
29.805099999999999
 31
0.0
  0
LINE
  5
4BC
  8
_________2
 62
     7
 10
71.329800000000006
 20
29.805099999999999
 30
0.0
 11
71.0779
 21
29.805099999999999
 31
0.0
  0
LINE
  5
4BD
  8
_________2
 62
     7
 10
71.329800000000006
 20
30.2974
 30
0.0
 11
71.329800000000006
 21
32.484400000000001
 31
0.0
  0
LINE
  5
4BE
  8
_________2
 62
     7
 10
71.329800000000006
 20
29.805099999999999
 30
0.0
 11
71.329800000000006
 21
30.057600000000001
 31
0.0
  0
LINE
  5
4BF
  8
_________2
 62
     7
 10
71.822400000000002
 20
29.805099999999999
 30
0.0
 11
74.009
 21
29.805099999999999
 31
0.0
  0
LINE
  5
4C0
  8
_________2
 62
     7
 10
71.329800000000006
 20
29.805099999999999
 30
0.0
 11
71.581999999999994
 21
29.805099999999999
 31
0.0
  0
LINE
  5
4C1
  8
_________2
 62
     7
 10
71.329800000000006
 20
29.312799999999999
 30
0.0
 11
71.329800000000006
 21
27.126200000000001
 31
0.0
  0
LINE
  5
4C2
  8
_________2
 62
     7
 10
71.329800000000006
 20
29.805099999999999
 30
0.0
 11
71.329800000000006
 21
29.5532
 31
0.0
  0
LINE
  5
4C3
  8
_________2
 62
     7
 10
75.040899999999993
 20
28.585899999999999
 30
0.0
 11
80.218500000000006
 21
27.720400000000001
 31
0.0
  0
LINE
  5
4C4
  8
_________2
 62
     7
 10
75.040899999999993
 20
31.024699999999999
 30
0.0
 11
80.218500000000006
 21
31.8901
 31
0.0
  0
LINE
  5
4C5
  8
_________2
 62
     7
 10
80.218500000000006
 20
27.720400000000001
 30
0.0
 11
80.218500000000006
 21
31.8901
 31
0.0
  0
LINE
  5
4C6
  8
_________2
 62
     7
 10
75.040899999999993
 20
28.585899999999999
 30
0.0
 11
75.040899999999993
 21
31.024699999999999
 31
0.0
  0
ARC
  5
4C7
  8
_________2
 62
     7
 10
71.283201000000005
 20
29.758156
 30
0.0
 40
1.2673589999999999
 50
2.122214
 51
87.893958999999995
  0
ARC
  5
4C8
  8
_________2
 62
     7
 10
71.376300000000001
 20
29.758562000000001
 30
0.0
 40
1.2669509999999991
 50
92.104485999999994
 51
177.89548500000001
  0
ARC
  5
4C9
  8
_________2
 62
     7
 10
71.376343999999989
 20
29.852014
 30
0.0
 40
1.2670099999999991
 50
182.12258499999999
 51
267.89363300000002
  0
ARC
  5
4CA
  8
_________2
 62
     7
 10
71.282900999999995
 20
29.852677000000011
 30
0.0
 40
1.267684
 50
272.11907200000002
 51
357.848567
  0
ARC
  5
4CB
  8
_________2
 62
     7
 10
71.249426999999997
 20
29.725097000000002
 30
0.0
 40
2.1664659999999989
 50
2.1159629999999998
 51
87.874558999999991
  0
ARC
  5
4CC
  8
_________2
 62
     7
 10
71.409410999999992
 20
29.725809000000002
 30
0.0
 40
2.1657280000000001
 50
92.107296999999988
 51
177.902142
  0
ARC
  5
4CD
  8
_________2
 62
     7
 10
71.409789000000004
 20
29.885100999999999
 30
0.0
 40
2.1661329999999999
 50
182.116929
 51
267.88310000000001
  0
ARC
  5
4CE
  8
_________2
 62
     7
 10
71.249769999999998
 20
29.885092
 30
0.0
 40
2.1661229999999989
 50
272.11667999999997
 51
357.88333
  0
TEXT
  5
4CF
  8
_________2
 62
     7
 10
104.605
 20
1.6794899999999999
 30
0.0
 40
3.0923400000000001
  1
図番
 41
0.5
  0
LINE
  5
4D0
  8
_________2
 62
     7
 10
103.55
 20
5.9087199999999989
 30
0.0
 11
183.55099999999999
 21
5.9087199999999989
 31
0.0
  0
TEXT
  5
4D1
  8
_________2
 62
     7
 10
104.605
 20
11.679600000000001
 30
0.0
 40
3.0923400000000001
  1
品番
 41
0.5
  0
TEXT
  5
4D2
  8
_________2
 62
     7
 10
104.605
 20
31.8184
 30
0.0
 40
3.0923400000000001
  1
名称
 41
0.5
  0
TEXT
  5
4D3
  8
_________2
 62
     7
 10
91.84545833333334
 20
26.822299999999998
 30
0.0
 40
3.6545800000000002
  1
mm
 41
0.5
 72
     1
 11
93.368200000000016
 21
26.822299999999998
 31
0.0
  0
TEXT
  5
4D4
  8
_________2
 62
     7
 10
85.643199999999993
 20
31.8184
 30
0.0
 40
3.0923400000000001
  1
単位
 41
0.5
  0
TEXT
  5
4D5
  8
_________2
 62
     7
 10
85.643199999999993
 20
19.411200000000001
 30
0.0
 40
3.0923400000000001
  1
尺度
 41
0.5
  0
TEXT
  5
4D6
  8
_________2
 62
     7
 10
137.64644999999999
 20
9.1082000000000001
 30
0.0
 40
3.9357000000000002
  1
CEL1691
 41
0.5
 72
     1
 11
143.55000000000001
 21
9.1082000000000001
 31
0.0
  0
TEXT
  5
4D7
  8
_________2
 62
     7
 10
137.64644999999999
 20
-0.8919409999999999
 30
0.0
 40
3.9357000000000002
  1
CEL1691
 41
0.5
 72
     1
 11
143.55000000000001
 21
-0.8919409999999999
 31
0.0
  0
TEXT
  5
4D8
  8
_________2
 62
     7
 10
24.5871
 20
0.707627
 30
0.0
 40
3.9357000000000002
  1
実容量：13.5L、重量15.0kg、オーバーフロー付
 41
0.5
  0
TEXT
  5
4D9
  8
_________2
 62
     7
 10
109.179
 20
25.276499999999999
 30
0.0
 40
3.9357000000000002
  1
セラオリジナルコレクション
 41
0.5
  0
TEXT
  5
4DA
  8
_________2
 62
     7
 10
109.179
 20
20.3569
 30
0.0
 40
3.9357000000000002
  1
アンダーカウンター式洗面器
 41
0.5
  0
TEXT
  5
4DB
  8
_________2
 62
     7
 10
39.364390666666672
 20
13.603400000000001
 30
0.0
 40
3.6545800000000002
  1
篠崎
 41
0.5
 72
     1
 11
41.313499999999998
 21
13.603400000000001
 31
0.0
  0
TEXT
  5
4DC
  8
_________2
 62
     7
 10
20.790390666666671
 20
13.603400000000001
 30
0.0
 40
3.6545800000000002
  1
菅原
 41
0.5
 72
     1
 11
22.7395
 21
13.603400000000001
 31
0.0
  0
TEXT
  5
4DD
  8
_________2
 62
     7
 10
67.785799999999995
 20
13.2182
 30
0.0
 40
3.6545800000000002
  1
18.06.05
 41
0.5
  0
TEXT
  5
4DE
  8
_________2
 62
     7
 10
66.593100000000007
 20
19.411200000000001
 30
0.0
 40
3.0923400000000001
  1
日付
 41
0.5
  0
TEXT
  5
4DF
  8
_________2
 62
     7
 10
29.639399999999998
 20
19.411200000000001
 30
0.0
 40
3.0923400000000001
  1
検図
 41
0.5
  0
TEXT
  5
4E0
  8
_________2
 62
     7
 10
18.0214
 20
5.2117699999999987
 30
0.0
 40
3.0923400000000001
  1
備考
 41
0.5
  0
TEXT
  5
4E1
  8
_________2
 62
     7
 10
18.0214
 20
19.411200000000001
 30
0.0
 40
3.0923400000000001
  1
製図
 41
0.5
  0
TEXT
  5
4E2
  8
_________2
 62
     7
 10
23.788865333333341
 20
27.936800000000002
 30
0.0
 40
4.4979399999999989
  1
セラトレーディング株式会社
 41
0.5
 72
     1
 11
41.180900000000001
 21
27.936800000000002
 31
0.0
  0
LINE
  5
4E3
  8
_________2
 62
     7
 10
183.55099999999999
 20
-4.0910799999999998
 30
0.0
 11
17.049499999999998
 21
-4.0910799999999998
 31
0.0
  0
LINE
  5
4E4
  8
_________2
 62
     7
 10
17.049499999999998
 20
-4.0910799999999998
 30
0.0
 11
17.049499999999998
 21
258.911
 31
0.0
  0
LINE
  5
4E5
  8
_________2
 62
     7
 10
17.049499999999998
 20
258.911
 30
0.0
 11
183.55099999999999
 21
258.911
 31
0.0
  0
LINE
  5
4E6
  8
_________2
 62
     7
 10
183.55099999999999
 20
258.911
 30
0.0
 11
183.55099999999999
 21
-4.0910799999999998
 31
0.0
  0
LINE
  5
4E7
  8
_________2
 62
     7
 10
65.549899999999994
 20
9.4096499999999992
 30
0.0
 11
65.549899999999994
 21
35.909500000000001
 31
0.0
  0
LINE
  5
4E8
  8
_________2
 62
     7
 10
84.550099999999986
 20
9.4096499999999992
 30
0.0
 11
84.550099999999986
 21
35.909500000000001
 31
0.0
  0
LINE
  5
4E9
  8
_________2
 62
     7
 10
103.55
 20
-4.0910799999999998
 30
0.0
 11
103.55
 21
35.909500000000001
 31
0.0
  0
LINE
  5
4EA
  8
_________2
 62
     7
 10
28.549700000000001
 20
9.4096499999999992
 30
0.0
 11
28.549700000000001
 21
23.409199999999998
 31
0.0
  0
LINE
  5
4EB
  8
_________2
 62
     7
 10
17.049499999999998
 20
9.4096499999999992
 30
0.0
 11
103.55
 21
9.4096499999999992
 31
0.0
  0
LINE
  5
4EC
  8
_________2
 62
     7
 10
17.049499999999998
 20
23.409199999999998
 30
0.0
 11
103.55
 21
23.409199999999998
 31
0.0
  0
LINE
  5
4ED
  8
_________2
 62
     7
 10
103.55
 20
15.9092
 30
0.0
 11
183.55099999999999
 21
15.9092
 31
0.0
  0
LINE
  5
4EE
  8
_________2
 62
     7
 10
17.049499999999998
 20
35.909500000000001
 30
0.0
 11
183.55099999999999
 21
35.909500000000001
 31
0.0
  0
ENDSEC
  0
EOF
