  0
SECTION
  2
HEADER
  9
$ACADVER
  1
AC1009
  9
$INSBASE
 10
0.0
 20
0.0
 30
0.0
  9
$EXTMIN
 10
0.238402
 20
0.4485540000000001
 30
0.0
  9
$EXTMAX
 10
210.24000000000001
 20
297.45100000000002
 30
0.0
  9
$LIMMIN
 10
0.0
 20
0.0
  9
$LIMMAX
 10
12.0
 20
9.0
  9
$ORTHOMODE
 70
     0
  9
$REGENMODE
 70
     1
  9
$FILLMODE
 70
     1
  9
$QTEXTMODE
 70
     0
  9
$MIRRTEXT
 70
     1
  9
$DRAGMODE
 70
     2
  9
$LTSCALE
 40
1.0
  9
$OSMODE
 70
    37
  9
$ATTMODE
 70
     1
  9
$TEXTSIZE
 40
0.0
  9
$TRACEWID
 40
0.05
  9
$TEXTSTYLE
  7
STANDARD
  9
$CLAYER
  8
0
  9
$CELTYPE
  6
CONTINUOUS
  9
$CECOLOR
 62
   256
  9
$DIMSCALE
 40
1.0
  9
$DIMASZ
 40
0.18
  9
$DIMEXO
 40
0.0625
  9
$DIMDLI
 40
0.38
  9
$DIMRND
 40
0.0
  9
$DIMDLE
 40
0.0
  9
$DIMEXE
 40
0.18
  9
$DIMTP
 40
0.0
  9
$DIMTM
 40
0.0
  9
$DIMTXT
 40
0.18
  9
$DIMCEN
 40
0.09
  9
$DIMTSZ
 40
0.0
  9
$DIMTOL
 70
     0
  9
$DIMLIM
 70
     0
  9
$DIMTIH
 70
     1
  9
$DIMTOH
 70
     1
  9
$DIMSE1
 70
     0
  9
$DIMSE2
 70
     0
  9
$DIMTAD
 70
     0
  9
$DIMZIN
 70
     0
  9
$DIMBLK
  1

  9
$DIMASO
 70
     1
  9
$DIMSHO
 70
     1
  9
$DIMPOST
  1

  9
$DIMAPOST
  1

  9
$DIMALT
 70
     0
  9
$DIMALTD
 70
     2
  9
$DIMALTF
 40
25.399999999999999
  9
$DIMLFAC
 40
1.0
  9
$DIMTOFL
 70
     0
  9
$DIMTVP
 40
0.0
  9
$DIMTIX
 70
     0
  9
$DIMSOXD
 70
     0
  9
$DIMSAH
 70
     0
  9
$DIMBLK1
  1

  9
$DIMBLK2
  1

  9
$DIMSTYLE
  2
STANDARD
  9
$DIMCLRD
 70
     0
  9
$DIMCLRE
 70
     0
  9
$DIMCLRT
 70
     0
  9
$DIMTFAC
 40
1.0
  9
$DIMGAP
 40
0.09
  9
$LUNITS
 70
     2
  9
$LUPREC
 70
     4
  9
$SKETCHINC
 40
0.1
  9
$FILLETRAD
 40
0.0
  9
$AUNITS
 70
     0
  9
$AUPREC
 70
     0
  9
$MENU
  1
.
  9
$ELEVATION
 40
0.0
  9
$PELEVATION
 40
0.0
  9
$THICKNESS
 40
0.0
  9
$LIMCHECK
 70
     0
  9
$BLIPMODE
 70
     0
  9
$CHAMFERA
 40
0.0
  9
$CHAMFERB
 40
0.0
  9
$SKPOLY
 70
     0
  9
$TDCREATE
 40
2444972.375
  9
$TDUPDATE
 40
2458180.249569085
  9
$TDINDWG
 40
0.0000416898
  9
$TDUSRTIMER
 40
0.0000416898
  9
$USRTIMER
 70
     1
  9
$ANGBASE
 50
0.0
  9
$ANGDIR
 70
     0
  9
$PDMODE
 70
     0
  9
$PDSIZE
 40
0.0
  9
$PLINEWID
 40
0.0
  9
$COORDS
 70
     1
  9
$SPLFRAME
 70
     0
  9
$SPLINETYPE
 70
     6
  9
$SPLINESEGS
 70
     8
  9
$ATTDIA
 70
     1
  9
$ATTREQ
 70
     1
  9
$HANDLING
 70
     1
  9
$HANDSEED
  5
383
  9
$SURFTAB1
 70
     6
  9
$SURFTAB2
 70
     6
  9
$SURFTYPE
 70
     6
  9
$SURFU
 70
     6
  9
$SURFV
 70
     6
  9
$UCSNAME
  2

  9
$UCSORG
 10
0.0
 20
0.0
 30
0.0
  9
$UCSXDIR
 10
1.0
 20
0.0
 30
0.0
  9
$UCSYDIR
 10
0.0
 20
1.0
 30
0.0
  9
$PUCSNAME
  2

  9
$PUCSORG
 10
0.0
 20
0.0
 30
0.0
  9
$PUCSXDIR
 10
1.0
 20
0.0
 30
0.0
  9
$PUCSYDIR
 10
0.0
 20
1.0
 30
0.0
  9
$USERI1
 70
     0
  9
$USERI2
 70
     0
  9
$USERI3
 70
     0
  9
$USERI4
 70
     0
  9
$USERI5
 70
     0
  9
$USERR1
 40
0.0
  9
$USERR2
 40
0.0
  9
$USERR3
 40
0.0
  9
$USERR4
 40
0.0
  9
$USERR5
 40
0.0
  9
$WORLDVIEW
 70
     1
  9
$SHADEDGE
 70
     3
  9
$SHADEDIF
 70
    70
  9
$TILEMODE
 70
     1
  9
$MAXACTVP
 70
    48
  9
$PLIMCHECK
 70
     0
  9
$PEXTMIN
 10
1.0000000000000000E+020
 20
1.0000000000000000E+020
 30
1.0000000000000000E+020
  9
$PEXTMAX
 10
-1.0000000000000000E+020
 20
-1.0000000000000000E+020
 30
-1.0000000000000000E+020
  9
$PLIMMIN
 10
0.0
 20
0.0
  9
$PLIMMAX
 10
12.0
 20
9.0
  9
$UNITMODE
 70
     0
  9
$VISRETAIN
 70
     1
  9
$PLINEGEN
 70
     0
  9
$PSLTSCALE
 70
     1
  0
ENDSEC
  0
SECTION
  2
TABLES
  0
TABLE
  2
VPORT
 70
     1
  0
VPORT
  2
*ACTIVE
 70
     0
 10
0.0
 20
0.0
 11
1.0
 21
1.0
 12
195.83847240083131
 22
148.72550000000001
 13
0.0
 23
0.0
 14
1.0
 24
1.0
 15
0.0
 25
0.0
 16
0.0
 26
0.0
 36
1.0
 17
0.0
 27
0.0
 37
0.0
 40
281.37364046443349
 41
2.298642533936651
 42
50.0
 43
0.0
 44
0.0
 50
0.0
 51
0.0
 71
     0
 72
   100
 73
     1
 74
     1
 75
     0
 76
     0
 77
     0
 78
     0
  0
ENDTAB
  0
TABLE
  2
LTYPE
 70
     4
  0
LTYPE
  2
CONTINUOUS
 70
     0
  3
Solid line
 72
    65
 73
     0
 40
0.0
  0
LTYPE
  2
AIGENLINE001
 70
     0
  3
generate AI->DXF Converter
 72
    65
 73
     4
 40
5.8561449999999988
 49
3.5278
 49
-0.776115
 49
0.776115
 49
-0.776115
  0
LTYPE
  2
AIGENLINE002
 70
     0
  3
generate AI->DXF Converter
 72
    65
 73
     2
 40
1.5522299999999991
 49
0.776115
 49
-0.776115
  0
LTYPE
  2
AIGENLINE003
 70
     0
  3
generate AI->DXF Converter
 72
    65
 73
     6
 40
7.4083750000000004
 49
3.5278
 49
-0.776115
 49
0.776115
 49
-0.776115
 49
0.776115
 49
-0.776115
  0
ENDTAB
  0
TABLE
  2
LAYER
 70
     2
  0
LAYER
  2
0
 70
     0
 62
     7
  6
CONTINUOUS
  0
LAYER
  2
_________2
 70
     0
 62
     7
  6
CONTINUOUS
  0
ENDTAB
  0
TABLE
  2
STYLE
 70
     1
  0
STYLE
  2
STANDARD
 70
     0
 40
0.0
 41
0.0
 50
0.0
 71
     0
 42
0.0
  3
TXT
  4
EXTFONT.SHX
  0
ENDTAB
  0
TABLE
  2
VIEW
 70
     0
  0
ENDTAB
  0
TABLE
  2
UCS
 70
     0
  0
ENDTAB
  0
TABLE
  2
APPID
 70
     3
  0
APPID
  2
ACAD
 70
     0
  0
APPID
  2
ACAD_NAV_VCDISPLAY
 70
     0
  0
APPID
  2
ACAD_MLEADERVER
 70
     0
  0
ENDTAB
  0
TABLE
  2
DIMSTYLE
 70
     1
  0
DIMSTYLE
  2
STANDARD
 70
     0
  3

  4

  5

  6

  7

 40
1.0
 41
0.18
 42
0.0625
 43
0.38
 44
0.18
 45
0.0
 46
0.0
 47
0.0
 48
0.0
140
0.18
141
0.09
142
0.0
143
25.399999999999999
144
1.0
145
0.0
146
1.0
147
0.09
 71
     0
 72
     0
 73
     1
 74
     1
 75
     0
 76
     0
 77
     0
 78
     0
170
     0
171
     2
172
     0
173
     0
174
     0
175
     0
176
     0
177
     0
178
     0
  0
ENDTAB
  0
ENDSEC
  0
SECTION
  2
BLOCKS
  0
BLOCK
  8
0
  2
$MODEL_SPACE
 70
     0
 10
0.0
 20
0.0
 30
0.0
  3
$MODEL_SPACE
  1

  0
ENDBLK
  5
1A
  8
0
  0
BLOCK
 67
     1
  8
0
  2
$PAPER_SPACE
 70
     0
 10
0.0
 20
0.0
 30
0.0
  3
$PAPER_SPACE
  1

  0
ENDBLK
  5
17
 67
     1
  8
0
  0
ENDSEC
  0
SECTION
  2
ENTITIES
  0
TEXT
  5
24
  8
0
 62
     7
 10
39.3598
 20
163.29698250000001
 30
0.0
 40
3.0923400000000001
  1
180
 50
90.0
 41
0.5
 72
     1
 11
39.3598
 21
164.97200000000001
 31
0.0
  0
TEXT
  5
25
  8
0
 62
     7
 10
59.564399999999999
 20
236.13900000000001
 30
0.0
 40
3.0923400000000001
  1
%%c44
 41
0.5
  0
TEXT
  5
26
  8
0
 62
     7
 10
31.423100000000002
 20
231.99644000000001
 30
0.0
 40
3.0923400000000001
  1
375
 50
90.0
 41
0.5
 72
     1
 11
31.423100000000002
 21
234.05799999999999
 31
0.0
  0
TEXT
  5
27
  8
0
 62
     7
 10
38.329300000000011
 20
209.55799999999999
 30
0.0
 40
3.0923400000000001
  1
25
 50
90.0
 41
0.5
  0
TEXT
  5
28
  8
0
 62
     7
 10
150.161
 20
165.41813500000001
 30
0.0
 40
3.0923400000000001
  1
135
 50
90.0
 41
0.5
 72
     1
 11
150.161
 21
167.22200000000001
 31
0.0
  0
TEXT
  5
29
  8
0
 62
     7
 10
120.089
 20
176.89505
 30
0.0
 40
3.0923400000000001
  1
28
 50
90.0
 41
0.5
 72
     2
 11
120.089
 21
179.47200000000001
 31
0.0
  0
TEXT
  5
2A
  8
0
 62
     7
 10
156.44483
 20
150.928
 30
0.0
 40
3.0923400000000001
  1
115
 41
0.5
 72
     1
 11
157.99100000000001
 21
150.928
 31
0.0
  0
TEXT
  5
2B
  8
0
 62
     7
 10
38.329300000000011
 20
255.39705000000001
 30
0.0
 40
3.0923400000000001
  1
35
 50
90.0
 41
0.5
 72
     2
 11
38.329300000000011
 21
257.97399999999999
 31
0.0
  0
TEXT
  5
2C
  8
0
 62
     7
 10
38.329300000000011
 20
231.75413499999999
 30
0.0
 40
3.0923400000000001
  1
315
 50
90.0
 41
0.5
 72
     1
 11
38.329300000000011
 21
233.55799999999999
 31
0.0
  0
TEXT
  5
2D
  8
0
 62
     7
 10
100.45105
 20
205.60300000000001
 30
0.0
 40
3.0923400000000001
  1
25
 41
0.5
 72
     2
 11
103.02800000000001
 21
205.60300000000001
 31
0.0
  0
TEXT
  5
2E
  8
0
 62
     7
 10
69.279287500000009
 20
199.262
 30
0.0
 40
3.0923400000000001
  1
520
 41
0.5
 72
     1
 11
71.212000000000003
 21
199.262
 31
0.0
  0
TEXT
  5
2F
  8
0
 62
     7
 10
69.279287500000009
 20
205.60300000000001
 30
0.0
 40
3.0923400000000001
  1
470
 41
0.5
 72
     1
 11
71.212000000000003
 21
205.60300000000001
 31
0.0
  0
TEXT
  5
30
  8
0
 62
     7
 10
39.9146
 20
205.60300000000001
 30
0.0
 40
3.0923400000000001
  1
25
 41
0.5
  0
TEXT
  5
31
  8
0
 62
     7
 10
134.68000000000001
 20
83.862099999999998
 30
0.0
 40
3.0923400000000001
  1
〈付属品〉
 41
0.5
  0
TEXT
  5
32
  8
0
 62
     7
 10
134.68000000000001
 20
79.996700000000004
 30
0.0
 40
3.0923400000000001
  1
洗面器固定金具\U+00D74
 41
0.5
  0
TEXT
  5
33
  8
0
 62
     7
 10
134.68000000000001
 20
76.131200000000007
 30
0.0
 40
3.0923400000000001
  1
%%c5\U+00D720SUSねじ付
 41
0.5
  0
TEXT
  5
34
  8
0
 62
     7
 10
134.68000000000001
 20
72.265799999999999
 30
0.0
 40
3.0923400000000001
  1
（尺度 1：3）
 41
0.5
  0
TEXT
  5
35
  8
0
 62
     7
 10
143.70699999999999
 20
119.004
 30
0.0
 40
3.0923400000000001
  1
12.5
 41
0.5
  0
TEXT
  5
36
  8
0
 62
     7
 10
146.77888799999999
 20
103.581
 30
0.0
 40
3.0923400000000001
  1
両面テープ付
 41
0.5
 72
     2
 11
157.499
 21
103.581
 31
0.0
  0
TEXT
  5
37
  8
0
 62
     7
 10
144.74837249999999
 20
114.161
 30
0.0
 40
3.0923400000000001
  1
50
 41
0.5
 72
     1
 11
145.90799999999999
 21
114.161
 31
0.0
  0
TEXT
  5
38
  8
0
 62
     7
 10
158.72399999999999
 20
96.755050000000011
 30
0.0
 40
3.0923400000000001
  1
1.5
 50
90.0
 41
0.5
 72
     2
 11
158.72399999999999
 21
99.332000000000008
 31
0.0
  0
TEXT
  5
39
  8
0
 62
     7
 10
132.68199999999999
 20
95.583020000000005
 30
0.0
 40
3.0923400000000001
  1
19
 50
90.0
 41
0.5
 72
     1
 11
132.68199999999999
 21
96.613800000000012
 31
0.0
  0
TEXT
  5
3A
  8
0
 62
     7
 10
159.65100000000001
 20
127.2263725
 30
0.0
 40
3.0923400000000001
  1
30
 50
90.0
 41
0.5
 72
     1
 11
159.65100000000001
 21
128.386
 31
0.0
  0
TEXT
  5
3B
  8
0
 62
     7
 10
134.05676
 20
194.78100000000001
 30
0.0
 40
3.0923400000000001
  1
カウンター切込寸法
 41
0.5
 72
     1
 11
142.303
 21
194.78100000000001
 31
0.0
  0
TEXT
  5
3C
  8
0
 62
     7
 10
130.547282
 20
204.511
 30
0.0
 40
3.0923400000000001
  1
洗面器固定用カウンター裏補強木（t30～40）
 41
0.5
 72
     2
 11
169.81999999999999
 21
204.511
 31
0.0
  0
TEXT
  5
3D
  8
0
 62
     7
 10
109.5134295
 20
257.30599999999998
 30
0.0
 40
3.0923400000000001
  1
50以上
 41
0.5
 72
     1
 11
112.58
 21
257.30599999999998
 31
0.0
  0
TEXT
  5
3E
  8
0
 62
     7
 10
116.26452500000001
 20
252.82400000000001
 30
0.0
 40
3.0923400000000001
  1
45
 41
0.5
 72
     1
 11
117.553
 21
252.82400000000001
 31
0.0
  0
TEXT
  5
3F
  8
0
 62
     7
 10
168.64742949999999
 20
257.30599999999998
 30
0.0
 40
3.0923400000000001
  1
50以上
 41
0.5
 72
     1
 11
171.714
 21
257.30599999999998
 31
0.0
  0
TEXT
  5
40
  8
0
 62
     7
 10
165.76452499999999
 20
252.82400000000001
 30
0.0
 40
3.0923400000000001
  1
45
 41
0.5
 72
     1
 11
167.053
 21
252.82400000000001
 31
0.0
  0
TEXT
  5
41
  8
0
 62
     7
 10
151.49144000000001
 20
256.95600000000002
 30
0.0
 40
3.0923400000000001
  1
225
 41
0.5
 72
     1
 11
153.553
 21
256.95600000000002
 31
0.0
  0
TEXT
  5
42
  8
0
 62
     7
 10
128.14696499999999
 20
225.40600000000001
 30
0.0
 40
3.0923400000000001
  1
R10
 41
0.5
 72
     2
 11
131.49700000000001
 21
225.40600000000001
 31
0.0
  0
TEXT
  5
43
  8
0
 62
     7
 10
128.14696499999999
 20
243.11099999999999
 30
0.0
 40
3.0923400000000001
  1
R10
 41
0.5
 72
     2
 11
131.49700000000001
 21
243.11099999999999
 31
0.0
  0
TEXT
  5
44
  8
0
 62
     7
 10
128.99144000000001
 20
256.95600000000002
 30
0.0
 40
3.0923400000000001
  1
225
 41
0.5
 72
     1
 11
131.053
 21
256.95600000000002
 31
0.0
  0
TEXT
  5
45
  8
0
 62
     7
 10
140.37028749999999
 20
211.738
 30
0.0
 40
3.0923400000000001
  1
450
 41
0.5
 72
     1
 11
142.303
 21
211.738
 31
0.0
  0
TEXT
  5
46
  8
0
 62
     7
 10
152.06399999999999
 20
243.64837249999999
 30
0.0
 40
3.0923400000000001
  1
70
 50
90.0
 41
0.5
 72
     1
 11
152.06399999999999
 21
244.80799999999999
 31
0.0
  0
TEXT
  5
47
  8
0
 62
     7
 10
157.27500000000001
 20
231.49644000000001
 30
0.0
 40
3.0923400000000001
  1
295
 50
90.0
 41
0.5
 72
     1
 11
157.27500000000001
 21
233.55799999999999
 31
0.0
  0
LINE
  5
48
  8
0
 62
     7
 10
40.6524
 20
171.75999999999999
 30
0.0
 11
40.059800000000003
 21
173.97200000000001
 31
0.0
  0
LINE
  5
49
  8
0
 62
     7
 10
40.059800000000003
 20
173.97200000000001
 30
0.0
 11
39.467300000000002
 21
171.75999999999999
 31
0.0
  0
LINE
  5
4A
  8
0
 62
     7
 10
39.467300000000002
 20
171.75999999999999
 30
0.0
 11
40.6524
 21
171.75999999999999
 31
0.0
  0
LINE
  5
4B
  8
0
 62
     7
 10
39.467300000000002
 20
158.184
 30
0.0
 11
40.059800000000003
 21
155.97200000000001
 31
0.0
  0
LINE
  5
4C
  8
0
 62
     7
 10
40.059800000000003
 20
155.97200000000001
 30
0.0
 11
40.6524
 21
158.184
 31
0.0
  0
LINE
  5
4D
  8
0
 62
     7
 10
40.6524
 20
158.184
 30
0.0
 11
39.467300000000002
 21
158.184
 31
0.0
  0
LINE
  5
4E
  8
0
 62
     7
 10
40.059800000000003
 20
173.97200000000001
 30
0.0
 11
40.059800000000003
 21
155.97200000000001
 31
0.0
  0
LINE
  5
4F
  8
0
  6
AIGENLINE002
 62
     7
 10
154.44
 20
159.173
 30
0.0
 11
155.53999999999999
 21
160.47200000000001
 31
0.0
  0
LINE
  5
50
  8
0
  6
AIGENLINE002
 62
     7
 10
154.44
 20
155.97200000000001
 30
0.0
 11
154.44
 21
156.77199999999999
 31
0.0
  0
LINE
  5
51
  8
0
  6
AIGENLINE002
 62
     7
 10
154.44
 20
158.57300000000001
 30
0.0
 11
154.44
 21
159.173
 31
0.0
  0
LINE
  5
52
  8
0
  6
AIGENLINE002
 62
     7
 10
155.03999999999999
 20
156.77199999999999
 30
0.0
 11
155.03999999999999
 21
158.57300000000001
 31
0.0
  0
LINE
  5
53
  8
0
  6
AIGENLINE002
 62
     7
 10
150.03999999999999
 20
159.173
 30
0.0
 11
148.94
 21
160.47200000000001
 31
0.0
  0
LINE
  5
54
  8
0
  6
AIGENLINE002
 62
     7
 10
150.03999999999999
 20
155.97200000000001
 30
0.0
 11
150.03999999999999
 21
156.77199999999999
 31
0.0
  0
LINE
  5
55
  8
0
  6
AIGENLINE002
 62
     7
 10
150.03999999999999
 20
158.57300000000001
 30
0.0
 11
150.03999999999999
 21
159.173
 31
0.0
  0
LINE
  5
56
  8
0
  6
AIGENLINE002
 62
     7
 10
149.441
 20
156.77199999999999
 30
0.0
 11
149.441
 21
158.57300000000001
 31
0.0
  0
LINE
  5
57
  8
0
  6
AIGENLINE002
 62
     7
 10
149.441
 20
156.77199999999999
 30
0.0
 11
155.03999999999999
 21
156.77199999999999
 31
0.0
  0
LINE
  5
58
  8
0
  6
AIGENLINE002
 62
     7
 10
149.441
 20
158.57300000000001
 30
0.0
 11
155.03999999999999
 21
158.57300000000001
 31
0.0
  0
LINE
  5
59
  8
0
  6
AIGENLINE002
 62
     7
 10
150.03999999999999
 20
159.173
 30
0.0
 11
154.44
 21
159.173
 31
0.0
  0
ARC
  5
5A
  8
0
  6
AIGENLINE002
 62
     7
 10
71.211951999999997
 20
171.41542699999999
 30
0.0
 40
1.3249919999999991
 50
270.00002000000001
 51
359.99999000000003
  0
ARC
  5
5B
  8
0
  6
AIGENLINE002
 62
     7
 10
71.211951999999997
 20
171.41542699999999
 30
0.0
 40
1.3249919999999991
 50
179.99996999999999
 51
270.00002000000001
  0
ARC
  5
5C
  8
0
  6
AIGENLINE002
 62
     7
 10
71.211951999999997
 20
171.41542699999999
 30
0.0
 40
1.3249919999999991
 50
90.0
 51
179.99996999999999
  0
ARC
  5
5D
  8
0
  6
AIGENLINE002
 62
     7
 10
71.211951999999997
 20
171.41542699999999
 30
0.0
 40
1.3249919999999991
 50
0.00001
 51
89.999980000000008
  0
LINE
  5
5E
  8
0
 62
     7
 10
156.53999999999999
 20
160.011
 30
0.0
 11
156.34
 21
161.62700000000001
 31
0.0
  0
ARC
  5
5F
  8
0
 62
     7
 10
133.72695300000001
 20
162.917562
 30
0.0
 40
0.207165
 50
84.342422999999997
 51
170.29191700000001
  0
ARC
  5
60
  8
0
 62
     7
 10
133.598894
 20
162.93619799999999
 30
0.0
 40
0.077864
 50
167.917574
 51
174.59006400000001
  0
LINE
  5
61
  8
0
 62
     7
 10
133.35499999999999
 20
161.096
 30
0.0
 11
133.52099999999999
 21
162.94399999999999
 31
0.0
  0
LINE
  5
62
  8
0
 62
     7
 10
150.86099999999999
 20
173.97200000000001
 30
0.0
 11
150.86099999999999
 21
160.47200000000001
 31
0.0
  0
LINE
  5
63
  8
0
 62
     7
 10
152.24000000000001
 20
154.27199999999999
 30
0.0
 11
152.24000000000001
 21
149.52799999999999
 31
0.0
  0
LINE
  5
64
  8
0
 62
     7
 10
163.74100000000001
 20
168.03200000000001
 30
0.0
 11
163.74100000000001
 21
149.52799999999999
 31
0.0
  0
LINE
  5
65
  8
0
 62
     7
 10
44.471600000000002
 20
173.97200000000001
 30
0.0
 11
39.3598
 21
173.97200000000001
 31
0.0
  0
LINE
  5
66
  8
0
 62
     7
 10
66.871799999999993
 20
155.97200000000001
 30
0.0
 11
39.3598
 21
155.97200000000001
 31
0.0
  0
ARC
  5
67
  8
0
 62
     7
 10
89.831406999999984
 20
160.90946600000001
 30
0.0
 40
0.216697
 50
10.694018
 51
16.507064
  0
ARC
  5
68
  8
0
 62
     7
 10
52.555039000000001
 20
160.921278
 30
0.0
 40
0.177759
 50
163.74436700000001
 51
170.80688499999999
  0
LINE
  5
69
  8
0
 62
     7
 10
128.40700000000001
 20
168.99600000000001
 30
0.0
 11
126.328
 21
171.084
 31
0.0
  0
ARC
  5
6A
  8
0
 62
     7
 10
127.68888699999999
 20
168.284954
 30
0.0
 40
1.010354
 50
10.048321
 51
44.695634000000013
  0
ARC
  5
6B
  8
0
 62
     7
 10
126.547118
 20
171.29816700000001
 30
0.0
 40
0.306661
 50
180.427041
 51
224.295773
  0
ARC
  5
6C
  8
0
 62
     7
 10
163.11148600000001
 20
168.25517300000001
 30
0.0
 40
0.517038
 50
91.679738
 51
171.68102500000001
  0
LINE
  5
6D
  8
0
 62
     7
 10
133.37799999999999
 20
170.99199999999999
 30
0.0
 11
131.678
 21
168.952
 31
0.0
  0
ARC
  5
6E
  8
0
 62
     7
 10
163.44049699999999
 20
169.072058
 30
0.0
 40
0.30007
 50
270.00002000000001
 51
359.99999000000003
  0
LINE
  5
6F
  8
0
 62
     7
 10
163.44
 20
168.77199999999999
 30
0.0
 11
163.096
 21
168.77199999999999
 31
0.0
  0
LINE
  5
70
  8
0
 62
     7
 10
156.88999999999999
 20
170.99199999999999
 30
0.0
 11
158.59
 21
168.952
 31
0.0
  0
ARC
  5
71
  8
0
 62
     7
 10
158.97870399999999
 20
169.28094300000001
 30
0.0
 40
0.508972
 50
220.28854000000001
 51
269.53712300000001
  0
LINE
  5
72
  8
0
 62
     7
 10
158.97499999999999
 20
168.77199999999999
 30
0.0
 11
163.096
 21
168.77199999999999
 31
0.0
  0
ARC
  5
73
  8
0
 62
     7
 10
131.290155
 20
169.279132
 30
0.0
 40
0.507154
 50
270.36872899999997
 51
319.80564800000008
  0
LINE
  5
74
  8
0
 62
     7
 10
128.63
 20
168.77199999999999
 30
0.0
 11
131.29300000000001
 21
168.77199999999999
 31
0.0
  0
ARC
  5
75
  8
0
 62
     7
 10
133.765109
 20
170.664714
 30
0.0
 40
0.507154
 50
90.368708999999996
 51
139.80562800000001
  0
ARC
  5
76
  8
0
 62
     7
 10
156.50205299999999
 20
170.662902
 30
0.0
 40
0.508972
 50
40.288519999999991
 51
89.537103000000002
  0
LINE
  5
77
  8
0
 62
     7
 10
133.762
 20
171.172
 30
0.0
 11
156.506
 21
171.172
 31
0.0
  0
LINE
  5
78
  8
0
 62
     7
 10
96.757800000000003
 20
169.017
 30
0.0
 11
97.206699999999998
 21
171.417
 31
0.0
  0
ARC
  5
79
  8
0
 62
     7
 10
95.257639999999995
 20
168.25500400000001
 30
0.0
 40
0.517191
 50
91.619533999999987
 51
168.564965
  0
ARC
  5
7A
  8
0
 62
     7
 10
96.900889000000006
 20
171.48323300000001
 30
0.0
 40
0.3115679999999999
 50
272.013802
 51
357.92046399999998
  0
ARC
  5
7B
  8
0
 62
     7
 10
96.455174000000014
 20
169.081333
 30
0.0
 40
0.309442
 50
271.43787800000001
 51
347.98868399999998
  0
LINE
  5
7C
  8
0
 62
     7
 10
97.212299999999999
 20
173.77199999999999
 30
0.0
 11
97.212299999999999
 21
171.47200000000001
 31
0.0
  0
ARC
  5
7D
  8
0
 62
     7
 10
97.004041000000001
 20
173.763837
 30
0.0
 40
0.208367
 50
2.214113999999999
 51
87.785875999999988
  0
ARC
  5
7E
  8
0
 62
     7
 10
-6.4152909999999999
 20
1057.575
 30
0.0
 40
899.57605000000012
 50
274.950399
 51
276.27491600000002
  0
ARC
  5
7F
  8
0
 62
     7
 10
91.546591000000006
 20
166.14230800000001
 30
0.0
 40
2.777887999999999
 50
277.46428100000003
 51
348.93924900000002
  0
LINE
  5
80
  8
0
 62
     7
 10
91.174999999999983
 20
163.02000000000001
 30
0.0
 11
91.024500000000003
 21
161.142
 31
0.0
  0
LINE
  5
81
  8
0
 62
     7
 10
91.199100000000001
 20
161.327
 30
0.0
 11
91.199100000000001
 21
162.97900000000001
 31
0.0
  0
ARC
  5
82
  8
0
 62
     7
 10
90.820478000000008
 20
161.17813100000001
 30
0.0
 40
0.207188
 50
271.72832900000009
 51
349.93302799999998
  0
LINE
  5
83
  8
0
 62
     7
 10
90.826700000000002
 20
160.971
 30
0.0
 11
71.212000000000003
 21
160.971
 31
0.0
  0
ARC
  5
84
  8
0
 62
     7
 10
91.160984999999997
 20
162.9792929999999
 30
0.0
 40
0.038159
 50
0.113137
 51
27.343090000000011
  0
ARC
  5
85
  8
0
 62
     7
 10
91.124556000000027
 20
162.957168
 30
0.0
 40
0.080733
 50
29.416243999999999
 51
66.217101
  0
ARC
  5
86
  8
0
 62
     7
 10
91.023358000000002
 20
162.79714799999999
 30
0.0
 40
0.269441
 50
60.236663000000007
 51
72.264333999999991
  0
ARC
  5
87
  8
0
 62
     7
 10
90.879586999999987
 20
162.38363699999999
 30
0.0
 40
0.7071800000000001
 50
71.375382000000002
 51
77.520630000000011
  0
ARC
  5
88
  8
0
 62
     7
 10
90.69154300000001
 20
161.558786
 30
0.0
 40
1.5531859999999991
 50
77.322857999999997
 51
84.892026999999985
  0
ARC
  5
89
  8
0
 62
     7
 10
90.478956999999994
 20
159.96074400000001
 30
0.0
 40
3.1645720000000002
 50
83.63425500000001
 51
85.976868999999994
  0
ARC
  5
8A
  8
0
 62
     7
 10
90.19453399999999
 20
155.494812
 30
0.0
 40
7.6395099999999996
 50
86.198894999999993
 51
87.291043000000016
  0
ARC
  5
8B
  8
0
 62
     7
 10
90.262046999999995
 20
156.664455
 30
0.0
 40
6.4679960000000003
 50
87.398730000000015
 51
90.347669999999994
  0
ARC
  5
8C
  8
0
 62
     7
 10
90.221042000000011
 20
151.41099700000001
 30
0.0
 40
11.721335
 50
89.991408999999976
 51
90.439364999999995
  0
LINE
  5
8D
  8
0
 62
     7
 10
90.131200000000007
 20
163.13200000000001
 30
0.0
 11
90.036800000000014
 21
163.131
 31
0.0
  0
ARC
  5
8E
  8
0
 62
     7
 10
90.463820999999996
 20
143.41800699999999
 30
0.0
 40
19.717571
 50
91.241045999999997
 51
91.805862999999988
  0
ARC
  5
8F
  8
0
 62
     7
 10
90.16726700000001
 20
152.68228500000001
 30
0.0
 40
10.448551
 50
91.781408999999996
 51
92.893181999999996
  0
ARC
  5
90
  8
0
 62
     7
 10
90.542698000000001
 20
145.028932
 30
0.0
 40
18.111101000000001
 50
92.857290000000006
 51
93.523157999999967
  0
ARC
  5
91
  8
0
 62
     7
 10
90.661699999999996
 20
144.04618199999999
 30
0.0
 40
19.099395999999999
 50
93.698305000000005
 51
94.993923000000024
  0
ARC
  5
92
  8
0
 62
     7
 10
90.385913999999985
 20
160.17823300000001
 30
0.0
 40
0.206349
 50
191.24115900000001
 51
268.52005000000003
  0
LINE
  5
93
  8
0
 62
     7
 10
90.183499999999995
 20
160.13800000000001
 30
0.0
 11
90.044300000000007
 21
160.94999999999999
 31
0.0
  0
ARC
  5
94
  8
0
 62
     7
 10
91.391064000000014
 20
161.09608399999999
 30
0.0
 40
0.204889
 50
97.932798000000005
 51
170.21908199999999
  0
ARC
  5
95
  8
0
 62
     7
 10
90.835243000000006
 20
160.177796
 30
0.0
 40
0.205902
 50
271.36908699999998
 51
349.83351299999998
  0
LINE
  5
96
  8
0
 62
     7
 10
91.189200000000014
 20
161.131
 30
0.0
 11
91.037899999999993
 21
160.14099999999999
 31
0.0
  0
LINE
  5
97
  8
0
 62
     7
 10
74.643999999999991
 20
156.53800000000001
 30
0.0
 11
74.778000000000006
 21
158.89699999999999
 31
0.0
  0
ARC
  5
98
  8
0
 62
     7
 10
75.499504000000002
 20
158.83601899999999
 30
0.0
 40
0.72409
 50
97.196631000000011
 51
175.16287500000001
  0
ARC
  5
99
  8
0
 62
     7
 10
93.468547999999998
 20
144.7808939999999
 30
0.0
 40
16.651800999999999
 50
96.513930000000002
 51
97.264976000000004
  0
ARC
  5
9A
  8
0
 62
     7
 10
9.5879460000000005
 20
835.22291299999995
 30
0.0
 40
678.86693600000001
 50
275.56397199999998
 51
276.684685
  0
ARC
  5
9B
  8
0
 62
     7
 10
91.186525000000003
 20
164.075366
 30
0.0
 40
2.7781029999999989
 50
278.13172300000002
 51
348.95913200000001
  0
LINE
  5
9C
  8
0
 62
     7
 10
90.840199999999996
 20
159.97200000000001
 30
0.0
 11
90.380599999999987
 21
159.97200000000001
 31
0.0
  0
LINE
  5
9D
  8
0
 62
     7
 10
79.562899999999999
 20
159.97200000000001
 30
0.0
 11
89.012200000000007
 21
159.97200000000001
 31
0.0
  0
LINE
  5
9E
  8
0
 62
     7
 10
89.012200000000007
 20
159.97200000000001
 30
0.0
 11
89.299199999999999
 21
159.97300000000001
 31
0.0
  0
LINE
  5
9F
  8
0
 62
     7
 10
89.299199999999999
 20
159.97300000000001
 30
0.0
 11
89.581299999999999
 21
159.97499999999999
 31
0.0
  0
LINE
  5
A0
  8
0
 62
     7
 10
89.581299999999999
 20
159.97499999999999
 30
0.0
 11
89.853800000000007
 21
159.97900000000001
 31
0.0
  0
LINE
  5
A1
  8
0
 62
     7
 10
89.853800000000007
 20
159.97900000000001
 30
0.0
 11
90.111900000000006
 21
159.98400000000001
 31
0.0
  0
LINE
  5
A2
  8
0
 62
     7
 10
90.111900000000006
 20
159.98400000000001
 30
0.0
 11
90.244799999999998
 21
159.98699999999999
 31
0.0
  0
LINE
  5
A3
  8
0
 62
     7
 10
94.750699999999995
 20
168.358
 30
0.0
 11
93.913200000000003
 21
163.54300000000001
 31
0.0
  0
ARC
  5
A4
  8
0
 62
     7
 10
74.024917999999985
 20
156.59338500000001
 30
0.0
 40
0.6215450000000001
 50
271.871486
 51
354.87472700000001
  0
LINE
  5
A5
  8
0
 62
     7
 10
96.911800000000014
 20
171.172
 30
0.0
 11
71.212000000000003
 21
171.172
 31
0.0
  0
LINE
  5
A6
  8
0
 62
     7
 10
96.462900000000005
 20
168.77199999999999
 30
0.0
 11
71.212000000000003
 21
168.77199999999999
 31
0.0
  0
LINE
  5
A7
  8
0
 62
     7
 10
45.665700000000001
 20
169.017
 30
0.0
 11
45.216799999999992
 21
171.417
 31
0.0
  0
ARC
  5
A8
  8
0
 62
     7
 10
47.166702000000001
 20
168.25551300000001
 30
0.0
 40
0.51666
 50
11.389331
 51
88.465622999999994
  0
ARC
  5
A9
  8
0
 62
     7
 10
45.511721999999992
 20
171.47192699999999
 30
0.0
 40
0.30007
 50
179.99996999999999
 51
270.00002000000001
  0
ARC
  5
AA
  8
0
 62
     7
 10
45.969285999999997
 20
169.08241699999999
 30
0.0
 40
0.310549
 50
192.17239000000001
 51
268.40108800000002
  0
LINE
  5
AB
  8
0
 62
     7
 10
45.2117
 20
173.77199999999999
 30
0.0
 11
45.2117
 21
171.47200000000001
 31
0.0
  0
ARC
  5
AC
  8
0
 62
     7
 10
45.419857
 20
173.76384300000001
 30
0.0
 40
0.208361
 50
92.212567000000007
 51
177.78740300000001
  0
ARC
  5
AD
  8
0
  6
AIGENLINE002
 62
     7
 10
156.86012400000001
 20
162.764048
 30
0.0
 40
2.0531239999999991
 50
284.23636299999998
 51
352.28538800000001
  0
ARC
  5
AE
  8
0
  6
AIGENLINE002
 62
     7
 10
154.573982
 20
170.90673899999999
 30
0.0
 40
10.479222
 50
275.29201799999998
 51
278.88038
  0
ARC
  5
AF
  8
0
  6
AIGENLINE002
 62
     7
 10
153.73981599999999
 20
176.80753200000001
 30
0.0
 40
16.438282000000001
 50
278.578012
 51
282.74046800000002
  0
ARC
  5
B0
  8
0
  6
AIGENLINE002
 62
     7
 10
132.50903500000001
 20
164.295445
 30
0.0
 40
2.0556570000000001
 50
190.98621800000001
 51
260.92132199999998
  0
ARC
  5
B1
  8
0
  6
AIGENLINE002
 62
     7
 10
165.083844
 20
397.430049
 30
0.0
 40
237.454632
 50
262.03610200000003
 51
263.64905700000003
  0
ARC
  5
B2
  8
0
  6
AIGENLINE002
 62
     7
 10
171.32373000000001
 20
450.21310399999999
 30
0.0
 40
290.60422699999998
 50
263.5775220000001
 51
265.58250700000002
  0
ARC
  5
B3
  8
0
  6
AIGENLINE002
 62
     7
 10
128.567025
 20
173.765962
 30
0.0
 40
0.206149
 50
11.294829999999999
 51
88.583590000000015
  0
ARC
  5
B4
  8
0
  6
AIGENLINE002
 62
     7
 10
160.424316
 20
173.76528099999999
 30
0.0
 40
0.206851
 50
91.627675999999994
 51
171.65170000000001
  0
LINE
  5
B5
  8
0
  6
AIGENLINE001
 62
     7
 10
162.369
 20
171.13099999999989
 30
0.0
 11
157.39599999999999
 21
171.71299999999999
 31
0.0
  0
LINE
  5
B6
  8
0
  6
AIGENLINE002
 62
     7
 10
158.89500000000001
 20
162.488
 30
0.0
 11
160.22
 21
173.79499999999999
 31
0.0
  0
LINE
  5
B7
  8
0
  6
AIGENLINE002
 62
     7
 10
130.49100000000001
 20
163.904
 30
0.0
 11
128.76900000000001
 21
173.80600000000001
 31
0.0
  0
ARC
  5
B8
  8
0
 62
     7
 10
148.88209599999999
 20
1058.028
 30
0.0
 40
900.03126899999995
 50
263.72552100000001
 51
265.04939000000002
  0
ARC
  5
B9
  8
0
 62
     7
 10
50.877913999999997
 20
166.14289199999999
 30
0.0
 40
2.7785899999999999
 50
191.070212
 51
262.51796899999999
  0
LINE
  5
BA
  8
0
 62
     7
 10
51.248899999999999
 20
163.02000000000001
 30
0.0
 11
51.399099999999997
 21
161.142
 31
0.0
  0
LINE
  5
BB
  8
0
 62
     7
 10
51.224400000000003
 20
161.327
 30
0.0
 11
51.224400000000003
 21
162.97900000000001
 31
0.0
  0
ARC
  5
BC
  8
0
 62
     7
 10
51.602642000000003
 20
161.17762400000001
 30
0.0
 40
0.206668
 50
189.94967299999999
 51
268.38900999999998
  0
LINE
  5
BD
  8
0
 62
     7
 10
51.596800000000002
 20
160.971
 30
0.0
 11
71.212000000000003
 21
160.971
 31
0.0
  0
ARC
  5
BE
  8
0
 62
     7
 10
51.262143999999999
 20
162.979254
 30
0.0
 40
0.037729
 50
152.25126299999999
 51
179.825963
  0
ARC
  5
BF
  8
0
 62
     7
 10
51.30003099999999
 20
162.95618999999999
 30
0.0
 40
0.082044
 50
114.16457
 51
150.3159489999999
  0
ARC
  5
C0
  8
0
 62
     7
 10
51.410434000000002
 20
162.77249599999999
 30
0.0
 40
0.29594
 50
108.105152
 51
119.11376199999999
  0
ARC
  5
C1
  8
0
 62
     7
 10
51.534768999999997
 20
162.41794100000001
 30
0.0
 40
0.6716260000000001
 50
102.31652200000001
 51
108.787425
  0
ARC
  5
C2
  8
0
 62
     7
 10
51.739643000000001
 20
161.5122429999999
 30
0.0
 40
1.6001959999999991
 50
95.219290000000001
 51
102.56578499999991
  0
ARC
  5
C3
  8
0
 62
     7
 10
51.945320000000002
 20
159.956639
 30
0.0
 40
3.1686930000000002
 50
94.024635000000004
 51
96.364202000000006
  0
ARC
  5
C4
  8
0
 62
     7
 10
52.207380000000001
 20
155.881462
 30
0.0
 40
7.252254999999999
 50
92.679777000000016
 51
93.830244999999991
  0
ARC
  5
C5
  8
0
 62
     7
 10
52.161279
 20
156.69175999999999
 30
0.0
 40
6.4406919999999994
 50
89.648758000000015
 51
92.607136999999994
  0
LINE
  5
C6
  8
0
 62
     7
 10
52.200800000000001
 20
163.13200000000001
 30
0.0
 11
52.292700000000004
 21
163.13200000000001
 31
0.0
  0
LINE
  5
C7
  8
0
 62
     7
 10
52.292700000000004
 20
163.13200000000001
 30
0.0
 11
52.387099999999997
 21
163.131
 31
0.0
  0
ARC
  5
C8
  8
0
 62
     7
 10
51.922206000000003
 20
141.993843
 30
0.0
 40
21.142223999999999
 50
88.213147000000006
 51
88.739904000000024
  0
ARC
  5
C9
  8
0
 62
     7
 10
52.241603999999988
 20
152.31398999999999
 30
0.0
 40
10.817135
 50
87.125740000000008
 51
88.199629000000002
  0
ARC
  5
CA
  8
0
 62
     7
 10
51.968765999999988
 20
146.59987100000001
 30
0.0
 40
16.537754
 50
86.445148000000003
 51
87.174363999999997
  0
ARC
  5
CB
  8
0
 62
     7
 10
51.769804000000001
 20
144.16359700000001
 30
0.0
 40
18.981735
 50
84.999093999999985
 51
86.30170600000001
  0
ARC
  5
CC
  8
0
 62
     7
 10
52.037995000000002
 20
160.17822799999999
 30
0.0
 40
0.206343
 50
271.478702
 51
348.76012900000001
  0
LINE
  5
CD
  8
0
 62
     7
 10
52.240400000000001
 20
160.13800000000001
 30
0.0
 11
52.379600000000011
 21
160.94999999999999
 31
0.0
  0
ARC
  5
CE
  8
0
 62
     7
 10
51.032839000000003
 20
161.09608399999999
 30
0.0
 40
0.204889
 50
9.7808979999999988
 51
82.067181999999988
  0
ARC
  5
CF
  8
0
 62
     7
 10
51.589098999999997
 20
160.17830799999999
 30
0.0
 40
0.206424
 50
190.284784
 51
268.512655
  0
LINE
  5
D0
  8
0
 62
     7
 10
51.2348
 20
161.131
 30
0.0
 11
51.386000000000003
 21
160.14099999999999
 31
0.0
  0
LINE
  5
D1
  8
0
 62
     7
 10
67.779899999999984
 20
156.53800000000001
 30
0.0
 11
67.645899999999997
 21
158.89699999999999
 31
0.0
  0
ARC
  5
D2
  8
0
 62
     7
 10
66.924400000000006
 20
158.83601899999999
 30
0.0
 40
0.72409
 50
4.8371059999999986
 51
82.803348999999983
  0
ARC
  5
D3
  8
0
 62
     7
 10
48.829422999999991
 20
143.73863299999999
 30
0.0
 40
17.701620999999999
 50
82.757276000000005
 51
83.463779000000002
  0
ARC
  5
D4
  8
0
 62
     7
 10
132.83595700000001
 20
835.22291299999995
 30
0.0
 40
678.86693600000001
 50
263.315335
 51
264.43604699999997
  0
ARC
  5
D5
  8
0
 62
     7
 10
51.237558999999997
 20
164.07597899999999
 30
0.0
 40
2.7787349999999988
 50
191.0512139999999
 51
261.86641700000001
  0
LINE
  5
D6
  8
0
 62
     7
 10
51.5837
 20
159.97200000000001
 30
0.0
 11
52.043300000000002
 21
159.97200000000001
 31
0.0
  0
LINE
  5
D7
  8
0
 62
     7
 10
62.861000000000011
 20
159.97200000000001
 30
0.0
 11
53.411700000000003
 21
159.97200000000001
 31
0.0
  0
LINE
  5
D8
  8
0
 62
     7
 10
53.411700000000003
 20
159.97200000000001
 30
0.0
 11
53.124400000000001
 21
159.97300000000001
 31
0.0
  0
LINE
  5
D9
  8
0
 62
     7
 10
53.124400000000001
 20
159.97300000000001
 30
0.0
 11
52.84259999999999
 21
159.97499999999999
 31
0.0
  0
LINE
  5
DA
  8
0
 62
     7
 10
52.84259999999999
 20
159.97499999999999
 30
0.0
 11
52.56969999999999
 21
159.97900000000001
 31
0.0
  0
LINE
  5
DB
  8
0
 62
     7
 10
52.56969999999999
 20
159.97900000000001
 30
0.0
 11
52.311700000000002
 21
159.98400000000001
 31
0.0
  0
LINE
  5
DC
  8
0
 62
     7
 10
52.311700000000002
 20
159.98400000000001
 30
0.0
 11
52.178699999999999
 21
159.98699999999999
 31
0.0
  0
LINE
  5
DD
  8
0
 62
     7
 10
47.673200000000001
 20
168.358
 30
0.0
 11
48.510399999999997
 21
163.54300000000001
 31
0.0
  0
ARC
  5
DE
  8
0
 62
     7
 10
68.398985999999994
 20
156.59338500000001
 30
0.0
 40
0.6215450000000001
 50
185.125293
 51
268.128533
  0
ARC
  5
DF
  8
0
 62
     7
 10
156.43515500000001
 20
156.16492600000001
 30
0.0
 40
0.821355
 50
95.146961999999988
 51
162.913175
  0
ARC
  5
E0
  8
0
 62
     7
 10
155.75890999999999
 20
163.146693
 30
0.0
 40
6.1931059999999993
 50
275.58344899999997
 51
351.85242
  0
LINE
  5
E1
  8
0
 62
     7
 10
157.53999999999999
 20
161.86799999999999
 30
0.0
 11
157.36000000000001
 21
160.166
 31
0.0
  0
ARC
  5
E2
  8
0
 62
     7
 10
132.14930799999999
 20
163.13776200000001
 30
0.0
 40
0.205712
 50
6.175864999999999
 51
80.685416000000004
  0
LINE
  5
E3
  8
0
 62
     7
 10
132.53299999999999
 20
161.05199999999999
 30
0.0
 11
132.35400000000001
 21
163.16
 31
0.0
  0
ARC
  5
E4
  8
0
 62
     7
 10
133.245766
 20
161.039704
 30
0.0
 40
0.103809
 50
269.620203
 51
352.88628199999999
  0
LINE
  5
E5
  8
0
 62
     7
 10
133.34899999999999
 20
161.02699999999999
 30
0.0
 11
133.35499999999999
 21
161.096
 31
0.0
  0
LINE
  5
E6
  8
0
 62
     7
 10
152.24000000000001
 20
161.327
 30
0.0
 11
152.24000000000001
 21
161.35400000000001
 31
0.0
  0
ARC
  5
E7
  8
0
 62
     7
 10
152.358936
 20
190.74502699999999
 30
0.0
 40
29.391131999999999
 50
266.01083899999998
 51
269.76897300000002
  0
ARC
  5
E8
  8
0
 62
     7
 10
152.25002000000001
 20
192.16599099999999
 30
0.0
 40
30.817294
 50
275.01021700000001
 51
276.6856259999999
  0
ARC
  5
E9
  8
0
 62
     7
 10
152.40576100000001
 20
190.38585699999999
 30
0.0
 40
29.030360000000002
 50
273.2321950000001
 51
275.01084500000002
  0
ARC
  5
EA
  8
0
 62
     7
 10
152.38659100000001
 20
190.56533400000001
 30
0.0
 40
29.210635
 50
271.48190299999999
 51
273.249889
  0
ARC
  5
EB
  8
0
 62
     7
 10
152.37183300000001
 20
189.220022
 30
0.0
 40
27.866198000000001
 50
269.72981200000009
 51
271.58377100000001
  0
ARC
  5
EC
  8
0
 62
     7
 10
157.17572699999999
 20
164.87889100000001
 30
0.0
 40
2.9853070000000002
 50
331.72601600000002
 51
342.54886499999998
  0
ARC
  5
ED
  8
0
 62
     7
 10
157.19370799999999
 20
164.87551499999989
 30
0.0
 40
2.9671419999999991
 50
342.50692500000002
 51
353.38688200000001
  0
ARC
  5
EE
  8
0
 62
     7
 10
154.29071999999999
 20
175.03210799999999
 30
0.0
 40
13.560003
 50
281.12078300000002
 51
285.67102399999999
  0
ARC
  5
EF
  8
0
 62
     7
 10
154.229162
 20
175.23118299999999
 30
0.0
 40
13.767231000000001
 50
276.71013699999997
 51
281.21236199999998
  0
ARC
  5
F0
  8
0
 62
     7
 10
157.195075
 20
164.85691700000001
 30
0.0
 40
2.957876999999999
 50
320.08622600000001
 51
331.92335800000001
  0
ARC
  5
F1
  8
0
 62
     7
 10
157.038847
 20
164.98307600000001
 30
0.0
 40
3.1586549999999991
 50
314.592264
 51
320.14927399999999
  0
ARC
  5
F2
  8
0
 62
     7
 10
156.963212
 20
165.084823
 30
0.0
 40
3.2842589999999992
 50
308.99217099999998
 51
314.28572700000001
  0
ARC
  5
F3
  8
0
 62
     7
 10
156.969257
 20
165.117186
 30
0.0
 40
3.3057029999999989
 50
303.30534899999998
 51
308.55778500000002
  0
ARC
  5
F4
  8
0
 62
     7
 10
156.765164
 20
165.48208099999999
 30
0.0
 40
3.722853999999999
 50
300.50411400000002
 51
302.846836
  0
ARC
  5
F5
  8
0
 62
     7
 10
156.962163
 20
165.20007000000001
 30
0.0
 40
3.379982
 50
297.455288
 51
300.05345999999997
  0
ARC
  5
F6
  8
0
 62
     7
 10
157.08692300000001
 20
164.9810949999999
 30
0.0
 40
3.1281639999999991
 50
291.686148
 51
297.27673499999997
  0
ARC
  5
F7
  8
0
 62
     7
 10
157.122657
 20
164.89889500000001
 30
0.0
 40
3.0385800000000001
 50
288.753107
 51
291.63278800000001
  0
ARC
  5
F8
  8
0
 62
     7
 10
157.22724099999999
 20
164.566034
 30
0.0
 40
2.689778
 50
287.29389900000001
 51
288.92307799999998
  0
ARC
  5
F9
  8
0
 62
     7
 10
157.079609
 20
165.06549699999999
 30
0.0
 40
3.2105570000000001
 50
285.79405200000002
 51
287.15972699999998
  0
ARC
  5
FA
  8
0
 62
     7
 10
132.07143600000001
 20
166.39312200000001
 30
0.0
 40
2.9833750000000001
 50
189.84027499999999
 51
196.63440800000001
  0
ARC
  5
FB
  8
0
 62
     7
 10
132.09939399999999
 20
166.402469
 30
0.0
 40
3.012839
 50
196.652536
 51
203.34249299999999
  0
ARC
  5
FC
  8
0
 62
     7
 10
132.09545600000001
 20
166.403549
 30
0.0
 40
3.009650999999999
 50
203.391065
 51
216.73585
  0
ARC
  5
FD
  8
0
 62
     7
 10
132.105749
 20
166.41049100000001
 30
0.0
 40
3.0220530000000001
 50
216.72460799999999
 51
228.01486600000001
  0
ARC
  5
FE
  8
0
 62
     7
 10
132.13684499999999
 20
166.441609
 30
0.0
 40
3.0659860000000001
 50
227.97190800000001
 51
233.55167900000001
  0
ARC
  5
FF
  8
0
 62
     7
 10
132.149272
 20
166.46642600000001
 30
0.0
 40
3.0933349999999988
 50
233.639611
 51
239.128141
  0
ARC
  5
100
  8
0
 62
     7
 10
132.22022100000001
 20
166.60831899999999
 30
0.0
 40
3.2515509999999992
 50
239.33804900000001
 51
244.54060699999999
  0
ARC
  5
101
  8
0
 62
     7
 10
132.10927899999999
 20
166.383385
 30
0.0
 40
3.0007719999999991
 50
244.60696999999999
 51
250.2861080000001
  0
ARC
  5
102
  8
0
 62
     7
 10
132.11489800000001
 20
166.39952500000001
 30
0.0
 40
3.017860999999999
 50
250.28904800000001
 51
255.94418999999999
  0
ARC
  5
103
  8
0
 62
     7
 10
132.14107899999999
 20
166.49191500000001
 30
0.0
 40
3.1138449999999991
 50
255.889746
 51
258.61969699999997
  0
ARC
  5
104
  8
0
 62
     7
 10
132.160832
 20
166.61402799999999
 30
0.0
 40
3.2374580000000002
 50
258.70341000000002
 51
260.02482099999997
  0
ARC
  5
105
  8
0
 62
     7
 10
132.03435300000001
 20
165.83933200000001
 30
0.0
 40
2.4525830000000002
 50
259.79993100000002
 51
261.53726999999998
  0
ARC
  5
106
  8
0
 62
     7
 10
168.17373000000001
 20
417.206388
 30
0.0
 40
256.40402999999998
 50
263.91080599999998
 51
266.00591700000001
  0
ARC
  5
107
  8
0
 62
     7
 10
168.01081500000001
 20
415.94816899999989
 30
0.0
 40
255.13562899999999
 50
261.81188200000003
 51
263.917213
  0
ARC
  5
108
  8
0
 62
     7
 10
152.42539400000001
 20
192.194684
 30
0.0
 40
32.888159000000002
 50
268.84162000000009
 51
269.67775899999998
  0
ARC
  5
109
  8
0
 62
     7
 10
152.67081300000001
 20
198.649621
 30
0.0
 40
39.346905999999997
 50
267.98576000000003
 51
268.67434400000002
  0
ARC
  5
10A
  8
0
 62
     7
 10
152.21623399999999
 20
185.76075800000001
 30
0.0
 40
26.450029000000001
 50
266.97035899999997
 51
267.98853400000002
  0
ARC
  5
10B
  8
0
 62
     7
 10
152.53568799999999
 20
191.9178409999999
 30
0.0
 40
32.615391000000002
 50
266.15280899999999
 51
266.98162100000002
  0
ARC
  5
10C
  8
0
 62
     7
 10
152.24652900000001
 20
190.616851
 30
0.0
 40
31.317823000000001
 50
275.23565400000001
 51
276.92555499999997
  0
ARC
  5
10D
  8
0
 62
     7
 10
152.26393200000001
 20
191.09880200000001
 30
0.0
 40
31.796233999999998
 50
273.40570300000002
 51
275.12517600000001
  0
ARC
  5
10E
  8
0
 62
     7
 10
152.48352199999999
 20
186.99867399999999
 30
0.0
 40
27.690314000000001
 50
271.4624839999999
 51
273.45612599999998
  0
ARC
  5
10F
  8
0
 62
     7
 10
152.37214399999999
 20
190.851043
 30
0.0
 40
31.544271999999999
 50
269.76075299999991
 51
271.48613399999999
  0
ARC
  5
110
  8
0
 62
     7
 10
183.674654
 20
628.34710400000006
 30
0.0
 40
470.15386399999988
 50
265.655689
 51
265.93513300000001
  0
LINE
  5
111
  8
0
 62
     7
 10
155.34200000000001
 20
160.059
 30
0.0
 11
135.16399999999999
 21
160.86000000000001
 31
0.0
  0
ARC
  5
112
  8
0
 62
     7
 10
157.155158
 20
160.194029
 30
0.0
 40
0.206924
 50
269.541697
 51
352.28708
  0
LINE
  5
113
  8
0
 62
     7
 10
157.154
 20
159.98699999999999
 30
0.0
 11
155.34200000000001
 21
160.059
 31
0.0
  0
ARC
  5
114
  8
0
 62
     7
 10
132.63524699999999
 20
161.06381200000001
 30
0.0
 40
0.103337
 50
186.75741400000001
 51
266.201887
  0
LINE
  5
115
  8
0
 62
     7
 10
135.16399999999999
 20
160.86000000000001
 30
0.0
 11
132.62799999999999
 21
160.96100000000001
 31
0.0
  0
ARC
  5
116
  8
0
 62
     7
 10
154.25869900000001
 20
174.10277500000001
 30
0.0
 40
14.681614
 50
276.90123999999997
 51
280.68401499999999
  0
ARC
  5
117
  8
0
 62
     7
 10
154.08114800000001
 20
174.97957099999999
 30
0.0
 40
15.576131
 50
280.7278720000001
 51
282.99671499999999
  0
ARC
  5
118
  8
0
 62
     7
 10
156.83606
 20
162.79039
 30
0.0
 40
3.080160999999999
 50
284.056062
 51
352.27066000000002
  0
ARC
  5
119
  8
0
 62
     7
 10
155.06036
 20
156.589563
 30
0.0
 40
0.6175270000000001
 50
271.20452299999999
 51
342.73217599999998
  0
ARC
  5
11A
  8
0
 62
     7
 10
149.42795000000001
 20
156.59429900000001
 30
0.0
 40
0.622463
 50
185.20220399999999
 51
268.11740900000001
  0
LINE
  5
11B
  8
0
 62
     7
 10
148.67500000000001
 20
158.887
 30
0.0
 11
148.80799999999999
 21
156.53800000000001
 31
0.0
  0
ARC
  5
11C
  8
0
 62
     7
 10
132.53319999999999
 20
164.32107300000001
 30
0.0
 40
3.0840740000000002
 50
190.99601299999989
 51
260.92705699999999
  0
ARC
  5
11D
  8
0
 62
     7
 10
147.95279400000001
 20
158.824646
 30
0.0
 40
0.724939
 50
4.913689999999999
 51
83.875018000000026
  0
ARC
  5
11E
  8
0
 62
     7
 10
168.080825
 20
419.33922399999989
 30
0.0
 40
260.56659400000001
 50
262.74264299999999
 51
265.58216099999999
  0
LINE
  5
11F
  8
0
 62
     7
 10
132.047
 20
161.27600000000001
 30
0.0
 11
132.52000000000001
 21
161.21000000000001
 31
0.0
  0
LINE
  5
120
  8
0
 62
     7
 10
129.16499999999999
 20
165.40199999999999
 30
0.0
 11
129.21600000000001
 21
165.40199999999999
 31
0.0
  0
LINE
  5
121
  8
0
 62
     7
 10
129.066
 20
165.97200000000001
 30
0.0
 11
129.11600000000001
 21
165.97200000000001
 31
0.0
  0
LINE
  5
122
  8
0
 62
     7
 10
159.88800000000001
 20
162.376
 30
0.0
 11
160.63800000000001
 21
168.77199999999999
 31
0.0
  0
LINE
  5
123
  8
0
 62
     7
 10
161.88999999999999
 20
162.26900000000001
 30
0.0
 11
162.59999999999999
 21
168.33000000000001
 31
0.0
  0
LINE
  5
124
  8
0
 62
     7
 10
129.16499999999999
 20
165.40199999999999
 30
0.0
 11
129.066
 21
165.97200000000001
 31
0.0
  0
LINE
  5
125
  8
0
 62
     7
 10
129.506
 20
163.733
 30
0.0
 11
128.684
 21
168.46100000000001
 31
0.0
  0
LINE
  5
126
  8
0
 62
     7
 10
162.74000000000001
 20
173.77199999999999
 30
0.0
 11
162.74000000000001
 21
173.672
 31
0.0
  0
ARC
  5
127
  8
0
 62
     7
 10
126.448341
 20
173.76418699999999
 30
0.0
 40
0.208018
 50
92.220120999999978
 51
177.87854999999999
  0
LINE
  5
128
  8
0
 62
     7
 10
126.23999999999999
 20
173.77199999999999
 30
0.0
 11
126.23999999999999
 21
171.29499999999999
 31
0.0
  0
ARC
  5
129
  8
0
 62
     7
 10
163.53270499999999
 20
173.26394199999999
 30
0.0
 40
0.208018
 50
2.2201309999999999
 51
87.878559999999993
  0
LINE
  5
12A
  8
0
 62
     7
 10
163.74100000000001
 20
173.27199999999999
 30
0.0
 11
163.74100000000001
 21
169.072
 31
0.0
  0
LINE
  5
12B
  8
0
 62
     7
 10
149.40799999999999
 20
155.97200000000001
 30
0.0
 11
155.07299999999989
 21
155.97200000000001
 31
0.0
  0
ARC
  5
12C
  8
0
 62
     7
 10
162.94866099999999
 20
173.68002899999999
 30
0.0
 40
0.208367
 50
182.214134
 51
267.78589599999998
  0
LINE
  5
12D
  8
0
 62
     7
 10
162.941
 20
173.47200000000001
 30
0.0
 11
163.53999999999999
 21
173.47200000000001
 31
0.0
  0
ARC
  5
12E
  8
0
 62
     7
 10
162.53223800000001
 20
173.763837
 30
0.0
 40
0.208367
 50
2.214113999999999
 51
87.785875999999988
  0
LINE
  5
12F
  8
0
 62
     7
 10
126.44
 20
173.97200000000001
 30
0.0
 11
162.53999999999999
 21
173.97200000000001
 31
0.0
  0
LINE
  5
130
  8
0
 62
     7
 10
45.51169999999999
 20
171.172
 30
0.0
 11
71.212000000000003
 21
171.172
 31
0.0
  0
LINE
  5
131
  8
0
 62
     7
 10
45.960599999999999
 20
168.77199999999999
 30
0.0
 11
71.212000000000003
 21
168.77199999999999
 31
0.0
  0
LINE
  5
132
  8
0
  6
AIGENLINE002
 62
     7
 10
148.94
 20
160.47200000000001
 30
0.0
 11
155.53999999999999
 21
160.47200000000001
 31
0.0
  0
LINE
  5
133
  8
0
 62
     7
 10
68.378699999999995
 20
155.97200000000001
 30
0.0
 11
74.045199999999994
 21
155.97200000000001
 31
0.0
  0
LINE
  5
134
  8
0
 62
     7
 10
45.411799999999992
 20
173.97200000000001
 30
0.0
 11
97.012100000000004
 21
173.97200000000001
 31
0.0
  0
LINE
  5
135
  8
0
  6
AIGENLINE001
 62
     7
 10
152.24000000000001
 20
162.81100000000001
 30
0.0
 11
152.24000000000001
 21
154.97200000000001
 31
0.0
  0
LINE
  5
136
  8
0
  6
AIGENLINE001
 62
     7
 10
67.549800000000005
 20
171.41499999999999
 30
0.0
 11
74.771799999999999
 21
171.41499999999999
 31
0.0
  0
LINE
  5
137
  8
0
  6
AIGENLINE001
 62
     7
 10
71.212000000000003
 20
175.39099999999999
 30
0.0
 11
71.212000000000003
 21
154.97200000000001
 31
0.0
  0
LINE
  5
138
  8
0
 62
     7
 10
73.912899999999993
 20
244.84700000000001
 30
0.0
 11
72.767799999999994
 21
242.864
 31
0.0
  0
LINE
  5
139
  8
0
 62
     7
 10
72.767799999999994
 20
242.864
 30
0.0
 11
74.751099999999994
 21
244.00899999999999
 31
0.0
  0
LINE
  5
13A
  8
0
 62
     7
 10
74.751099999999994
 20
244.00899999999999
 30
0.0
 11
73.912899999999993
 21
244.84700000000001
 31
0.0
  0
LINE
  5
13B
  8
0
 62
     7
 10
68.51100000000001
 20
237.77000000000001
 30
0.0
 11
69.656099999999995
 21
239.75299999999999
 31
0.0
  0
LINE
  5
13C
  8
0
 62
     7
 10
69.656099999999995
 20
239.75299999999999
 30
0.0
 11
67.672799999999995
 21
238.608
 31
0.0
  0
LINE
  5
13D
  8
0
 62
     7
 10
67.672799999999995
 20
238.608
 30
0.0
 11
68.51100000000001
 21
237.77000000000001
 31
0.0
  0
LINE
  5
13E
  8
0
 62
     7
 10
65.341800000000006
 20
235.43899999999999
 30
0.0
 11
75.298199999999994
 21
245.39500000000001
 31
0.0
  0
LINE
  5
13F
  8
0
 62
     7
 10
65.341800000000006
 20
235.43899999999999
 30
0.0
 11
59.564399999999999
 21
235.43899999999999
 31
0.0
  0
ARC
  5
140
  8
0
 62
     7
 10
70.278200999999996
 20
249.00936799999999
 30
0.0
 40
0.016418
 50
181.48836700000001
 51
225.49480399999999
  0
ARC
  5
141
  8
0
 62
     7
 10
70.314552000000006
 20
249.04450800000001
 30
0.0
 40
0.066973
 50
224.388823
 51
247.41184100000001
  0
ARC
  5
142
  8
0
 62
     7
 10
70.418471999999994
 20
249.27269100000001
 30
0.0
 40
0.317677
 50
245.91438299999999
 51
256.75418200000001
  0
ARC
  5
143
  8
0
 62
     7
 10
70.625280000000004
 20
250.100628
 30
0.0
 40
1.17103
 50
256.18651899999998
 51
262.10163799999998
  0
ARC
  5
144
  8
0
 62
     7
 10
70.906931999999998
 20
252.02688800000001
 30
0.0
 40
3.1177529999999991
 50
261.83920499999999
 51
265.49037800000002
  0
ARC
  5
145
  8
0
 62
     7
 10
71.177739000000003
 20
255.393621
 30
0.0
 40
6.4953570000000003
 50
265.44403799999998
 51
270.301805
  0
ARC
  5
146
  8
0
 62
     7
 10
71.218058999999997
 20
256.18923799999999
 30
0.0
 40
7.2908869999999988
 50
269.95202
 51
274.127252
  0
ARC
  5
147
  8
0
 62
     7
 10
71.499195999999998
 20
252.17001099999999
 30
0.0
 40
3.2618610000000001
 50
274.28292099999999
 51
278.10197699999998
  0
ARC
  5
148
  8
0
 62
     7
 10
71.814416000000008
 20
250.00661299999999
 30
0.0
 40
1.075655
 50
277.719784
 51
284.913543
  0
ARC
  5
149
  8
0
 62
     7
 10
72.040870999999996
 20
249.172888
 30
0.0
 40
0.211776
 50
283.76135599999998
 51
299.94904300000002
  0
ARC
  5
14A
  8
0
 62
     7
 10
72.135294999999985
 20
249.013363
 30
0.0
 40
0.026503
 50
295.24010099999998
 51
350.39670899999999
  0
ARC
  5
14B
  8
0
 62
     7
 10
72.144951000000006
 20
249.008533
 30
0.0
 40
0.016481
 50
1.422602999999999
 51
45.401146999999987
  0
ARC
  5
14C
  8
0
 62
     7
 10
72.108462000000003
 20
248.97322
 30
0.0
 40
0.067256
 50
44.389905999999989
 51
67.321371999999997
  0
ARC
  5
14D
  8
0
 62
     7
 10
72.004660999999984
 20
248.74503999999999
 30
0.0
 40
0.31791
 50
65.915987999999984
 51
76.745956000000007
  0
ARC
  5
14E
  8
0
 62
     7
 10
71.804543999999993
 20
247.94925499999999
 30
0.0
 40
1.1384449999999999
 50
76.124968999999993
 51
81.851814000000005
  0
ARC
  5
14F
  8
0
 62
     7
 10
71.524855000000002
 20
246.06308100000001
 30
0.0
 40
3.0452340000000002
 50
81.672492999999989
 51
85.366733999999994
  0
ARC
  5
150
  8
0
 62
     7
 10
71.249223000000001
 20
242.714315
 30
0.0
 40
6.4053230000000001
 50
85.328927000000007
 51
90.333382000000015
  0
ARC
  5
151
  8
0
 62
     7
 10
71.205838999999983
 20
241.82330200000001
 30
0.0
 40
7.2962309999999988
 50
89.951984999999979
 51
94.202563000000012
  0
ARC
  5
152
  8
0
 62
     7
 10
70.910527999999985
 20
245.965405
 30
0.0
 40
3.143635999999999
 50
94.367124000000018
 51
98.288220000000024
  0
ARC
  5
153
  8
0
 62
     7
 10
70.599734999999995
 20
248.05236600000001
 30
0.0
 40
1.0336929999999991
 50
97.916543999999973
 51
105.012497
  0
ARC
  5
154
  8
0
 62
     7
 10
70.382311000000001
 20
248.845493
 30
0.0
 40
0.211366
 50
103.77651400000001
 51
120.00291799999999
  0
ARC
  5
155
  8
0
 62
     7
 10
70.28797800000001
 20
249.00452899999999
 30
0.0
 40
0.026558
 50
115.321527
 51
170.43660600000001
  0
LINE
  5
156
  8
0
 62
     7
 10
32.715699999999998
 20
250.59700000000001
 30
0.0
 11
32.123100000000001
 21
252.809
 31
0.0
  0
LINE
  5
157
  8
0
 62
     7
 10
32.123100000000001
 20
252.809
 30
0.0
 11
31.5306
 21
250.59700000000001
 31
0.0
  0
LINE
  5
158
  8
0
 62
     7
 10
31.5306
 20
250.59700000000001
 30
0.0
 11
32.715699999999998
 21
250.59700000000001
 31
0.0
  0
LINE
  5
159
  8
0
 62
     7
 10
31.5306
 20
217.52000000000001
 30
0.0
 11
32.123100000000001
 21
215.30799999999999
 31
0.0
  0
LINE
  5
15A
  8
0
 62
     7
 10
32.123100000000001
 20
215.30799999999999
 30
0.0
 11
32.715699999999998
 21
217.52000000000001
 31
0.0
  0
LINE
  5
15B
  8
0
 62
     7
 10
32.715699999999998
 20
217.52000000000001
 30
0.0
 11
31.5306
 21
217.52000000000001
 31
0.0
  0
LINE
  5
15C
  8
0
 62
     7
 10
32.123100000000001
 20
252.809
 30
0.0
 11
32.123100000000001
 21
215.30799999999999
 31
0.0
  0
LINE
  5
15D
  8
0
 62
     7
 10
44.972000000000001
 20
215.30799999999999
 30
0.0
 11
31.123000000000001
 21
215.30799999999999
 31
0.0
  0
LINE
  5
15E
  8
0
 62
     7
 10
47.557400000000001
 20
217.80799999999999
 30
0.0
 11
38.329300000000011
 21
217.80799999999999
 31
0.0
  0
LINE
  5
15F
  8
0
 62
     7
 10
47.557400000000001
 20
249.30799999999999
 30
0.0
 11
38.329300000000011
 21
249.30799999999999
 31
0.0
  0
LINE
  5
160
  8
0
 62
     7
 10
44.972000000000001
 20
252.809
 30
0.0
 11
31.123000000000001
 21
252.809
 31
0.0
  0
LINE
  5
161
  8
0
 62
     7
 10
39.621899999999997
 20
213.09700000000001
 30
0.0
 11
39.029400000000003
 21
215.30799999999999
 31
0.0
  0
LINE
  5
162
  8
0
 62
     7
 10
39.029400000000003
 20
215.30799999999999
 30
0.0
 11
38.436799999999998
 21
213.09700000000001
 31
0.0
  0
LINE
  5
163
  8
0
 62
     7
 10
38.436799999999998
 20
213.09700000000001
 30
0.0
 11
39.621899999999997
 21
213.09700000000001
 31
0.0
  0
LINE
  5
164
  8
0
 62
     7
 10
39.621899999999997
 20
247.09700000000001
 30
0.0
 11
39.029400000000003
 21
249.30799999999999
 31
0.0
  0
LINE
  5
165
  8
0
 62
     7
 10
39.029400000000003
 20
249.30799999999999
 30
0.0
 11
38.436799999999998
 21
247.09700000000001
 31
0.0
  0
LINE
  5
166
  8
0
 62
     7
 10
38.436799999999998
 20
247.09700000000001
 30
0.0
 11
39.621899999999997
 21
247.09700000000001
 31
0.0
  0
LINE
  5
167
  8
0
 62
     7
 10
38.436799999999998
 20
255.02000000000001
 30
0.0
 11
39.029400000000003
 21
252.809
 31
0.0
  0
LINE
  5
168
  8
0
 62
     7
 10
39.029400000000003
 20
252.809
 30
0.0
 11
39.621899999999997
 21
255.02000000000001
 31
0.0
  0
LINE
  5
169
  8
0
 62
     7
 10
39.621899999999997
 20
255.02000000000001
 30
0.0
 11
38.436799999999998
 21
255.02000000000001
 31
0.0
  0
LINE
  5
16A
  8
0
 62
     7
 10
38.436799999999998
 20
220.02000000000001
 30
0.0
 11
39.029400000000003
 21
217.80799999999999
 31
0.0
  0
LINE
  5
16B
  8
0
 62
     7
 10
39.029400000000003
 20
217.80799999999999
 30
0.0
 11
39.621899999999997
 21
220.02000000000001
 31
0.0
  0
LINE
  5
16C
  8
0
 62
     7
 10
39.621899999999997
 20
220.02000000000001
 30
0.0
 11
38.436799999999998
 21
220.02000000000001
 31
0.0
  0
LINE
  5
16D
  8
0
 62
     7
 10
39.029400000000003
 20
257.97399999999999
 30
0.0
 11
39.029400000000003
 21
209.55799999999999
 31
0.0
  0
LINE
  5
16E
  8
0
 62
     7
 10
47.4236
 20
199.155
 30
0.0
 11
45.211799999999997
 21
198.56200000000001
 31
0.0
  0
LINE
  5
16F
  8
0
 62
     7
 10
45.211799999999997
 20
198.56200000000001
 30
0.0
 11
47.4236
 21
197.97
 31
0.0
  0
LINE
  5
170
  8
0
 62
     7
 10
47.4236
 20
197.97
 30
0.0
 11
47.4236
 21
199.155
 31
0.0
  0
LINE
  5
171
  8
0
 62
     7
 10
95.000299999999996
 20
197.97
 30
0.0
 11
97.212100000000007
 21
198.56200000000001
 31
0.0
  0
LINE
  5
172
  8
0
 62
     7
 10
97.212100000000007
 20
198.56200000000001
 30
0.0
 11
95.000299999999996
 21
199.155
 31
0.0
  0
LINE
  5
173
  8
0
 62
     7
 10
95.000299999999996
 20
199.155
 30
0.0
 11
95.000299999999996
 21
197.97
 31
0.0
  0
LINE
  5
174
  8
0
 62
     7
 10
45.211799999999997
 20
198.56200000000001
 30
0.0
 11
97.212100000000007
 21
198.56200000000001
 31
0.0
  0
LINE
  5
175
  8
0
 62
     7
 10
97.212100000000007
 20
215.06800000000001
 30
0.0
 11
97.212100000000007
 21
197.56200000000001
 31
0.0
  0
LINE
  5
176
  8
0
 62
     7
 10
45.211799999999997
 20
215.06800000000001
 30
0.0
 11
45.211799999999997
 21
197.56200000000001
 31
0.0
  0
LINE
  5
177
  8
0
 62
     7
 10
99.423799999999986
 20
205.49600000000001
 30
0.0
 11
97.212100000000007
 21
204.90299999999999
 31
0.0
  0
LINE
  5
178
  8
0
 62
     7
 10
97.212100000000007
 20
204.90299999999999
 30
0.0
 11
99.423799999999986
 21
204.31100000000001
 31
0.0
  0
LINE
  5
179
  8
0
 62
     7
 10
99.423799999999986
 20
204.31100000000001
 30
0.0
 11
99.423799999999986
 21
205.49600000000001
 31
0.0
  0
LINE
  5
17A
  8
0
 62
     7
 10
49.924100000000003
 20
205.49600000000001
 30
0.0
 11
47.712299999999999
 21
204.90299999999999
 31
0.0
  0
LINE
  5
17B
  8
0
 62
     7
 10
47.712299999999999
 20
204.90299999999999
 30
0.0
 11
49.924100000000003
 21
204.31100000000001
 31
0.0
  0
LINE
  5
17C
  8
0
 62
     7
 10
49.924100000000003
 20
204.31100000000001
 30
0.0
 11
49.924100000000003
 21
205.49600000000001
 31
0.0
  0
LINE
  5
17D
  8
0
 62
     7
 10
43.000100000000003
 20
204.31100000000001
 30
0.0
 11
45.211799999999997
 21
204.90299999999999
 31
0.0
  0
LINE
  5
17E
  8
0
 62
     7
 10
45.211799999999997
 20
204.90299999999999
 30
0.0
 11
43.000100000000003
 21
205.49600000000001
 31
0.0
  0
LINE
  5
17F
  8
0
 62
     7
 10
43.000100000000003
 20
205.49600000000001
 30
0.0
 11
43.000100000000003
 21
204.31100000000001
 31
0.0
  0
LINE
  5
180
  8
0
 62
     7
 10
92.500900000000001
 20
204.31100000000001
 30
0.0
 11
94.712599999999995
 21
204.90299999999999
 31
0.0
  0
LINE
  5
181
  8
0
 62
     7
 10
94.712599999999995
 20
204.90299999999999
 30
0.0
 11
92.500900000000001
 21
205.49600000000001
 31
0.0
  0
LINE
  5
182
  8
0
 62
     7
 10
92.500900000000001
 20
205.49600000000001
 30
0.0
 11
92.500900000000001
 21
204.31100000000001
 31
0.0
  0
LINE
  5
183
  8
0
 62
     7
 10
39.9146
 20
204.90299999999999
 30
0.0
 11
103.02800000000001
 21
204.90299999999999
 31
0.0
  0
LINE
  5
184
  8
0
 62
     7
 10
94.712599999999995
 20
217.56800000000001
 30
0.0
 11
94.712599999999995
 21
203.90299999999999
 31
0.0
  0
LINE
  5
185
  8
0
 62
     7
 10
47.712299999999999
 20
217.56800000000001
 30
0.0
 11
47.712299999999999
 21
203.90299999999999
 31
0.0
  0
ARC
  5
186
  8
0
 62
     7
 10
51.269795000000002
 20
246.25053199999999
 30
0.0
 40
1.559037
 50
92.130370000000013
 51
177.86960099999999
  0
ARC
  5
187
  8
0
 62
     7
 10
51.269387000000002
 20
221.36602300000001
 30
0.0
 40
1.5586139999999991
 50
182.115973
 51
267.88405599999999
  0
LINE
  5
188
  8
0
 62
     7
 10
49.711799999999997
 20
221.30799999999999
 30
0.0
 11
49.711799999999997
 21
246.30799999999999
 31
0.0
  0
ARC
  5
189
  8
0
 62
     7
 10
91.212407999999996
 20
221.30847700000001
 30
0.0
 40
1.5000039999999999
 50
270.00002000000001
 51
359.99999000000003
  0
LINE
  5
18A
  8
0
 62
     7
 10
91.212400000000002
 20
219.80799999999999
 30
0.0
 11
51.21179999999999
 21
219.80799999999999
 31
0.0
  0
ARC
  5
18B
  8
0
 62
     7
 10
91.212407999999996
 20
246.30848599999999
 30
0.0
 40
1.5000039999999999
 50
0.00001
 51
89.999980000000008
  0
LINE
  5
18C
  8
0
 62
     7
 10
92.712400000000002
 20
246.30799999999999
 30
0.0
 11
92.712400000000002
 21
221.30799999999999
 31
0.0
  0
LINE
  5
18D
  8
0
 62
     7
 10
51.21179999999999
 20
247.80799999999999
 30
0.0
 11
91.212400000000002
 21
247.80799999999999
 31
0.0
  0
ARC
  5
18E
  8
0
 62
     7
 10
47.950359999999989
 20
218.046651
 30
0.0
 40
1.0390740000000001
 50
182.10978499999999
 51
267.89024499999999
  0
ARC
  5
18F
  8
0
 62
     7
 10
47.950741999999998
 20
249.06987100000001
 30
0.0
 40
1.0394709999999989
 50
92.130042000000003
 51
177.86992799999999
  0
LINE
  5
190
  8
0
 62
     7
 10
46.911999999999999
 20
218.00800000000001
 30
0.0
 11
46.911999999999999
 21
249.10900000000001
 31
0.0
  0
ARC
  5
191
  8
0
 62
     7
 10
94.512485999999996
 20
218.008399
 30
0.0
 40
1.0001180000000001
 50
270.00002000000001
 51
359.99999000000003
  0
LINE
  5
192
  8
0
 62
     7
 10
94.512499999999989
 20
217.00800000000001
 30
0.0
 11
47.912100000000002
 21
217.00800000000001
 31
0.0
  0
ARC
  5
193
  8
0
 62
     7
 10
94.512485999999996
 20
249.10850500000001
 30
0.0
 40
1.0001180000000001
 50
0.00001
 51
89.999980000000008
  0
LINE
  5
194
  8
0
 62
     7
 10
95.512600000000006
 20
249.10900000000001
 30
0.0
 11
95.512600000000006
 21
218.00800000000001
 31
0.0
  0
LINE
  5
195
  8
0
 62
     7
 10
47.912100000000002
 20
250.10900000000001
 30
0.0
 11
94.512499999999989
 21
250.10900000000001
 31
0.0
  0
ARC
  5
196
  8
0
 62
     7
 10
47.011983999999998
 20
217.10862
 30
0.0
 40
1.0002040000000001
 50
180.01481100000001
 51
270.01482099999998
  0
ARC
  5
197
  8
0
 62
     7
 10
47.012070000000001
 20
250.00837000000001
 30
0.0
 40
1.000289999999999
 50
89.990132999999986
 51
179.990104
  0
LINE
  5
198
  8
0
 62
     7
 10
46.011800000000001
 20
217.108
 30
0.0
 11
46.011800000000001
 21
250.00899999999999
 31
0.0
  0
ARC
  5
199
  8
0
 62
     7
 10
95.373718999999994
 20
217.14681400000001
 30
0.0
 40
1.039115999999999
 50
272.13060999999999
 51
357.87927100000002
  0
LINE
  5
19A
  8
0
 62
     7
 10
95.412400000000005
 20
216.108
 30
0.0
 11
47.0122
 21
216.108
 31
0.0
  0
ARC
  5
19B
  8
0
 62
     7
 10
95.373372000000003
 20
249.969922
 30
0.0
 40
1.0394699999999999
 50
2.1292810000000002
 51
87.850968999999992
  0
LINE
  5
19C
  8
0
 62
     7
 10
96.412099999999995
 20
250.00899999999999
 30
0.0
 11
96.412099999999995
 21
217.108
 31
0.0
  0
LINE
  5
19D
  8
0
 62
     7
 10
47.0122
 20
251.00899999999999
 30
0.0
 11
95.412400000000005
 21
251.00899999999999
 31
0.0
  0
ARC
  5
19E
  8
0
 62
     7
 10
47.800311999999991
 20
217.89659599999999
 30
0.0
 40
1.0388879999999989
 50
182.10907
 51
267.88108899999997
  0
ARC
  5
19F
  8
0
 62
     7
 10
47.800558999999993
 20
249.22023899999999
 30
0.0
 40
1.039137999999999
 50
92.132052000000002
 51
177.88765799999999
  0
LINE
  5
1A0
  8
0
 62
     7
 10
46.762099999999997
 20
217.858
 30
0.0
 11
46.762099999999997
 21
249.25899999999999
 31
0.0
  0
ARC
  5
1A1
  8
0
 62
     7
 10
94.624050999999994
 20
217.896827
 30
0.0
 40
1.0391269999999999
 50
272.13115699999997
 51
357.87872399999998
  0
LINE
  5
1A2
  8
0
 62
     7
 10
94.662699999999987
 20
216.858
 30
0.0
 11
47.76189999999999
 21
216.858
 31
0.0
  0
ARC
  5
1A3
  8
0
 62
     7
 10
94.623714000000007
 20
249.21992
 30
0.0
 40
1.0394699999999999
 50
2.1292810000000002
 51
87.850968999999992
  0
LINE
  5
1A4
  8
0
 62
     7
 10
95.662499999999994
 20
249.25899999999999
 30
0.0
 11
95.662499999999994
 21
217.858
 31
0.0
  0
LINE
  5
1A5
  8
0
 62
     7
 10
47.76189999999999
 20
250.25899999999999
 30
0.0
 11
94.662699999999987
 21
250.25899999999999
 31
0.0
  0
ARC
  5
1A6
  8
0
 62
     7
 10
47.16210499999999
 20
217.258396
 30
0.0
 40
1.000116999999999
 50
179.99996999999999
 51
270.00002000000001
  0
ARC
  5
1A7
  8
0
 62
     7
 10
47.16210499999999
 20
249.858507
 30
0.0
 40
1.0001180000000001
 50
90.0
 51
179.99996999999999
  0
LINE
  5
1A8
  8
0
 62
     7
 10
46.161999999999999
 20
217.25800000000001
 30
0.0
 11
46.161999999999999
 21
249.85900000000001
 31
0.0
  0
ARC
  5
1A9
  8
0
 62
     7
 10
95.262488000000005
 20
217.258397
 30
0.0
 40
1.0001180000000001
 50
270.00002000000001
 51
359.99999000000003
  0
LINE
  5
1AA
  8
0
 62
     7
 10
95.262500000000003
 20
216.25800000000001
 30
0.0
 11
47.162100000000002
 21
216.25800000000001
 31
0.0
  0
ARC
  5
1AB
  8
0
 62
     7
 10
95.262488000000005
 20
249.858507
 30
0.0
 40
1.0001180000000001
 50
0.00001
 51
89.999980000000008
  0
LINE
  5
1AC
  8
0
 62
     7
 10
96.26260000000002
 20
249.85900000000001
 30
0.0
 11
96.26260000000002
 21
217.25800000000001
 31
0.0
  0
LINE
  5
1AD
  8
0
 62
     7
 10
47.162100000000002
 20
250.85900000000001
 30
0.0
 11
95.262500000000003
 21
250.85900000000001
 31
0.0
  0
ARC
  5
1AE
  8
0
 62
     7
 10
48.523412
 20
252.120216
 30
0.0
 40
0.3118
 50
182.15093899999991
 51
267.94773500000002
  0
ARC
  5
1AF
  8
0
 62
     7
 10
47.900273999999989
 20
252.49700999999999
 30
0.0
 40
0.311776
 50
2.1421339999999991
 51
87.824937000000006
  0
LINE
  5
1B0
  8
0
 62
     7
 10
48.211799999999997
 20
252.10900000000001
 30
0.0
 11
48.211799999999997
 21
252.50899999999999
 31
0.0
  0
ARC
  5
1B1
  8
0
 62
     7
 10
96.173327999999984
 20
250.76987800000001
 30
0.0
 40
1.0394699999999999
 50
2.1292810000000002
 51
87.850968999999992
  0
LINE
  5
1B2
  8
0
 62
     7
 10
96.212299999999999
 20
251.809
 30
0.0
 11
48.5122
 21
251.809
 31
0.0
  0
ARC
  5
1B3
  8
0
 62
     7
 10
71.211865000000003
 20
241.308673
 30
0.0
 40
3.2998199999999991
 50
359.998514
 51
89.998485000000002
  0
ARC
  5
1B4
  8
0
 62
     7
 10
71.211693999999994
 20
241.30832899999999
 30
0.0
 40
3.3001649999999998
 50
89.995513999999986
 51
179.995484
  0
ARC
  5
1B5
  8
0
 62
     7
 10
71.211779000000007
 20
241.30876000000001
 30
0.0
 40
3.3002500000000001
 50
180.0029999999999
 51
270.00301000000002
  0
ARC
  5
1B6
  8
0
 62
     7
 10
71.211779000000007
 20
241.30841599999999
 30
0.0
 40
3.2999059999999991
 50
270.00301100000001
 51
0.002981
  0
ARC
  5
1B7
  8
0
 62
     7
 10
71.127979000000011
 20
241.224436
 30
0.0
 40
2.2855739999999991
 50
2.1100270000000001
 51
87.894450000000006
  0
ARC
  5
1B8
  8
0
 62
     7
 10
71.295674000000005
 20
241.22468699999999
 30
0.0
 40
2.2853150000000002
 50
92.099489999999989
 51
177.895994
  0
ARC
  5
1B9
  8
0
 62
     7
 10
71.296078000000009
 20
241.39271400000001
 30
0.0
 40
2.2857270000000001
 50
182.109274
 51
267.89075600000001
  0
ARC
  5
1BA
  8
0
 62
     7
 10
71.128202000000002
 20
241.392338
 30
0.0
 40
2.2853369999999988
 50
272.10018200000002
 51
357.89982700000002
  0
ARC
  5
1BB
  8
0
 62
     7
 10
48.750475000000002
 20
218.846587
 30
0.0
 40
1.0388879999999989
 50
182.10907
 51
267.88108899999997
  0
ARC
  5
1BC
  8
0
 62
     7
 10
48.750700000000002
 20
248.27009100000001
 30
0.0
 40
1.039121999999999
 50
92.130863000000005
 51
177.87897799999999
  0
LINE
  5
1BD
  8
0
 62
     7
 10
47.712299999999999
 20
218.80799999999999
 30
0.0
 11
47.712299999999999
 21
248.309
 31
0.0
  0
ARC
  5
1BE
  8
0
 62
     7
 10
93.712615000000014
 20
218.80844099999999
 30
0.0
 40
1.000032
 50
269.99508500000002
 51
359.99505499999998
  0
LINE
  5
1BF
  8
0
 62
     7
 10
93.712500000000006
 20
217.80799999999999
 30
0.0
 11
48.7121
 21
217.80799999999999
 31
0.0
  0
ARC
  5
1C0
  8
0
 62
     7
 10
93.712615000000014
 20
248.30846299999999
 30
0.0
 40
1.000032
 50
0.004945
 51
90.004914999999997
  0
LINE
  5
1C1
  8
0
 62
     7
 10
94.712599999999995
 20
248.309
 30
0.0
 11
94.712599999999995
 21
218.80799999999999
 31
0.0
  0
LINE
  5
1C2
  8
0
 62
     7
 10
48.7121
 20
249.30799999999999
 30
0.0
 11
93.712500000000006
 21
249.30799999999999
 31
0.0
  0
ARC
  5
1C3
  8
0
 62
     7
 10
46.212027999999997
 20
251.808358
 30
0.0
 40
1.0002040000000001
 50
89.985198999999994
 51
179.98516900000001
  0
LINE
  5
1C4
  8
0
 62
     7
 10
45.211799999999997
 20
216.30799999999999
 30
0.0
 11
45.211799999999997
 21
251.809
 31
0.0
  0
ARC
  5
1C5
  8
0
 62
     7
 10
46.212113999999993
 20
216.30857800000001
 30
0.0
 40
1.000289999999999
 50
180.00987699999999
 51
270.00988699999999
  0
LINE
  5
1C6
  8
0
 62
     7
 10
96.212299999999999
 20
215.30799999999999
 30
0.0
 11
46.212299999999992
 21
215.30799999999999
 31
0.0
  0
ARC
  5
1C7
  8
0
 62
     7
 10
96.173663000000005
 20
216.34669199999999
 30
0.0
 40
1.039121999999999
 50
272.13126899999997
 51
357.88848100000001
  0
LINE
  5
1C8
  8
0
 62
     7
 10
97.212100000000007
 20
251.809
 30
0.0
 11
97.212100000000007
 21
216.30799999999999
 31
0.0
  0
ARC
  5
1C9
  8
0
 62
     7
 10
96.173501999999999
 20
251.769991
 30
0.0
 40
1.0392950000000001
 50
2.1298840000000001
 51
87.860235000000003
  0
LINE
  5
1CA
  8
0
 62
     7
 10
46.212299999999992
 20
252.809
 30
0.0
 11
96.212299999999999
 21
252.809
 31
0.0
  0
LINE
  5
1CB
  8
0
  6
AIGENLINE001
 62
     7
 10
66.053899999999985
 20
241.309
 30
0.0
 11
76.397499999999994
 21
241.309
 31
0.0
  0
LINE
  5
1CC
  8
0
  6
AIGENLINE001
 62
     7
 10
71.212000000000003
 20
254.309
 30
0.0
 11
71.212000000000003
 21
213.80799999999999
 31
0.0
  0
LINE
  5
1CD
  8
0
 62
     7
 10
121.38200000000001
 20
168.96000000000001
 30
0.0
 11
120.789
 21
171.172
 31
0.0
  0
LINE
  5
1CE
  8
0
 62
     7
 10
120.789
 20
171.172
 30
0.0
 11
120.197
 21
168.96000000000001
 31
0.0
  0
LINE
  5
1CF
  8
0
 62
     7
 10
120.197
 20
168.96000000000001
 30
0.0
 11
121.38200000000001
 21
168.96000000000001
 31
0.0
  0
LINE
  5
1D0
  8
0
 62
     7
 10
120.197
 20
176.184
 30
0.0
 11
120.789
 21
173.97200000000001
 31
0.0
  0
LINE
  5
1D1
  8
0
 62
     7
 10
120.789
 20
173.97200000000001
 30
0.0
 11
121.38200000000001
 21
176.184
 31
0.0
  0
LINE
  5
1D2
  8
0
 62
     7
 10
121.38200000000001
 20
176.184
 30
0.0
 11
120.197
 21
176.184
 31
0.0
  0
LINE
  5
1D3
  8
0
 62
     7
 10
120.789
 20
179.47200000000001
 30
0.0
 11
120.789
 21
167.18000000000001
 31
0.0
  0
LINE
  5
1D4
  8
0
 62
     7
 10
151.453
 20
171.75999999999999
 30
0.0
 11
150.86099999999999
 21
173.97200000000001
 31
0.0
  0
LINE
  5
1D5
  8
0
 62
     7
 10
150.86099999999999
 20
173.97200000000001
 30
0.0
 11
150.268
 21
171.75999999999999
 31
0.0
  0
LINE
  5
1D6
  8
0
 62
     7
 10
150.268
 20
171.75999999999999
 30
0.0
 11
151.453
 21
171.75999999999999
 31
0.0
  0
LINE
  5
1D7
  8
0
 62
     7
 10
150.268
 20
162.684
 30
0.0
 11
150.86099999999999
 21
160.47200000000001
 31
0.0
  0
LINE
  5
1D8
  8
0
 62
     7
 10
150.86099999999999
 20
160.47200000000001
 30
0.0
 11
151.453
 21
162.684
 31
0.0
  0
LINE
  5
1D9
  8
0
 62
     7
 10
151.453
 20
162.684
 30
0.0
 11
150.268
 21
162.684
 31
0.0
  0
LINE
  5
1DA
  8
0
 62
     7
 10
161.529
 20
149.63499999999999
 30
0.0
 11
163.74100000000001
 21
150.22800000000001
 31
0.0
  0
LINE
  5
1DB
  8
0
 62
     7
 10
163.74100000000001
 20
150.22800000000001
 30
0.0
 11
161.529
 21
150.81999999999999
 31
0.0
  0
LINE
  5
1DC
  8
0
 62
     7
 10
161.529
 20
150.81999999999999
 30
0.0
 11
161.529
 21
149.63499999999999
 31
0.0
  0
LINE
  5
1DD
  8
0
 62
     7
 10
154.452
 20
150.81999999999999
 30
0.0
 11
152.24000000000001
 21
150.22800000000001
 31
0.0
  0
LINE
  5
1DE
  8
0
 62
     7
 10
152.24000000000001
 20
150.22800000000001
 30
0.0
 11
154.452
 21
149.63499999999999
 31
0.0
  0
LINE
  5
1DF
  8
0
 62
     7
 10
154.452
 20
149.63499999999999
 30
0.0
 11
154.452
 21
150.81999999999999
 31
0.0
  0
LINE
  5
1E0
  8
0
 62
     7
 10
163.74100000000001
 20
150.22800000000001
 30
0.0
 11
152.24000000000001
 21
150.22800000000001
 31
0.0
  0
LINE
  5
1E1
  8
0
 62
     7
 10
125.529
 20
171.172
 30
0.0
 11
119.789
 21
171.172
 31
0.0
  0
LINE
  5
1E2
  8
0
 62
     7
 10
125.529
 20
173.97200000000001
 30
0.0
 11
119.789
 21
173.97200000000001
 31
0.0
  0
ARC
  5
1E3
  8
0
 62
     7
 10
150.90354300000001
 20
128.386257
 30
0.0
 40
1.000289999999999
 50
359.99014299999999
 51
89.990113000000008
  0
ARC
  5
1E4
  8
0
 62
     7
 10
150.865419
 20
128.42473899999999
 30
0.0
 40
1.0391330000000001
 50
272.112076
 51
357.86819400000002
  0
ARC
  5
1E5
  8
0
 62
     7
 10
149.275598
 20
128.42471399999999
 30
0.0
 40
1.0391209999999991
 50
182.13050699999999
 51
267.86952200000002
  0
ARC
  5
1E6
  8
0
 62
     7
 10
149.276285
 20
128.34748300000001
 30
0.0
 40
1.039806999999999
 50
92.166991999999993
 51
177.87245100000001
  0
LINE
  5
1E7
  8
0
  6
AIGENLINE001
 62
     7
 10
147.66
 20
128.386
 30
0.0
 11
152.48099999999999
 21
128.386
 31
0.0
  0
LINE
  5
1E8
  8
0
  6
AIGENLINE001
 62
     7
 10
150.071
 20
127.001
 30
0.0
 11
150.071
 21
129.78800000000001
 31
0.0
  0
LINE
  5
1E9
  8
0
  6
AIGENLINE001
 62
     7
 10
150.904
 20
129.94499999999999
 30
0.0
 11
150.904
 21
126.758
 31
0.0
  0
LINE
  5
1EA
  8
0
  6
AIGENLINE001
 62
     7
 10
149.23699999999999
 20
129.94499999999999
 30
0.0
 11
149.23699999999999
 21
126.758
 31
0.0
  0
LINE
  5
1EB
  8
0
 62
     7
 10
150.904
 20
129.387
 30
0.0
 11
149.23699999999999
 21
129.387
 31
0.0
  0
LINE
  5
1EC
  8
0
 62
     7
 10
150.904
 20
127.386
 30
0.0
 11
149.23699999999999
 21
127.386
 31
0.0
  0
LINE
  5
1ED
  8
0
  6
AIGENLINE001
 62
     7
 10
150.071
 20
95.212400000000002
 30
0.0
 11
150.071
 21
92.330200000000005
 31
0.0
  0
LINE
  5
1EE
  8
0
 62
     7
 10
142.56999999999999
 20
123.387
 30
0.0
 11
142.56999999999999
 21
133.386
 31
0.0
  0
LINE
  5
1EF
  8
0
 62
     7
 10
139.23699999999999
 20
123.72
 30
0.0
 11
139.23699999999999
 21
133.053
 31
0.0
  0
LINE
  5
1F0
  8
0
 62
     7
 10
154.86500000000001
 20
93.551100000000005
 30
0.0
 11
159.911
 21
93.551100000000005
 31
0.0
  0
LINE
  5
1F1
  8
0
 62
     7
 10
154.86500000000001
 20
94.050700000000006
 30
0.0
 11
159.911
 21
94.050700000000006
 31
0.0
  0
LINE
  5
1F2
  8
0
 62
     7
 10
154.23699999999999
 20
133.386
 30
0.0
 11
137.56999999999999
 21
133.386
 31
0.0
  0
LINE
  5
1F3
  8
0
 62
     7
 10
137.56999999999999
 20
123.387
 30
0.0
 11
137.56999999999999
 21
133.386
 31
0.0
  0
LINE
  5
1F4
  8
0
 62
     7
 10
154.23699999999999
 20
123.387
 30
0.0
 11
137.56999999999999
 21
123.387
 31
0.0
  0
LINE
  5
1F5
  8
0
 62
     7
 10
154.23699999999999
 20
123.387
 30
0.0
 11
154.23699999999999
 21
133.386
 31
0.0
  0
LINE
  5
1F6
  8
0
 62
     7
 10
154.23699999999999
 20
93.551100000000005
 30
0.0
 11
142.667
 21
93.551100000000005
 31
0.0
  0
LINE
  5
1F7
  8
0
 62
     7
 10
142.089
 20
93.883899999999997
 30
0.0
 11
138.91399999999999
 21
99.384399999999985
 31
0.0
  0
ARC
  5
1F8
  8
0
 62
     7
 10
142.673002
 20
94.229205000000007
 30
0.0
 40
0.6781080000000002
 50
210.609444
 51
269.47466700000001
  0
LINE
  5
1F9
  8
0
 62
     7
 10
142.60499999999999
 20
94.050700000000006
 30
0.0
 11
139.429
 21
99.551100000000005
 31
0.0
  0
LINE
  5
1FA
  8
0
 62
     7
 10
138.852
 20
99.883899999999997
 30
0.0
 11
137.56999999999999
 21
99.883899999999997
 31
0.0
  0
ARC
  5
1FB
  8
0
 62
     7
 10
138.84470400000001
 20
99.203979000000004
 30
0.0
 40
0.680001
 50
30.699383000000001
 51
89.384687999999997
  0
LINE
  5
1FC
  8
0
 62
     7
 10
138.91399999999999
 20
99.384399999999985
 30
0.0
 11
137.56999999999999
 21
99.384399999999985
 31
0.0
  0
LINE
  5
1FD
  8
0
 62
     7
 10
137.56999999999999
 20
99.384399999999985
 30
0.0
 11
137.56999999999999
 21
99.883899999999997
 31
0.0
  0
LINE
  5
1FE
  8
0
 62
     7
 10
154.23699999999999
 20
94.050700000000006
 30
0.0
 11
142.60499999999999
 21
94.050700000000006
 31
0.0
  0
LINE
  5
1FF
  8
0
 62
     7
 10
154.23699999999999
 20
93.551100000000005
 30
0.0
 11
154.23699999999999
 21
94.050700000000006
 31
0.0
  0
LINE
  5
200
  8
0
 62
     7
 10
150.071
 20
126.76600000000001
 30
0.0
 11
150.06999999999999
 21
117.792
 31
0.0
  0
LINE
  5
201
  8
0
 62
     7
 10
152.76300000000001
 20
117.81699999999999
 30
0.0
 11
154.23699999999999
 21
118.21299999999999
 31
0.0
  0
LINE
  5
202
  8
0
 62
     7
 10
154.23699999999999
 20
118.21299999999999
 30
0.0
 11
152.76300000000001
 21
118.607
 31
0.0
  0
LINE
  5
203
  8
0
 62
     7
 10
152.76300000000001
 20
118.607
 30
0.0
 11
152.76300000000001
 21
117.81699999999999
 31
0.0
  0
LINE
  5
204
  8
0
 62
     7
 10
151.54499999999999
 20
118.598
 30
0.0
 11
150.06999999999999
 21
118.203
 31
0.0
  0
LINE
  5
205
  8
0
 62
     7
 10
150.06999999999999
 20
118.203
 30
0.0
 11
151.54499999999999
 21
117.80800000000001
 31
0.0
  0
LINE
  5
206
  8
0
 62
     7
 10
151.54499999999999
 20
117.80800000000001
 30
0.0
 11
151.54499999999999
 21
118.598
 31
0.0
  0
LINE
  5
207
  8
0
 62
     7
 10
154.23699999999999
 20
118.203
 30
0.0
 11
143.602
 21
118.203
 31
0.0
  0
LINE
  5
208
  8
0
 62
     7
 10
137.56999999999999
 20
122.744
 30
0.0
 11
137.56999999999999
 21
112.86199999999999
 31
0.0
  0
LINE
  5
209
  8
0
 62
     7
 10
154.23699999999999
 20
122.744
 30
0.0
 11
154.23699999999999
 21
112.86199999999999
 31
0.0
  0
LINE
  5
20A
  8
0
 62
     7
 10
139.24000000000001
 20
101.19
 30
0.0
 11
138.476
 21
99.867400000000004
 31
0.0
  0
LINE
  5
20B
  8
0
 62
     7
 10
138.476
 20
99.867400000000004
 30
0.0
 11
139.798
 21
100.631
 31
0.0
  0
LINE
  5
20C
  8
0
 62
     7
 10
139.798
 20
100.631
 30
0.0
 11
139.24000000000001
 21
101.19
 31
0.0
  0
LINE
  5
20D
  8
0
 62
     7
 10
141.232
 20
102.623
 30
0.0
 11
138.476
 21
99.867400000000004
 31
0.0
  0
LINE
  5
20E
  8
0
 62
     7
 10
157.505
 20
102.623
 30
0.0
 11
141.232
 21
102.623
 31
0.0
  0
LINE
  5
20F
  8
0
 62
     7
 10
152.76300000000001
 20
112.887
 30
0.0
 11
154.238
 21
113.283
 31
0.0
  0
LINE
  5
210
  8
0
 62
     7
 10
154.238
 20
113.283
 30
0.0
 11
152.76300000000001
 21
113.678
 31
0.0
  0
LINE
  5
211
  8
0
 62
     7
 10
152.76300000000001
 20
113.678
 30
0.0
 11
152.76300000000001
 21
112.887
 31
0.0
  0
LINE
  5
212
  8
0
 62
     7
 10
139.04499999999999
 20
113.66800000000001
 30
0.0
 11
137.56999999999999
 21
113.273
 31
0.0
  0
LINE
  5
213
  8
0
 62
     7
 10
137.56999999999999
 20
113.273
 30
0.0
 11
139.04499999999999
 21
112.878
 31
0.0
  0
LINE
  5
214
  8
0
 62
     7
 10
139.04499999999999
 20
112.878
 30
0.0
 11
139.04499999999999
 21
113.66800000000001
 31
0.0
  0
LINE
  5
215
  8
0
 62
     7
 10
154.23699999999999
 20
113.273
 30
0.0
 11
137.56999999999999
 21
113.273
 31
0.0
  0
LINE
  5
216
  8
0
 62
     7
 10
141.636
 20
93.551100000000005
 30
0.0
 11
133.387
 21
93.551100000000005
 31
0.0
  0
LINE
  5
217
  8
0
 62
     7
 10
136.95400000000001
 20
99.883899999999997
 30
0.0
 11
133.387
 21
99.883899999999997
 31
0.0
  0
LINE
  5
218
  8
0
 62
     7
 10
134.19200000000001
 20
98.4101
 30
0.0
 11
133.797
 21
99.884600000000006
 31
0.0
  0
LINE
  5
219
  8
0
 62
     7
 10
133.797
 20
99.884600000000006
 30
0.0
 11
133.40199999999999
 21
98.4101
 31
0.0
  0
LINE
  5
21A
  8
0
 62
     7
 10
133.40199999999999
 20
98.4101
 30
0.0
 11
134.19200000000001
 21
98.4101
 31
0.0
  0
LINE
  5
21B
  8
0
 62
     7
 10
133.41200000000001
 20
95.024899999999988
 30
0.0
 11
133.80699999999999
 21
93.550399999999996
 31
0.0
  0
LINE
  5
21C
  8
0
 62
     7
 10
133.80699999999999
 20
93.550399999999996
 30
0.0
 11
134.202
 21
95.024899999999988
 31
0.0
  0
LINE
  5
21D
  8
0
 62
     7
 10
134.202
 20
95.024899999999988
 30
0.0
 11
133.41200000000001
 21
95.024899999999988
 31
0.0
  0
LINE
  5
21E
  8
0
 62
     7
 10
133.797
 20
99.883899999999997
 30
0.0
 11
133.797
 21
93.551100000000005
 31
0.0
  0
LINE
  5
21F
  8
0
 62
     7
 10
154.86500000000001
 20
123.387
 30
0.0
 11
161.05099999999999
 21
123.387
 31
0.0
  0
LINE
  5
220
  8
0
 62
     7
 10
154.86500000000001
 20
133.386
 30
0.0
 11
161.05099999999999
 21
133.386
 31
0.0
  0
LINE
  5
221
  8
0
 62
     7
 10
159.89500000000001
 20
92.076599999999999
 30
0.0
 11
159.5
 21
93.551100000000005
 31
0.0
  0
LINE
  5
222
  8
0
 62
     7
 10
159.5
 20
93.551100000000005
 30
0.0
 11
159.10499999999999
 21
92.076599999999999
 31
0.0
  0
LINE
  5
223
  8
0
 62
     7
 10
159.10499999999999
 20
92.076599999999999
 30
0.0
 11
159.89500000000001
 21
92.076599999999999
 31
0.0
  0
LINE
  5
224
  8
0
 62
     7
 10
159.10499999999999
 20
95.525199999999984
 30
0.0
 11
159.5
 21
94.050700000000006
 31
0.0
  0
LINE
  5
225
  8
0
 62
     7
 10
159.5
 20
94.050700000000006
 30
0.0
 11
159.89500000000001
 21
95.525199999999984
 31
0.0
  0
LINE
  5
226
  8
0
 62
     7
 10
159.89500000000001
 20
95.525199999999984
 30
0.0
 11
159.10499999999999
 21
95.525199999999984
 31
0.0
  0
LINE
  5
227
  8
0
 62
     7
 10
159.5
 20
99.390600000000006
 30
0.0
 11
159.5
 21
91.097499999999997
 31
0.0
  0
LINE
  5
228
  8
0
 62
     7
 10
161.03399999999999
 20
131.91200000000001
 30
0.0
 11
160.63900000000001
 21
133.386
 31
0.0
  0
LINE
  5
229
  8
0
 62
     7
 10
160.63900000000001
 20
133.386
 30
0.0
 11
160.244
 21
131.91200000000001
 31
0.0
  0
LINE
  5
22A
  8
0
 62
     7
 10
160.244
 20
131.91200000000001
 30
0.0
 11
161.03399999999999
 21
131.91200000000001
 31
0.0
  0
LINE
  5
22B
  8
0
 62
     7
 10
160.25399999999999
 20
124.86
 30
0.0
 11
160.649
 21
123.386
 31
0.0
  0
LINE
  5
22C
  8
0
 62
     7
 10
160.649
 20
123.386
 30
0.0
 11
161.04400000000001
 21
124.86
 31
0.0
  0
LINE
  5
22D
  8
0
 62
     7
 10
161.04400000000001
 20
124.86
 30
0.0
 11
160.25399999999999
 21
124.86
 31
0.0
  0
LINE
  5
22E
  8
0
 62
     7
 10
160.63900000000001
 20
133.386
 30
0.0
 11
160.63900000000001
 21
123.387
 31
0.0
  0
ARC
  5
22F
  8
0
 62
     7
 10
169.30305300000001
 20
256.25626299999999
 30
0.0
 40
0.322463
 50
179.99996999999999
 51
270.00002000000001
  0
ARC
  5
230
  8
0
 62
     7
 10
169.30305300000001
 20
256.25626299999999
 30
0.0
 40
0.322463
 50
270.00002000000001
 51
359.99999000000003
  0
ARC
  5
231
  8
0
 62
     7
 10
169.30305300000001
 20
256.25626299999999
 30
0.0
 40
0.322463
 50
0.00001
 51
89.999980000000008
  0
ARC
  5
232
  8
0
 62
     7
 10
169.30305300000001
 20
256.25626299999999
 30
0.0
 40
0.322463
 50
90.0
 51
179.99996999999999
  0
ARC
  5
233
  8
0
 62
     7
 10
115.302907
 20
256.25626299999999
 30
0.0
 40
0.322463
 50
179.99996999999999
 51
270.00002000000001
  0
ARC
  5
234
  8
0
 62
     7
 10
115.302907
 20
256.25626299999999
 30
0.0
 40
0.322463
 50
270.00002000000001
 51
359.99999000000003
  0
ARC
  5
235
  8
0
 62
     7
 10
115.302907
 20
256.25626299999999
 30
0.0
 40
0.322463
 50
0.00001
 51
89.999980000000008
  0
ARC
  5
236
  8
0
 62
     7
 10
115.302907
 20
256.25626299999999
 30
0.0
 40
0.322463
 50
90.0
 51
179.99996999999999
  0
ARC
  5
237
  8
0
 62
     7
 10
163.76428899999999
 20
219.84674899999999
 30
0.0
 40
1.0394699999999999
 50
272.14903099999998
 51
357.87071900000001
  0
ARC
  5
238
  8
0
 62
     7
 10
163.76428899999999
 20
247.26963900000001
 30
0.0
 40
1.0394699999999999
 50
2.1292810000000002
 51
87.850968999999992
  0
LINE
  5
239
  8
0
  6
AIGENLINE001
 62
     7
 10
142.303
 20
250.39599999999999
 30
0.0
 11
142.303
 21
216.97900000000001
 31
0.0
  0
LINE
  5
23A
  8
0
 62
     7
 10
164.803
 20
247.30799999999999
 30
0.0
 11
164.803
 21
219.80799999999999
 31
0.0
  0
ARC
  5
23B
  8
0
 62
     7
 10
120.803037
 20
219.80812800000001
 30
0.0
 40
1.000116999999999
 50
179.99996999999999
 51
270.00002000000001
  0
ARC
  5
23C
  8
0
 62
     7
 10
120.803037
 20
247.30825899999999
 30
0.0
 40
1.0001180000000001
 50
90.0
 51
179.99996999999999
  0
LINE
  5
23D
  8
0
  6
AIGENLINE003
 62
     7
 10
169.303
 20
218.80799999999999
 30
0.0
 11
174.303
 21
248.30799999999999
 31
0.0
  0
LINE
  5
23E
  8
0
  6
AIGENLINE003
 62
     7
 10
174.303
 20
218.80799999999999
 30
0.0
 11
169.303
 21
248.30799999999999
 31
0.0
  0
LINE
  5
23F
  8
0
  6
AIGENLINE003
 62
     7
 10
169.303
 20
218.80799999999999
 30
0.0
 11
174.303
 21
218.80799999999999
 31
0.0
  0
LINE
  5
240
  8
0
  6
AIGENLINE003
 62
     7
 10
174.303
 20
218.80799999999999
 30
0.0
 11
174.303
 21
248.30799999999999
 31
0.0
  0
LINE
  5
241
  8
0
  6
AIGENLINE003
 62
     7
 10
174.303
 20
248.30799999999999
 30
0.0
 11
169.303
 21
248.30799999999999
 31
0.0
  0
LINE
  5
242
  8
0
  6
AIGENLINE003
 62
     7
 10
169.303
 20
248.30799999999999
 30
0.0
 11
169.303
 21
218.80799999999999
 31
0.0
  0
LINE
  5
243
  8
0
 62
     7
 10
174.303
 20
256.95600000000002
 30
0.0
 11
174.303
 21
249.00800000000001
 31
0.0
  0
LINE
  5
244
  8
0
 62
     7
 10
164.803
 20
218.07599999999999
 30
0.0
 11
164.803
 21
210.33799999999999
 31
0.0
  0
LINE
  5
245
  8
0
 62
     7
 10
153.41900000000001
 20
246.09800000000001
 30
0.0
 11
152.827
 21
248.309
 31
0.0
  0
LINE
  5
246
  8
0
 62
     7
 10
152.827
 20
248.309
 30
0.0
 11
152.23400000000001
 21
246.09800000000001
 31
0.0
  0
LINE
  5
247
  8
0
 62
     7
 10
152.23400000000001
 20
246.09800000000001
 30
0.0
 11
153.41900000000001
 21
246.09800000000001
 31
0.0
  0
LINE
  5
248
  8
0
 62
     7
 10
152.249
 20
243.51900000000001
 30
0.0
 11
152.84100000000001
 21
241.30799999999999
 31
0.0
  0
LINE
  5
249
  8
0
 62
     7
 10
152.84100000000001
 20
241.30799999999999
 30
0.0
 11
153.434
 21
243.51900000000001
 31
0.0
  0
LINE
  5
24A
  8
0
 62
     7
 10
153.434
 20
243.51900000000001
 30
0.0
 11
152.249
 21
243.51900000000001
 31
0.0
  0
LINE
  5
24B
  8
0
 62
     7
 10
152.834
 20
248.30799999999999
 30
0.0
 11
152.834
 21
241.309
 31
0.0
  0
LINE
  5
24C
  8
0
 62
     7
 10
169.303
 20
256.95600000000002
 30
0.0
 11
169.303
 21
249.00800000000001
 31
0.0
  0
LINE
  5
24D
  8
0
  6
AIGENLINE003
 62
     7
 10
115.303
 20
218.80799999999999
 30
0.0
 11
110.303
 21
248.30799999999999
 31
0.0
  0
LINE
  5
24E
  8
0
  6
AIGENLINE003
 62
     7
 10
110.303
 20
218.80799999999999
 30
0.0
 11
115.303
 21
248.30799999999999
 31
0.0
  0
LINE
  5
24F
  8
0
  6
AIGENLINE003
 62
     7
 10
115.303
 20
218.80799999999999
 30
0.0
 11
110.303
 21
218.80799999999999
 31
0.0
  0
LINE
  5
250
  8
0
  6
AIGENLINE003
 62
     7
 10
110.303
 20
218.80799999999999
 30
0.0
 11
110.303
 21
248.30799999999999
 31
0.0
  0
LINE
  5
251
  8
0
  6
AIGENLINE003
 62
     7
 10
110.303
 20
248.30799999999999
 30
0.0
 11
115.303
 21
248.30799999999999
 31
0.0
  0
LINE
  5
252
  8
0
  6
AIGENLINE003
 62
     7
 10
115.303
 20
248.30799999999999
 30
0.0
 11
115.303
 21
218.80799999999999
 31
0.0
  0
LINE
  5
253
  8
0
 62
     7
 10
110.303
 20
256.95600000000002
 30
0.0
 11
110.303
 21
249.00800000000001
 31
0.0
  0
LINE
  5
254
  8
0
 62
     7
 10
164.803
 20
256.95600000000002
 30
0.0
 11
164.803
 21
249.00800000000001
 31
0.0
  0
LINE
  5
255
  8
0
 62
     7
 10
142.303
 20
256.95600000000002
 30
0.0
 11
142.303
 21
251.09700000000001
 31
0.0
  0
LINE
  5
256
  8
0
 62
     7
 10
119.803
 20
218.07599999999999
 30
0.0
 11
119.803
 21
210.33799999999999
 31
0.0
  0
LINE
  5
257
  8
0
 62
     7
 10
158.56
 20
246.09800000000001
 30
0.0
 11
157.96799999999999
 21
248.309
 31
0.0
  0
LINE
  5
258
  8
0
 62
     7
 10
157.96799999999999
 20
248.309
 30
0.0
 11
157.375
 21
246.09800000000001
 31
0.0
  0
LINE
  5
259
  8
0
 62
     7
 10
157.375
 20
246.09800000000001
 30
0.0
 11
158.56
 21
246.09800000000001
 31
0.0
  0
LINE
  5
25A
  8
0
 62
     7
 10
157.38999999999999
 20
221.01900000000001
 30
0.0
 11
157.982
 21
218.80699999999999
 31
0.0
  0
LINE
  5
25B
  8
0
 62
     7
 10
157.982
 20
218.80699999999999
 30
0.0
 11
158.57499999999999
 21
221.01900000000001
 31
0.0
  0
LINE
  5
25C
  8
0
 62
     7
 10
158.57499999999999
 20
221.01900000000001
 30
0.0
 11
157.38999999999999
 21
221.01900000000001
 31
0.0
  0
LINE
  5
25D
  8
0
 62
     7
 10
157.97499999999999
 20
248.30799999999999
 30
0.0
 11
157.97499999999999
 21
218.80799999999999
 31
0.0
  0
LINE
  5
25E
  8
0
 62
     7
 10
119.803
 20
256.95600000000002
 30
0.0
 11
119.803
 21
249.00800000000001
 31
0.0
  0
LINE
  5
25F
  8
0
 62
     7
 10
115.303
 20
256.95600000000002
 30
0.0
 11
115.303
 21
249.00800000000001
 31
0.0
  0
LINE
  5
260
  8
0
 62
     7
 10
119.803
 20
247.30799999999999
 30
0.0
 11
119.803
 21
219.80799999999999
 31
0.0
  0
LINE
  5
261
  8
0
 62
     7
 10
121.285
 20
221.042
 30
0.0
 11
120.14100000000001
 21
219.059
 31
0.0
  0
LINE
  5
262
  8
0
 62
     7
 10
120.14100000000001
 20
219.059
 30
0.0
 11
122.124
 21
220.20400000000001
 31
0.0
  0
LINE
  5
263
  8
0
 62
     7
 10
122.124
 20
220.20400000000001
 30
0.0
 11
121.285
 21
221.042
 31
0.0
  0
LINE
  5
264
  8
0
 62
     7
 10
125.78700000000001
 20
224.70599999999999
 30
0.0
 11
120.14100000000001
 21
219.059
 31
0.0
  0
LINE
  5
265
  8
0
 62
     7
 10
125.78700000000001
 20
224.70599999999999
 30
0.0
 11
131.49700000000001
 21
224.70599999999999
 31
0.0
  0
LINE
  5
266
  8
0
 62
     7
 10
114.09699999999999
 20
216.91499999999999
 30
0.0
 11
112.809
 21
218.80799999999999
 31
0.0
  0
LINE
  5
267
  8
0
 62
     7
 10
112.809
 20
218.80799999999999
 30
0.0
 11
112.97799999999999
 21
216.52500000000001
 31
0.0
  0
LINE
  5
268
  8
0
 62
     7
 10
112.97799999999999
 20
216.52500000000001
 30
0.0
 11
114.09699999999999
 21
216.91499999999999
 31
0.0
  0
LINE
  5
269
  8
0
 62
     7
 10
118.14
 20
203.53100000000001
 30
0.0
 11
112.809
 21
218.80799999999999
 31
0.0
  0
LINE
  5
26A
  8
0
 62
     7
 10
118.14
 20
203.53100000000001
 30
0.0
 11
169.81999999999999
 21
203.53100000000001
 31
0.0
  0
LINE
  5
26B
  8
0
 62
     7
 10
122.124
 20
246.91200000000001
 30
0.0
 11
120.14100000000001
 21
248.05699999999999
 31
0.0
  0
LINE
  5
26C
  8
0
 62
     7
 10
120.14100000000001
 20
248.05699999999999
 30
0.0
 11
121.285
 21
246.07400000000001
 31
0.0
  0
LINE
  5
26D
  8
0
 62
     7
 10
121.285
 20
246.07400000000001
 30
0.0
 11
122.124
 21
246.91200000000001
 31
0.0
  0
LINE
  5
26E
  8
0
 62
     7
 10
125.78700000000001
 20
242.411
 30
0.0
 11
120.14100000000001
 21
248.05699999999999
 31
0.0
  0
LINE
  5
26F
  8
0
 62
     7
 10
125.78700000000001
 20
242.411
 30
0.0
 11
131.49700000000001
 21
242.411
 31
0.0
  0
ARC
  5
270
  8
0
  6
AIGENLINE002
 62
     7
 10
142.30315200000001
 20
241.30841599999999
 30
0.0
 40
2.1998799999999989
 50
270.00450599999999
 51
0.004476
  0
ARC
  5
271
  8
0
  6
AIGENLINE002
 62
     7
 10
142.30315200000001
 20
241.30876000000001
 30
0.0
 40
2.2002239999999991
 50
180.0044959999999
 51
270.00450599999999
  0
ARC
  5
272
  8
0
  6
AIGENLINE002
 62
     7
 10
142.303067
 20
241.30832899999999
 30
0.0
 40
2.200137999999999
 50
89.993270999999993
 51
179.99324100000001
  0
ARC
  5
273
  8
0
  6
AIGENLINE002
 62
     7
 10
142.30323799999999
 20
241.308674
 30
0.0
 40
2.1997939999999989
 50
359.99776700000001
 51
89.997737000000015
  0
ARC
  5
274
  8
0
  6
AIGENLINE002
 62
     7
 10
142.17659499999999
 20
241.43495999999999
 30
0.0
 40
3.4287930000000002
 50
272.11817500000001
 51
357.88781599999999
  0
ARC
  5
275
  8
0
  6
AIGENLINE002
 62
     7
 10
142.30315200000001
 20
241.30876000000001
 30
0.0
 40
3.3002500000000001
 50
180.0029999999999
 51
270.00301000000002
  0
ARC
  5
276
  8
0
  6
AIGENLINE002
 62
     7
 10
142.30315300000001
 20
241.308415
 30
0.0
 40
3.3002509999999998
 50
89.997008999999977
 51
179.99698000000001
  0
ARC
  5
277
  8
0
  6
AIGENLINE002
 62
     7
 10
142.17613499999999
 20
241.18175600000001
 30
0.0
 40
3.4292690000000001
 50
2.119577
 51
87.874431000000001
  0
LINE
  5
278
  8
0
  6
AIGENLINE001
 62
     7
 10
147.25200000000001
 20
241.309
 30
0.0
 11
137.547
 21
241.309
 31
0.0
  0
LINE
  5
279
  8
0
 62
     7
 10
147.952
 20
241.309
 30
0.0
 11
153.53399999999999
 21
241.309
 31
0.0
  0
LINE
  5
27A
  8
0
 62
     7
 10
108.09099999999999
 20
255.66399999999999
 30
0.0
 11
110.303
 21
256.25599999999997
 31
0.0
  0
LINE
  5
27B
  8
0
 62
     7
 10
110.303
 20
256.25599999999997
 30
0.0
 11
108.09099999999999
 21
256.84899999999999
 31
0.0
  0
LINE
  5
27C
  8
0
 62
     7
 10
108.09099999999999
 20
256.84899999999999
 30
0.0
 11
108.09099999999999
 21
255.66399999999999
 31
0.0
  0
LINE
  5
27D
  8
0
 62
     7
 10
140.09100000000001
 20
255.66399999999999
 30
0.0
 11
142.303
 21
256.25599999999997
 31
0.0
  0
LINE
  5
27E
  8
0
 62
     7
 10
142.303
 20
256.25599999999997
 30
0.0
 11
140.09100000000001
 21
256.84899999999999
 31
0.0
  0
LINE
  5
27F
  8
0
 62
     7
 10
140.09100000000001
 20
256.84899999999999
 30
0.0
 11
140.09100000000001
 21
255.66399999999999
 31
0.0
  0
LINE
  5
280
  8
0
 62
     7
 10
162.59100000000001
 20
255.66399999999999
 30
0.0
 11
164.803
 21
256.25599999999997
 31
0.0
  0
LINE
  5
281
  8
0
 62
     7
 10
164.803
 20
256.25599999999997
 30
0.0
 11
162.59100000000001
 21
256.84899999999999
 31
0.0
  0
LINE
  5
282
  8
0
 62
     7
 10
162.59100000000001
 20
256.84899999999999
 30
0.0
 11
162.59100000000001
 21
255.66399999999999
 31
0.0
  0
LINE
  5
283
  8
0
 62
     7
 10
176.624
 20
256.875
 30
0.0
 11
174.41200000000001
 21
256.28300000000002
 31
0.0
  0
LINE
  5
284
  8
0
 62
     7
 10
174.41200000000001
 20
256.28300000000002
 30
0.0
 11
176.624
 21
255.69
 31
0.0
  0
LINE
  5
285
  8
0
 62
     7
 10
176.624
 20
255.69
 30
0.0
 11
176.624
 21
256.875
 31
0.0
  0
LINE
  5
286
  8
0
 62
     7
 10
144.51499999999999
 20
256.84899999999999
 30
0.0
 11
142.303
 21
256.25599999999997
 31
0.0
  0
LINE
  5
287
  8
0
 62
     7
 10
142.303
 20
256.25599999999997
 30
0.0
 11
144.51499999999999
 21
255.66300000000001
 31
0.0
  0
LINE
  5
288
  8
0
 62
     7
 10
144.51499999999999
 20
255.66300000000001
 30
0.0
 11
144.51499999999999
 21
256.84899999999999
 31
0.0
  0
LINE
  5
289
  8
0
 62
     7
 10
122.015
 20
256.84899999999999
 30
0.0
 11
119.803
 21
256.25599999999997
 31
0.0
  0
LINE
  5
28A
  8
0
 62
     7
 10
119.803
 20
256.25599999999997
 30
0.0
 11
122.015
 21
255.66300000000001
 31
0.0
  0
LINE
  5
28B
  8
0
 62
     7
 10
122.015
 20
255.66300000000001
 30
0.0
 11
122.015
 21
256.84899999999999
 31
0.0
  0
LINE
  5
28C
  8
0
 62
     7
 10
178.17500000000001
 20
256.25599999999997
 30
0.0
 11
106.85599999999999
 21
256.25599999999997
 31
0.0
  0
LINE
  5
28D
  8
0
 62
     7
 10
162.59299999999999
 20
210.453
 30
0.0
 11
164.804
 21
211.04499999999999
 31
0.0
  0
LINE
  5
28E
  8
0
 62
     7
 10
164.804
 20
211.04499999999999
 30
0.0
 11
162.59299999999999
 21
211.63800000000001
 31
0.0
  0
LINE
  5
28F
  8
0
 62
     7
 10
162.59299999999999
 20
211.63800000000001
 30
0.0
 11
162.59299999999999
 21
210.453
 31
0.0
  0
LINE
  5
290
  8
0
 62
     7
 10
122.01300000000001
 20
211.62299999999999
 30
0.0
 11
119.80200000000001
 21
211.03100000000001
 31
0.0
  0
LINE
  5
291
  8
0
 62
     7
 10
119.80200000000001
 20
211.03100000000001
 30
0.0
 11
122.01300000000001
 21
210.43799999999999
 31
0.0
  0
LINE
  5
292
  8
0
 62
     7
 10
122.01300000000001
 20
210.43799999999999
 30
0.0
 11
122.01300000000001
 21
211.62299999999999
 31
0.0
  0
LINE
  5
293
  8
0
 62
     7
 10
164.803
 20
211.03800000000001
 30
0.0
 11
119.803
 21
211.03800000000001
 31
0.0
  0
LINE
  5
294
  8
0
 62
     7
 10
163.803
 20
218.80799999999999
 30
0.0
 11
120.803
 21
218.80799999999999
 31
0.0
  0
LINE
  5
295
  8
0
 62
     7
 10
163.803
 20
248.30799999999999
 30
0.0
 11
120.803
 21
248.30799999999999
 31
0.0
  0
TEXT
  5
296
  8
_________2
 62
     7
 10
29.525700000000001
 20
22.2272
 30
0.0
 40
3.9357000000000002
  1
実容量：10.6L、重量9.9kg、オーバーフロー付
 41
0.5
  0
LINE
  5
297
  8
_________2
 62
     7
 10
105.239
 20
17.4285
 30
0.0
 11
105.239
 21
0.4485540000000001
 31
0.0
  0
LINE
  5
298
  8
_________2
 62
     7
 10
81.679900000000004
 20
51.324300000000001
 30
0.0
 11
79.493700000000004
 21
51.324300000000001
 31
0.0
  0
LINE
  5
299
  8
_________2
 62
     7
 10
82.172600000000017
 20
51.324300000000001
 30
0.0
 11
81.920400000000001
 21
51.324300000000001
 31
0.0
  0
LINE
  5
29A
  8
_________2
 62
     7
 10
82.665199999999984
 20
51.324300000000001
 30
0.0
 11
85.590100000000007
 21
51.324300000000001
 31
0.0
  0
LINE
  5
29B
  8
_________2
 62
     7
 10
82.172600000000017
 20
51.324300000000001
 30
0.0
 11
82.424800000000005
 21
51.324300000000001
 31
0.0
  0
LINE
  5
29C
  8
_________2
 62
     7
 10
75.776399999999995
 20
51.324300000000001
 30
0.0
 11
73.589399999999998
 21
51.324300000000001
 31
0.0
  0
LINE
  5
29D
  8
_________2
 62
     7
 10
76.2684
 20
51.324300000000001
 30
0.0
 11
76.016900000000007
 21
51.324300000000001
 31
0.0
  0
LINE
  5
29E
  8
_________2
 62
     7
 10
76.2684
 20
51.817
 30
0.0
 11
76.2684
 21
54.003900000000002
 31
0.0
  0
LINE
  5
29F
  8
_________2
 62
     7
 10
76.2684
 20
51.324300000000001
 30
0.0
 11
76.2684
 21
51.576900000000002
 31
0.0
  0
LINE
  5
2A0
  8
_________2
 62
     7
 10
76.76100000000001
 20
51.324300000000001
 30
0.0
 11
78.947999999999993
 21
51.324300000000001
 31
0.0
  0
LINE
  5
2A1
  8
_________2
 62
     7
 10
76.2684
 20
51.324300000000001
 30
0.0
 11
76.520499999999998
 21
51.324300000000001
 31
0.0
  0
LINE
  5
2A2
  8
_________2
 62
     7
 10
76.2684
 20
50.832399999999993
 30
0.0
 11
76.2684
 21
48.645699999999998
 31
0.0
  0
LINE
  5
2A3
  8
_________2
 62
     7
 10
76.2684
 20
51.324300000000001
 30
0.0
 11
76.2684
 21
51.072800000000001
 31
0.0
  0
LINE
  5
2A4
  8
_________2
 62
     7
 10
79.979399999999984
 20
50.104799999999997
 30
0.0
 11
85.157399999999996
 21
49.240000000000002
 31
0.0
  0
LINE
  5
2A5
  8
_________2
 62
     7
 10
79.979399999999984
 20
52.544199999999989
 30
0.0
 11
85.157399999999996
 21
53.409700000000001
 31
0.0
  0
LINE
  5
2A6
  8
_________2
 62
     7
 10
85.157399999999996
 20
49.240000000000002
 30
0.0
 11
85.157399999999996
 21
53.409700000000001
 31
0.0
  0
LINE
  5
2A7
  8
_________2
 62
     7
 10
79.979399999999984
 20
50.104799999999997
 30
0.0
 11
79.979399999999984
 21
52.544199999999989
 31
0.0
  0
ARC
  5
2A8
  8
_________2
 62
     7
 10
76.221766000000002
 20
51.277380999999998
 30
0.0
 40
1.267714
 50
2.1220840000000001
 51
87.894083999999992
  0
ARC
  5
2A9
  8
_________2
 62
     7
 10
76.315297000000001
 20
51.277734999999993
 30
0.0
 40
1.267374999999999
 50
92.122849999999985
 51
177.893304
  0
ARC
  5
2AA
  8
_________2
 62
     7
 10
76.315273000000005
 20
51.371245999999992
 30
0.0
 40
1.267363
 50
182.121815
 51
267.87821400000001
  0
ARC
  5
2AB
  8
_________2
 62
     7
 10
76.221461000000005
 20
51.371928999999987
 30
0.0
 40
1.2680439999999991
 50
272.11916400000001
 51
357.84848499999998
  0
ARC
  5
2AC
  8
_________2
 62
     7
 10
76.187981999999991
 20
51.244312999999998
 30
0.0
 40
2.1668310000000002
 50
2.1161439999999989
 51
87.874379000000005
  0
ARC
  5
2AD
  8
_________2
 62
     7
 10
76.348411999999996
 20
51.245334999999997
 30
0.0
 40
2.1657980000000001
 50
92.118487999999999
 51
177.909886
  0
ARC
  5
2AE
  8
_________2
 62
     7
 10
76.348354
 20
51.404327000000002
 30
0.0
 40
2.1657779999999991
 50
182.11700400000001
 51
267.88302499999998
  0
ARC
  5
2AF
  8
_________2
 62
     7
 10
76.188378999999983
 20
51.405009999999997
 30
0.0
 40
2.1664590000000001
 50
272.11546800000002
 51
357.86560400000002
  0
TEXT
  5
2B0
  8
_________2
 62
     7
 10
109.544
 20
23.199100000000001
 30
0.0
 40
3.0923400000000001
  1
図番
 41
0.5
  0
LINE
  5
2B1
  8
_________2
 62
     7
 10
108.489
 20
27.4283
 30
0.0
 11
188.49000000000001
 21
27.4283
 31
0.0
  0
TEXT
  5
2B2
  8
_________2
 62
     7
 10
109.544
 20
33.198900000000002
 30
0.0
 40
3.0923400000000001
  1
品番
 41
0.5
  0
TEXT
  5
2B3
  8
_________2
 62
     7
 10
109.544
 20
53.338000000000001
 30
0.0
 40
3.0923400000000001
  1
名称
 41
0.5
  0
TEXT
  5
2B4
  8
_________2
 62
     7
 10
96.784058333333334
 20
48.341900000000003
 30
0.0
 40
3.6545800000000002
  1
mm
 41
0.5
 72
     1
 11
98.306799999999996
 21
48.341900000000003
 31
0.0
  0
TEXT
  5
2B5
  8
_________2
 62
     7
 10
90.582099999999997
 20
53.338000000000001
 30
0.0
 40
3.0923400000000001
  1
単位
 41
0.5
  0
TEXT
  5
2B6
  8
_________2
 62
     7
 10
90.582099999999997
 20
40.930399999999999
 30
0.0
 40
3.0923400000000001
  1
尺度
 41
0.5
  0
TEXT
  5
2B7
  8
_________2
 62
     7
 10
95.030836166666674
 20
34.7378
 30
0.0
 40
3.6545800000000002
  1
1 ： 10
 41
0.5
 72
     1
 11
98.898600000000002
 21
34.7378
 31
0.0
  0
TEXT
  5
2B8
  8
_________2
 62
     7
 10
142.257475
 20
30.627800000000001
 30
0.0
 40
3.9357000000000002
  1
CEL1692
 41
0.5
 72
     1
 11
148.489
 21
30.627800000000001
 31
0.0
  0
TEXT
  5
2B9
  8
_________2
 62
     7
 10
142.257475
 20
20.626999999999999
 30
0.0
 40
3.9357000000000002
  1
CEL1692
 41
0.5
 72
     1
 11
148.489
 21
20.626999999999999
 31
0.0
  0
TEXT
  5
2BA
  8
_________2
 62
     7
 10
114.11799999999999
 20
46.795699999999997
 30
0.0
 40
3.9357000000000002
  1
セラオリジナルコレクション
 41
0.5
  0
TEXT
  5
2BB
  8
_________2
 62
     7
 10
114.11799999999999
 20
41.876100000000001
 30
0.0
 40
3.9357000000000002
  1
アンダーカウンター式洗面器
 41
0.5
  0
TEXT
  5
2BC
  8
_________2
 62
     7
 10
44.303290666666669
 20
35.123000000000012
 30
0.0
 40
3.6545800000000002
  1
篠崎
 41
0.5
 72
     1
 11
46.252400000000002
 21
35.123000000000012
 31
0.0
  0
TEXT
  5
2BD
  8
_________2
 62
     7
 10
25.729290666666671
 20
35.123000000000012
 30
0.0
 40
3.6545800000000002
  1
菅原
 41
0.5
 72
     1
 11
27.6784
 21
35.123000000000012
 31
0.0
  0
TEXT
  5
2BE
  8
_________2
 62
     7
 10
72.724699999999999
 20
34.7378
 30
0.0
 40
3.6545800000000002
  1
17.12.05
 41
0.5
  0
TEXT
  5
2BF
  8
_________2
 62
     7
 10
71.531999999999996
 20
40.930399999999999
 30
0.0
 40
3.0923400000000001
  1
日付
 41
0.5
  0
TEXT
  5
2C0
  8
_________2
 62
     7
 10
34.578299999999999
 20
40.930399999999999
 30
0.0
 40
3.0923400000000001
  1
検図
 41
0.5
  0
TEXT
  5
2C1
  8
_________2
 62
     7
 10
22.9602
 20
26.731000000000002
 30
0.0
 40
3.0923400000000001
  1
備考
 41
0.5
  0
TEXT
  5
2C2
  8
_________2
 62
     7
 10
22.9602
 20
40.930399999999999
 30
0.0
 40
3.0923400000000001
  1
製図
 41
0.5
  0
TEXT
  5
2C3
  8
_________2
 62
     7
 10
28.727365333333339
 20
49.456400000000002
 30
0.0
 40
4.4979399999999989
  1
セラトレーディング株式会社
 41
0.5
 72
     1
 11
46.119399999999992
 21
49.456400000000002
 31
0.0
  0
LINE
  5
2C4
  8
_________2
 62
     7
 10
188.49000000000001
 20
17.4285
 30
0.0
 11
21.988499999999998
 21
17.4285
 31
0.0
  0
LINE
  5
2C5
  8
_________2
 62
     7
 10
21.988499999999998
 20
17.4285
 30
0.0
 11
21.988499999999998
 21
280.43000000000001
 31
0.0
  0
LINE
  5
2C6
  8
_________2
 62
     7
 10
21.988499999999998
 20
280.43000000000001
 30
0.0
 11
188.49000000000001
 21
280.43000000000001
 31
0.0
  0
LINE
  5
2C7
  8
_________2
 62
     7
 10
188.49000000000001
 20
280.43000000000001
 30
0.0
 11
188.49000000000001
 21
17.4285
 31
0.0
  0
LINE
  5
2C8
  8
_________2
 62
     7
 10
70.488799999999998
 20
30.928899999999999
 30
0.0
 11
70.488799999999998
 21
57.428699999999992
 31
0.0
  0
LINE
  5
2C9
  8
_________2
 62
     7
 10
89.488600000000005
 20
30.928899999999999
 30
0.0
 11
89.488600000000005
 21
57.428699999999992
 31
0.0
  0
LINE
  5
2CA
  8
_________2
 62
     7
 10
108.489
 20
17.4285
 30
0.0
 11
108.489
 21
57.428699999999992
 31
0.0
  0
LINE
  5
2CB
  8
_________2
 62
     7
 10
33.488300000000002
 20
30.928899999999999
 30
0.0
 11
33.488300000000002
 21
44.928800000000003
 31
0.0
  0
LINE
  5
2CC
  8
_________2
 62
     7
 10
21.988499999999998
 20
30.928899999999999
 30
0.0
 11
108.489
 21
30.928899999999999
 31
0.0
  0
LINE
  5
2CD
  8
_________2
 62
     7
 10
21.988499999999998
 20
44.928800000000003
 30
0.0
 11
108.489
 21
44.928800000000003
 31
0.0
  0
LINE
  5
2CE
  8
_________2
 62
     7
 10
108.489
 20
37.428100000000001
 30
0.0
 11
188.49000000000001
 21
37.428100000000001
 31
0.0
  0
LINE
  5
2CF
  8
_________2
 62
     7
 10
21.988499999999998
 20
57.428699999999992
 30
0.0
 11
188.49000000000001
 21
57.428699999999992
 31
0.0
  0
LINE
  5
2D0
  8
_________2
 62
     7
 10
210.24000000000001
 20
148.93100000000001
 30
0.0
 11
188.489
 21
148.93100000000001
 31
0.0
  0
LINE
  5
2D1
  8
_________2
 62
     7
 10
105.239
 20
297.45100000000002
 30
0.0
 11
105.239
 21
280.43000000000001
 31
0.0
  0
LINE
  5
2D2
  8
_________2
 62
     7
 10
21.988499999999998
 20
148.93100000000001
 30
0.0
 11
0.238402
 21
148.93100000000001
 31
0.0
  0
ENDSEC
  0
EOF
