  0
SECTION
  2
HEADER
  9
$ACADVER
  1
AC1009
  9
$INSBASE
 10
0.0
 20
0.0
 30
0.0
  9
$EXTMIN
 10
0.238402
 20
0.4485540000000001
 30
0.0
  9
$EXTMAX
 10
210.24000000000001
 20
297.45100000000002
 30
0.0
  9
$LIMMIN
 10
0.0
 20
0.0
  9
$LIMMAX
 10
12.0
 20
9.0
  9
$ORTHOMODE
 70
     0
  9
$REGENMODE
 70
     1
  9
$FILLMODE
 70
     1
  9
$QTEXTMODE
 70
     0
  9
$MIRRTEXT
 70
     1
  9
$DRAGMODE
 70
     2
  9
$LTSCALE
 40
1.0
  9
$OSMODE
 70
    37
  9
$ATTMODE
 70
     1
  9
$TEXTSIZE
 40
0.0
  9
$TRACEWID
 40
0.05
  9
$TEXTSTYLE
  7
STANDARD
  9
$CLAYER
  8
0
  9
$CELTYPE
  6
CONTINUOUS
  9
$CECOLOR
 62
   256
  9
$DIMSCALE
 40
1.0
  9
$DIMASZ
 40
0.18
  9
$DIMEXO
 40
0.0625
  9
$DIMDLI
 40
0.38
  9
$DIMRND
 40
0.0
  9
$DIMDLE
 40
0.0
  9
$DIMEXE
 40
0.18
  9
$DIMTP
 40
0.0
  9
$DIMTM
 40
0.0
  9
$DIMTXT
 40
0.18
  9
$DIMCEN
 40
0.09
  9
$DIMTSZ
 40
0.0
  9
$DIMTOL
 70
     0
  9
$DIMLIM
 70
     0
  9
$DIMTIH
 70
     1
  9
$DIMTOH
 70
     1
  9
$DIMSE1
 70
     0
  9
$DIMSE2
 70
     0
  9
$DIMTAD
 70
     0
  9
$DIMZIN
 70
     0
  9
$DIMBLK
  1

  9
$DIMASO
 70
     1
  9
$DIMSHO
 70
     1
  9
$DIMPOST
  1

  9
$DIMAPOST
  1

  9
$DIMALT
 70
     0
  9
$DIMALTD
 70
     2
  9
$DIMALTF
 40
25.399999999999999
  9
$DIMLFAC
 40
1.0
  9
$DIMTOFL
 70
     0
  9
$DIMTVP
 40
0.0
  9
$DIMTIX
 70
     0
  9
$DIMSOXD
 70
     0
  9
$DIMSAH
 70
     0
  9
$DIMBLK1
  1

  9
$DIMBLK2
  1

  9
$DIMSTYLE
  2
STANDARD
  9
$DIMCLRD
 70
     0
  9
$DIMCLRE
 70
     0
  9
$DIMCLRT
 70
     0
  9
$DIMTFAC
 40
1.0
  9
$DIMGAP
 40
0.09
  9
$LUNITS
 70
     2
  9
$LUPREC
 70
     4
  9
$SKETCHINC
 40
0.1
  9
$FILLETRAD
 40
0.0
  9
$AUNITS
 70
     0
  9
$AUPREC
 70
     0
  9
$MENU
  1
.
  9
$ELEVATION
 40
0.0
  9
$PELEVATION
 40
0.0
  9
$THICKNESS
 40
0.0
  9
$LIMCHECK
 70
     0
  9
$BLIPMODE
 70
     0
  9
$CHAMFERA
 40
0.0
  9
$CHAMFERB
 40
0.0
  9
$SKPOLY
 70
     0
  9
$TDCREATE
 40
2444972.375
  9
$TDUPDATE
 40
2458180.247915023
  9
$TDINDWG
 40
0.0000361921
  9
$TDUSRTIMER
 40
0.0000361921
  9
$USRTIMER
 70
     1
  9
$ANGBASE
 50
0.0
  9
$ANGDIR
 70
     0
  9
$PDMODE
 70
     0
  9
$PDSIZE
 40
0.0
  9
$PLINEWID
 40
0.0
  9
$COORDS
 70
     1
  9
$SPLFRAME
 70
     0
  9
$SPLINETYPE
 70
     6
  9
$SPLINESEGS
 70
     8
  9
$ATTDIA
 70
     1
  9
$ATTREQ
 70
     1
  9
$HANDLING
 70
     1
  9
$HANDSEED
  5
474
  9
$SURFTAB1
 70
     6
  9
$SURFTAB2
 70
     6
  9
$SURFTYPE
 70
     6
  9
$SURFU
 70
     6
  9
$SURFV
 70
     6
  9
$UCSNAME
  2

  9
$UCSORG
 10
0.0
 20
0.0
 30
0.0
  9
$UCSXDIR
 10
1.0
 20
0.0
 30
0.0
  9
$UCSYDIR
 10
0.0
 20
1.0
 30
0.0
  9
$PUCSNAME
  2

  9
$PUCSORG
 10
0.0
 20
0.0
 30
0.0
  9
$PUCSXDIR
 10
1.0
 20
0.0
 30
0.0
  9
$PUCSYDIR
 10
0.0
 20
1.0
 30
0.0
  9
$USERI1
 70
     0
  9
$USERI2
 70
     0
  9
$USERI3
 70
     0
  9
$USERI4
 70
     0
  9
$USERI5
 70
     0
  9
$USERR1
 40
0.0
  9
$USERR2
 40
0.0
  9
$USERR3
 40
0.0
  9
$USERR4
 40
0.0
  9
$USERR5
 40
0.0
  9
$WORLDVIEW
 70
     1
  9
$SHADEDGE
 70
     3
  9
$SHADEDIF
 70
    70
  9
$TILEMODE
 70
     1
  9
$MAXACTVP
 70
    48
  9
$PLIMCHECK
 70
     0
  9
$PEXTMIN
 10
1.0000000000000000E+020
 20
1.0000000000000000E+020
 30
1.0000000000000000E+020
  9
$PEXTMAX
 10
-1.0000000000000000E+020
 20
-1.0000000000000000E+020
 30
-1.0000000000000000E+020
  9
$PLIMMIN
 10
0.0
 20
0.0
  9
$PLIMMAX
 10
12.0
 20
9.0
  9
$UNITMODE
 70
     0
  9
$VISRETAIN
 70
     1
  9
$PLINEGEN
 70
     0
  9
$PSLTSCALE
 70
     1
  0
ENDSEC
  0
SECTION
  2
TABLES
  0
TABLE
  2
VPORT
 70
     1
  0
VPORT
  2
*ACTIVE
 70
     0
 10
0.0
 20
0.0
 11
1.0
 21
1.0
 12
235.83622679445031
 22
148.72550000000001
 13
0.0
 23
0.0
 14
1.0
 24
1.0
 15
0.0
 25
0.0
 16
0.0
 26
0.0
 36
1.0
 17
0.0
 27
0.0
 37
0.0
 40
285.74789818477859
 41
2.5432937181663831
 42
50.0
 43
0.0
 44
0.0
 50
0.0
 51
0.0
 71
     0
 72
   100
 73
     1
 74
     1
 75
     0
 76
     0
 77
     0
 78
     0
  0
ENDTAB
  0
TABLE
  2
LTYPE
 70
     4
  0
LTYPE
  2
CONTINUOUS
 70
     0
  3
Solid line
 72
    65
 73
     0
 40
0.0
  0
LTYPE
  2
AIGENLINE001
 70
     0
  3
generate AI->DXF Converter
 72
    65
 73
     4
 40
5.8561449999999988
 49
3.5278
 49
-0.776115
 49
0.776115
 49
-0.776115
  0
LTYPE
  2
AIGENLINE002
 70
     0
  3
generate AI->DXF Converter
 72
    65
 73
     2
 40
1.5522299999999991
 49
0.776115
 49
-0.776115
  0
LTYPE
  2
AIGENLINE003
 70
     0
  3
generate AI->DXF Converter
 72
    65
 73
     6
 40
7.4083750000000004
 49
3.5278
 49
-0.776115
 49
0.776115
 49
-0.776115
 49
0.776115
 49
-0.776115
  0
ENDTAB
  0
TABLE
  2
LAYER
 70
     2
  0
LAYER
  2
0
 70
     0
 62
     7
  6
CONTINUOUS
  0
LAYER
  2
_________2
 70
     0
 62
     7
  6
CONTINUOUS
  0
ENDTAB
  0
TABLE
  2
STYLE
 70
     1
  0
STYLE
  2
STANDARD
 70
     0
 40
0.0
 41
0.0
 50
0.0
 71
     0
 42
0.0
  3
TXT
  4
EXTFONT.SHX
  0
ENDTAB
  0
TABLE
  2
VIEW
 70
     0
  0
ENDTAB
  0
TABLE
  2
UCS
 70
     0
  0
ENDTAB
  0
TABLE
  2
APPID
 70
     3
  0
APPID
  2
ACAD
 70
     0
  0
APPID
  2
ACAD_NAV_VCDISPLAY
 70
     0
  0
APPID
  2
ACAD_MLEADERVER
 70
     0
  0
ENDTAB
  0
TABLE
  2
DIMSTYLE
 70
     1
  0
DIMSTYLE
  2
STANDARD
 70
     0
  3

  4

  5

  6

  7

 40
1.0
 41
0.18
 42
0.0625
 43
0.38
 44
0.18
 45
0.0
 46
0.0
 47
0.0
 48
0.0
140
0.18
141
0.09
142
0.0
143
25.399999999999999
144
1.0
145
0.0
146
1.0
147
0.09
 71
     0
 72
     0
 73
     1
 74
     1
 75
     0
 76
     0
 77
     0
 78
     0
170
     0
171
     2
172
     0
173
     0
174
     0
175
     0
176
     0
177
     0
178
     0
  0
ENDTAB
  0
ENDSEC
  0
SECTION
  2
BLOCKS
  0
BLOCK
  8
0
  2
$MODEL_SPACE
 70
     0
 10
0.0
 20
0.0
 30
0.0
  3
$MODEL_SPACE
  1

  0
ENDBLK
  5
1A
  8
0
  0
BLOCK
 67
     1
  8
0
  2
$PAPER_SPACE
 70
     0
 10
0.0
 20
0.0
 30
0.0
  3
$PAPER_SPACE
  1

  0
ENDBLK
  5
17
 67
     1
  8
0
  0
ENDSEC
  0
SECTION
  2
ENTITIES
  0
TEXT
  5
24
  8
0
 62
     7
 10
67.359800000000007
 20
198.142
 30
0.0
 40
3.0923400000000001
  1
R10
 41
0.5
  0
TEXT
  5
25
  8
0
 62
     7
 10
57.023764999999997
 20
198.142
 30
0.0
 40
3.0923400000000001
  1
R10
 41
0.5
 72
     2
 11
60.373800000000003
 21
198.142
 31
0.0
  0
TEXT
  5
26
  8
0
 62
     7
 10
164.404
 20
232.667
 30
0.0
 40
3.0923400000000001
  1
〈付属品〉
 50
90.0
 41
0.5
  0
TEXT
  5
27
  8
0
 62
     7
 10
168.27000000000001
 20
232.667
 30
0.0
 40
3.0923400000000001
  1
洗面器固定金具\U+00D74
 50
90.0
 41
0.5
  0
TEXT
  5
28
  8
0
 62
     7
 10
172.13499999999999
 20
232.667
 30
0.0
 40
3.0923400000000001
  1
%%c5\U+00D720SUSねじ付
 50
90.0
 41
0.5
  0
TEXT
  5
29
  8
0
 62
     7
 10
176.001
 20
232.667
 30
0.0
 40
3.0923400000000001
  1
（尺度 1：3）
 50
90.0
 41
0.5
  0
TEXT
  5
2A
  8
0
 62
     7
 10
129.26300000000001
 20
241.69399999999999
 30
0.0
 40
3.0923400000000001
  1
12.5
 50
90.0
 41
0.5
  0
TEXT
  5
2B
  8
0
 62
     7
 10
144.685
 20
244.76688799999999
 30
0.0
 40
3.0923400000000001
  1
両面テープ付
 50
90.0
 41
0.5
 72
     2
 11
144.685
 21
255.48699999999999
 31
0.0
  0
TEXT
  5
2C
  8
0
 62
     7
 10
134.10599999999999
 20
242.73537250000001
 30
0.0
 40
3.0923400000000001
  1
50
 50
90.0
 41
0.5
 72
     1
 11
134.10599999999999
 21
243.89500000000001
 31
0.0
  0
TEXT
  5
2D
  8
0
 62
     7
 10
150.67304999999999
 20
258.11099999999999
 30
0.0
 40
3.0923400000000001
  1
1.5
 41
0.5
 72
     2
 11
153.25
 21
258.11099999999999
 31
0.0
  0
TEXT
  5
2E
  8
0
 62
     7
 10
150.62222
 20
230.845
 30
0.0
 40
3.0923400000000001
  1
19
 41
0.5
 72
     1
 11
151.65299999999999
 21
230.845
 31
0.0
  0
TEXT
  5
2F
  8
0
 62
     7
 10
118.7203725
 20
259.03899999999999
 30
0.0
 40
3.0923400000000001
  1
30
 41
0.5
 72
     1
 11
119.88
 21
259.03899999999999
 31
0.0
  0
TEXT
  5
30
  8
0
 62
     7
 10
61.286599999999993
 20
111.35899999999999
 30
0.0
 40
3.0923400000000001
  1
%%c44
 50
90.0
 41
0.5
  0
TEXT
  5
31
  8
0
 62
     7
 10
61.305340000000001
 20
72.906599999999983
 30
0.0
 40
3.0923400000000001
  1
375
 41
0.5
 72
     1
 11
63.366900000000001
 21
72.906599999999983
 31
0.0
  0
TEXT
  5
32
  8
0
 62
     7
 10
38.921900000000001
 20
80.129300000000001
 30
0.0
 40
3.0923400000000001
  1
35
 41
0.5
  0
TEXT
  5
33
  8
0
 62
     7
 10
140.488135
 20
203.477
 30
0.0
 40
3.0923400000000001
  1
135
 41
0.5
 72
     1
 11
142.292
 21
203.477
 31
0.0
  0
TEXT
  5
34
  8
0
 62
     7
 10
129.69200000000001
 20
173.042
 30
0.0
 40
3.0923400000000001
  1
26
 41
0.5
  0
TEXT
  5
35
  8
0
 62
     7
 10
85.080750000000009
 20
80.129300000000001
 30
0.0
 40
3.0923400000000001
  1
25
 41
0.5
 72
     2
 11
87.657700000000006
 21
80.129300000000001
 31
0.0
  0
TEXT
  5
36
  8
0
 62
     7
 10
142.86698250000001
 20
79.489199999999997
 30
0.0
 40
3.0923400000000001
  1
180
 41
0.5
 72
     1
 11
144.542
 21
79.489199999999997
 31
0.0
  0
TEXT
  5
37
  8
0
 62
     7
 10
62.062935000000003
 20
80.129300000000001
 30
0.0
 40
3.0923400000000001
  1
315
 41
0.5
 72
     1
 11
63.866799999999998
 21
80.129300000000001
 31
0.0
  0
TEXT
  5
38
  8
0
 62
     7
 10
92.871899999999997
 20
160.49504999999999
 30
0.0
 40
3.0923400000000001
  1
25
 50
90.0
 41
0.5
 72
     2
 11
92.871899999999997
 21
163.072
 31
0.0
  0
TEXT
  5
39
  8
0
 62
     7
 10
99.212999999999994
 20
120.94544
 30
0.0
 40
3.0923400000000001
  1
685
 50
90.0
 41
0.5
 72
     1
 11
99.212999999999994
 21
123.00700000000001
 31
0.0
  0
TEXT
  5
3A
  8
0
 62
     7
 10
159.86500000000001
 20
208.28683000000001
 30
0.0
 40
3.0923400000000001
  1
115
 50
90.0
 41
0.5
 72
     1
 11
159.86500000000001
 21
209.833
 31
0.0
  0
TEXT
  5
3B
  8
0
 62
     7
 10
92.871899999999997
 20
120.94544
 30
0.0
 40
3.0923400000000001
  1
635
 50
90.0
 41
0.5
 72
     1
 11
92.871899999999997
 21
123.00700000000001
 31
0.0
  0
TEXT
  5
3C
  8
0
 62
     7
 10
92.871899999999997
 20
83.459000000000003
 30
0.0
 40
3.0923400000000001
  1
25
 50
90.0
 41
0.5
  0
TEXT
  5
3D
  8
0
 62
     7
 10
102.64400000000001
 20
213.96075999999999
 30
0.0
 40
3.0923400000000001
  1
カウンター切込寸法
 50
90.0
 41
0.5
 72
     1
 11
102.64400000000001
 21
222.20699999999999
 31
0.0
  0
TEXT
  5
3E
  8
0
 62
     7
 10
92.914000000000016
 20
202.20128199999999
 30
0.0
 40
3.0923400000000001
  1
洗面器固定用カウンター裏補強木（t30～40）
 50
90.0
 41
0.5
 72
     2
 11
92.914000000000016
 21
241.47399999999999
 31
0.0
  0
TEXT
  5
3F
  8
0
 62
     7
 10
40.118899999999996
 20
181.1684295
 30
0.0
 40
3.0923400000000001
  1
50以上
 50
90.0
 41
0.5
 72
     1
 11
40.118899999999996
 21
184.23500000000001
 31
0.0
  0
TEXT
  5
40
  8
0
 62
     7
 10
44.601300000000002
 20
187.91852499999999
 30
0.0
 40
3.0923400000000001
  1
45
 50
90.0
 41
0.5
 72
     1
 11
44.601300000000002
 21
189.20699999999999
 31
0.0
  0
TEXT
  5
41
  8
0
 62
     7
 10
40.118899999999996
 20
256.80242950000002
 30
0.0
 40
3.0923400000000001
  1
50以上
 50
90.0
 41
0.5
 72
     1
 11
40.118899999999996
 21
259.86900000000003
 31
0.0
  0
TEXT
  5
42
  8
0
 62
     7
 10
44.601300000000002
 20
253.91852499999999
 30
0.0
 40
3.0923400000000001
  1
45
 50
90.0
 41
0.5
 72
     1
 11
44.601300000000002
 21
255.20699999999999
 31
0.0
  0
TEXT
  5
43
  8
0
 62
     7
 10
40.468899999999998
 20
234.61850749999999
 30
0.0
 40
3.0923400000000001
  1
307.5
 50
90.0
 41
0.5
 72
     1
 11
40.468899999999998
 21
237.58199999999999
 31
0.0
  0
TEXT
  5
44
  8
0
 62
     7
 10
40.468899999999998
 20
203.86850749999999
 30
0.0
 40
3.0923400000000001
  1
307.5
 50
90.0
 41
0.5
 72
     1
 11
40.468899999999998
 21
206.83199999999999
 31
0.0
  0
TEXT
  5
45
  8
0
 62
     7
 10
85.687100000000015
 20
220.40313499999999
 30
0.0
 40
3.0923400000000001
  1
615
 50
90.0
 41
0.5
 72
     1
 11
85.687100000000015
 21
222.20699999999999
 31
0.0
  0
TEXT
  5
46
  8
0
 62
     7
 10
51.457172499999999
 20
233.36799999999999
 30
0.0
 40
3.0923400000000001
  1
70
 41
0.5
 72
     1
 11
52.616799999999998
 21
233.36799999999999
 31
0.0
  0
TEXT
  5
47
  8
0
 62
     7
 10
61.805239999999998
 20
238.58000000000001
 30
0.0
 40
3.0923400000000001
  1
295
 41
0.5
 72
     1
 11
63.866799999999998
 21
238.58000000000001
 31
0.0
  0
LINE
  5
48
  8
0
 62
     7
 10
67.359800000000007
 20
197.44200000000001
 30
0.0
 11
72.718999999999994
 21
197.44200000000001
 31
0.0
  0
LINE
  5
49
  8
0
 62
     7
 10
55.014600000000002
 20
197.44200000000001
 30
0.0
 11
60.373800000000003
 21
197.44200000000001
 31
0.0
  0
ARC
  5
4A
  8
0
 62
     7
 10
119.880262
 20
248.89077399999999
 30
0.0
 40
1.000289999999999
 50
89.990132999999986
 51
179.990104
  0
ARC
  5
4B
  8
0
 62
     7
 10
119.84178
 20
248.85265000000001
 30
0.0
 40
1.0391330000000001
 50
2.1120659999999991
 51
87.868183999999985
  0
ARC
  5
4C
  8
0
 62
     7
 10
119.84180499999999
 20
247.26282900000001
 30
0.0
 40
1.0391209999999991
 50
272.1304970000001
 51
357.86951299999998
  0
ARC
  5
4D
  8
0
 62
     7
 10
119.91903600000001
 20
247.26351600000001
 30
0.0
 40
1.039806999999999
 50
182.167022
 51
267.87248099999999
  0
LINE
  5
4E
  8
0
  6
AIGENLINE001
 62
     7
 10
119.88
 20
245.64699999999999
 30
0.0
 11
119.88
 21
250.46799999999999
 31
0.0
  0
LINE
  5
4F
  8
0
  6
AIGENLINE001
 62
     7
 10
121.265
 20
248.05799999999999
 30
0.0
 11
118.47799999999999
 21
248.05799999999999
 31
0.0
  0
LINE
  5
50
  8
0
  6
AIGENLINE001
 62
     7
 10
118.321
 20
248.89099999999999
 30
0.0
 11
121.509
 21
248.89099999999999
 31
0.0
  0
LINE
  5
51
  8
0
  6
AIGENLINE001
 62
     7
 10
118.321
 20
247.22399999999999
 30
0.0
 11
121.509
 21
247.22399999999999
 31
0.0
  0
LINE
  5
52
  8
0
 62
     7
 10
118.88
 20
248.89099999999999
 30
0.0
 11
118.88
 21
247.22399999999999
 31
0.0
  0
LINE
  5
53
  8
0
 62
     7
 10
120.88
 20
248.89099999999999
 30
0.0
 11
120.88
 21
247.22399999999999
 31
0.0
  0
LINE
  5
54
  8
0
  6
AIGENLINE001
 62
     7
 10
153.054
 20
248.05799999999999
 30
0.0
 11
155.93600000000001
 21
248.05799999999999
 31
0.0
  0
LINE
  5
55
  8
0
 62
     7
 10
124.88
 20
240.55799999999999
 30
0.0
 11
114.88
 21
240.55799999999999
 31
0.0
  0
LINE
  5
56
  8
0
 62
     7
 10
124.547
 20
237.22399999999999
 30
0.0
 11
115.214
 21
237.22399999999999
 31
0.0
  0
LINE
  5
57
  8
0
 62
     7
 10
154.715
 20
252.852
 30
0.0
 11
154.715
 21
257.89800000000002
 31
0.0
  0
LINE
  5
58
  8
0
 62
     7
 10
154.21600000000001
 20
252.852
 30
0.0
 11
154.21600000000001
 21
257.89800000000002
 31
0.0
  0
LINE
  5
59
  8
0
 62
     7
 10
114.88
 20
252.22399999999999
 30
0.0
 11
114.88
 21
235.55799999999999
 31
0.0
  0
LINE
  5
5A
  8
0
 62
     7
 10
124.88
 20
235.55799999999999
 30
0.0
 11
114.88
 21
235.55799999999999
 31
0.0
  0
LINE
  5
5B
  8
0
 62
     7
 10
124.88
 20
252.22399999999999
 30
0.0
 11
124.88
 21
235.55799999999999
 31
0.0
  0
LINE
  5
5C
  8
0
 62
     7
 10
124.88
 20
252.22399999999999
 30
0.0
 11
114.88
 21
252.22399999999999
 31
0.0
  0
LINE
  5
5D
  8
0
 62
     7
 10
154.715
 20
252.22399999999999
 30
0.0
 11
154.715
 21
240.654
 31
0.0
  0
LINE
  5
5E
  8
0
 62
     7
 10
154.3829999999999
 20
240.077
 30
0.0
 11
148.88200000000001
 21
236.90100000000001
 31
0.0
  0
ARC
  5
5F
  8
0
 62
     7
 10
154.0373139999999
 20
240.66023300000001
 30
0.0
 40
0.6781080000000002
 50
300.60943400000002
 51
359.47465699999998
  0
LINE
  5
60
  8
0
 62
     7
 10
154.21600000000001
 20
240.59200000000001
 30
0.0
 11
148.715
 21
237.417
 31
0.0
  0
LINE
  5
61
  8
0
 62
     7
 10
148.38300000000001
 20
236.839
 30
0.0
 11
148.38300000000001
 21
235.55799999999999
 31
0.0
  0
ARC
  5
62
  8
0
 62
     7
 10
149.06442999999999
 20
236.83084500000001
 30
0.0
 40
0.681903
 50
120.78919399999999
 51
179.29485700000001
  0
LINE
  5
63
  8
0
 62
     7
 10
148.88200000000001
 20
236.90100000000001
 30
0.0
 11
148.88200000000001
 21
235.55799999999999
 31
0.0
  0
LINE
  5
64
  8
0
 62
     7
 10
148.88200000000001
 20
235.55799999999999
 30
0.0
 11
148.38300000000001
 21
235.55799999999999
 31
0.0
  0
LINE
  5
65
  8
0
 62
     7
 10
154.21600000000001
 20
252.22399999999999
 30
0.0
 11
154.21600000000001
 21
240.59200000000001
 31
0.0
  0
LINE
  5
66
  8
0
 62
     7
 10
154.715
 20
252.22399999999999
 30
0.0
 11
154.21600000000001
 21
252.22399999999999
 31
0.0
  0
LINE
  5
67
  8
0
 62
     7
 10
121.5
 20
248.05799999999999
 30
0.0
 11
130.47499999999999
 21
248.05799999999999
 31
0.0
  0
LINE
  5
68
  8
0
 62
     7
 10
130.44900000000001
 20
250.75
 30
0.0
 11
130.054
 21
252.22399999999999
 31
0.0
  0
LINE
  5
69
  8
0
 62
     7
 10
130.054
 20
252.22399999999999
 30
0.0
 11
129.65899999999999
 21
250.75
 31
0.0
  0
LINE
  5
6A
  8
0
 62
     7
 10
129.65899999999999
 20
250.75
 30
0.0
 11
130.44900000000001
 21
250.75
 31
0.0
  0
LINE
  5
6B
  8
0
 62
     7
 10
129.66900000000001
 20
249.53200000000001
 30
0.0
 11
130.06399999999999
 21
248.05799999999999
 31
0.0
  0
LINE
  5
6C
  8
0
 62
     7
 10
130.06399999999999
 20
248.05799999999999
 30
0.0
 11
130.459
 21
249.53200000000001
 31
0.0
  0
LINE
  5
6D
  8
0
 62
     7
 10
130.459
 20
249.53200000000001
 30
0.0
 11
129.66900000000001
 21
249.53200000000001
 31
0.0
  0
LINE
  5
6E
  8
0
 62
     7
 10
130.06399999999999
 20
252.22399999999999
 30
0.0
 11
130.06399999999999
 21
241.589
 31
0.0
  0
LINE
  5
6F
  8
0
 62
     7
 10
125.52200000000001
 20
235.55799999999999
 30
0.0
 11
135.405
 21
235.55799999999999
 31
0.0
  0
LINE
  5
70
  8
0
 62
     7
 10
125.52200000000001
 20
252.22399999999999
 30
0.0
 11
135.405
 21
252.22399999999999
 31
0.0
  0
LINE
  5
71
  8
0
 62
     7
 10
147.077
 20
237.227
 30
0.0
 11
148.399
 21
236.464
 31
0.0
  0
LINE
  5
72
  8
0
 62
     7
 10
148.399
 20
236.464
 30
0.0
 11
147.636
 21
237.786
 31
0.0
  0
LINE
  5
73
  8
0
 62
     7
 10
147.636
 20
237.786
 30
0.0
 11
147.077
 21
237.227
 31
0.0
  0
LINE
  5
74
  8
0
 62
     7
 10
145.64400000000001
 20
239.21899999999999
 30
0.0
 11
148.399
 21
236.464
 31
0.0
  0
LINE
  5
75
  8
0
 62
     7
 10
145.64400000000001
 20
255.49199999999999
 30
0.0
 11
145.64400000000001
 21
239.21899999999999
 31
0.0
  0
LINE
  5
76
  8
0
 62
     7
 10
135.37899999999999
 20
250.75
 30
0.0
 11
134.98400000000001
 21
252.22499999999999
 31
0.0
  0
LINE
  5
77
  8
0
 62
     7
 10
134.98400000000001
 20
252.22499999999999
 30
0.0
 11
134.589
 21
250.75
 31
0.0
  0
LINE
  5
78
  8
0
 62
     7
 10
134.589
 20
250.75
 30
0.0
 11
135.37899999999999
 21
250.75
 31
0.0
  0
LINE
  5
79
  8
0
 62
     7
 10
134.59899999999999
 20
237.03200000000001
 30
0.0
 11
134.99299999999999
 21
235.55799999999999
 31
0.0
  0
LINE
  5
7A
  8
0
 62
     7
 10
134.99299999999999
 20
235.55799999999999
 30
0.0
 11
135.38900000000001
 21
237.03200000000001
 31
0.0
  0
LINE
  5
7B
  8
0
 62
     7
 10
135.38900000000001
 20
237.03200000000001
 30
0.0
 11
134.59899999999999
 21
237.03200000000001
 31
0.0
  0
LINE
  5
7C
  8
0
 62
     7
 10
134.99299999999999
 20
252.22399999999999
 30
0.0
 11
134.99299999999999
 21
235.55799999999999
 31
0.0
  0
LINE
  5
7D
  8
0
 62
     7
 10
154.715
 20
239.62299999999999
 30
0.0
 11
154.715
 21
229.80099999999999
 31
0.0
  0
LINE
  5
7E
  8
0
 62
     7
 10
148.38300000000001
 20
234.94200000000001
 30
0.0
 11
148.38300000000001
 21
229.80099999999999
 31
0.0
  0
LINE
  5
7F
  8
0
 62
     7
 10
149.85599999999999
 20
230.60499999999999
 30
0.0
 11
148.38200000000001
 21
230.21000000000001
 31
0.0
  0
LINE
  5
80
  8
0
 62
     7
 10
148.38200000000001
 20
230.21000000000001
 30
0.0
 11
149.85599999999999
 21
229.815
 31
0.0
  0
LINE
  5
81
  8
0
 62
     7
 10
149.85599999999999
 20
229.815
 30
0.0
 11
149.85599999999999
 21
230.60499999999999
 31
0.0
  0
LINE
  5
82
  8
0
 62
     7
 10
153.24199999999999
 20
229.82499999999999
 30
0.0
 11
154.71600000000001
 21
230.22
 31
0.0
  0
LINE
  5
83
  8
0
 62
     7
 10
154.71600000000001
 20
230.22
 30
0.0
 11
153.24199999999999
 21
230.61500000000001
 31
0.0
  0
LINE
  5
84
  8
0
 62
     7
 10
153.24199999999999
 20
230.61500000000001
 30
0.0
 11
153.24199999999999
 21
229.82499999999999
 31
0.0
  0
LINE
  5
85
  8
0
 62
     7
 10
148.38300000000001
 20
230.21000000000001
 30
0.0
 11
154.715
 21
230.21000000000001
 31
0.0
  0
LINE
  5
86
  8
0
 62
     7
 10
124.88
 20
252.852
 30
0.0
 11
124.88
 21
259.03800000000001
 31
0.0
  0
LINE
  5
87
  8
0
 62
     7
 10
114.88
 20
252.852
 30
0.0
 11
114.88
 21
259.03800000000001
 31
0.0
  0
LINE
  5
88
  8
0
 62
     7
 10
156.19
 20
257.88200000000001
 30
0.0
 11
154.715
 21
257.48700000000002
 31
0.0
  0
LINE
  5
89
  8
0
 62
     7
 10
154.715
 20
257.48700000000002
 30
0.0
 11
156.19
 21
257.09199999999998
 31
0.0
  0
LINE
  5
8A
  8
0
 62
     7
 10
156.19
 20
257.09199999999998
 30
0.0
 11
156.19
 21
257.88200000000001
 31
0.0
  0
LINE
  5
8B
  8
0
 62
     7
 10
152.74100000000001
 20
257.09199999999998
 30
0.0
 11
154.21600000000001
 21
257.48700000000002
 31
0.0
  0
LINE
  5
8C
  8
0
 62
     7
 10
154.21600000000001
 20
257.48700000000002
 30
0.0
 11
152.74100000000001
 21
257.88200000000001
 31
0.0
  0
LINE
  5
8D
  8
0
 62
     7
 10
152.74100000000001
 20
257.88200000000001
 30
0.0
 11
152.74100000000001
 21
257.09199999999998
 31
0.0
  0
LINE
  5
8E
  8
0
 62
     7
 10
148.876
 20
257.48700000000002
 30
0.0
 11
157.16900000000001
 21
257.48700000000002
 31
0.0
  0
LINE
  5
8F
  8
0
 62
     7
 10
116.355
 20
259.02199999999999
 30
0.0
 11
114.88
 21
258.62700000000001
 31
0.0
  0
LINE
  5
90
  8
0
 62
     7
 10
114.88
 20
258.62700000000001
 30
0.0
 11
116.355
 21
258.23200000000003
 31
0.0
  0
LINE
  5
91
  8
0
 62
     7
 10
116.355
 20
258.23200000000003
 30
0.0
 11
116.355
 21
259.02199999999999
 31
0.0
  0
LINE
  5
92
  8
0
 62
     7
 10
123.40600000000001
 20
258.24099999999999
 30
0.0
 11
124.881
 21
258.63599999999991
 31
0.0
  0
LINE
  5
93
  8
0
 62
     7
 10
124.881
 20
258.63599999999991
 30
0.0
 11
123.40600000000001
 21
259.03100000000001
 31
0.0
  0
LINE
  5
94
  8
0
 62
     7
 10
123.40600000000001
 20
259.03100000000001
 30
0.0
 11
123.40600000000001
 21
258.24099999999999
 31
0.0
  0
LINE
  5
95
  8
0
 62
     7
 10
114.88
 20
258.62700000000001
 30
0.0
 11
124.88
 21
258.62700000000001
 31
0.0
  0
LINE
  5
96
  8
0
 62
     7
 10
52.578200000000002
 20
125.708
 30
0.0
 11
54.561199999999999
 21
124.563
 31
0.0
  0
LINE
  5
97
  8
0
 62
     7
 10
54.561199999999999
 20
124.563
 30
0.0
 11
53.416400000000003
 21
126.54600000000001
 31
0.0
  0
LINE
  5
98
  8
0
 62
     7
 10
53.416400000000003
 20
126.54600000000001
 30
0.0
 11
52.578200000000002
 21
125.708
 31
0.0
  0
LINE
  5
99
  8
0
 62
     7
 10
59.655299999999997
 20
120.306
 30
0.0
 11
57.672499999999999
 21
121.45099999999999
 31
0.0
  0
LINE
  5
9A
  8
0
 62
     7
 10
57.672499999999999
 20
121.45099999999999
 30
0.0
 11
58.81730000000001
 21
119.468
 31
0.0
  0
LINE
  5
9B
  8
0
 62
     7
 10
58.81730000000001
 20
119.468
 30
0.0
 11
59.655299999999997
 21
120.306
 31
0.0
  0
LINE
  5
9C
  8
0
 62
     7
 10
61.986600000000003
 20
117.137
 30
0.0
 11
52.0306
 21
127.093
 31
0.0
  0
LINE
  5
9D
  8
0
 62
     7
 10
61.986600000000003
 20
117.137
 30
0.0
 11
61.986600000000003
 21
111.35899999999999
 31
0.0
  0
ARC
  5
9E
  8
0
 62
     7
 10
48.414248000000001
 20
122.07727199999999
 30
0.0
 40
0.020659
 50
275.6996299999999
 51
321.27520700000002
  0
ARC
  5
9F
  8
0
 62
     7
 10
48.350717000000003
 20
122.12898800000001
 30
0.0
 40
0.102579
 50
320.938467
 51
341.24718300000001
  0
ARC
  5
A0
  8
0
 62
     7
 10
47.980252
 20
122.26772
 30
0.0
 40
0.498128
 50
339.836052
 51
348.84392500000001
  0
ARC
  5
A1
  8
0
 62
     7
 10
46.838869000000003
 20
122.50690400000001
 30
0.0
 40
1.6642790000000001
 50
348.367885
 51
353.24584700000003
  0
ARC
  5
A2
  8
0
 62
     7
 10
44.591906000000002
 20
122.78456199999999
 30
0.0
 40
3.9283190000000001
 50
353.07860099999999
 51
356.34021999999999
  0
ARC
  5
A3
  8
0
 62
     7
 10
41.53750999999999
 20
122.986919
 30
0.0
 40
6.9894069999999999
 50
356.28302300000013
 51
0.163616
  0
ARC
  5
A4
  8
0
 62
     7
 10
41.053946999999987
 20
123.00643100000001
 30
0.0
 40
7.4729419999999989
 50
0.003429
 51
4.0769429999999991
  0
ARC
  5
A5
  8
0
 62
     7
 10
45.278453999999989
 20
123.296717
 30
0.0
 40
3.2385039999999998
 50
4.2679289999999996
 51
8.1144339999999993
  0
ARC
  5
A6
  8
0
 62
     7
 10
47.42051
 20
123.609815
 30
0.0
 40
1.0737270000000001
 50
7.7082919999999993
 51
14.915156
  0
ARC
  5
A7
  8
0
 62
     7
 10
48.253033000000002
 20
123.836015
 30
0.0
 40
0.211076
 50
13.748605
 51
29.988679999999999
  0
ARC
  5
A8
  8
0
 62
     7
 10
48.411875000000002
 20
123.930221
 30
0.0
 40
0.026504
 50
25.227737999999999
 51
80.389026999999984
  0
ARC
  5
A9
  8
0
 62
     7
 10
48.416716999999998
 20
123.939859
 30
0.0
 40
0.016499
 50
91.447928000000005
 51
135.349782
  0
ARC
  5
AA
  8
0
 62
     7
 10
48.452210999999991
 20
123.90326
 30
0.0
 40
0.06748
 50
134.4221639999999
 51
157.282951
  0
ARC
  5
AB
  8
0
 62
     7
 10
48.682907
 20
123.798644
 30
0.0
 40
0.320765
 50
155.95928799999999
 51
166.69289699999999
  0
ARC
  5
AC
  8
0
 62
     7
 10
49.503045
 20
123.593761
 30
0.0
 40
1.166088999999999
 50
166.17148900000001
 51
172.10987600000001
  0
ARC
  5
AD
  8
0
 62
     7
 10
51.419938999999999
 20
123.31297000000001
 30
0.0
 40
3.103418
 50
171.83306899999999
 51
175.49920299999999
  0
ARC
  5
AE
  8
0
 62
     7
 10
54.796970999999999
 20
123.041374
 30
0.0
 40
6.491350999999999
 50
175.4484129999999
 51
180.304497
  0
ARC
  5
AF
  8
0
 62
     7
 10
55.810699
 20
123.00734199999999
 30
0.0
 40
7.504986999999999
 50
180.00356199999999
 51
184.06360900000001
  0
ARC
  5
B0
  8
0
 62
     7
 10
51.552168000000002
 20
122.715664
 30
0.0
 40
3.2365110000000001
 50
184.25533300000001
 51
188.10624200000001
  0
ARC
  5
B1
  8
0
 62
     7
 10
49.409247999999998
 20
122.40266200000001
 30
0.0
 40
1.070894
 50
187.69404900000001
 51
194.92226999999991
  0
ARC
  5
B2
  8
0
 62
     7
 10
48.578971000000003
 20
122.17692
 30
0.0
 40
0.210531
 50
193.744832
 51
210.03277499999999
  0
ARC
  5
B3
  8
0
 62
     7
 10
48.420701000000001
 20
122.082885
 30
0.0
 40
0.026538
 50
205.28449900000001
 51
260.45367999999991
  0
LINE
  5
B4
  8
0
 62
     7
 10
46.828400000000002
 20
72.799099999999996
 30
0.0
 11
44.616700000000002
 21
72.206599999999995
 31
0.0
  0
LINE
  5
B5
  8
0
 62
     7
 10
44.616700000000002
 20
72.206599999999995
 30
0.0
 11
46.828400000000002
 21
71.61399999999999
 31
0.0
  0
LINE
  5
B6
  8
0
 62
     7
 10
46.828400000000002
 20
71.61399999999999
 30
0.0
 11
46.828400000000002
 21
72.799099999999996
 31
0.0
  0
LINE
  5
B7
  8
0
 62
     7
 10
79.905199999999994
 20
71.61399999999999
 30
0.0
 11
82.117099999999994
 21
72.206599999999995
 31
0.0
  0
LINE
  5
B8
  8
0
 62
     7
 10
82.117099999999994
 20
72.206599999999995
 30
0.0
 11
79.905199999999994
 21
72.799099999999996
 31
0.0
  0
LINE
  5
B9
  8
0
 62
     7
 10
79.905199999999994
 20
72.799099999999996
 30
0.0
 11
79.905199999999994
 21
71.61399999999999
 31
0.0
  0
LINE
  5
BA
  8
0
 62
     7
 10
44.616700000000002
 20
72.206599999999995
 30
0.0
 11
82.117000000000004
 21
72.206599999999995
 31
0.0
  0
LINE
  5
BB
  8
0
 62
     7
 10
82.117000000000004
 20
88.516400000000004
 30
0.0
 11
82.117000000000004
 21
71.206400000000002
 31
0.0
  0
LINE
  5
BC
  8
0
 62
     7
 10
79.617000000000004
 20
91.046499999999995
 30
0.0
 11
79.617000000000004
 21
78.729200000000006
 31
0.0
  0
LINE
  5
BD
  8
0
 62
     7
 10
48.116700000000002
 20
91.046499999999995
 30
0.0
 11
48.116700000000002
 21
78.729200000000006
 31
0.0
  0
LINE
  5
BE
  8
0
 62
     7
 10
44.616700000000002
 20
88.516400000000004
 30
0.0
 11
44.616700000000002
 21
71.206400000000002
 31
0.0
  0
LINE
  5
BF
  8
0
 62
     7
 10
84.328699999999984
 20
80.021799999999999
 30
0.0
 11
82.117000000000004
 21
79.429199999999994
 31
0.0
  0
LINE
  5
C0
  8
0
 62
     7
 10
82.117000000000004
 20
79.429199999999994
 30
0.0
 11
84.328699999999984
 21
78.836699999999993
 31
0.0
  0
LINE
  5
C1
  8
0
 62
     7
 10
84.328699999999984
 20
78.836699999999993
 30
0.0
 11
84.328699999999984
 21
80.021799999999999
 31
0.0
  0
LINE
  5
C2
  8
0
 62
     7
 10
50.328499999999991
 20
80.021799999999999
 30
0.0
 11
48.116700000000002
 21
79.429199999999994
 31
0.0
  0
LINE
  5
C3
  8
0
 62
     7
 10
48.116700000000002
 20
79.429199999999994
 30
0.0
 11
50.328499999999991
 21
78.836699999999993
 31
0.0
  0
LINE
  5
C4
  8
0
 62
     7
 10
50.328499999999991
 20
78.836699999999993
 30
0.0
 11
50.328499999999991
 21
80.021799999999999
 31
0.0
  0
LINE
  5
C5
  8
0
 62
     7
 10
42.404699999999998
 20
78.836699999999993
 30
0.0
 11
44.616700000000002
 21
79.429199999999994
 31
0.0
  0
LINE
  5
C6
  8
0
 62
     7
 10
44.616700000000002
 20
79.429199999999994
 30
0.0
 11
42.404699999999998
 21
80.021799999999999
 31
0.0
  0
LINE
  5
C7
  8
0
 62
     7
 10
42.404699999999998
 20
80.021799999999999
 30
0.0
 11
42.404699999999998
 21
78.836699999999993
 31
0.0
  0
LINE
  5
C8
  8
0
 62
     7
 10
77.404899999999998
 20
78.836699999999993
 30
0.0
 11
79.616799999999998
 21
79.429199999999994
 31
0.0
  0
LINE
  5
C9
  8
0
 62
     7
 10
79.616799999999998
 20
79.429199999999994
 30
0.0
 11
77.404899999999998
 21
80.021799999999999
 31
0.0
  0
LINE
  5
CA
  8
0
 62
     7
 10
77.404899999999998
 20
80.021799999999999
 30
0.0
 11
77.404899999999998
 21
78.836699999999993
 31
0.0
  0
LINE
  5
CB
  8
0
 62
     7
 10
38.921900000000001
 20
79.429199999999994
 30
0.0
 11
87.657700000000006
 21
79.429199999999994
 31
0.0
  0
LINE
  5
CC
  8
0
 62
     7
 10
99.320499999999996
 20
90.967999999999989
 30
0.0
 11
99.9131
 21
88.756200000000007
 31
0.0
  0
LINE
  5
CD
  8
0
 62
     7
 10
99.9131
 20
88.756200000000007
 30
0.0
 11
100.506
 21
90.967999999999989
 31
0.0
  0
LINE
  5
CE
  8
0
 62
     7
 10
100.506
 20
90.967999999999989
 30
0.0
 11
99.320499999999996
 21
90.967999999999989
 31
0.0
  0
LINE
  5
CF
  8
0
 62
     7
 10
100.506
 20
155.04499999999999
 30
0.0
 11
99.9131
 21
157.25700000000001
 31
0.0
  0
LINE
  5
D0
  8
0
 62
     7
 10
99.9131
 20
157.25700000000001
 30
0.0
 11
99.320300000000003
 21
155.04499999999999
 31
0.0
  0
LINE
  5
D1
  8
0
 62
     7
 10
99.320300000000003
 20
155.04499999999999
 30
0.0
 11
100.506
 21
155.04499999999999
 31
0.0
  0
LINE
  5
D2
  8
0
 62
     7
 10
99.9131
 20
88.756200000000007
 30
0.0
 11
99.9131
 21
157.25700000000001
 31
0.0
  0
LINE
  5
D3
  8
0
 62
     7
 10
82.356899999999996
 20
157.25700000000001
 30
0.0
 11
100.913
 21
157.25700000000001
 31
0.0
  0
LINE
  5
D4
  8
0
 62
     7
 10
82.356899999999996
 20
88.756200000000007
 30
0.0
 11
100.913
 21
88.756200000000007
 31
0.0
  0
LINE
  5
D5
  8
0
 62
     7
 10
92.979399999999998
 20
159.46799999999999
 30
0.0
 11
93.572000000000003
 21
157.25700000000001
 31
0.0
  0
LINE
  5
D6
  8
0
 62
     7
 10
93.572000000000003
 20
157.25700000000001
 30
0.0
 11
94.164699999999996
 21
159.46799999999999
 31
0.0
  0
LINE
  5
D7
  8
0
 62
     7
 10
94.164699999999996
 20
159.46799999999999
 30
0.0
 11
92.979399999999998
 21
159.46799999999999
 31
0.0
  0
LINE
  5
D8
  8
0
 62
     7
 10
92.979399999999998
 20
93.468400000000003
 30
0.0
 11
93.572000000000003
 21
91.256699999999995
 31
0.0
  0
LINE
  5
D9
  8
0
 62
     7
 10
93.572000000000003
 20
91.256699999999995
 30
0.0
 11
94.164699999999996
 21
93.468400000000003
 31
0.0
  0
LINE
  5
DA
  8
0
 62
     7
 10
94.164699999999996
 20
93.468400000000003
 30
0.0
 11
92.979399999999998
 21
93.468400000000003
 31
0.0
  0
LINE
  5
DB
  8
0
 62
     7
 10
94.164500000000004
 20
86.544399999999996
 30
0.0
 11
93.572000000000003
 21
88.756200000000007
 31
0.0
  0
LINE
  5
DC
  8
0
 62
     7
 10
93.572000000000003
 20
88.756200000000007
 30
0.0
 11
92.979200000000006
 21
86.544399999999996
 31
0.0
  0
LINE
  5
DD
  8
0
 62
     7
 10
92.979200000000006
 20
86.544399999999996
 30
0.0
 11
94.164500000000004
 21
86.544399999999996
 31
0.0
  0
LINE
  5
DE
  8
0
 62
     7
 10
94.164500000000004
 20
152.54499999999999
 30
0.0
 11
93.572000000000003
 21
154.75700000000001
 31
0.0
  0
LINE
  5
DF
  8
0
 62
     7
 10
93.572000000000003
 20
154.75700000000001
 30
0.0
 11
92.979200000000006
 21
152.54499999999999
 31
0.0
  0
LINE
  5
E0
  8
0
 62
     7
 10
92.979200000000006
 20
152.54499999999999
 30
0.0
 11
94.164500000000004
 21
152.54499999999999
 31
0.0
  0
LINE
  5
E1
  8
0
 62
     7
 10
93.572000000000003
 20
83.459000000000003
 30
0.0
 11
93.572000000000003
 21
163.072
 31
0.0
  0
LINE
  5
E2
  8
0
 62
     7
 10
79.856999999999999
 20
154.75700000000001
 30
0.0
 11
94.572100000000006
 21
154.75700000000001
 31
0.0
  0
LINE
  5
E3
  8
0
 62
     7
 10
79.856999999999999
 20
91.256699999999995
 30
0.0
 11
94.572100000000006
 21
91.256699999999995
 31
0.0
  0
ARC
  5
E4
  8
0
 62
     7
 10
51.174321999999989
 20
94.813794999999999
 30
0.0
 40
1.5586349999999991
 50
182.11668599999999
 51
267.88334300000002
  0
ARC
  5
E5
  8
0
 62
     7
 10
76.059600000000003
 20
94.813393999999988
 30
0.0
 40
1.558219
 50
272.1024680000001
 51
357.89754199999999
  0
LINE
  5
E6
  8
0
 62
     7
 10
76.116799999999984
 20
93.256200000000007
 30
0.0
 11
51.116799999999991
 21
93.256200000000007
 31
0.0
  0
ARC
  5
E7
  8
0
 62
     7
 10
76.116765000000001
 20
151.25684000000001
 30
0.0
 40
1.5000039999999999
 50
0.00001
 51
89.999980000000008
  0
LINE
  5
E8
  8
0
 62
     7
 10
77.616799999999998
 20
151.25700000000001
 30
0.0
 11
77.616799999999998
 21
94.756200000000007
 31
0.0
  0
ARC
  5
E9
  8
0
 62
     7
 10
51.116754999999998
 20
151.25684000000001
 30
0.0
 40
1.5000039999999999
 50
90.0
 51
179.99996999999999
  0
LINE
  5
EA
  8
0
 62
     7
 10
51.116799999999991
 20
152.75700000000001
 30
0.0
 11
76.116799999999984
 21
152.75700000000001
 31
0.0
  0
LINE
  5
EB
  8
0
 62
     7
 10
49.616799999999998
 20
94.756200000000007
 30
0.0
 11
49.616799999999998
 21
151.25700000000001
 31
0.0
  0
ARC
  5
EC
  8
0
 62
     7
 10
79.378202999999999
 20
91.495135000000005
 30
0.0
 40
1.0394760000000001
 50
272.130335
 51
357.86967499999997
  0
ARC
  5
ED
  8
0
 62
     7
 10
48.354979
 20
91.494736999999986
 30
0.0
 40
1.0390639999999991
 50
182.10925599999999
 51
267.89077400000002
  0
LINE
  5
EE
  8
0
 62
     7
 10
79.416799999999995
 20
90.456400000000002
 30
0.0
 11
48.31669999999999
 21
90.456400000000002
 31
0.0
  0
ARC
  5
EF
  8
0
 62
     7
 10
79.416843
 20
154.556918
 30
0.0
 40
1.0001180000000001
 50
0.00001
 51
89.999980000000008
  0
LINE
  5
F0
  8
0
 62
     7
 10
80.417000000000002
 20
154.55699999999999
 30
0.0
 11
80.417000000000002
 21
91.456500000000005
 31
0.0
  0
ARC
  5
F1
  8
0
 62
     7
 10
48.316735999999999
 20
154.556918
 30
0.0
 40
1.0001180000000001
 50
90.0
 51
179.99996999999999
  0
LINE
  5
F2
  8
0
 62
     7
 10
48.31669999999999
 20
155.55699999999999
 30
0.0
 11
79.416799999999995
 21
155.55699999999999
 31
0.0
  0
LINE
  5
F3
  8
0
 62
     7
 10
47.316600000000001
 20
91.456500000000005
 30
0.0
 11
47.316600000000001
 21
154.55699999999999
 31
0.0
  0
ARC
  5
F4
  8
0
 62
     7
 10
80.316621999999995
 20
90.556371999999996
 30
0.0
 40
1.0002040000000001
 50
270.01482099999998
 51
0.014791
  0
ARC
  5
F5
  8
0
 62
     7
 10
47.416871
 20
90.556456999999995
 30
0.0
 40
1.000289999999999
 50
179.990104
 51
269.99015299999991
  0
LINE
  5
F6
  8
0
 62
     7
 10
80.316900000000004
 20
89.556200000000004
 30
0.0
 11
47.416699999999999
 21
89.556200000000004
 31
0.0
  0
ARC
  5
F7
  8
0
 62
     7
 10
80.278818999999999
 20
155.418543
 30
0.0
 40
1.03871
 50
2.1098020000000002
 51
87.900058999999999
  0
LINE
  5
F8
  8
0
 62
     7
 10
81.316800000000015
 20
155.45699999999999
 30
0.0
 11
81.316800000000015
 21
90.556600000000003
 31
0.0
  0
ARC
  5
F9
  8
0
 62
     7
 10
47.455314999999999
 20
155.41780900000001
 30
0.0
 40
1.0394639999999991
 50
92.128997999999996
 51
177.85123200000001
  0
LINE
  5
FA
  8
0
 62
     7
 10
47.416699999999999
 20
156.45699999999999
 30
0.0
 11
80.316900000000004
 21
156.45699999999999
 31
0.0
  0
LINE
  5
FB
  8
0
 62
     7
 10
46.416600000000003
 20
90.556600000000003
 30
0.0
 11
46.416600000000003
 21
155.45699999999999
 31
0.0
  0
ARC
  5
FC
  8
0
 62
     7
 10
79.528649999999999
 20
91.344693999999976
 30
0.0
 40
1.038883999999999
 50
272.108812
 51
357.881327
  0
ARC
  5
FD
  8
0
 62
     7
 10
48.204605000000001
 20
91.344548999999986
 30
0.0
 40
1.038726
 50
182.11099300000001
 51
267.90877699999999
  0
LINE
  5
FE
  8
0
 62
     7
 10
79.566900000000004
 20
90.306499999999986
 30
0.0
 11
48.166699999999999
 21
90.306499999999986
 31
0.0
  0
ARC
  5
FF
  8
0
 62
     7
 10
79.528807
 20
154.66887500000001
 30
0.0
 40
1.038721
 50
2.1103309999999991
 51
87.899529999999999
  0
LINE
  5
100
  8
0
 62
     7
 10
80.566800000000001
 20
154.70699999999999
 30
0.0
 11
80.566800000000001
 21
91.306299999999993
 31
0.0
  0
ARC
  5
101
  8
0
 62
     7
 10
48.205317000000001
 20
154.66815099999999
 30
0.0
 40
1.0394639999999991
 50
92.128997999999996
 51
177.85123200000001
  0
LINE
  5
102
  8
0
 62
     7
 10
48.166699999999999
 20
155.70699999999999
 30
0.0
 11
79.566900000000004
 21
155.70699999999999
 31
0.0
  0
LINE
  5
103
  8
0
 62
     7
 10
47.166600000000003
 20
91.306299999999993
 30
0.0
 11
47.166600000000003
 21
154.70699999999999
 31
0.0
  0
ARC
  5
104
  8
0
 62
     7
 10
80.166844999999995
 20
90.706493000000009
 30
0.0
 40
1.0001180000000001
 50
270.00002000000001
 51
359.99999000000003
  0
ARC
  5
105
  8
0
 62
     7
 10
47.566733999999997
 20
90.706491999999997
 30
0.0
 40
1.000116999999999
 50
179.99996999999999
 51
270.00002000000001
  0
LINE
  5
106
  8
0
 62
     7
 10
80.166799999999995
 20
89.706400000000016
 30
0.0
 11
47.56669999999999
 21
89.706400000000016
 31
0.0
  0
ARC
  5
107
  8
0
 62
     7
 10
80.166844999999995
 20
155.30691999999999
 30
0.0
 40
1.0001180000000001
 50
0.00001
 51
89.999980000000008
  0
LINE
  5
108
  8
0
 62
     7
 10
81.166999999999987
 20
155.30699999999999
 30
0.0
 11
81.166999999999987
 21
90.706500000000005
 31
0.0
  0
ARC
  5
109
  8
0
 62
     7
 10
47.566733999999997
 20
155.30691999999999
 30
0.0
 40
1.0001180000000001
 50
90.0
 51
179.99996999999999
  0
LINE
  5
10A
  8
0
 62
     7
 10
47.56669999999999
 20
156.30699999999999
 30
0.0
 11
80.166799999999995
 21
156.30699999999999
 31
0.0
  0
LINE
  5
10B
  8
0
 62
     7
 10
46.566600000000001
 20
90.706500000000005
 30
0.0
 11
46.566600000000001
 21
155.30699999999999
 31
0.0
  0
ARC
  5
10C
  8
0
 62
     7
 10
45.305417999999989
 20
92.067408999999984
 30
0.0
 40
0.311394
 50
272.08156700000001
 51
358.017087
  0
ARC
  5
10D
  8
0
 62
     7
 10
44.927844
 20
91.445048999999983
 30
0.0
 40
0.311374
 50
92.073550999999995
 51
177.89349999999999
  0
LINE
  5
10E
  8
0
 62
     7
 10
45.316699999999997
 20
91.756200000000007
 30
0.0
 11
44.916600000000003
 21
91.756200000000007
 31
0.0
  0
ARC
  5
10F
  8
0
 62
     7
 10
46.655353999999988
 20
156.21777
 30
0.0
 40
1.039458999999999
 50
92.128725000000017
 51
177.851505
  0
LINE
  5
110
  8
0
 62
     7
 10
45.616599999999991
 20
156.25700000000001
 30
0.0
 11
45.616599999999991
 21
92.056599999999989
 31
0.0
  0
ARC
  5
111
  8
0
 62
     7
 10
56.116568000000008
 20
123.006792
 30
0.0
 40
3.2998199999999991
 50
89.998504999999994
 51
179.99847500000001
  0
ARC
  5
112
  8
0
 62
     7
 10
56.116911999999999
 20
123.006619
 30
0.0
 40
3.3001629999999991
 50
179.995484
 51
269.99553400000002
  0
ARC
  5
113
  8
0
 62
     7
 10
56.116481
 20
123.00670700000001
 30
0.0
 40
3.3002509999999998
 50
270.00301000000002
 51
0.002981
  0
ARC
  5
114
  8
0
 62
     7
 10
56.116826000000003
 20
123.00670599999999
 30
0.0
 40
3.2999059999999991
 50
0.003001
 51
90.002970999999988
  0
ARC
  5
115
  8
0
 62
     7
 10
56.20118699999999
 20
122.922524
 30
0.0
 40
2.2859699999999998
 50
92.119217000000006
 51
177.88524000000001
  0
ARC
  5
116
  8
0
 62
     7
 10
56.200946999999999
 20
123.090993
 30
0.0
 40
2.2857210000000001
 50
182.10897399999999
 51
267.88657000000001
  0
ARC
  5
117
  8
0
 62
     7
 10
56.032130000000002
 20
123.091403
 30
0.0
 40
2.286138999999999
 50
272.11885699999999
 51
357.88115199999999
  0
ARC
  5
118
  8
0
 62
     7
 10
56.032517000000013
 20
122.922741
 30
0.0
 40
2.2857379999999998
 50
2.1095120000000001
 51
87.890478999999985
  0
ARC
  5
119
  8
0
 62
     7
 10
78.578267000000011
 20
92.295249999999996
 30
0.0
 40
1.03929
 50
272.12962099999999
 51
357.86051800000013
  0
ARC
  5
11A
  8
0
 62
     7
 10
49.154763000000003
 20
92.294700000000006
 30
0.0
 40
1.0387200000000001
 50
182.11033399999999
 51
267.89956699999999
  0
LINE
  5
11B
  8
0
 62
     7
 10
78.616900000000001
 20
91.256699999999995
 30
0.0
 11
49.116700000000002
 21
91.256699999999995
 31
0.0
  0
ARC
  5
11C
  8
0
 62
     7
 10
78.616800999999995
 20
153.757048
 30
0.0
 40
1.000032
 50
359.99507499999999
 51
89.995045999999988
  0
LINE
  5
11D
  8
0
 62
     7
 10
79.616799999999998
 20
153.75700000000001
 30
0.0
 11
79.616799999999998
 21
92.256499999999988
 31
0.0
  0
ARC
  5
11E
  8
0
 62
     7
 10
49.116779000000001
 20
153.757048
 30
0.0
 40
1.000032
 50
90.004935000000003
 51
180.00494499999999
  0
LINE
  5
11F
  8
0
 62
     7
 10
49.116700000000002
 20
154.75700000000001
 30
0.0
 11
78.616900000000001
 21
154.75700000000001
 31
0.0
  0
LINE
  5
120
  8
0
 62
     7
 10
48.116700000000002
 20
92.256499999999988
 30
0.0
 11
48.116700000000002
 21
153.75700000000001
 31
0.0
  0
ARC
  5
121
  8
0
 62
     7
 10
45.616883999999999
 20
89.756415000000004
 30
0.0
 40
1.0002040000000001
 50
179.98516900000001
 51
269.98521899999997
  0
LINE
  5
122
  8
0
 62
     7
 10
81.116799999999984
 20
88.756200000000007
 30
0.0
 11
45.616599999999991
 21
88.756200000000007
 31
0.0
  0
ARC
  5
123
  8
0
 62
     7
 10
81.116664
 20
89.756501999999998
 30
0.0
 40
1.000289999999999
 50
270.00988699999999
 51
0.009857
  0
LINE
  5
124
  8
0
 62
     7
 10
82.117000000000004
 20
156.25700000000001
 30
0.0
 11
82.117000000000004
 21
89.756699999999995
 31
0.0
  0
ARC
  5
125
  8
0
 62
     7
 10
81.078941999999998
 20
156.21848700000001
 30
0.0
 40
1.0387159999999991
 50
2.1104620000000001
 51
87.909268000000012
  0
LINE
  5
126
  8
0
 62
     7
 10
45.616599999999991
 20
157.25700000000001
 30
0.0
 11
81.116799999999984
 21
157.25700000000001
 31
0.0
  0
ARC
  5
127
  8
0
 62
     7
 10
45.655245999999998
 20
156.21794
 30
0.0
 40
1.03929
 50
92.12960099999998
 51
177.86049800000001
  0
LINE
  5
128
  8
0
 62
     7
 10
44.616700000000002
 20
89.756699999999995
 30
0.0
 11
44.616700000000002
 21
156.25700000000001
 31
0.0
  0
LINE
  5
129
  8
0
  6
AIGENLINE001
 62
     7
 10
56.116700000000002
 20
117.849
 30
0.0
 11
56.116700000000002
 21
128.19200000000001
 31
0.0
  0
LINE
  5
12A
  8
0
  6
AIGENLINE001
 62
     7
 10
43.116500000000002
 20
123.00700000000001
 30
0.0
 11
83.617000000000004
 21
123.00700000000001
 31
0.0
  0
ARC
  5
12B
  8
0
  6
AIGENLINE002
 62
     7
 10
146.61102500000001
 20
208.26457500000001
 30
0.0
 40
2.5260630000000002
 50
68.445819
 51
80.277793000000003
  0
ARC
  5
12C
  8
0
  6
AIGENLINE002
 62
     7
 10
146.819062
 20
208.852428
 30
0.0
 40
1.903022999999999
 50
31.077044000000011
 51
67.769056000000006
  0
ARC
  5
12D
  8
0
  6
AIGENLINE002
 62
     7
 10
146.15008
 20
208.42150100000001
 30
0.0
 40
2.6985329999999998
 50
19.730506999999999
 51
31.581441999999999
  0
ARC
  5
12E
  8
0
  6
AIGENLINE002
 62
     7
 10
144.85624300000001
 20
207.915449
 30
0.0
 40
4.0874420000000002
 50
13.61612
 51
20.284877000000002
  0
ARC
  5
12F
  8
0
  6
AIGENLINE002
 62
     7
 10
142.74347299999999
 20
207.37965
 30
0.0
 40
6.2670120000000002
 50
8.3800530000000002
 51
13.829700000000001
  0
ARC
  5
130
  8
0
  6
AIGENLINE002
 62
     7
 10
138.16764599999999
 20
206.667191
 30
0.0
 40
10.897883
 50
3.7677320000000001
 51
8.5797179999999997
  0
LINE
  5
131
  8
0
  6
AIGENLINE002
 62
     7
 10
150.34100000000001
 20
206.28299999999999
 30
0.0
 11
149.042
 21
207.38300000000001
 31
0.0
  0
LINE
  5
132
  8
0
  6
AIGENLINE002
 62
     7
 10
153.542
 20
206.28299999999999
 30
0.0
 11
152.74199999999999
 21
206.28299999999999
 31
0.0
  0
LINE
  5
133
  8
0
  6
AIGENLINE002
 62
     7
 10
150.94200000000001
 20
206.28299999999999
 30
0.0
 11
150.34100000000001
 21
206.28299999999999
 31
0.0
  0
LINE
  5
134
  8
0
  6
AIGENLINE002
 62
     7
 10
152.74199999999999
 20
206.88300000000001
 30
0.0
 11
150.94200000000001
 21
206.88300000000001
 31
0.0
  0
LINE
  5
135
  8
0
  6
AIGENLINE002
 62
     7
 10
150.34100000000001
 20
201.88300000000001
 30
0.0
 11
149.042
 21
200.78299999999999
 31
0.0
  0
LINE
  5
136
  8
0
  6
AIGENLINE002
 62
     7
 10
153.542
 20
201.88300000000001
 30
0.0
 11
152.74199999999999
 21
201.88300000000001
 31
0.0
  0
LINE
  5
137
  8
0
  6
AIGENLINE002
 62
     7
 10
150.94200000000001
 20
201.88300000000001
 30
0.0
 11
150.34100000000001
 21
201.88300000000001
 31
0.0
  0
LINE
  5
138
  8
0
  6
AIGENLINE002
 62
     7
 10
152.74199999999999
 20
201.28299999999999
 30
0.0
 11
150.94200000000001
 21
201.28299999999999
 31
0.0
  0
LINE
  5
139
  8
0
  6
AIGENLINE002
 62
     7
 10
152.74199999999999
 20
201.28299999999999
 30
0.0
 11
152.74199999999999
 21
206.88300000000001
 31
0.0
  0
LINE
  5
13A
  8
0
  6
AIGENLINE002
 62
     7
 10
150.94200000000001
 20
201.28299999999999
 30
0.0
 11
150.94200000000001
 21
206.88300000000001
 31
0.0
  0
LINE
  5
13B
  8
0
  6
AIGENLINE002
 62
     7
 10
150.34100000000001
 20
201.88300000000001
 30
0.0
 11
150.34100000000001
 21
206.28299999999999
 31
0.0
  0
LINE
  5
13C
  8
0
  6
AIGENLINE002
 62
     7
 10
149.042
 20
200.78299999999999
 30
0.0
 11
149.042
 21
207.38300000000001
 31
0.0
  0
ARC
  5
13D
  8
0
  6
AIGENLINE002
 62
     7
 10
-156.35384199999999
 20
225.34826100000001
 30
0.0
 40
306.38219400000003
 50
354.323756
 51
355.401205
  0
ARC
  5
13E
  8
0
  6
AIGENLINE002
 62
     7
 10
-187.33602099999999
 20
228.03205600000001
 30
0.0
 40
337.47813400000001
 50
352.96829100000002
 51
354.390601
  0
ARC
  5
13F
  8
0
  6
AIGENLINE002
 62
     7
 10
-19.872509999999998
 20
207.69695300000001
 30
0.0
 40
168.78509500000001
 50
351.939302
 51
352.86017299999997
  0
ARC
  5
140
  8
0
  6
AIGENLINE002
 62
     7
 10
145.17040600000001
 20
184.306321
 30
0.0
 40
2.0929759999999988
 50
327.53096099999999
 51
352.40109699999999
  0
ARC
  5
141
  8
0
  6
AIGENLINE002
 62
     7
 10
145.41122100000001
 20
184.20611700000001
 30
0.0
 40
1.836554999999999
 50
297.67233199999998
 51
326.13505200000009
  0
ARC
  5
142
  8
0
  6
AIGENLINE002
 62
     7
 10
145.10312300000001
 20
184.73225099999999
 30
0.0
 40
2.445759999999999
 50
282.09187799999989
 51
298.34031599999997
  0
LINE
  5
143
  8
0
  6
AIGENLINE001
 62
     7
 10
138.21700000000001
 20
120.092
 30
0.0
 11
138.21700000000001
 21
125.697
 31
0.0
  0
ARC
  5
144
  8
0
  6
AIGENLINE002
 62
     7
 10
138.217071
 20
123.006878
 30
0.0
 40
1.3249919999999991
 50
0.00001
 51
89.999980000000008
  0
ARC
  5
145
  8
0
  6
AIGENLINE002
 62
     7
 10
138.217071
 20
123.006879
 30
0.0
 40
1.3249919999999991
 50
270.00002000000001
 51
359.99999000000003
  0
ARC
  5
146
  8
0
  6
AIGENLINE002
 62
     7
 10
138.217071
 20
123.006878
 30
0.0
 40
1.3249919999999991
 50
179.99996999999999
 51
270.00002000000001
  0
ARC
  5
147
  8
0
  6
AIGENLINE002
 62
     7
 10
138.217071
 20
123.006878
 30
0.0
 40
1.3249919999999991
 50
90.0
 51
179.99996999999999
  0
LINE
  5
148
  8
0
 62
     7
 10
137.75399999999999
 20
79.381699999999995
 30
0.0
 11
135.542
 21
78.789100000000005
 31
0.0
  0
LINE
  5
149
  8
0
 62
     7
 10
135.542
 20
78.789100000000005
 30
0.0
 11
137.75399999999999
 21
78.196600000000004
 31
0.0
  0
LINE
  5
14A
  8
0
 62
     7
 10
137.75399999999999
 20
78.196600000000004
 30
0.0
 11
137.75399999999999
 21
79.381699999999995
 31
0.0
  0
LINE
  5
14B
  8
0
 62
     7
 10
151.33000000000001
 20
78.196600000000004
 30
0.0
 11
153.542
 21
78.789100000000005
 31
0.0
  0
LINE
  5
14C
  8
0
 62
     7
 10
153.542
 20
78.789100000000005
 30
0.0
 11
151.33000000000001
 21
79.381699999999995
 31
0.0
  0
LINE
  5
14D
  8
0
 62
     7
 10
151.33000000000001
 20
79.381699999999995
 30
0.0
 11
151.33000000000001
 21
78.196600000000004
 31
0.0
  0
LINE
  5
14E
  8
0
 62
     7
 10
135.542
 20
78.789100000000005
 30
0.0
 11
153.542
 21
78.789100000000005
 31
0.0
  0
LINE
  5
14F
  8
0
 62
     7
 10
140.35400000000001
 20
172.935
 30
0.0
 11
138.142
 21
172.34200000000001
 31
0.0
  0
LINE
  5
150
  8
0
 62
     7
 10
138.142
 20
172.34200000000001
 30
0.0
 11
140.35400000000001
 21
171.749
 31
0.0
  0
LINE
  5
151
  8
0
 62
     7
 10
140.35400000000001
 20
171.749
 30
0.0
 11
140.35400000000001
 21
172.935
 31
0.0
  0
LINE
  5
152
  8
0
 62
     7
 10
133.33000000000001
 20
171.749
 30
0.0
 11
135.542
 21
172.34200000000001
 31
0.0
  0
LINE
  5
153
  8
0
 62
     7
 10
135.542
 20
172.34200000000001
 30
0.0
 11
133.33000000000001
 21
172.935
 31
0.0
  0
LINE
  5
154
  8
0
 62
     7
 10
133.33000000000001
 20
172.935
 30
0.0
 11
133.33000000000001
 21
171.749
 31
0.0
  0
LINE
  5
155
  8
0
 62
     7
 10
129.69200000000001
 20
172.34200000000001
 30
0.0
 11
142.13399999999999
 21
172.34200000000001
 31
0.0
  0
LINE
  5
156
  8
0
 62
     7
 10
137.75399999999999
 20
203.369
 30
0.0
 11
135.542
 21
202.77699999999999
 31
0.0
  0
LINE
  5
157
  8
0
 62
     7
 10
135.542
 20
202.77699999999999
 30
0.0
 11
137.75399999999999
 21
202.184
 31
0.0
  0
LINE
  5
158
  8
0
 62
     7
 10
137.75399999999999
 20
202.184
 30
0.0
 11
137.75399999999999
 21
203.369
 31
0.0
  0
LINE
  5
159
  8
0
 62
     7
 10
146.83000000000001
 20
202.184
 30
0.0
 11
149.042
 21
202.77699999999999
 31
0.0
  0
LINE
  5
15A
  8
0
 62
     7
 10
149.042
 20
202.77699999999999
 30
0.0
 11
146.83000000000001
 21
203.369
 31
0.0
  0
LINE
  5
15B
  8
0
 62
     7
 10
146.83000000000001
 20
203.369
 30
0.0
 11
146.83000000000001
 21
202.184
 31
0.0
  0
LINE
  5
15C
  8
0
 62
     7
 10
135.542
 20
202.77699999999999
 30
0.0
 11
149.042
 21
202.77699999999999
 31
0.0
  0
LINE
  5
15D
  8
0
 62
     7
 10
141.727
 20
215.583
 30
0.0
 11
161.565
 21
215.583
 31
0.0
  0
LINE
  5
15E
  8
0
 62
     7
 10
155.56299999999999
 20
204.083
 30
0.0
 11
161.565
 21
204.083
 31
0.0
  0
LINE
  5
15F
  8
0
 62
     7
 10
161.15799999999999
 20
213.37200000000001
 30
0.0
 11
160.565
 21
215.583
 31
0.0
  0
LINE
  5
160
  8
0
 62
     7
 10
160.565
 20
215.583
 30
0.0
 11
159.97300000000001
 21
213.37200000000001
 31
0.0
  0
LINE
  5
161
  8
0
 62
     7
 10
159.97300000000001
 20
213.37200000000001
 30
0.0
 11
161.15799999999999
 21
213.37200000000001
 31
0.0
  0
LINE
  5
162
  8
0
 62
     7
 10
159.97300000000001
 20
206.29499999999999
 30
0.0
 11
160.565
 21
204.083
 31
0.0
  0
LINE
  5
163
  8
0
 62
     7
 10
160.565
 20
204.083
 30
0.0
 11
161.15799999999999
 21
206.29499999999999
 31
0.0
  0
LINE
  5
164
  8
0
 62
     7
 10
161.15799999999999
 20
206.29499999999999
 30
0.0
 11
159.97300000000001
 21
206.29499999999999
 31
0.0
  0
LINE
  5
165
  8
0
 62
     7
 10
160.565
 20
215.583
 30
0.0
 11
160.565
 21
204.083
 31
0.0
  0
LINE
  5
166
  8
0
 62
     7
 10
138.142
 20
177.08199999999999
 30
0.0
 11
138.142
 21
171.34200000000001
 31
0.0
  0
LINE
  5
167
  8
0
 62
     7
 10
135.542
 20
177.08199999999999
 30
0.0
 11
135.542
 21
171.34200000000001
 31
0.0
  0
LINE
  5
168
  8
0
 62
     7
 10
135.542
 20
87.756399999999999
 30
0.0
 11
135.542
 21
77.789400000000001
 31
0.0
  0
LINE
  5
169
  8
0
 62
     7
 10
153.542
 20
118.64400000000001
 30
0.0
 11
153.542
 21
77.789400000000001
 31
0.0
  0
LINE
  5
16A
  8
0
  6
AIGENLINE002
 62
     7
 10
135.72
 20
180.62200000000001
 30
0.0
 11
135.601
 21
180.56299999999999
 31
0.0
  0
LINE
  5
16B
  8
0
  6
AIGENLINE002
 62
     7
 10
135.601
 20
180.56299999999999
 30
0.0
 11
135.542
 21
180.41499999999999
 31
0.0
  0
LINE
  5
16C
  8
0
  6
AIGENLINE002
 62
     7
 10
135.542
 20
212.26499999999999
 30
0.0
 11
135.601
 21
212.11699999999999
 31
0.0
  0
LINE
  5
16D
  8
0
  6
AIGENLINE002
 62
     7
 10
135.601
 20
212.11699999999999
 30
0.0
 11
135.72
 21
212.05799999999999
 31
0.0
  0
LINE
  5
16E
  8
0
  6
AIGENLINE001
 62
     7
 10
137.86000000000001
 20
208.64699999999999
 30
0.0
 11
138.56100000000001
 21
214.73599999999999
 31
0.0
  0
LINE
  5
16F
  8
0
  6
AIGENLINE002
 62
     7
 10
147.03800000000001
 20
210.75399999999999
 30
0.0
 11
135.72
 21
212.05799999999999
 31
0.0
  0
LINE
  5
170
  8
0
  6
AIGENLINE002
 62
     7
 10
145.61500000000001
 20
182.34099999999989
 30
0.0
 11
135.72
 21
180.62200000000001
 31
0.0
  0
LINE
  5
171
  8
0
 62
     7
 10
148.46000000000001
 20
184.38499999999999
 30
0.0
 11
146.35599999999999
 21
184.20699999999999
 31
0.0
  0
LINE
  5
172
  8
0
 62
     7
 10
146.35599999999999
 20
184.20699999999999
 30
0.0
 11
146.238
 21
184.148
 31
0.0
  0
LINE
  5
173
  8
0
 62
     7
 10
146.238
 20
184.148
 30
0.0
 11
146.178
 21
184.03
 31
0.0
  0
LINE
  5
174
  8
0
 62
     7
 10
147.66
 20
209.39099999999999
 30
0.0
 11
149.34899999999999
 21
209.21299999999999
 31
0.0
  0
LINE
  5
175
  8
0
 62
     7
 10
153.14099999999999
 20
207.614
 30
0.0
 11
153.11099999999999
 21
208.50200000000001
 31
0.0
  0
LINE
  5
176
  8
0
 62
     7
 10
153.11099999999999
 20
208.50200000000001
 30
0.0
 11
152.934
 21
209.36199999999999
 31
0.0
  0
LINE
  5
177
  8
0
 62
     7
 10
152.934
 20
209.36199999999999
 30
0.0
 11
152.608
 21
210.191
 31
0.0
  0
LINE
  5
178
  8
0
 62
     7
 10
152.608
 20
210.191
 30
0.0
 11
152.19300000000001
 21
210.96100000000001
 31
0.0
  0
LINE
  5
179
  8
0
 62
     7
 10
152.19300000000001
 20
210.96100000000001
 30
0.0
 11
151.66
 21
211.672
 31
0.0
  0
LINE
  5
17A
  8
0
 62
     7
 10
151.66
 20
211.672
 30
0.0
 11
151.03700000000001
 21
212.29499999999999
 31
0.0
  0
LINE
  5
17B
  8
0
 62
     7
 10
151.03700000000001
 20
212.29499999999999
 30
0.0
 11
150.32599999999999
 21
212.79900000000001
 31
0.0
  0
LINE
  5
17C
  8
0
 62
     7
 10
150.32599999999999
 20
212.79900000000001
 30
0.0
 11
149.55600000000001
 21
213.21299999999999
 31
0.0
  0
LINE
  5
17D
  8
0
 62
     7
 10
149.55600000000001
 20
213.21299999999999
 30
0.0
 11
148.726
 21
213.50999999999999
 31
0.0
  0
LINE
  5
17E
  8
0
 62
     7
 10
148.726
 20
213.50999999999999
 30
0.0
 11
147.83799999999999
 21
213.65799999999999
 31
0.0
  0
LINE
  5
17F
  8
0
 62
     7
 10
153.27500000000001
 20
200.82900000000001
 30
0.0
 11
153.39400000000001
 21
200.858
 31
0.0
  0
LINE
  5
180
  8
0
 62
     7
 10
153.39400000000001
 20
200.858
 30
0.0
 11
153.512
 21
200.977
 31
0.0
  0
LINE
  5
181
  8
0
 62
     7
 10
153.512
 20
200.977
 30
0.0
 11
153.542
 21
201.125
 31
0.0
  0
LINE
  5
182
  8
0
 62
     7
 10
150.386
 20
200.62100000000001
 30
0.0
 11
150.208
 21
200.56200000000001
 31
0.0
  0
LINE
  5
183
  8
0
 62
     7
 10
150.208
 20
200.56200000000001
 30
0.0
 11
150.06
 21
200.41399999999999
 31
0.0
  0
LINE
  5
184
  8
0
 62
     7
 10
150.06
 20
200.41399999999999
 30
0.0
 11
150.0
 21
200.23599999999999
 31
0.0
  0
LINE
  5
185
  8
0
 62
     7
 10
153.27500000000001
 20
200.82900000000001
 30
0.0
 11
150.386
 21
200.62100000000001
 31
0.0
  0
LINE
  5
186
  8
0
 62
     7
 10
153.542
 20
207.05099999999999
 30
0.0
 11
153.482
 21
207.22800000000001
 31
0.0
  0
LINE
  5
187
  8
0
 62
     7
 10
153.482
 20
207.22800000000001
 30
0.0
 11
153.33500000000001
 21
207.34700000000001
 31
0.0
  0
LINE
  5
188
  8
0
 62
     7
 10
153.14099999999999
 20
207.614
 30
0.0
 11
153.19999999999999
 21
207.46600000000001
 31
0.0
  0
LINE
  5
189
  8
0
 62
     7
 10
153.19999999999999
 20
207.46600000000001
 30
0.0
 11
153.33500000000001
 21
207.34700000000001
 31
0.0
  0
LINE
  5
18A
  8
0
 62
     7
 10
148.19300000000001
 20
204.08799999999999
 30
0.0
 11
148.16300000000001
 21
204.08799999999999
 31
0.0
  0
LINE
  5
18B
  8
0
 62
     7
 10
145.79300000000001
 20
181.363
 30
0.0
 11
140.845
 21
180.50399999999999
 31
0.0
  0
LINE
  5
18C
  8
0
 62
     7
 10
140.845
 20
180.50399999999999
 30
0.0
 11
140.57900000000001
 21
180.41499999999999
 31
0.0
  0
LINE
  5
18D
  8
0
 62
     7
 10
140.57900000000001
 20
180.41499999999999
 30
0.0
 11
140.34200000000001
 21
180.23699999999999
 31
0.0
  0
LINE
  5
18E
  8
0
 62
     7
 10
140.54900000000001
 20
180.44499999999999
 30
0.0
 11
140.54900000000001
 21
183.14099999999999
 31
0.0
  0
LINE
  5
18F
  8
0
 62
     7
 10
140.54900000000001
 20
183.14099999999999
 30
0.0
 11
140.49000000000001
 21
183.3479999999999
 31
0.0
  0
LINE
  5
190
  8
0
 62
     7
 10
140.49000000000001
 20
183.3479999999999
 30
0.0
 11
140.37100000000001
 21
183.52600000000001
 31
0.0
  0
LINE
  5
191
  8
0
 62
     7
 10
147.83799999999999
 20
213.65799999999999
 30
0.0
 11
140.99299999999999
 21
214.458
 31
0.0
  0
LINE
  5
192
  8
0
 62
     7
 10
147.15600000000001
 20
211.732
 30
0.0
 11
140.54900000000001
 21
212.50200000000001
 31
0.0
  0
LINE
  5
193
  8
0
 62
     7
 10
140.37100000000001
 20
210.429
 30
0.0
 11
140.49000000000001
 21
210.60599999999999
 31
0.0
  0
LINE
  5
194
  8
0
 62
     7
 10
140.49000000000001
 20
210.60599999999999
 30
0.0
 11
140.54900000000001
 21
210.81399999999999
 31
0.0
  0
LINE
  5
195
  8
0
 62
     7
 10
138.327
 20
208.739
 30
0.0
 11
140.37100000000001
 21
210.429
 31
0.0
  0
LINE
  5
196
  8
0
 62
     7
 10
140.54900000000001
 20
210.81399999999999
 30
0.0
 11
140.54900000000001
 21
215.28700000000001
 31
0.0
  0
LINE
  5
197
  8
0
 62
     7
 10
140.54900000000001
 20
215.28700000000001
 30
0.0
 11
140.51900000000001
 21
215.43600000000001
 31
0.0
  0
LINE
  5
198
  8
0
 62
     7
 10
140.51900000000001
 20
215.43600000000001
 30
0.0
 11
140.40100000000001
 21
215.554
 31
0.0
  0
LINE
  5
199
  8
0
 62
     7
 10
140.40100000000001
 20
215.554
 30
0.0
 11
140.25299999999999
 21
215.583
 31
0.0
  0
LINE
  5
19A
  8
0
 62
     7
 10
138.327
 20
185.215
 30
0.0
 11
140.37100000000001
 21
183.52600000000001
 31
0.0
  0
LINE
  5
19B
  8
0
 62
     7
 10
140.54900000000001
 20
214.96199999999999
 30
0.0
 11
140.608
 21
214.72499999999999
 31
0.0
  0
LINE
  5
19C
  8
0
 62
     7
 10
140.608
 20
214.72499999999999
 30
0.0
 11
140.75700000000001
 21
214.547
 31
0.0
  0
LINE
  5
19D
  8
0
 62
     7
 10
140.75700000000001
 20
214.547
 30
0.0
 11
140.99299999999999
 21
214.458
 31
0.0
  0
LINE
  5
19E
  8
0
 62
     7
 10
148.25200000000001
 20
183.881
 30
0.0
 11
148.31200000000001
 21
184.35499999999999
 31
0.0
  0
LINE
  5
19F
  8
0
 62
     7
 10
148.667
 20
187.02199999999999
 30
0.0
 11
149.40799999999999
 21
193.422
 31
0.0
  0
LINE
  5
1A0
  8
0
 62
     7
 10
149.40799999999999
 20
193.422
 30
0.0
 11
149.971
 21
199.88099999999989
 31
0.0
  0
LINE
  5
1A1
  8
0
 62
     7
 10
145.79300000000001
 20
181.363
 30
0.0
 11
146.386
 21
181.541
 31
0.0
  0
LINE
  5
1A2
  8
0
 62
     7
 10
146.386
 20
181.541
 30
0.0
 11
146.94900000000001
 21
181.80699999999999
 31
0.0
  0
LINE
  5
1A3
  8
0
 62
     7
 10
146.94900000000001
 20
181.80699999999999
 30
0.0
 11
147.423
 21
182.22300000000001
 31
0.0
  0
LINE
  5
1A4
  8
0
 62
     7
 10
147.423
 20
182.22300000000001
 30
0.0
 11
147.80799999999999
 21
182.726
 31
0.0
  0
LINE
  5
1A5
  8
0
 62
     7
 10
147.80799999999999
 20
182.726
 30
0.0
 11
148.10400000000001
 21
183.28899999999999
 31
0.0
  0
LINE
  5
1A6
  8
0
 62
     7
 10
148.10400000000001
 20
183.28899999999999
 30
0.0
 11
148.25200000000001
 21
183.881
 31
0.0
  0
LINE
  5
1A7
  8
0
 62
     7
 10
140.34200000000001
 20
180.23699999999999
 30
0.0
 11
138.238
 21
178.16300000000001
 31
0.0
  0
LINE
  5
1A8
  8
0
 62
     7
 10
138.238
 20
178.16300000000001
 30
0.0
 11
138.03100000000001
 21
178.10400000000001
 31
0.0
  0
LINE
  5
1A9
  8
0
 62
     7
 10
149.73400000000001
 20
209.42099999999999
 30
0.0
 11
149.52600000000001
 21
210.01400000000001
 31
0.0
  0
LINE
  5
1AA
  8
0
 62
     7
 10
149.52600000000001
 20
210.01400000000001
 30
0.0
 11
149.19999999999999
 21
210.547
 31
0.0
  0
LINE
  5
1AB
  8
0
 62
     7
 10
149.19999999999999
 20
210.547
 30
0.0
 11
148.786
 21
210.99100000000001
 31
0.0
  0
LINE
  5
1AC
  8
0
 62
     7
 10
148.786
 20
210.99100000000001
 30
0.0
 11
148.31200000000001
 21
211.34700000000001
 31
0.0
  0
LINE
  5
1AD
  8
0
 62
     7
 10
148.31200000000001
 20
211.34700000000001
 30
0.0
 11
147.749
 21
211.613
 31
0.0
  0
LINE
  5
1AE
  8
0
 62
     7
 10
147.749
 20
211.613
 30
0.0
 11
147.15600000000001
 21
211.732
 31
0.0
  0
LINE
  5
1AF
  8
0
 62
     7
 10
150.0
 20
207.88
 30
0.0
 11
149.971
 21
208.05799999999999
 31
0.0
  0
LINE
  5
1B0
  8
0
 62
     7
 10
149.971
 20
208.05799999999999
 30
0.0
 11
149.941
 21
208.26499999999999
 31
0.0
  0
LINE
  5
1B1
  8
0
 62
     7
 10
149.941
 20
208.26499999999999
 30
0.0
 11
149.91200000000001
 21
208.47300000000001
 31
0.0
  0
LINE
  5
1B2
  8
0
 62
     7
 10
149.91200000000001
 20
208.47300000000001
 30
0.0
 11
149.88200000000001
 21
208.65000000000001
 31
0.0
  0
LINE
  5
1B3
  8
0
 62
     7
 10
149.88200000000001
 20
208.65000000000001
 30
0.0
 11
149.852
 21
208.858
 31
0.0
  0
LINE
  5
1B4
  8
0
 62
     7
 10
149.852
 20
208.858
 30
0.0
 11
149.79300000000001
 21
209.03599999999989
 31
0.0
  0
LINE
  5
1B5
  8
0
 62
     7
 10
149.79300000000001
 20
209.03599999999989
 30
0.0
 11
149.76300000000001
 21
209.24299999999999
 31
0.0
  0
LINE
  5
1B6
  8
0
 62
     7
 10
149.76300000000001
 20
209.24299999999999
 30
0.0
 11
149.73400000000001
 21
209.42099999999999
 31
0.0
  0
LINE
  5
1B7
  8
0
 62
     7
 10
148.667
 20
187.02199999999999
 30
0.0
 11
148.578
 21
184.47399999999999
 31
0.0
  0
LINE
  5
1B8
  8
0
 62
     7
 10
148.46000000000001
 20
184.38499999999999
 30
0.0
 11
148.54900000000001
 21
184.41499999999999
 31
0.0
  0
LINE
  5
1B9
  8
0
 62
     7
 10
148.54900000000001
 20
184.41499999999999
 30
0.0
 11
148.578
 21
184.47399999999999
 31
0.0
  0
LINE
  5
1BA
  8
0
 62
     7
 10
149.46700000000001
 20
207.19900000000001
 30
0.0
 11
149.52600000000001
 21
209.006
 31
0.0
  0
LINE
  5
1BB
  8
0
 62
     7
 10
149.52600000000001
 20
209.006
 30
0.0
 11
149.49700000000001
 21
209.124
 31
0.0
  0
LINE
  5
1BC
  8
0
 62
     7
 10
149.49700000000001
 20
209.124
 30
0.0
 11
149.34899999999999
 21
209.21299999999999
 31
0.0
  0
LINE
  5
1BD
  8
0
 62
     7
 10
149.46700000000001
 20
207.19900000000001
 30
0.0
 11
148.667
 21
187.02199999999999
 31
0.0
  0
LINE
  5
1BE
  8
0
 62
     7
 10
149.971
 20
199.91
 30
0.0
 11
150.149
 21
202.19200000000001
 31
0.0
  0
LINE
  5
1BF
  8
0
 62
     7
 10
150.0
 20
207.88
 30
0.0
 11
150.03
 21
207.643
 31
0.0
  0
LINE
  5
1C0
  8
0
 62
     7
 10
150.03
 20
207.643
 30
0.0
 11
150.06
 21
207.40600000000001
 31
0.0
  0
LINE
  5
1C1
  8
0
 62
     7
 10
150.06
 20
207.40600000000001
 30
0.0
 11
150.06
 21
207.16900000000001
 31
0.0
  0
LINE
  5
1C2
  8
0
 62
     7
 10
150.06
 20
207.16900000000001
 30
0.0
 11
150.089
 21
206.96199999999999
 31
0.0
  0
LINE
  5
1C3
  8
0
 62
     7
 10
150.089
 20
206.96199999999999
 30
0.0
 11
150.119
 21
206.72499999999999
 31
0.0
  0
LINE
  5
1C4
  8
0
 62
     7
 10
150.119
 20
206.72499999999999
 30
0.0
 11
150.149
 21
206.488
 31
0.0
  0
LINE
  5
1C5
  8
0
 62
     7
 10
150.149
 20
206.488
 30
0.0
 11
150.178
 21
205.98400000000001
 31
0.0
  0
LINE
  5
1C6
  8
0
 62
     7
 10
150.178
 20
205.98400000000001
 30
0.0
 11
150.178
 21
205.50999999999999
 31
0.0
  0
LINE
  5
1C7
  8
0
 62
     7
 10
150.178
 20
205.50999999999999
 30
0.0
 11
150.208
 21
205.036
 31
0.0
  0
LINE
  5
1C8
  8
0
 62
     7
 10
150.208
 20
205.036
 30
0.0
 11
150.208
 21
203.13999999999999
 31
0.0
  0
LINE
  5
1C9
  8
0
 62
     7
 10
150.208
 20
203.13999999999999
 30
0.0
 11
150.178
 21
202.666
 31
0.0
  0
LINE
  5
1CA
  8
0
 62
     7
 10
150.178
 20
202.666
 30
0.0
 11
150.149
 21
202.19200000000001
 31
0.0
  0
LINE
  5
1CB
  8
0
 62
     7
 10
148.10400000000001
 20
202.16200000000001
 30
0.0
 11
148.01499999999999
 21
200.977
 31
0.0
  0
LINE
  5
1CC
  8
0
 62
     7
 10
148.01499999999999
 20
200.977
 30
0.0
 11
147.92599999999999
 21
199.821
 31
0.0
  0
LINE
  5
1CD
  8
0
 62
     7
 10
147.92599999999999
 20
199.821
 30
0.0
 11
147.83799999999999
 21
198.666
 31
0.0
  0
LINE
  5
1CE
  8
0
 62
     7
 10
147.83799999999999
 20
198.666
 30
0.0
 11
147.71899999999999
 21
197.48099999999999
 31
0.0
  0
LINE
  5
1CF
  8
0
 62
     7
 10
147.71899999999999
 20
197.48099999999999
 30
0.0
 11
147.63
 21
196.32499999999999
 31
0.0
  0
LINE
  5
1D0
  8
0
 62
     7
 10
147.63
 20
196.32499999999999
 30
0.0
 11
147.512
 21
195.1399999999999
 31
0.0
  0
LINE
  5
1D1
  8
0
 62
     7
 10
147.512
 20
195.1399999999999
 30
0.0
 11
147.393
 21
193.98500000000001
 31
0.0
  0
LINE
  5
1D2
  8
0
 62
     7
 10
147.393
 20
193.98500000000001
 30
0.0
 11
147.27500000000001
 21
192.82900000000001
 31
0.0
  0
LINE
  5
1D3
  8
0
 62
     7
 10
147.27500000000001
 20
192.82900000000001
 30
0.0
 11
147.15600000000001
 21
191.64400000000001
 31
0.0
  0
LINE
  5
1D4
  8
0
 62
     7
 10
147.15600000000001
 20
191.64400000000001
 30
0.0
 11
147.00800000000001
 21
190.488
 31
0.0
  0
LINE
  5
1D5
  8
0
 62
     7
 10
147.00800000000001
 20
190.488
 30
0.0
 11
146.88900000000001
 21
189.333
 31
0.0
  0
LINE
  5
1D6
  8
0
 62
     7
 10
146.88900000000001
 20
189.333
 30
0.0
 11
146.74100000000001
 21
188.17699999999999
 31
0.0
  0
LINE
  5
1D7
  8
0
 62
     7
 10
146.74100000000001
 20
188.17699999999999
 30
0.0
 11
146.59299999999999
 21
186.99199999999999
 31
0.0
  0
LINE
  5
1D8
  8
0
 62
     7
 10
146.59299999999999
 20
186.99199999999999
 30
0.0
 11
146.44499999999999
 21
185.83699999999999
 31
0.0
  0
LINE
  5
1D9
  8
0
 62
     7
 10
146.44499999999999
 20
185.83699999999999
 30
0.0
 11
146.268
 21
184.6809999999999
 31
0.0
  0
LINE
  5
1DA
  8
0
 62
     7
 10
146.268
 20
184.6809999999999
 30
0.0
 11
146.119
 21
183.52600000000001
 31
0.0
  0
LINE
  5
1DB
  8
0
 62
     7
 10
144.934
 20
181.541
 30
0.0
 11
145.053
 21
181.63
 31
0.0
  0
LINE
  5
1DC
  8
0
 62
     7
 10
145.053
 20
181.63
 30
0.0
 11
145.14099999999999
 21
181.71899999999999
 31
0.0
  0
LINE
  5
1DD
  8
0
 62
     7
 10
145.14099999999999
 20
181.71899999999999
 30
0.0
 11
145.25999999999999
 21
181.83699999999999
 31
0.0
  0
LINE
  5
1DE
  8
0
 62
     7
 10
145.25999999999999
 20
181.83699999999999
 30
0.0
 11
145.34899999999999
 21
181.92599999999999
 31
0.0
  0
LINE
  5
1DF
  8
0
 62
     7
 10
145.34899999999999
 20
181.92599999999999
 30
0.0
 11
145.46799999999999
 21
182.04400000000001
 31
0.0
  0
LINE
  5
1E0
  8
0
 62
     7
 10
145.46799999999999
 20
182.04400000000001
 30
0.0
 11
145.55600000000001
 21
182.16300000000001
 31
0.0
  0
LINE
  5
1E1
  8
0
 62
     7
 10
145.55600000000001
 20
182.16300000000001
 30
0.0
 11
145.64500000000001
 21
182.28200000000001
 31
0.0
  0
LINE
  5
1E2
  8
0
 62
     7
 10
145.64500000000001
 20
182.28200000000001
 30
0.0
 11
145.70400000000001
 21
182.40000000000001
 31
0.0
  0
LINE
  5
1E3
  8
0
 62
     7
 10
145.70400000000001
 20
182.40000000000001
 30
0.0
 11
145.79300000000001
 21
182.548
 31
0.0
  0
LINE
  5
1E4
  8
0
 62
     7
 10
145.79300000000001
 20
182.548
 30
0.0
 11
145.852
 21
182.667
 31
0.0
  0
LINE
  5
1E5
  8
0
 62
     7
 10
145.852
 20
182.667
 30
0.0
 11
145.91200000000001
 21
182.815
 31
0.0
  0
LINE
  5
1E6
  8
0
 62
     7
 10
145.91200000000001
 20
182.815
 30
0.0
 11
145.971
 21
182.93299999999999
 31
0.0
  0
LINE
  5
1E7
  8
0
 62
     7
 10
145.971
 20
182.93299999999999
 30
0.0
 11
146.001
 21
183.0809999999999
 31
0.0
  0
LINE
  5
1E8
  8
0
 62
     7
 10
146.001
 20
183.0809999999999
 30
0.0
 11
146.06
 21
183.22999999999999
 31
0.0
  0
LINE
  5
1E9
  8
0
 62
     7
 10
146.06
 20
183.22999999999999
 30
0.0
 11
146.09
 21
183.37799999999999
 31
0.0
  0
LINE
  5
1EA
  8
0
 62
     7
 10
146.09
 20
183.37799999999999
 30
0.0
 11
146.119
 21
183.52600000000001
 31
0.0
  0
LINE
  5
1EB
  8
0
 62
     7
 10
143.63
 20
180.97800000000001
 30
0.0
 11
143.72
 21
181.00800000000001
 31
0.0
  0
LINE
  5
1EC
  8
0
 62
     7
 10
143.72
 20
181.00800000000001
 30
0.0
 11
143.80799999999999
 21
181.00800000000001
 31
0.0
  0
LINE
  5
1ED
  8
0
 62
     7
 10
143.80799999999999
 20
181.00800000000001
 30
0.0
 11
143.89699999999999
 21
181.03700000000001
 31
0.0
  0
LINE
  5
1EE
  8
0
 62
     7
 10
143.89699999999999
 20
181.03700000000001
 30
0.0
 11
143.98599999999999
 21
181.06700000000001
 31
0.0
  0
LINE
  5
1EF
  8
0
 62
     7
 10
143.98599999999999
 20
181.06700000000001
 30
0.0
 11
144.07499999999999
 21
181.09599999999989
 31
0.0
  0
LINE
  5
1F0
  8
0
 62
     7
 10
144.07499999999999
 20
181.09599999999989
 30
0.0
 11
144.16399999999999
 21
181.126
 31
0.0
  0
LINE
  5
1F1
  8
0
 62
     7
 10
144.16399999999999
 20
181.126
 30
0.0
 11
144.22300000000001
 21
181.15600000000001
 31
0.0
  0
LINE
  5
1F2
  8
0
 62
     7
 10
144.22300000000001
 20
181.15600000000001
 30
0.0
 11
144.31200000000001
 21
181.185
 31
0.0
  0
LINE
  5
1F3
  8
0
 62
     7
 10
144.31200000000001
 20
181.185
 30
0.0
 11
144.40100000000001
 21
181.215
 31
0.0
  0
LINE
  5
1F4
  8
0
 62
     7
 10
144.40100000000001
 20
181.215
 30
0.0
 11
144.46000000000001
 21
181.245
 31
0.0
  0
LINE
  5
1F5
  8
0
 62
     7
 10
144.46000000000001
 20
181.245
 30
0.0
 11
144.54900000000001
 21
181.304
 31
0.0
  0
LINE
  5
1F6
  8
0
 62
     7
 10
144.54900000000001
 20
181.304
 30
0.0
 11
144.63800000000001
 21
181.333
 31
0.0
  0
LINE
  5
1F7
  8
0
 62
     7
 10
144.63800000000001
 20
181.333
 30
0.0
 11
144.697
 21
181.393
 31
0.0
  0
LINE
  5
1F8
  8
0
 62
     7
 10
144.697
 20
181.393
 30
0.0
 11
144.786
 21
181.422
 31
0.0
  0
LINE
  5
1F9
  8
0
 62
     7
 10
144.786
 20
181.422
 30
0.0
 11
144.845
 21
181.482
 31
0.0
  0
LINE
  5
1FA
  8
0
 62
     7
 10
144.845
 20
181.482
 30
0.0
 11
144.934
 21
181.541
 31
0.0
  0
LINE
  5
1FB
  8
0
 62
     7
 10
146.06
 20
211.643
 30
0.0
 11
146.178
 21
211.584
 31
0.0
  0
LINE
  5
1FC
  8
0
 62
     7
 10
146.178
 20
211.584
 30
0.0
 11
146.327
 21
211.495
 31
0.0
  0
LINE
  5
1FD
  8
0
 62
     7
 10
146.327
 20
211.495
 30
0.0
 11
146.44499999999999
 21
211.40600000000001
 31
0.0
  0
LINE
  5
1FE
  8
0
 62
     7
 10
146.44499999999999
 20
211.40600000000001
 30
0.0
 11
146.56399999999999
 21
211.31700000000001
 31
0.0
  0
LINE
  5
1FF
  8
0
 62
     7
 10
146.56399999999999
 20
211.31700000000001
 30
0.0
 11
146.68199999999999
 21
211.19800000000001
 31
0.0
  0
LINE
  5
200
  8
0
 62
     7
 10
146.68199999999999
 20
211.19800000000001
 30
0.0
 11
146.80099999999999
 21
211.11000000000001
 31
0.0
  0
LINE
  5
201
  8
0
 62
     7
 10
146.80099999999999
 20
211.11000000000001
 30
0.0
 11
146.88900000000001
 21
210.99100000000001
 31
0.0
  0
LINE
  5
202
  8
0
 62
     7
 10
146.88900000000001
 20
210.99100000000001
 30
0.0
 11
146.97800000000001
 21
210.87299999999999
 31
0.0
  0
LINE
  5
203
  8
0
 62
     7
 10
146.97800000000001
 20
210.87299999999999
 30
0.0
 11
147.09700000000001
 21
210.75399999999999
 31
0.0
  0
LINE
  5
204
  8
0
 62
     7
 10
147.09700000000001
 20
210.75399999999999
 30
0.0
 11
147.15600000000001
 21
210.636
 31
0.0
  0
LINE
  5
205
  8
0
 62
     7
 10
147.15600000000001
 20
210.636
 30
0.0
 11
147.245
 21
210.48699999999999
 31
0.0
  0
LINE
  5
206
  8
0
 62
     7
 10
147.245
 20
210.48699999999999
 30
0.0
 11
147.334
 21
210.369
 31
0.0
  0
LINE
  5
207
  8
0
 62
     7
 10
147.334
 20
210.369
 30
0.0
 11
147.393
 21
210.221
 31
0.0
  0
LINE
  5
208
  8
0
 62
     7
 10
147.393
 20
210.221
 30
0.0
 11
147.452
 21
210.10300000000001
 31
0.0
  0
LINE
  5
209
  8
0
 62
     7
 10
147.452
 20
210.10300000000001
 30
0.0
 11
147.512
 21
209.95400000000001
 31
0.0
  0
LINE
  5
20A
  8
0
 62
     7
 10
147.512
 20
209.95400000000001
 30
0.0
 11
147.541
 21
209.80600000000001
 31
0.0
  0
LINE
  5
20B
  8
0
 62
     7
 10
147.541
 20
209.80600000000001
 30
0.0
 11
147.63
 21
209.53999999999999
 31
0.0
  0
LINE
  5
20C
  8
0
 62
     7
 10
147.63
 20
209.53999999999999
 30
0.0
 11
147.68899999999999
 21
209.273
 31
0.0
  0
LINE
  5
20D
  8
0
 62
     7
 10
147.68899999999999
 20
209.273
 30
0.0
 11
147.749
 21
209.006
 31
0.0
  0
LINE
  5
20E
  8
0
 62
     7
 10
147.749
 20
209.006
 30
0.0
 11
147.80799999999999
 21
208.739
 31
0.0
  0
LINE
  5
20F
  8
0
 62
     7
 10
147.80799999999999
 20
208.739
 30
0.0
 11
147.83799999999999
 21
208.47300000000001
 31
0.0
  0
LINE
  5
210
  8
0
 62
     7
 10
147.83799999999999
 20
208.47300000000001
 30
0.0
 11
147.89699999999999
 21
208.20599999999999
 31
0.0
  0
LINE
  5
211
  8
0
 62
     7
 10
147.89699999999999
 20
208.20599999999999
 30
0.0
 11
147.92599999999999
 21
207.94
 31
0.0
  0
LINE
  5
212
  8
0
 62
     7
 10
147.92599999999999
 20
207.94
 30
0.0
 11
147.95599999999999
 21
207.673
 31
0.0
  0
LINE
  5
213
  8
0
 62
     7
 10
146.06
 20
211.643
 30
0.0
 11
145.94200000000001
 21
211.702
 31
0.0
  0
LINE
  5
214
  8
0
 62
     7
 10
145.94200000000001
 20
211.702
 30
0.0
 11
145.79300000000001
 21
211.762
 31
0.0
  0
LINE
  5
215
  8
0
 62
     7
 10
145.79300000000001
 20
211.762
 30
0.0
 11
145.67500000000001
 21
211.821
 31
0.0
  0
LINE
  5
216
  8
0
 62
     7
 10
145.67500000000001
 20
211.821
 30
0.0
 11
145.52699999999999
 21
211.88
 31
0.0
  0
LINE
  5
217
  8
0
 62
     7
 10
145.52699999999999
 20
211.88
 30
0.0
 11
145.40799999999999
 21
211.91
 31
0.0
  0
LINE
  5
218
  8
0
 62
     7
 10
145.40799999999999
 20
211.91
 30
0.0
 11
145.25999999999999
 21
211.93899999999999
 31
0.0
  0
LINE
  5
219
  8
0
 62
     7
 10
145.25999999999999
 20
211.93899999999999
 30
0.0
 11
145.14099999999999
 21
211.96899999999999
 31
0.0
  0
LINE
  5
21A
  8
0
 62
     7
 10
145.14099999999999
 20
211.96899999999999
 30
0.0
 11
144.994
 21
211.999
 31
0.0
  0
LINE
  5
21B
  8
0
 62
     7
 10
147.95599999999999
 20
207.673
 30
0.0
 11
148.01499999999999
 21
207.22800000000001
 31
0.0
  0
LINE
  5
21C
  8
0
 62
     7
 10
148.01499999999999
 20
207.22800000000001
 30
0.0
 11
148.04499999999999
 21
206.78399999999999
 31
0.0
  0
LINE
  5
21D
  8
0
 62
     7
 10
148.04499999999999
 20
206.78399999999999
 30
0.0
 11
148.10400000000001
 21
206.34
 31
0.0
  0
LINE
  5
21E
  8
0
 62
     7
 10
148.10400000000001
 20
206.34
 30
0.0
 11
148.13399999999999
 21
205.89500000000001
 31
0.0
  0
LINE
  5
21F
  8
0
 62
     7
 10
148.13399999999999
 20
205.89500000000001
 30
0.0
 11
148.13399999999999
 21
205.45099999999999
 31
0.0
  0
LINE
  5
220
  8
0
 62
     7
 10
148.13399999999999
 20
205.45099999999999
 30
0.0
 11
148.16300000000001
 21
204.977
 31
0.0
  0
LINE
  5
221
  8
0
 62
     7
 10
148.16300000000001
 20
204.977
 30
0.0
 11
148.16300000000001
 21
203.11000000000001
 31
0.0
  0
LINE
  5
222
  8
0
 62
     7
 10
148.16300000000001
 20
203.11000000000001
 30
0.0
 11
148.13399999999999
 21
202.636
 31
0.0
  0
LINE
  5
223
  8
0
 62
     7
 10
148.13399999999999
 20
202.636
 30
0.0
 11
148.10400000000001
 21
202.16200000000001
 31
0.0
  0
LINE
  5
224
  8
0
 62
     7
 10
138.149
 20
185.59999999999999
 30
0.0
 11
138.149
 21
208.35400000000001
 31
0.0
  0
LINE
  5
225
  8
0
 62
     7
 10
138.327
 20
208.739
 30
0.0
 11
138.208
 21
208.56200000000001
 31
0.0
  0
LINE
  5
226
  8
0
 62
     7
 10
138.208
 20
208.56200000000001
 30
0.0
 11
138.149
 21
208.35400000000001
 31
0.0
  0
LINE
  5
227
  8
0
 62
     7
 10
138.149
 20
185.59999999999999
 30
0.0
 11
138.208
 21
185.392
 31
0.0
  0
LINE
  5
228
  8
0
 62
     7
 10
138.208
 20
185.392
 30
0.0
 11
138.327
 21
185.215
 31
0.0
  0
LINE
  5
229
  8
0
 62
     7
 10
135.749
 20
214.57599999999999
 30
0.0
 11
135.839
 21
214.57599999999999
 31
0.0
  0
LINE
  5
22A
  8
0
  6
AIGENLINE001
 62
     7
 10
146.59299999999999
 20
204.083
 30
0.0
 11
154.56299999999999
 21
204.083
 31
0.0
  0
LINE
  5
22B
  8
0
 62
     7
 10
135.749
 20
214.57599999999999
 30
0.0
 11
135.601
 21
214.517
 31
0.0
  0
LINE
  5
22C
  8
0
 62
     7
 10
135.601
 20
214.517
 30
0.0
 11
135.542
 21
214.398
 31
0.0
  0
LINE
  5
22D
  8
0
 62
     7
 10
136.04599999999999
 20
214.78299999999999
 30
0.0
 11
136.04599999999999
 21
215.376
 31
0.0
  0
LINE
  5
22E
  8
0
 62
     7
 10
135.839
 20
214.57599999999999
 30
0.0
 11
135.98599999999999
 21
214.63499999999999
 31
0.0
  0
LINE
  5
22F
  8
0
 62
     7
 10
135.98599999999999
 20
214.63499999999999
 30
0.0
 11
136.04599999999999
 21
214.78299999999999
 31
0.0
  0
LINE
  5
230
  8
0
 62
     7
 10
153.542
 20
201.125
 30
0.0
 11
153.542
 21
207.05099999999999
 31
0.0
  0
LINE
  5
231
  8
0
 62
     7
 10
140.25299999999999
 20
215.583
 30
0.0
 11
136.25299999999999
 21
215.583
 31
0.0
  0
LINE
  5
232
  8
0
 62
     7
 10
136.25299999999999
 20
215.583
 30
0.0
 11
136.10499999999999
 21
215.524
 31
0.0
  0
LINE
  5
233
  8
0
 62
     7
 10
136.10499999999999
 20
215.524
 30
0.0
 11
136.04599999999999
 21
215.376
 31
0.0
  0
LINE
  5
234
  8
0
 62
     7
 10
135.749
 20
178.10400000000001
 30
0.0
 11
138.03100000000001
 21
178.10400000000001
 31
0.0
  0
LINE
  5
235
  8
0
 62
     7
 10
135.542
 20
178.28200000000001
 30
0.0
 11
135.601
 21
178.13399999999999
 31
0.0
  0
LINE
  5
236
  8
0
 62
     7
 10
135.601
 20
178.13399999999999
 30
0.0
 11
135.749
 21
178.10400000000001
 31
0.0
  0
LINE
  5
237
  8
0
 62
     7
 10
135.542
 20
178.28200000000001
 30
0.0
 11
135.542
 21
214.398
 31
0.0
  0
LINE
  5
238
  8
0
 62
     7
 10
148.19300000000001
 20
151.39099999999999
 30
0.0
 11
148.22300000000001
 21
151.27199999999999
 31
0.0
  0
LINE
  5
239
  8
0
 62
     7
 10
148.22300000000001
 20
151.27199999999999
 30
0.0
 11
148.34100000000001
 21
151.21299999999999
 31
0.0
  0
LINE
  5
23A
  8
0
 62
     7
 10
148.34100000000001
 20
151.21299999999999
 30
0.0
 11
149.37799999999999
 21
151.065
 31
0.0
  0
LINE
  5
23B
  8
0
 62
     7
 10
149.55600000000001
 20
150.887
 30
0.0
 11
149.49700000000001
 21
151.005
 31
0.0
  0
LINE
  5
23C
  8
0
 62
     7
 10
149.49700000000001
 20
151.005
 30
0.0
 11
149.37799999999999
 21
151.065
 31
0.0
  0
LINE
  5
23D
  8
0
 62
     7
 10
148.54900000000001
 20
150.08699999999999
 30
0.0
 11
149.37799999999999
 21
150.20500000000001
 31
0.0
  0
LINE
  5
23E
  8
0
 62
     7
 10
149.37799999999999
 20
150.20500000000001
 30
0.0
 11
149.49700000000001
 21
150.29400000000001
 31
0.0
  0
LINE
  5
23F
  8
0
 62
     7
 10
149.49700000000001
 20
150.29400000000001
 30
0.0
 11
149.55600000000001
 21
150.41300000000001
 31
0.0
  0
LINE
  5
240
  8
0
 62
     7
 10
149.55600000000001
 20
150.41300000000001
 30
0.0
 11
149.55600000000001
 21
150.887
 31
0.0
  0
LINE
  5
241
  8
0
 62
     7
 10
148.54900000000001
 20
150.887
 30
0.0
 11
148.51900000000001
 21
151.005
 31
0.0
  0
LINE
  5
242
  8
0
 62
     7
 10
148.51900000000001
 20
151.005
 30
0.0
 11
148.37100000000001
 21
151.065
 31
0.0
  0
LINE
  5
243
  8
0
 62
     7
 10
148.19300000000001
 20
151.24199999999999
 30
0.0
 11
146.47499999999999
 21
151.24199999999999
 31
0.0
  0
LINE
  5
244
  8
0
 62
     7
 10
146.47499999999999
 20
151.21299999999999
 30
0.0
 11
148.37100000000001
 21
151.065
 31
0.0
  0
LINE
  5
245
  8
0
 62
     7
 10
143.86699999999999
 20
154.32400000000001
 30
0.0
 11
143.95599999999999
 21
154.2939999999999
 31
0.0
  0
LINE
  5
246
  8
0
 62
     7
 10
143.95599999999999
 20
154.2939999999999
 30
0.0
 11
144.07499999999999
 21
154.26400000000001
 31
0.0
  0
LINE
  5
247
  8
0
 62
     7
 10
144.07499999999999
 20
154.26400000000001
 30
0.0
 11
144.19399999999999
 21
154.23500000000001
 31
0.0
  0
LINE
  5
248
  8
0
 62
     7
 10
144.19399999999999
 20
154.23500000000001
 30
0.0
 11
144.28200000000001
 21
154.20500000000001
 31
0.0
  0
LINE
  5
249
  8
0
 62
     7
 10
144.28200000000001
 20
154.20500000000001
 30
0.0
 11
144.40100000000001
 21
154.17599999999999
 31
0.0
  0
LINE
  5
24A
  8
0
 62
     7
 10
144.40100000000001
 20
154.17599999999999
 30
0.0
 11
144.49000000000001
 21
154.11600000000001
 31
0.0
  0
LINE
  5
24B
  8
0
 62
     7
 10
144.49000000000001
 20
154.11600000000001
 30
0.0
 11
144.578
 21
154.08699999999999
 31
0.0
  0
LINE
  5
24C
  8
0
 62
     7
 10
144.578
 20
154.08699999999999
 30
0.0
 11
144.697
 21
154.02699999999999
 31
0.0
  0
LINE
  5
24D
  8
0
 62
     7
 10
144.697
 20
154.02699999999999
 30
0.0
 11
144.786
 21
153.96799999999999
 31
0.0
  0
LINE
  5
24E
  8
0
 62
     7
 10
144.786
 20
153.96799999999999
 30
0.0
 11
144.875
 21
153.90899999999999
 31
0.0
  0
LINE
  5
24F
  8
0
 62
     7
 10
144.875
 20
153.90899999999999
 30
0.0
 11
144.964
 21
153.84999999999999
 31
0.0
  0
LINE
  5
250
  8
0
 62
     7
 10
144.964
 20
153.84999999999999
 30
0.0
 11
145.053
 21
153.78999999999999
 31
0.0
  0
LINE
  5
251
  8
0
 62
     7
 10
145.053
 20
153.78999999999999
 30
0.0
 11
145.14099999999999
 21
153.70099999999999
 31
0.0
  0
LINE
  5
252
  8
0
 62
     7
 10
145.14099999999999
 20
153.70099999999999
 30
0.0
 11
145.22999999999999
 21
153.642
 31
0.0
  0
LINE
  5
253
  8
0
 62
     7
 10
145.22999999999999
 20
153.642
 30
0.0
 11
145.31899999999999
 21
153.553
 31
0.0
  0
LINE
  5
254
  8
0
 62
     7
 10
145.31899999999999
 20
153.553
 30
0.0
 11
145.37799999999999
 21
153.494
 31
0.0
  0
LINE
  5
255
  8
0
 62
     7
 10
145.37799999999999
 20
153.494
 30
0.0
 11
145.46799999999999
 21
153.405
 31
0.0
  0
LINE
  5
256
  8
0
 62
     7
 10
145.46799999999999
 20
153.405
 30
0.0
 11
145.52699999999999
 21
153.316
 31
0.0
  0
LINE
  5
257
  8
0
 62
     7
 10
145.52699999999999
 20
153.316
 30
0.0
 11
145.58600000000001
 21
153.227
 31
0.0
  0
LINE
  5
258
  8
0
 62
     7
 10
145.58600000000001
 20
153.227
 30
0.0
 11
145.64500000000001
 21
153.13900000000001
 31
0.0
  0
LINE
  5
259
  8
0
 62
     7
 10
145.64500000000001
 20
153.13900000000001
 30
0.0
 11
145.73400000000001
 21
153.05000000000001
 31
0.0
  0
LINE
  5
25A
  8
0
 62
     7
 10
145.73400000000001
 20
153.05000000000001
 30
0.0
 11
145.76400000000001
 21
152.96100000000001
 31
0.0
  0
LINE
  5
25B
  8
0
 62
     7
 10
145.76400000000001
 20
152.96100000000001
 30
0.0
 11
145.82300000000001
 21
152.84200000000001
 31
0.0
  0
LINE
  5
25C
  8
0
 62
     7
 10
145.82300000000001
 20
152.84200000000001
 30
0.0
 11
145.88200000000001
 21
152.75299999999999
 31
0.0
  0
LINE
  5
25D
  8
0
 62
     7
 10
145.88200000000001
 20
152.75299999999999
 30
0.0
 11
145.91200000000001
 21
152.66499999999999
 31
0.0
  0
LINE
  5
25E
  8
0
 62
     7
 10
145.91200000000001
 20
152.66499999999999
 30
0.0
 11
145.971
 21
152.54599999999999
 31
0.0
  0
LINE
  5
25F
  8
0
 62
     7
 10
145.971
 20
152.54599999999999
 30
0.0
 11
146.001
 21
152.42699999999999
 31
0.0
  0
LINE
  5
260
  8
0
 62
     7
 10
146.001
 20
152.42699999999999
 30
0.0
 11
146.03
 21
152.339
 31
0.0
  0
LINE
  5
261
  8
0
 62
     7
 10
146.03
 20
152.339
 30
0.0
 11
146.06
 21
152.22
 31
0.0
  0
LINE
  5
262
  8
0
 62
     7
 10
146.06
 20
152.22
 30
0.0
 11
146.09
 21
152.131
 31
0.0
  0
LINE
  5
263
  8
0
 62
     7
 10
146.09
 20
152.131
 30
0.0
 11
146.09
 21
152.01300000000001
 31
0.0
  0
LINE
  5
264
  8
0
 62
     7
 10
146.09
 20
152.01300000000001
 30
0.0
 11
146.119
 21
151.89400000000001
 31
0.0
  0
LINE
  5
265
  8
0
 62
     7
 10
148.25200000000001
 20
123.00700000000001
 30
0.0
 11
148.25200000000001
 21
123.333
 31
0.0
  0
LINE
  5
266
  8
0
 62
     7
 10
148.25200000000001
 20
123.333
 30
0.0
 11
148.22300000000001
 21
123.36199999999999
 31
0.0
  0
LINE
  5
267
  8
0
 62
     7
 10
148.22300000000001
 20
123.36199999999999
 30
0.0
 11
148.22300000000001
 21
123.599
 31
0.0
  0
LINE
  5
268
  8
0
 62
     7
 10
148.22300000000001
 20
123.599
 30
0.0
 11
148.19300000000001
 21
124.044
 31
0.0
  0
LINE
  5
269
  8
0
 62
     7
 10
148.19300000000001
 20
124.044
 30
0.0
 11
148.16300000000001
 21
124.962
 31
0.0
  0
LINE
  5
26A
  8
0
 62
     7
 10
148.16300000000001
 20
124.962
 30
0.0
 11
148.04499999999999
 21
126.73999999999999
 31
0.0
  0
LINE
  5
26B
  8
0
 62
     7
 10
148.04499999999999
 20
126.73999999999999
 30
0.0
 11
147.95599999999999
 21
128.547
 31
0.0
  0
LINE
  5
26C
  8
0
 62
     7
 10
147.95599999999999
 20
128.547
 30
0.0
 11
147.83799999999999
 21
130.35499999999999
 31
0.0
  0
LINE
  5
26D
  8
0
 62
     7
 10
147.83799999999999
 20
130.35499999999999
 30
0.0
 11
147.71899999999999
 21
132.13200000000001
 31
0.0
  0
LINE
  5
26E
  8
0
 62
     7
 10
147.71899999999999
 20
132.13200000000001
 30
0.0
 11
147.601
 21
133.94
 31
0.0
  0
LINE
  5
26F
  8
0
 62
     7
 10
147.601
 20
133.94
 30
0.0
 11
147.482
 21
135.74700000000001
 31
0.0
  0
LINE
  5
270
  8
0
 62
     7
 10
147.482
 20
135.74700000000001
 30
0.0
 11
147.334
 21
137.52500000000001
 31
0.0
  0
LINE
  5
271
  8
0
 62
     7
 10
147.334
 20
137.52500000000001
 30
0.0
 11
147.215
 21
139.33199999999999
 31
0.0
  0
LINE
  5
272
  8
0
 62
     7
 10
147.215
 20
139.33199999999999
 30
0.0
 11
147.06700000000001
 21
141.13900000000001
 31
0.0
  0
LINE
  5
273
  8
0
 62
     7
 10
147.06700000000001
 20
141.13900000000001
 30
0.0
 11
146.91900000000001
 21
142.917
 31
0.0
  0
LINE
  5
274
  8
0
 62
     7
 10
146.91900000000001
 20
142.917
 30
0.0
 11
146.77099999999999
 21
144.72399999999999
 31
0.0
  0
LINE
  5
275
  8
0
 62
     7
 10
146.77099999999999
 20
144.72399999999999
 30
0.0
 11
146.59299999999999
 21
146.50200000000001
 31
0.0
  0
LINE
  5
276
  8
0
 62
     7
 10
146.59299999999999
 20
146.50200000000001
 30
0.0
 11
146.44499999999999
 21
148.309
 31
0.0
  0
LINE
  5
277
  8
0
 62
     7
 10
146.44499999999999
 20
148.309
 30
0.0
 11
146.268
 21
150.11699999999999
 31
0.0
  0
LINE
  5
278
  8
0
 62
     7
 10
146.268
 20
150.11699999999999
 30
0.0
 11
146.119
 21
151.89400000000001
 31
0.0
  0
LINE
  5
279
  8
0
 62
     7
 10
149.55600000000001
 20
134.23599999999999
 30
0.0
 11
149.55600000000001
 21
149.05000000000001
 31
0.0
  0
LINE
  5
27A
  8
0
 62
     7
 10
149.55600000000001
 20
149.05000000000001
 30
0.0
 11
149.55600000000001
 21
149.87899999999999
 31
0.0
  0
LINE
  5
27B
  8
0
 62
     7
 10
149.55600000000001
 20
149.87899999999999
 30
0.0
 11
149.52600000000001
 21
150.14599999999999
 31
0.0
  0
LINE
  5
27C
  8
0
 62
     7
 10
149.52600000000001
 20
150.14599999999999
 30
0.0
 11
149.52600000000001
 21
150.26499999999999
 31
0.0
  0
LINE
  5
27D
  8
0
 62
     7
 10
148.54900000000001
 20
150.887
 30
0.0
 11
148.54900000000001
 21
123.00700000000001
 31
0.0
  0
LINE
  5
27E
  8
0
 62
     7
 10
146.47499999999999
 20
151.24199999999999
 30
0.0
 11
146.44499999999999
 21
151.24199999999999
 31
0.0
  0
LINE
  5
27F
  8
0
 62
     7
 10
146.44499999999999
 20
151.24199999999999
 30
0.0
 11
146.44499999999999
 21
151.21299999999999
 31
0.0
  0
LINE
  5
280
  8
0
 62
     7
 10
146.44499999999999
 20
151.21299999999999
 30
0.0
 11
146.41499999999999
 21
151.21299999999999
 31
0.0
  0
LINE
  5
281
  8
0
 62
     7
 10
146.41499999999999
 20
151.21299999999999
 30
0.0
 11
146.41499999999999
 21
151.18299999999999
 31
0.0
  0
LINE
  5
282
  8
0
 62
     7
 10
146.41499999999999
 20
151.18299999999999
 30
0.0
 11
146.386
 21
151.15299999999999
 31
0.0
  0
LINE
  5
283
  8
0
 62
     7
 10
146.386
 20
151.15299999999999
 30
0.0
 11
146.386
 21
151.09399999999999
 31
0.0
  0
LINE
  5
284
  8
0
 62
     7
 10
146.386
 20
151.09399999999999
 30
0.0
 11
146.35599999999999
 21
151.035
 31
0.0
  0
LINE
  5
285
  8
0
 62
     7
 10
146.35599999999999
 20
151.035
 30
0.0
 11
146.35599999999999
 21
150.887
 31
0.0
  0
LINE
  5
286
  8
0
 62
     7
 10
146.35599999999999
 20
150.887
 30
0.0
 11
146.327
 21
150.828
 31
0.0
  0
LINE
  5
287
  8
0
 62
     7
 10
146.327
 20
150.828
 30
0.0
 11
146.327
 21
149.702
 31
0.0
  0
LINE
  5
288
  8
0
 62
     7
 10
146.327
 20
149.702
 30
0.0
 11
146.35599999999999
 21
149.465
 31
0.0
  0
LINE
  5
289
  8
0
 62
     7
 10
146.35599999999999
 20
149.465
 30
0.0
 11
146.35599999999999
 21
149.25700000000001
 31
0.0
  0
LINE
  5
28A
  8
0
 62
     7
 10
146.35599999999999
 20
149.25700000000001
 30
0.0
 11
146.386
 21
149.05000000000001
 31
0.0
  0
LINE
  5
28B
  8
0
 62
     7
 10
148.19300000000001
 20
151.39099999999999
 30
0.0
 11
148.16300000000001
 21
151.53899999999999
 31
0.0
  0
LINE
  5
28C
  8
0
 62
     7
 10
150.23699999999999
 20
123.00700000000001
 30
0.0
 11
149.76300000000001
 21
131.095
 31
0.0
  0
LINE
  5
28D
  8
0
 62
     7
 10
149.76300000000001
 20
131.095
 30
0.0
 11
149.19999999999999
 21
139.184
 31
0.0
  0
LINE
  5
28E
  8
0
 62
     7
 10
149.19999999999999
 20
139.184
 30
0.0
 11
148.54900000000001
 21
147.27199999999999
 31
0.0
  0
LINE
  5
28F
  8
0
 62
     7
 10
148.16300000000001
 20
151.53899999999999
 30
0.0
 11
148.07499999999999
 21
152.042
 31
0.0
  0
LINE
  5
290
  8
0
 62
     7
 10
148.07499999999999
 20
152.042
 30
0.0
 11
147.89699999999999
 21
152.51599999999999
 31
0.0
  0
LINE
  5
291
  8
0
 62
     7
 10
147.89699999999999
 20
152.51599999999999
 30
0.0
 11
147.63
 21
152.93100000000001
 31
0.0
  0
LINE
  5
292
  8
0
 62
     7
 10
147.63
 20
152.93100000000001
 30
0.0
 11
147.27500000000001
 21
153.316
 31
0.0
  0
LINE
  5
293
  8
0
 62
     7
 10
147.27500000000001
 20
153.316
 30
0.0
 11
146.88900000000001
 21
153.613
 31
0.0
  0
LINE
  5
294
  8
0
 62
     7
 10
146.88900000000001
 20
153.613
 30
0.0
 11
146.41499999999999
 21
153.81999999999999
 31
0.0
  0
LINE
  5
295
  8
0
 62
     7
 10
146.41499999999999
 20
153.81999999999999
 30
0.0
 11
145.94200000000001
 21
153.96799999999999
 31
0.0
  0
LINE
  5
296
  8
0
 62
     7
 10
148.34100000000001
 20
94.7714
 30
0.0
 11
148.22300000000001
 21
94.712100000000007
 31
0.0
  0
LINE
  5
297
  8
0
 62
     7
 10
148.22300000000001
 20
94.712100000000007
 30
0.0
 11
148.19300000000001
 21
94.593599999999995
 31
0.0
  0
LINE
  5
298
  8
0
 62
     7
 10
148.34100000000001
 20
94.7714
 30
0.0
 11
149.37799999999999
 21
94.919499999999999
 31
0.0
  0
LINE
  5
299
  8
0
 62
     7
 10
149.37799999999999
 20
94.919499999999999
 30
0.0
 11
149.49700000000001
 21
95.008399999999995
 31
0.0
  0
LINE
  5
29A
  8
0
 62
     7
 10
149.49700000000001
 20
95.008399999999995
 30
0.0
 11
149.55600000000001
 21
95.126900000000006
 31
0.0
  0
LINE
  5
29B
  8
0
 62
     7
 10
149.37799999999999
 20
95.778700000000001
 30
0.0
 11
148.54900000000001
 21
95.926900000000003
 31
0.0
  0
LINE
  5
29C
  8
0
 62
     7
 10
149.55600000000001
 20
95.571299999999994
 30
0.0
 11
149.49700000000001
 21
95.719499999999996
 31
0.0
  0
LINE
  5
29D
  8
0
 62
     7
 10
149.49700000000001
 20
95.719499999999996
 30
0.0
 11
149.37799999999999
 21
95.778700000000001
 31
0.0
  0
LINE
  5
29E
  8
0
 62
     7
 10
149.55600000000001
 20
95.126900000000006
 30
0.0
 11
149.55600000000001
 21
95.571299999999994
 31
0.0
  0
LINE
  5
29F
  8
0
 62
     7
 10
148.37100000000001
 20
94.919499999999999
 30
0.0
 11
148.51900000000001
 21
95.008399999999995
 31
0.0
  0
LINE
  5
2A0
  8
0
 62
     7
 10
148.51900000000001
 20
95.008399999999995
 30
0.0
 11
148.54900000000001
 21
95.126900000000006
 31
0.0
  0
LINE
  5
2A1
  8
0
 62
     7
 10
148.19300000000001
 20
94.741799999999998
 30
0.0
 11
146.47499999999999
 21
94.741799999999998
 31
0.0
  0
LINE
  5
2A2
  8
0
 62
     7
 10
146.47499999999999
 20
94.7714
 30
0.0
 11
148.37100000000001
 21
94.919499999999999
 31
0.0
  0
LINE
  5
2A3
  8
0
 62
     7
 10
150.386
 20
126.473
 30
0.0
 11
153.27500000000001
 21
126.26600000000001
 31
0.0
  0
LINE
  5
2A4
  8
0
 62
     7
 10
153.27500000000001
 20
119.718
 30
0.0
 11
153.39400000000001
 21
119.777
 31
0.0
  0
LINE
  5
2A5
  8
0
 62
     7
 10
153.39400000000001
 20
119.777
 30
0.0
 11
153.512
 21
119.896
 31
0.0
  0
LINE
  5
2A6
  8
0
 62
     7
 10
153.512
 20
119.896
 30
0.0
 11
153.542
 21
120.044
 31
0.0
  0
LINE
  5
2A7
  8
0
 62
     7
 10
150.386
 20
119.511
 30
0.0
 11
150.208
 21
119.48099999999999
 31
0.0
  0
LINE
  5
2A8
  8
0
 62
     7
 10
150.208
 20
119.48099999999999
 30
0.0
 11
150.06
 21
119.333
 31
0.0
  0
LINE
  5
2A9
  8
0
 62
     7
 10
150.06
 20
119.333
 30
0.0
 11
150.03
 21
119.155
 31
0.0
  0
LINE
  5
2AA
  8
0
 62
     7
 10
150.386
 20
119.511
 30
0.0
 11
153.27500000000001
 21
119.718
 31
0.0
  0
LINE
  5
2AB
  8
0
 62
     7
 10
143.86699999999999
 20
91.690100000000001
 30
0.0
 11
143.95599999999999
 21
91.690100000000001
 31
0.0
  0
LINE
  5
2AC
  8
0
 62
     7
 10
143.95599999999999
 20
91.690100000000001
 30
0.0
 11
144.07499999999999
 21
91.719699999999989
 31
0.0
  0
LINE
  5
2AD
  8
0
 62
     7
 10
144.07499999999999
 20
91.719699999999989
 30
0.0
 11
144.19399999999999
 21
91.749300000000005
 31
0.0
  0
LINE
  5
2AE
  8
0
 62
     7
 10
144.19399999999999
 20
91.749300000000005
 30
0.0
 11
144.28200000000001
 21
91.808599999999998
 31
0.0
  0
LINE
  5
2AF
  8
0
 62
     7
 10
144.28200000000001
 20
91.808599999999998
 30
0.0
 11
144.40100000000001
 21
91.838200000000001
 31
0.0
  0
LINE
  5
2B0
  8
0
 62
     7
 10
144.40100000000001
 20
91.838200000000001
 30
0.0
 11
144.49000000000001
 21
91.867800000000003
 31
0.0
  0
LINE
  5
2B1
  8
0
 62
     7
 10
144.49000000000001
 20
91.867800000000003
 30
0.0
 11
144.578
 21
91.927099999999996
 31
0.0
  0
LINE
  5
2B2
  8
0
 62
     7
 10
144.578
 20
91.927099999999996
 30
0.0
 11
144.697
 21
91.986400000000003
 31
0.0
  0
LINE
  5
2B3
  8
0
 62
     7
 10
144.697
 20
91.986400000000003
 30
0.0
 11
144.786
 21
92.016000000000005
 31
0.0
  0
LINE
  5
2B4
  8
0
 62
     7
 10
144.786
 20
92.016000000000005
 30
0.0
 11
144.875
 21
92.075199999999995
 31
0.0
  0
LINE
  5
2B5
  8
0
 62
     7
 10
144.875
 20
92.075199999999995
 30
0.0
 11
144.964
 21
92.164100000000005
 31
0.0
  0
LINE
  5
2B6
  8
0
 62
     7
 10
144.964
 20
92.164100000000005
 30
0.0
 11
145.053
 21
92.223399999999998
 31
0.0
  0
LINE
  5
2B7
  8
0
 62
     7
 10
145.053
 20
92.223399999999998
 30
0.0
 11
145.14099999999999
 21
92.282600000000002
 31
0.0
  0
LINE
  5
2B8
  8
0
 62
     7
 10
145.14099999999999
 20
92.282600000000002
 30
0.0
 11
145.22999999999999
 21
92.371499999999983
 31
0.0
  0
LINE
  5
2B9
  8
0
 62
     7
 10
145.22999999999999
 20
92.371499999999983
 30
0.0
 11
145.31899999999999
 21
92.430800000000005
 31
0.0
  0
LINE
  5
2BA
  8
0
 62
     7
 10
145.31899999999999
 20
92.430800000000005
 30
0.0
 11
145.37799999999999
 21
92.5197
 31
0.0
  0
LINE
  5
2BB
  8
0
 62
     7
 10
145.37799999999999
 20
92.5197
 30
0.0
 11
145.46799999999999
 21
92.608500000000006
 31
0.0
  0
LINE
  5
2BC
  8
0
 62
     7
 10
145.46799999999999
 20
92.608500000000006
 30
0.0
 11
145.52699999999999
 21
92.6678
 31
0.0
  0
LINE
  5
2BD
  8
0
 62
     7
 10
145.52699999999999
 20
92.6678
 30
0.0
 11
145.58600000000001
 21
92.756699999999995
 31
0.0
  0
LINE
  5
2BE
  8
0
 62
     7
 10
145.58600000000001
 20
92.756699999999995
 30
0.0
 11
145.64500000000001
 21
92.845600000000005
 31
0.0
  0
LINE
  5
2BF
  8
0
 62
     7
 10
145.64500000000001
 20
92.845600000000005
 30
0.0
 11
145.73400000000001
 21
92.964099999999988
 31
0.0
  0
LINE
  5
2C0
  8
0
 62
     7
 10
145.73400000000001
 20
92.964099999999988
 30
0.0
 11
145.76400000000001
 21
93.052999999999997
 31
0.0
  0
LINE
  5
2C1
  8
0
 62
     7
 10
145.76400000000001
 20
93.052999999999997
 30
0.0
 11
145.82300000000001
 21
93.141800000000003
 31
0.0
  0
LINE
  5
2C2
  8
0
 62
     7
 10
145.82300000000001
 20
93.141800000000003
 30
0.0
 11
145.88200000000001
 21
93.260400000000004
 31
0.0
  0
LINE
  5
2C3
  8
0
 62
     7
 10
145.88200000000001
 20
93.260400000000004
 30
0.0
 11
145.91200000000001
 21
93.349199999999996
 31
0.0
  0
LINE
  5
2C4
  8
0
 62
     7
 10
145.91200000000001
 20
93.349199999999996
 30
0.0
 11
145.971
 21
93.467799999999997
 31
0.0
  0
LINE
  5
2C5
  8
0
 62
     7
 10
145.971
 20
93.467799999999997
 30
0.0
 11
146.001
 21
93.556600000000003
 31
0.0
  0
LINE
  5
2C6
  8
0
 62
     7
 10
146.001
 20
93.556600000000003
 30
0.0
 11
146.03
 21
93.675200000000004
 31
0.0
  0
LINE
  5
2C7
  8
0
 62
     7
 10
146.03
 20
93.675200000000004
 30
0.0
 11
146.06
 21
93.763999999999996
 31
0.0
  0
LINE
  5
2C8
  8
0
 62
     7
 10
146.06
 20
93.763999999999996
 30
0.0
 11
146.09
 21
93.882499999999993
 31
0.0
  0
LINE
  5
2C9
  8
0
 62
     7
 10
146.09
 20
93.882499999999993
 30
0.0
 11
146.09
 21
94.001099999999994
 31
0.0
  0
LINE
  5
2CA
  8
0
 62
     7
 10
146.09
 20
94.001099999999994
 30
0.0
 11
146.119
 21
94.089900000000014
 31
0.0
  0
LINE
  5
2CB
  8
0
 62
     7
 10
148.25200000000001
 20
123.00700000000001
 30
0.0
 11
148.25200000000001
 21
122.681
 31
0.0
  0
LINE
  5
2CC
  8
0
 62
     7
 10
148.25200000000001
 20
122.681
 30
0.0
 11
148.22300000000001
 21
122.622
 31
0.0
  0
LINE
  5
2CD
  8
0
 62
     7
 10
148.22300000000001
 20
122.622
 30
0.0
 11
148.22300000000001
 21
122.38500000000001
 31
0.0
  0
LINE
  5
2CE
  8
0
 62
     7
 10
148.22300000000001
 20
122.38500000000001
 30
0.0
 11
148.19300000000001
 21
121.94
 31
0.0
  0
LINE
  5
2CF
  8
0
 62
     7
 10
148.19300000000001
 20
121.94
 30
0.0
 11
148.16300000000001
 21
121.051
 31
0.0
  0
LINE
  5
2D0
  8
0
 62
     7
 10
148.16300000000001
 20
121.051
 30
0.0
 11
148.04499999999999
 21
119.244
 31
0.0
  0
LINE
  5
2D1
  8
0
 62
     7
 10
148.04499999999999
 20
119.244
 30
0.0
 11
147.95599999999999
 21
117.46599999999999
 31
0.0
  0
LINE
  5
2D2
  8
0
 62
     7
 10
147.95599999999999
 20
117.46599999999999
 30
0.0
 11
147.83799999999999
 21
115.65900000000001
 31
0.0
  0
LINE
  5
2D3
  8
0
 62
     7
 10
147.83799999999999
 20
115.65900000000001
 30
0.0
 11
147.71899999999999
 21
113.852
 31
0.0
  0
LINE
  5
2D4
  8
0
 62
     7
 10
147.71899999999999
 20
113.852
 30
0.0
 11
147.601
 21
112.045
 31
0.0
  0
LINE
  5
2D5
  8
0
 62
     7
 10
147.601
 20
112.045
 30
0.0
 11
147.482
 21
110.267
 31
0.0
  0
LINE
  5
2D6
  8
0
 62
     7
 10
147.482
 20
110.267
 30
0.0
 11
147.334
 21
108.45999999999999
 31
0.0
  0
LINE
  5
2D7
  8
0
 62
     7
 10
147.334
 20
108.45999999999999
 30
0.0
 11
147.215
 21
106.652
 31
0.0
  0
LINE
  5
2D8
  8
0
 62
     7
 10
147.215
 20
106.652
 30
0.0
 11
147.06700000000001
 21
104.875
 31
0.0
  0
LINE
  5
2D9
  8
0
 62
     7
 10
147.06700000000001
 20
104.875
 30
0.0
 11
146.91900000000001
 21
103.06699999999999
 31
0.0
  0
LINE
  5
2DA
  8
0
 62
     7
 10
146.91900000000001
 20
103.06699999999999
 30
0.0
 11
146.77099999999999
 21
101.29000000000001
 31
0.0
  0
LINE
  5
2DB
  8
0
 62
     7
 10
146.77099999999999
 20
101.29000000000001
 30
0.0
 11
146.59299999999999
 21
99.482200000000006
 31
0.0
  0
LINE
  5
2DC
  8
0
 62
     7
 10
146.59299999999999
 20
99.482200000000006
 30
0.0
 11
146.44499999999999
 21
97.674899999999994
 31
0.0
  0
LINE
  5
2DD
  8
0
 62
     7
 10
146.44499999999999
 20
97.674899999999994
 30
0.0
 11
146.268
 21
95.897300000000016
 31
0.0
  0
LINE
  5
2DE
  8
0
 62
     7
 10
146.268
 20
95.897300000000016
 30
0.0
 11
146.119
 21
94.089900000000014
 31
0.0
  0
LINE
  5
2DF
  8
0
 62
     7
 10
149.55600000000001
 20
111.77800000000001
 30
0.0
 11
149.55600000000001
 21
96.963899999999995
 31
0.0
  0
LINE
  5
2E0
  8
0
 62
     7
 10
149.55600000000001
 20
96.963899999999995
 30
0.0
 11
149.55600000000001
 21
96.104600000000005
 31
0.0
  0
LINE
  5
2E1
  8
0
 62
     7
 10
149.55600000000001
 20
96.104600000000005
 30
0.0
 11
149.52600000000001
 21
95.867599999999996
 31
0.0
  0
LINE
  5
2E2
  8
0
 62
     7
 10
149.52600000000001
 20
95.867599999999996
 30
0.0
 11
149.52600000000001
 21
95.719499999999996
 31
0.0
  0
LINE
  5
2E3
  8
0
 62
     7
 10
148.54900000000001
 20
95.126900000000006
 30
0.0
 11
148.54900000000001
 21
123.00700000000001
 31
0.0
  0
LINE
  5
2E4
  8
0
 62
     7
 10
146.47499999999999
 20
94.741799999999998
 30
0.0
 11
146.44499999999999
 21
94.7714
 31
0.0
  0
LINE
  5
2E5
  8
0
 62
     7
 10
146.44499999999999
 20
94.7714
 30
0.0
 11
146.41499999999999
 21
94.801000000000002
 31
0.0
  0
LINE
  5
2E6
  8
0
 62
     7
 10
146.41499999999999
 20
94.801000000000002
 30
0.0
 11
146.41499999999999
 21
94.830600000000004
 31
0.0
  0
LINE
  5
2E7
  8
0
 62
     7
 10
146.41499999999999
 20
94.830600000000004
 30
0.0
 11
146.386
 21
94.860299999999995
 31
0.0
  0
LINE
  5
2E8
  8
0
 62
     7
 10
146.386
 20
94.860299999999995
 30
0.0
 11
146.386
 21
94.919499999999999
 31
0.0
  0
LINE
  5
2E9
  8
0
 62
     7
 10
146.386
 20
94.919499999999999
 30
0.0
 11
146.35599999999999
 21
94.978800000000007
 31
0.0
  0
LINE
  5
2EA
  8
0
 62
     7
 10
146.35599999999999
 20
94.978800000000007
 30
0.0
 11
146.35599999999999
 21
95.126900000000006
 31
0.0
  0
LINE
  5
2EB
  8
0
 62
     7
 10
146.35599999999999
 20
95.126900000000006
 30
0.0
 11
146.327
 21
95.186199999999999
 31
0.0
  0
LINE
  5
2EC
  8
0
 62
     7
 10
146.327
 20
95.186199999999999
 30
0.0
 11
146.327
 21
96.312000000000012
 31
0.0
  0
LINE
  5
2ED
  8
0
 62
     7
 10
146.327
 20
96.312000000000012
 30
0.0
 11
146.35599999999999
 21
96.519400000000005
 31
0.0
  0
LINE
  5
2EE
  8
0
 62
     7
 10
146.35599999999999
 20
96.519400000000005
 30
0.0
 11
146.35599999999999
 21
96.726799999999983
 31
0.0
  0
LINE
  5
2EF
  8
0
 62
     7
 10
146.35599999999999
 20
96.726799999999983
 30
0.0
 11
146.386
 21
96.963899999999995
 31
0.0
  0
LINE
  5
2F0
  8
0
 62
     7
 10
135.542
 20
88.964299999999994
 30
0.0
 11
135.601
 21
88.816199999999995
 31
0.0
  0
LINE
  5
2F1
  8
0
 62
     7
 10
135.601
 20
88.816199999999995
 30
0.0
 11
135.749
 21
88.756900000000002
 31
0.0
  0
LINE
  5
2F2
  8
0
 62
     7
 10
135.749
 20
88.756900000000002
 30
0.0
 11
137.85300000000001
 21
88.756900000000002
 31
0.0
  0
LINE
  5
2F3
  8
0
 62
     7
 10
140.54900000000001
 20
89.497600000000006
 30
0.0
 11
140.54900000000001
 21
156.48699999999999
 31
0.0
  0
LINE
  5
2F4
  8
0
 62
     7
 10
140.31200000000001
 20
89.201300000000003
 30
0.0
 11
140.43100000000001
 21
89.260599999999997
 31
0.0
  0
LINE
  5
2F5
  8
0
 62
     7
 10
140.43100000000001
 20
89.260599999999997
 30
0.0
 11
140.51900000000001
 21
89.379099999999994
 31
0.0
  0
LINE
  5
2F6
  8
0
 62
     7
 10
140.51900000000001
 20
89.379099999999994
 30
0.0
 11
140.54900000000001
 21
89.497600000000006
 31
0.0
  0
LINE
  5
2F7
  8
0
 62
     7
 10
137.85300000000001
 20
88.756900000000002
 30
0.0
 11
138.001
 21
88.786500000000004
 31
0.0
  0
LINE
  5
2F8
  8
0
 62
     7
 10
138.001
 20
88.786500000000004
 30
0.0
 11
138.12
 21
88.905000000000015
 31
0.0
  0
LINE
  5
2F9
  8
0
 62
     7
 10
138.12
 20
88.905000000000015
 30
0.0
 11
138.149
 21
89.053200000000004
 31
0.0
  0
LINE
  5
2FA
  8
0
 62
     7
 10
140.31200000000001
 20
89.201300000000003
 30
0.0
 11
137.91200000000001
 21
88.756900000000002
 31
0.0
  0
LINE
  5
2FB
  8
0
 62
     7
 10
145.94200000000001
 20
92.045599999999979
 30
0.0
 11
140.964
 21
91.186400000000006
 31
0.0
  0
LINE
  5
2FC
  8
0
 62
     7
 10
140.964
 20
91.186400000000006
 30
0.0
 11
140.75700000000001
 21
91.097499999999997
 31
0.0
  0
LINE
  5
2FD
  8
0
 62
     7
 10
140.75700000000001
 20
91.097499999999997
 30
0.0
 11
140.608
 21
90.919700000000006
 31
0.0
  0
LINE
  5
2FE
  8
0
 62
     7
 10
140.608
 20
90.919700000000006
 30
0.0
 11
140.54900000000001
 21
90.682699999999997
 31
0.0
  0
LINE
  5
2FF
  8
0
 62
     7
 10
148.16300000000001
 20
94.445499999999996
 30
0.0
 11
148.19300000000001
 21
94.593599999999995
 31
0.0
  0
LINE
  5
300
  8
0
 62
     7
 10
148.54900000000001
 20
98.7119
 30
0.0
 11
149.19999999999999
 21
106.8
 31
0.0
  0
LINE
  5
301
  8
0
 62
     7
 10
149.19999999999999
 20
106.8
 30
0.0
 11
149.76300000000001
 21
114.889
 31
0.0
  0
LINE
  5
302
  8
0
 62
     7
 10
149.76300000000001
 20
114.889
 30
0.0
 11
150.23699999999999
 21
123.00700000000001
 31
0.0
  0
LINE
  5
303
  8
0
 62
     7
 10
145.94200000000001
 20
92.045599999999979
 30
0.0
 11
146.41499999999999
 21
92.164100000000005
 31
0.0
  0
LINE
  5
304
  8
0
 62
     7
 10
146.41499999999999
 20
92.164100000000005
 30
0.0
 11
146.88900000000001
 21
92.401099999999985
 31
0.0
  0
LINE
  5
305
  8
0
 62
     7
 10
146.88900000000001
 20
92.401099999999985
 30
0.0
 11
147.27500000000001
 21
92.697400000000002
 31
0.0
  0
LINE
  5
306
  8
0
 62
     7
 10
147.27500000000001
 20
92.697400000000002
 30
0.0
 11
147.63
 21
93.052999999999997
 31
0.0
  0
LINE
  5
307
  8
0
 62
     7
 10
147.63
 20
93.052999999999997
 30
0.0
 11
147.89699999999999
 21
93.497399999999999
 31
0.0
  0
LINE
  5
308
  8
0
 62
     7
 10
147.89699999999999
 20
93.497399999999999
 30
0.0
 11
148.07499999999999
 21
93.971400000000003
 31
0.0
  0
LINE
  5
309
  8
0
 62
     7
 10
148.07499999999999
 20
93.971400000000003
 30
0.0
 11
148.16300000000001
 21
94.445499999999996
 31
0.0
  0
LINE
  5
30A
  8
0
 62
     7
 10
138.149
 20
89.053200000000004
 30
0.0
 11
138.149
 21
156.96100000000001
 31
0.0
  0
LINE
  5
30B
  8
0
 62
     7
 10
150.03
 20
126.85899999999999
 30
0.0
 11
150.06
 21
126.681
 31
0.0
  0
LINE
  5
30C
  8
0
 62
     7
 10
150.06
 20
126.681
 30
0.0
 11
150.208
 21
126.533
 31
0.0
  0
LINE
  5
30D
  8
0
 62
     7
 10
150.208
 20
126.533
 30
0.0
 11
150.386
 21
126.473
 31
0.0
  0
LINE
  5
30E
  8
0
 62
     7
 10
140.964
 20
154.827
 30
0.0
 11
145.94200000000001
 21
153.96799999999999
 31
0.0
  0
LINE
  5
30F
  8
0
 62
     7
 10
140.54900000000001
 20
155.30099999999999
 30
0.0
 11
140.608
 21
155.09399999999999
 31
0.0
  0
LINE
  5
310
  8
0
 62
     7
 10
140.608
 20
155.09399999999999
 30
0.0
 11
140.75700000000001
 21
154.916
 31
0.0
  0
LINE
  5
311
  8
0
 62
     7
 10
140.75700000000001
 20
154.916
 30
0.0
 11
140.964
 21
154.827
 31
0.0
  0
LINE
  5
312
  8
0
 62
     7
 10
140.31200000000001
 20
156.78299999999999
 30
0.0
 11
137.91200000000001
 21
157.227
 31
0.0
  0
LINE
  5
313
  8
0
 62
     7
 10
140.54900000000001
 20
156.48699999999999
 30
0.0
 11
140.51900000000001
 21
156.63499999999999
 31
0.0
  0
LINE
  5
314
  8
0
 62
     7
 10
140.51900000000001
 20
156.63499999999999
 30
0.0
 11
140.43100000000001
 21
156.72399999999999
 31
0.0
  0
LINE
  5
315
  8
0
 62
     7
 10
140.43100000000001
 20
156.72399999999999
 30
0.0
 11
140.31200000000001
 21
156.78299999999999
 31
0.0
  0
LINE
  5
316
  8
0
 62
     7
 10
138.149
 20
156.96100000000001
 30
0.0
 11
138.12
 21
157.10900000000001
 31
0.0
  0
LINE
  5
317
  8
0
 62
     7
 10
138.12
 20
157.10900000000001
 30
0.0
 11
138.001
 21
157.19800000000001
 31
0.0
  0
LINE
  5
318
  8
0
 62
     7
 10
138.001
 20
157.19800000000001
 30
0.0
 11
137.85300000000001
 21
157.25700000000001
 31
0.0
  0
LINE
  5
319
  8
0
 62
     7
 10
135.749
 20
157.25700000000001
 30
0.0
 11
137.85300000000001
 21
157.25700000000001
 31
0.0
  0
LINE
  5
31A
  8
0
 62
     7
 10
135.542
 20
88.964299999999994
 30
0.0
 11
135.542
 21
157.04900000000001
 31
0.0
  0
LINE
  5
31B
  8
0
 62
     7
 10
135.749
 20
157.25700000000001
 30
0.0
 11
135.601
 21
157.19800000000001
 31
0.0
  0
LINE
  5
31C
  8
0
 62
     7
 10
135.601
 20
157.19800000000001
 30
0.0
 11
135.542
 21
157.04900000000001
 31
0.0
  0
LINE
  5
31D
  8
0
 62
     7
 10
153.542
 20
120.044
 30
0.0
 11
153.542
 21
125.97
 31
0.0
  0
LINE
  5
31E
  8
0
 62
     7
 10
153.542
 20
125.97
 30
0.0
 11
153.512
 21
126.11799999999999
 31
0.0
  0
LINE
  5
31F
  8
0
 62
     7
 10
153.512
 20
126.11799999999999
 30
0.0
 11
153.39400000000001
 21
126.236
 31
0.0
  0
LINE
  5
320
  8
0
 62
     7
 10
153.39400000000001
 20
126.236
 30
0.0
 11
153.27500000000001
 21
126.26600000000001
 31
0.0
  0
LINE
  5
321
  8
0
  6
AIGENLINE001
 62
     7
 10
132.441
 20
123.00700000000001
 30
0.0
 11
156.696
 21
123.00700000000001
 31
0.0
  0
ARC
  5
322
  8
0
 62
     7
 10
41.168979
 20
257.457403
 30
0.0
 40
0.322463
 50
270.00002000000001
 51
359.99999000000003
  0
ARC
  5
323
  8
0
 62
     7
 10
41.168979
 20
257.457403
 30
0.0
 40
0.322463
 50
0.00001
 51
89.999980000000008
  0
ARC
  5
324
  8
0
 62
     7
 10
41.168979
 20
257.457403
 30
0.0
 40
0.322463
 50
90.0
 51
179.99996999999999
  0
ARC
  5
325
  8
0
 62
     7
 10
41.168979
 20
257.457403
 30
0.0
 40
0.322463
 50
179.99996999999999
 51
270.00002000000001
  0
ARC
  5
326
  8
0
 62
     7
 10
41.168979
 20
186.957212
 30
0.0
 40
0.322463
 50
270.00002000000001
 51
359.99999000000003
  0
ARC
  5
327
  8
0
 62
     7
 10
41.168979
 20
186.957212
 30
0.0
 40
0.322463
 50
0.00001
 51
89.999980000000008
  0
ARC
  5
328
  8
0
 62
     7
 10
41.168979
 20
186.957212
 30
0.0
 40
0.322463
 50
90.0
 51
179.99996999999999
  0
ARC
  5
329
  8
0
 62
     7
 10
41.168979
 20
186.957212
 30
0.0
 40
0.322463
 50
179.99996999999999
 51
270.00002000000001
  0
ARC
  5
32A
  8
0
 62
     7
 10
77.578326000000004
 20
251.918644
 30
0.0
 40
1.0394639999999991
 50
2.148747999999999
 51
87.870981999999998
  0
ARC
  5
32B
  8
0
 62
     7
 10
50.155592999999989
 20
251.91864899999999
 30
0.0
 40
1.039458999999999
 50
92.128725000000017
 51
177.851505
  0
LINE
  5
32C
  8
0
  6
AIGENLINE001
 62
     7
 10
47.02879999999999
 20
222.20699999999999
 30
0.0
 11
80.446399999999997
 21
222.20699999999999
 31
0.0
  0
LINE
  5
32D
  8
0
 62
     7
 10
50.116999999999997
 20
252.95699999999999
 30
0.0
 11
77.616900000000001
 21
252.95699999999999
 31
0.0
  0
ARC
  5
32E
  8
0
 62
     7
 10
77.616940999999997
 20
192.45734200000001
 30
0.0
 40
1.0001180000000001
 50
270.00002000000001
 51
359.99999000000003
  0
ARC
  5
32F
  8
0
 62
     7
 10
50.155616999999999
 20
192.49597700000001
 30
0.0
 40
1.0394709999999989
 50
182.13007200000001
 51
267.869958
  0
LINE
  5
330
  8
0
  6
AIGENLINE003
 62
     7
 10
78.617099999999994
 20
257.45699999999999
 30
0.0
 11
49.116900000000001
 21
262.45800000000003
 31
0.0
  0
LINE
  5
331
  8
0
  6
AIGENLINE003
 62
     7
 10
78.617099999999994
 20
262.45800000000003
 30
0.0
 11
49.116900000000001
 21
257.45699999999999
 31
0.0
  0
LINE
  5
332
  8
0
  6
AIGENLINE003
 62
     7
 10
78.617099999999994
 20
257.45699999999999
 30
0.0
 11
78.617099999999994
 21
262.45800000000003
 31
0.0
  0
LINE
  5
333
  8
0
  6
AIGENLINE003
 62
     7
 10
78.617099999999994
 20
262.45800000000003
 30
0.0
 11
49.116900000000001
 21
262.45800000000003
 31
0.0
  0
LINE
  5
334
  8
0
  6
AIGENLINE003
 62
     7
 10
49.116900000000001
 20
262.45800000000003
 30
0.0
 11
49.116900000000001
 21
257.45699999999999
 31
0.0
  0
LINE
  5
335
  8
0
  6
AIGENLINE003
 62
     7
 10
49.116900000000001
 20
257.45699999999999
 30
0.0
 11
78.617099999999994
 21
257.45699999999999
 31
0.0
  0
LINE
  5
336
  8
0
 62
     7
 10
40.468899999999998
 20
262.45800000000003
 30
0.0
 11
48.416800000000002
 21
262.45800000000003
 31
0.0
  0
LINE
  5
337
  8
0
 62
     7
 10
79.349500000000006
 20
252.95699999999999
 30
0.0
 11
87.087199999999996
 21
252.95699999999999
 31
0.0
  0
LINE
  5
338
  8
0
 62
     7
 10
51.327599999999997
 20
233.32400000000001
 30
0.0
 11
49.1158
 21
232.73099999999999
 31
0.0
  0
LINE
  5
339
  8
0
 62
     7
 10
49.1158
 20
232.73099999999999
 30
0.0
 11
51.327599999999997
 21
232.13900000000001
 31
0.0
  0
LINE
  5
33A
  8
0
 62
     7
 10
51.327599999999997
 20
232.13900000000001
 30
0.0
 11
51.327599999999997
 21
233.32400000000001
 31
0.0
  0
LINE
  5
33B
  8
0
 62
     7
 10
53.905900000000003
 20
232.15299999999999
 30
0.0
 11
56.117699999999992
 21
232.74600000000001
 31
0.0
  0
LINE
  5
33C
  8
0
 62
     7
 10
56.117699999999992
 20
232.74600000000001
 30
0.0
 11
53.905900000000003
 21
233.33799999999999
 31
0.0
  0
LINE
  5
33D
  8
0
 62
     7
 10
53.905900000000003
 20
233.33799999999999
 30
0.0
 11
53.905900000000003
 21
232.15299999999999
 31
0.0
  0
LINE
  5
33E
  8
0
 62
     7
 10
49.116900000000001
 20
232.738
 30
0.0
 11
56.116700000000002
 21
232.738
 31
0.0
  0
LINE
  5
33F
  8
0
 62
     7
 10
40.468899999999998
 20
257.45699999999999
 30
0.0
 11
48.416800000000002
 21
257.45699999999999
 31
0.0
  0
LINE
  5
340
  8
0
  6
AIGENLINE003
 62
     7
 10
78.617099999999994
 20
186.95699999999999
 30
0.0
 11
49.116900000000001
 21
181.95699999999999
 31
0.0
  0
LINE
  5
341
  8
0
  6
AIGENLINE003
 62
     7
 10
78.617099999999994
 20
181.95699999999999
 30
0.0
 11
49.116900000000001
 21
186.95699999999999
 31
0.0
  0
LINE
  5
342
  8
0
  6
AIGENLINE003
 62
     7
 10
78.617099999999994
 20
186.95699999999999
 30
0.0
 11
78.617099999999994
 21
181.95699999999999
 31
0.0
  0
LINE
  5
343
  8
0
  6
AIGENLINE003
 62
     7
 10
78.617099999999994
 20
181.95699999999999
 30
0.0
 11
49.116900000000001
 21
181.95699999999999
 31
0.0
  0
LINE
  5
344
  8
0
  6
AIGENLINE003
 62
     7
 10
49.116900000000001
 20
181.95699999999999
 30
0.0
 11
49.116900000000001
 21
186.95699999999999
 31
0.0
  0
LINE
  5
345
  8
0
  6
AIGENLINE003
 62
     7
 10
49.116900000000001
 20
186.95699999999999
 30
0.0
 11
78.617099999999994
 21
186.95699999999999
 31
0.0
  0
LINE
  5
346
  8
0
 62
     7
 10
40.468899999999998
 20
181.95699999999999
 30
0.0
 11
48.416800000000002
 21
181.95699999999999
 31
0.0
  0
LINE
  5
347
  8
0
 62
     7
 10
40.468899999999998
 20
252.95699999999999
 30
0.0
 11
48.416800000000002
 21
252.95699999999999
 31
0.0
  0
LINE
  5
348
  8
0
 62
     7
 10
40.468899999999998
 20
222.20699999999999
 30
0.0
 11
46.328699999999991
 21
222.20699999999999
 31
0.0
  0
LINE
  5
349
  8
0
 62
     7
 10
79.349500000000006
 20
191.45699999999999
 30
0.0
 11
87.087199999999996
 21
191.45699999999999
 31
0.0
  0
LINE
  5
34A
  8
0
 62
     7
 10
51.327599999999997
 20
238.465
 30
0.0
 11
49.1158
 21
237.87200000000001
 31
0.0
  0
LINE
  5
34B
  8
0
 62
     7
 10
49.1158
 20
237.87200000000001
 30
0.0
 11
51.327599999999997
 21
237.28
 31
0.0
  0
LINE
  5
34C
  8
0
 62
     7
 10
51.327599999999997
 20
237.28
 30
0.0
 11
51.327599999999997
 21
238.465
 31
0.0
  0
LINE
  5
34D
  8
0
 62
     7
 10
76.406300000000002
 20
237.29400000000001
 30
0.0
 11
78.618099999999998
 21
237.887
 31
0.0
  0
LINE
  5
34E
  8
0
 62
     7
 10
78.618099999999998
 20
237.887
 30
0.0
 11
76.406300000000002
 21
238.47900000000001
 31
0.0
  0
LINE
  5
34F
  8
0
 62
     7
 10
76.406300000000002
 20
238.47900000000001
 30
0.0
 11
76.406300000000002
 21
237.29400000000001
 31
0.0
  0
LINE
  5
350
  8
0
 62
     7
 10
49.116900000000001
 20
237.87899999999999
 30
0.0
 11
78.617099999999994
 21
237.87899999999999
 31
0.0
  0
LINE
  5
351
  8
0
 62
     7
 10
40.468899999999998
 20
191.45699999999999
 30
0.0
 11
48.416800000000002
 21
191.45699999999999
 31
0.0
  0
LINE
  5
352
  8
0
 62
     7
 10
40.468899999999998
 20
186.95699999999999
 30
0.0
 11
48.416800000000002
 21
186.95699999999999
 31
0.0
  0
LINE
  5
353
  8
0
 62
     7
 10
50.116999999999997
 20
191.45699999999999
 30
0.0
 11
77.616900000000001
 21
191.45699999999999
 31
0.0
  0
LINE
  5
354
  8
0
 62
     7
 10
76.382900000000006
 20
192.94
 30
0.0
 11
78.365899999999996
 21
191.79499999999999
 31
0.0
  0
LINE
  5
355
  8
0
 62
     7
 10
78.365899999999996
 20
191.79499999999999
 30
0.0
 11
77.221100000000007
 21
193.77799999999999
 31
0.0
  0
LINE
  5
356
  8
0
 62
     7
 10
77.221100000000007
 20
193.77799999999999
 30
0.0
 11
76.382900000000006
 21
192.94
 31
0.0
  0
LINE
  5
357
  8
0
 62
     7
 10
72.718999999999994
 20
197.44200000000001
 30
0.0
 11
78.365899999999996
 21
191.79499999999999
 31
0.0
  0
LINE
  5
358
  8
0
 62
     7
 10
80.510199999999983
 20
185.75200000000001
 30
0.0
 11
78.617099999999994
 21
184.464
 31
0.0
  0
LINE
  5
359
  8
0
 62
     7
 10
78.617099999999994
 20
184.464
 30
0.0
 11
80.900499999999994
 21
184.63200000000001
 31
0.0
  0
LINE
  5
35A
  8
0
 62
     7
 10
80.900499999999994
 20
184.63200000000001
 30
0.0
 11
80.510199999999983
 21
185.75200000000001
 31
0.0
  0
LINE
  5
35B
  8
0
 62
     7
 10
93.893699999999995
 20
189.79400000000001
 30
0.0
 11
78.617099999999994
 21
184.464
 31
0.0
  0
LINE
  5
35C
  8
0
 62
     7
 10
93.893699999999995
 20
189.79400000000001
 30
0.0
 11
93.893699999999995
 21
241.47399999999999
 31
0.0
  0
LINE
  5
35D
  8
0
 62
     7
 10
50.512799999999999
 20
193.77799999999999
 30
0.0
 11
49.368000000000002
 21
191.79499999999999
 31
0.0
  0
LINE
  5
35E
  8
0
 62
     7
 10
49.368000000000002
 20
191.79499999999999
 30
0.0
 11
51.351000000000013
 21
192.94
 31
0.0
  0
LINE
  5
35F
  8
0
 62
     7
 10
51.351000000000013
 20
192.94
 30
0.0
 11
50.512799999999999
 21
193.77799999999999
 31
0.0
  0
LINE
  5
360
  8
0
 62
     7
 10
55.014600000000002
 20
197.44200000000001
 30
0.0
 11
49.368000000000002
 21
191.79499999999999
 31
0.0
  0
ARC
  5
361
  8
0
  6
AIGENLINE002
 62
     7
 10
56.116826000000003
 20
222.20747900000001
 30
0.0
 40
2.1998799999999989
 50
0.004496
 51
90.004466999999991
  0
ARC
  5
362
  8
0
  6
AIGENLINE002
 62
     7
 10
56.116481
 20
222.20748
 30
0.0
 40
2.2002250000000001
 50
270.00450599999999
 51
0.004476
  0
ARC
  5
363
  8
0
  6
AIGENLINE002
 62
     7
 10
56.116826000000003
 20
222.20747900000001
 30
0.0
 40
2.2002239999999991
 50
179.995485
 51
269.99553400000002
  0
ARC
  5
364
  8
0
  6
AIGENLINE002
 62
     7
 10
56.116481999999998
 20
222.20747900000001
 30
0.0
 40
2.1998799999999989
 50
89.995513999999986
 51
179.995484
  0
ARC
  5
365
  8
0
  6
AIGENLINE002
 62
     7
 10
55.989491999999998
 20
222.08013199999999
 30
0.0
 40
3.4296109999999991
 50
2.1308569999999989
 51
87.875113999999996
  0
ARC
  5
366
  8
0
  6
AIGENLINE002
 62
     7
 10
56.116481
 20
222.20748
 30
0.0
 40
3.3002509999999998
 50
270.00301000000002
 51
0.002981
  0
ARC
  5
367
  8
0
  6
AIGENLINE002
 62
     7
 10
56.116826000000003
 20
222.20747900000001
 30
0.0
 40
3.3002500000000001
 50
179.99698000000001
 51
269.997029
  0
ARC
  5
368
  8
0
  6
AIGENLINE002
 62
     7
 10
56.242700999999997
 20
222.08124699999999
 30
0.0
 40
3.4284559999999988
 50
92.106941000000006
 51
177.88704799999999
  0
LINE
  5
369
  8
0
  6
AIGENLINE001
 62
     7
 10
56.116700000000002
 20
227.15600000000001
 30
0.0
 11
56.116700000000002
 21
217.45099999999999
 31
0.0
  0
LINE
  5
36A
  8
0
 62
     7
 10
56.116700000000002
 20
227.85599999999999
 30
0.0
 11
56.116700000000002
 21
233.43799999999999
 31
0.0
  0
LINE
  5
36B
  8
0
 62
     7
 10
41.761499999999991
 20
179.745
 30
0.0
 11
41.168999999999997
 21
181.95699999999999
 31
0.0
  0
LINE
  5
36C
  8
0
 62
     7
 10
41.168999999999997
 20
181.95699999999999
 30
0.0
 11
40.57609999999999
 21
179.745
 31
0.0
  0
LINE
  5
36D
  8
0
 62
     7
 10
40.57609999999999
 20
179.745
 30
0.0
 11
41.761499999999991
 21
179.745
 31
0.0
  0
LINE
  5
36E
  8
0
 62
     7
 10
41.761499999999991
 20
219.99600000000001
 30
0.0
 11
41.168999999999997
 21
222.20699999999999
 31
0.0
  0
LINE
  5
36F
  8
0
 62
     7
 10
41.168999999999997
 20
222.20699999999999
 30
0.0
 11
40.57609999999999
 21
219.99600000000001
 31
0.0
  0
LINE
  5
370
  8
0
 62
     7
 10
40.57609999999999
 20
219.99600000000001
 30
0.0
 11
41.761499999999991
 21
219.99600000000001
 31
0.0
  0
LINE
  5
371
  8
0
 62
     7
 10
41.761499999999991
 20
250.74600000000001
 30
0.0
 11
41.168999999999997
 21
252.95699999999999
 31
0.0
  0
LINE
  5
372
  8
0
 62
     7
 10
41.168999999999997
 20
252.95699999999999
 30
0.0
 11
40.57609999999999
 21
250.74600000000001
 31
0.0
  0
LINE
  5
373
  8
0
 62
     7
 10
40.57609999999999
 20
250.74600000000001
 30
0.0
 11
41.761499999999991
 21
250.74600000000001
 31
0.0
  0
LINE
  5
374
  8
0
 62
     7
 10
40.55019999999999
 20
264.77800000000002
 30
0.0
 11
41.142499999999998
 21
262.56599999999997
 31
0.0
  0
LINE
  5
375
  8
0
 62
     7
 10
41.142499999999998
 20
262.56599999999997
 30
0.0
 11
41.735399999999998
 21
264.77800000000002
 31
0.0
  0
LINE
  5
376
  8
0
 62
     7
 10
41.735399999999998
 20
264.77800000000002
 30
0.0
 11
40.55019999999999
 21
264.77800000000002
 31
0.0
  0
LINE
  5
377
  8
0
 62
     7
 10
40.5764
 20
224.41900000000001
 30
0.0
 11
41.168999999999997
 21
222.20699999999999
 31
0.0
  0
LINE
  5
378
  8
0
 62
     7
 10
41.168999999999997
 20
222.20699999999999
 30
0.0
 11
41.761899999999997
 21
224.41900000000001
 31
0.0
  0
LINE
  5
379
  8
0
 62
     7
 10
41.761899999999997
 20
224.41900000000001
 30
0.0
 11
40.5764
 21
224.41900000000001
 31
0.0
  0
LINE
  5
37A
  8
0
 62
     7
 10
40.5764
 20
193.66900000000001
 30
0.0
 11
41.168999999999997
 21
191.45699999999999
 31
0.0
  0
LINE
  5
37B
  8
0
 62
     7
 10
41.168999999999997
 20
191.45699999999999
 30
0.0
 11
41.761899999999997
 21
193.66900000000001
 31
0.0
  0
LINE
  5
37C
  8
0
 62
     7
 10
41.761899999999997
 20
193.66900000000001
 30
0.0
 11
40.5764
 21
193.66900000000001
 31
0.0
  0
LINE
  5
37D
  8
0
 62
     7
 10
41.168999999999997
 20
266.32900000000001
 30
0.0
 11
41.168999999999997
 21
178.50999999999999
 31
0.0
  0
LINE
  5
37E
  8
0
 62
     7
 10
86.972499999999997
 20
250.74700000000001
 30
0.0
 11
86.379900000000006
 21
252.959
 31
0.0
  0
LINE
  5
37F
  8
0
 62
     7
 10
86.379900000000006
 20
252.959
 30
0.0
 11
85.787000000000006
 21
250.74700000000001
 31
0.0
  0
LINE
  5
380
  8
0
 62
     7
 10
85.787000000000006
 20
250.74700000000001
 30
0.0
 11
86.972499999999997
 21
250.74700000000001
 31
0.0
  0
LINE
  5
381
  8
0
 62
     7
 10
85.801899999999989
 20
193.66800000000001
 30
0.0
 11
86.394400000000005
 21
191.4559999999999
 31
0.0
  0
LINE
  5
382
  8
0
 62
     7
 10
86.394400000000005
 20
191.4559999999999
 30
0.0
 11
86.986999999999995
 21
193.66800000000001
 31
0.0
  0
LINE
  5
383
  8
0
 62
     7
 10
86.986999999999995
 20
193.66800000000001
 30
0.0
 11
85.801899999999989
 21
193.66800000000001
 31
0.0
  0
LINE
  5
384
  8
0
 62
     7
 10
86.387200000000007
 20
252.95699999999999
 30
0.0
 11
86.387200000000007
 21
191.45699999999999
 31
0.0
  0
LINE
  5
385
  8
0
 62
     7
 10
78.617099999999994
 20
251.958
 30
0.0
 11
78.617099999999994
 21
192.45699999999999
 31
0.0
  0
LINE
  5
386
  8
0
 62
     7
 10
49.116900000000001
 20
251.958
 30
0.0
 11
49.116900000000001
 21
192.45699999999999
 31
0.0
  0
TEXT
  5
387
  8
_________2
 62
     7
 10
29.525700000000001
 20
22.2272
 30
0.0
 40
3.9357000000000002
  1
実容量：14.2L、重量13.3kg、オーバーフロー付
 41
0.5
  0
LINE
  5
388
  8
_________2
 62
     7
 10
105.239
 20
17.4285
 30
0.0
 11
105.239
 21
0.4485540000000001
 31
0.0
  0
LINE
  5
389
  8
_________2
 62
     7
 10
81.679900000000004
 20
51.324300000000001
 30
0.0
 11
79.493700000000004
 21
51.324300000000001
 31
0.0
  0
LINE
  5
38A
  8
_________2
 62
     7
 10
82.172600000000017
 20
51.324300000000001
 30
0.0
 11
81.920400000000001
 21
51.324300000000001
 31
0.0
  0
LINE
  5
38B
  8
_________2
 62
     7
 10
82.665199999999984
 20
51.324300000000001
 30
0.0
 11
85.590100000000007
 21
51.324300000000001
 31
0.0
  0
LINE
  5
38C
  8
_________2
 62
     7
 10
82.172600000000017
 20
51.324300000000001
 30
0.0
 11
82.424800000000005
 21
51.324300000000001
 31
0.0
  0
LINE
  5
38D
  8
_________2
 62
     7
 10
75.776399999999995
 20
51.324300000000001
 30
0.0
 11
73.589399999999998
 21
51.324300000000001
 31
0.0
  0
LINE
  5
38E
  8
_________2
 62
     7
 10
76.2684
 20
51.324300000000001
 30
0.0
 11
76.016900000000007
 21
51.324300000000001
 31
0.0
  0
LINE
  5
38F
  8
_________2
 62
     7
 10
76.2684
 20
51.817
 30
0.0
 11
76.2684
 21
54.003900000000002
 31
0.0
  0
LINE
  5
390
  8
_________2
 62
     7
 10
76.2684
 20
51.324300000000001
 30
0.0
 11
76.2684
 21
51.576900000000002
 31
0.0
  0
LINE
  5
391
  8
_________2
 62
     7
 10
76.76100000000001
 20
51.324300000000001
 30
0.0
 11
78.947999999999993
 21
51.324300000000001
 31
0.0
  0
LINE
  5
392
  8
_________2
 62
     7
 10
76.2684
 20
51.324300000000001
 30
0.0
 11
76.520499999999998
 21
51.324300000000001
 31
0.0
  0
LINE
  5
393
  8
_________2
 62
     7
 10
76.2684
 20
50.832399999999993
 30
0.0
 11
76.2684
 21
48.645699999999998
 31
0.0
  0
LINE
  5
394
  8
_________2
 62
     7
 10
76.2684
 20
51.324300000000001
 30
0.0
 11
76.2684
 21
51.072800000000001
 31
0.0
  0
LINE
  5
395
  8
_________2
 62
     7
 10
79.979399999999984
 20
50.104799999999997
 30
0.0
 11
85.157399999999996
 21
49.240000000000002
 31
0.0
  0
LINE
  5
396
  8
_________2
 62
     7
 10
79.979399999999984
 20
52.544199999999989
 30
0.0
 11
85.157399999999996
 21
53.409700000000001
 31
0.0
  0
LINE
  5
397
  8
_________2
 62
     7
 10
85.157399999999996
 20
49.240000000000002
 30
0.0
 11
85.157399999999996
 21
53.409700000000001
 31
0.0
  0
LINE
  5
398
  8
_________2
 62
     7
 10
79.979399999999984
 20
50.104799999999997
 30
0.0
 11
79.979399999999984
 21
52.544199999999989
 31
0.0
  0
ARC
  5
399
  8
_________2
 62
     7
 10
76.221766000000002
 20
51.277380999999998
 30
0.0
 40
1.267714
 50
2.1220840000000001
 51
87.894083999999992
  0
ARC
  5
39A
  8
_________2
 62
     7
 10
76.315297000000001
 20
51.277734999999993
 30
0.0
 40
1.267374999999999
 50
92.122849999999985
 51
177.893304
  0
ARC
  5
39B
  8
_________2
 62
     7
 10
76.315273000000005
 20
51.371245999999992
 30
0.0
 40
1.267363
 50
182.121815
 51
267.87821400000001
  0
ARC
  5
39C
  8
_________2
 62
     7
 10
76.221461000000005
 20
51.371928999999987
 30
0.0
 40
1.2680439999999991
 50
272.11916400000001
 51
357.84848499999998
  0
ARC
  5
39D
  8
_________2
 62
     7
 10
76.187981999999991
 20
51.244312999999998
 30
0.0
 40
2.1668310000000002
 50
2.1161439999999989
 51
87.874379000000005
  0
ARC
  5
39E
  8
_________2
 62
     7
 10
76.348411999999996
 20
51.245334999999997
 30
0.0
 40
2.1657980000000001
 50
92.118487999999999
 51
177.909886
  0
ARC
  5
39F
  8
_________2
 62
     7
 10
76.348354
 20
51.404327000000002
 30
0.0
 40
2.1657779999999991
 50
182.11700400000001
 51
267.88302499999998
  0
ARC
  5
3A0
  8
_________2
 62
     7
 10
76.188378999999983
 20
51.405009999999997
 30
0.0
 40
2.1664590000000001
 50
272.11546800000002
 51
357.86560400000002
  0
TEXT
  5
3A1
  8
_________2
 62
     7
 10
109.544
 20
23.199100000000001
 30
0.0
 40
3.0923400000000001
  1
図番
 41
0.5
  0
LINE
  5
3A2
  8
_________2
 62
     7
 10
108.489
 20
27.4283
 30
0.0
 11
188.49000000000001
 21
27.4283
 31
0.0
  0
TEXT
  5
3A3
  8
_________2
 62
     7
 10
109.544
 20
33.198900000000002
 30
0.0
 40
3.0923400000000001
  1
品番
 41
0.5
  0
TEXT
  5
3A4
  8
_________2
 62
     7
 10
109.544
 20
53.338000000000001
 30
0.0
 40
3.0923400000000001
  1
名称
 41
0.5
  0
TEXT
  5
3A5
  8
_________2
 62
     7
 10
96.784058333333334
 20
48.341900000000003
 30
0.0
 40
3.6545800000000002
  1
mm
 41
0.5
 72
     1
 11
98.306799999999996
 21
48.341900000000003
 31
0.0
  0
TEXT
  5
3A6
  8
_________2
 62
     7
 10
90.582099999999997
 20
53.338000000000001
 30
0.0
 40
3.0923400000000001
  1
単位
 41
0.5
  0
TEXT
  5
3A7
  8
_________2
 62
     7
 10
90.582099999999997
 20
40.930399999999999
 30
0.0
 40
3.0923400000000001
  1
尺度
 41
0.5
  0
TEXT
  5
3A8
  8
_________2
 62
     7
 10
95.030836166666674
 20
34.7378
 30
0.0
 40
3.6545800000000002
  1
1 ： 10
 41
0.5
 72
     1
 11
98.898600000000002
 21
34.7378
 31
0.0
  0
TEXT
  5
3A9
  8
_________2
 62
     7
 10
142.257475
 20
30.627800000000001
 30
0.0
 40
3.9357000000000002
  1
CEL1695
 41
0.5
 72
     1
 11
148.489
 21
30.627800000000001
 31
0.0
  0
TEXT
  5
3AA
  8
_________2
 62
     7
 10
142.257475
 20
20.626999999999999
 30
0.0
 40
3.9357000000000002
  1
CEL1695
 41
0.5
 72
     1
 11
148.489
 21
20.626999999999999
 31
0.0
  0
TEXT
  5
3AB
  8
_________2
 62
     7
 10
114.11799999999999
 20
46.795699999999997
 30
0.0
 40
3.9357000000000002
  1
セラオリジナルコレクション
 41
0.5
  0
TEXT
  5
3AC
  8
_________2
 62
     7
 10
114.11799999999999
 20
41.876100000000001
 30
0.0
 40
3.9357000000000002
  1
アンダーカウンター式洗面器
 41
0.5
  0
TEXT
  5
3AD
  8
_________2
 62
     7
 10
44.303290666666669
 20
35.123000000000012
 30
0.0
 40
3.6545800000000002
  1
篠崎
 41
0.5
 72
     1
 11
46.252400000000002
 21
35.123000000000012
 31
0.0
  0
TEXT
  5
3AE
  8
_________2
 62
     7
 10
25.729290666666671
 20
35.123000000000012
 30
0.0
 40
3.6545800000000002
  1
菅原
 41
0.5
 72
     1
 11
27.6784
 21
35.123000000000012
 31
0.0
  0
TEXT
  5
3AF
  8
_________2
 62
     7
 10
72.724699999999999
 20
34.7378
 30
0.0
 40
3.6545800000000002
  1
17.12.05
 41
0.5
  0
TEXT
  5
3B0
  8
_________2
 62
     7
 10
71.531999999999996
 20
40.930399999999999
 30
0.0
 40
3.0923400000000001
  1
日付
 41
0.5
  0
TEXT
  5
3B1
  8
_________2
 62
     7
 10
34.578299999999999
 20
40.930399999999999
 30
0.0
 40
3.0923400000000001
  1
検図
 41
0.5
  0
TEXT
  5
3B2
  8
_________2
 62
     7
 10
22.9602
 20
26.731000000000002
 30
0.0
 40
3.0923400000000001
  1
備考
 41
0.5
  0
TEXT
  5
3B3
  8
_________2
 62
     7
 10
22.9602
 20
40.930399999999999
 30
0.0
 40
3.0923400000000001
  1
製図
 41
0.5
  0
TEXT
  5
3B4
  8
_________2
 62
     7
 10
28.727365333333339
 20
49.456400000000002
 30
0.0
 40
4.4979399999999989
  1
セラトレーディング株式会社
 41
0.5
 72
     1
 11
46.119399999999992
 21
49.456400000000002
 31
0.0
  0
LINE
  5
3B5
  8
_________2
 62
     7
 10
188.49000000000001
 20
17.4285
 30
0.0
 11
21.988499999999998
 21
17.4285
 31
0.0
  0
LINE
  5
3B6
  8
_________2
 62
     7
 10
21.988499999999998
 20
17.4285
 30
0.0
 11
21.988499999999998
 21
280.43000000000001
 31
0.0
  0
LINE
  5
3B7
  8
_________2
 62
     7
 10
21.988499999999998
 20
280.43000000000001
 30
0.0
 11
188.49000000000001
 21
280.43000000000001
 31
0.0
  0
LINE
  5
3B8
  8
_________2
 62
     7
 10
188.49000000000001
 20
280.43000000000001
 30
0.0
 11
188.49000000000001
 21
17.4285
 31
0.0
  0
LINE
  5
3B9
  8
_________2
 62
     7
 10
70.488799999999998
 20
30.928899999999999
 30
0.0
 11
70.488799999999998
 21
57.428699999999992
 31
0.0
  0
LINE
  5
3BA
  8
_________2
 62
     7
 10
89.488600000000005
 20
30.928899999999999
 30
0.0
 11
89.488600000000005
 21
57.428699999999992
 31
0.0
  0
LINE
  5
3BB
  8
_________2
 62
     7
 10
108.489
 20
17.4285
 30
0.0
 11
108.489
 21
57.428699999999992
 31
0.0
  0
LINE
  5
3BC
  8
_________2
 62
     7
 10
33.488300000000002
 20
30.928899999999999
 30
0.0
 11
33.488300000000002
 21
44.928800000000003
 31
0.0
  0
LINE
  5
3BD
  8
_________2
 62
     7
 10
21.988499999999998
 20
30.928899999999999
 30
0.0
 11
108.489
 21
30.928899999999999
 31
0.0
  0
LINE
  5
3BE
  8
_________2
 62
     7
 10
21.988499999999998
 20
44.928800000000003
 30
0.0
 11
108.489
 21
44.928800000000003
 31
0.0
  0
LINE
  5
3BF
  8
_________2
 62
     7
 10
108.489
 20
37.428100000000001
 30
0.0
 11
188.49000000000001
 21
37.428100000000001
 31
0.0
  0
LINE
  5
3C0
  8
_________2
 62
     7
 10
21.988499999999998
 20
57.428699999999992
 30
0.0
 11
188.49000000000001
 21
57.428699999999992
 31
0.0
  0
LINE
  5
3C1
  8
_________2
 62
     7
 10
210.24000000000001
 20
148.93100000000001
 30
0.0
 11
188.489
 21
148.93100000000001
 31
0.0
  0
LINE
  5
3C2
  8
_________2
 62
     7
 10
105.239
 20
297.45100000000002
 30
0.0
 11
105.239
 21
280.43000000000001
 31
0.0
  0
LINE
  5
3C3
  8
_________2
 62
     7
 10
21.988499999999998
 20
148.93100000000001
 30
0.0
 11
0.238402
 21
148.93100000000001
 31
0.0
  0
ENDSEC
  0
EOF
