  0
SECTION
  2
HEADER
  9
$ACADVER
  1
AC1009
  9
$INSBASE
 10
0.0
 20
0.0
 30
0.0
  9
$EXTMIN
 10
-4.7010300000000003
 20
-21.071000000000002
 30
0.0
  9
$EXTMAX
 10
205.30099999999999
 20
275.93099999999998
 30
0.0
  9
$LIMMIN
 10
0.0
 20
0.0
  9
$LIMMAX
 10
12.0
 20
9.0
  9
$ORTHOMODE
 70
     0
  9
$REGENMODE
 70
     1
  9
$FILLMODE
 70
     1
  9
$QTEXTMODE
 70
     0
  9
$MIRRTEXT
 70
     1
  9
$DRAGMODE
 70
     2
  9
$LTSCALE
 40
1.0
  9
$OSMODE
 70
    37
  9
$ATTMODE
 70
     1
  9
$TEXTSIZE
 40
0.0
  9
$TRACEWID
 40
0.05
  9
$TEXTSTYLE
  7
STANDARD
  9
$CLAYER
  8
0
  9
$CELTYPE
  6
CONTINUOUS
  9
$CECOLOR
 62
   256
  9
$DIMSCALE
 40
1.0
  9
$DIMASZ
 40
0.18
  9
$DIMEXO
 40
0.0625
  9
$DIMDLI
 40
0.38
  9
$DIMRND
 40
0.0
  9
$DIMDLE
 40
0.0
  9
$DIMEXE
 40
0.18
  9
$DIMTP
 40
0.0
  9
$DIMTM
 40
0.0
  9
$DIMTXT
 40
0.18
  9
$DIMCEN
 40
0.09
  9
$DIMTSZ
 40
0.0
  9
$DIMTOL
 70
     0
  9
$DIMLIM
 70
     0
  9
$DIMTIH
 70
     1
  9
$DIMTOH
 70
     1
  9
$DIMSE1
 70
     0
  9
$DIMSE2
 70
     0
  9
$DIMTAD
 70
     0
  9
$DIMZIN
 70
     0
  9
$DIMBLK
  1

  9
$DIMASO
 70
     1
  9
$DIMSHO
 70
     1
  9
$DIMPOST
  1

  9
$DIMAPOST
  1

  9
$DIMALT
 70
     0
  9
$DIMALTD
 70
     2
  9
$DIMALTF
 40
25.399999999999999
  9
$DIMLFAC
 40
1.0
  9
$DIMTOFL
 70
     0
  9
$DIMTVP
 40
0.0
  9
$DIMTIX
 70
     0
  9
$DIMSOXD
 70
     0
  9
$DIMSAH
 70
     0
  9
$DIMBLK1
  1

  9
$DIMBLK2
  1

  9
$DIMSTYLE
  2
STANDARD
  9
$DIMCLRD
 70
     0
  9
$DIMCLRE
 70
     0
  9
$DIMCLRT
 70
     0
  9
$DIMTFAC
 40
1.0
  9
$DIMGAP
 40
0.09
  9
$LUNITS
 70
     2
  9
$LUPREC
 70
     4
  9
$SKETCHINC
 40
0.1
  9
$FILLETRAD
 40
0.0
  9
$AUNITS
 70
     0
  9
$AUPREC
 70
     0
  9
$MENU
  1
.
  9
$ELEVATION
 40
0.0
  9
$PELEVATION
 40
0.0
  9
$THICKNESS
 40
0.0
  9
$LIMCHECK
 70
     0
  9
$BLIPMODE
 70
     0
  9
$CHAMFERA
 40
0.0
  9
$CHAMFERB
 40
0.0
  9
$SKPOLY
 70
     0
  9
$TDCREATE
 40
2444972.375
  9
$TDUPDATE
 40
2457598.2499411809
  9
$TDINDWG
 40
0.0000263079
  9
$TDUSRTIMER
 40
0.0000263079
  9
$USRTIMER
 70
     1
  9
$ANGBASE
 50
0.0
  9
$ANGDIR
 70
     0
  9
$PDMODE
 70
     0
  9
$PDSIZE
 40
0.0
  9
$PLINEWID
 40
0.0
  9
$COORDS
 70
     1
  9
$SPLFRAME
 70
     0
  9
$SPLINETYPE
 70
     6
  9
$SPLINESEGS
 70
     8
  9
$ATTDIA
 70
     1
  9
$ATTREQ
 70
     1
  9
$HANDLING
 70
     1
  9
$HANDSEED
  5
2CB
  9
$SURFTAB1
 70
     6
  9
$SURFTAB2
 70
     6
  9
$SURFTYPE
 70
     6
  9
$SURFU
 70
     6
  9
$SURFV
 70
     6
  9
$UCSNAME
  2

  9
$UCSORG
 10
0.0
 20
0.0
 30
0.0
  9
$UCSXDIR
 10
1.0
 20
0.0
 30
0.0
  9
$UCSYDIR
 10
0.0
 20
1.0
 30
0.0
  9
$PUCSNAME
  2

  9
$PUCSORG
 10
0.0
 20
0.0
 30
0.0
  9
$PUCSXDIR
 10
1.0
 20
0.0
 30
0.0
  9
$PUCSYDIR
 10
0.0
 20
1.0
 30
0.0
  9
$USERI1
 70
     0
  9
$USERI2
 70
     0
  9
$USERI3
 70
     0
  9
$USERI4
 70
     0
  9
$USERI5
 70
     0
  9
$USERR1
 40
0.0
  9
$USERR2
 40
0.0
  9
$USERR3
 40
0.0
  9
$USERR4
 40
0.0
  9
$USERR5
 40
0.0
  9
$WORLDVIEW
 70
     1
  9
$SHADEDGE
 70
     3
  9
$SHADEDIF
 70
    70
  9
$TILEMODE
 70
     1
  9
$MAXACTVP
 70
    48
  9
$PLIMCHECK
 70
     0
  9
$PEXTMIN
 10
1.0000000000000000E+020
 20
1.0000000000000000E+020
 30
1.0000000000000000E+020
  9
$PEXTMAX
 10
-1.0000000000000000E+020
 20
-1.0000000000000000E+020
 30
-1.0000000000000000E+020
  9
$PLIMMIN
 10
0.0
 20
0.0
  9
$PLIMMAX
 10
12.0
 20
9.0
  9
$UNITMODE
 70
     0
  9
$VISRETAIN
 70
     1
  9
$PLINEGEN
 70
     0
  9
$PSLTSCALE
 70
     1
  0
ENDSEC
  0
SECTION
  2
TABLES
  0
TABLE
  2
VPORT
 70
     1
  0
VPORT
  2
*ACTIVE
 70
     0
 10
0.0
 20
0.0
 11
1.0
 21
1.0
 12
173.05859873675911
 22
127.42999999999989
 13
0.0
 23
0.0
 14
1.0
 24
1.0
 15
0.0
 25
0.0
 16
0.0
 26
0.0
 36
1.0
 17
0.0
 27
0.0
 37
0.0
 40
289.64129411868203
 41
2.1063583815028899
 42
50.0
 43
0.0
 44
0.0
 50
0.0
 51
0.0
 71
     0
 72
   100
 73
     1
 74
     1
 75
     0
 76
     0
 77
     0
 78
     0
  0
ENDTAB
  0
TABLE
  2
LTYPE
 70
     3
  0
LTYPE
  2
CONTINUOUS
 70
     0
  3
Solid line
 72
    65
 73
     0
 40
0.0
  0
LTYPE
  2
AIGENLINE001
 70
     0
  3
generate AI->DXF Converter
 72
    65
 73
     4
 40
5.8561449999999988
 49
3.5278
 49
-0.776115
 49
0.776115
 49
-0.776115
  0
LTYPE
  2
AIGENLINE002
 70
     0
  3
generate AI->DXF Converter
 72
    65
 73
     2
 40
1.5522299999999991
 49
0.776115
 49
-0.776115
  0
ENDTAB
  0
TABLE
  2
LAYER
 70
     2
  0
LAYER
  2
0
 70
     0
 62
     7
  6
CONTINUOUS
  0
LAYER
  2
_________2
 70
     0
 62
     7
  6
CONTINUOUS
  0
ENDTAB
  0
TABLE
  2
STYLE
 70
     1
  0
STYLE
  2
STANDARD
 70
     0
 40
0.0
 41
0.0
 50
0.0
 71
     0
 42
0.0
  3
TXT
  4
EXTFONT.SHX
  0
ENDTAB
  0
TABLE
  2
VIEW
 70
     0
  0
ENDTAB
  0
TABLE
  2
UCS
 70
     0
  0
ENDTAB
  0
TABLE
  2
APPID
 70
     3
  0
APPID
  2
ACAD
 70
     0
  0
APPID
  2
ACAD_NAV_VCDISPLAY
 70
     0
  0
APPID
  2
ACAD_MLEADERVER
 70
     0
  0
ENDTAB
  0
TABLE
  2
DIMSTYLE
 70
     1
  0
DIMSTYLE
  2
STANDARD
 70
     0
  3

  4

  5

  6

  7

 40
1.0
 41
0.18
 42
0.0625
 43
0.38
 44
0.18
 45
0.0
 46
0.0
 47
0.0
 48
0.0
140
0.18
141
0.09
142
0.0
143
25.399999999999999
144
1.0
145
0.0
146
1.0
147
0.09
 71
     0
 72
     0
 73
     1
 74
     1
 75
     0
 76
     0
 77
     0
 78
     0
170
     0
171
     2
172
     0
173
     0
174
     0
175
     0
176
     0
177
     0
178
     0
  0
ENDTAB
  0
ENDSEC
  0
SECTION
  2
BLOCKS
  0
BLOCK
  8
0
  2
$MODEL_SPACE
 70
     0
 10
0.0
 20
0.0
 30
0.0
  3
$MODEL_SPACE
  1

  0
ENDBLK
  5
1A
  8
0
  0
BLOCK
 67
     1
  8
0
  2
$PAPER_SPACE
 70
     0
 10
0.0
 20
0.0
 30
0.0
  3
$PAPER_SPACE
  1

  0
ENDBLK
  5
17
 67
     1
  8
0
  0
ENDSEC
  0
SECTION
  2
ENTITIES
  0
LINE
  5
23
  8
0
 62
     7
 10
127.94799999999999
 20
151.30199999999999
 30
0.0
 11
147.30600000000001
 21
151.30199999999999
 31
0.0
  0
TEXT
  5
24
  8
0
 62
     7
 10
129.43876
 20
152.357
 30
0.0
 40
3.0923400000000001
  1
カウンター切込寸法
 41
0.5
 72
     1
 11
137.685
 21
152.357
 31
0.0
  0
TEXT
  5
25
  8
0
 62
     7
 10
126.57260329824339
 20
184.27260329824341
 30
0.0
 40
3.0923400000000001
  1
%%c375
 50
45.0
 41
0.5
 72
     1
 11
128.577
 21
186.27699999999999
 31
0.0
  0
TEXT
  5
26
  8
0
 62
     7
 10
50.574100000000001
 20
186.779
 30
0.0
 40
3.0923400000000001
  1
%%c44
 41
0.5
  0
TEXT
  5
27
  8
0
 62
     7
 10
60.582002499999987
 20
141.79599999999999
 30
0.0
 40
3.0923400000000001
  1
%%c390
 41
0.5
 72
     1
 11
63.287799999999997
 21
141.79599999999999
 31
0.0
  0
TEXT
  5
28
  8
0
 62
     7
 10
99.387439999999984
 20
150.70400000000001
 30
0.0
 40
3.0923400000000001
  1
13
 41
0.5
 72
     2
 11
101.449
 21
150.70400000000001
 31
0.0
  0
TEXT
  5
29
  8
0
 62
     7
 10
24.613499999999998
 20
150.70400000000001
 30
0.0
 40
3.0923400000000001
  1
13
 41
0.5
  0
TEXT
  5
2A
  8
0
 62
     7
 10
60.453155000000002
 20
150.476
 30
0.0
 40
3.0923400000000001
  1
%%c364
 41
0.5
 72
     1
 11
63.287799999999997
 21
150.476
 31
0.0
  0
TEXT
  5
2B
  8
0
 62
     7
 10
26.734100000000002
 20
101.334135
 30
0.0
 40
3.0923400000000001
  1
10
 50
90.0
 41
0.5
 72
     2
 11
26.734100000000002
 21
103.13800000000001
 31
0.0
  0
TEXT
  5
2C
  8
0
 62
     7
 10
26.654900000000001
 20
80.028734999999983
 30
0.0
 40
3.0923400000000001
  1
168
 50
90.0
 41
0.5
 72
     1
 11
26.654900000000001
 21
81.832599999999999
 31
0.0
  0
TEXT
  5
2D
  8
0
 62
     7
 10
174.083
 20
99.418612999999993
 30
0.0
 40
3.0923400000000001
  1
カウンター厚さ：max.20
 50
90.0
 41
0.5
 72
     2
 11
174.083
 21
121.735
 31
0.0
  0
TEXT
  5
2E
  8
0
 62
     7
 10
100.414
 20
78.635487500000011
 30
0.0
 40
3.0923400000000001
  1
204
 50
90.0
 41
0.5
 72
     1
 11
100.414
 21
80.568200000000004
 31
0.0
  0
LINE
  5
2F
  8
0
  6
AIGENLINE001
 62
     7
 10
59.763100000000001
 20
221.98699999999999
 30
0.0
 11
66.750200000000007
 21
221.98699999999999
 31
0.0
  0
ARC
  5
30
  8
0
 62
     7
 10
64.296998000000002
 20
221.22076999999999
 30
0.0
 40
1.3457529999999991
 50
56.785516999999999
 51
67.289241000000004
  0
ARC
  5
31
  8
0
 62
     7
 10
63.85539399999999
 20
220.23874900000001
 30
0.0
 40
2.4222929999999989
 50
66.621551999999994
 51
75.086163999999997
  0
ARC
  5
32
  8
0
 62
     7
 10
63.429941999999997
 20
218.728193
 30
0.0
 40
3.9915239999999992
 50
74.765291000000005
 51
85.132327000000004
  0
ARC
  5
33
  8
0
 62
     7
 10
63.253131000000003
 20
217.281192
 30
0.0
 40
5.4485710000000003
 50
84.570893999999996
 51
90.062514000000007
  0
ARC
  5
34
  8
0
 62
     7
 10
63.244872000000001
 20
217.434695
 30
0.0
 40
5.2950650000000001
 50
89.974955000000008
 51
100.61839999999999
  0
ARC
  5
35
  8
0
 62
     7
 10
62.878068999999989
 20
219.52444199999999
 30
0.0
 40
3.1736080000000002
 50
101.061632
 51
112.00612700000001
  0
ARC
  5
36
  8
0
 62
     7
 10
62.293069999999993
 20
221.04171600000001
 30
0.0
 40
1.547895
 50
112.97423000000001
 51
122.536813
  0
ARC
  5
37
  8
0
 62
     7
 10
63.900885000000002
 20
221.48857899999999
 30
0.0
 40
0.8684799999999999
 50
56.27748900000001
 51
69.068151999999998
  0
ARC
  5
38
  8
0
 62
     7
 10
63.554808999999992
 20
220.66467399999999
 30
0.0
 40
1.7618869999999991
 50
68.128581999999994
 51
78.440449000000001
  0
ARC
  5
39
  8
0
 62
     7
 10
63.281587999999999
 20
219.46508700000001
 30
0.0
 40
2.9920169999999988
 50
77.917679000000007
 51
90.658805000000015
  0
ARC
  5
3A
  8
0
 62
     7
 10
63.248111999999999
 20
219.048464
 30
0.0
 40
3.4084419999999991
 50
90.015563
 51
99.665368000000001
  0
ARC
  5
3B
  8
0
 62
     7
 10
63.058547999999988
 20
220.24114700000001
 30
0.0
 40
2.2009039999999991
 50
100.01346100000001
 51
109.039911
  0
ARC
  5
3C
  8
0
 62
     7
 10
62.717753999999999
 20
221.24692200000001
 30
0.0
 40
1.138992
 50
109.339795
 51
121.821827
  0
ARC
  5
3D
  8
0
 62
     7
 10
61.986187999999999
 20
222.413149
 30
0.0
 40
0.237775
 50
293.016276
 51
303.43135000000001
  0
ARC
  5
3E
  8
0
 62
     7
 10
61.892066999999997
 20
222.62370000000001
 30
0.0
 40
0.4683850000000001
 50
284.30731800000001
 51
293.54287099999999
  0
ARC
  5
3F
  8
0
 62
     7
 10
61.802050999999999
 20
222.975807
 30
0.0
 40
0.831817
 50
269.11559999999997
 51
284.321774
  0
ARC
  5
40
  8
0
 62
     7
 10
61.791243000000009
 20
223.13301000000001
 30
0.0
 40
0.9889229999999999
 50
258.75895800000001
 51
269.882316
  0
ARC
  5
41
  8
0
 62
     7
 10
61.683982999999991
 20
222.59748099999999
 30
0.0
 40
0.4427590000000001
 50
238.86419599999999
 51
258.86351300000001
  0
ARC
  5
42
  8
0
 62
     7
 10
61.521600999999997
 20
222.317002
 30
0.0
 40
0.118875
 50
215.404517
 51
235.95326600000001
  0
ARC
  5
43
  8
0
 62
     7
 10
61.472802000000001
 20
222.281927
 30
0.0
 40
0.05878
 50
181.374888
 51
215.09457699999999
  0
ARC
  5
44
  8
0
 62
     7
 10
61.475122999999989
 20
222.27977999999999
 30
0.0
 40
0.06109
 50
130.13219599999999
 51
179.309887
  0
ARC
  5
45
  8
0
 62
     7
 10
61.546866999999999
 20
222.21375900000001
 30
0.0
 40
0.158288
 50
122.898765
 51
134.588166
  0
ARC
  5
46
  8
0
 62
     7
 10
64.508163999999994
 20
222.41259500000001
 30
0.0
 40
0.237113
 50
236.56809699999999
 51
247.018092
  0
ARC
  5
47
  8
0
 62
     7
 10
64.602758999999992
 20
222.62442799999991
 30
0.0
 40
0.469087
 50
246.48330999999999
 51
255.71687800000001
  0
ARC
  5
48
  8
0
 62
     7
 10
64.693093999999988
 20
222.97825800000001
 30
0.0
 40
0.8342659999999998
 50
255.69983999999999
 51
270.87592799999999
  0
ARC
  5
49
  8
0
 62
     7
 10
64.703811999999999
 20
223.130538
 30
0.0
 40
0.9864509999999999
 50
270.118244
 51
281.25518899999997
  0
ARC
  5
4A
  8
0
 62
     7
 10
64.810788000000002
 20
222.59723099999999
 30
0.0
 40
0.4425220000000001
 50
281.14795199999998
 51
301.147536
  0
ARC
  5
4B
  8
0
 62
     7
 10
64.973154000000008
 20
222.316937
 30
0.0
 40
0.118805
 50
304.052683
 51
324.60990299999997
  0
ARC
  5
4C
  8
0
 62
     7
 10
65.021912999999984
 20
222.281927
 30
0.0
 40
0.05878
 50
324.90544299999999
 51
358.62513200000001
  0
ARC
  5
4D
  8
0
 62
     7
 10
65.019592000000003
 20
222.27977999999999
 30
0.0
 40
0.06109
 50
0.6900930000000001
 51
49.867784
  0
ARC
  5
4E
  8
0
 62
     7
 10
64.947847999999993
 20
222.21375900000001
 30
0.0
 40
0.158288
 50
45.411814
 51
57.101215000000003
  0
ARC
  5
4F
  8
0
 62
     7
 10
64.296998000000002
 20
222.75321400000001
 30
0.0
 40
1.3457529999999991
 50
292.710759
 51
303.21448299999997
  0
ARC
  5
50
  8
0
 62
     7
 10
63.85539399999999
 20
223.73523499999999
 30
0.0
 40
2.4222929999999989
 50
284.913836
 51
293.37844799999999
  0
ARC
  5
51
  8
0
 62
     7
 10
63.429941999999997
 20
225.245791
 30
0.0
 40
3.9915239999999992
 50
274.86767300000002
 51
285.23470900000012
  0
ARC
  5
52
  8
0
 62
     7
 10
63.253131000000003
 20
226.692792
 30
0.0
 40
5.4485710000000003
 50
269.93748599999998
 51
275.42910599999999
  0
ARC
  5
53
  8
0
 62
     7
 10
63.244872000000001
 20
226.539289
 30
0.0
 40
5.2950650000000001
 50
259.38159999999999
 51
270.02504499999998
  0
ARC
  5
54
  8
0
 62
     7
 10
62.878068999999989
 20
224.44954200000001
 30
0.0
 40
3.1736080000000002
 50
247.99387300000001
 51
258.93836800000003
  0
ARC
  5
55
  8
0
 62
     7
 10
62.293069999999993
 20
222.93226799999999
 30
0.0
 40
1.547895
 50
237.463187
 51
247.02576999999999
  0
ARC
  5
56
  8
0
 62
     7
 10
63.900885000000002
 20
222.48540600000001
 30
0.0
 40
0.8684799999999999
 50
290.931848
 51
303.722511
  0
ARC
  5
57
  8
0
 62
     7
 10
63.554808999999992
 20
223.30931100000001
 30
0.0
 40
1.7618869999999991
 50
281.559551
 51
291.87141800000001
  0
ARC
  5
58
  8
0
 62
     7
 10
63.281587999999999
 20
224.50889699999999
 30
0.0
 40
2.9920169999999988
 50
269.34119500000003
 51
282.08232099999998
  0
ARC
  5
59
  8
0
 62
     7
 10
63.248111999999999
 20
224.92552000000001
 30
0.0
 40
3.4084419999999991
 50
260.334632
 51
269.98443700000001
  0
ARC
  5
5A
  8
0
 62
     7
 10
63.058547999999988
 20
223.73283799999999
 30
0.0
 40
2.2009039999999991
 50
250.9600890000001
 51
259.98653899999999
  0
ARC
  5
5B
  8
0
 62
     7
 10
62.717753999999999
 20
222.72706199999999
 30
0.0
 40
1.138992
 50
238.17817299999999
 51
250.66020499999999
  0
ARC
  5
5C
  8
0
 62
     7
 10
61.986187999999999
 20
221.56083599999999
 30
0.0
 40
0.237775
 50
56.568649999999991
 51
66.983723999999995
  0
ARC
  5
5D
  8
0
 62
     7
 10
61.892066999999997
 20
221.35028500000001
 30
0.0
 40
0.4683850000000001
 50
66.457129000000009
 51
75.692681999999991
  0
ARC
  5
5E
  8
0
 62
     7
 10
61.802050999999999
 20
220.998177
 30
0.0
 40
0.831817
 50
75.678225999999995
 51
90.884399999999999
  0
ARC
  5
5F
  8
0
 62
     7
 10
61.791243000000009
 20
220.84097399999999
 30
0.0
 40
0.9889229999999999
 50
90.117683999999997
 51
101.24104199999999
  0
ARC
  5
60
  8
0
 62
     7
 10
61.683982999999991
 20
221.37650300000001
 30
0.0
 40
0.4427590000000001
 50
101.136487
 51
121.13580399999999
  0
ARC
  5
61
  8
0
 62
     7
 10
61.521600999999997
 20
221.656982
 30
0.0
 40
0.118875
 50
124.046734
 51
144.595483
  0
ARC
  5
62
  8
0
 62
     7
 10
61.472802000000001
 20
221.692058
 30
0.0
 40
0.05878
 50
144.9054229999999
 51
178.625112
  0
ARC
  5
63
  8
0
 62
     7
 10
61.475122999999989
 20
221.69420400000001
 30
0.0
 40
0.06109
 50
180.690113
 51
229.86780400000001
  0
ARC
  5
64
  8
0
 62
     7
 10
61.546866999999999
 20
221.76022499999999
 30
0.0
 40
0.158288
 50
225.411834
 51
237.101235
  0
ARC
  5
65
  8
0
 62
     7
 10
64.508163999999994
 20
221.56138999999999
 30
0.0
 40
0.237113
 50
112.981908
 51
123.43190300000001
  0
ARC
  5
66
  8
0
 62
     7
 10
64.602758999999992
 20
221.34955600000001
 30
0.0
 40
0.469087
 50
104.28312200000001
 51
113.51669
  0
ARC
  5
67
  8
0
 62
     7
 10
64.693093999999988
 20
220.99572599999999
 30
0.0
 40
0.8342659999999998
 50
89.124071999999998
 51
104.30016000000001
  0
ARC
  5
68
  8
0
 62
     7
 10
64.703811999999999
 20
220.843446
 30
0.0
 40
0.9864509999999999
 50
78.744810999999999
 51
89.88175600000001
  0
ARC
  5
69
  8
0
 62
     7
 10
64.810788000000002
 20
221.37675300000001
 30
0.0
 40
0.4425220000000001
 50
58.852463999999991
 51
78.852047999999996
  0
ARC
  5
6A
  8
0
 62
     7
 10
64.973154000000008
 20
221.65704700000001
 30
0.0
 40
0.118805
 50
35.390096999999997
 51
55.947316999999998
  0
ARC
  5
6B
  8
0
 62
     7
 10
65.021912999999984
 20
221.692058
 30
0.0
 40
0.05878
 50
1.3748679999999991
 51
35.094557000000002
  0
ARC
  5
6C
  8
0
 62
     7
 10
65.019592000000003
 20
221.69420400000001
 30
0.0
 40
0.06109
 50
310.13221600000003
 51
359.30990700000001
  0
ARC
  5
6D
  8
0
 62
     7
 10
64.947847999999993
 20
221.76022499999999
 30
0.0
 40
0.158288
 50
302.89878499999998
 51
314.58818600000001
  0
ARC
  5
6E
  8
0
 62
     7
 10
65.53035899999999
 20
221.98806200000001
 30
0.0
 40
0.383693
 50
329.18410699999998
 51
359.84026999999998
  0
ARC
  5
6F
  8
0
 62
     7
 10
65.329014999999998
 20
222.09442899999999
 30
0.0
 40
0.611215
 50
313.824815
 51
330.289851
  0
ARC
  5
70
  8
0
 62
     7
 10
65.007816000000005
 20
222.410606
 30
0.0
 40
1.061817
 50
301.38407100000001
 51
314.51518800000002
  0
ARC
  5
71
  8
0
 62
     7
 10
64.537431999999995
 20
223.137439
 30
0.0
 40
1.927411999999999
 50
292.13997599999999
 51
302.06928900000003
  0
ARC
  5
72
  8
0
 62
     7
 10
64.038646999999983
 20
224.286677
 30
0.0
 40
3.1800199999999998
 50
285.59939700000001
 51
292.66058700000002
  0
ARC
  5
73
  8
0
 62
     7
 10
63.547766000000003
 20
225.97629900000001
 30
0.0
 40
4.9394429999999989
 50
276.81060200000002
 51
285.81333699999999
  0
ARC
  5
74
  8
0
 62
     7
 10
63.266533000000003
 20
227.891232
 30
0.0
 40
6.8744119999999986
 50
269.83875
 51
277.24534799999998
  0
ARC
  5
75
  8
0
 62
     7
 10
63.247870999999989
 20
228.05506800000001
 30
0.0
 40
7.038219999999999
 50
260.54137300000002
 51
269.99443100000002
  0
ARC
  5
76
  8
0
 62
     7
 10
62.884019999999992
 20
225.69504699999999
 30
0.0
 40
4.6505819999999991
 50
251.18980500000001
 51
260.184933
  0
ARC
  5
77
  8
0
 62
     7
 10
62.268708999999987
 20
223.802109
 30
0.0
 40
2.6604909999999991
 50
242.83998399999999
 51
250.58894799999999
  0
ARC
  5
78
  8
0
 62
     7
 10
61.763754000000013
 20
222.80193499999999
 30
0.0
 40
1.5401180000000001
 50
232.03252000000001
 51
242.569129
  0
ARC
  5
79
  8
0
 62
     7
 10
61.294060999999999
 20
222.19376600000001
 30
0.0
 40
0.7717100000000001
 50
210.390309
 51
231.745375
  0
ARC
  5
7A
  8
0
 62
     7
 10
60.986535000000003
 20
221.99445600000001
 30
0.0
 40
0.405939
 50
181.05360400000001
 51
208.08190099999999
  0
ARC
  5
7B
  8
0
 62
     7
 10
60.964252000000002
 20
221.98592400000001
 30
0.0
 40
0.383589
 50
149.17512199999999
 51
179.84042500000001
  0
ARC
  5
7C
  8
0
 62
     7
 10
61.165415000000003
 20
221.879741
 30
0.0
 40
0.610861
 50
133.81535199999999
 51
150.29093599999999
  0
ARC
  5
7D
  8
0
 62
     7
 10
61.487439000000002
 20
221.56260800000001
 30
0.0
 40
1.0627219999999991
 50
121.384293
 51
134.50555299999999
  0
ARC
  5
7E
  8
0
 62
     7
 10
61.956984999999989
 20
220.83714900000001
 30
0.0
 40
1.926707999999999
 50
112.136166
 51
122.069689
  0
ARC
  5
7F
  8
0
 62
     7
 10
62.456246999999998
 20
219.68707599999999
 30
0.0
 40
3.1802700000000002
 50
105.599959
 51
112.66050199999999
  0
ARC
  5
80
  8
0
 62
     7
 10
62.947091
 20
217.997838
 30
0.0
 40
4.9393129999999994
 50
96.812856000000025
 51
105.81447799999999
  0
ARC
  5
81
  8
0
 62
     7
 10
63.227960000000003
 20
216.08561800000001
 30
0.0
 40
6.8715460000000004
 50
89.839686
 51
97.246819000000002
  0
ARC
  5
82
  8
0
 62
     7
 10
63.246504999999999
 20
215.914558
 30
0.0
 40
7.042578999999999
 50
80.544287999999995
 51
89.994458999999992
  0
ARC
  5
83
  8
0
 62
     7
 10
63.611002999999997
 20
218.27952400000001
 30
0.0
 40
4.6499550000000003
 50
71.190044999999984
 51
80.187162000000001
  0
ARC
  5
84
  8
0
 62
     7
 10
64.226348000000002
 20
220.172561
 30
0.0
 40
2.659759999999999
 50
62.838326000000009
 51
70.589209999999994
  0
ARC
  5
85
  8
0
 62
     7
 10
64.730976999999996
 20
221.172158
 30
0.0
 40
1.5400489999999989
 50
52.029234999999993
 51
62.565303
  0
ARC
  5
86
  8
0
 62
     7
 10
65.200814000000008
 20
221.78042099999999
 30
0.0
 40
0.7714780000000001
 50
30.382967000000001
 51
51.742917999999989
  0
ARC
  5
87
  8
0
 62
     7
 10
65.508301000000003
 20
221.979581
 30
0.0
 40
0.405817
 50
1.046489999999999
 51
28.082681000000012
  0
LINE
  5
88
  8
0
 62
     7
 10
166.25399999999999
 20
79.022400000000005
 30
0.0
 11
166.17500000000001
 21
78.875600000000006
 31
0.0
  0
LINE
  5
89
  8
0
 62
     7
 10
162.87899999999999
 20
80.840399999999988
 30
0.0
 11
162.80000000000001
 21
80.693600000000004
 31
0.0
  0
ARC
  5
8A
  8
0
 62
     7
 10
166.08747199999999
 20
78.726527000000004
 30
0.0
 40
0.172825
 50
333.70249999999999
 51
59.615716000000013
  0
ARC
  5
8B
  8
0
 62
     7
 10
166.09310600000001
 20
78.738100000000003
 30
0.0
 40
0.17338
 50
243.87302800000001
 51
329.44520799999998
  0
ARC
  5
8C
  8
0
 62
     7
 10
162.72938099999999
 20
80.548955000000007
 30
0.0
 40
0.172963
 50
153.646219
 51
239.62401600000001
  0
ARC
  5
8D
  8
0
 62
     7
 10
162.72346399999989
 20
80.539169000000001
 30
0.0
 40
0.172381
 50
63.622687999999997
 51
149.85601199999999
  0
LINE
  5
8E
  8
0
 62
     7
 10
162.80000000000001
 20
80.693600000000004
 30
0.0
 11
166.17500000000001
 21
78.875600000000006
 31
0.0
  0
LINE
  5
8F
  8
0
 62
     7
 10
162.642
 20
80.399699999999996
 30
0.0
 11
166.017
 21
78.582400000000007
 31
0.0
  0
LINE
  5
90
  8
0
 62
     7
 10
166.49100000000001
 20
79.462699999999998
 30
0.0
 11
166.41200000000001
 21
79.315600000000003
 31
0.0
  0
LINE
  5
91
  8
0
 62
     7
 10
163.11600000000001
 20
81.280699999999996
 30
0.0
 11
163.03700000000001
 21
81.133899999999997
 31
0.0
  0
ARC
  5
92
  8
0
 62
     7
 10
166.32539800000001
 20
79.166619999999995
 30
0.0
 40
0.17224
 50
333.67802999999998
 51
59.849009999999993
  0
ARC
  5
93
  8
0
 62
     7
 10
166.330355
 20
79.177993000000001
 30
0.0
 40
0.173284
 50
243.901568
 51
329.57717200000002
  0
ARC
  5
94
  8
0
 62
     7
 10
162.96645599999999
 20
80.989254999999986
 30
0.0
 40
0.173001
 50
153.658016
 51
239.61221800000001
  0
ARC
  5
95
  8
0
 62
     7
 10
162.960635
 20
80.979358000000005
 30
0.0
 40
0.172557
 50
63.578074999999991
 51
149.852439
  0
LINE
  5
96
  8
0
 62
     7
 10
163.03700000000001
 20
81.133899999999997
 30
0.0
 11
166.41200000000001
 21
79.315600000000003
 31
0.0
  0
LINE
  5
97
  8
0
 62
     7
 10
162.87899999999999
 20
80.840000000000003
 30
0.0
 11
166.25399999999999
 21
79.022400000000005
 31
0.0
  0
LINE
  5
98
  8
0
 62
     7
 10
166.72900000000001
 20
79.902900000000002
 30
0.0
 11
166.649
 21
79.755799999999994
 31
0.0
  0
LINE
  5
99
  8
0
 62
     7
 10
163.35300000000001
 20
81.720600000000005
 30
0.0
 11
163.274
 21
81.574200000000005
 31
0.0
  0
ARC
  5
9A
  8
0
 62
     7
 10
166.56186500000001
 20
79.606755000000007
 30
0.0
 40
0.172825
 50
333.70249999999999
 51
59.615716000000013
  0
ARC
  5
9B
  8
0
 62
     7
 10
166.567645
 20
79.618228999999999
 30
0.0
 40
0.173204
 50
243.91762900000001
 51
329.44872299999997
  0
ARC
  5
9C
  8
0
 62
     7
 10
163.203382
 20
81.429395
 30
0.0
 40
0.172825
 50
153.70246299999999
 51
239.61575300000001
  0
ARC
  5
9D
  8
0
 62
     7
 10
163.197779
 20
81.41968
 30
0.0
 40
0.17247
 50
63.608657999999998
 51
149.982021
  0
LINE
  5
9E
  8
0
 62
     7
 10
163.274
 20
81.574200000000005
 30
0.0
 11
166.649
 21
79.755799999999994
 31
0.0
  0
LINE
  5
9F
  8
0
 62
     7
 10
163.11600000000001
 20
81.280299999999997
 30
0.0
 11
166.49100000000001
 21
79.462699999999998
 31
0.0
  0
LINE
  5
A0
  8
0
 62
     7
 10
166.96600000000001
 20
80.3429
 30
0.0
 11
166.886
 21
80.196100000000001
 31
0.0
  0
LINE
  5
A1
  8
0
 62
     7
 10
163.59
 20
82.160899999999984
 30
0.0
 11
163.511
 21
82.014099999999999
 31
0.0
  0
ARC
  5
A2
  8
0
 62
     7
 10
166.79842400000001
 20
80.046901000000005
 30
0.0
 40
0.173181
 50
333.81195700000001
 51
59.506259000000007
  0
ARC
  5
A3
  8
0
 62
     7
 10
166.804948
 20
80.057581999999996
 30
0.0
 40
0.172491
 50
243.69807299999999
 51
329.66827899999998
  0
ARC
  5
A4
  8
0
 62
     7
 10
163.440969
 20
81.869621999999993
 30
0.0
 40
0.173357
 50
153.76745700000001
 51
239.50277800000001
  0
ARC
  5
A5
  8
0
 62
     7
 10
163.43503799999999
 20
81.858402999999996
 30
0.0
 40
0.17346
 50
63.856891999999988
 51
149.573622
  0
LINE
  5
A6
  8
0
 62
     7
 10
163.511
 20
82.014099999999999
 30
0.0
 11
166.886
 21
80.196100000000001
 31
0.0
  0
LINE
  5
A7
  8
0
 62
     7
 10
163.35300000000001
 20
81.720200000000006
 30
0.0
 11
166.72900000000001
 21
79.902900000000002
 31
0.0
  0
LINE
  5
A8
  8
0
 62
     7
 10
167.203
 20
80.783199999999994
 30
0.0
 11
167.12299999999999
 21
80.636099999999999
 31
0.0
  0
LINE
  5
A9
  8
0
 62
     7
 10
163.828
 20
82.601200000000006
 30
0.0
 11
163.74799999999999
 21
82.454099999999997
 31
0.0
  0
ARC
  5
AA
  8
0
 62
     7
 10
167.03652199999999
 20
80.48728100000001
 30
0.0
 40
0.172259
 50
333.62622399999998
 51
59.740108000000014
  0
ARC
  5
AB
  8
0
 62
     7
 10
167.04185200000001
 20
80.497480999999993
 30
0.0
 40
0.172399
 50
243.7275459999999
 51
329.79951499999999
  0
ARC
  5
AC
  8
0
 62
     7
 10
163.67787200000001
 20
82.309768999999989
 30
0.0
 40
0.173001
 50
153.658016
 51
239.61221800000001
  0
ARC
  5
AD
  8
0
 62
     7
 10
163.67198500000001
 20
82.298912999999999
 30
0.0
 40
0.172983
 50
63.751175000000003
 51
149.56702100000001
  0
LINE
  5
AE
  8
0
 62
     7
 10
163.74799999999999
 20
82.454099999999997
 30
0.0
 11
167.12299999999999
 21
80.636099999999999
 31
0.0
  0
LINE
  5
AF
  8
0
 62
     7
 10
163.59
 20
82.160499999999999
 30
0.0
 11
166.96600000000001
 21
80.3429
 31
0.0
  0
LINE
  5
B0
  8
0
 62
     7
 10
167.44
 20
81.223500000000001
 30
0.0
 11
167.36000000000001
 21
81.076400000000007
 31
0.0
  0
LINE
  5
B1
  8
0
 62
     7
 10
164.065
 20
83.041099999999986
 30
0.0
 11
163.98599999999999
 21
82.894300000000015
 31
0.0
  0
ARC
  5
B2
  8
0
 62
     7
 10
167.273448
 20
80.927420999999995
 30
0.0
 40
0.172435
 50
333.58166899999998
 51
59.736546999999987
  0
ARC
  5
B3
  8
0
 62
     7
 10
167.27899600000001
 20
80.937809999999985
 30
0.0
 40
0.172491
 50
243.69807299999999
 51
329.66827899999998
  0
ARC
  5
B4
  8
0
 62
     7
 10
163.91463200000001
 20
82.749756000000005
 30
0.0
 40
0.172435
 50
153.58163200000001
 51
239.73658399999991
  0
ARC
  5
B5
  8
0
 62
     7
 10
163.90912700000001
 20
82.740007999999989
 30
0.0
 40
0.172206
 50
63.667429999999989
 51
149.85959099999999
  0
LINE
  5
B6
  8
0
 62
     7
 10
163.98599999999999
 20
82.894300000000015
 30
0.0
 11
167.36000000000001
 21
81.076400000000007
 31
0.0
  0
LINE
  5
B7
  8
0
 62
     7
 10
163.828
 20
82.600800000000007
 30
0.0
 11
167.203
 21
80.783199999999994
 31
0.0
  0
LINE
  5
B8
  8
0
 62
     7
 10
167.67699999999999
 20
81.663700000000006
 30
0.0
 11
167.59800000000001
 21
81.516999999999996
 31
0.0
  0
LINE
  5
B9
  8
0
 62
     7
 10
164.30199999999999
 20
83.481700000000004
 30
0.0
 11
164.22300000000001
 21
83.334599999999995
 31
0.0
  0
ARC
  5
BA
  8
0
 62
     7
 10
167.510311
 20
81.368033999999994
 30
0.0
 40
0.17288
 50
333.66146500000002
 51
59.496113000000001
  0
ARC
  5
BB
  8
0
 62
     7
 10
167.51594499999999
 20
81.378663000000003
 30
0.0
 40
0.172966
 50
243.80382499999999
 51
329.674915
  0
ARC
  5
BC
  8
0
 62
     7
 10
164.15221500000001
 20
83.190325999999985
 30
0.0
 40
0.172963
 50
153.646219
 51
239.62401600000001
  0
ARC
  5
BD
  8
0
 62
     7
 10
164.14610099999999
 20
83.180409999999995
 30
0.0
 40
0.172277
 50
63.532510000000002
 51
149.785687
  0
LINE
  5
BE
  8
0
 62
     7
 10
164.22300000000001
 20
83.334599999999995
 30
0.0
 11
167.59800000000001
 21
81.516999999999996
 31
0.0
  0
LINE
  5
BF
  8
0
 62
     7
 10
164.065
 20
83.041099999999986
 30
0.0
 11
167.44
 21
81.223500000000001
 31
0.0
  0
ARC
  5
C0
  8
0
 62
     7
 10
165.47945100000001
 20
80.798181
 30
0.0
 40
6.2090290000000001
 50
63.70965600000001
 51
79.613681999999983
  0
ARC
  5
C1
  8
0
 62
     7
 10
164.28104400000001
 20
75.081975
 30
0.0
 40
12.048539
 50
78.908771999999999
 51
80.79719200000001
  0
ARC
  5
C2
  8
0
 62
     7
 10
166.57368600000001
 20
83.046746999999996
 30
0.0
 40
3.7084239999999991
 50
32.550362
 51
63.47965300000002
  0
LINE
  5
C3
  8
0
 62
     7
 10
169.99700000000001
 20
84.431200000000004
 30
0.0
 11
168.20099999999999
 21
81.381600000000006
 31
0.0
  0
LINE
  5
C4
  8
0
 62
     7
 10
165.58199999999999
 20
86.8035
 30
0.0
 11
163.798
 21
83.752499999999984
 31
0.0
  0
LINE
  5
C5
  8
0
 62
     7
 10
170.279
 20
91.519199999999998
 30
0.0
 11
169.99700000000001
 21
84.431200000000004
 31
0.0
  0
LINE
  5
C6
  8
0
 62
     7
 10
168.20099999999999
 20
81.381600000000006
 30
0.0
 11
163.798
 21
83.752499999999984
 31
0.0
  0
LINE
  5
C7
  8
0
 62
     7
 10
165.58199999999999
 20
86.8035
 30
0.0
 11
165.29599999999999
 21
86.922399999999996
 31
0.0
  0
LINE
  5
C8
  8
0
 62
     7
 10
170.279
 20
91.519199999999998
 30
0.0
 11
167.53599999999989
 21
92.660899999999998
 31
0.0
  0
LINE
  5
C9
  8
0
  6
AIGENLINE001
 62
     7
 10
171.91900000000001
 20
87.506299999999996
 30
0.0
 11
162.13300000000001
 21
91.576400000000007
 31
0.0
  0
LINE
  5
CA
  8
0
  6
AIGENLINE002
 62
     7
 10
59.413800000000002
 20
67.7637
 30
0.0
 11
59.413800000000002
 21
68.930300000000003
 31
0.0
  0
LINE
  5
CB
  8
0
 62
     7
 10
57.663899999999998
 20
70.596999999999994
 30
0.0
 11
58.538699999999999
 21
69.763599999999997
 31
0.0
  0
LINE
  5
CC
  8
0
  6
AIGENLINE002
 62
     7
 10
58.538699999999999
 20
69.763599999999997
 30
0.0
 11
59.413800000000002
 21
68.930300000000003
 31
0.0
  0
ARC
  5
CD
  8
0
 62
     7
 10
63.803311999999998
 20
101.609718
 30
0.0
 40
31.61458
 50
190.40177199999999
 51
258.80219299999999
  0
LINE
  5
CE
  8
0
 62
     7
 10
63.247199999999999
 20
70.596999999999994
 30
0.0
 11
57.663699999999999
 21
70.596999999999994
 31
0.0
  0
LINE
  5
CF
  8
0
  6
AIGENLINE002
 62
     7
 10
67.080600000000004
 20
67.7637
 30
0.0
 11
67.080600000000004
 21
68.930300000000003
 31
0.0
  0
LINE
  5
D0
  8
0
 62
     7
 10
68.830500000000001
 20
70.596999999999994
 30
0.0
 11
67.955600000000004
 21
69.763599999999997
 31
0.0
  0
LINE
  5
D1
  8
0
  6
AIGENLINE002
 62
     7
 10
67.955600000000004
 20
69.763599999999997
 30
0.0
 11
67.080600000000004
 21
68.930300000000003
 31
0.0
  0
LINE
  5
D2
  8
0
  6
AIGENLINE002
 62
     7
 10
59.413800000000002
 20
68.930300000000003
 30
0.0
 11
67.080600000000004
 21
68.930300000000003
 31
0.0
  0
ARC
  5
D3
  8
0
 62
     7
 10
62.691057999999998
 20
101.609718
 30
0.0
 40
31.61458
 50
281.19782700000007
 51
349.59824800000001
  0
LINE
  5
D4
  8
0
 62
     7
 10
57.83039999999999
 20
69.763599999999997
 30
0.0
 11
63.247199999999999
 21
69.763599999999997
 31
0.0
  0
LINE
  5
D5
  8
0
 62
     7
 10
63.247199999999999
 20
69.763599999999997
 30
0.0
 11
68.663600000000002
 21
69.763599999999997
 31
0.0
  0
LINE
  5
D6
  8
0
  6
AIGENLINE002
 62
     7
 10
59.413800000000002
 20
67.7637
 30
0.0
 11
67.080600000000004
 21
67.7637
 31
0.0
  0
LINE
  5
D7
  8
0
 62
     7
 10
63.247199999999999
 20
70.596999999999994
 30
0.0
 11
68.830699999999993
 21
70.596999999999994
 31
0.0
  0
LINE
  5
D8
  8
0
 62
     7
 10
152.24799999999999
 20
65.210899999999995
 30
0.0
 11
152.08799999999999
 21
65.165099999999995
 31
0.0
  0
LINE
  5
D9
  8
0
 62
     7
 10
151.19200000000001
 20
68.896500000000003
 30
0.0
 11
151.16
 21
68.886200000000002
 31
0.0
  0
ARC
  5
DA
  8
0
 62
     7
 10
152.40259
 20
65.262372999999997
 30
0.0
 40
0.17177
 50
287.54219999999998
 51
13.760619
  0
ARC
  5
DB
  8
0
 62
     7
 10
152.41219699999999
 20
65.266355000000004
 30
0.0
 40
0.172982
 50
198.69758400000001
 51
284.10837900000001
  0
ARC
  5
DC
  8
0
 62
     7
 10
151.36027200000001
 20
68.938321999999999
 30
0.0
 40
0.173324
 50
108.330916
 51
193.96675200000001
  0
ARC
  5
DD
  8
0
 62
     7
 10
151.347195
 20
68.933256999999998
 30
0.0
 40
0.174582
 50
18.795701999999999
 51
103.72942999999999
  0
LINE
  5
DE
  8
0
 62
     7
 10
151.512
 20
68.989500000000007
 30
0.0
 11
152.56899999999999
 21
65.303200000000004
 31
0.0
  0
LINE
  5
DF
  8
0
 62
     7
 10
151.19200000000001
 20
68.896500000000003
 30
0.0
 11
152.24799999999999
 21
65.210899999999995
 31
0.0
  0
LINE
  5
E0
  8
0
 62
     7
 10
151.76499999999999
 20
65.084100000000007
 30
0.0
 11
151.60299999999989
 21
65.044200000000004
 31
0.0
  0
LINE
  5
E1
  8
0
 62
     7
 10
150.83699999999999
 20
68.8048
 30
0.0
 11
150.80500000000001
 21
68.796899999999994
 31
0.0
  0
ARC
  5
E2
  8
0
 62
     7
 10
151.92129
 20
65.129722000000001
 30
0.0
 40
0.170899
 50
285.35153700000001
 51
11.941041999999999
  0
ARC
  5
E3
  8
0
 62
     7
 10
151.93024399999999
 20
65.134018999999995
 30
0.0
 40
0.172948
 50
196.768733
 51
282.11237699999998
  0
ARC
  5
E4
  8
0
 62
     7
 10
151.00664900000001
 20
68.840607999999989
 30
0.0
 40
0.173157
 50
106.384702
 51
191.918126
  0
ARC
  5
E5
  8
0
 62
     7
 10
150.993257
 20
68.835843000000011
 30
0.0
 40
0.174528
 50
16.753969999999999
 51
101.720578
  0
LINE
  5
E6
  8
0
 62
     7
 10
151.16
 20
68.886200000000002
 30
0.0
 11
152.08799999999999
 21
65.165099999999995
 31
0.0
  0
LINE
  5
E7
  8
0
 62
     7
 10
150.83699999999999
 20
68.8048
 30
0.0
 11
151.76499999999999
 21
65.084100000000007
 31
0.0
  0
LINE
  5
E8
  8
0
 62
     7
 10
151.27699999999999
 20
64.974599999999995
 30
0.0
 11
151.114
 21
64.9405
 31
0.0
  0
LINE
  5
E9
  8
0
 62
     7
 10
150.47999999999999
 20
68.7256
 30
0.0
 11
150.44800000000001
 21
68.719099999999983
 31
0.0
  0
ARC
  5
EA
  8
0
 62
     7
 10
151.434136
 20
65.01550300000001
 30
0.0
 40
0.171691
 50
283.38535400000001
 51
9.6077790000000007
  0
ARC
  5
EB
  8
0
 62
     7
 10
151.443366
 20
65.017815999999996
 30
0.0
 40
0.172068
 50
194.55725699999999
 51
280.21565399999997
  0
ARC
  5
EC
  8
0
 62
     7
 10
150.6489
 20
68.755724999999998
 30
0.0
 40
0.171936
 50
103.836956
 51
190.087154
  0
ARC
  5
ED
  8
0
 62
     7
 10
150.637708
 20
68.751975999999985
 30
0.0
 40
0.173299
 50
14.443796000000001
 51
99.944591000000003
  0
LINE
  5
EE
  8
0
 62
     7
 10
150.80600000000001
 20
68.795199999999994
 30
0.0
 11
151.60299999999989
 21
65.044200000000004
 31
0.0
  0
LINE
  5
EF
  8
0
 62
     7
 10
150.47999999999999
 20
68.7256
 30
0.0
 11
151.27699999999999
 21
64.974599999999995
 31
0.0
  0
LINE
  5
F0
  8
0
 62
     7
 10
150.786
 20
64.882599999999996
 30
0.0
 11
150.62200000000001
 21
64.853999999999999
 31
0.0
  0
LINE
  5
F1
  8
0
 62
     7
 10
150.119
 20
68.659099999999995
 30
0.0
 11
150.08799999999999
 21
68.653599999999983
 31
0.0
  0
ARC
  5
F2
  8
0
 62
     7
 10
150.94391200000001
 20
64.917878999999999
 30
0.0
 40
0.17179
 50
281.60646400000002
 51
7.5533279999999996
  0
ARC
  5
F3
  8
0
 62
     7
 10
150.95397399999999
 20
64.920493000000008
 30
0.0
 40
0.17264
 50
192.68523200000001
 51
278.15891399999998
  0
ARC
  5
F4
  8
0
 62
     7
 10
150.290323
 20
68.682503999999994
 30
0.0
 40
0.172651
 50
102.03918400000001
 51
187.784054
  0
ARC
  5
F5
  8
0
 62
     7
 10
150.27852899999999
 20
68.679478000000003
 30
0.0
 40
0.173578
 50
12.599978999999999
 51
98.020306000000005
  0
LINE
  5
F6
  8
0
 62
     7
 10
150.44800000000001
 20
68.717299999999994
 30
0.0
 11
151.114
 21
64.9405
 31
0.0
  0
LINE
  5
F7
  8
0
 62
     7
 10
150.119
 20
68.659099999999995
 30
0.0
 11
150.786
 21
64.882599999999996
 31
0.0
  0
LINE
  5
F8
  8
0
 62
     7
 10
150.08799999999999
 20
68.651499999999984
 30
0.0
 11
150.62200000000001
 21
64.853999999999999
 31
0.0
  0
LINE
  5
F9
  8
0
 62
     7
 10
150.291
 20
64.8078
 30
0.0
 11
150.126
 21
64.784700000000001
 31
0.0
  0
LINE
  5
FA
  8
0
 62
     7
 10
149.75800000000001
 20
68.605000000000004
 30
0.0
 11
149.72499999999999
 21
68.6006
 31
0.0
  0
ARC
  5
FB
  8
0
 62
     7
 10
150.45123599999999
 20
64.836877999999999
 30
0.0
 40
0.171181
 50
279.31105500000001
 51
5.7365940000000002
  0
ARC
  5
FC
  8
0
 62
     7
 10
150.45974200000001
 20
64.838564000000005
 30
0.0
 40
0.171688
 50
190.3142629999999
 51
276.41753699999998
  0
ARC
  5
FD
  8
0
 62
     7
 10
149.928629
 20
68.623009999999994
 30
0.0
 40
0.172046
 50
99.992781000000008
 51
185.99827999999999
  0
ARC
  5
FE
  8
0
 62
     7
 10
149.91694699999999
 20
68.619786000000005
 30
0.0
 40
0.173613
 50
10.654588
 51
96.008150000000015
  0
LINE
  5
FF
  8
0
 62
     7
 10
150.08799999999999
 20
68.651899999999998
 30
0.0
 11
150.62200000000001
 21
64.853999999999999
 31
0.0
  0
LINE
  5
100
  8
0
 62
     7
 10
149.75800000000001
 20
68.605000000000004
 30
0.0
 11
150.291
 21
64.8078
 31
0.0
  0
LINE
  5
101
  8
0
 62
     7
 10
149.72499999999999
 20
68.598500000000001
 30
0.0
 11
150.126
 21
64.784700000000001
 31
0.0
  0
LINE
  5
102
  8
0
 62
     7
 10
149.79400000000001
 20
64.749899999999997
 30
0.0
 11
149.62899999999999
 21
64.732699999999994
 31
0.0
  0
LINE
  5
103
  8
0
 62
     7
 10
149.39400000000001
 20
68.563299999999984
 30
0.0
 11
149.36099999999999
 21
68.559899999999999
 31
0.0
  0
ARC
  5
104
  8
0
 62
     7
 10
149.95377199999999
 20
64.774268000000006
 30
0.0
 40
0.172698
 50
277.83790299999998
 51
3.4768050000000001
  0
ARC
  5
105
  8
0
 62
     7
 10
149.96450999999999
 20
64.775005000000007
 30
0.0
 40
0.172299
 50
188.362876
 51
274.265019
  0
ARC
  5
106
  8
0
 62
     7
 10
149.56557699999999
 20
68.575305
 30
0.0
 40
0.172273
 50
97.913067999999996
 51
183.98066700000001
  0
ARC
  5
107
  8
0
 62
     7
 10
149.55358200000001
 20
68.572873000000001
 30
0.0
 40
0.173461
 50
8.4913109999999996
 51
93.874538000000015
  0
LINE
  5
108
  8
0
 62
     7
 10
149.72499999999999
 20
68.598500000000001
 30
0.0
 11
150.126
 21
64.784700000000001
 31
0.0
  0
LINE
  5
109
  8
0
 62
     7
 10
149.39400000000001
 20
68.563299999999984
 30
0.0
 11
149.79400000000001
 21
64.749899999999997
 31
0.0
  0
LINE
  5
10A
  8
0
 62
     7
 10
149.29599999999999
 20
64.709599999999995
 30
0.0
 11
149.13
 21
64.697900000000004
 31
0.0
  0
LINE
  5
10B
  8
0
 62
     7
 10
149.029
 20
68.534400000000005
 30
0.0
 11
148.99600000000001
 21
68.532300000000006
 31
0.0
  0
ARC
  5
10C
  8
0
 62
     7
 10
149.45624799999999
 20
64.727609999999999
 30
0.0
 40
0.172505
 50
275.78870499999999
 51
1.697281
  0
ARC
  5
10D
  8
0
 62
     7
 10
149.46727100000001
 20
64.728268999999997
 30
0.0
 40
0.172402
 50
186.204094
 51
272.119528
  0
ARC
  5
10E
  8
0
 62
     7
 10
149.20173
 20
68.539589000000007
 30
0.0
 40
0.173269
 50
96.245782000000005
 51
181.714021
  0
ARC
  5
10F
  8
0
 62
     7
 10
149.18884700000001
 20
68.538345999999976
 30
0.0
 40
0.173586
 50
6.4457079999999989
 51
91.970206000000005
  0
LINE
  5
110
  8
0
 62
     7
 10
149.36099999999999
 20
68.5578
 30
0.0
 11
149.62899999999999
 21
64.732699999999994
 31
0.0
  0
LINE
  5
111
  8
0
 62
     7
 10
149.029
 20
68.534400000000005
 30
0.0
 11
149.29599999999999
 21
64.709599999999995
 31
0.0
  0
LINE
  5
112
  8
0
 62
     7
 10
148.79599999999999
 20
64.686599999999984
 30
0.0
 11
148.63
 21
64.680700000000002
 31
0.0
  0
LINE
  5
113
  8
0
 62
     7
 10
148.66300000000001
 20
68.517899999999997
 30
0.0
 11
148.63
 21
68.516800000000003
 31
0.0
  0
ARC
  5
114
  8
0
 62
     7
 10
148.95691199999999
 20
64.698878000000008
 30
0.0
 40
0.172915
 50
273.87350900000001
 51
359.684101
  0
ARC
  5
115
  8
0
 62
     7
 10
148.968673
 20
64.69915300000001
 30
0.0
 40
0.172796
 50
184.18087999999989
 51
269.97349800000001
  0
ARC
  5
116
  8
0
 62
     7
 10
148.83548099999999
 20
68.517747999999997
 30
0.0
 40
0.172815
 50
94.072162999999989
 51
179.95938599999999
  0
ARC
  5
117
  8
0
 62
     7
 10
148.822733
 20
68.516188999999997
 30
0.0
 40
0.173938
 50
4.4165460000000003
 51
89.843149999999994
  0
LINE
  5
118
  8
0
 62
     7
 10
148.99600000000001
 20
68.529600000000002
 30
0.0
 11
149.13
 21
64.697900000000004
 31
0.0
  0
LINE
  5
119
  8
0
 62
     7
 10
148.66300000000001
 20
68.517899999999997
 30
0.0
 11
148.79599999999999
 21
64.686599999999984
 31
0.0
  0
LINE
  5
11A
  8
0
 62
     7
 10
148.29599999999999
 20
64.680700000000002
 30
0.0
 11
148.12899999999999
 21
64.680700000000002
 31
0.0
  0
LINE
  5
11B
  8
0
 62
     7
 10
148.29599999999999
 20
68.514099999999999
 30
0.0
 11
148.12899999999999
 21
68.514099999999999
 31
0.0
  0
ARC
  5
11C
  8
0
 62
     7
 10
148.45701500000001
 20
64.686890000000005
 30
0.0
 40
0.172689
 50
271.93625400000002
 51
357.94525399999998
  0
ARC
  5
11D
  8
0
 62
     7
 10
148.46941100000001
 20
64.687618000000001
 30
0.0
 40
0.173443
 50
182.28648200000001
 51
267.83204999999998
  0
ARC
  5
11E
  8
0
 62
     7
 10
148.469032
 20
68.507898999999995
 30
0.0
 40
0.173036
 50
92.047434999999993
 51
177.95253500000001
  0
ARC
  5
11F
  8
0
 62
     7
 10
148.45628600000001
 20
68.507517000000007
 30
0.0
 40
0.173431
 50
2.1688740000000002
 51
87.831116000000009
  0
LINE
  5
120
  8
0
 62
     7
 10
148.63
 20
68.514099999999999
 30
0.0
 11
148.63
 21
64.680700000000002
 31
0.0
  0
LINE
  5
121
  8
0
 62
     7
 10
148.29599999999999
 20
68.514099999999999
 30
0.0
 11
148.29599999999999
 21
64.680700000000002
 31
0.0
  0
LINE
  5
122
  8
0
 62
     7
 10
147.79599999999999
 20
64.680700000000002
 30
0.0
 11
147.62899999999999
 21
64.680700000000002
 31
0.0
  0
LINE
  5
123
  8
0
 62
     7
 10
147.79599999999999
 20
68.514099999999999
 30
0.0
 11
147.62899999999999
 21
68.514099999999999
 31
0.0
  0
ARC
  5
124
  8
0
 62
     7
 10
147.956784
 20
64.686890000000005
 30
0.0
 40
0.172689
 50
271.93625400000002
 51
357.94525399999998
  0
ARC
  5
125
  8
0
 62
     7
 10
147.96917999999999
 20
64.687618000000001
 30
0.0
 40
0.173443
 50
182.28648200000001
 51
267.83204999999998
  0
ARC
  5
126
  8
0
 62
     7
 10
147.96880100000001
 20
68.507898999999995
 30
0.0
 40
0.173036
 50
92.047434999999993
 51
177.95253500000001
  0
ARC
  5
127
  8
0
 62
     7
 10
147.95605499999999
 20
68.507517000000007
 30
0.0
 40
0.173431
 50
2.1688740000000002
 51
87.831116000000009
  0
LINE
  5
128
  8
0
 62
     7
 10
148.12899999999999
 20
68.514099999999999
 30
0.0
 11
148.12899999999999
 21
64.680700000000002
 31
0.0
  0
LINE
  5
129
  8
0
 62
     7
 10
147.79599999999999
 20
68.514099999999999
 30
0.0
 11
147.79599999999999
 21
64.680700000000002
 31
0.0
  0
LINE
  5
12A
  8
0
 62
     7
 10
147.29599999999999
 20
64.680700000000002
 30
0.0
 11
147.12899999999999
 21
64.680700000000002
 31
0.0
  0
LINE
  5
12B
  8
0
 62
     7
 10
147.29599999999999
 20
68.514099999999999
 30
0.0
 11
147.12899999999999
 21
68.514099999999999
 31
0.0
  0
ARC
  5
12C
  8
0
 62
     7
 10
147.45655300000001
 20
64.686890000000005
 30
0.0
 40
0.172689
 50
271.93625400000002
 51
357.94525399999998
  0
ARC
  5
12D
  8
0
 62
     7
 10
147.46894900000001
 20
64.687618000000001
 30
0.0
 40
0.173443
 50
182.28648200000001
 51
267.83204999999998
  0
ARC
  5
12E
  8
0
 62
     7
 10
147.46857
 20
68.507898999999995
 30
0.0
 40
0.173036
 50
92.047434999999993
 51
177.95253500000001
  0
ARC
  5
12F
  8
0
 62
     7
 10
147.45582400000001
 20
68.507517000000007
 30
0.0
 40
0.173431
 50
2.1688740000000002
 51
87.831116000000009
  0
LINE
  5
130
  8
0
 62
     7
 10
147.62899999999999
 20
68.514099999999999
 30
0.0
 11
147.62899999999999
 21
64.680700000000002
 31
0.0
  0
LINE
  5
131
  8
0
 62
     7
 10
147.29599999999999
 20
68.514099999999999
 30
0.0
 11
147.29599999999999
 21
64.680700000000002
 31
0.0
  0
ARC
  5
132
  8
0
 62
     7
 10
146.956322
 20
64.686890000000005
 30
0.0
 40
0.172689
 50
271.93625400000002
 51
357.94525399999998
  0
ARC
  5
133
  8
0
 62
     7
 10
146.968718
 20
64.687618000000001
 30
0.0
 40
0.173443
 50
182.28648200000001
 51
267.83204999999998
  0
ARC
  5
134
  8
0
 62
     7
 10
146.96833899999999
 20
68.507898999999995
 30
0.0
 40
0.173036
 50
92.047434999999993
 51
177.95253500000001
  0
ARC
  5
135
  8
0
 62
     7
 10
146.95559299999999
 20
68.507517000000007
 30
0.0
 40
0.173431
 50
2.1688740000000002
 51
87.831116000000009
  0
LINE
  5
136
  8
0
 62
     7
 10
147.29599999999999
 20
68.514099999999999
 30
0.0
 11
147.29599999999999
 21
64.680700000000002
 31
0.0
  0
LINE
  5
137
  8
0
 62
     7
 10
147.12899999999999
 20
68.514099999999999
 30
0.0
 11
147.12899999999999
 21
64.680700000000002
 31
0.0
  0
LINE
  5
138
  8
0
 62
     7
 10
146.79499999999999
 20
68.514099999999999
 30
0.0
 11
146.79499999999999
 21
64.680700000000002
 31
0.0
  0
ARC
  5
139
  8
0
 62
     7
 10
144.207078
 20
65.130258999999995
 30
0.0
 40
1.4142600000000001
 50
205.35945899999999
 51
209.55561399999999
  0
ARC
  5
13A
  8
0
 62
     7
 10
145.34985800000001
 20
65.672042000000005
 30
0.0
 40
2.6789640000000001
 50
197.01048599999999
 51
205.362199
  0
ARC
  5
13B
  8
0
 62
     7
 10
147.27569
 20
66.308931999999999
 30
0.0
 40
4.707084
 50
188.3424
 51
197.56593799999999
  0
ARC
  5
13C
  8
0
 62
     7
 10
148.790592
 20
66.577606000000003
 30
0.0
 40
6.2451069999999991
 50
179.81689700000001
 51
188.76477
  0
ARC
  5
13D
  8
0
 62
     7
 10
144.207078
 20
68.064176000000003
 30
0.0
 40
1.4142600000000001
 50
150.44438600000001
 51
154.64054100000001
  0
ARC
  5
13E
  8
0
 62
     7
 10
145.349478
 20
67.522481999999997
 30
0.0
 40
2.678582
 50
154.63604599999999
 51
162.98841200000001
  0
ARC
  5
13F
  8
0
 62
     7
 10
147.276038
 20
66.885284999999996
 30
0.0
 40
4.7074899999999991
 50
162.432503
 51
171.65313
  0
ARC
  5
140
  8
0
 62
     7
 10
148.785934
 20
66.617392000000009
 30
0.0
 40
6.2404500000000001
 50
171.231976
 51
180.1820909999999
  0
LINE
  5
141
  8
0
 62
     7
 10
146.79499999999999
 20
69.097300000000004
 30
0.0
 11
143.12899999999999
 21
69.097300000000004
 31
0.0
  0
LINE
  5
142
  8
0
 62
     7
 10
146.79499999999999
 20
64.097099999999998
 30
0.0
 11
143.12899999999999
 21
64.097099999999998
 31
0.0
  0
LINE
  5
143
  8
0
 62
     7
 10
146.79499999999999
 20
69.097300000000004
 30
0.0
 11
146.79499999999999
 21
64.097099999999998
 31
0.0
  0
LINE
  5
144
  8
0
  6
AIGENLINE002
 62
     7
 10
133.87899999999999
 20
67.7637
 30
0.0
 11
133.87899999999999
 21
68.930300000000003
 31
0.0
  0
LINE
  5
145
  8
0
 62
     7
 10
132.12899999999999
 20
70.596999999999994
 30
0.0
 11
133.00399999999999
 21
69.763599999999997
 31
0.0
  0
LINE
  5
146
  8
0
  6
AIGENLINE002
 62
     7
 10
133.00399999999999
 20
69.763599999999997
 30
0.0
 11
133.87899999999999
 21
68.930300000000003
 31
0.0
  0
ARC
  5
147
  8
0
 62
     7
 10
138.26874000000001
 20
101.609585
 30
0.0
 40
31.614464999999999
 50
190.40156500000001
 51
258.80200500000001
  0
LINE
  5
148
  8
0
 62
     7
 10
137.71299999999999
 20
70.596999999999994
 30
0.0
 11
132.12899999999999
 21
70.596999999999994
 31
0.0
  0
LINE
  5
149
  8
0
  6
AIGENLINE002
 62
     7
 10
141.54599999999999
 20
67.7637
 30
0.0
 11
141.54599999999999
 21
68.930300000000003
 31
0.0
  0
LINE
  5
14A
  8
0
 62
     7
 10
143.29599999999999
 20
70.596999999999994
 30
0.0
 11
142.42099999999999
 21
69.763599999999997
 31
0.0
  0
LINE
  5
14B
  8
0
  6
AIGENLINE002
 62
     7
 10
142.42099999999999
 20
69.763599999999997
 30
0.0
 11
141.54599999999999
 21
68.930300000000003
 31
0.0
  0
LINE
  5
14C
  8
0
  6
AIGENLINE002
 62
     7
 10
133.87899999999999
 20
68.930300000000003
 30
0.0
 11
141.54599999999999
 21
68.930300000000003
 31
0.0
  0
ARC
  5
14D
  8
0
 62
     7
 10
137.15667199999999
 20
101.609585
 30
0.0
 40
31.614464999999999
 50
281.19801500000011
 51
349.598455
  0
LINE
  5
14E
  8
0
 62
     7
 10
132.29599999999999
 20
69.763599999999997
 30
0.0
 11
137.71299999999999
 21
69.763599999999997
 31
0.0
  0
LINE
  5
14F
  8
0
 62
     7
 10
137.71299999999999
 20
69.763599999999997
 30
0.0
 11
143.12899999999999
 21
69.763599999999997
 31
0.0
  0
LINE
  5
150
  8
0
  6
AIGENLINE002
 62
     7
 10
133.87899999999999
 20
67.7637
 30
0.0
 11
141.54599999999999
 21
67.7637
 31
0.0
  0
LINE
  5
151
  8
0
 62
     7
 10
137.71299999999999
 20
70.596999999999994
 30
0.0
 11
143.29599999999999
 21
70.596999999999994
 31
0.0
  0
LINE
  5
152
  8
0
 62
     7
 10
132.29599999999999
 20
69.763599999999997
 30
0.0
 11
132.29599999999999
 21
63.568300000000001
 31
0.0
  0
ARC
  5
153
  8
0
 62
     7
 10
169.521084
 20
96.877034999999992
 30
0.0
 40
0.691913
 50
2.0264829999999998
 51
87.884653
  0
ARC
  5
154
  8
0
 62
     7
 10
105.904634
 20
96.876014999999995
 30
0.0
 40
0.692944
 50
92.137490999999983
 51
177.89208199999999
  0
LINE
  5
155
  8
0
 62
     7
 10
105.212
 20
95.901700000000005
 30
0.0
 11
105.212
 21
96.901499999999999
 31
0.0
  0
LINE
  5
156
  8
0
 62
     7
 10
170.21299999999999
 20
95.901700000000005
 30
0.0
 11
105.212
 21
95.901700000000005
 31
0.0
  0
LINE
  5
157
  8
0
 62
     7
 10
170.21299999999999
 20
96.901499999999999
 30
0.0
 11
170.21299999999999
 21
95.901700000000005
 31
0.0
  0
LINE
  5
158
  8
0
 62
     7
 10
132.29599999999999
 20
63.568300000000001
 30
0.0
 11
143.12899999999999
 21
63.568300000000001
 31
0.0
  0
LINE
  5
159
  8
0
 62
     7
 10
105.879
 20
97.5685
 30
0.0
 11
169.547
 21
97.5685
 31
0.0
  0
LINE
  5
15A
  8
0
 62
     7
 10
143.12899999999999
 20
69.763599999999997
 30
0.0
 11
143.12899999999999
 21
69.097300000000004
 31
0.0
  0
LINE
  5
15B
  8
0
 62
     7
 10
143.12899999999999
 20
64.097099999999998
 30
0.0
 11
143.12899999999999
 21
63.568300000000001
 31
0.0
  0
LINE
  5
15C
  8
0
  6
AIGENLINE001
 62
     7
 10
137.71299999999999
 20
62.143000000000001
 30
0.0
 11
137.71299999999999
 21
103.36499999999999
 31
0.0
  0
LINE
  5
15D
  8
0
  6
AIGENLINE001
 62
     7
 10
169.17599999999999
 20
88.261099999999985
 30
0.0
 11
165.69999999999999
 21
81.767799999999994
 31
0.0
  0
LINE
  5
15E
  8
0
  6
AIGENLINE001
 62
     7
 10
148.46199999999999
 20
66.5976
 30
0.0
 11
141.261
 21
66.5976
 31
0.0
  0
ARC
  5
15F
  8
0
  6
AIGENLINE001
 62
     7
 10
148.453495
 20
73.694203999999999
 30
0.0
 40
7.0966479999999992
 50
270.069976
 51
283.20663999999999
  0
ARC
  5
160
  8
0
  6
AIGENLINE001
 62
     7
 10
147.858721
 20
76.701385999999999
 30
0.0
 40
10.160755
 50
282.59769
 51
292.67211700000001
  0
ARC
  5
161
  8
0
  6
AIGENLINE001
 62
     7
 10
146.30996099999999
 20
80.729590999999999
 30
0.0
 40
14.475192
 50
292.18280700000003
 51
299.93490800000012
  0
ARC
  5
162
  8
0
  6
AIGENLINE001
 62
     7
 10
143.47599700000001
 20
85.869382999999985
 30
0.0
 40
20.343782999999998
 50
299.62807900000001
 51
307.16530499999999
  0
ARC
  5
163
  8
0
  6
AIGENLINE001
 62
     7
 10
139.06041099999999
 20
91.935304999999985
 30
0.0
 40
27.845603000000011
 50
306.86538100000001
 51
314.04425499999991
  0
ARC
  5
164
  8
0
  6
AIGENLINE001
 62
     7
 10
133.87741
 20
97.514250000000004
 30
0.0
 40
35.459389000000002
 50
313.797031
 51
322.83006399999999
  0
ARC
  5
165
  8
0
  6
AIGENLINE001
 62
     7
 10
132.946234
 20
98.385238000000001
 30
0.0
 40
36.727862999999999
 50
322.62500899999998
 51
333.099152
  0
LINE
  5
166
  8
0
 62
     7
 10
105.212
 20
95.901700000000005
 30
0.0
 11
105.212
 21
96.901499999999999
 31
0.0
  0
ARC
  5
167
  8
0
  6
AIGENLINE002
 62
     7
 10
63.520125
 20
89.749451000000008
 30
0.0
 40
2.3939689999999989
 50
312.35443700000002
 51
359.653414
  0
ARC
  5
168
  8
0
  6
AIGENLINE002
 62
     7
 10
63.270623000000001
 20
90.003616000000008
 30
0.0
 40
2.749919999999999
 50
269.51166799999999
 51
312.62832300000002
  0
ARC
  5
169
  8
0
  6
AIGENLINE002
 62
     7
 10
63.261551000000011
 20
90.087676000000002
 30
0.0
 40
2.833915999999999
 50
224.22671299999999
 51
269.70957399999998
  0
ARC
  5
16A
  8
0
  6
AIGENLINE002
 62
     7
 10
63.026457999999998
 20
89.772019999999998
 30
0.0
 40
2.4460749999999991
 50
180.86791199999999
 51
222.76918900000001
  0
ARC
  5
16B
  8
0
  6
AIGENLINE002
 62
     7
 10
62.974936999999997
 20
89.720491999999993
 30
0.0
 40
2.394315999999999
 50
132.36366599999999
 51
179.65353500000001
  0
ARC
  5
16C
  8
0
  6
AIGENLINE002
 62
     7
 10
63.223604000000002
 20
89.467136999999994
 30
0.0
 40
2.7491069999999991
 50
89.508510000000001
 51
132.634953
  0
ARC
  5
16D
  8
0
  6
AIGENLINE002
 62
     7
 10
63.232818999999992
 20
89.381812999999994
 30
0.0
 40
2.8343660000000002
 50
44.230381000000001
 51
89.709570999999997
  0
ARC
  5
16E
  8
0
  6
AIGENLINE002
 62
     7
 10
63.468764
 20
89.697950000000006
 30
0.0
 40
2.445567
 50
0.8673479999999999
 51
42.779010999999997
  0
LINE
  5
16F
  8
0
 62
     7
 10
68.663600000000002
 20
69.763599999999997
 30
0.0
 11
68.663600000000002
 21
63.568300000000001
 31
0.0
  0
LINE
  5
170
  8
0
 62
     7
 10
57.83039999999999
 20
69.763599999999997
 30
0.0
 11
57.83039999999999
 21
63.568300000000001
 31
0.0
  0
ARC
  5
171
  8
0
 62
     7
 10
95.055563000000006
 20
96.877034999999992
 30
0.0
 40
0.691913
 50
2.0264829999999998
 51
87.884653
  0
ARC
  5
172
  8
0
 62
     7
 10
31.439114
 20
96.876014999999995
 30
0.0
 40
0.692944
 50
92.137490999999983
 51
177.89208199999999
  0
LINE
  5
173
  8
0
 62
     7
 10
32.957000000000001
 20
141.68100000000001
 30
0.0
 11
30.746600000000001
 21
141.089
 31
0.0
  0
LINE
  5
174
  8
0
 62
     7
 10
30.746600000000001
 20
141.089
 30
0.0
 11
32.957000000000001
 21
140.49700000000001
 31
0.0
  0
LINE
  5
175
  8
0
 62
     7
 10
32.957000000000001
 20
140.49700000000001
 30
0.0
 11
32.957000000000001
 21
141.68100000000001
 31
0.0
  0
LINE
  5
176
  8
0
 62
     7
 10
93.536500000000004
 20
140.511
 30
0.0
 11
95.747000000000014
 21
141.10400000000001
 31
0.0
  0
LINE
  5
177
  8
0
 62
     7
 10
95.747000000000014
 20
141.10400000000001
 30
0.0
 11
93.536500000000004
 21
141.696
 31
0.0
  0
LINE
  5
178
  8
0
 62
     7
 10
93.536500000000004
 20
141.696
 30
0.0
 11
93.536500000000004
 21
140.511
 31
0.0
  0
LINE
  5
179
  8
0
 62
     7
 10
30.746600000000001
 20
141.096
 30
0.0
 11
95.747000000000014
 21
141.096
 31
0.0
  0
LINE
  5
17A
  8
0
 62
     7
 10
30.746600000000001
 20
140.57599999999999
 30
0.0
 11
30.746600000000001
 21
185.34100000000001
 31
0.0
  0
LINE
  5
17B
  8
0
 62
     7
 10
95.747000000000014
 20
140.57599999999999
 30
0.0
 11
95.747000000000014
 21
185.34100000000001
 31
0.0
  0
LINE
  5
17C
  8
0
 62
     7
 10
56.185699999999997
 20
186.07900000000001
 30
0.0
 11
50.574100000000001
 21
186.07900000000001
 31
0.0
  0
LINE
  5
17D
  8
0
 62
     7
 10
28.535900000000002
 20
149.191
 30
0.0
 11
30.746600000000001
 21
149.78299999999999
 31
0.0
  0
LINE
  5
17E
  8
0
 62
     7
 10
30.746600000000001
 20
149.78299999999999
 30
0.0
 11
28.535900000000002
 21
150.375
 31
0.0
  0
LINE
  5
17F
  8
0
 62
     7
 10
28.535900000000002
 20
150.375
 30
0.0
 11
28.535900000000002
 21
149.191
 31
0.0
  0
LINE
  5
180
  8
0
 62
     7
 10
91.370000000000005
 20
149.191
 30
0.0
 11
93.580799999999996
 21
149.78299999999999
 31
0.0
  0
LINE
  5
181
  8
0
 62
     7
 10
93.580799999999996
 20
149.78299999999999
 30
0.0
 11
91.370000000000005
 21
150.375
 31
0.0
  0
LINE
  5
182
  8
0
 62
     7
 10
91.370000000000005
 20
150.375
 30
0.0
 11
91.370000000000005
 21
149.191
 31
0.0
  0
LINE
  5
183
  8
0
 62
     7
 10
97.957400000000021
 20
150.36099999999999
 30
0.0
 11
95.747000000000014
 21
149.76900000000001
 31
0.0
  0
LINE
  5
184
  8
0
 62
     7
 10
95.747000000000014
 20
149.76900000000001
 30
0.0
 11
97.957400000000021
 21
149.17599999999999
 31
0.0
  0
LINE
  5
185
  8
0
 62
     7
 10
97.957400000000021
 20
149.17599999999999
 30
0.0
 11
97.957400000000021
 21
150.36099999999999
 31
0.0
  0
LINE
  5
186
  8
0
 62
     7
 10
35.1233
 20
150.36099999999999
 30
0.0
 11
32.9129
 21
149.76900000000001
 31
0.0
  0
LINE
  5
187
  8
0
 62
     7
 10
32.9129
 20
149.76900000000001
 30
0.0
 11
35.1233
 21
149.17599999999999
 31
0.0
  0
LINE
  5
188
  8
0
 62
     7
 10
35.1233
 20
149.17599999999999
 30
0.0
 11
35.1233
 21
150.36099999999999
 31
0.0
  0
LINE
  5
189
  8
0
 62
     7
 10
101.449
 20
149.77600000000001
 30
0.0
 11
24.613499999999998
 21
149.77600000000001
 31
0.0
  0
LINE
  5
18A
  8
0
 62
     7
 10
32.9129
 20
149.255
 30
0.0
 11
32.9129
 21
186.95599999999999
 31
0.0
  0
LINE
  5
18B
  8
0
 62
     7
 10
93.580799999999996
 20
149.255
 30
0.0
 11
93.580799999999996
 21
186.95599999999999
 31
0.0
  0
LINE
  5
18C
  8
0
 62
     7
 10
26.841899999999999
 20
99.779200000000003
 30
0.0
 11
27.434200000000001
 21
97.5685
 31
0.0
  0
LINE
  5
18D
  8
0
 62
     7
 10
27.434200000000001
 20
97.5685
 30
0.0
 11
28.026499999999999
 21
99.779200000000003
 31
0.0
  0
LINE
  5
18E
  8
0
 62
     7
 10
28.026499999999999
 20
99.779200000000003
 30
0.0
 11
26.841899999999999
 21
99.779200000000003
 31
0.0
  0
LINE
  5
18F
  8
0
 62
     7
 10
26.8492
 20
69.974500000000006
 30
0.0
 11
27.441400000000002
 21
67.7637
 31
0.0
  0
LINE
  5
190
  8
0
 62
     7
 10
27.441400000000002
 20
67.7637
 30
0.0
 11
28.033799999999999
 21
69.974500000000006
 31
0.0
  0
LINE
  5
191
  8
0
 62
     7
 10
28.033799999999999
 20
69.974500000000006
 30
0.0
 11
26.8492
 21
69.974500000000006
 31
0.0
  0
LINE
  5
192
  8
0
 62
     7
 10
28.026399999999999
 20
93.691000000000017
 30
0.0
 11
27.434200000000001
 21
95.901700000000005
 31
0.0
  0
LINE
  5
193
  8
0
 62
     7
 10
27.434200000000001
 20
95.901700000000005
 30
0.0
 11
26.841799999999999
 21
93.691000000000017
 31
0.0
  0
LINE
  5
194
  8
0
 62
     7
 10
26.841799999999999
 20
93.691000000000017
 30
0.0
 11
28.026399999999999
 21
93.691000000000017
 31
0.0
  0
LINE
  5
195
  8
0
 62
     7
 10
27.434200000000001
 20
67.7637
 30
0.0
 11
27.434200000000001
 21
103.13800000000001
 31
0.0
  0
LINE
  5
196
  8
0
 62
     7
 10
58.413899999999998
 20
67.7637
 30
0.0
 11
26.5746
 21
67.7637
 31
0.0
  0
LINE
  5
197
  8
0
 62
     7
 10
29.746700000000001
 20
95.901700000000005
 30
0.0
 11
26.5746
 21
95.901700000000005
 31
0.0
  0
LINE
  5
198
  8
0
 62
     7
 10
29.746700000000001
 20
97.5685
 30
0.0
 11
26.5746
 21
97.5685
 31
0.0
  0
LINE
  5
199
  8
0
 62
     7
 10
174.19800000000001
 20
98.112500000000011
 30
0.0
 11
174.78999999999999
 21
95.901700000000005
 31
0.0
  0
LINE
  5
19A
  8
0
 62
     7
 10
174.78999999999999
 20
95.901700000000005
 30
0.0
 11
175.3829999999999
 21
98.112500000000011
 31
0.0
  0
LINE
  5
19B
  8
0
 62
     7
 10
175.3829999999999
 20
98.112500000000011
 30
0.0
 11
174.19800000000001
 21
98.112500000000011
 31
0.0
  0
LINE
  5
19C
  8
0
 62
     7
 10
175.36799999999999
 20
90.357500000000002
 30
0.0
 11
174.7759999999999
 21
92.568200000000004
 31
0.0
  0
LINE
  5
19D
  8
0
 62
     7
 10
174.7759999999999
 20
92.568200000000004
 30
0.0
 11
174.18299999999999
 21
90.357500000000002
 31
0.0
  0
LINE
  5
19E
  8
0
 62
     7
 10
174.18299999999999
 20
90.357500000000002
 30
0.0
 11
175.36799999999999
 21
90.357500000000002
 31
0.0
  0
LINE
  5
19F
  8
0
 62
     7
 10
174.78299999999999
 20
88.297700000000006
 30
0.0
 11
174.78299999999999
 21
121.735
 31
0.0
  0
LINE
  5
1A0
  8
0
 62
     7
 10
100.845
 20
65.778999999999996
 30
0.0
 11
101.437
 21
63.568300000000001
 31
0.0
  0
LINE
  5
1A1
  8
0
 62
     7
 10
101.437
 20
63.568300000000001
 30
0.0
 11
102.029
 21
65.778999999999996
 31
0.0
  0
LINE
  5
1A2
  8
0
 62
     7
 10
102.029
 20
65.778999999999996
 30
0.0
 11
100.845
 21
65.778999999999996
 31
0.0
  0
LINE
  5
1A3
  8
0
 62
     7
 10
102.015
 20
95.357699999999994
 30
0.0
 11
101.423
 21
97.5685
 31
0.0
  0
LINE
  5
1A4
  8
0
 62
     7
 10
101.423
 20
97.5685
 30
0.0
 11
100.83
 21
95.357699999999994
 31
0.0
  0
LINE
  5
1A5
  8
0
 62
     7
 10
100.83
 20
95.357699999999994
 30
0.0
 11
102.015
 21
95.357699999999994
 31
0.0
  0
LINE
  5
1A6
  8
0
 62
     7
 10
101.43000000000001
 20
63.568300000000001
 30
0.0
 11
101.43000000000001
 21
97.5685
 31
0.0
  0
LINE
  5
1A7
  8
0
 62
     7
 10
70.467100000000002
 20
63.568300000000001
 30
0.0
 11
101.889
 21
63.568300000000001
 31
0.0
  0
LINE
  5
1A8
  8
0
 62
     7
 10
170.375
 20
92.568200000000004
 30
0.0
 11
175.31700000000001
 21
92.568200000000004
 31
0.0
  0
LINE
  5
1A9
  8
0
 62
     7
 10
171.21299999999999
 20
95.901700000000005
 30
0.0
 11
175.22999999999999
 21
95.901700000000005
 31
0.0
  0
LINE
  5
1AA
  8
0
 62
     7
 10
96.505700000000004
 20
97.5685
 30
0.0
 11
101.889
 21
97.5685
 31
0.0
  0
LINE
  5
1AB
  8
0
  6
AIGENLINE001
 62
     7
 10
63.247199999999999
 20
62.143000000000001
 30
0.0
 11
63.247199999999999
 21
99.919399999999996
 31
0.0
  0
LINE
  5
1AC
  8
0
 62
     7
 10
30.746600000000001
 20
95.901700000000005
 30
0.0
 11
30.746600000000001
 21
96.901499999999999
 31
0.0
  0
LINE
  5
1AD
  8
0
  6
AIGENLINE001
 62
     7
 10
169.35900000000001
 20
92.568200000000004
 30
0.0
 11
165.41200000000001
 21
92.568200000000004
 31
0.0
  0
LINE
  5
1AE
  8
0
 62
     7
 10
95.747000000000014
 20
95.901700000000005
 30
0.0
 11
30.746600000000001
 21
95.901700000000005
 31
0.0
  0
LINE
  5
1AF
  8
0
 62
     7
 10
95.747000000000014
 20
96.901499999999999
 30
0.0
 11
95.747000000000014
 21
95.901700000000005
 31
0.0
  0
LINE
  5
1B0
  8
0
 62
     7
 10
57.83039999999999
 20
63.568300000000001
 30
0.0
 11
68.663600000000002
 21
63.568300000000001
 31
0.0
  0
LINE
  5
1B1
  8
0
  6
AIGENLINE001
 62
     7
 10
58.824300000000001
 20
89.734999999999985
 30
0.0
 11
67.468100000000007
 21
89.734999999999985
 31
0.0
  0
LINE
  5
1B2
  8
0
 62
     7
 10
31.4133
 20
97.5685
 30
0.0
 11
95.081100000000006
 21
97.5685
 31
0.0
  0
LINE
  5
1B3
  8
0
 62
     7
 10
116.76000000000001
 20
173.024
 30
0.0
 11
115.616
 21
171.042
 31
0.0
  0
LINE
  5
1B4
  8
0
 62
     7
 10
115.616
 20
171.042
 30
0.0
 11
117.598
 21
172.18700000000001
 31
0.0
  0
LINE
  5
1B5
  8
0
 62
     7
 10
117.598
 20
172.18700000000001
 30
0.0
 11
116.76000000000001
 21
173.024
 31
0.0
  0
LINE
  5
1B6
  8
0
 62
     7
 10
158.666
 20
213.255
 30
0.0
 11
159.81
 21
215.23699999999999
 31
0.0
  0
LINE
  5
1B7
  8
0
 62
     7
 10
159.81
 20
215.23699999999999
 30
0.0
 11
157.828
 21
214.09299999999999
 31
0.0
  0
LINE
  5
1B8
  8
0
 62
     7
 10
157.828
 20
214.09299999999999
 30
0.0
 11
158.666
 21
213.255
 31
0.0
  0
LINE
  5
1B9
  8
0
 62
     7
 10
66.988900000000001
 20
197.709
 30
0.0
 11
65.844599999999986
 21
195.72800000000001
 31
0.0
  0
LINE
  5
1BA
  8
0
 62
     7
 10
65.844599999999986
 20
195.72800000000001
 30
0.0
 11
67.826599999999985
 21
196.87200000000001
 31
0.0
  0
LINE
  5
1BB
  8
0
 62
     7
 10
67.826599999999985
 20
196.87200000000001
 30
0.0
 11
66.988900000000001
 21
197.709
 31
0.0
  0
LINE
  5
1BC
  8
0
 62
     7
 10
59.509900000000002
 20
188.565
 30
0.0
 11
60.654200000000003
 21
190.547
 31
0.0
  0
LINE
  5
1BD
  8
0
 62
     7
 10
60.654200000000003
 20
190.547
 30
0.0
 11
58.672199999999989
 21
189.40299999999999
 31
0.0
  0
LINE
  5
1BE
  8
0
 62
     7
 10
58.672199999999989
 20
189.40299999999999
 30
0.0
 11
59.509900000000002
 21
188.565
 31
0.0
  0
LINE
  5
1BF
  8
0
 62
     7
 10
56.185699999999997
 20
186.07900000000001
 30
0.0
 11
69.145200000000003
 21
199.03800000000001
 31
0.0
  0
LINE
  5
1C0
  8
0
 62
     7
 10
115.616
 20
171.042
 30
0.0
 11
159.81
 21
215.23699999999999
 31
0.0
  0
LINE
  5
1C1
  8
0
  6
AIGENLINE001
 62
     7
 10
172.25999999999999
 20
193.13999999999999
 30
0.0
 11
103.461
 21
193.13999999999999
 31
0.0
  0
LINE
  5
1C2
  8
0
  6
AIGENLINE001
 62
     7
 10
137.71299999999999
 20
227.81100000000001
 30
0.0
 11
137.71299999999999
 21
158.13
 31
0.0
  0
LINE
  5
1C3
  8
0
  6
AIGENLINE001
 62
     7
 10
99.221400000000003
 20
193.13999999999999
 30
0.0
 11
27.9526
 21
193.13999999999999
 31
0.0
  0
LINE
  5
1C4
  8
0
  6
AIGENLINE001
 62
     7
 10
63.247199999999999
 20
228.69300000000001
 30
0.0
 11
63.247199999999999
 21
157.77699999999999
 31
0.0
  0
ARC
  5
1C5
  8
0
 62
     7
 10
137.713303
 20
193.14024499999999
 30
0.0
 40
31.249717
 50
359.99985199999998
 51
89.999821999999995
  0
ARC
  5
1C6
  8
0
 62
     7
 10
137.71297000000001
 20
193.13972799999999
 30
0.0
 40
31.250233000000001
 50
89.999209999999977
 51
179.99918099999999
  0
ARC
  5
1C7
  8
0
 62
     7
 10
137.713303
 20
193.14024499999999
 30
0.0
 40
31.250567
 50
180.000168
 51
270.00017800000001
  0
ARC
  5
1C8
  8
0
 62
     7
 10
137.71295900000001
 20
193.13973899999999
 30
0.0
 40
31.250060999999999
 50
270.000809
 51
0.00078
  0
ARC
  5
1C9
  8
0
 62
     7
 10
63.247098999999999
 20
193.14007699999999
 30
0.0
 40
3.666725
 50
359.99866400000002
 51
89.998633999999996
  0
ARC
  5
1CA
  8
0
 62
     7
 10
63.247100000000003
 20
193.139905
 30
0.0
 40
3.6668970000000001
 50
89.998654000000002
 51
179.99862400000001
  0
ARC
  5
1CB
  8
0
 62
     7
 10
63.247011999999991
 20
193.140163
 30
0.0
 40
3.666809999999999
 50
180.00270199999991
 51
270.00271099999998
  0
ARC
  5
1CC
  8
0
 62
     7
 10
63.247184999999988
 20
193.13999200000001
 30
0.0
 40
3.6666389999999991
 50
270.00002000000001
 51
359.99999000000003
  0
ARC
  5
1CD
  8
0
 62
     7
 10
63.247356999999987
 20
193.13981899999999
 30
0.0
 40
5.5833300000000001
 50
0.001778
 51
90.001747999999992
  0
ARC
  5
1CE
  8
0
 62
     7
 10
63.460782999999999
 20
192.92639399999999
 30
0.0
 40
5.8006890000000002
 50
92.110259999999982
 51
177.88971100000001
  0
ARC
  5
1CF
  8
0
 62
     7
 10
63.461348999999998
 20
193.35397699999999
 30
0.0
 40
5.8012689999999996
 50
182.11390700000001
 51
267.88435500000003
  0
ARC
  5
1D0
  8
0
 62
     7
 10
63.247269999999993
 20
193.14007899999999
 30
0.0
 40
5.5834159999999997
 50
269.99913600000002
 51
359.99910599999998
  0
ARC
  5
1D1
  8
0
 62
     7
 10
63.24718
 20
193.140331
 30
0.0
 40
30.333228999999999
 50
359.99935900000003
 51
89.999329000000003
  0
ARC
  5
1D2
  8
0
 62
     7
 10
63.247191000000001
 20
193.13964200000001
 30
0.0
 40
30.333918000000001
 50
89.999348999999995
 51
179.99932000000001
  0
ARC
  5
1D3
  8
0
 62
     7
 10
63.24718
 20
193.140331
 30
0.0
 40
30.333908000000001
 50
180.00066100000001
 51
270.00067100000001
  0
ARC
  5
1D4
  8
0
 62
     7
 10
63.24718
 20
193.13965300000001
 30
0.0
 40
30.333228999999999
 50
270.00067100000001
 51
0.000641
  0
ARC
  5
1D5
  8
0
 62
     7
 10
63.247351999999999
 20
193.13998599999999
 30
0.0
 40
32.500036000000001
 50
0.000314
 51
90.000284000000008
  0
ARC
  5
1D6
  8
0
 62
     7
 10
63.247018999999987
 20
193.13998599999999
 30
0.0
 40
32.500036000000001
 50
89.999696
 51
179.99966699999999
  0
ARC
  5
1D7
  8
0
 62
     7
 10
63.247351999999999
 20
193.13998599999999
 30
0.0
 40
32.500368999999999
 50
179.99966699999999
 51
269.99971600000009
  0
ARC
  5
1D8
  8
0
 62
     7
 10
63.247007000000004
 20
193.13999699999999
 30
0.0
 40
32.500380999999997
 50
270.00032399999998
 51
0.000294
  0
LINE
  5
1DC
  8
_________2
 62
     7
 10
205.30099999999999
 20
127.411
 30
0.0
 11
183.55099999999999
 21
127.411
 31
0.0
  0
LINE
  5
1DD
  8
_________2
 62
     7
 10
100.3
 20
-4.0910799999999998
 30
0.0
 11
100.3
 21
-21.071000000000002
 31
0.0
  0
LINE
  5
1DE
  8
_________2
 62
     7
 10
100.3
 20
275.93099999999998
 30
0.0
 11
100.3
 21
258.911
 31
0.0
  0
LINE
  5
1DF
  8
_________2
 62
     7
 10
17.049399999999999
 20
127.411
 30
0.0
 11
-4.7010300000000003
 21
127.411
 31
0.0
  0
LINE
  5
1E0
  8
_________2
 62
     7
 10
76.740799999999993
 20
29.8047
 30
0.0
 11
74.554599999999994
 21
29.8047
 31
0.0
  0
LINE
  5
1E1
  8
_________2
 62
     7
 10
77.233500000000006
 20
29.8047
 30
0.0
 11
76.981300000000005
 21
29.8047
 31
0.0
  0
LINE
  5
1E2
  8
_________2
 62
     7
 10
77.726200000000006
 20
29.8047
 30
0.0
 11
80.6511
 21
29.8047
 31
0.0
  0
LINE
  5
1E3
  8
_________2
 62
     7
 10
77.233500000000006
 20
29.8047
 30
0.0
 11
77.485699999999994
 21
29.8047
 31
0.0
  0
LINE
  5
1E4
  8
_________2
 62
     7
 10
70.837299999999999
 20
29.8047
 30
0.0
 11
68.650300000000001
 21
29.8047
 31
0.0
  0
LINE
  5
1E5
  8
_________2
 62
     7
 10
71.329300000000003
 20
29.8047
 30
0.0
 11
71.077799999999996
 21
29.8047
 31
0.0
  0
LINE
  5
1E6
  8
_________2
 62
     7
 10
71.329300000000003
 20
30.2974
 30
0.0
 11
71.329300000000003
 21
32.484400000000001
 31
0.0
  0
LINE
  5
1E7
  8
_________2
 62
     7
 10
71.329300000000003
 20
29.8047
 30
0.0
 11
71.329300000000003
 21
30.057300000000001
 31
0.0
  0
LINE
  5
1E8
  8
_________2
 62
     7
 10
71.821899999999999
 20
29.8047
 30
0.0
 11
74.008899999999997
 21
29.8047
 31
0.0
  0
LINE
  5
1E9
  8
_________2
 62
     7
 10
71.329300000000003
 20
29.8047
 30
0.0
 11
71.581400000000002
 21
29.8047
 31
0.0
  0
LINE
  5
1EA
  8
_________2
 62
     7
 10
71.329300000000003
 20
29.312799999999999
 30
0.0
 11
71.329300000000003
 21
27.126200000000001
 31
0.0
  0
LINE
  5
1EB
  8
_________2
 62
     7
 10
71.329300000000003
 20
29.8047
 30
0.0
 11
71.329300000000003
 21
29.5532
 31
0.0
  0
LINE
  5
1EC
  8
_________2
 62
     7
 10
75.040300000000002
 20
28.5852
 30
0.0
 11
80.218299999999985
 21
27.720400000000001
 31
0.0
  0
LINE
  5
1ED
  8
_________2
 62
     7
 10
75.040300000000002
 20
31.024699999999999
 30
0.0
 11
80.218299999999985
 21
31.8901
 31
0.0
  0
LINE
  5
1EE
  8
_________2
 62
     7
 10
80.218299999999985
 20
27.720400000000001
 30
0.0
 11
80.218299999999985
 21
31.8901
 31
0.0
  0
LINE
  5
1EF
  8
_________2
 62
     7
 10
75.040300000000002
 20
28.5852
 30
0.0
 11
75.040300000000002
 21
31.024699999999999
 31
0.0
  0
ARC
  5
1F0
  8
_________2
 62
     7
 10
71.282674
 20
29.757801000000001
 30
0.0
 40
1.267714
 50
2.1220840000000001
 51
87.894083999999992
  0
ARC
  5
1F1
  8
_________2
 62
     7
 10
71.375812999999994
 20
29.758545999999999
 30
0.0
 40
1.2669680000000001
 50
92.105782999999988
 51
177.91037
  0
ARC
  5
1F2
  8
_________2
 62
     7
 10
71.376186000000004
 20
29.851671
 30
0.0
 40
1.2673680000000001
 50
182.12203600000001
 51
267.877993
  0
ARC
  5
1F3
  8
_________2
 62
     7
 10
71.282368999999989
 20
29.852347999999999
 30
0.0
 40
1.2680439999999991
 50
272.11916400000001
 51
357.84848499999998
  0
ARC
  5
1F4
  8
_________2
 62
     7
 10
71.248890000000003
 20
29.724731999999999
 30
0.0
 40
2.1668310000000002
 50
2.1161439999999989
 51
87.874379000000005
  0
ARC
  5
1F5
  8
_________2
 62
     7
 10
71.408928000000003
 20
29.726146
 30
0.0
 40
2.165392999999999
 50
92.108508999999998
 51
177.91986499999999
  0
ARC
  5
1F6
  8
_________2
 62
     7
 10
71.409267
 20
29.884751999999999
 30
0.0
 40
2.1657829999999998
 50
182.117133
 51
267.88289700000001
  0
ARC
  5
1F7
  8
_________2
 62
     7
 10
71.249286999999995
 20
29.885429999999999
 30
0.0
 40
2.1664590000000001
 50
272.11546800000002
 51
357.86560400000002
  0
TEXT
  5
1F8
  8
_________2
 62
     7
 10
104.605
 20
1.6794899999999999
 30
0.0
 40
3.0923400000000001
  1
図番
 41
0.5
  0
LINE
  5
1F9
  8
_________2
 62
     7
 10
103.55
 20
5.9087199999999989
 30
0.0
 11
183.55099999999999
 21
5.9087199999999989
 31
0.0
  0
TEXT
  5
1FA
  8
_________2
 62
     7
 10
104.605
 20
11.6793
 30
0.0
 40
3.0923400000000001
  1
品番
 41
0.5
  0
TEXT
  5
1FB
  8
_________2
 62
     7
 10
104.605
 20
31.8184
 30
0.0
 40
3.0923400000000001
  1
名称
 41
0.5
  0
TEXT
  5
1FC
  8
_________2
 62
     7
 10
91.844958333333338
 20
26.822299999999998
 30
0.0
 40
3.6545800000000002
  1
mm
 41
0.5
 72
     1
 11
93.367699999999985
 21
26.822299999999998
 31
0.0
  0
TEXT
  5
1FD
  8
_________2
 62
     7
 10
85.642999999999986
 20
31.8184
 30
0.0
 40
3.0923400000000001
  1
単位
 41
0.5
  0
TEXT
  5
1FE
  8
_________2
 62
     7
 10
85.642999999999986
 20
19.410799999999998
 30
0.0
 40
3.0923400000000001
  1
尺度
 41
0.5
  0
TEXT
  5
1FF
  8
_________2
 62
     7
 10
90.548558666666679
 20
13.2182
 30
0.0
 40
3.6545800000000002
  1
1 ： 6
 41
0.5
 72
     1
 11
93.959500000000006
 21
13.2182
 31
0.0
  0
TEXT
  5
200
  8
_________2
 62
     7
 10
154.8420046666667
 20
39.575400000000002
 30
0.0
 40
4.2168199999999993
  1
※仕上げ色：ホワイト
 41
0.5
 72
     2
 11
179.15899999999999
 21
39.575400000000002
 31
0.0
  0
TEXT
  5
201
  8
_________2
 62
     7
 10
133.87473750000001
 20
9.1082000000000001
 30
0.0
 40
3.9357000000000002
  1
CEL330X-WH
 41
0.5
 72
     1
 11
143.55000000000001
 21
9.1082000000000001
 31
0.0
  0
TEXT
  5
202
  8
_________2
 62
     7
 10
137.15448749999999
 20
-0.8926299999999999
 30
0.0
 40
3.9357000000000002
  1
CEL330X
 41
0.5
 72
     1
 11
143.55000000000001
 21
-0.8926299999999999
 31
0.0
  0
TEXT
  5
203
  8
_________2
 62
     7
 10
24.586600000000001
 20
0.707627
 30
0.0
 40
3.9357000000000002
  1
オーバーフロー付、実容量4.7L
 41
0.5
  0
TEXT
  5
204
  8
_________2
 62
     7
 10
109.179
 20
24.9361
 30
0.0
 40
3.9357000000000002
  1
セラ・オリジナルコレクション
 41
0.5
  0
TEXT
  5
205
  8
_________2
 62
     7
 10
109.179
 20
20.016500000000001
 30
0.0
 40
3.9357000000000002
  1
ホーロー製洗面器
 41
0.5
  0
TEXT
  5
206
  8
_________2
 62
     7
 10
39.364190666666673
 20
13.603400000000001
 30
0.0
 40
3.6545800000000002
  1
平井
 41
0.5
 72
     1
 11
41.313299999999998
 21
13.603400000000001
 31
0.0
  0
TEXT
  5
207
  8
_________2
 62
     7
 10
20.851100333333338
 20
13.603400000000001
 30
0.0
 40
3.6545800000000002
  1
福田
 41
0.5
 72
     1
 11
22.7393
 21
13.603400000000001
 31
0.0
  0
TEXT
  5
208
  8
_________2
 62
     7
 10
67.785600000000002
 20
13.2182
 30
0.0
 40
3.6545800000000002
  1
16.07.25
 41
0.5
  0
TEXT
  5
209
  8
_________2
 62
     7
 10
66.5929
 20
19.410799999999998
 30
0.0
 40
3.0923400000000001
  1
日付
 41
0.5
  0
TEXT
  5
20A
  8
_________2
 62
     7
 10
29.639199999999999
 20
19.410799999999998
 30
0.0
 40
3.0923400000000001
  1
検図
 41
0.5
  0
TEXT
  5
20B
  8
_________2
 62
     7
 10
18.020900000000001
 20
5.21143
 30
0.0
 40
3.0923400000000001
  1
備考
 41
0.5
  0
TEXT
  5
20C
  8
_________2
 62
     7
 10
18.020900000000001
 20
19.410799999999998
 30
0.0
 40
3.0923400000000001
  1
製図
 41
0.5
  0
TEXT
  5
20D
  8
_________2
 62
     7
 10
23.788265333333339
 20
27.936800000000002
 30
0.0
 40
4.4979399999999989
  1
セラトレーディング株式会社
 41
0.5
 72
     1
 11
41.180300000000003
 21
27.936800000000002
 31
0.0
  0
LINE
  5
20E
  8
_________2
 62
     7
 10
183.55099999999999
 20
-4.0910799999999998
 30
0.0
 11
17.049399999999999
 21
-4.0910799999999998
 31
0.0
  0
LINE
  5
20F
  8
_________2
 62
     7
 10
17.049399999999999
 20
-4.0910799999999998
 30
0.0
 11
17.049399999999999
 21
258.911
 31
0.0
  0
LINE
  5
210
  8
_________2
 62
     7
 10
17.049399999999999
 20
258.911
 30
0.0
 11
183.55099999999999
 21
258.911
 31
0.0
  0
LINE
  5
211
  8
_________2
 62
     7
 10
183.55099999999999
 20
258.911
 30
0.0
 11
183.55099999999999
 21
-4.0910799999999998
 31
0.0
  0
LINE
  5
212
  8
_________2
 62
     7
 10
65.549700000000001
 20
9.4092999999999982
 30
0.0
 11
65.549700000000001
 21
35.909100000000002
 31
0.0
  0
LINE
  5
213
  8
_________2
 62
     7
 10
84.549599999999984
 20
9.4092999999999982
 30
0.0
 11
84.549599999999984
 21
35.909100000000002
 31
0.0
  0
LINE
  5
214
  8
_________2
 62
     7
 10
103.55
 20
-4.0910799999999998
 30
0.0
 11
103.55
 21
35.909100000000002
 31
0.0
  0
LINE
  5
215
  8
_________2
 62
     7
 10
28.549199999999999
 20
9.4092999999999982
 30
0.0
 11
28.549199999999999
 21
23.409199999999998
 31
0.0
  0
LINE
  5
216
  8
_________2
 62
     7
 10
17.049399999999999
 20
9.4092999999999982
 30
0.0
 11
103.55
 21
9.4092999999999982
 31
0.0
  0
LINE
  5
217
  8
_________2
 62
     7
 10
17.049399999999999
 20
23.409199999999998
 30
0.0
 11
103.55
 21
23.409199999999998
 31
0.0
  0
LINE
  5
218
  8
_________2
 62
     7
 10
103.55
 20
15.9085
 30
0.0
 11
183.55099999999999
 21
15.9085
 31
0.0
  0
LINE
  5
219
  8
_________2
 62
     7
 10
17.049399999999999
 20
35.909100000000002
 30
0.0
 11
183.55099999999999
 21
35.909100000000002
 31
0.0
  0
ENDSEC
  0
EOF
